  0
SECTION
  2
HEADER
  9
$ACADVER
  1
AC1009
  9
$INSBASE
 10
0
 20
0
 30
0
  9
$EXTMIN
 10
0
 20
0
  9
$EXTMAX
 10
4205
 20
2970
  9
$LIMMIN
 10
0
 20
0
  9
$LIMMAX
 10
4205
 20
2970
  9
$LTSCALE
 40
5
  0
ENDSEC
  0
SECTION
  2
TABLES
  0
TABLE
  2
LTYPE
 70
     9
  0
LTYPE
  2
CONTINUOUS
 70
    64
  3
実線
 72
    65
 73
     0
 40
0.0
  0
LTYPE
  2
DASHED1
 70
    64
  3
--  --  --  --  --  --  --  --  
 72
    65
 73
     2
 40
2.5
 49
1.25
 49
-1.25
  0
LTYPE
  2
DASHED2
 70
    64
  3
----    ----    ----    ----    
 72
    65
 73
     2
 40
5.0
 49
2.5
 49
-2.5
  0
LTYPE
  2
DASHED3
 70
    64
  3
------  ------  ------  ------  
 72
    65
 73
     2
 40
5.0
 49
3.75
 49
-1.25
  0
LTYPE
  2
CENTER1
 70
    64
  3
----- - ----- - ----- - ----- - 
 72
    65
 73
     4
 40
10.0
 49
6.25
 49
-1.25
 49
1.25
 49
-1.25
  0
LTYPE
  2
CENTER2
 70
    64
  3
----------  --  ----------  --  
 72
    65
 73
     4
 40
20.0
 49
12.5
 49
-2.5
 49
2.5
 49
-2.5
  0
LTYPE
  2
PHANTOM1
 70
    64
  3
--- - - --- - - --- - - --- - - 
 72
    65
 73
     6
 40
10.0
 49
3.25
 49
-1.25
 49
1.25
 49
-1.25
 49
1.25
 49
-1.25
  0
LTYPE
  2
PHANTOM2
 70
    64
  3
--------  -  -  --------  -  -  
 72
    65
 73
     6
 40
20.0
 49
10.0
 49
-2.5
 49
1.25
 49
-2.5
 49
1.25
 49
-2.5
  0
LTYPE
  2
DOT
 70
    64
  3
-   -   -   -   -   -   -   -   
 72
    65
 73
     2
 40
2.5
 49
0.625
 49
-1.875
  0
LTYPE
  2
DUMMY
 70
    64
  3
ダミー
 72
    65
 73
     0
 40
0.0
  0
LTYPE
  2
RAND1
 70
    64
  3
ランダム線1
 72
    65
 73
     4
 40
10.0
 49
1.0
 49
-2.0
 49
3.0
 49
-4.0
  0
LTYPE
  2
RAND2
 70
    64
  3
ランダム線2
 72
    65
 73
     4
 40
14.0
 49
2.0
 49
-3.0
 49
4.0
 49
-5.0
  0
LTYPE
  2
RAND3
 70
    64
  3
ランダム線3
 72
    65
 73
     4
 40
18.0
 49
3.0
 49
-4.0
 49
5.0
 49
-6.0
  0
LTYPE
  2
RAND4
 70
    64
  3
ランダム線4
 72
    65
 73
     4
 40
22.0
 49
4.0
 49
-5.0
 49
6.0
 49
-7.0
  0
LTYPE
  2
RAND5
 70
    64
  3
ランダム線5
 72
    65
 73
     4
 40
26.0
 49
5.0
 49
-6.0
 49
7.0
 49
-8.0
  0
LTYPE
  2
LONG1
 70
    64
  3
----------  --  ----------  --  
 72
    65
 73
     4
 40
40.0
 49
32.5
 49
-2.5
 49
2.5
 49
-2.5
  0
LTYPE
  2
LONG2
 70
    64
  3
--------  -  -  --------  -  -  
 72
    65
 73
     6
 40
40.0
 49
30.0
 49
-2.5
 49
1.25
 49
-2.5
 49
1.25
 49
-2.5
  0
LTYPE
  2
LONG3
 70
    64
  3
+++++++++++++++..+++++++++++++++
 72
    65
 73
     2
 40
40.0
 49
37.5
 49
-2.5
  0
LTYPE
  2
LONG4
 70
    64
  3
+++++++++++++++..+++++++++++++++
 72
    65
 73
     2
 40
80.0
 49
75.0
 49
-5.0
  0
LTYPE
  2
LONG5
 70
    64
  3
----------  --  ----------  --  
 72
    65
 73
     4
 40
60.0
 49
37.5
 49
-7.5
 49
7.5
 49
-7.5
  0
LTYPE
  2
dashed
 70
   64
  3
-------   -------------   ------
 72
   65
 73
    2
 40
7.5
 49
6
 49
-1.5
  0
LTYPE
  2
dashed_spaced
 70
   64
  3
----        --------        ----
 72
   65
 73
    2
 40
12
 49
6
 49
-6
  0
LTYPE
  2
long_dashed_dotted
 70
   64
  3
------------- --- --------------
 72
   65
 73
    4
 40
15.25
 49
12
 49
-1.5
 49
0.25
 49
-1.5
  0
LTYPE
  2
long_dashed_double-dotted
 70
   64
  3
----------- --- --- ------------
 72
   65
 73
    6
 40
17
 49
12
 49
-1.5
 49
0.25
 49
-1.5
 49
0.25
 49
-1.5
  0
LTYPE
  2
long_dashed_triplicate-dotted
 70
   64
  3
--------- --- --- --- ----------
 72
   65
 73
    8
 40
18.75
 49
12
 49
-1.5
 49
0.25
 49
-1.5
 49
0.25
 49
-1.5
 49
0.25
 49
-1.5
  0
LTYPE
  2
dotted
 70
   64
  3
   -       -       -       -    
 72
   65
 73
    2
 40
1.75
 49
0.25
 49
-1.5
  0
LTYPE
  2
chain
 70
   64
  3
-------------- -- --------------
 72
   65
 73
    4
 40
18.5
 49
12
 49
-1.5
 49
3.5
 49
-1.5
  0
LTYPE
  2
chain_double_dash
 70
   64
  3
------------ -- -- -------------
 72
   65
 73
    6
 40
23.5
 49
12
 49
-1.5
 49
3.5
 49
-1.5
 49
3.5
 49
-1.5
  0
LTYPE
  2
dashed_dotted
 70
   64
  3
-----------     -     ----------
 72
   65
 73
    4
 40
9.25
 49
6
 49
-1.5
 49
0.25
 49
-1.5
  0
LTYPE
  2
double-dashed_dotted
 70
   64
  3
------   -----------   -   -----
 72
   65
 73
    6
 40
16.75
 49
6
 49
-1.5
 49
6
 49
-1.5
 49
0.25
 49
-1.5
  0
LTYPE
  2
dashed_double-dotted
 70
   64
  3
---------    -    -    ---------
 72
   65
 73
    6
 40
11
 49
6
 49
-1.5
 49
0.25
 49
-1.5
 49
0.25
 49
-1.5
  0
LTYPE
  2
double-dashed_double-dotted
 70
   64
  3
-----   ---------   -   -   ----
 72
   65
 73
    8
 40
18.5
 49
6
 49
-1.5
 49
6
 49
-1.5
 49
0.25
 49
-1.5
 49
0.25
 49
-1.5
  0
LTYPE
  2
dashed_triplicate-dotted
 70
   64
  3
-------    -    -    -    ------
 72
   65
 73
    8
 40
12.75
 49
6
 49
-1.5
 49
0.25
 49
-1.5
 49
0.25
 49
-1.5
 49
0.25
 49
-1.5
  0
LTYPE
  2
double-dashed_triplicate-dotted
 70
   64
  3
-----  ---------  -  -  -  -----
 72
   65
 73
   10
 40
20.25
 49
6
 49
-1.5
 49
6
 49
-1.5
 49
0.25
 49
-1.5
 49
0.25
 49
-1.5
 49
0.25
 49
-1.5
  0
LTYPE
  2
undefined
 70
   64
  3
--------------------------------
 72
   65
 73
    0
 40
0
  0
LTYPE
  2
PLine1
 70
   64
  3
------     -----------     -----
 72
   65
 73
    2
 40
30
 49
21
 49
-9
  0
LTYPE
  2
PLine2
 70
   64
  3
------------   ---   -----------
 72
   65
 73
    4
 40
100
 49
70
 49
-10
 49
10
 49
-10
  0
LTYPE
  2
PLine3
 70
   64
  3
---------   ---   ---   --------
 72
   65
 73
    6
 40
100
 49
50
 49
-10
 49
10
 49
-10
 49
10
 49
-10
  0
LTYPE
  2
PLine4
 70
   64
  3
------     -----------     -----
 72
   65
 73
    2
 40
50
 49
35
 49
-15
  0
LTYPE
  2
PLine5
 70
   64
  3
------------   ---   -----------
 72
   65
 73
    4
 40
150
 49
105
 49
-15
 49
15
 49
-15
  0
LTYPE
  2
PLine6
 70
   64
  3
---------   ---   ---   --------
 72
   65
 73
    6
 40
150
 49
75
 49
-15
 49
15
 49
-15
 49
15
 49
-15
  0
LTYPE
  2
PLine7
 70
   64
  3
------     -----------     -----
 72
   65
 73
    2
 40
70
 49
49
 49
-21
  0
LTYPE
  2
PLine8
 70
   64
  3
------------   ---   -----------
 72
   65
 73
    4
 40
200
 49
140
 49
-20
 49
20
 49
-20
  0
LTYPE
  2
PLine9
 70
   64
  3
---------   ---   ---   --------
 72
   65
 73
    6
 40
200
 49
100
 49
-20
 49
20
 49
-20
 49
20
 49
-20
  0
LTYPE
  2
PLine10
 70
   64
  3
------     -----------     -----
 72
   65
 73
    2
 40
90
 49
63
 49
-27
  0
LTYPE
  2
PLine11
 70
   64
  3
------------   ---   -----------
 72
   65
 73
    4
 40
250
 49
175
 49
-25
 49
25
 49
-25
  0
LTYPE
  2
PLine12
 70
   64
  3
---------   ---   ---   --------
 72
   65
 73
    6
 40
250
 49
125
 49
-25
 49
25
 49
-25
 49
25
 49
-25
  0
LTYPE
  2
PLine13
 70
   64
  3
------     -----------     -----
 72
   65
 73
    2
 40
110
 49
77
 49
-33
  0
LTYPE
  2
PLine14
 70
   64
  3
------------   ---   -----------
 72
   65
 73
    4
 40
300
 49
210
 49
-30
 49
30
 49
-30
  0
LTYPE
  2
PLine15
 70
   64
  3
---------   ---   ---   --------
 72
   65
 73
    6
 40
300
 49
150
 49
-30
 49
30
 49
-30
 49
30
 49
-30
  0
LTYPE
  2
_
 70
   64
  3
                                
 72
   65
 73
    0
 40
0
  0
ENDTAB
  0
TABLE
  2
STYLE
  5
3
100
AcDbSymbolTable
 70
     1
  0
STYLE
  5
10
100
AcDbSymbolTableRecord
100
AcDbTextStyleTableRecord
  2
STANDARD
 70
     0
 40
0.0
 41
1.0
 50
0.0
 71
     0
 42
0.2
  3
txt
  4
bigfont.shx
  0
STYLE
  5
26
100
AcDbSymbolTableRecord
100
AcDbTextStyleTableRecord
  2
TATEGAKI
 70
    68
 40
0.0
 41
1.0
 50
0.0
 71
     0
 42
1.0
  3
txt
  4
bigfont.shx
  0
ENDTAB
  0
TABLE
  2
LAYER
 70
    2
  0
LAYER
  2
_0-1_Layer1
 70
   64
 62
    7
  6
CONTINUOUS
  0
LAYER
  2
ADD_LINE
 70
   64
 62
    7
  6
CONTINUOUS
  0
ENDTAB
  0
ENDSEC
  0
SECTION
  2
BLOCKS
  0
BLOCK
  2
-000-DIM_0
 70
   64
 10
0
 20
0
 30
0
  0
CIRCLE
  8
_0-1_Layer1
  6
CONTINUOUS
 62
    3
 10
160.85130399999912
 20
0
 40
5
  0
CIRCLE
  8
_0-1_Layer1
  6
CONTINUOUS
 62
    3
 10
160.85130399999912
 20
-1170.0000000000002
 40
5
  0
LINE
  8
_0-1_Layer1
  6
CONTINUOUS
 62
    3
 10
160.85130399999912
 20
0
 11
160.85130399999912
 21
-1170.0000000000002
  0
LINE
  8
_0-1_Layer1
  6
CONTINUOUS
 62
    3
 10
0
 20
0
 11
170.85130400000025
 21
0
  0
LINE
  8
_0-1_Layer1
  6
CONTINUOUS
 62
    3
 10
0
 20
-1170.0000000000002
 11
170.85130400000025
 21
-1170.0000000000002
  0
TEXT
  8
_0-1_Layer1
 62
    7
 10
150.85147514571645
 20
-645.0786979999998
 40
30
 41
0.8582679999999999
 50
90.000002999999893
  1
１１７０
  0
ENDBLK
  0
BLOCK
  2
-001-DIM_1
 70
   64
 10
0
 20
0
 30
0
  0
CIRCLE
  8
_0-1_Layer1
  6
CONTINUOUS
 62
    3
 10
12.756947999999966
 20
0
 40
5
  0
CIRCLE
  8
_0-1_Layer1
  6
CONTINUOUS
 62
    3
 10
12.756947999999966
 20
-200
 40
5
  0
LINE
  8
_0-1_Layer1
  6
CONTINUOUS
 62
    3
 10
12.756947999999966
 20
0
 11
12.756947999999966
 21
-200
  0
LINE
  8
_0-1_Layer1
  6
CONTINUOUS
 62
    3
 10
0
 20
0
 11
24.756947999999852
 21
0
  0
LINE
  8
_0-1_Layer1
  6
CONTINUOUS
 62
    3
 10
-85.448317000000316
 20
-200
 11
24.756947999999852
 21
-200
  0
TEXT
  8
_0-1_Layer1
 62
    7
 10
2.7570262020014979
 20
-142.05507000000011
 40
30
 41
0.8582679999999999
 50
90.000003000000106
  1
２００
  0
ENDBLK
  0
BLOCK
  2
-002-DIM_2
 70
   64
 10
0
 20
0
 30
0
  0
CIRCLE
  8
_0-1_Layer1
  6
CONTINUOUS
 62
    3
 10
0
 20
0
 40
5
  0
CIRCLE
  8
_0-1_Layer1
  6
CONTINUOUS
 62
    3
 10
200.00000000000142
 20
0
 40
5
  0
LINE
  8
_0-1_Layer1
  6
CONTINUOUS
 62
    3
 10
0
 20
0
 11
200.00000000000142
 21
0
  0
LINE
  8
_0-1_Layer1
  6
CONTINUOUS
 62
    3
 10
200.00000000000142
 20
-35.161078999999802
 11
200.00000000000142
 21
12.000000000000171
  0
TEXT
  8
_0-1_Layer1
 62
    7
 10
19.914450000000272
 20
10.534513000000061
 40
30
 41
0.8582679999999999
 50
0
  1
２００
  0
ENDBLK
  0
BLOCK
  2
-003-DIM_3
 70
   64
 10
0
 20
0
 30
0
  0
CIRCLE
  8
_0-1_Layer1
  6
CONTINUOUS
 62
    3
 10
0
 20
0
 40
5
  0
CIRCLE
  8
_0-1_Layer1
  6
CONTINUOUS
 62
    3
 10
0
 20
100.00000000000014
 40
5
  0
LINE
  8
_0-1_Layer1
  6
CONTINUOUS
 62
    3
 10
0
 20
0
 11
0
 21
100.00000000000014
  0
TEXT
  8
_0-1_Layer1
 62
    7
 10
-9.2106699999999364
 20
5.2267540000001134
 40
30
 41
0.7495540000000001
 50
90
  1
１００
  0
ENDBLK
  0
BLOCK
  2
-004-DIM_4
 70
   64
 10
0
 20
0
 30
0
  0
CIRCLE
  8
_0-1_Layer1
  6
CONTINUOUS
 62
    3
 10
0
 20
0
 40
5
  0
CIRCLE
  8
_0-1_Layer1
  6
CONTINUOUS
 62
    3
 10
0
 20
65.000000000000142
 40
5
  0
LINE
  8
_0-1_Layer1
  6
CONTINUOUS
 62
    3
 10
0
 20
0
 11
0
 21
65.000000000000142
  0
TEXT
  8
_0-1_Layer1
 62
    7
 10
-7.0151499999997213
 20
2.174870999999996
 40
30
 41
0.7767319999999999
 50
90
  1
６５
  0
ENDBLK
  0
BLOCK
  2
-005-DIM_5
 70
   64
 10
0
 20
0
 30
0
  0
CIRCLE
  8
_0-1_Layer1
  6
CONTINUOUS
 62
    3
 10
0
 20
0
 40
5
  0
CIRCLE
  8
_0-1_Layer1
  6
CONTINUOUS
 62
    3
 10
0
 20
839.99999999999989
 40
5
  0
LINE
  8
_0-1_Layer1
  6
CONTINUOUS
 62
    3
 10
0
 20
0
 11
0
 21
839.99999999999989
  0
TEXT
  8
_0-1_Layer1
 62
    7
 10
-16.454937797998355
 20
324.82970000000012
 40
30
 41
0.8582679999999999
 50
90.000003000000106
  1
８４０
  0
ENDBLK
  0
BLOCK
  2
-006-DIM_6
 70
   64
 10
0
 20
0
 30
0
  0
CIRCLE
  8
_0-1_Layer1
  6
CONTINUOUS
 62
    3
 10
0
 20
0
 40
5
  0
CIRCLE
  8
_0-1_Layer1
  6
CONTINUOUS
 62
    3
 10
0
 20
65
 40
5
  0
LINE
  8
_0-1_Layer1
  6
CONTINUOUS
 62
    3
 10
0
 20
0
 11
0
 21
65
  0
LINE
  8
_0-1_Layer1
  6
CONTINUOUS
 62
    3
 10
3.2335979999999154
 20
65
 11
11.999999999999886
 21
65
  0
TEXT
  8
_0-1_Layer1
 62
    7
 10
-8.0100540000000819
 20
15.943588000000091
 40
30
 41
0.7767319999999999
 50
90
  1
６５
  0
ENDBLK
  0
BLOCK
  2
-007-DIM_7
 70
   64
 10
0
 20
0
 30
0
  0
CIRCLE
  8
_0-1_Layer1
  6
CONTINUOUS
 62
    3
 10
-3.2335979999999154
 20
0
 40
5
  0
CIRCLE
  8
_0-1_Layer1
  6
CONTINUOUS
 62
    3
 10
-3.2335979999999154
 20
100
 40
5
  0
LINE
  8
_0-1_Layer1
  6
CONTINUOUS
 62
    3
 10
-3.2335979999999154
 20
0
 11
-3.2335979999999154
 21
100
  0
LINE
  8
_0-1_Layer1
  6
CONTINUOUS
 62
    3
 10
1.6598410000000285
 20
100
 11
8.7664019999999709
 21
100
  0
TEXT
  8
_0-1_Layer1
 62
    7
 10
-12.723197999999343
 20
13.730773999999997
 40
30
 41
0.7495540000000001
 50
90
  1
１００
  0
ENDBLK
  0
BLOCK
  2
-008-DIM_8
 70
   64
 10
0
 20
0
 30
0
  0
CIRCLE
  8
_0-1_Layer1
  6
CONTINUOUS
 62
    3
 10
0
 20
-192.02453599999998
 40
5
  0
CIRCLE
  8
_0-1_Layer1
  6
CONTINUOUS
 62
    3
 10
839.99999999999989
 20
-192.02453599999998
 40
5
  0
LINE
  8
_0-1_Layer1
  6
CONTINUOUS
 62
    3
 10
0
 20
-192.02453599999998
 11
839.99999999999989
 21
-192.02453599999998
  0
LINE
  8
_0-1_Layer1
  6
CONTINUOUS
 62
    3
 10
0
 20
0
 11
0
 21
-212.02453599999998
  0
LINE
  8
_0-1_Layer1
  6
CONTINUOUS
 62
    3
 10
839.99999999999989
 20
-1.5247879999998304
 11
839.99999999999989
 21
-212.02453599999998
  0
TEXT
  8
_0-1_Layer1
 62
    7
 10
339.433581
 20
-182.02439799999993
 40
30
 41
0.8582679999999999
 50
0
  1
８４０
  0
ENDBLK
  0
BLOCK
  2
-009-DIM_9
 70
   64
 10
0
 20
0
 30
0
  0
CIRCLE
  8
_0-1_Layer1
  6
CONTINUOUS
 62
    3
 10
0
 20
-314.04800900000026
 40
5
  0
CIRCLE
  8
_0-1_Layer1
  6
CONTINUOUS
 62
    3
 10
1140
 20
-314.04800900000026
 40
5
  0
LINE
  8
_0-1_Layer1
  6
CONTINUOUS
 62
    3
 10
0
 20
-314.04800900000026
 11
1140
 21
-314.04800900000026
  0
LINE
  8
_0-1_Layer1
  6
CONTINUOUS
 62
    3
 10
0
 20
0
 11
0
 21
-324.04800900000009
  0
LINE
  8
_0-1_Layer1
  6
CONTINUOUS
 62
    3
 10
1140
 20
-5.0505060000000412
 11
1140
 21
-324.04800900000009
  0
TEXT
  8
_0-1_Layer1
 62
    7
 10
471.15548999999999
 20
-304.04787900000002
 40
30
 41
0.8582679999999999
 50
0
  1
１１４０　受枠外径
  0
ENDBLK
  0
BLOCK
  2
-010-DIM_10
 70
   64
 10
0
 20
0
 30
0
  0
CIRCLE
  8
_0-1_Layer1
  6
CONTINUOUS
 62
    3
 10
0
 20
176.62152999999989
 40
5
  0
CIRCLE
  8
_0-1_Layer1
  6
CONTINUOUS
 62
    3
 10
1169.9999999999998
 20
176.62152999999989
 40
5
  0
LINE
  8
_0-1_Layer1
  6
CONTINUOUS
 62
    3
 10
0
 20
176.62152999999989
 11
1169.9999999999998
 21
176.62152999999989
  0
LINE
  8
_0-1_Layer1
  6
CONTINUOUS
 62
    3
 10
0
 20
0
 11
0
 21
186.62152999999989
  0
LINE
  8
_0-1_Layer1
  6
CONTINUOUS
 62
    3
 10
1169.9999999999998
 20
0
 11
1169.9999999999998
 21
186.62152999999989
  0
TEXT
  8
_0-1_Layer1
 62
    7
 10
444.75911200000127
 20
186.62177200000002
 40
30
 41
0.8153539999999998
 50
0
  1
１１７０ ベース外径
  0
ENDBLK
  0
BLOCK
  2
-011-DIM_11
 70
   64
 10
0
 20
0
 30
0
  0
CIRCLE
  8
_0-1_Layer1
  6
CONTINUOUS
 62
    3
 10
-86.124645999999956
 20
0
 40
5
  0
CIRCLE
  8
_0-1_Layer1
  6
CONTINUOUS
 62
    3
 10
-86.124645999999956
 20
250
 40
5
  0
LINE
  8
_0-1_Layer1
  6
CONTINUOUS
 62
    3
 10
-86.124645999999956
 20
0
 11
-86.124645999999956
 21
250
  0
LINE
  8
_0-1_Layer1
  6
CONTINUOUS
 62
    3
 10
0
 20
0
 11
-96.124645999999956
 21
0
  0
LINE
  8
_0-1_Layer1
  6
CONTINUOUS
 62
    3
 10
507.48034900000005
 20
250
 11
-96.124645999999956
 21
250
  0
TEXT
  8
_0-1_Layer1
 62
    7
 10
-91.124645999999956
 20
82.944867999999872
 40
30
 41
0.8582679999999999
 50
90
  1
２５０
  0
ENDBLK
  0
BLOCK
  2
-012-DIM_12
 70
   64
 10
0
 20
0
 30
0
  0
CIRCLE
  8
_0-1_Layer1
  6
CONTINUOUS
 62
    3
 10
-93.977088999999978
 20
0
 40
5
  0
CIRCLE
  8
_0-1_Layer1
  6
CONTINUOUS
 62
    3
 10
-93.977088999999978
 20
55
 40
5
  0
LINE
  8
_0-1_Layer1
  6
CONTINUOUS
 62
    3
 10
-93.977088999999978
 20
0
 11
-93.977088999999978
 21
55
  0
LINE
  8
_0-1_Layer1
  6
CONTINUOUS
 62
    3
 10
0
 20
0
 11
-103.97708899999998
 21
0
  0
LINE
  8
_0-1_Layer1
  6
CONTINUOUS
 62
    3
 10
0.4974659999999175
 20
55
 11
-103.97708899999998
 21
55
  0
TEXT
  8
_0-1_Layer1
 62
    7
 10
-98.977088999999978
 20
-0.8228439999999182
 40
30
 41
0.8582679999999999
 50
90
  1
５５
  0
ENDBLK
  0
BLOCK
  2
-013-DIM_13
 70
   64
 10
0
 20
0
 30
0
  0
CIRCLE
  8
_0-1_Layer1
  6
CONTINUOUS
 62
    3
 10
-94.474554999999896
 20
0
 40
5
  0
CIRCLE
  8
_0-1_Layer1
  6
CONTINUOUS
 62
    3
 10
-94.474554999999896
 20
164.99975700000022
 40
5
  0
LINE
  8
_0-1_Layer1
  6
CONTINUOUS
 62
    3
 10
-94.474554999999896
 20
0
 11
-94.474554999999896
 21
164.99975700000022
  0
LINE
  8
_0-1_Layer1
  6
CONTINUOUS
 62
    3
 10
70.142615000000035
 20
164.99975700000022
 11
-104.4745549999999
 21
164.99975700000022
  0
TEXT
  8
_0-1_Layer1
 62
    7
 10
-99.474554999999896
 20
37.011674999999968
 40
30
 41
0.8582679999999999
 50
90
  1
１６５
  0
ENDBLK
  0
BLOCK
  2
-014-DIM_14
 70
   64
 10
0
 20
0
 30
0
  0
CIRCLE
  8
_0-1_Layer1
  6
CONTINUOUS
 62
    3
 10
0
 20
-20.874454000000071
 40
5
  0
CIRCLE
  8
_0-1_Layer1
  6
CONTINUOUS
 62
    3
 10
970.00000000000011
 20
-20.874454000000071
 40
5
  0
LINE
  8
_0-1_Layer1
  6
CONTINUOUS
 62
    3
 10
0
 20
-20.874454000000071
 11
970.00000000000011
 21
-20.874454000000071
  0
LINE
  8
_0-1_Layer1
  6
CONTINUOUS
 62
    3
 10
0
 20
0
 11
0
 21
-30.874454000000071
  0
LINE
  8
_0-1_Layer1
  6
CONTINUOUS
 62
    3
 10
970.00000000000011
 20
17.0790989999999
 11
970.00000000000011
 21
-30.874454000000071
  0
TEXT
  8
_0-1_Layer1
 62
    7
 10
398.64053700000028
 20
-15.777293000000014
 40
30
 41
0.8582679999999999
 50
0
  1
９７０　躯体内径
  0
ENDBLK
  0
BLOCK
  2
-015-DIM_15
 70
   64
 10
0
 20
0
 30
0
  0
CIRCLE
  8
_0-1_Layer1
  6
CONTINUOUS
 62
    3
 10
0
 20
308.34903999999995
 40
5
  0
CIRCLE
  8
_0-1_Layer1
  6
CONTINUOUS
 62
    3
 10
900
 20
308.34903999999995
 40
5
  0
LINE
  8
_0-1_Layer1
  6
CONTINUOUS
 62
    3
 10
0
 20
308.34903999999995
 11
900
 21
308.34903999999995
  0
LINE
  8
_0-1_Layer1
  6
CONTINUOUS
 62
    3
 10
0
 20
0
 11
0
 21
318.34903999999881
  0
LINE
  8
_0-1_Layer1
  6
CONTINUOUS
 62
    3
 10
900
 20
0
 11
900
 21
318.34903999999881
  0
TEXT
  8
_0-1_Layer1
 62
    7
 10
312.67712000000017
 20
313.34903999999995
 40
30
 41
0.8582679999999999
 50
0
  1
９００　ドーム寸法
  0
ENDBLK
  0
BLOCK
  2
-016-DIM_16
 70
   64
 10
0
 20
0
 30
0
  0
CIRCLE
  8
_0-1_Layer1
  6
CONTINUOUS
 62
    3
 10
130.50265000000024
 20
226.03721899999925
 40
5
  0
CIRCLE
  8
_0-1_Layer1
  6
CONTINUOUS
 62
    3
 10
0
 20
0
 40
5
  0
ARC
  8
_0-1_Layer1
  6
CONTINUOUS
 62
    3
 10
261.00529900000026
 20
0
 40
261.00529883416402
 50
119.99999999999999
 51
180
  0
TEXT
  8
_0-1_Layer1
 62
    7
 10
12.185191000000088
 20
101.04152767602301
 40
30
 41
0.8582679999999999
 50
60
  1
６０\U+00B0
  0
ENDBLK
  0
BLOCK
  2
-017-DIM_17
 70
   64
 10
0
 20
0
 30
0
  0
CIRCLE
  8
_0-1_Layer1
  6
CONTINUOUS
 62
    3
 10
0
 20
628.34527200000002
 40
5
  0
CIRCLE
  8
_0-1_Layer1
  6
CONTINUOUS
 62
    3
 10
1170.0000000000002
 20
628.34527200000002
 40
5
  0
LINE
  8
_0-1_Layer1
  6
CONTINUOUS
 62
    3
 10
0
 20
628.34527200000002
 11
1170.0000000000002
 21
628.34527200000002
  0
LINE
  8
_0-1_Layer1
  6
CONTINUOUS
 62
    3
 10
0
 20
0
 11
0
 21
638.34527200000002
  0
LINE
  8
_0-1_Layer1
  6
CONTINUOUS
 62
    3
 10
1170.0000000000002
 20
0
 11
1170.0000000000002
 21
638.34527200000002
  0
TEXT
  8
_0-1_Layer1
 62
    7
 10
429.6534920000002
 20
633.34527200000002
 40
30
 41
0.8582679999999999
 50
0
  1
１１７０　ベース外径
  0
ENDBLK
  0
ENDSEC
  0
SECTION
  2
ENTITIES
  0
LINE
  8
_0-1_Layer1
  6
PLine2
 62
    3
 10
841.51862764782709
 20
1478.9873159685312
 11
908.23583764782734
 21
1478.9873159685312
  0
LINE
  8
_0-1_Layer1
  6
PLine2
 62
    3
 10
872.28641264782709
 20
1508.4192489685313
 11
872.28641264782709
 21
1447.9567779685312
  0
LINE
  8
_0-1_Layer1
  6
PLine2
 62
    3
 10
1189.7586846478273
 20
1477.3349259685313
 11
1544.0867396478275
 21
1540.6560559685313
  0
LINE
  8
_0-1_Layer1
  6
CONTINUOUS
 62
    3
 10
2914.1098226478284
 20
2329.8736379685311
 11
2931.1276506478275
 21
2329.8736379685311
  0
LINE
  8
_0-1_Layer1
  6
CONTINUOUS
 62
    3
 10
2931.1276506478275
 20
2329.8736379685311
 11
2931.1276506478275
 21
2312.0454369685312
  0
LINE
  8
_0-1_Layer1
  6
CONTINUOUS
 62
    3
 10
2931.1276506478275
 20
2312.0454369685312
 11
2914.1098226478284
 21
2312.0454369685312
  0
LINE
  8
_0-1_Layer1
  6
CONTINUOUS
 62
    3
 10
2914.1098226478284
 20
2312.0454369685312
 11
2914.1098226478284
 21
2329.8736379685311
  0
LINE
  8
_0-1_Layer1
  6
CONTINUOUS
 62
    3
 10
3222.2021296478283
 20
1405.7483989685311
 11
3236.8170816478273
 21
1405.7483989685311
  0
LINE
  8
_0-1_Layer1
  6
CONTINUOUS
 62
    3
 10
3236.8170816478273
 20
1405.7483989685311
 11
3236.8170816478273
 21
1390.5713329685314
  0
LINE
  8
_0-1_Layer1
  6
CONTINUOUS
 62
    3
 10
3236.8170816478273
 20
1390.5713329685314
 11
3222.2021296478283
 21
1390.5713329685314
  0
LINE
  8
_0-1_Layer1
  6
CONTINUOUS
 62
    3
 10
3222.2021296478283
 20
1390.5713329685314
 11
3222.2021296478283
 21
1405.7483989685311
  0
LINE
  8
_0-1_Layer1
  6
CONTINUOUS
 62
    2
 10
3647.9355436478272
 20
916.24918796853103
 11
3647.9355436478272
 21
2086.2491879685313
  0
LINE
  8
_0-1_Layer1
  6
PLine1
 62
    3
 10
3645.6355436478275
 20
2083.9491879685311
 11
3645.6355436478275
 21
918.54918796853099
  0
LINE
  8
_0-1_Layer1
  6
PLine1
 62
    3
 10
3500.2355436478274
 20
1501.2491879685313
 11
3500.2355436478274
 21
1063.9491879685311
  0
LINE
  8
_0-1_Layer1
  6
CONTINUOUS
 62
    3
 10
3485.2355436478274
 20
1501.2491879685313
 11
3485.2355436478274
 21
1078.9491879685311
  0
LINE
  8
_0-1_Layer1
  6
CONTINUOUS
 62
    3
 10
3482.9355436478272
 20
1501.2491879685313
 11
3482.9355436478272
 21
1081.2491879685313
  0
LINE
  8
_0-1_Layer1
  6
CONTINUOUS
 62
    3
 10
3497.9355436478272
 20
1501.2491879685313
 11
3497.9355436478272
 21
1066.2491879685313
  0
LINE
  8
_0-1_Layer1
  6
CONTINUOUS
 62
    2
 10
3062.9355436478272
 20
916.24918796853103
 11
3647.9355436478272
 21
916.24918796853103
  0
LINE
  8
_0-1_Layer1
  6
PLine1
 62
    3
 10
3062.9355436478272
 20
918.54918796853099
 11
3645.6355436478275
 21
918.54918796853099
  0
LINE
  8
_0-1_Layer1
  6
CONTINUOUS
 62
    3
 10
3485.2355436478274
 20
1923.5491879685312
 11
3485.2355436478274
 21
1501.2491879685313
  0
LINE
  8
_0-1_Layer1
  6
CONTINUOUS
 62
    3
 10
3482.9355436478272
 20
1921.2491879685313
 11
3482.9355436478272
 21
1501.2491879685313
  0
LINE
  8
_0-1_Layer1
  6
PLine1
 62
    3
 10
3500.2355436478274
 20
1938.5491879685312
 11
3500.2355436478274
 21
1501.2491879685313
  0
LINE
  8
_0-1_Layer1
  6
CONTINUOUS
 62
    3
 10
3497.9355436478272
 20
1936.2491879685313
 11
3497.9355436478272
 21
1501.2491879685313
  0
LINE
  8
_0-1_Layer1
  6
CONTINUOUS
 62
    3
 10
3062.9355436478272
 20
1923.5491879685312
 11
3485.2355436478274
 21
1923.5491879685312
  0
LINE
  8
_0-1_Layer1
  6
CONTINUOUS
 62
    3
 10
3485.2355436478274
 20
1078.9491879685311
 11
3062.9355436478272
 21
1078.9491879685311
  0
LINE
  8
_0-1_Layer1
  6
CONTINUOUS
 62
    3
 10
3062.9355436478272
 20
1921.2491879685313
 11
3482.9355436478272
 21
1921.2491879685313
  0
LINE
  8
_0-1_Layer1
  6
CONTINUOUS
 62
    3
 10
3482.9355436478272
 20
1081.2491879685313
 11
3062.9355436478272
 21
1081.2491879685313
  0
LINE
  8
_0-1_Layer1
  6
PLine1
 62
    3
 10
3062.9355436478272
 20
1938.5491879685312
 11
3500.2355436478274
 21
1938.5491879685312
  0
LINE
  8
_0-1_Layer1
  6
PLine1
 62
    3
 10
3500.2355436478274
 20
1063.9491879685311
 11
3062.9355436478272
 21
1063.9491879685311
  0
LINE
  8
_0-1_Layer1
  6
CONTINUOUS
 62
    3
 10
3062.9355436478272
 20
1936.2491879685313
 11
3497.9355436478272
 21
1936.2491879685313
  0
LINE
  8
_0-1_Layer1
  6
CONTINUOUS
 62
    3
 10
3497.9355436478272
 20
1066.2491879685313
 11
3062.9355436478272
 21
1066.2491879685313
  0
LINE
  8
_0-1_Layer1
  6
CONTINUOUS
 62
    3
 10
3062.9355436478272
 20
1983.9491879685311
 11
3545.6355436478275
 21
1983.9491879685311
  0
LINE
  8
_0-1_Layer1
  6
CONTINUOUS
 62
    3
 10
3545.6355436478275
 20
1983.9491879685311
 11
3545.6355436478275
 21
1018.5491879685312
  0
LINE
  8
_0-1_Layer1
  6
CONTINUOUS
 62
    3
 10
3545.6355436478275
 20
1018.5491879685312
 11
3062.9355436478272
 21
1018.5491879685312
  0
LINE
  8
_0-1_Layer1
  6
CONTINUOUS
 62
    3
 10
3062.9355436478272
 20
1986.2491879685313
 11
3547.9355436478272
 21
1986.2491879685313
  0
LINE
  8
_0-1_Layer1
  6
CONTINUOUS
 62
    3
 10
3547.9355436478272
 20
1986.2491879685313
 11
3547.9355436478272
 21
1016.249187968531
  0
LINE
  8
_0-1_Layer1
  6
CONTINUOUS
 62
    3
 10
3547.9355436478272
 20
1016.249187968531
 11
3062.9355436478272
 21
1016.249187968531
  0
LINE
  8
_0-1_Layer1
  6
PLine1
 62
    3
 10
3645.6355436478275
 20
2083.9491879685311
 11
3062.9355436478272
 21
2083.9491879685311
  0
LINE
  8
_0-1_Layer1
  6
CONTINUOUS
 62
    2
 10
3647.9355436478272
 20
2086.2491879685313
 11
3062.9355436478272
 21
2086.2491879685313
  0
INSERT
  2
-000-DIM_0
  8
_0-1_Layer1
 10
3653.9355436478286
 20
2086.2491879685313
 41
1
 42
1
 50
0
  0
LINE
  8
_0-1_Layer1
  6
CONTINUOUS
 62
    3
 10
894.77683664782717
 20
750.85459096853106
 11
894.77683664782717
 21
735.52066696853126
  0
LINE
  8
_0-1_Layer1
  6
CONTINUOUS
 62
    3
 10
894.77683664782717
 20
762.31877996853109
 11
894.77683664782717
 21
1468.0723569685313
  0
TEXT
  8
_0-1_Layer1
 62
    7
 10
1898.7429066478273
 20
1579.6287109685313
 40
30
 41
0.8582679999999999
 50
0
  1
アクリル樹脂塗装仕上
  0
LINE
  8
_0-1_Layer1
  6
CONTINUOUS
 62
    3
 10
1779.3108716478273
 20
1414.9295909685311
 11
1773.6409986478266
 21
1395.1090829685311
  0
LINE
  8
_0-1_Layer1
  6
CONTINUOUS
 62
    3
 10
1773.6409986478266
 20
1395.1090829685311
 11
1899.7343656478274
 21
1613.5092009685311
  0
LINE
  8
_0-1_Layer1
  6
CONTINUOUS
 62
    3
 10
1899.7343656478274
 20
1613.5092009685311
 11
2153.2421226478273
 21
1613.5092009685311
  0
TEXT
  8
_0-1_Layer1
 62
    7
 10
1870.7382446478273
 20
1615.4001159685313
 40
30
 41
0.8582679999999999
 50
0
  1
ベースｔ＝２．３
  0
LINE
  8
_0-1_Layer1
  6
CONTINUOUS
 62
    3
 10
1037.9050626478274
 20
1839.8511849685312
 11
1052.2351896478274
 21
1825.0306769685312
  0
LINE
  8
_0-1_Layer1
  6
CONTINUOUS
 62
    3
 10
1052.2351896478274
 20
1825.0306769685312
 11
872.47314864782743
 21
2136.3876659685311
  0
LINE
  8
_0-1_Layer1
  6
CONTINUOUS
 62
    3
 10
872.47314864782743
 20
2136.3876659685311
 11
512.00070764782731
 21
2136.3876659685311
  0
TEXT
  8
_0-1_Layer1
 62
    7
 10
446.7722206478274
 20
2141.3876659685311
 40
30
 41
0.8582679999999999
 50
-0.0000000000000225
  1
サントップドームＢ－９００型
  0
LINE
  8
_0-1_Layer1
  6
CONTINUOUS
 62
    3
 10
890.10696364782711
 20
958.13527396853124
 11
895.77683664782717
 21
977.95578196853114
  0
LINE
  8
_0-1_Layer1
  6
CONTINUOUS
 62
    3
 10
895.77683664782717
 20
977.95578196853114
 11
671.1909486478271
 21
588.96161496853119
  0
LINE
  8
_0-1_Layer1
  6
CONTINUOUS
 62
    3
 10
671.1909486478271
 20
588.96161496853119
 11
362.21457164782748
 21
588.96161496853119
  0
TEXT
  8
_0-1_Layer1
 62
    7
 10
321.017604647827
 20
593.96161496853119
 40
30
 41
0.8582679999999999
 50
-0.0000000000000263
  1
解錠ワイヤー（室内操作）
  0
LINE
  8
_0-1_Layer1
  6
CONTINUOUS
 62
    3
 10
852.82792264782756
 20
653.83645896853113
 11
858.49779564782739
 21
673.65696796853103
  0
LINE
  8
_0-1_Layer1
  6
CONTINUOUS
 62
    3
 10
858.49779564782739
 20
673.65696796853103
 11
753.8798226478275
 21
492.4533219685311
  0
LINE
  8
_0-1_Layer1
  6
CONTINUOUS
 62
    3
 10
753.8798226478275
 20
492.4533219685311
 11
624.8798226478275
 21
492.4533219685311
  0
TEXT
  8
_0-1_Layer1
 62
    7
 10
606.25762264782736
 20
502.45318696853104
 40
30
 41
0.8582679999999999
 50
0
  1
室内用把手
  0
LINE
  8
_0-1_Layer1
  6
CONTINUOUS
 62
    3
 10
892.81443764782739
 20
762.31877996853109
 11
898.4774706478272
 21
762.31877996853109
  0
LINE
  8
_0-1_Layer1
  6
CONTINUOUS
 62
    3
 10
898.4774706478272
 20
762.31877996853109
 11
898.4774706478272
 21
750.85459096853106
  0
LINE
  8
_0-1_Layer1
  6
CONTINUOUS
 62
    3
 10
898.4774706478272
 20
750.85459096853106
 11
892.81443764782739
 21
750.85459096853106
  0
LINE
  8
_0-1_Layer1
  6
CONTINUOUS
 62
    3
 10
892.81443764782739
 20
750.85459096853106
 11
892.81443764782739
 21
762.31877996853109
  0
ARC
  8
_0-1_Layer1
  6
CONTINUOUS
 62
    3
 10
895.77683664782717
 20
698.02066696853126
 40
47.5
 50
91.206316000000015
 51
88.793683999999985
  0
ARC
  8
_0-1_Layer1
  6
CONTINUOUS
 62
    3
 10
895.77683664782717
 20
698.02066696853126
 40
37.5
 50
91.528068999999988
 51
88.471931000000041
  0
LINE
  8
_0-1_Layer1
  6
CONTINUOUS
 62
    3
 10
2655.5684176478276
 20
874.72845096853121
 11
2641.2382906478274
 21
889.54895896853122
  0
LINE
  8
_0-1_Layer1
  6
CONTINUOUS
 62
    3
 10
2641.2382906478274
 20
889.54895896853122
 11
2719.7633106478274
 21
753.53963496853112
  0
LINE
  8
_0-1_Layer1
  6
CONTINUOUS
 62
    3
 10
2719.7633106478274
 20
753.53963496853112
 11
2935.7475626478272
 21
753.53963496853112
  0
LINE
  8
_0-1_Layer1
  6
CONTINUOUS
 62
    3
 10
2643.9907676478279
 20
2085.898595968531
 11
2638.3208946478276
 21
2066.0780879685312
  0
LINE
  8
_0-1_Layer1
  6
CONTINUOUS
 62
    3
 10
2638.3208946478276
 20
2066.0780879685312
 11
2696.3268146478272
 21
2166.5472869685314
  0
LINE
  8
_0-1_Layer1
  6
CONTINUOUS
 62
    3
 10
2696.3268146478272
 20
2166.5472869685314
 11
2886.5630346478274
 21
2166.5472869685314
  0
TEXT
  8
_0-1_Layer1
 62
    7
 10
2696.3264756478275
 20
2176.547559968531
 40
30
 41
0.8582679999999999
 50
0
  1
ベースｔ＝２．３
  0
LINE
  8
_0-1_Layer1
  6
CONTINUOUS
 62
    3
 10
2605.2355436478274
 20
1275.8510789685313
 11
2605.2355436478274
 21
1058.5491879685312
  0
LINE
  8
_0-1_Layer1
  6
PLine1
 62
    3
 10
2605.2355436478274
 20
1306.3651319685312
 11
2605.2355436478274
 21
1276.0826839685312
  0
LINE
  8
_0-1_Layer1
  6
CONTINUOUS
 62
    3
 10
2607.7355436478274
 20
1276.1984869685311
 11
2607.7355436478274
 21
1058.5491879685312
  0
LINE
  8
_0-1_Layer1
  6
PLine1
 62
    3
 10
2607.7355436478274
 20
1303.3542579685311
 11
2607.7355436478274
 21
1276.2563889685312
  0
LINE
  8
_0-1_Layer1
  6
CONTINUOUS
 62
    3
 10
2672.1514436478274
 20
1276.4234099685311
 11
2657.8213166478272
 21
1291.2439179685312
  0
LINE
  8
_0-1_Layer1
  6
CONTINUOUS
 62
    3
 10
2657.8213166478272
 20
1291.2439179685312
 11
2722.072022647827
 21
1179.9584319685312
  0
LINE
  8
_0-1_Layer1
  6
CONTINUOUS
 62
    3
 10
2722.072022647827
 20
1179.9584319685312
 11
2785.4561526478274
 21
1179.9584319685312
  0
TEXT
  8
_0-1_Layer1
 62
    7
 10
2723.9602956478275
 20
1189.9583599685311
 40
30
 41
0.8582679999999999
 50
0
  1
滑車
  0
LINE
  8
_0-1_Layer1
  6
CONTINUOUS
 62
    3
 10
2620.5067716478279
 20
1228.9036219685311
 11
2606.1766446478268
 21
1243.7241299685311
  0
LINE
  8
_0-1_Layer1
  6
CONTINUOUS
 62
    3
 10
2606.1766446478268
 20
1243.7241299685311
 11
2670.2555086478278
 21
1132.7362819685311
  0
LINE
  8
_0-1_Layer1
  6
CONTINUOUS
 62
    3
 10
2670.2555086478278
 20
1132.7362819685311
 11
2989.2318866478286
 21
1132.7362819685311
  0
LINE
  8
_0-1_Layer1
  6
CONTINUOUS
 62
    3
 10
2700.9090396478273
 20
1286.098500968531
 11
2686.5789126478276
 21
1300.9190089685312
  0
LINE
  8
_0-1_Layer1
  6
CONTINUOUS
 62
    3
 10
2686.5789126478276
 20
1300.9190089685312
 11
2729.9847026478274
 21
1225.7379749685313
  0
LINE
  8
_0-1_Layer1
  6
CONTINUOUS
 62
    3
 10
2729.9847026478274
 20
1225.7379749685313
 11
2894.472891647828
 21
1225.7379749685313
  0
TEXT
  8
_0-1_Layer1
 62
    7
 10
2729.9846256478268
 20
1235.7377799685312
 40
30
 41
0.8582679999999999
 50
0
  1
屋内操作位置
  0
LINE
  8
_0-1_Layer1
  6
PLine2
 62
    3
 10
2606.4855436478274
 20
1062.1991139685313
 11
2606.4855436478274
 21
864.32965896853125
  0
LINE
  8
_0-1_Layer1
  6
PLine2
 62
    3
 10
2544.5874106478273
 20
923.74918796853103
 11
2670.992237647828
 21
923.74918796853103
  0
CIRCLE
  8
_0-1_Layer1
  6
CONTINUOUS
 62
    3
 10
2606.4855436478274
 20
923.74918796853103
 40
37.5
  0
CIRCLE
  8
_0-1_Layer1
  6
CONTINUOUS
 62
    3
 10
2606.4855436478274
 20
923.74918796853103
 40
47.499999999999929
  0
LINE
  8
_0-1_Layer1
  6
PLine1
 62
    3
 10
2616.4855436478274
 20
1016.249187968531
 11
2616.4855436478274
 21
986.24918796853103
  0
LINE
  8
_0-1_Layer1
  6
PLine1
 62
    3
 10
2596.4855436478274
 20
1016.249187968531
 11
2596.4855436478274
 21
986.24918796853103
  0
LINE
  8
_0-1_Layer1
  6
CONTINUOUS
 62
    3
 10
2624.4855436478274
 20
1016.249187968531
 11
2624.4855436478274
 21
986.24918796853103
  0
LINE
  8
_0-1_Layer1
  6
CONTINUOUS
 62
    3
 10
2588.4855436478274
 20
1016.249187968531
 11
2588.4855436478274
 21
986.24918796853103
  0
LINE
  8
_0-1_Layer1
  6
CONTINUOUS
 62
    3
 10
2581.4855436478274
 20
971.24918796853103
 11
2581.4855436478274
 21
986.24918796853103
  0
LINE
  8
_0-1_Layer1
  6
CONTINUOUS
 62
    3
 10
2581.4855436478274
 20
986.24918796853103
 11
2631.4855436478274
 21
986.24918796853103
  0
LINE
  8
_0-1_Layer1
  6
CONTINUOUS
 62
    3
 10
2631.4855436478274
 20
986.24918796853103
 11
2631.4855436478274
 21
971.24918796853103
  0
LINE
  8
_0-1_Layer1
  6
CONTINUOUS
 62
    3
 10
2631.4855436478274
 20
971.24918796853103
 11
2581.4855436478274
 21
971.24918796853103
  0
LINE
  8
_0-1_Layer1
  6
CONTINUOUS
 62
    3
 10
2596.4855436478274
 20
1018.5491879685312
 11
2596.4855436478274
 21
1058.5491879685312
  0
LINE
  8
_0-1_Layer1
  6
CONTINUOUS
 62
    3
 10
2596.4855436478274
 20
1058.5491879685312
 11
2616.4855436478274
 21
1058.5491879685312
  0
LINE
  8
_0-1_Layer1
  6
CONTINUOUS
 62
    3
 10
2616.4855436478274
 20
1058.5491879685312
 11
2616.4855436478274
 21
1018.5491879685312
  0
ARC
  8
_0-1_Layer1
  6
CONTINUOUS
 62
    3
 10
2606.4855436478274
 20
1158.5491879685312
 40
5.0000000000000551
 50
285.99711100000002
 51
0.0000000000000127
  0
ARC
  8
_0-1_Layer1
  6
CONTINUOUS
 62
    3
 10
2606.4855436478274
 20
1108.5491879685312
 40
5.0000000000000551
 50
104.16316799999998
 51
180
  0
LINE
  8
_0-1_Layer1
  6
PLine2
 62
    3
 10
2590.2924356478288
 20
1133.5491879685312
 11
2623.1423646478279
 21
1133.5491879685312
  0
ARC
  8
_0-1_Layer1
  6
CONTINUOUS
 62
    3
 10
2606.4855436478274
 20
1108.5491879685312
 40
5.0000000000000551
 50
0
 51
75.640408999999991
  0
ARC
  8
_0-1_Layer1
  6
CONTINUOUS
 62
    3
 10
2606.4855436478274
 20
1158.5491879685312
 40
5.0000000000000551
 50
180
 51
255.000676
  0
LINE
  8
_0-1_Layer1
  6
CONTINUOUS
 62
    3
 10
2614.4855436478274
 20
1158.5491879685312
 11
2614.4855436478274
 21
1108.5491879685312
  0
LINE
  8
_0-1_Layer1
  6
CONTINUOUS
 62
    3
 10
2611.4855436478274
 20
1158.5491879685312
 11
2626.4855436478274
 21
1158.5491879685312
  0
LINE
  8
_0-1_Layer1
  6
CONTINUOUS
 62
    3
 10
2626.4855436478274
 20
1158.5491879685312
 11
2626.4855436478274
 21
1108.5491879685312
  0
LINE
  8
_0-1_Layer1
  6
CONTINUOUS
 62
    3
 10
2626.4855436478274
 20
1108.5491879685312
 11
2611.4855436478274
 21
1108.5491879685312
  0
LINE
  8
_0-1_Layer1
  6
CONTINUOUS
 62
    3
 10
2611.4855436478274
 20
1158.5491879685312
 11
2611.4855436478274
 21
1108.5491879685312
  0
LINE
  8
_0-1_Layer1
  6
CONTINUOUS
 62
    3
 10
2598.4855436478274
 20
1158.5491879685312
 11
2598.4855436478274
 21
1108.5491879685312
  0
LINE
  8
_0-1_Layer1
  6
CONTINUOUS
 62
    3
 10
2586.4855436478283
 20
1158.5491879685312
 11
2601.4855436478274
 21
1158.5491879685312
  0
LINE
  8
_0-1_Layer1
  6
CONTINUOUS
 62
    3
 10
2601.4855436478274
 20
1158.5491879685312
 11
2601.4855436478274
 21
1108.5491879685312
  0
LINE
  8
_0-1_Layer1
  6
CONTINUOUS
 62
    3
 10
2601.4855436478274
 20
1108.5491879685312
 11
2586.4855436478283
 21
1108.5491879685312
  0
LINE
  8
_0-1_Layer1
  6
CONTINUOUS
 62
    3
 10
2586.4855436478283
 20
1108.5491879685312
 11
2586.4855436478283
 21
1158.5491879685312
  0
ARC
  8
_0-1_Layer1
  6
CONTINUOUS
 62
    3
 10
2630.9355436478272
 20
1301.2491879685313
 40
4.9999999999999707
 50
270
 51
345.148529
  0
ARC
  8
_0-1_Layer1
  6
CONTINUOUS
 62
    3
 10
2677.9355436478281
 20
1301.2491879685313
 40
4.9999999999999707
 50
195.3303939999999
 51
270
  0
ARC
  8
_0-1_Layer1
  6
CONTINUOUS
 62
    3
 10
2673.3475166478274
 20
1301.2430559685313
 40
1.280771590097316
 50
258.74298499999998
 51
101.41015200000002
  0
LINE
  8
_0-1_Layer1
  6
CONTINUOUS
 62
    3
 10
2616.1177436478283
 20
1299.9991879685313
 11
2673.0943136478272
 21
1299.9991879685313
  0
LINE
  8
_0-1_Layer1
  6
CONTINUOUS
 62
    3
 10
2624.2879816478271
 20
1302.4991879685313
 11
2673.0943136478272
 21
1302.4991879685313
  0
LINE
  8
_0-1_Layer1
  6
PLine2
 62
    3
 10
2596.6412386478269
 20
1313.3440889685312
 11
2634.5890096478274
 21
1313.3440889685312
  0
LINE
  8
_0-1_Layer1
  6
PLine2
 62
    3
 10
2616.1177436478283
 20
1336.7158949685311
 11
2616.1177436478283
 21
1292.4853799685311
  0
CIRCLE
  8
_0-1_Layer1
  6
CONTINUOUS
 62
    3
 10
2616.4947086478278
 20
1313.8467079685313
 40
13.76594841333201
  0
LINE
  8
_0-1_Layer1
  6
PLine2
 62
    3
 10
2652.9355436478272
 20
1317.365044968531
 11
2652.9355436478272
 21
1283.3125749685312
  0
ARC
  8
_0-1_Layer1
  6
CONTINUOUS
 62
    3
 10
2677.9355436478281
 20
1301.2491879685313
 40
4.9999999999999707
 50
90
 51
169.70677599999999
  0
ARC
  8
_0-1_Layer1
  6
CONTINUOUS
 62
    3
 10
2630.9355436478272
 20
1301.2491879685313
 40
4.9999999999999707
 50
14.345893999999999
 51
90
  0
LINE
  8
_0-1_Layer1
  6
CONTINUOUS
 62
    2
 10
2580.2355436478274
 20
1276.2491879685313
 11
2627.9355436478272
 21
1276.2491879685313
  0
LINE
  8
_0-1_Layer1
  6
CONTINUOUS
 62
    2
 10
2622.4935376478279
 20
1326.2491879685313
 11
2627.9355436478272
 21
1326.2491879685313
  0
LINE
  8
_0-1_Layer1
  6
CONTINUOUS
 62
    3
 10
2677.9355436478281
 20
1293.2491879685313
 11
2681.9355436478286
 21
1293.2491879685313
  0
LINE
  8
_0-1_Layer1
  6
CONTINUOUS
 62
    3
 10
2677.9355436478281
 20
1293.2491879685313
 11
2677.9355436478281
 21
1309.2491879685313
  0
LINE
  8
_0-1_Layer1
  6
CONTINUOUS
 62
    3
 10
2681.9355436478286
 20
1309.2491879685313
 11
2681.9355436478286
 21
1293.2491879685313
  0
LINE
  8
_0-1_Layer1
  6
CONTINUOUS
 62
    3
 10
2677.9355436478281
 20
1309.2491879685313
 11
2681.9355436478286
 21
1309.2491879685313
  0
LINE
  8
_0-1_Layer1
  6
CONTINUOUS
 62
    3
 10
2627.9355436478272
 20
1296.2491879685313
 11
2677.9355436478281
 21
1296.2491879685313
  0
LINE
  8
_0-1_Layer1
  6
CONTINUOUS
 62
    3
 10
2677.9355436478281
 20
1296.2491879685313
 11
2677.9355436478281
 21
1293.2491879685313
  0
LINE
  8
_0-1_Layer1
  6
CONTINUOUS
 62
    3
 10
2677.9355436478281
 20
1293.2491879685313
 11
2630.9355436478272
 21
1293.2491879685313
  0
LINE
  8
_0-1_Layer1
  6
CONTINUOUS
 62
    3
 10
2630.9355436478272
 20
1293.2491879685313
 11
2630.9355436478272
 21
1276.2491879685313
  0
LINE
  8
_0-1_Layer1
  6
CONTINUOUS
 62
    3
 10
2630.9355436478272
 20
1276.2491879685313
 11
2627.9355436478272
 21
1276.2491879685313
  0
LINE
  8
_0-1_Layer1
  6
CONTINUOUS
 62
    3
 10
2627.9355436478272
 20
1326.2491879685313
 11
2630.9355436478272
 21
1326.2491879685313
  0
LINE
  8
_0-1_Layer1
  6
CONTINUOUS
 62
    3
 10
2630.9355436478272
 20
1326.2491879685313
 11
2630.9355436478272
 21
1309.2491879685313
  0
LINE
  8
_0-1_Layer1
  6
CONTINUOUS
 62
    3
 10
2630.9355436478272
 20
1309.2491879685313
 11
2677.9355436478281
 21
1309.2491879685313
  0
LINE
  8
_0-1_Layer1
  6
CONTINUOUS
 62
    3
 10
2677.9355436478281
 20
1309.2491879685313
 11
2677.9355436478281
 21
1306.2491879685313
  0
LINE
  8
_0-1_Layer1
  6
CONTINUOUS
 62
    3
 10
2677.9355436478281
 20
1306.2491879685313
 11
2627.9355436478272
 21
1306.2491879685313
  0
LINE
  8
_0-1_Layer1
  6
CONTINUOUS
 62
    2
 10
2580.2355436478274
 20
1326.2491879685313
 11
2605.1694126478278
 21
1326.2491879685313
  0
LINE
  8
_0-1_Layer1
  6
CONTINUOUS
 62
    2
 10
2607.7355436478274
 20
1326.2491879685313
 11
2610.751433647828
 21
1326.2491879685313
  0
LINE
  8
_0-1_Layer1
  6
CONTINUOUS
 62
    3
 10
2687.6912236478274
 20
1910.8597879685312
 11
2673.3610966478273
 21
1925.6802959685315
  0
LINE
  8
_0-1_Layer1
  6
CONTINUOUS
 62
    3
 10
2673.3610966478273
 20
1925.6802959685315
 11
2737.2859866478275
 21
1814.9591369685311
  0
LINE
  8
_0-1_Layer1
  6
CONTINUOUS
 62
    3
 10
2737.2859866478275
 20
1814.9591369685311
 11
2854.7064206478271
 21
1814.9591369685311
  0
TEXT
  8
_0-1_Layer1
 62
    7
 10
2741.7143556478272
 20
1824.9589699685312
 40
30
 41
0.8582679999999999
 50
0
  1
結露受け
  0
LINE
  8
_0-1_Layer1
  6
CONTINUOUS
 62
    3
 10
2655.1097316478272
 20
1540.206685968531
 11
2649.4398586478274
 21
1520.3861779685312
  0
LINE
  8
_0-1_Layer1
  6
CONTINUOUS
 62
    3
 10
2649.4398586478274
 20
1520.3861779685312
 11
2722.4405046478273
 21
1646.8270069685311
  0
LINE
  8
_0-1_Layer1
  6
CONTINUOUS
 62
    3
 10
2722.4405046478273
 20
1646.8270069685311
 11
2912.6767256478274
 21
1646.8270069685311
  0
TEXT
  8
_0-1_Layer1
 62
    7
 10
2722.4408256478273
 20
1656.8266499685315
 40
30
 41
0.8582679999999999
 50
0
  1
ローラーラッチ
  0
LINE
  8
_0-1_Layer1
  6
CONTINUOUS
 62
    3
 10
2610.3376196478275
 20
1464.4747529685312
 11
2610.3376196478275
 21
1463.4326999685311
  0
LINE
  8
_0-1_Layer1
  6
CONTINUOUS
 62
    3
 10
2605.2355436478274
 20
1468.2956119685311
 11
2615.0727596478273
 21
1468.0350989685312
  0
LINE
  8
_0-1_Layer1
  6
CONTINUOUS
 62
    3
 10
2610.3376196478275
 20
1473.2453629685313
 11
2610.3376196478275
 21
1463.8668889685312
  0
LINE
  8
_0-1_Layer1
  6
CONTINUOUS
 62
    3
 10
2603.7838556478273
 20
1432.9526599685312
 11
2615.5069476478275
 21
1432.9526599685312
  0
LINE
  8
_0-1_Layer1
  6
CONTINUOUS
 62
    3
 10
2610.3376196478275
 20
1438.1629229685311
 11
2610.3376196478275
 21
1427.6555589685311
  0
LINE
  8
_0-1_Layer1
  6
CONTINUOUS
 62
    3
 10
2602.5470176478275
 20
1404.192559968531
 11
2610.3376196478275
 21
1404.192559968531
  0
LINE
  8
_0-1_Layer1
  6
CONTINUOUS
 62
    3
 10
2610.3376196478275
 20
1404.192559968531
 11
2610.3376196478275
 21
1393.6375509685313
  0
LINE
  8
_0-1_Layer1
  6
CONTINUOUS
 62
    3
 10
2610.3376196478275
 20
1393.6375509685313
 11
2602.5470176478275
 21
1393.6375509685313
  0
LINE
  8
_0-1_Layer1
  6
CONTINUOUS
 62
    3
 10
2602.5470176478275
 20
1393.6375509685313
 11
2602.5470176478275
 21
1404.192559968531
  0
LINE
  8
_0-1_Layer1
  6
CONTINUOUS
 62
    3
 10
2583.5731326478272
 20
1416.632391968531
 11
2623.4057266478276
 21
1416.632391968531
  0
LINE
  8
_0-1_Layer1
  6
CONTINUOUS
 62
    3
 10
2607.7355436478274
 20
1422.4125159685311
 11
2616.3690536478275
 21
1422.4125159685311
  0
LINE
  8
_0-1_Layer1
  6
CONTINUOUS
 62
    3
 10
2616.3690536478275
 20
1422.4125159685311
 11
2616.3690536478275
 21
1410.8522679685311
  0
LINE
  8
_0-1_Layer1
  6
CONTINUOUS
 62
    3
 10
2616.3690536478275
 20
1410.8522679685311
 11
2607.7355436478274
 21
1410.8522679685311
  0
LINE
  8
_0-1_Layer1
  6
CONTINUOUS
 62
    3
 10
2599.0286816478274
 20
1422.4125159685311
 11
2590.4841506478269
 21
1422.4125159685311
  0
LINE
  8
_0-1_Layer1
  6
CONTINUOUS
 62
    3
 10
2590.4841506478269
 20
1422.4125159685311
 11
2590.4841506478269
 21
1410.8522679685311
  0
LINE
  8
_0-1_Layer1
  6
CONTINUOUS
 62
    3
 10
2590.4841506478269
 20
1410.8522679685311
 11
2599.0286816478274
 21
1410.8522679685311
  0
LINE
  8
_0-1_Layer1
  6
CONTINUOUS
 62
    3
 10
2603.4266016478273
 20
1462.0160679685314
 11
2603.4266016478273
 21
1445.5330129685312
  0
LINE
  8
_0-1_Layer1
  6
CONTINUOUS
 62
    3
 10
2615.363814647827
 20
1458.8988889685311
 11
2615.363814647827
 21
1445.5330129685312
  0
LINE
  8
_0-1_Layer1
  6
CONTINUOUS
 62
    3
 10
2599.0286816478274
 20
1445.5330129685312
 11
2619.2591156478284
 21
1445.5330129685312
  0
LINE
  8
_0-1_Layer1
  6
CONTINUOUS
 62
    3
 10
2619.2591156478284
 20
1445.5330129685312
 11
2619.2591156478284
 21
1424.2973389685312
  0
LINE
  8
_0-1_Layer1
  6
CONTINUOUS
 62
    3
 10
2619.2591156478284
 20
1424.2973389685312
 11
2605.2355436478274
 21
1424.2973389685312
  0
LINE
  8
_0-1_Layer1
  6
CONTINUOUS
 62
    3
 10
2605.2355436478274
 20
1424.2973389685312
 11
2605.2355436478274
 21
1408.841789968531
  0
LINE
  8
_0-1_Layer1
  6
CONTINUOUS
 62
    3
 10
2605.2355436478274
 20
1408.841789968531
 11
2599.0286816478274
 21
1408.841789968531
  0
LINE
  8
_0-1_Layer1
  6
CONTINUOUS
 62
    3
 10
2599.0286816478274
 20
1408.841789968531
 11
2599.0286816478274
 21
1445.5330129685312
  0
LINE
  8
_0-1_Layer1
  6
CONTINUOUS
 62
    3
 10
2625.2355436478274
 20
1471.3473429685312
 11
2601.6639626478272
 21
1477.9115809685311
  0
ARC
  8
_0-1_Layer1
  6
CONTINUOUS
 62
    3
 10
2600.8591446478272
 20
1475.0215519685312
 40
3
 50
74.438490000000016
 51
164.43849
  0
LINE
  8
_0-1_Layer1
  6
CONTINUOUS
 62
    3
 10
2597.9691156478275
 20
1475.8263699685313
 11
2595.605169647828
 21
1467.3376539685314
  0
ARC
  8
_0-1_Layer1
  6
CONTINUOUS
 62
    3
 10
2598.4951986478272
 20
1466.5328349685315
 40
3
 50
164.43849
 51
254.97520399999999
  0
LINE
  8
_0-1_Layer1
  6
CONTINUOUS
 62
    3
 10
2597.7174866478272
 20
1463.6353939685314
 11
2625.2355436478274
 21
1456.2491879685313
  0
LINE
  8
_0-1_Layer1
  6
PLine2
 62
    3
 10
2686.2355436478274
 20
1523.3483799685312
 11
2686.2355436478274
 21
1479.6267899685313
  0
LINE
  8
_0-1_Layer1
  6
CONTINUOUS
 62
    3
 10
2690.2355436478274
 20
1508.2491879685313
 11
2678.2355436478274
 21
1508.2491879685313
  0
LINE
  8
_0-1_Layer1
  6
CONTINUOUS
 62
    3
 10
2678.2355436478274
 20
1508.2491879685313
 11
2678.2355436478274
 21
1494.2491879685313
  0
LINE
  8
_0-1_Layer1
  6
CONTINUOUS
 62
    3
 10
2678.2355436478274
 20
1494.2491879685313
 11
2690.2355436478274
 21
1494.2491879685313
  0
LINE
  8
_0-1_Layer1
  6
CONTINUOUS
 62
    3
 10
2670.2355436478274
 20
1513.2491879685301
 11
2690.2355436478274
 21
1513.2491879685301
  0
LINE
  8
_0-1_Layer1
  6
CONTINUOUS
 62
    3
 10
2690.2355436478274
 20
1513.2491879685301
 11
2690.2355436478274
 21
1508.2491879685313
  0
LINE
  8
_0-1_Layer1
  6
CONTINUOUS
 62
    3
 10
2690.2355436478274
 20
1508.2491879685313
 11
2695.2355436478274
 21
1508.2491879685313
  0
LINE
  8
_0-1_Layer1
  6
CONTINUOUS
 62
    3
 10
2695.2355436478274
 20
1508.2491879685313
 11
2695.2355436478274
 21
1494.2491879685313
  0
LINE
  8
_0-1_Layer1
  6
CONTINUOUS
 62
    3
 10
2695.2355436478274
 20
1494.2491879685313
 11
2690.2355436478274
 21
1494.2491879685313
  0
LINE
  8
_0-1_Layer1
  6
CONTINUOUS
 62
    3
 10
2690.2355436478274
 20
1494.2491879685313
 11
2690.2355436478274
 21
1489.2491879685301
  0
LINE
  8
_0-1_Layer1
  6
CONTINUOUS
 62
    3
 10
2690.2355436478274
 20
1489.2491879685301
 11
2670.2355436478274
 21
1489.2491879685301
  0
LINE
  8
_0-1_Layer1
  6
CONTINUOUS
 62
    3
 10
2625.2355436478274
 20
1456.2491879685313
 11
2655.2355436478274
 21
1456.2491879685313
  0
LINE
  8
_0-1_Layer1
  6
CONTINUOUS
 62
    3
 10
2655.2355436478274
 20
1456.2491879685313
 11
2660.2355436478274
 21
1466.2491879685313
  0
LINE
  8
_0-1_Layer1
  6
CONTINUOUS
 62
    3
 10
2660.2355436478274
 20
1466.2491879685313
 11
2665.2355436478274
 21
1466.2491879685313
  0
LINE
  8
_0-1_Layer1
  6
CONTINUOUS
 62
    3
 10
2625.2355436478274
 20
1546.2491879685313
 11
2655.2355436478274
 21
1546.2491879685313
  0
LINE
  8
_0-1_Layer1
  6
CONTINUOUS
 62
    3
 10
2655.2355436478274
 20
1546.2491879685313
 11
2660.2355436478274
 21
1536.2491879685313
  0
LINE
  8
_0-1_Layer1
  6
CONTINUOUS
 62
    3
 10
2660.2355436478274
 20
1536.2491879685313
 11
2665.2355436478274
 21
1536.2491879685313
  0
LINE
  8
_0-1_Layer1
  6
CONTINUOUS
 62
    3
 10
2625.2355436478274
 20
1546.2491879685313
 11
2625.2355436478274
 21
1516.2491879685313
  0
LINE
  8
_0-1_Layer1
  6
CONTINUOUS
 62
    3
 10
2625.2355436478274
 20
1516.2491879685313
 11
2600.2355436478274
 21
1516.2491879685313
  0
LINE
  8
_0-1_Layer1
  6
CONTINUOUS
 62
    3
 10
2600.2355436478274
 20
1516.2491879685313
 11
2600.2355436478274
 21
1486.2491879685313
  0
LINE
  8
_0-1_Layer1
  6
CONTINUOUS
 62
    3
 10
2600.2355436478274
 20
1486.2491879685313
 11
2625.2355436478274
 21
1486.2491879685313
  0
LINE
  8
_0-1_Layer1
  6
CONTINUOUS
 62
    3
 10
2625.2355436478274
 20
1486.2491879685313
 11
2625.2355436478274
 21
1456.2491879685313
  0
LINE
  8
_0-1_Layer1
  6
CONTINUOUS
 62
    3
 10
2665.2355436478274
 20
1566.2491879685313
 11
2665.2355436478274
 21
1436.2491879685313
  0
LINE
  8
_0-1_Layer1
  6
CONTINUOUS
 62
    2
 10
2580.2355436478274
 20
1566.2491879685313
 11
2670.2355436478274
 21
1566.2491879685313
  0
LINE
  8
_0-1_Layer1
  6
CONTINUOUS
 62
    2
 10
2598.8341056478275
 20
1436.2491879685313
 11
2580.2355436478274
 21
1436.2491879685313
  0
LINE
  8
_0-1_Layer1
  6
CONTINUOUS
 62
    2
 10
2670.2355436478274
 20
1436.2491879685313
 11
2619.2591156478284
 21
1436.2491879685313
  0
LINE
  8
_0-1_Layer1
  6
CONTINUOUS
 62
    2
 10
2670.2355436478274
 20
1566.2491879685313
 11
2670.2355436478274
 21
1436.2491879685313
  0
LINE
  8
_0-1_Layer1
  6
CONTINUOUS
 62
    3
 10
2605.2355436478274
 20
1407.8365509685314
 11
2605.2355436478274
 21
1321.6511099685313
  0
LINE
  8
_0-1_Layer1
  6
CONTINUOUS
 62
    3
 10
2607.7355436478274
 20
1424.2973389685312
 11
2607.7355436478274
 21
1324.5793269685309
  0
INSERT
  2
-001-DIM_1
  8
_0-1_Layer1
 10
2777.6046416478275
 20
1501.2491879685313
 41
1
 42
1
 50
0
  0
INSERT
  2
-002-DIM_2
  8
_0-1_Layer1
 10
2477.9355436478272
 20
1354.2523369685314
 41
1
 42
1
 50
0
  0
LINE
  8
_0-1_Layer1
  6
CONTINUOUS
 62
    3
 10
3062.9355436478272
 20
1923.5491879685312
 11
2640.6355436478275
 21
1923.5491879685312
  0
LINE
  8
_0-1_Layer1
  6
CONTINUOUS
 62
    3
 10
2640.6355436478275
 20
1923.5491879685312
 11
2640.6355436478275
 21
1566.2491879685313
  0
LINE
  8
_0-1_Layer1
  6
CONTINUOUS
 62
    3
 10
2640.6355436478275
 20
1436.2491879685313
 11
2640.6355436478275
 21
1308.6948589685312
  0
LINE
  8
_0-1_Layer1
  6
CONTINUOUS
 62
    3
 10
2640.6355436478275
 20
1292.8623449685313
 11
2640.6355436478275
 21
1078.9491879685311
  0
LINE
  8
_0-1_Layer1
  6
CONTINUOUS
 62
    3
 10
2640.6355436478275
 20
1078.9491879685311
 11
3062.9355436478272
 21
1078.9491879685311
  0
LINE
  8
_0-1_Layer1
  6
CONTINUOUS
 62
    3
 10
3062.9355436478272
 20
1921.2491879685313
 11
2642.9355436478272
 21
1921.2491879685313
  0
LINE
  8
_0-1_Layer1
  6
CONTINUOUS
 62
    3
 10
2642.9355436478272
 20
1921.2491879685313
 11
2642.9355436478272
 21
1566.2491879685313
  0
LINE
  8
_0-1_Layer1
  6
CONTINUOUS
 62
    3
 10
2642.9355436478272
 20
1436.2491879685313
 11
2642.9355436478272
 21
1309.2491879685313
  0
LINE
  8
_0-1_Layer1
  6
CONTINUOUS
 62
    3
 10
2642.9355436478272
 20
1293.2491879685313
 11
2642.9355436478272
 21
1081.2491879685313
  0
LINE
  8
_0-1_Layer1
  6
CONTINUOUS
 62
    3
 10
2642.9355436478272
 20
1081.2491879685313
 11
3062.9355436478272
 21
1081.2491879685313
  0
LINE
  8
_0-1_Layer1
  6
PLine1
 62
    3
 10
3062.9355436478272
 20
1938.5491879685312
 11
2625.6355436478275
 21
1938.5491879685312
  0
LINE
  8
_0-1_Layer1
  6
PLine1
 62
    3
 10
2625.6355436478275
 20
1938.5491879685312
 11
2625.6355436478275
 21
1566.2491879685313
  0
LINE
  8
_0-1_Layer1
  6
PLine1
 62
    3
 10
2625.6355436478275
 20
1436.2491879685313
 11
2625.6355436478275
 21
1326.0352309685311
  0
LINE
  8
_0-1_Layer1
  6
PLine1
 62
    3
 10
2625.6355436478275
 20
1276.2491879685313
 11
2625.6355436478275
 21
1158.5491879685312
  0
LINE
  8
_0-1_Layer1
  6
PLine1
 62
    3
 10
2625.6355436478275
 20
1108.5491879685312
 11
2625.6355436478275
 21
1063.9491879685311
  0
LINE
  8
_0-1_Layer1
  6
PLine1
 62
    3
 10
2625.6355436478275
 20
1063.9491879685311
 11
3062.9355436478272
 21
1063.9491879685311
  0
LINE
  8
_0-1_Layer1
  6
CONTINUOUS
 62
    3
 10
3062.9355436478272
 20
1936.2491879685313
 11
2627.9355436478272
 21
1936.2491879685313
  0
LINE
  8
_0-1_Layer1
  6
CONTINUOUS
 62
    3
 10
2627.9355436478272
 20
1936.2491879685313
 11
2627.9355436478272
 21
1566.2491879685313
  0
LINE
  8
_0-1_Layer1
  6
CONTINUOUS
 62
    3
 10
2627.9355436478272
 20
1436.2491879685313
 11
2627.9355436478272
 21
1321.7138739685313
  0
LINE
  8
_0-1_Layer1
  6
CONTINUOUS
 62
    3
 10
2627.9355436478272
 20
1306.2130029685313
 11
2627.9355436478272
 21
1302.5223999685313
  0
LINE
  8
_0-1_Layer1
  6
CONTINUOUS
 62
    3
 10
2627.9355436478272
 20
1066.2491879685313
 11
3062.9355436478272
 21
1066.2491879685313
  0
LINE
  8
_0-1_Layer1
  6
CONTINUOUS
 62
    2
 10
2627.9355436478272
 20
1299.7435929685312
 11
2627.9355436478272
 21
1066.2491879685313
  0
LINE
  8
_0-1_Layer1
  6
PLine2
 62
    3
 10
2402.0259116478273
 20
1501.2491879685313
 11
3688.5689246478273
 21
1501.2491879685313
  0
INSERT
  2
-003-DIM_3
  8
_0-1_Layer1
 10
3274.0108156478273
 20
916.24918796853103
 41
1
 42
1
 50
0
  0
INSERT
  2
-004-DIM_4
  8
_0-1_Layer1
 10
3274.0108156478273
 20
1016.249187968531
 41
1
 42
1
 50
0
  0
INSERT
  2
-005-DIM_5
  8
_0-1_Layer1
 10
3274.0108156478273
 20
1081.2491879685313
 41
1
 42
1
 50
0
  0
INSERT
  2
-006-DIM_6
  8
_0-1_Layer1
 10
3274.0108156478273
 20
1921.2491879685313
 41
1
 42
1
 50
0
  0
INSERT
  2
-007-DIM_7
  8
_0-1_Layer1
 10
3277.2444136478275
 20
1986.2491879685313
 41
1
 42
1
 50
0
  0
LINE
  8
_0-1_Layer1
  6
CONTINUOUS
 62
    3
 10
3062.9355436478272
 20
1983.9491879685311
 11
2580.2355436478274
 21
1983.9491879685311
  0
LINE
  8
_0-1_Layer1
  6
CONTINUOUS
 62
    3
 10
2580.2355436478274
 20
1983.9491879685311
 11
2580.2355436478274
 21
1018.5491879685312
  0
LINE
  8
_0-1_Layer1
  6
CONTINUOUS
 62
    3
 10
2580.2355436478274
 20
1018.5491879685312
 11
3062.9355436478272
 21
1018.5491879685312
  0
LINE
  8
_0-1_Layer1
  6
CONTINUOUS
 62
    3
 10
3062.9355436478272
 20
1986.2491879685313
 11
2577.9355436478272
 21
1986.2491879685313
  0
LINE
  8
_0-1_Layer1
  6
CONTINUOUS
 62
    3
 10
2577.9355436478272
 20
1986.2491879685313
 11
2577.9355436478272
 21
1016.249187968531
  0
LINE
  8
_0-1_Layer1
  6
CONTINUOUS
 62
    3
 10
2577.9355436478272
 20
1016.249187968531
 11
3062.9355436478272
 21
1016.249187968531
  0
LINE
  8
_0-1_Layer1
  6
PLine1
 62
    3
 10
2480.2355436478274
 20
918.54918796853099
 11
2480.2355436478274
 21
2083.9491879685311
  0
LINE
  8
_0-1_Layer1
  6
PLine1
 62
    3
 10
2480.2355436478274
 20
2083.9491879685311
 11
3062.9355436478272
 21
2083.9491879685311
  0
LINE
  8
_0-1_Layer1
  6
PLine1
 62
    3
 10
3062.9355436478272
 20
918.54918796853099
 11
2654.3265736478274
 21
918.54918796853099
  0
LINE
  8
_0-1_Layer1
  6
PLine1
 62
    3
 10
2559.2253406478285
 20
918.54918796853099
 11
2480.2355436478274
 21
918.54918796853099
  0
LINE
  8
_0-1_Layer1
  6
PLine1
 62
    3
 10
2643.6232596478276
 20
918.54918796853099
 11
2569.3478266478273
 21
918.54918796853099
  0
LINE
  8
_0-1_Layer1
  6
PLine2
 62
    3
 10
3062.9355436478272
 20
2140.9714369685312
 11
3062.9355436478272
 21
851.27497896853117
  0
LINE
  8
_0-1_Layer1
  6
CONTINUOUS
 62
    2
 10
2477.9355436478272
 20
916.24918796853103
 11
2477.9355436478272
 21
2086.2491879685313
  0
LINE
  8
_0-1_Layer1
  6
CONTINUOUS
 62
    2
 10
2477.9355436478272
 20
2086.2491879685313
 11
3062.9355436478272
 21
2086.2491879685313
  0
LINE
  8
_0-1_Layer1
  6
CONTINUOUS
 62
    2
 10
2643.2084456478278
 20
916.24918796853103
 11
2571.2807206478274
 21
916.24918796853103
  0
LINE
  8
_0-1_Layer1
  6
CONTINUOUS
 62
    2
 10
2559.6994966478273
 20
916.24918796853103
 11
2477.9355436478272
 21
916.24918796853103
  0
LINE
  8
_0-1_Layer1
  6
CONTINUOUS
 62
    2
 10
2653.3897006478273
 20
916.24918796853103
 11
3062.9355436478272
 21
916.24918796853103
  0
CIRCLE
  8
_0-1_Layer1
  6
CONTINUOUS
 62
    3
 10
1657.8490616478275
 20
1620.2321679685313
 40
0.3960000000000719
  0
CIRCLE
  8
_0-1_Layer1
  6
CONTINUOUS
 62
    3
 10
1314.6618366478274
 20
1619.5584209685312
 40
0.3960000000000719
  0
CIRCLE
  8
_0-1_Layer1
  6
CONTINUOUS
 62
    3
 10
1364.6618366478274
 20
1619.5584209685312
 40
0.3960000000000719
  0
CIRCLE
  8
_0-1_Layer1
  6
CONTINUOUS
 62
    3
 10
1414.6618366478274
 20
1619.5584209685312
 40
0.3960000000000719
  0
CIRCLE
  8
_0-1_Layer1
  6
CONTINUOUS
 62
    3
 10
1464.6618366478274
 20
1619.5584209685312
 40
0.3960000000000719
  0
CIRCLE
  8
_0-1_Layer1
  6
CONTINUOUS
 62
    3
 10
1614.6618366478274
 20
1619.5584209685312
 40
0.3960000000000719
  0
CIRCLE
  8
_0-1_Layer1
  6
CONTINUOUS
 62
    3
 10
1514.0328366478273
 20
1619.5584209685312
 40
0.3960000000000719
  0
CIRCLE
  8
_0-1_Layer1
  6
CONTINUOUS
 62
    3
 10
1564.0328366478273
 20
1619.5584209685312
 40
0.3960000000000719
  0
LINE
  8
_0-1_Layer1
  6
CONTINUOUS
 62
    3
 10
1279.1618366478274
 20
1616.6144209685312
 11
1714.9678366478274
 21
1616.6144209685312
  0
LINE
  8
_0-1_Layer1
  6
CONTINUOUS
 62
    6
 10
1714.9678366478274
 20
1623.2994209685312
 11
1692.0728366478274
 21
1623.2994209685312
  0
LINE
  8
_0-1_Layer1
  6
CONTINUOUS
 62
    6
 10
1714.9678366478274
 20
1625.3394209685312
 11
1692.0728366478274
 21
1625.3394209685312
  0
LINE
  8
_0-1_Layer1
  6
CONTINUOUS
 62
    6
 10
1714.9678366478274
 20
1624.2504189685312
 11
1692.0728366478274
 21
1624.2514149685312
  0
LINE
  8
_0-1_Layer1
  6
CONTINUOUS
 62
    6
 10
1692.0728366478274
 20
1622.8914209685313
 11
1692.0728366478274
 21
1625.7474209685313
  0
LINE
  8
_0-1_Layer1
  6
CONTINUOUS
 62
    6
 10
1714.9678366478274
 20
1622.8914209685313
 11
1692.0728366478274
 21
1622.8914209685313
  0
LINE
  8
_0-1_Layer1
  6
CONTINUOUS
 62
    3
 10
1695.0648416478273
 20
1616.6144209685312
 11
1695.0658896478274
 21
1612.6254209685312
  0
LINE
  8
_0-1_Layer1
  6
CONTINUOUS
 62
    3
 10
1714.9208366478274
 20
1613.0984209685312
 11
1711.4058306478273
 21
1616.6144209685312
  0
LINE
  8
_0-1_Layer1
  6
CONTINUOUS
 62
    3
 10
1708.5498306478275
 20
1616.6144209685312
 11
1712.5378196478273
 21
1612.6254209685312
  0
LINE
  8
_0-1_Layer1
  6
CONTINUOUS
 62
    3
 10
1709.4098196478274
 20
1612.6254209685312
 11
1705.4218306478274
 21
1616.6144209685312
  0
LINE
  8
_0-1_Layer1
  6
CONTINUOUS
 62
    3
 10
1706.0108366478271
 20
1612.6254209685312
 11
1702.0218366478273
 21
1616.6144209685312
  0
LINE
  8
_0-1_Layer1
  6
CONTINUOUS
 62
    3
 10
1702.7468366478274
 20
1612.6254209685312
 11
1698.7578366478274
 21
1616.6144209685312
  0
LINE
  8
_0-1_Layer1
  6
CONTINUOUS
 62
    3
 10
1699.3468876478273
 20
1612.6254209685312
 11
1695.3568756478273
 21
1616.6144209685312
  0
LINE
  8
_0-1_Layer1
  6
CONTINUOUS
 62
    6
 10
1714.9678366478274
 20
1624.7944209685311
 11
1692.0728366478274
 21
1624.7944209685311
  0
LINE
  8
_0-1_Layer1
  6
CONTINUOUS
 62
    6
 10
1714.9678366478274
 20
1623.7064209685311
 11
1692.0728366478274
 21
1623.7064209685311
  0
CIRCLE
  8
_0-1_Layer1
  6
CONTINUOUS
 62
    3
 10
1693.6618366478274
 20
1619.5584209685312
 40
0.3960000000000719
  0
LINE
  8
_0-1_Layer1
  6
CONTINUOUS
 62
    3
 10
1734.9678366478274
 20
1614.7814209685312
 11
1734.9678366478274
 21
1612.7814209685312
  0
LINE
  8
_0-1_Layer1
  6
CONTINUOUS
 62
    3
 10
1726.9678366478274
 20
1616.7814209685312
 11
1726.9678366478274
 21
1608.780420968531
  0
ARC
  8
_0-1_Layer1
  6
CONTINUOUS
 62
    3
 10
1716.0968366478273
 20
1626.6514209685311
 40
1.0000000000002269
 50
0
 51
90
  0
LINE
  8
_0-1_Layer1
  6
CONTINUOUS
 62
    3
 10
1735.0488366478273
 20
1614.731420968531
 11
1717.0968366478273
 21
1614.731420968531
  0
LINE
  8
_0-1_Layer1
  6
CONTINUOUS
 62
    3
 10
1717.0968366478273
 20
1614.731420968531
 11
1717.0968366478273
 21
1626.6514209685311
  0
LINE
  8
_0-1_Layer1
  6
CONTINUOUS
 62
    3
 10
1716.0968366478273
 20
1627.6514209685315
 11
1691.9368366478272
 21
1627.6514209685315
  0
LINE
  8
_0-1_Layer1
  6
CONTINUOUS
 62
    3
 10
1705.6828366478273
 20
1622.5994209685311
 11
1705.6828366478273
 21
1616.5274209685313
  0
LINE
  8
_0-1_Layer1
  6
CONTINUOUS
 62
    3
 10
1691.9368366478272
 20
1627.6514209685315
 11
1691.9378366478277
 21
1625.7474209685313
  0
LINE
  8
_0-1_Layer1
  6
CONTINUOUS
 62
    3
 10
825.72483664782749
 20
1614.4354209685312
 11
825.72483664782749
 21
1612.6254209685312
  0
LINE
  8
_0-1_Layer1
  6
CONTINUOUS
 62
    3
 10
845.74083664782734
 20
1625.2824209685311
 11
845.74083664782734
 21
1616.1824209685312
  0
LINE
  8
_0-1_Layer1
  6
CONTINUOUS
 62
    3
 10
848.64681064782735
 20
1612.6254209685312
 11
845.72483664782726
 21
1615.5464959685312
  0
LINE
  8
_0-1_Layer1
  6
CONTINUOUS
 62
    3
 10
865.36987964782702
 20
1616.1824209685312
 11
867.72483664782749
 21
1613.8282509685312
  0
LINE
  8
_0-1_Layer1
  6
CONTINUOUS
 62
    3
 10
865.5458366478274
 20
1612.6254209685312
 11
861.98883664782716
 21
1616.1824209685312
  0
LINE
  8
_0-1_Layer1
  6
CONTINUOUS
 62
    3
 10
858.60987164782728
 20
1616.1824209685312
 11
862.16589464782737
 21
1612.6254209685312
  0
LINE
  8
_0-1_Layer1
  6
CONTINUOUS
 62
    3
 10
855.22983664782737
 20
1616.1824209685312
 11
858.78683664782739
 21
1612.6254209685312
  0
LINE
  8
_0-1_Layer1
  6
CONTINUOUS
 62
    6
 10
869.00983664782734
 20
1624.1124209685311
 11
845.74083664782734
 21
1624.1124209685311
  0
LINE
  8
_0-1_Layer1
  6
CONTINUOUS
 62
    3
 10
855.27686064782733
 20
1612.6254209685312
 11
851.72091264782716
 21
1616.1824209685312
  0
LINE
  8
_0-1_Layer1
  6
CONTINUOUS
 62
    3
 10
848.59983664782749
 20
1616.1824209685312
 11
852.15683664782728
 21
1612.6254209685312
  0
LINE
  8
_0-1_Layer1
  6
CONTINUOUS
 62
    6
 10
868.87983664782723
 20
1625.2824209685311
 11
868.87983664782723
 21
1622.5524209685314
  0
LINE
  8
_0-1_Layer1
  6
CONTINUOUS
 62
    6
 10
869.00983664782734
 20
1624.6324209685313
 11
845.74083664782734
 21
1624.6324209685313
  0
LINE
  8
_0-1_Layer1
  6
CONTINUOUS
 62
    6
 10
869.00983664782734
 20
1623.0724209685311
 11
845.74083664782734
 21
1623.0724209685311
  0
LINE
  8
_0-1_Layer1
  6
CONTINUOUS
 62
    6
 10
868.87983664782723
 20
1623.5914209685311
 11
845.74083664782734
 21
1623.5914209685311
  0
LINE
  8
_0-1_Layer1
  6
CONTINUOUS
 62
    3
 10
891.8578366478273
 20
1616.6134209685313
 11
854.59683664782733
 21
1616.6124209685311
  0
LINE
  8
_0-1_Layer1
  6
CONTINUOUS
 62
    3
 10
854.78283664782748
 20
1616.5914209685311
 11
849.98883664782738
 21
1616.5914209685311
  0
CIRCLE
  8
_0-1_Layer1
  6
CONTINUOUS
 62
    3
 10
1243.6618366478274
 20
1619.5584209685312
 40
0.3960000000000719
  0
CIRCLE
  8
_0-1_Layer1
  6
CONTINUOUS
 62
    3
 10
1193.6618366478274
 20
1619.5584209685312
 40
0.3960000000000719
  0
CIRCLE
  8
_0-1_Layer1
  6
CONTINUOUS
 62
    3
 10
1143.6618366478274
 20
1619.5584209685312
 40
0.3960000000000719
  0
CIRCLE
  8
_0-1_Layer1
  6
CONTINUOUS
 62
    3
 10
1093.6618366478274
 20
1619.5584209685312
 40
0.3960000000000719
  0
CIRCLE
  8
_0-1_Layer1
  6
CONTINUOUS
 62
    3
 10
943.66183664782739
 20
1619.5584209685312
 40
0.3960000000000719
  0
CIRCLE
  8
_0-1_Layer1
  6
CONTINUOUS
 62
    3
 10
1044.2908366478273
 20
1619.5584209685312
 40
0.3960000000000719
  0
CIRCLE
  8
_0-1_Layer1
  6
CONTINUOUS
 62
    3
 10
994.29083664782729
 20
1619.5584209685312
 40
0.3960000000000719
  0
LINE
  8
_0-1_Layer1
  6
CONTINUOUS
 62
    3
 10
1279.1618366478274
 20
1616.6144209685312
 11
1226.6808366478274
 21
1616.6144209685312
  0
LINE
  8
_0-1_Layer1
  6
CONTINUOUS
 62
    3
 10
1227.9128366478274
 20
1622.5994209685311
 11
850.57283664782722
 21
1622.5984209685312
  0
LINE
  8
_0-1_Layer1
  6
CONTINUOUS
 62
    3
 10
1234.4198366478274
 20
1616.6144209685312
 11
850.57283664782722
 21
1616.6144209685312
  0
LINE
  8
_0-1_Layer1
  6
CONTINUOUS
 62
    3
 10
845.72483664782726
 20
1616.1824209685312
 11
845.72483664782726
 21
1612.6254209685312
  0
LINE
  8
_0-1_Layer1
  6
CONTINUOUS
 62
    3
 10
843.72483664782749
 20
1614.4354209685312
 11
825.72483664782749
 21
1614.4354209685312
  0
LINE
  8
_0-1_Layer1
  6
CONTINUOUS
 62
    3
 10
843.78983664782731
 20
1614.3624209685311
 11
843.79083664782729
 21
1626.3624209685308
  0
ARC
  8
_0-1_Layer1
  6
CONTINUOUS
 62
    3
 10
844.78983664782731
 20
1626.3624209685308
 40
1.0000000000002269
 50
89.942703000000023
 51
180
  0
LINE
  8
_0-1_Layer1
  6
CONTINUOUS
 62
    3
 10
833.72483664782749
 20
1616.4354209685312
 11
833.72583664782724
 21
1608.4344209685312
  0
ARC
  8
_0-1_Layer1
  6
CONTINUOUS
 62
    3
 10
844.79083664782729
 20
1626.3624209685308
 40
1.0000000000002269
 50
90
 51
180
  0
LINE
  8
_0-1_Layer1
  6
CONTINUOUS
 62
    3
 10
880.35083664782724
 20
1612.6254209685312
 11
877.24883664782737
 21
1612.6254209685312
  0
LINE
  8
_0-1_Layer1
  6
CONTINUOUS
 62
    3
 10
867.71583664782747
 20
1610.9514209685301
 11
867.71583664782747
 21
1612.5964209685312
  0
LINE
  8
_0-1_Layer1
  6
CONTINUOUS
 62
    3
 10
844.79083664782729
 20
1627.3624209685313
 11
868.87983664782723
 21
1627.3614209685311
  0
LINE
  8
_0-1_Layer1
  6
CONTINUOUS
 62
    3
 10
868.87983664782723
 20
1627.3614209685311
 11
868.87983664782723
 21
1625.2824209685311
  0
LINE
  8
_0-1_Layer1
  6
CONTINUOUS
 62
    6
 10
868.87983664782723
 20
1625.2824209685311
 11
845.74083664782734
 21
1625.2824209685311
  0
CIRCLE
  8
_0-1_Layer1
  6
CONTINUOUS
 62
    3
 10
894.27641564782743
 20
1619.5584209685312
 40
0.3960000000000719
  0
LINE
  8
_0-1_Layer1
  6
CONTINUOUS
 62
    3
 10
1225.8928366478274
 20
1622.5994209685311
 11
1279.1618366478274
 21
1622.5994209685311
  0
LINE
  8
_0-1_Layer1
  6
CONTINUOUS
 62
    3
 10
867.72483664782749
 20
1616.1824209685312
 11
867.72483664782749
 21
1612.412420968531
  0
LINE
  8
_0-1_Layer1
  6
CONTINUOUS
 62
    3
 10
845.72483664782726
 20
1616.1824209685312
 11
867.72483664782749
 21
1616.1824209685312
  0
LINE
  8
_0-1_Layer1
  6
CONTINUOUS
 62
    3
 10
849.95083664782737
 20
1622.6124209685308
 11
890.07983664782728
 21
1622.6124209685308
  0
LINE
  8
_0-1_Layer1
  6
CONTINUOUS
 62
    3
 10
849.95083664782737
 20
1616.5914209685311
 11
849.95083664782737
 21
1622.6124209685308
  0
LINE
  8
_0-1_Layer1
  6
CONTINUOUS
 62
    4
 10
879.64483664782711
 20
1612.6254209685312
 11
879.64483664782711
 21
1511.7653139685312
  0
ARC
  8
_0-1_Layer1
  6
CONTINUOUS
 62
    3
 10
1246.1331866478274
 20
1481.7685279685311
 40
5
 50
190.33174699999998
 51
279.82286699999997
  0
LINE
  8
_0-1_Layer1
  6
CONTINUOUS
 62
    3
 10
1241.2150226478273
 20
1480.8719309685312
 11
1239.0630806478273
 21
1492.677521968531
  0
ARC
  8
_0-1_Layer1
  6
CONTINUOUS
 62
    3
 10
1243.9812446478275
 20
1493.5741189685311
 40
5
 50
99.821546999999981
 51
190.33174699999998
  0
LINE
  8
_0-1_Layer1
  6
CONTINUOUS
 62
    3
 10
1211.2350026478273
 20
1471.1463749685313
 11
1240.9398076478274
 21
1481.5598479685311
  0
LINE
  8
_0-1_Layer1
  6
CONTINUOUS
 62
    3
 10
1242.3056236478274
 20
1498.3803079685313
 11
1246.3262206478273
 21
1476.5682779685312
  0
CIRCLE
  8
_0-1_Layer1
  6
CONTINUOUS
 62
    3
 10
1200.9300026478275
 20
1479.8051769685312
 40
4.7650000000000139
  0
LINE
  8
_0-1_Layer1
  6
CONTINUOUS
 62
    3
 10
1211.2350026478273
 20
1451.7649699685312
 11
1211.2350026478273
 21
1486.2597859685311
  0
ARC
  8
_0-1_Layer1
  6
CONTINUOUS
 62
    3
 10
1200.4720026478274
 20
1478.5887859685313
 40
13.62700000000004
 50
37.831099999999999
 51
142.16890000000004
  0
LINE
  8
_0-1_Layer1
  6
CONTINUOUS
 62
    3
 10
1170.7020026478274
 20
1454.4287859685312
 11
1211.4640026478273
 21
1454.4287859685312
  0
LINE
  8
_0-1_Layer1
  6
CONTINUOUS
 62
    3
 10
1170.7020026478274
 20
1451.7650139685311
 11
1170.7020026478274
 21
1454.4287859685312
  0
LINE
  8
_0-1_Layer1
  6
CONTINUOUS
 62
    3
 10
1170.7020026478274
 20
1454.6577859685312
 11
1189.1800026478263
 21
1486.6617859685311
  0
ARC
  8
_0-1_Layer1
  6
CONTINUOUS
 62
    3
 10
1489.3072236478274
 20
1525.0624209685311
 40
5
 50
276.67300399999999
 51
8.3262020000000501
  0
LINE
  8
_0-1_Layer1
  6
CONTINUOUS
 62
    3
 10
1492.5162236478272
 20
1537.6654209685312
 11
1494.2542236478271
 21
1525.7864209685313
  0
LINE
  8
_0-1_Layer1
  6
CONTINUOUS
 62
    3
 10
1492.7802236478274
 20
1537.0574209685312
 11
1519.1802236478275
 21
1543.3934209685312
  0
LINE
  8
_0-1_Layer1
  6
CONTINUOUS
 62
    3
 10
1487.8812236478275
 20
1541.9604209685313
 11
1491.5292236478274
 21
1520.5914209685311
  0
LINE
  8
_0-1_Layer1
  6
CONTINUOUS
 62
    3
 10
1494.3642236478274
 20
1526.8284209685312
 11
1530.0852236478274
 21
1526.8284209685312
  0
LINE
  8
_0-1_Layer1
  6
CONTINUOUS
 62
    3
 10
1518.8952236478276
 20
1566.4574209685311
 11
1518.8952236478276
 21
1531.9574209685311
  0
CIRCLE
  8
_0-1_Layer1
  6
CONTINUOUS
 62
    3
 10
1529.1072236478274
 20
1536.6494209685311
 40
4.975999999999984
  0
LINE
  8
_0-1_Layer1
  6
CONTINUOUS
 62
    3
 10
1559.1912236478274
 20
1563.9734209685312
 11
1540.3972236478273
 21
1531.4204209685313
  0
ARC
  8
_0-1_Layer1
  6
CONTINUOUS
 62
    3
 10
1529.7972236478272
 20
1539.8234209685311
 40
13.387000000000031
 50
217.46054100000001
 51
322.539444
  0
LINE
  8
_0-1_Layer1
  6
CONTINUOUS
 62
    3
 10
1559.1912236478274
 20
1566.4574209685311
 11
1559.1912236478274
 21
1563.9734209685312
  0
LINE
  8
_0-1_Layer1
  6
CONTINUOUS
 62
    3
 10
1559.1912236478274
 20
1563.9734209685312
 11
1518.6192236478273
 21
1563.9734209685312
  0
ARC
  8
_0-1_Layer1
  6
CONTINUOUS
 62
    3
 10
1486.4412236478274
 20
1535.6984209685311
 40
6.3110000000000337
 50
12.351563000000002
 51
75.210693000000006
  0
LINE
  8
_0-1_Layer1
  6
CONTINUOUS
 62
    3
 10
1239.0188966478274
 20
1493.6806099685309
 11
1203.9928226478273
 21
1491.7530929685313
  0
LINE
  8
_0-1_Layer1
  6
CONTINUOUS
 62
    3
 10
1714.9678366478274
 20
1612.6254209685312
 11
1714.9678366478274
 21
1625.7474209685313
  0
LINE
  8
_0-1_Layer1
  6
CONTINUOUS
 62
    3
 10
1691.9378366478277
 20
1625.7474209685313
 11
1714.9678366478274
 21
1625.7474209685313
  0
LINE
  8
_0-1_Layer1
  6
CONTINUOUS
 62
    4
 10
969.64483664782711
 20
1495.7652369685311
 11
969.64483664782711
 21
1496.7652379685314
  0
ARC
  8
_0-1_Layer1
  6
CONTINUOUS
 62
    4
 10
965.64483664782733
 20
1495.7652369685311
 40
3.9999999999999858
 50
270
 51
0
  0
LINE
  8
_0-1_Layer1
  6
CONTINUOUS
 62
    4
 10
965.64483164782769
 20
1491.7652369685311
 11
889.64481564782727
 21
1491.7653139685312
  0
ARC
  8
_0-1_Layer1
  6
CONTINUOUS
 62
    4
 10
889.64483664782711
 20
1511.7653139685312
 40
20
 50
180
 51
269.99994199999998
  0
LINE
  8
_0-1_Layer1
  6
CONTINUOUS
 62
    4
 10
869.64483664782711
 20
1511.7653139685312
 11
869.64483664782711
 21
1612.6254209685312
  0
LINE
  8
_0-1_Layer1
  6
CONTINUOUS
 62
    3
 10
919.64483664782711
 20
1531.7652829685312
 11
915.63110164782711
 21
1533.9354379685312
  0
LINE
  8
_0-1_Layer1
  6
CONTINUOUS
 62
    3
 10
907.48796864782707
 20
1538.338283968531
 11
879.64483664782711
 21
1553.3925689685311
  0
LINE
  8
_0-1_Layer1
  6
CONTINUOUS
 62
    3
 10
869.64483664782711
 20
1558.7993899685312
 11
827.1688896478272
 21
1581.7653759685311
  0
LINE
  8
_0-1_Layer1
  6
CONTINUOUS
 62
    3
 10
919.64483664782711
 20
1581.7652829685312
 11
919.64483664782711
 21
1531.7652829685312
  0
LINE
  8
_0-1_Layer1
  6
CONTINUOUS
 62
    3
 10
1694.1388366478272
 20
1611.0184209685312
 11
1778.6008366478272
 21
1611.0184209685312
  0
LINE
  8
_0-1_Layer1
  6
CONTINUOUS
 62
    3
 10
1239.8483706478273
 20
1633.7885469685311
 11
1254.1784976478273
 21
1618.9680389685309
  0
LINE
  8
_0-1_Layer1
  6
CONTINUOUS
 62
    3
 10
1254.1784976478273
 20
1618.9680389685309
 11
1205.4722056478274
 21
1703.3298119685312
  0
LINE
  8
_0-1_Layer1
  6
CONTINUOUS
 62
    3
 10
1205.4722056478274
 20
1703.3298119685312
 11
973.27220564782738
 21
1703.3298119685312
  0
TEXT
  8
_0-1_Layer1
 62
    7
 10
903.36186164782725
 20
1713.3299399685311
 40
30
 41
0.8582679999999999
 50
0
  1
ｔ＝６．８網入り硝子
  0
LINE
  8
_0-1_Layer1
  6
CONTINUOUS
 62
    3
 10
814.85646264782736
 20
1557.176179968531
 11
829.18658964782708
 21
1542.3556719685312
  0
LINE
  8
_0-1_Layer1
  6
CONTINUOUS
 62
    3
 10
829.18658964782708
 20
1542.3556719685312
 11
597.72922664782698
 21
1943.2515849685315
  0
LINE
  8
_0-1_Layer1
  6
CONTINUOUS
 62
    3
 10
597.72922664782698
 20
1943.2515849685315
 11
417.12922664782724
 21
1943.2515849685315
  0
TEXT
  8
_0-1_Layer1
 62
    7
 10
389.66459164782748
 20
1948.2515849685315
 40
30
 41
0.8582679999999999
 50
-0.0000000000000225
  1
ローラーラッチ
  0
LINE
  8
_0-1_Layer1
  6
CONTINUOUS
 62
    3
 10
1142.7940506478274
 20
1988.2000599685311
 11
1156.4454836478274
 21
1988.2000599685311
  0
LINE
  8
_0-1_Layer1
  6
CONTINUOUS
 62
    3
 10
1156.4454836478274
 20
1988.2000599685311
 11
1156.4454836478274
 21
2003.7475259685311
  0
LINE
  8
_0-1_Layer1
  6
CONTINUOUS
 62
    3
 10
1156.4454836478274
 20
2003.7475259685311
 11
1142.7940506478274
 21
2003.7475259685311
  0
LINE
  8
_0-1_Layer1
  6
CONTINUOUS
 62
    3
 10
1142.7940506478274
 20
2003.7475259685311
 11
1142.7940506478274
 21
1988.2000599685311
  0
LINE
  8
_0-1_Layer1
  6
CONTINUOUS
 62
    3
 10
1130.1216286478273
 20
2085.1541809685314
 11
1144.9106816478275
 21
2085.1541809685314
  0
LINE
  8
_0-1_Layer1
  6
CONTINUOUS
 62
    3
 10
1144.9106816478275
 20
2085.1541809685314
 11
1144.9106816478275
 21
2102.2184729685314
  0
LINE
  8
_0-1_Layer1
  6
CONTINUOUS
 62
    3
 10
1144.9106816478275
 20
2102.2184729685314
 11
1130.1216286478273
 21
2102.2184729685314
  0
LINE
  8
_0-1_Layer1
  6
CONTINUOUS
 62
    3
 10
1130.1216286478273
 20
2102.2184729685314
 11
1130.1216286478273
 21
2085.1541809685314
  0
LINE
  8
_0-1_Layer1
  6
PLine2
 62
    3
 10
1728.9288366478274
 20
1519.8291289685312
 11
1728.9288366478274
 21
1469.9607219685313
  0
LINE
  8
_0-1_Layer1
  6
PLine2
 62
    3
 10
1694.1508366478274
 20
1538.6616089685313
 11
1694.1508366478274
 21
1462.2017399685315
  0
ARC
  8
_0-1_Layer1
  6
CONTINUOUS
 62
    4
 10
889.64483664782711
 20
1511.7653139685312
 40
10
 50
180
 51
269.99994199999998
  0
LINE
  8
_0-1_Layer1
  6
CONTINUOUS
 62
    3
 10
809.26018364782726
 20
1478.9873159685312
 11
837.19278264782724
 21
1478.9873159685312
  0
LINE
  8
_0-1_Layer1
  6
CONTINUOUS
 62
    3
 10
822.68983664782741
 20
1540.0687119685313
 11
822.68983664782741
 21
1511.4646559685311
  0
LINE
  8
_0-1_Layer1
  6
CONTINUOUS
 62
    3
 10
809.52876564782719
 20
1527.8481999685312
 11
838.2671136478275
 21
1527.8481999685312
  0
CIRCLE
  8
_0-1_Layer1
  6
CONTINUOUS
 62
    3
 10
822.82360864782731
 20
1527.9824909685312
 40
4.9977313188558261
  0
ARC
  8
_0-1_Layer1
  6
CONTINUOUS
 62
    3
 10
822.68983664782741
 20
1451.7654059685312
 40
5.0000000000228777
 50
359.99982699999998
 51
179.99982700000004
  0
ARC
  8
_0-1_Layer1
  6
CONTINUOUS
 62
    3
 10
822.68983664782741
 20
1501.7653959685313
 40
5.0000000000029834
 50
180
 51
0
  0
LINE
  8
_0-1_Layer1
  6
CONTINUOUS
 62
    3
 10
827.68983664782718
 20
1451.7653899685315
 11
827.68983664782718
 21
1501.7653899685315
  0
LINE
  8
_0-1_Layer1
  6
CONTINUOUS
 62
    3
 10
827.68983664782718
 20
1501.7653899685315
 11
829.98983664782736
 21
1501.7653879685313
  0
LINE
  8
_0-1_Layer1
  6
CONTINUOUS
 62
    3
 10
829.98983664782736
 20
1501.7653879685313
 11
829.98983664782736
 21
1454.0654209685313
  0
LINE
  8
_0-1_Layer1
  6
CONTINUOUS
 62
    3
 10
829.98983664782736
 20
1454.0654209685313
 11
842.68983664782718
 21
1454.0654209685313
  0
LINE
  8
_0-1_Layer1
  6
CONTINUOUS
 62
    3
 10
842.68983664782718
 20
1454.0654209685313
 11
842.68983664782718
 21
1451.7653739685311
  0
LINE
  8
_0-1_Layer1
  6
CONTINUOUS
 62
    3
 10
802.68983664782718
 20
1451.7654209685311
 11
802.68983664782718
 21
1454.0654209685313
  0
LINE
  8
_0-1_Layer1
  6
CONTINUOUS
 62
    3
 10
802.68983664782718
 20
1454.0654209685313
 11
815.38983664782734
 21
1454.0654209685313
  0
LINE
  8
_0-1_Layer1
  6
CONTINUOUS
 62
    3
 10
815.38983664782734
 20
1454.0654209685313
 11
815.38983664782734
 21
1501.7654039685312
  0
LINE
  8
_0-1_Layer1
  6
CONTINUOUS
 62
    3
 10
815.38983664782734
 20
1501.7654039685312
 11
817.68983664782718
 21
1501.7654009685311
  0
LINE
  8
_0-1_Layer1
  6
CONTINUOUS
 62
    3
 10
817.68983664782718
 20
1501.7654009685311
 11
817.68983664782718
 21
1451.7654209685311
  0
LINE
  8
_0-1_Layer1
  6
CONTINUOUS
 62
    3
 10
887.68983664782741
 20
1535.3921209685311
 11
907.46210864782734
 21
1535.3921209685311
  0
LINE
  8
_0-1_Layer1
  6
CONTINUOUS
 62
    3
 10
907.46210864782734
 20
1550.7842229685311
 11
915.63110164782711
 21
1550.7842229685311
  0
LINE
  8
_0-1_Layer1
  6
CONTINUOUS
 62
    3
 10
915.63110164782711
 20
1550.7842229685311
 11
915.63110164782711
 21
1516.5528639685313
  0
LINE
  8
_0-1_Layer1
  6
CONTINUOUS
 62
    3
 10
915.63110164782711
 20
1516.5528639685313
 11
887.68983664782741
 21
1521.8057969685312
  0
LINE
  8
_0-1_Layer1
  6
CONTINUOUS
 62
    3
 10
887.68983664782741
 20
1521.8057969685312
 11
907.46210864782734
 21
1521.8057969685312
  0
LINE
  8
_0-1_Layer1
  6
CONTINUOUS
 62
    3
 10
907.46210864782734
 20
1521.8057969685312
 11
907.46210864782734
 21
1550.7842229685311
  0
LINE
  8
_0-1_Layer1
  6
PLine1
 62
    3
 10
887.68983664782741
 20
1539.0036759685311
 11
879.64483664782711
 21
1539.0036759685311
  0
LINE
  8
_0-1_Layer1
  6
PLine1
 62
    3
 10
869.64483664782711
 20
1539.0036759685311
 11
803.9308776478274
 21
1539.0036759685311
  0
LINE
  8
_0-1_Layer1
  6
PLine1
 62
    3
 10
803.9308776478274
 20
1539.0036759685311
 11
803.9308776478274
 21
1516.7654209685311
  0
LINE
  8
_0-1_Layer1
  6
PLine1
 62
    3
 10
803.9308776478274
 20
1516.7654209685311
 11
869.64483664782711
 21
1516.7654209685311
  0
LINE
  8
_0-1_Layer1
  6
PLine1
 62
    3
 10
879.64483664782711
 20
1516.7654209685311
 11
887.68983664782741
 21
1516.7654209685311
  0
CIRCLE
  8
_0-1_Layer1
  6
CONTINUOUS
 62
    3
 10
899.99186464782724
 20
1478.8458169685309
 40
2.704095997169631
  0
LINE
  8
_0-1_Layer1
  6
CONTINUOUS
 62
    3
 10
797.68983664782718
 20
1541.7654209685311
 11
869.64483664782711
 21
1541.7654209685311
  0
LINE
  8
_0-1_Layer1
  6
CONTINUOUS
 62
    3
 10
879.64483664782711
 20
1541.7654209685311
 11
887.68983664782741
 21
1541.7654209685311
  0
LINE
  8
_0-1_Layer1
  6
CONTINUOUS
 62
    3
 10
887.68983664782741
 20
1541.7654209685311
 11
887.68983664782741
 21
1501.9582769685312
  0
LINE
  8
_0-1_Layer1
  6
CONTINUOUS
 62
    3
 10
1246.2888616478274
 20
1476.7709519685311
 11
1491.5282536478273
 21
1520.5971049685311
  0
LINE
  8
_0-1_Layer1
  6
CONTINUOUS
 62
    3
 10
1242.3221186478274
 20
1498.2908229685311
 11
1488.0942676478273
 21
1540.7124669685311
  0
LINE
  8
_0-1_Layer1
  6
CONTINUOUS
 62
    3
 10
1705.6828366478273
 20
1622.5994209685311
 11
1279.1618366478274
 21
1622.5994209685311
  0
LINE
  8
_0-1_Layer1
  6
CONTINUOUS
 62
    3
 10
887.68983664782741
 20
1451.7653249685309
 11
887.68983664782741
 21
1491.8610929685312
  0
LINE
  8
_0-1_Layer1
  6
CONTINUOUS
 62
    3
 10
1778.6008366478272
 20
1611.0184209685312
 11
1778.6008366478272
 21
1547.6114209685311
  0
LINE
  8
_0-1_Layer1
  6
CONTINUOUS
 62
    4
 10
889.64482564782747
 20
1501.7653139685312
 11
964.64484164782743
 21
1501.7652379685314
  0
ARC
  8
_0-1_Layer1
  6
CONTINUOUS
 62
    4
 10
964.64483664782711
 20
1496.7652379685314
 40
5
 50
0
 51
90
  0
LINE
  8
_0-1_Layer1
  6
CONTINUOUS
 62
    3
 10
942.51818264782742
 20
1476.1557359685312
 11
928.18805564782724
 21
1490.9762449685311
  0
LINE
  8
_0-1_Layer1
  6
CONTINUOUS
 62
    3
 10
928.18805564782724
 20
1490.9762449685311
 11
1056.0058426478274
 21
1269.5893429685311
  0
LINE
  8
_0-1_Layer1
  6
CONTINUOUS
 62
    3
 10
1056.0058426478274
 20
1269.5893429685311
 11
1236.6058426478273
 21
1269.5893429685311
  0
TEXT
  8
_0-1_Layer1
 62
    7
 10
1056.0058776478274
 20
1279.5890199685311
 40
30
 41
0.8582679999999999
 50
0
  1
屋内閉鎖用把手
  0
INSERT
  2
-008-DIM_8
  8
_0-1_Layer1
 10
859.16183664782739
 20
1368.6887719685315
 41
1
 42
1
 50
0
  0
LINE
  8
_0-1_Layer1
  6
CONTINUOUS
 62
    3
 10
1765.9288366478272
 20
1542.7654209685311
 11
1765.9288366478272
 21
1396.6003969685312
  0
LINE
  8
_0-1_Layer1
  6
CONTINUOUS
 62
    3
 10
1763.9288366478274
 20
1541.7074209685311
 11
1763.9288366478274
 21
1395.6003969685312
  0
LINE
  8
_0-1_Layer1
  6
CONTINUOUS
 62
    3
 10
1186.5094516478273
 20
1212.2719169685313
 11
1198.2951516478274
 21
1212.2719169685313
  0
LINE
  8
_0-1_Layer1
  6
CONTINUOUS
 62
    3
 10
1198.2951516478274
 20
1212.2719169685313
 11
1198.2951516478274
 21
1224.9642089685312
  0
LINE
  8
_0-1_Layer1
  6
CONTINUOUS
 62
    3
 10
1198.2951516478274
 20
1224.9642089685312
 11
1186.5094516478273
 21
1224.9642089685312
  0
LINE
  8
_0-1_Layer1
  6
CONTINUOUS
 62
    3
 10
1186.5094516478273
 20
1224.9642089685312
 11
1186.5094516478273
 21
1212.2719169685313
  0
TEXT
  8
_0-1_Layer1
 62
    7
 10
1291.3344496478273
 20
1186.2924729685312
 40
30
 41
0.8582679999999999
 50
0
  1
有効開口
  0
LINE
  8
_0-1_Layer1
  6
CONTINUOUS
 62
    3
 10
696.16183664782739
 20
1341.7580259685312
 11
694.16183664782716
 21
1341.7580259685312
  0
LINE
  8
_0-1_Layer1
  6
CONTINUOUS
 62
    3
 10
1701.1618366478274
 20
1398.7654209685311
 11
1701.1618366478274
 21
1385.7244239685313
  0
LINE
  8
_0-1_Layer1
  6
CONTINUOUS
 62
    3
 10
1682.5258366478274
 20
1398.7654209685311
 11
1701.1618366478274
 21
1398.7654209685311
  0
LINE
  8
_0-1_Layer1
  6
CONTINUOUS
 62
    3
 10
1765.9288366478272
 20
1396.6003969685312
 11
1863.1618366478274
 21
1396.6003969685312
  0
LINE
  8
_0-1_Layer1
  6
CONTINUOUS
 62
    3
 10
1862.1618366478274
 20
1394.6003969685312
 11
1764.9288366478274
 21
1394.6003969685312
  0
LINE
  8
_0-1_Layer1
  6
CONTINUOUS
 62
    1
 10
87.452549647827311
 20
74.997969968531208
 11
4117.4525496478263
 21
74.997969968531208
  0
ARC
  8
_0-1_Layer1
  6
CONTINUOUS
 62
    3
 10
756.16183664782739
 20
1389.600155968531
 40
2.9999999999409588
 50
270
 51
0
  0
LINE
  8
_0-1_Layer1
  6
CONTINUOUS
 62
    3
 10
759.1618366478275
 20
1389.600155968531
 11
759.1618366478275
 21
1392.6001559685312
  0
LINE
  8
_0-1_Layer1
  6
CONTINUOUS
 62
    3
 10
759.1618366478275
 20
1392.6001559685312
 11
709.1618366478275
 21
1392.6001559685312
  0
LINE
  8
_0-1_Layer1
  6
CONTINUOUS
 62
    3
 10
709.1618366478275
 20
1392.6001559685312
 11
709.1618366478275
 21
1342.6001559685312
  0
LINE
  8
_0-1_Layer1
  6
CONTINUOUS
 62
    3
 10
709.1618366478275
 20
1342.6001559685312
 11
712.16183664782739
 21
1342.6001559685312
  0
ARC
  8
_0-1_Layer1
  6
CONTINUOUS
 62
    3
 10
712.16183664782739
 20
1345.6001559685315
 40
3.0000000000928431
 50
270
 51
0
  0
ARC
  8
_0-1_Layer1
  6
CONTINUOUS
 62
    3
 10
929.64483664782711
 20
1267.1686599685311
 40
30
 50
0
 51
90
  0
ARC
  8
_0-1_Layer1
  6
CONTINUOUS
 62
    3
 10
919.64483664782711
 20
1257.1686599685311
 40
10
 50
0
 51
90
  0
LINE
  8
_0-1_Layer1
  6
CONTINUOUS
 62
    3
 10
959.64483664782733
 20
546.80859296853123
 11
959.64483664782733
 21
1267.1686599685311
  0
LINE
  8
_0-1_Layer1
  6
CONTINUOUS
 62
    3
 10
929.64483664782711
 20
546.80859296853123
 11
929.64483664782711
 21
664.71588396853122
  0
LINE
  8
_0-1_Layer1
  6
CONTINUOUS
 62
    3
 10
929.64483664782711
 20
731.32544996853107
 11
929.64483664782711
 21
1257.1686599685311
  0
CIRCLE
  8
_0-1_Layer1
  6
CONTINUOUS
 62
    3
 10
944.64483664782711
 20
1229.1922559685311
 40
15.023719133017551
  0
CIRCLE
  8
_0-1_Layer1
  6
CONTINUOUS
 62
    3
 10
944.64483664782711
 20
974.76248396853123
 40
15.069049630226051
  0
CIRCLE
  8
_0-1_Layer1
  6
CONTINUOUS
 62
    3
 10
944.64483664782711
 20
749.97862196853123
 40
15.069049630226051
  0
INSERT
  2
-009-DIM_9
  8
_0-1_Layer1
 10
709.1618366478275
 20
1314.2301239685312
 41
1
 42
1
 50
0
  0
LINE
  8
_0-1_Layer1
  6
CONTINUOUS
 62
    3
 10
974.50824864782726
 20
818.24507296853108
 11
960.17812164782731
 21
833.06558096853109
  0
LINE
  8
_0-1_Layer1
  6
CONTINUOUS
 62
    3
 10
960.17812164782731
 20
833.06558096853109
 11
1041.4024356478274
 21
692.38094296853103
  0
LINE
  8
_0-1_Layer1
  6
CONTINUOUS
 62
    3
 10
1041.4024356478274
 20
692.38094296853103
 11
1205.8906246478273
 21
692.38094296853103
  0
TEXT
  8
_0-1_Layer1
 62
    7
 10
1051.4024356478274
 20
697.38094296853103
 40
30
 41
0.8582679999999999
 50
0
  1
梯子（別途）
  0
LINE
  8
_0-1_Layer1
  6
CONTINUOUS
 62
    3
 10
1803.9214366478272
 20
1368.732594968531
 11
1809.5913096478273
 21
1388.5531029685312
  0
LINE
  8
_0-1_Layer1
  6
CONTINUOUS
 62
    3
 10
1809.5913096478273
 20
1388.5531029685312
 11
1640.5817886478276
 21
1095.8200259685311
  0
LINE
  8
_0-1_Layer1
  6
CONTINUOUS
 62
    3
 10
1640.5817886478276
 20
1095.8200259685311
 11
1244.0579686478275
 21
1095.8200259685311
  0
LINE
  8
_0-1_Layer1
  6
CONTINUOUS
 62
    3
 10
606.33962464782735
 20
1274.4519299685312
 11
612.0094976478274
 21
1294.2724379685314
  0
LINE
  8
_0-1_Layer1
  6
CONTINUOUS
 62
    3
 10
612.0094976478274
 20
1294.2724379685314
 11
568.91674064782728
 21
1219.6335939685312
  0
LINE
  8
_0-1_Layer1
  6
CONTINUOUS
 62
    3
 10
568.91674064782728
 20
1219.6335939685312
 11
388.68052064782717
 21
1219.6335939685312
  0
TEXT
  8
_0-1_Layer1
 62
    7
 10
380.95607864782721
 20
1224.6335939685312
 40
30
 41
0.8582679999999999
 50
-0.0000000000000112
  1
水切板（別途）
  0
INSERT
  2
-010-DIM_10
  8
_0-1_Layer1
 10
2477.9355436478272
 20
2096.2491879685313
 41
1
 42
1
 50
0
  0
LINE
  8
_0-1_Layer1
  6
CONTINUOUS
 62
    2
 10
2569.7431966478275
 20
916.24918796853103
 11
2643.2278896478274
 21
916.24918796853103
  0
LINE
  8
_0-1_Layer1
  6
CONTINUOUS
 62
    3
 10
2703.3568896478273
 20
1501.2491879685313
 11
2800.1133496478274
 21
1501.2491879685313
  0
LINE
  8
_0-1_Layer1
  6
CONTINUOUS
 62
    3
 10
929.64483664782711
 20
681.92071196853124
 11
929.64483664782711
 21
714.12062296853105
  0
LINE
  8
_0-1_Layer1
  6
CONTINUOUS
 62
    3
 10
715.16183664782716
 20
1345.6001559685315
 11
715.16183664782716
 21
1383.6001559685312
  0
LINE
  8
_0-1_Layer1
  6
CONTINUOUS
 62
    3
 10
756.16183664782739
 20
1386.6001559685312
 11
718.16183664782727
 21
1386.6001559685312
  0
ARC
  8
_0-1_Layer1
  6
CONTINUOUS
 62
    3
 10
718.16183664782727
 20
1383.6001559685312
 40
3.0000000000724949
 50
90
 51
180
  0
LINE
  8
_0-1_Layer1
  6
CONTINUOUS
 62
    3
 10
794.16183664782716
 20
1297.1686599685311
 11
929.64483664782711
 21
1297.1686599685311
  0
LINE
  8
_0-1_Layer1
  6
CONTINUOUS
 62
    3
 10
794.16183664782716
 20
1267.1686599685311
 11
919.64483664782711
 21
1267.1686599685311
  0
LINE
  8
_0-1_Layer1
  6
CONTINUOUS
 62
    3
 10
1862.1618366478274
 20
1341.7583969685311
 11
1864.1618366478274
 21
1341.7583969685311
  0
ARC
  8
_0-1_Layer1
  6
CONTINUOUS
 62
    3
 10
1802.1618366478274
 20
1389.600155968531
 40
3.0000000002839169
 50
180
 51
270
  0
LINE
  8
_0-1_Layer1
  6
CONTINUOUS
 62
    3
 10
1799.1618366478274
 20
1389.600155968531
 11
1799.1618366478274
 21
1392.6001559685312
  0
LINE
  8
_0-1_Layer1
  6
CONTINUOUS
 62
    3
 10
1799.1618366478274
 20
1392.6001559685312
 11
1849.1618366478274
 21
1392.6001559685312
  0
LINE
  8
_0-1_Layer1
  6
CONTINUOUS
 62
    3
 10
1849.1618366478274
 20
1392.6001559685312
 11
1849.1618366478274
 21
1342.6001559685312
  0
LINE
  8
_0-1_Layer1
  6
CONTINUOUS
 62
    3
 10
1849.1618366478274
 20
1342.6001559685312
 11
1846.1618366478274
 21
1342.6001559685312
  0
ARC
  8
_0-1_Layer1
  6
CONTINUOUS
 62
    3
 10
1846.1618366478274
 20
1345.6001559685315
 40
3.0000000003888241
 50
180
 51
270
  0
LINE
  8
_0-1_Layer1
  6
CONTINUOUS
 62
    3
 10
1843.1618366478274
 20
1345.6001559685315
 11
1843.1618366478274
 21
1383.6001559685312
  0
LINE
  8
_0-1_Layer1
  6
CONTINUOUS
 62
    3
 10
1802.1618366478274
 20
1386.6001559685312
 11
1840.1618366478274
 21
1386.6001559685312
  0
ARC
  8
_0-1_Layer1
  6
CONTINUOUS
 62
    3
 10
1840.1618366478274
 20
1383.6001559685312
 40
2.999999999674368
 50
0
 51
90
  0
LINE
  8
_0-1_Layer1
  6
PLine2
 62
    3
 10
1279.1618366478274
 20
1280.4948779685312
 11
1279.1618366478274
 21
1911.7245049685312
  0
ARC
  8
_0-1_Layer1
  6
CONTINUOUS
 62
    3
 10
784.36483664782736
 20
1567.4154209685312
 40
1.0000000000000131
 50
170.90519499999999
 51
270
  0
ARC
  8
_0-1_Layer1
  6
CONTINUOUS
 62
    3
 10
787.55083664782717
 20
1574.6504209685309
 40
2.9999999999999711
 50
90
 51
170.88935499999997
  0
LINE
  8
_0-1_Layer1
  6
CONTINUOUS
 62
    6
 10
810.35117364782707
 20
1625.9504209685313
 11
780.55683664782748
 21
1625.9504209685313
  0
LINE
  8
_0-1_Layer1
  6
CONTINUOUS
 62
    6
 10
810.35098764782731
 20
1626.2214209685312
 11
780.55683664782748
 21
1626.2214209685312
  0
LINE
  8
_0-1_Layer1
  6
CONTINUOUS
 62
    6
 10
810.35080364782743
 20
1626.4914209685312
 11
780.55683664782748
 21
1626.4914209685312
  0
LINE
  8
_0-1_Layer1
  6
CONTINUOUS
 62
    6
 10
810.3505566478276
 20
1626.8514209685309
 11
780.55683664782748
 21
1626.8514209685309
  0
LINE
  8
_0-1_Layer1
  6
CONTINUOUS
 62
    3
 10
1767.1988366478274
 20
1551.5114209685312
 11
1775.2878366478274
 21
1551.5114209685312
  0
LINE
  8
_0-1_Layer1
  6
CONTINUOUS
 62
    3
 10
1775.2878366478274
 20
1551.5114209685312
 11
1775.2868366478274
 21
1567.8614209685311
  0
LINE
  8
_0-1_Layer1
  6
CONTINUOUS
 62
    6
 10
810.35031164782731
 20
1627.2104249685312
 11
780.55683664782748
 21
1627.2114099685311
  0
LINE
  8
_0-1_Layer1
  6
CONTINUOUS
 62
    6
 10
806.27783664782726
 20
1615.9614209685312
 11
802.99283664782729
 21
1612.6764209685311
  0
LINE
  8
_0-1_Layer1
  6
CONTINUOUS
 62
    6
 10
806.38383664782737
 20
1619.9894209685312
 11
798.96383664782718
 21
1612.5694209685312
  0
LINE
  8
_0-1_Layer1
  6
CONTINUOUS
 62
    6
 10
804.47683664782721
 20
1622.5334209685311
 11
794.61883664782727
 21
1612.6764209685311
  0
LINE
  8
_0-1_Layer1
  6
CONTINUOUS
 62
    6
 10
800.02383664782747
 20
1622.5334209685311
 11
790.16583664782729
 21
1612.6754209685309
  0
LINE
  8
_0-1_Layer1
  6
CONTINUOUS
 62
    6
 10
795.99683664782731
 20
1622.5334209685311
 11
786.03283664782737
 21
1612.5694209685312
  0
LINE
  8
_0-1_Layer1
  6
CONTINUOUS
 62
    6
 10
784.28483664782732
 20
1614.5323879685311
 11
792.2868366478275
 21
1622.5334209685311
  0
LINE
  8
_0-1_Layer1
  6
CONTINUOUS
 62
    6
 10
784.28483664782732
 20
1618.3484209685312
 11
788.57583664782737
 21
1622.6394209685309
  0
LINE
  8
_0-1_Layer1
  6
CONTINUOUS
 62
    6
 10
787.19883664782719
 20
1612.6764209685311
 11
784.22983664782748
 21
1615.6444209685312
  0
LINE
  8
_0-1_Layer1
  6
CONTINUOUS
 62
    6
 10
784.28483664782732
 20
1620.0414209685312
 11
791.86183664782732
 21
1612.4644209685312
  0
LINE
  8
_0-1_Layer1
  6
CONTINUOUS
 62
    6
 10
796.31383664782732
 20
1612.6754209685309
 11
786.56183664782759
 21
1622.4284209685311
  0
LINE
  8
_0-1_Layer1
  6
CONTINUOUS
 62
    6
 10
800.5538366478271
 20
1612.5694209685312
 11
790.48383664782727
 21
1622.6394209685309
  0
LINE
  8
_0-1_Layer1
  6
CONTINUOUS
 62
    6
 10
804.58283664782721
 20
1612.6764209685311
 11
794.82983664782728
 21
1622.4284209685311
  0
LINE
  8
_0-1_Layer1
  6
CONTINUOUS
 62
    6
 10
806.38383664782737
 20
1615.0084209685313
 11
798.75283664782728
 21
1622.6404209685311
  0
LINE
  8
_0-1_Layer1
  6
CONTINUOUS
 62
    6
 10
806.38383664782737
 20
1618.5054209685311
 11
802.24983664782735
 21
1622.6394209685309
  0
LINE
  8
_0-1_Layer1
  6
CONTINUOUS
 62
    6
 10
806.28483664782743
 20
1612.6254209685312
 11
806.28483664782743
 21
1622.6254209685312
  0
LINE
  8
_0-1_Layer1
  6
CONTINUOUS
 62
    3
 10
801.47983664782737
 20
1567.3904209685311
 11
801.84783664782742
 21
1568.2444209685311
  0
LINE
  8
_0-1_Layer1
  6
CONTINUOUS
 62
    3
 10
801.84783664782742
 20
1568.2444209685311
 11
801.84783664782742
 21
1575.6514209685313
  0
LINE
  8
_0-1_Layer1
  6
CONTINUOUS
 62
    6
 10
784.28483664782732
 20
1622.6254209685312
 11
784.28483664782732
 21
1612.6254209685312
  0
LINE
  8
_0-1_Layer1
  6
CONTINUOUS
 62
    3
 10
784.58883664782718
 20
1575.1254209685312
 11
783.37783664782728
 21
1567.5734209685311
  0
LINE
  8
_0-1_Layer1
  6
CONTINUOUS
 62
    3
 10
784.36483664782736
 20
1566.4154209685312
 11
791.03583664782718
 21
1566.4144209685312
  0
LINE
  8
_0-1_Layer1
  6
CONTINUOUS
 62
    3
 10
791.03583664782718
 20
1566.4144209685312
 11
795.1458366478272
 21
1569.0104209685314
  0
ARC
  8
_0-1_Layer1
  6
CONTINUOUS
 62
    3
 10
796.68983664782729
 20
1564.8034209685311
 40
1.0000000000000131
 50
0
 51
119.204842
  0
LINE
  8
_0-1_Layer1
  6
CONTINUOUS
 62
    3
 10
796.20183664782735
 20
1565.6764209685311
 11
791.45983664782705
 21
1563.0234209685314
  0
LINE
  8
_0-1_Layer1
  6
CONTINUOUS
 62
    3
 10
791.45983664782705
 20
1563.0234209685314
 11
781.90683664782739
 21
1563.0224209685312
  0
LINE
  8
_0-1_Layer1
  6
CONTINUOUS
 62
    3
 10
799.84783664782731
 20
1577.6514209685315
 11
787.55083664782717
 21
1577.6504209685311
  0
LINE
  8
_0-1_Layer1
  6
CONTINUOUS
 62
    3
 10
805.28483664782721
 20
1580.7644209685309
 11
805.28483664782721
 21
1566.7654209685311
  0
LINE
  8
_0-1_Layer1
  6
CONTINUOUS
 62
    3
 10
802.30283664782723
 20
1562.8114209685309
 11
799.71383664782729
 21
1562.8104209685312
  0
LINE
  8
_0-1_Layer1
  6
CONTINUOUS
 62
    3
 10
805.28483664782721
 20
1567.0514209685311
 11
805.30183664782726
 21
1565.8534209685313
  0
ARC
  8
_0-1_Layer1
  6
CONTINUOUS
 62
    3
 10
786.69883664782731
 20
1575.6504209685313
 40
2.0000000000000271
 50
89.971351999999996
 51
170.881439
  0
ARC
  8
_0-1_Layer1
  6
CONTINUOUS
 62
    3
 10
799.84783664782731
 20
1575.6514209685313
 40
2.0000000000000271
 50
0
 51
90
  0
ARC
  8
_0-1_Layer1
  6
CONTINUOUS
 62
    3
 10
781.90683664782739
 20
1565.0224209685312
 40
2.0000000000000271
 50
171.51739999999998
 51
270
  0
ARC
  8
_0-1_Layer1
  6
CONTINUOUS
 62
    3
 10
799.71383664782729
 20
1564.8104209685312
 40
2.0000000000000271
 50
180
 51
270
  0
ARC
  8
_0-1_Layer1
  6
CONTINUOUS
 62
    3
 10
802.30283664782723
 20
1565.8114209685311
 40
2.9999999999999711
 50
270
 51
0.8023529999999922
  0
ARC
  8
_0-1_Layer1
  6
CONTINUOUS
 62
    3
 10
796.74883664782726
 20
1566.4754209685311
 40
2.9999999999999711
 50
49.788330000000002
 51
122.307098
  0
ARC
  8
_0-1_Layer1
  6
CONTINUOUS
 62
    3
 10
800.84783664782719
 20
1568.2444209685311
 40
1.0000000000000131
 50
229.74682599999997
 51
0
  0
LINE
  8
_0-1_Layer1
  6
CONTINUOUS
 62
    3
 10
800.20183664782735
 20
1567.4814209685312
 11
798.6848366478273
 21
1568.7654209685311
  0
LINE
  8
_0-1_Layer1
  6
CONTINUOUS
 62
    3
 10
1768.9508366478274
 20
1555.2614209685312
 11
1766.5608366478273
 21
1553.2814209685312
  0
LINE
  8
_0-1_Layer1
  6
CONTINUOUS
 62
    3
 10
1770.0378366478274
 20
1557.9304209685313
 11
1770.0368366478274
 21
1557.5714209685311
  0
LINE
  8
_0-1_Layer1
  6
CONTINUOUS
 62
    3
 10
1775.1368366478273
 20
1567.8614209685311
 11
1764.7868366478274
 21
1567.8614209685311
  0
LINE
  8
_0-1_Layer1
  6
CONTINUOUS
 62
    3
 10
1764.7868366478274
 20
1567.8614209685311
 11
1764.7868366478274
 21
1562.4604209685313
  0
LINE
  8
_0-1_Layer1
  6
CONTINUOUS
 62
    3
 10
1764.7868366478274
 20
1562.4604209685313
 11
1768.4088366478275
 21
1560.5984209685312
  0
LINE
  8
_0-1_Layer1
  6
CONTINUOUS
 62
    3
 10
1760.7368366478274
 20
1550.6114209685311
 11
1760.7378366478274
 21
1551.4364209685311
  0
LINE
  8
_0-1_Layer1
  6
CONTINUOUS
 62
    3
 10
1761.8418366478274
 20
1553.7614209685312
 11
1764.7868366478274
 21
1556.1604209685311
  0
LINE
  8
_0-1_Layer1
  6
CONTINUOUS
 62
    3
 10
1764.7868366478274
 20
1556.1604209685311
 11
1766.137836647827
 21
1557.9614209685312
  0
LINE
  8
_0-1_Layer1
  6
CONTINUOUS
 62
    3
 10
1766.137836647827
 20
1557.9614209685312
 11
1762.2258366478275
 21
1560.2434209685312
  0
LINE
  8
_0-1_Layer1
  6
CONTINUOUS
 62
    3
 10
1760.7368366478274
 20
1568.7614209685312
 11
1760.7378366478274
 21
1562.8344209685313
  0
LINE
  8
_0-1_Layer1
  6
CONTINUOUS
 62
    3
 10
1778.7368366478272
 20
1571.760420968531
 11
1763.7368366478272
 21
1571.7614209685312
  0
ARC
  8
_0-1_Layer1
  6
CONTINUOUS
 62
    3
 10
1767.1988366478274
 20
1552.5104209685312
 40
1.0000000000000131
 50
129.60764699999999
 51
270
  0
ARC
  8
_0-1_Layer1
  6
CONTINUOUS
 62
    3
 10
1767.0368366478274
 20
1557.5714209685311
 40
2.9999999999999711
 50
309.64417999999995
 51
359.99999999999994
  0
ARC
  8
_0-1_Layer1
  6
CONTINUOUS
 62
    3
 10
1767.0378366478276
 20
1557.9304209685313
 40
2.9999999999999711
 50
0
 51
62.802817999999995
  0
ARC
  8
_0-1_Layer1
  6
CONTINUOUS
 62
    3
 10
1763.7368366478272
 20
1550.6114209685311
 40
2.9999999999999711
 50
180
 51
270
  0
ARC
  8
_0-1_Layer1
  6
CONTINUOUS
 62
    3
 10
1763.7378366478274
 20
1551.4364209685311
 40
2.9999999999999711
 50
129.19668999999999
 51
180
  0
ARC
  8
_0-1_Layer1
  6
CONTINUOUS
 62
    3
 10
1763.7378366478274
 20
1562.8344209685313
 40
2.9999999999999711
 50
180
 51
239.733948
  0
ARC
  8
_0-1_Layer1
  6
CONTINUOUS
 62
    3
 10
1763.7368366478272
 20
1568.7614209685312
 40
2.9999999999999711
 50
90
 51
180
  0
LINE
  8
_0-1_Layer1
  6
CONTINUOUS
 62
    3
 10
1763.7368366478272
 20
1547.6114209685311
 11
1778.6008366478272
 21
1547.6114209685311
  0
LINE
  8
_0-1_Layer1
  6
CONTINUOUS
 62
    3
 10
1690.5838366478274
 20
1416.5184209685312
 11
1687.1398366478275
 21
1416.5184209685312
  0
LINE
  8
_0-1_Layer1
  6
CONTINUOUS
 62
    3
 10
1706.6388366478272
 20
1416.5184209685312
 11
1690.2168366478277
 21
1416.5184209685312
  0
LINE
  8
_0-1_Layer1
  6
CONTINUOUS
 62
    3
 10
1707.5015406478274
 20
1416.5184209685312
 11
1708.5938366478274
 21
1416.5174209685313
  0
LINE
  8
_0-1_Layer1
  6
CONTINUOUS
 62
    3
 10
1730.0988366478273
 20
1416.5184209685312
 11
1727.3618366478274
 21
1416.5184209685312
  0
LINE
  8
_0-1_Layer1
  6
CONTINUOUS
 62
    3
 10
1720.7955406478275
 20
1416.5184209685312
 11
1709.0665406478274
 21
1416.5184209685312
  0
LINE
  8
_0-1_Layer1
  6
CONTINUOUS
 62
    3
 10
1741.0478366478274
 20
1416.5184209685312
 11
1732.0538366478274
 21
1416.5174209685313
  0
LINE
  8
_0-1_Layer1
  6
CONTINUOUS
 62
    3
 10
1617.5138366478272
 20
1474.5784209685312
 11
1620.1078366478273
 21
1462.9704209685301
  0
LINE
  8
_0-1_Layer1
  6
CONTINUOUS
 62
    3
 10
1616.3408366478275
 20
1479.8304209685311
 11
1616.9788366478274
 21
1476.9764209685311
  0
LINE
  8
_0-1_Layer1
  6
CONTINUOUS
 62
    3
 10
1613.8508366478275
 20
1490.9824209685312
 11
1615.7808366478273
 21
1482.3384209685312
  0
LINE
  8
_0-1_Layer1
  6
CONTINUOUS
 62
    3
 10
1611.0518366478273
 20
1503.0244209685311
 11
1610.3068366478274
 21
1506.3034209685311
  0
LINE
  8
_0-1_Layer1
  6
CONTINUOUS
 62
    3
 10
1613.8508366478275
 20
1490.6844209685312
 11
1611.5548366478274
 21
1500.8024209685311
  0
LINE
  8
_0-1_Layer1
  6
CONTINUOUS
 62
    3
 10
1609.8598366478273
 20
1508.2734209685309
 11
1607.2938366478274
 21
1519.5904209685314
  0
LINE
  8
_0-1_Layer1
  6
CONTINUOUS
 62
    3
 10
1609.7468366478274
 20
1508.363420968531
 11
1609.7728366478264
 21
1508.2534209685311
  0
LINE
  8
_0-1_Layer1
  6
CONTINUOUS
 62
    3
 10
1595.5498366478273
 20
1486.8404209685311
 11
1580.4768366478274
 21
1483.4144209685312
  0
LINE
  8
_0-1_Layer1
  6
CONTINUOUS
 62
    3
 10
1599.9798366478274
 20
1487.847420968531
 11
1597.5628366478277
 21
1487.2974209685312
  0
LINE
  8
_0-1_Layer1
  6
CONTINUOUS
 62
    3
 10
1625.1068366478273
 20
1493.5114209685312
 11
1602.8248366478274
 21
1488.4474209685311
  0
LINE
  8
_0-1_Layer1
  6
CONTINUOUS
 62
    3
 10
1629.1638366478273
 20
1494.4564209685311
 11
1627.0658366478274
 21
1493.979420968531
  0
LINE
  8
_0-1_Layer1
  6
CONTINUOUS
 62
    3
 10
1646.4938366478264
 20
1498.3954209685312
 11
1631.2158366478272
 21
1494.9224209685312
  0
LINE
  8
_0-1_Layer1
  6
PLine2
 62
    3
 10
1755.5998366478273
 20
1496.7644209685313
 11
1650.6008366478275
 21
1496.7654209685311
  0
LINE
  8
_0-1_Layer1
  6
PLine2
 62
    3
 10
795.35883664782716
 20
1640.7114209685312
 11
795.35883664782716
 21
1606.5114209685312
  0
LINE
  8
_0-1_Layer1
  6
CONTINUOUS
 62
    3
 10
1713.2162516478274
 20
1383.7654209685311
 11
1675.9516556478275
 21
1383.7654209685311
  0
LINE
  8
_0-1_Layer1
  6
CONTINUOUS
 62
    3
 10
1665.3753616478273
 20
1383.7654209685311
 11
846.02083664782731
 21
1383.7654209685311
  0
LINE
  8
_0-1_Layer1
  6
CONTINUOUS
 62
    3
 10
696.16183664782739
 20
1341.7580259685312
 11
696.16183664782739
 21
1394.6000259685311
  0
LINE
  8
_0-1_Layer1
  6
CONTINUOUS
 62
    3
 10
1713.3615406478273
 20
1383.7654209685311
 11
1676.8528366478272
 21
1383.7654209685311
  0
LINE
  8
_0-1_Layer1
  6
CONTINUOUS
 62
    3
 10
1672.0498366478273
 20
1398.7654209685311
 11
1556.6208366478277
 21
1398.7654209685311
  0
LINE
  8
_0-1_Layer1
  6
CONTINUOUS
 62
    3
 10
1544.8578366478273
 20
1388.9624209685312
 11
1539.1051796478273
 21
1396.7695979685311
  0
LINE
  8
_0-1_Layer1
  6
CONTINUOUS
 62
    3
 10
1661.8589956478263
 20
1375.9573409685311
 11
1670.4914236478273
 21
1371.6411269685314
  0
LINE
  8
_0-1_Layer1
  6
CONTINUOUS
 62
    3
 10
1555.7222006478273
 20
1398.7652439685312
 11
1672.1305886478274
 21
1398.7653809685312
  0
LINE
  8
_0-1_Layer1
  6
CONTINUOUS
 62
    3
 10
1682.7069746478273
 20
1398.7653939685313
 11
1701.1618366478274
 21
1398.7654199685312
  0
LINE
  8
_0-1_Layer1
  6
CONTINUOUS
 62
    3
 10
1541.3169206478274
 20
1398.7652269685309
 11
857.27983664782732
 21
1398.7644209685311
  0
LINE
  8
_0-1_Layer1
  6
CONTINUOUS
 62
    3
 10
858.16183664782716
 20
1383.7644209685311
 11
845.08883664782707
 21
1383.7654209685311
  0
ARC
  8
_0-1_Layer1
  6
CONTINUOUS
 62
    3
 10
845.16183664782739
 20
1384.7644209685311
 40
1.0000000000000131
 50
180
 51
270
  0
LINE
  8
_0-1_Layer1
  6
CONTINUOUS
 62
    3
 10
857.27983664782732
 20
1398.7644209685311
 11
857.27983664782732
 21
1385.5814089685309
  0
LINE
  8
_0-1_Layer1
  6
CONTINUOUS
 62
    3
 10
1699.1188366478273
 20
1383.7654209685311
 11
1675.5418366478273
 21
1383.7644209685311
  0
LINE
  8
_0-1_Layer1
  6
CONTINUOUS
 62
    3
 10
1675.7358366478263
 20
1383.7644209685311
 11
1713.2934346478273
 21
1383.7644209685311
  0
LINE
  8
_0-1_Layer1
  6
CONTINUOUS
 62
    3
 10
857.27983664782732
 20
1385.5814089685309
 11
846.16183664782739
 21
1385.5824389685313
  0
LINE
  8
_0-1_Layer1
  6
CONTINUOUS
 62
    3
 10
1699.1618366478274
 20
1386.1654209685312
 11
1699.1798366478274
 21
1384.7524209685312
  0
LINE
  8
_0-1_Layer1
  6
CONTINUOUS
 62
    3
 10
1701.1618366478274
 20
1385.7244239685313
 11
1712.1615406478277
 21
1385.7234329685311
  0
LINE
  8
_0-1_Layer1
  6
CONTINUOUS
 62
    3
 10
1714.1715406478274
 20
1386.3174209685312
 11
1714.1715406478274
 21
1384.7644209685311
  0
LINE
  8
_0-1_Layer1
  6
CONTINUOUS
 62
    3
 10
1701.1978366478274
 20
1398.7654209685311
 11
1701.1618366478274
 21
1398.7654209685311
  0
ARC
  8
_0-1_Layer1
  6
CONTINUOUS
 62
    3
 10
858.16183664782716
 20
1384.7644209685311
 40
1.0000000000000131
 50
270
 51
0
  0
ARC
  8
_0-1_Layer1
  6
CONTINUOUS
 62
    3
 10
1700.1808366478276
 20
1384.7654209685311
 40
1.0000000000000131
 50
180.74404899999999
 51
270
  0
ARC
  8
_0-1_Layer1
  6
CONTINUOUS
 62
    3
 10
1713.1715406478274
 20
1384.7644209685311
 40
1.0000000000000131
 50
270
 51
0
  0
LINE
  8
_0-1_Layer1
  6
CONTINUOUS
 62
    3
 10
1713.2925406478273
 20
1383.7654209685311
 11
1675.7368366478274
 21
1383.7654209685311
  0
LINE
  8
_0-1_Layer1
  6
CONTINUOUS
 62
    3
 10
1676.5208366478273
 20
1383.7654209685311
 11
1709.6332536478276
 21
1383.7654209685311
  0
LINE
  8
_0-1_Layer1
  6
CONTINUOUS
 62
    3
 10
1713.1715406478274
 20
1383.7654209685311
 11
1700.1808366478276
 21
1383.7654209685311
  0
LINE
  8
_0-1_Layer1
  6
CONTINUOUS
 62
    3
 10
1675.7358366478263
 20
1383.7644209685311
 11
1713.1715406478274
 21
1383.7644209685311
  0
LINE
  8
_0-1_Layer1
  6
CONTINUOUS
 62
    3
 10
1701.1658366478273
 20
1411.0444209685311
 11
1690.9998366478274
 21
1411.0444209685311
  0
LINE
  8
_0-1_Layer1
  6
CONTINUOUS
 62
    3
 10
1699.1618366478274
 20
1398.7654209685311
 11
1699.1618366478274
 21
1385.6674209685311
  0
LINE
  8
_0-1_Layer1
  6
CONTINUOUS
 62
    3
 10
1701.0418366478275
 20
1398.7654209685311
 11
1699.1618366478274
 21
1398.7654209685311
  0
ARC
  8
_0-1_Layer1
  6
CONTINUOUS
 62
    3
 10
1692.7598366478273
 20
1408.6974209685311
 40
2.9330000000000211
 50
126.86599
 51
233.09494000000001
  0
LINE
  8
_0-1_Layer1
  6
CONTINUOUS
 62
    3
 10
1699.1618366478274
 20
1398.7654209685311
 11
1699.1618366478274
 21
1385.7464209685309
  0
LINE
  8
_0-1_Layer1
  6
CONTINUOUS
 62
    3
 10
859.16183664782739
 20
1384.7644209685311
 11
859.16183664782739
 21
1398.7644229685311
  0
LINE
  8
_0-1_Layer1
  6
CONTINUOUS
 62
    3
 10
696.16183664782739
 20
1394.6000259685311
 11
796.68984564782761
 21
1394.6010269685312
  0
LINE
  8
_0-1_Layer1
  6
CONTINUOUS
 62
    3
 10
1710.9408366478274
 20
1484.9434209685314
 11
1661.8589956478263
 21
1375.9573409685311
  0
LINE
  8
_0-1_Layer1
  6
CONTINUOUS
 62
    3
 10
1680.9258366478273
 20
1511.7354209685311
 11
1544.8578366478273
 21
1388.9624209685312
  0
LINE
  8
_0-1_Layer1
  6
CONTINUOUS
 62
    3
 10
844.16183664782739
 20
1449.7554209685311
 11
844.16183664782739
 21
1384.7644209685311
  0
LINE
  8
_0-1_Layer1
  6
CONTINUOUS
 62
    3
 10
1712.1615406478277
 20
1450.7654209685311
 11
1712.1615406478277
 21
1385.7234329685311
  0
LINE
  8
_0-1_Layer1
  6
CONTINUOUS
 62
    3
 10
846.16183664782739
 20
1451.7653699685311
 11
846.16183664782739
 21
1385.5824389685313
  0
LINE
  8
_0-1_Layer1
  6
CONTINUOUS
 62
    3
 10
1714.1625406478274
 20
1449.3904209685311
 11
1714.1615406478275
 21
1385.7644209685309
  0
LINE
  8
_0-1_Layer1
  6
CONTINUOUS
 62
    3
 10
1673.8888366478272
 20
1518.3834209685313
 11
1539.1051796478273
 21
1396.7695979685311
  0
LINE
  8
_0-1_Layer1
  6
CONTINUOUS
 62
    3
 10
1719.9328366478271
 20
1481.4244209685312
 11
1670.4914236478273
 21
1371.6411269685314
  0
LINE
  8
_0-1_Layer1
  6
CONTINUOUS
 62
    3
 10
1689.4348366478271
 20
1423.5564209685313
 11
1689.4348366478271
 21
1407.9154209685312
  0
LINE
  8
_0-1_Layer1
  6
CONTINUOUS
 62
    3
 10
1701.1648366478271
 20
1426.6844209685312
 11
1701.1658366478273
 21
1421.2104209685301
  0
LINE
  8
_0-1_Layer1
  6
CONTINUOUS
 62
    3
 10
1701.1658366478273
 20
1421.2104209685301
 11
1701.1658366478273
 21
1411.0444209685311
  0
LINE
  8
_0-1_Layer1
  6
CONTINUOUS
 62
    3
 10
1701.1658366478273
 20
1411.0444209685311
 11
1701.1648366478271
 21
1406.3524209685311
  0
LINE
  8
_0-1_Layer1
  6
CONTINUOUS
 62
    3
 10
1701.1648366478271
 20
1406.3524209685311
 11
1691.3898366478275
 21
1406.3514209685311
  0
ARC
  8
_0-1_Layer1
  6
CONTINUOUS
 62
    3
 10
1700.7758366478274
 20
1416.1274209685312
 40
11.368000000000009
 50
153.43945699999998
 51
206.56054700000001
  0
LINE
  8
_0-1_Layer1
  6
CONTINUOUS
 62
    3
 10
1730.8808366478274
 20
1421.6014209685313
 11
1701.1648366478271
 21
1421.6014209685313
  0
LINE
  8
_0-1_Layer1
  6
CONTINUOUS
 62
    3
 10
1701.1648366478271
 20
1421.6014209685313
 11
1701.1658366478273
 21
1411.0444209685311
  0
LINE
  8
_0-1_Layer1
  6
CONTINUOUS
 62
    3
 10
1701.1658366478273
 20
1411.0444209685311
 11
1731.2718366478273
 21
1411.0444209685311
  0
LINE
  8
_0-1_Layer1
  6
CONTINUOUS
 62
    3
 10
694.16183664782716
 20
1341.7580259685312
 11
694.16183664782716
 21
1395.6000359685311
  0
ARC
  8
_0-1_Layer1
  6
CONTINUOUS
 62
    3
 10
695.16183664782739
 20
1395.6000359685311
 40
1
 50
90
 51
180
  0
LINE
  8
_0-1_Layer1
  6
CONTINUOUS
 62
    3
 10
695.16182664782741
 20
1396.6000359685311
 11
795.68983664782706
 21
1396.6010259685311
  0
LINE
  8
_0-1_Layer1
  6
CONTINUOUS
 62
    3
 10
795.68983664782706
 20
1396.6010259685311
 11
795.68983664782706
 21
1563.1024209685311
  0
LINE
  8
_0-1_Layer1
  6
CONTINUOUS
 62
    3
 10
797.68983664782718
 20
1564.8034209685311
 11
797.68983664782718
 21
1395.6010269685312
  0
LINE
  8
_0-1_Layer1
  6
CONTINUOUS
 62
    3
 10
1690.1158366478273
 20
1612.6254209685312
 11
782.28483664782721
 21
1612.6254209685312
  0
LINE
  8
_0-1_Layer1
  6
CONTINUOUS
 62
    3
 10
1779.6705626478274
 20
1612.6254209685312
 11
1690.0878366478273
 21
1612.6254209685312
  0
LINE
  8
_0-1_Layer1
  6
CONTINUOUS
 62
    3
 10
1690.1158366478273
 20
1612.6254209685312
 11
1690.1158366478273
 21
1583.7644209685311
  0
LINE
  8
_0-1_Layer1
  6
CONTINUOUS
 62
    6
 10
810.35010964782737
 20
1627.5054209685311
 11
780.55683664782748
 21
1627.5054209685311
  0
LINE
  8
_0-1_Layer1
  6
CONTINUOUS
 62
    3
 10
780.55683664782748
 20
1629.3674209685312
 11
780.55683664782748
 21
1625.5844209685313
  0
ARC
  8
_0-1_Layer1
  6
CONTINUOUS
 62
    3
 10
733.07588164782737
 20
1620.5844209685313
 40
2.0000000002233742
 50
90
 51
166.10970599999999
  0
ARC
  8
_0-1_Layer1
  6
CONTINUOUS
 62
    3
 10
733.07588164782737
 20
1620.5844209685313
 40
5.0000000000741531
 50
90
 51
166.102709
  0
LINE
  8
_0-1_Layer1
  6
CONTINUOUS
 62
    3
 10
867.71583664782747
 20
1610.9514209685301
 11
867.71583664782747
 21
1612.5964209685312
  0
LINE
  8
_0-1_Layer1
  6
CONTINUOUS
 62
    3
 10
867.71583664782747
 20
1581.6794209685308
 11
867.71583664782747
 21
1581.6634209685312
  0
LINE
  8
_0-1_Layer1
  6
CONTINUOUS
 62
    3
 10
867.71583664782747
 20
1611.0184209685312
 11
867.71583664782747
 21
1583.7534209685309
  0
LINE
  8
_0-1_Layer1
  6
CONTINUOUS
 62
    3
 10
865.62583664782733
 20
1583.7644209685311
 11
867.71583664782747
 21
1583.7644209685311
  0
LINE
  8
_0-1_Layer1
  6
CONTINUOUS
 62
    3
 10
865.64583664782731
 20
1610.6244209685312
 11
782.28483664782721
 21
1610.6244209685312
  0
LINE
  8
_0-1_Layer1
  6
CONTINUOUS
 62
    3
 10
865.81583664782738
 20
1583.7644209685311
 11
784.28483664782732
 21
1583.7644209685311
  0
LINE
  8
_0-1_Layer1
  6
CONTINUOUS
 62
    3
 10
784.28483664782732
 20
1610.6244209685312
 11
784.28483664782732
 21
1583.7644209685311
  0
LINE
  8
_0-1_Layer1
  6
CONTINUOUS
 62
    3
 10
1780.6008366478275
 20
1611.3904209685311
 11
1780.6008366478275
 21
1546.7644209685313
  0
LINE
  8
_0-1_Layer1
  6
CONTINUOUS
 62
    3
 10
805.69783664782733
 20
1566.6004209685311
 11
855.17919764782732
 21
1566.6004209685311
  0
LINE
  8
_0-1_Layer1
  6
CONTINUOUS
 62
    3
 10
782.28483664782721
 20
1582.7644209685311
 11
782.28483664782721
 21
1610.6244209685312
  0
CIRCLE
  8
_0-1_Layer1
  6
PLine1
 62
    3
 10
872.28542364782743
 20
1478.9873159685312
 40
25
  0
ARC
  8
_0-1_Layer1
  6
CONTINUOUS
 62
    3
 10
791.98883664782727
 20
1634.9054209685312
 40
2.2970000000000099
 50
49.858902
 51
133.48141899999999
  0
LINE
  8
_0-1_Layer1
  6
CONTINUOUS
 62
    3
 10
798.60163964782737
 20
1637.2539779685312
 11
791.76063964782713
 21
1637.2539779685312
  0
LINE
  8
_0-1_Layer1
  6
CONTINUOUS
 62
    3
 10
790.40983664782743
 20
1636.4804209685312
 11
790.40883664782712
 21
1632.7014209685312
  0
LINE
  8
_0-1_Layer1
  6
CONTINUOUS
 62
    3
 10
793.46883664782717
 20
1636.5704209685309
 11
793.46883664782717
 21
1632.7014209685312
  0
LINE
  8
_0-1_Layer1
  6
CONTINUOUS
 62
    3
 10
797.24983664782735
 20
1636.5714209685311
 11
797.24983664782735
 21
1632.7014209685312
  0
LINE
  8
_0-1_Layer1
  6
CONTINUOUS
 62
    3
 10
800.3098366478273
 20
1636.5714209685311
 11
800.3098366478273
 21
1632.6114209685311
  0
LINE
  8
_0-1_Layer1
  6
CONTINUOUS
 62
    3
 10
810.3488366478274
 20
1629.3674209685312
 11
810.35142364782723
 21
1625.5844209685313
  0
LINE
  8
_0-1_Layer1
  6
CONTINUOUS
 62
    3
 10
810.3488366478274
 20
1629.3674209685312
 11
780.55683664782748
 21
1629.3674209685312
  0
ARC
  8
_0-1_Layer1
  6
CONTINUOUS
 62
    3
 10
795.35883664782716
 20
1633.7754209685313
 40
3.4259999999999731
 50
54.681961000000001
 51
125.31405599999999
  0
ARC
  8
_0-1_Layer1
  6
CONTINUOUS
 62
    3
 10
798.73383664782727
 20
1635.1194209685311
 40
2.0819999999999781
 50
40.813186999999992
 51
139.150814
  0
ARC
  8
_0-1_Layer1
  6
CONTINUOUS
 62
    3
 10
800.74483664782724
 20
1626.3744209685315
 40
6.3839999999999719
 50
27.082733000000001
 51
77.663925000000006
  0
LINE
  8
_0-1_Layer1
  6
CONTINUOUS
 62
    3
 10
1581.2168366478274
 20
1577.1324209685313
 11
1572.9218366478271
 21
1577.1324209685313
  0
LINE
  8
_0-1_Layer1
  6
CONTINUOUS
 62
    3
 10
1592.6718366478276
 20
1577.1324209685313
 11
1584.3768366478273
 21
1577.1324209685313
  0
LINE
  8
_0-1_Layer1
  6
CONTINUOUS
 62
    3
 10
1604.5218366478273
 20
1577.1324209685313
 11
1595.8318366478275
 21
1577.1324209685313
  0
LINE
  8
_0-1_Layer1
  6
CONTINUOUS
 62
    3
 10
1615.9768366478274
 20
1577.1324209685313
 11
1607.2868366478274
 21
1577.1324209685313
  0
LINE
  8
_0-1_Layer1
  6
CONTINUOUS
 62
    3
 10
1627.8268366478273
 20
1577.1324209685313
 11
1618.7418366478273
 21
1577.1324209685313
  0
LINE
  8
_0-1_Layer1
  6
CONTINUOUS
 62
    3
 10
1641.2568366478274
 20
1566.6004209685311
 11
1751.3008366478271
 21
1566.6004209685311
  0
LINE
  8
_0-1_Layer1
  6
CONTINUOUS
 62
    3
 10
1575.6868366478272
 20
1566.0724209685309
 11
1571.7368366478274
 21
1581.4774209685311
  0
LINE
  8
_0-1_Layer1
  6
CONTINUOUS
 62
    3
 10
1641.2568366478274
 20
1566.4674209685311
 11
1639.6768366478273
 21
1581.4774209685311
  0
LINE
  8
_0-1_Layer1
  6
CONTINUOUS
 62
    3
 10
1694.1428366478274
 20
1611.0184209685312
 11
1694.1428366478274
 21
1610.5704209685312
  0
ARC
  8
_0-1_Layer1
  6
CONTINUOUS
 62
    3
 10
1777.6008366478275
 20
1582.7654209685311
 40
1.0000000000000131
 50
270
 51
0
  0
LINE
  8
_0-1_Layer1
  6
CONTINUOUS
 62
    3
 10
1776.7008366478274
 20
1609.9534209685312
 11
1776.7008366478274
 21
1583.7654209685311
  0
LINE
  8
_0-1_Layer1
  6
CONTINUOUS
 62
    3
 10
1682.3608366478275
 20
1581.7584209685313
 11
1679.3968366478273
 21
1581.7584209685313
  0
LINE
  8
_0-1_Layer1
  6
CONTINUOUS
 62
    3
 10
1640.0718366478277
 20
1577.1324209685313
 11
1631.7768366478274
 21
1577.1324209685313
  0
ARC
  8
_0-1_Layer1
  6
CONTINUOUS
 62
    3
 10
1729.0718366478272
 20
1496.9764209685311
 40
20
 50
280.20645100000002
 51
91.103026999999997
  0
ARC
  8
_0-1_Layer1
  6
CONTINUOUS
 62
    3
 10
1654.5038366478273
 20
1516.7654209685311
 40
5
 50
90
 51
180
  0
ARC
  8
_0-1_Layer1
  6
CONTINUOUS
 62
    3
 10
1693.1158366478276
 20
1611.6254209685312
 40
1.0000000000000131
 50
90
 51
180
  0
LINE
  8
_0-1_Layer1
  6
CONTINUOUS
 62
    3
 10
1694.1358366478271
 20
1609.894420968531
 11
1694.1358366478271
 21
1610.7414209685312
  0
LINE
  8
_0-1_Layer1
  6
CONTINUOUS
 62
    3
 10
782.28483664782721
 20
1581.7644209685313
 11
782.28483664782721
 21
1583.7644209685311
  0
LINE
  8
_0-1_Layer1
  6
CONTINUOUS
 62
    3
 10
1625.2978366478274
 20
1493.5784209685312
 11
1624.2108366478274
 21
1493.3314209685313
  0
LINE
  8
_0-1_Layer1
  6
CONTINUOUS
 62
    3
 10
1602.7588366478271
 20
1488.4794209685313
 11
1602.1328366478274
 21
1488.3374209685312
  0
ARC
  8
_0-1_Layer1
  6
CONTINUOUS
 62
    3
 10
783.28483664782743
 20
1582.7644209685311
 40
1.0000000000000131
 50
180
 51
270
  0
ARC
  8
_0-1_Layer1
  6
CONTINUOUS
 62
    3
 10
868.64483664782733
 20
1582.6794209685313
 40
1.0000000000000131
 50
270
 51
0
  0
LINE
  8
_0-1_Layer1
  6
CONTINUOUS
 62
    3
 10
791.49183664782731
 20
1562.9834209685309
 11
784.89183664782729
 21
1559.1734209685314
  0
LINE
  8
_0-1_Layer1
  6
CONTINUOUS
 62
    3
 10
1640.9678366478274
 20
1566.5254209685309
 11
1645.3048366478274
 21
1519.5454209685313
  0
LINE
  8
_0-1_Layer1
  6
CONTINUOUS
 62
    3
 10
1664.2118366478276
 20
1511.0974209685312
 11
1655.9978366478274
 21
1510.4904209685312
  0
LINE
  8
_0-1_Layer1
  6
CONTINUOUS
 62
    3
 10
1619.0098366478273
 20
1459.5914209685311
 11
1732.5528366478275
 21
1477.0244209685311
  0
LINE
  8
_0-1_Layer1
  6
CONTINUOUS
 62
    3
 10
1575.8698366478275
 20
1565.9784209685313
 11
1596.7408366478273
 21
1474.1414209685313
  0
CIRCLE
  8
_0-1_Layer1
  6
CONTINUOUS
 62
    3
 10
1613.8498366478275
 20
1491.1314209685311
 40
0.4469999999999885
  0
ARC
  8
_0-1_Layer1
  6
CONTINUOUS
 62
    3
 10
1729.0718366478272
 20
1496.9764209685311
 40
20
 50
190.069885
 51
190.26205400000001
  0
LINE
  8
_0-1_Layer1
  6
CONTINUOUS
 62
    3
 10
1763.7738366478275
 20
1521.7654209685311
 11
1654.5038366478273
 21
1521.7654209685311
  0
LINE
  8
_0-1_Layer1
  6
CONTINUOUS
 62
    3
 10
805.34683664782733
 20
1566.6004209685311
 11
849.47583664782724
 21
1566.6004209685311
  0
ARC
  8
_0-1_Layer1
  6
CONTINUOUS
 62
    3
 10
782.28483664782721
 20
1610.6254209685312
 40
2
 50
90
 51
180
  0
LINE
  8
_0-1_Layer1
  6
CONTINUOUS
 62
    3
 10
780.28483664782721
 20
1581.7644209685313
 11
780.28483664782721
 21
1610.6254209685312
  0
LINE
  8
_0-1_Layer1
  6
CONTINUOUS
 62
    3
 10
869.64483664782711
 20
1612.6254209685312
 11
869.64483664782711
 21
1582.6794209685313
  0
LINE
  8
_0-1_Layer1
  6
CONTINUOUS
 62
    3
 10
804.28483664782732
 20
1581.7644209685313
 11
783.28483664782743
 21
1581.7644209685313
  0
LINE
  8
_0-1_Layer1
  6
CONTINUOUS
 62
    3
 10
1727.9118366478274
 20
1516.6964209685311
 11
1662.9568366478275
 21
1510.9594209685313
  0
LINE
  8
_0-1_Layer1
  6
CONTINUOUS
 62
    3
 10
780.43583664782716
 20
1581.7654209685311
 11
780.28483664782721
 21
1581.7644209685313
  0
LINE
  8
_0-1_Layer1
  6
CONTINUOUS
 62
    3
 10
777.16783664782724
 20
1546.4154209685312
 11
775.2958366478274
 21
1546.7754209685311
  0
LINE
  8
_0-1_Layer1
  6
CONTINUOUS
 62
    3
 10
777.23983664782736
 20
1546.4864209685311
 11
782.27983664782732
 21
1581.334420968531
  0
LINE
  8
_0-1_Layer1
  6
CONTINUOUS
 62
    3
 10
775.36783664782718
 20
1546.7754209685311
 11
780.40783664782737
 21
1581.6234209685313
  0
ARC
  8
_0-1_Layer1
  6
CONTINUOUS
 62
    3
 10
1655.2628366478275
 20
1520.4644209685312
 40
10
 50
185.27276599999999
 51
274.21460000000002
  0
ARC
  8
_0-1_Layer1
  6
CONTINUOUS
 62
    3
 10
1662.0768366478273
 20
1520.9194209685311
 40
10
 50
270.27502400000003
 51
275.04916400000002
  0
ARC
  8
_0-1_Layer1
  6
CONTINUOUS
 62
    3
 10
1615.9758366478275
 20
1479.3594209685311
 40
20
 50
192.79943800000004
 51
278.72567700000002
  0
ARC
  8
_0-1_Layer1
  6
CONTINUOUS
 62
    3
 10
804.28483664782732
 20
1580.7644209685309
 40
1.0000000000000131
 50
0
 51
90
  0
LINE
  8
_0-1_Layer1
  6
CONTINUOUS
 62
    3
 10
869.64483664782711
 20
1581.7653339685312
 11
783.08083664782714
 21
1581.7654209685311
  0
LINE
  8
_0-1_Layer1
  6
CONTINUOUS
 62
    3
 10
1692.1888366478274
 20
1612.6254209685312
 11
1692.1888366478274
 21
1611.3984209685302
  0
LINE
  8
_0-1_Layer1
  6
CONTINUOUS
 62
    3
 10
1694.1158366478273
 20
1610.3824209685313
 11
1694.1158366478273
 21
1583.7644209685311
  0
LINE
  8
_0-1_Layer1
  6
CONTINUOUS
 62
    3
 10
1621.2008366478271
 20
1457.9624209685312
 11
1621.2058366478273
 21
1457.9414209685315
  0
LINE
  8
_0-1_Layer1
  6
CONTINUOUS
 62
    3
 10
1717.1615406478277
 20
1439.7654209685311
 11
1707.1615406478277
 21
1439.7654209685311
  0
LINE
  8
_0-1_Layer1
  6
CONTINUOUS
 62
    3
 10
1754.5998366478273
 20
1549.7644209685311
 11
1746.6008366478275
 21
1549.7644209685311
  0
LINE
  8
_0-1_Layer1
  6
CONTINUOUS
 62
    3
 10
1730.6008366478275
 20
1451.7654209685311
 11
1712.8195406478271
 21
1451.7654209685311
  0
ARC
  8
_0-1_Layer1
  6
CONTINUOUS
 62
    3
 10
1711.1615406478272
 20
1450.7654209685311
 40
1.0000000000000131
 50
0
 51
90
  0
LINE
  8
_0-1_Layer1
  6
CONTINUOUS
 62
    3
 10
1692.1888366478274
 20
1604.1864209685311
 11
1692.1888366478274
 21
1611.5304209685312
  0
LINE
  8
_0-1_Layer1
  6
CONTINUOUS
 62
    3
 10
1614.2968366478274
 20
1451.7644209685313
 11
1614.2378366478274
 21
1451.7654209685311
  0
LINE
  8
_0-1_Layer1
  6
CONTINUOUS
 62
    3
 10
1710.0205406478271
 20
1449.6684209685309
 11
1636.8158366478274
 21
1449.6684209685309
  0
LINE
  8
_0-1_Layer1
  6
CONTINUOUS
 62
    3
 10
1635.8168366478274
 20
1533.8604209685311
 11
1635.8158366478274
 21
1450.6684209685313
  0
LINE
  8
_0-1_Layer1
  6
CONTINUOUS
 62
    3
 10
1730.6008366478275
 20
1451.7654209685311
 11
1637.858836647827
 21
1451.7654209685311
  0
LINE
  8
_0-1_Layer1
  6
CONTINUOUS
 62
    3
 10
1712.2195406478274
 20
1451.6684209685311
 11
1712.2205406478274
 21
1449.2674209685313
  0
LINE
  8
_0-1_Layer1
  6
CONTINUOUS
 62
    3
 10
1712.2205406478274
 20
1431.6674209685311
 11
1710.6195406478273
 21
1431.6674209685311
  0
LINE
  8
_0-1_Layer1
  6
CONTINUOUS
 62
    3
 10
1710.6195406478273
 20
1431.6674209685311
 11
1710.6195406478273
 21
1449.6684209685309
  0
LINE
  8
_0-1_Layer1
  6
CONTINUOUS
 62
    3
 10
1710.6195406478273
 20
1449.6684209685309
 11
1707.8195406478271
 21
1449.6684209685309
  0
LINE
  8
_0-1_Layer1
  6
CONTINUOUS
 62
    3
 10
1748.7638366478272
 20
1556.4224209685312
 11
1748.7648366478275
 21
1534.8604209685311
  0
LINE
  8
_0-1_Layer1
  6
CONTINUOUS
 62
    3
 10
1748.7648366478275
 20
1534.8604209685311
 11
1636.8168366478271
 21
1534.8594209685311
  0
LINE
  8
_0-1_Layer1
  6
CONTINUOUS
 62
    3
 10
1750.5998366478273
 20
1556.2354209685309
 11
1748.7638366478272
 21
1556.2354209685309
  0
LINE
  8
_0-1_Layer1
  6
CONTINUOUS
 62
    3
 10
1677.0858366478274
 20
1451.7654209685311
 11
1713.8535406478275
 21
1451.7644209685313
  0
ARC
  8
_0-1_Layer1
  6
CONTINUOUS
 62
    3
 10
1749.6398366478275
 20
1533.8594209685311
 40
1.0000000000000131
 50
270
 51
0
  0
ARC
  8
_0-1_Layer1
  6
CONTINUOUS
 62
    3
 10
1749.7648366478275
 20
1533.8604209685311
 40
1.0000000000000131
 50
270
 51
0
  0
ARC
  8
_0-1_Layer1
  6
CONTINUOUS
 62
    3
 10
1636.8168366478271
 20
1533.8604209685311
 40
1.0000000000000131
 50
90
 51
180
  0
ARC
  8
_0-1_Layer1
  6
CONTINUOUS
 62
    3
 10
1779.6008366478277
 20
1546.7644209685313
 40
1.0000000000000131
 50
270
 51
0
  0
LINE
  8
_0-1_Layer1
  6
CONTINUOUS
 62
    3
 10
1730.6008366478275
 20
1451.7654209685311
 11
1637.8768366478271
 21
1451.7644209685313
  0
CIRCLE
  8
_0-1_Layer1
  6
CONTINUOUS
 62
    3
 10
1613.9718366478273
 20
1491.5894209685312
 40
20
  0
CIRCLE
  8
_0-1_Layer1
  6
CONTINUOUS
 62
    3
 10
1613.9718366478273
 20
1491.5894209685312
 40
7.5
  0
CIRCLE
  8
_0-1_Layer1
  6
CONTINUOUS
 62
    3
 10
1613.9718366478273
 20
1491.5894209685312
 40
25
  0
ARC
  8
_0-1_Layer1
  6
CONTINUOUS
 62
    3
 10
1659.5048366478275
 20
1511.7644209685313
 40
10
 50
90.005730000000028
 51
93.738235000000017
  0
ARC
  8
_0-1_Layer1
  6
CONTINUOUS
 62
    3
 10
1659.5048366478275
 20
1511.7644209685313
 40
10
 50
176.26214099999999
 51
179.99999999999997
  0
LINE
  8
_0-1_Layer1
  6
CONTINUOUS
 62
    3
 10
919.64483664782711
 20
1566.6004209685311
 11
1575.7778366478274
 21
1566.6004209685311
  0
LINE
  8
_0-1_Layer1
  6
CONTINUOUS
 62
    3
 10
1779.5998366478273
 20
1612.6254209685312
 11
1693.1158366478276
 21
1612.6254209685312
  0
LINE
  8
_0-1_Layer1
  6
CONTINUOUS
 62
    3
 10
1690.1158366478273
 20
1583.7644209685311
 11
1690.1158366478273
 21
1581.7644209685313
  0
LINE
  8
_0-1_Layer1
  6
CONTINUOUS
 62
    3
 10
797.74983664782724
 20
1449.7654209685311
 11
844.18383664782732
 21
1449.7654209685311
  0
ARC
  8
_0-1_Layer1
  6
CONTINUOUS
 62
    3
 10
1779.6008366478277
 20
1611.624420968531
 40
1.0000000000000131
 50
0
 51
90.057235999999989
  0
CIRCLE
  8
_0-1_Layer1
  6
CONTINUOUS
 62
    3
 10
1694.2148366478273
 20
1496.6364209685312
 40
20
  0
ARC
  8
_0-1_Layer1
  6
CONTINUOUS
 62
    3
 10
1654.5038366478273
 20
1516.7654209685311
 40
5
 50
89.988540999999998
 51
180
  0
LINE
  8
_0-1_Layer1
  6
CONTINUOUS
 62
    3
 10
1635.9188366478274
 20
1451.7654209685311
 11
1615.3778366478273
 21
1451.7644209685313
  0
LINE
  8
_0-1_Layer1
  6
CONTINUOUS
 62
    3
 10
1711.1615406478272
 20
1451.7654209685311
 11
1637.8768366478271
 21
1451.7644209685313
  0
LINE
  8
_0-1_Layer1
  6
CONTINUOUS
 62
    3
 10
1730.6008366478275
 20
1451.7654209685311
 11
1637.8168366478276
 21
1451.7644209685313
  0
LINE
  8
_0-1_Layer1
  6
CONTINUOUS
 62
    3
 10
865.64583664782731
 20
1583.7654209685311
 11
865.64583664782731
 21
1610.6244209685312
  0
LINE
  8
_0-1_Layer1
  6
CONTINUOUS
 62
    3
 10
1750.6408366478274
 20
1542.4614209685301
 11
1750.6398366478275
 21
1533.8594209685311
  0
LINE
  8
_0-1_Layer1
  6
CONTINUOUS
 62
    3
 10
1730.6008366478275
 20
1451.7654209685311
 11
1637.7778366478274
 21
1451.7654209685311
  0
LINE
  8
_0-1_Layer1
  6
CONTINUOUS
 62
    3
 10
1730.6008366478275
 20
1451.7654209685311
 11
1637.8978366478273
 21
1451.7654209685311
  0
LINE
  8
_0-1_Layer1
  6
CONTINUOUS
 62
    3
 10
1730.6008366478275
 20
1451.7654209685311
 11
1637.7778366478274
 21
1451.7654209685311
  0
LINE
  8
_0-1_Layer1
  6
CONTINUOUS
 62
    3
 10
1730.6008366478275
 20
1451.7654209685311
 11
1637.7778366478274
 21
1451.7654209685311
  0
LINE
  8
_0-1_Layer1
  6
CONTINUOUS
 62
    3
 10
1730.6008366478275
 20
1451.7654209685311
 11
1713.1615406478275
 21
1451.7654209685311
  0
ARC
  8
_0-1_Layer1
  6
CONTINUOUS
 62
    3
 10
1636.8158366478274
 20
1450.6684209685313
 40
1.0000000000000131
 50
180
 51
270
  0
ARC
  8
_0-1_Layer1
  6
CONTINUOUS
 62
    3
 10
1691.1158366478273
 20
1582.7644209685311
 40
1.0000000000000131
 50
180
 51
270
  0
CIRCLE
  8
_0-1_Layer1
  6
CONTINUOUS
 62
    3
 10
1728.9348366478273
 20
1496.6364209685312
 40
9.5049999999999812
  0
ARC
  8
_0-1_Layer1
  6
CONTINUOUS
 62
    3
 10
1713.1615406478275
 20
1450.7654209685311
 40
1.0000000000000131
 50
90
 51
180
  0
LINE
  8
_0-1_Layer1
  6
CONTINUOUS
 62
    3
 10
1734.3758366478273
 20
1506.3084209685312
 11
1739.8168366478274
 21
1496.8844209685312
  0
LINE
  8
_0-1_Layer1
  6
CONTINUOUS
 62
    3
 10
1739.8168366478274
 20
1496.8844209685312
 11
1734.3758366478273
 21
1487.4604209685313
  0
LINE
  8
_0-1_Layer1
  6
CONTINUOUS
 62
    3
 10
1734.3758366478273
 20
1487.4604209685313
 11
1723.4938366478273
 21
1487.4604209685313
  0
LINE
  8
_0-1_Layer1
  6
CONTINUOUS
 62
    3
 10
1723.4938366478273
 20
1487.4604209685313
 11
1718.0528366478275
 21
1496.8844209685312
  0
LINE
  8
_0-1_Layer1
  6
CONTINUOUS
 62
    3
 10
1718.0528366478275
 20
1496.8844209685312
 11
1723.4938366478273
 21
1506.3084209685312
  0
LINE
  8
_0-1_Layer1
  6
CONTINUOUS
 62
    3
 10
1723.4938366478273
 20
1506.3084209685312
 11
1734.3758366478273
 21
1506.3084209685312
  0
LINE
  8
_0-1_Layer1
  6
CONTINUOUS
 62
    3
 10
1701.1648366478271
 20
1421.6014209685313
 11
1691.7808366478271
 21
1421.6014209685313
  0
LINE
  8
_0-1_Layer1
  6
CONTINUOUS
 62
    3
 10
1691.7808366478271
 20
1421.6014209685313
 11
1690.6088366478273
 21
1421.6014209685313
  0
LINE
  8
_0-1_Layer1
  6
CONTINUOUS
 62
    3
 10
1700.7748366478272
 20
1427.0754209685301
 11
1690.6088366478273
 21
1427.0754209685301
  0
LINE
  8
_0-1_Layer1
  6
CONTINUOUS
 62
    3
 10
1765.9298366478274
 20
1476.7174209685311
 11
1765.9288366478272
 21
1456.6734209685314
  0
LINE
  8
_0-1_Layer1
  6
CONTINUOUS
 62
    3
 10
1763.9298366478274
 20
1476.7174209685311
 11
1763.9288366478274
 21
1456.6734209685314
  0
ARC
  8
_0-1_Layer1
  6
CONTINUOUS
 62
    3
 10
1692.9538366478273
 20
1424.1434209685312
 40
3.5240000000000284
 50
123.703598
 51
236.32797199999999
  0
LINE
  8
_0-1_Layer1
  6
CONTINUOUS
 62
    3
 10
1763.9298366478274
 20
1449.5804209685311
 11
1714.1685406478273
 21
1449.5814209685313
  0
LINE
  8
_0-1_Layer1
  6
CONTINUOUS
 62
    3
 10
795.70583664782725
 20
1563.1064209685312
 11
785.97183664782733
 21
1557.4864209685311
  0
LINE
  8
_0-1_Layer1
  6
CONTINUOUS
 62
    3
 10
777.81183664782725
 20
1552.7764209685313
 11
777.68383664782732
 21
1552.7014209685312
  0
LINE
  8
_0-1_Layer1
  6
CONTINUOUS
 62
    3
 10
784.88183664782719
 20
1559.0284209685315
 11
785.72883664782751
 21
1557.5614209685314
  0
CIRCLE
  8
_0-1_Layer1
  6
CONTINUOUS
 62
    3
 10
1694.2148366478273
 20
1496.6364209685312
 40
30
  0
LINE
  8
_0-1_Layer1
  6
CONTINUOUS
 62
    3
 10
1750.5998366478273
 20
1542.7644209685311
 11
1750.5998366478273
 21
1565.0334209685311
  0
LINE
  8
_0-1_Layer1
  6
CONTINUOUS
 62
    3
 10
1763.9868366478274
 20
1541.7654209685311
 11
1751.599836647827
 21
1541.7644209685313
  0
LINE
  8
_0-1_Layer1
  6
CONTINUOUS
 62
    3
 10
1764.9288366478274
 20
1543.7654209685311
 11
1752.5998366478275
 21
1543.7644209685311
  0
LINE
  8
_0-1_Layer1
  6
CONTINUOUS
 62
    3
 10
1752.5998366478275
 20
1543.7644209685311
 11
1752.5998366478275
 21
1563.4434209685312
  0
LINE
  8
_0-1_Layer1
  6
CONTINUOUS
 62
    3
 10
1752.0998366478273
 20
1565.8994209685311
 11
1765.6008366478275
 21
1558.1054209685299
  0
LINE
  8
_0-1_Layer1
  6
CONTINUOUS
 62
    3
 10
1752.7038366478273
 20
1563.2414209685312
 11
1764.6008366478277
 21
1556.3734209685313
  0
LINE
  8
_0-1_Layer1
  6
CONTINUOUS
 62
    3
 10
1765.8668366478273
 20
1558.2174209685311
 11
1764.7818366478273
 21
1556.3374209685312
  0
ARC
  8
_0-1_Layer1
  6
CONTINUOUS
 62
    3
 10
1751.599836647827
 20
1542.7644209685311
 40
1.0000000000000131
 50
180
 51
270
  0
ARC
  8
_0-1_Layer1
  6
CONTINUOUS
 62
    3
 10
1764.9288366478274
 20
1542.7654209685311
 40
1.0000000000000131
 50
0
 51
90
  0
ARC
  8
_0-1_Layer1
  6
CONTINUOUS
 62
    3
 10
1751.599836647827
 20
1565.0334209685311
 40
1.0000000000000131
 50
59.99927499999999
 51
180
  0
ARC
  8
_0-1_Layer1
  6
CONTINUOUS
 62
    3
 10
789.7668366478274
 20
1626.6494209685311
 40
6.1979999999999782
 50
105.861915
 51
153.94761299999999
  0
LINE
  8
_0-1_Layer1
  6
CONTINUOUS
 62
    3
 10
802.10692564782732
 20
1632.6114209685311
 11
788.07279964782708
 21
1632.6114209685311
  0
LINE
  8
_0-1_Layer1
  6
CONTINUOUS
 62
    3
 10
1776.7008366478274
 20
1583.7654209685311
 11
1692.1888366478274
 21
1583.7644169685311
  0
LINE
  8
_0-1_Layer1
  6
CONTINUOUS
 62
    3
 10
1692.1888366478274
 20
1604.2224209685312
 11
1692.1888366478274
 21
1583.7644169685311
  0
LINE
  8
_0-1_Layer1
  6
CONTINUOUS
 62
    3
 10
1681.599836647827
 20
1581.7644209685313
 11
1777.6008466478274
 21
1581.7654209685311
  0
LINE
  8
_0-1_Layer1
  6
CONTINUOUS
 62
    3
 10
1777.6008346478275
 20
1581.7644209685313
 11
879.64483664782711
 21
1581.7653239685314
  0
LINE
  8
_0-1_Layer1
  6
CONTINUOUS
 62
    3
 10
1779.6008366478277
 20
1545.7644209685309
 11
1770.4868366478274
 21
1545.7654329685311
  0
LINE
  8
_0-1_Layer1
  6
CONTINUOUS
 62
    3
 10
1770.4868366478274
 20
1545.7654329685311
 11
1770.4868366478274
 21
1547.6114209685311
  0
LINE
  8
_0-1_Layer1
  6
CONTINUOUS
 62
    3
 10
1749.6398366478275
 20
1532.8594209685311
 11
1637.8168366478276
 21
1532.8604189685311
  0
LINE
  8
_0-1_Layer1
  6
CONTINUOUS
 62
    3
 10
1649.5038366478273
 20
1516.7654209685311
 11
1649.5038366478273
 21
1451.7645459685311
  0
LINE
  8
_0-1_Layer1
  6
CONTINUOUS
 62
    3
 10
1637.8168366478276
 20
1532.8604189685311
 11
1637.8158396478273
 21
1451.7644199685312
  0
LINE
  8
_0-1_Layer1
  6
CONTINUOUS
 62
    3
 10
1730.6008366478275
 20
1451.7654209685311
 11
1637.8158396478273
 21
1451.7654209685311
  0
LINE
  8
_0-1_Layer1
  6
CONTINUOUS
 62
    3
 10
1600.0556516478273
 20
1451.7645439685311
 11
800.29683664782738
 21
1451.7654209685311
  0
LINE
  8
_0-1_Layer1
  6
CONTINUOUS
 62
    3
 10
1712.3375406478274
 20
1451.7644209685313
 11
1637.8768366478271
 21
1451.7645019685312
  0
LINE
  8
_0-1_Layer1
  6
CONTINUOUS
 62
    3
 10
1635.8158496478272
 20
1451.7645049685311
 11
1614.2904936478274
 21
1451.7645279685312
  0
LINE
  8
_0-1_Layer1
  6
CONTINUOUS
 62
    3
 10
799.72883364782751
 20
1471.6764209685311
 11
797.69183664782736
 21
1471.6764209685311
  0
LINE
  8
_0-1_Layer1
  6
CONTINUOUS
 62
    3
 10
731.13488164782723
 20
1621.0644209685311
 11
722.35630664782718
 21
1585.5844209685313
  0
LINE
  8
_0-1_Layer1
  6
CONTINUOUS
 62
    3
 10
728.22188164782744
 20
1621.7854209685311
 11
719.26496964782723
 21
1585.5844209685313
  0
LINE
  8
_0-1_Layer1
  6
CONTINUOUS
 62
    3
 10
733.07588164782737
 20
1625.5844209685313
 11
826.39257964782746
 21
1625.5844209685313
  0
LINE
  8
_0-1_Layer1
  6
CONTINUOUS
 62
    3
 10
733.07588164782737
 20
1622.584420968531
 11
826.39257964782746
 21
1622.584420968531
  0
LINE
  8
_0-1_Layer1
  6
CONTINUOUS
 62
    3
 10
1751.3618366478274
 20
1451.7654209685311
 11
1761.9748366478275
 21
1451.7654209685311
  0
LINE
  8
_0-1_Layer1
  6
CONTINUOUS
 62
    3
 10
1763.9288366478274
 20
1469.6954889685312
 11
1761.9748366478275
 21
1469.6964489685315
  0
LINE
  8
_0-1_Layer1
  6
CONTINUOUS
 62
    3
 10
1761.9748366478275
 20
1451.7644209685313
 11
1680.5998366478273
 21
1451.7654209685311
  0
LINE
  8
_0-1_Layer1
  6
CONTINUOUS
 62
    3
 10
1761.9748366478275
 20
1469.6964489685315
 11
1761.9748366478275
 21
1451.7644209685313
  0
LINE
  8
_0-1_Layer1
  6
CONTINUOUS
 62
    3
 10
845.28483664782721
 20
1451.7654209685311
 11
799.72983464782737
 21
1451.7654209685311
  0
LINE
  8
_0-1_Layer1
  6
CONTINUOUS
 62
    3
 10
799.72983464782737
 20
1451.7654209685311
 11
799.72883364782751
 21
1471.6764209685311
  0
LINE
  8
_0-1_Layer1
  6
CONTINUOUS
 62
    3
 10
1862.1618366478274
 20
1341.7583969685311
 11
1862.1618366478274
 21
1394.6003969685312
  0
LINE
  8
_0-1_Layer1
  6
CONTINUOUS
 62
    3
 10
1864.1618366478274
 20
1341.7583969685311
 11
1864.1618366478274
 21
1395.6003969685312
  0
LINE
  8
_0-1_Layer1
  6
CONTINUOUS
 62
    2
 10
2719.3647466478274
 20
172.63142578973003
 11
2737.8183926478273
 21
191.08507178972985
  0
LINE
  8
_0-1_Layer1
  6
CONTINUOUS
 62
    2
 10
2719.3647466478274
 20
146.53402878972997
 11
2719.3647466478274
 21
172.63142578973003
  0
LINE
  8
_0-1_Layer1
  6
CONTINUOUS
 62
    2
 10
2715.3647466478278
 20
172.63142578973003
 11
2715.3647466478278
 21
146.53402878972997
  0
LINE
  8
_0-1_Layer1
  6
CONTINUOUS
 62
    2
 10
2696.9110996478275
 20
191.08507178972985
 11
2715.3647466478278
 21
172.63142578973003
  0
LINE
  8
_0-1_Layer1
  6
CONTINUOUS
 62
    2
 10
2757.3647466478274
 20
173.45985278972989
 11
2750.3040846478275
 21
171.45985278973001
  0
LINE
  8
_0-1_Layer1
  6
CONTINUOUS
 62
    2
 10
2757.3647466478274
 20
173.45985278972989
 11
2750.3647466478278
 21
173.45985278972989
  0
LINE
  8
_0-1_Layer1
  6
CONTINUOUS
 62
    2
 10
2750.3040846478275
 20
175.45985278972978
 11
2757.3647466478274
 21
173.45985278972989
  0
LINE
  8
_0-1_Layer1
  6
CONTINUOUS
 62
    2
 10
2717.3647466478274
 20
133.45985278972989
 11
2717.3647466478274
 21
140.45985278972978
  0
LINE
  8
_0-1_Layer1
  6
CONTINUOUS
 62
    2
 10
2717.3647466478274
 20
133.45985278972989
 11
2719.3647466478274
 21
140.52051478972999
  0
LINE
  8
_0-1_Layer1
  6
CONTINUOUS
 62
    2
 10
2717.3647466478274
 20
133.45985278972989
 11
2715.3647466478278
 21
140.52051478972999
  0
LINE
  8
_0-1_Layer1
  6
CONTINUOUS
 62
    2
 10
2677.3647466478274
 20
173.45985278972989
 11
2684.4254086478268
 21
171.45985278973001
  0
LINE
  8
_0-1_Layer1
  6
CONTINUOUS
 62
    2
 10
2677.3647466478274
 20
173.45985278972989
 11
2684.3647466478274
 21
173.45985278972989
  0
LINE
  8
_0-1_Layer1
  6
CONTINUOUS
 62
    2
 10
2677.3647466478274
 20
173.45985278972989
 11
2684.4254086478268
 21
175.45985278972978
  0
LINE
  8
_0-1_Layer1
  6
CONTINUOUS
 62
    2
 10
2717.3647466478274
 20
213.45985278972989
 11
2719.3647466478274
 21
206.39919078973008
  0
LINE
  8
_0-1_Layer1
  6
CONTINUOUS
 62
    2
 10
2717.3647466478274
 20
213.45985278972989
 11
2715.3647466478278
 21
206.39919078973008
  0
LINE
  8
_0-1_Layer1
  6
CONTINUOUS
 62
    2
 10
2717.3647466478274
 20
213.45985278972989
 11
2717.3647466478274
 21
206.45985278972987
  0
LINE
  8
_0-1_Layer1
  6
CONTINUOUS
 62
    2
 10
2717.3647466478274
 20
176.28827978972993
 11
2699.7395276478283
 21
193.91349978972983
  0
LINE
  8
_0-1_Layer1
  6
CONTINUOUS
 62
    2
 10
2734.9899656478274
 20
193.91349978972983
 11
2717.3647466478274
 21
176.28827978972993
  0
LINE
  8
_0-1_Layer1
  6
CONTINUOUS
 62
    2
 10
2717.3647466478274
 20
173.45985278972989
 11
2736.4566296478274
 21
192.55173578973
  0
LINE
  8
_0-1_Layer1
  6
CONTINUOUS
 62
    2
 10
2717.3647466478274
 20
173.45985278972989
 11
2717.3647466478274
 21
146.45985278973001
  0
LINE
  8
_0-1_Layer1
  6
CONTINUOUS
 62
    2
 10
2698.2728636478269
 20
192.55173578973
 11
2717.3647466478274
 21
173.45985278972989
  0
ARC
  8
_0-1_Layer1
  6
CONTINUOUS
 62
    2
 10
2717.3647466478274
 20
173.45985278972989
 40
22.999999999887649
 50
62.718932000000017
 51
117.28106799999991
  0
ARC
  8
_0-1_Layer1
  6
CONTINUOUS
 62
    2
 10
2717.3647466478274
 20
173.45985278972989
 40
26.99999999997393
 50
60.026114000000007
 51
119.97388599999999
  0
ARC
  8
_0-1_Layer1
  6
CONTINUOUS
 62
    2
 10
2717.3647466478274
 20
173.45985278972989
 40
27.000000000059771
 50
285.02611400000001
 51
29.973885999999965
  0
ARC
  8
_0-1_Layer1
  6
CONTINUOUS
 62
    2
 10
2717.3647466478274
 20
173.45985278972989
 40
22.999999999946908
 50
287.71893199999988
 51
27.28106799999988
  0
ARC
  8
_0-1_Layer1
  6
CONTINUOUS
 62
    2
 10
2717.3647466478274
 20
173.45985278972989
 40
23.000000000028521
 50
152.71893200000008
 51
252.28106799999998
  0
ARC
  8
_0-1_Layer1
  6
CONTINUOUS
 62
    2
 10
2717.3647466478274
 20
173.45985278972989
 40
26.999999999998781
 50
150.02611400000001
 51
254.97388600000002
  0
CIRCLE
  8
_0-1_Layer1
  6
CONTINUOUS
 62
    2
 10
2717.3647466478274
 20
173.45985278972989
 40
33.000000000000107
  0
CIRCLE
  8
_0-1_Layer1
  6
CONTINUOUS
 62
    2
 10
2717.3647466478274
 20
173.45985278972989
 40
36.999999999999893
  0
ARC
  8
_0-1_Layer1
  6
CONTINUOUS
 62
    2
 10
2717.3647466478274
 20
173.45985278972989
 40
25.000000000011127
 50
151.2602050000001
 51
253.73979500000013
  0
ARC
  8
_0-1_Layer1
  6
CONTINUOUS
 62
    2
 10
2717.3647466478274
 20
173.45985278972989
 40
25.000000000026201
 50
286.26020499999993
 51
28.739794999999894
  0
ARC
  8
_0-1_Layer1
  6
CONTINUOUS
 62
    2
 10
2717.3647466478274
 20
173.45985278972989
 40
25.000000000068891
 50
61.260204999999978
 51
118.739795
  0
CIRCLE
  8
_0-1_Layer1
  6
CONTINUOUS
 62
    2
 10
2717.3647466478274
 20
173.45985278972989
 40
35
  0
TEXT
  8
_0-1_Layer1
 62
    7
 10
2780.1486296478279
 20
138.48643778972985
 40
70
 41
0.8582679999999999
 50
0
  1
三洋工業株式会社
  0
TEXT
  8
_0-1_Layer1
 62
    7
 10
3600.1138576478274
 20
228.87899196853112
 40
40
 41
0.8582679999999999
 50
0
  1
屋上点検口ハッチ
  0
TEXT
  8
_0-1_Layer1
 62
    7
 10
3394.1264396478282
 20
188.0400799685313
 40
30
 41
0.8582679999999999
 50
0
  1
ｍｍ
  0
TEXT
  8
_0-1_Layer1
 62
    7
 10
3517.2709806478274
 20
151.75424296853123
 40
30
 41
0.8582679999999999
 50
0
  1
図番
  7
TATEGAKI
  0
TEXT
  8
_0-1_Layer1
 62
    7
 10
3517.2709806478274
 20
255.49021296853113
 40
30
 41
0.8582679999999999
 50
0
  1
形名
  7
TATEGAKI
  0
TEXT
  8
_0-1_Layer1
 62
    7
 10
3315.8987646478272
 20
151.79898996853126
 40
30
 41
0.8582679999999999
 50
0
  1
製図
  7
TATEGAKI
  0
TEXT
  8
_0-1_Layer1
 62
    7
 10
3315.8987646478272
 20
255.55420796853127
 40
30
 41
0.8582679999999999
 50
0
  1
単位
  7
TATEGAKI
  0
LINE
  8
_0-1_Layer1
  6
CONTINUOUS
 62
    3
 10
3267.4525496478273
 20
175.26881496853122
 11
4117.4525496478263
 21
175.26881496853122
  0
LINE
  8
_0-1_Layer1
  6
CONTINUOUS
 62
    3
 10
3567.4525496478273
 20
275.26881496853122
 11
3567.4525496478273
 21
75.268814968531217
  0
LINE
  8
_0-1_Layer1
  6
CONTINUOUS
 62
    3
 10
3467.4525496478273
 20
275.26881496853122
 11
3467.4525496478273
 21
75.268814968531217
  0
LINE
  8
_0-1_Layer1
  6
CONTINUOUS
 62
    3
 10
3367.4525496478273
 20
275.26881496853122
 11
3367.4525496478273
 21
75.268814968531217
  0
LINE
  8
_0-1_Layer1
  6
CONTINUOUS
 62
    3
 10
3267.4525496478273
 20
275.26881496853122
 11
3267.4525496478273
 21
75.268814968531217
  0
LINE
  8
_0-1_Layer1
  6
CONTINUOUS
 62
    1
 10
2647.4525496478273
 20
275.26881496853122
 11
2647.4525496478273
 21
75.268814968531217
  0
LINE
  8
_0-1_Layer1
  6
CONTINUOUS
 62
    1
 10
4117.4525496478263
 20
275.26881496853122
 11
2647.4525496478273
 21
275.26881496853122
  0
TEXT
  8
_0-1_Layer1
 62
    7
 10
3661.5244986478283
 20
104.78494496853102
 40
40
 41
0.8582679999999999
 50
0
  1
Ｈ－１２－ＬＭ－６１
  0
TEXT
  8
_0-1_Layer1
 62
    7
 10
3598.9617416478272
 20
179.5912229685311
 40
40
 41
0.8582679999999999
 50
0
  1
ＬＭ－９００Ｔ　標準図
  0
TEXT
  8
_0-1_Layer1
 62
    7
 10
1167.9507276478273
 20
415.96322496853105
 40
40
 41
0.8582679999999999
 50
0
  1
正面図　Ｓ１：１０
  0
LINE
  8
_0-1_Layer1
  6
CONTINUOUS
 62
    2
 10
1154.4607276478273
 20
470.77865396853127
 11
1481.9406156478274
 21
470.77865396853127
  0
LINE
  8
_0-1_Layer1
  6
CONTINUOUS
 62
    2
 10
1481.9406156478274
 20
470.77865396853127
 11
1481.9406156478274
 21
402.30558596853115
  0
LINE
  8
_0-1_Layer1
  6
CONTINUOUS
 62
    2
 10
1481.9406156478274
 20
402.30558596853115
 11
1154.4607276478273
 21
402.30558596853115
  0
LINE
  8
_0-1_Layer1
  6
CONTINUOUS
 62
    2
 10
1154.4607276478273
 20
402.30558596853115
 11
1154.4607276478273
 21
470.77865396853127
  0
TEXT
  8
_0-1_Layer1
 62
    7
 10
2909.162750647828
 20
604.50210696853105
 40
40
 41
0.8582679999999999
 50
0
  1
平面図　Ｓ１：１０
  0
LINE
  8
_0-1_Layer1
  6
CONTINUOUS
 62
    2
 10
2895.6727516478268
 20
659.31753496853116
 11
3223.1526396478275
 21
659.31753496853116
  0
LINE
  8
_0-1_Layer1
  6
CONTINUOUS
 62
    2
 10
3223.1526396478275
 20
659.31753496853116
 11
3223.1526396478275
 21
590.84446796853103
  0
LINE
  8
_0-1_Layer1
  6
CONTINUOUS
 62
    2
 10
3223.1526396478275
 20
590.84446796853103
 11
2895.6727516478268
 21
590.84446796853103
  0
LINE
  8
_0-1_Layer1
  6
CONTINUOUS
 62
    2
 10
2895.6727516478268
 20
590.84446796853103
 11
2895.6727516478268
 21
659.31753496853116
  0
LINE
  8
_0-1_Layer1
  6
CONTINUOUS
 62
    1
 10
87.452549647827311
 20
74.997969968531208
 11
87.452549647827311
 21
2894.9979699685314
  0
LINE
  8
_0-1_Layer1
  6
CONTINUOUS
 62
    7
 10
4117.4525496478263
 20
74.997969968531208
 11
4117.4525496478263
 21
2894.9979699685314
  0
LINE
  8
_0-1_Layer1
  6
CONTINUOUS
 62
    7
 10
87.452549647827311
 20
2894.9979699685314
 11
4117.4525496478263
 21
2894.9979699685314
  0
LINE
  8
_0-1_Layer1
  6
CONTINUOUS
 62
    4
 10
654.19363164782737
 20
1203.5513889685312
 11
664.1618366478275
 21
1203.5513889685312
  0
LINE
  8
_0-1_Layer1
  6
CONTINUOUS
 62
    4
 10
664.1618366478275
 20
1203.5513889685312
 11
664.1618366478275
 21
1173.6467749685312
  0
LINE
  8
_0-1_Layer1
  6
CONTINUOUS
 62
    4
 10
662.16819564782725
 20
1173.6467749685312
 11
664.1618366478275
 21
1173.6467749685312
  0
LINE
  8
_0-1_Layer1
  6
CONTINUOUS
 62
    4
 10
654.19363164782737
 20
1201.5577479685312
 11
662.16819564782725
 21
1201.5577479685312
  0
LINE
  8
_0-1_Layer1
  6
CONTINUOUS
 62
    4
 10
662.16819564782725
 20
1201.5577479685312
 11
662.16819564782725
 21
1173.6467749685312
  0
LINE
  8
_0-1_Layer1
  6
CONTINUOUS
 62
    4
 10
654.19363164782737
 20
1203.5513889685312
 11
654.19363164782737
 21
1201.5577479685312
  0
LINE
  8
_0-1_Layer1
  6
CONTINUOUS
 62
    3
 10
655.07382364782734
 20
1188.3448929685312
 11
680.87741564782709
 21
1188.3448929685312
  0
LINE
  8
_0-1_Layer1
  6
CONTINUOUS
 62
    2
 10
674.1618366478275
 20
1213.5195939685311
 11
626.27621664782737
 21
1213.5195939685311
  0
LINE
  8
_0-1_Layer1
  6
CONTINUOUS
 62
    2
 10
626.27621664782737
 20
1297.9854709685312
 11
626.27621664782737
 21
1213.5195939685311
  0
LINE
  8
_0-1_Layer1
  6
CONTINUOUS
 62
    2
 10
794.16183664782716
 20
1327.5876559685312
 11
626.27621664782737
 21
1297.9854709685312
  0
LINE
  8
_0-1_Layer1
  6
CONTINUOUS
 62
    6
 10
689.85717564782726
 20
1309.1962899685311
 11
626.27621664782737
 21
1245.6153309685312
  0
LINE
  8
_0-1_Layer1
  6
CONTINUOUS
 62
    6
 10
696.04376264782729
 20
1310.2871309685311
 11
626.27621664782737
 21
1240.5195849685313
  0
LINE
  8
_0-1_Layer1
  6
CONTINUOUS
 62
    6
 10
626.27621664782737
 20
1234.5745479685311
 11
703.26144764782748
 21
1311.5597779685311
  0
LINE
  8
_0-1_Layer1
  6
CONTINUOUS
 62
    6
 10
794.16183664782716
 20
1173.3259229685311
 11
714.18060464782741
 21
1093.3446919685312
  0
LINE
  8
_0-1_Layer1
  6
CONTINUOUS
 62
    2
 10
674.1618366478275
 20
1213.5195939685311
 11
674.1618366478275
 21
962.59980696853108
  0
LINE
  8
_0-1_Layer1
  6
CONTINUOUS
 62
    2
 10
664.1618366478275
 20
1213.5195939685311
 11
664.1618366478275
 21
982.59881296853098
  0
LINE
  8
_0-1_Layer1
  6
CONTINUOUS
 62
    2
 10
794.16183664782716
 20
1327.5876559685312
 11
794.16183664782716
 21
655.18277396853114
  0
LINE
  8
_0-1_Layer1
  6
CONTINUOUS
 62
    6
 10
794.16183664782716
 20
1163.1344299685311
 11
674.1618366478275
 21
1043.1344299685311
  0
LINE
  8
_0-1_Layer1
  6
CONTINUOUS
 62
    6
 10
794.16183664782716
 20
1168.6548219685312
 11
674.1618366478275
 21
1048.6548219685312
  0
LINE
  8
_0-1_Layer1
  6
CONTINUOUS
 62
    4
 10
719.16183664782716
 20
1265.4343209685312
 11
719.16183664782716
 21
1373.1353039685312
  0
LINE
  8
_0-1_Layer1
  6
CONTINUOUS
 62
    4
 10
719.16183664782716
 20
1373.1353039685312
 11
729.1618366478275
 21
1373.1353039685312
  0
LINE
  8
_0-1_Layer1
  6
CONTINUOUS
 62
    4
 10
729.1618366478275
 20
1373.1353039685312
 11
729.1618366478275
 21
1265.4343209685312
  0
LINE
  8
_0-1_Layer1
  6
CONTINUOUS
 62
    2
 10
1764.1618366478274
 20
1327.5876559685312
 11
1932.0474556478275
 21
1297.9854709685312
  0
LINE
  8
_0-1_Layer1
  6
CONTINUOUS
 62
    6
 10
1932.0474556478275
 20
1234.5745479685311
 11
1855.0622246478274
 21
1311.5597779685311
  0
LINE
  8
_0-1_Layer1
  6
CONTINUOUS
 62
    6
 10
1862.2799096478273
 20
1310.2871309685311
 11
1932.0474556478275
 21
1240.5195849685313
  0
LINE
  8
_0-1_Layer1
  6
CONTINUOUS
 62
    6
 10
1868.4664966478274
 20
1309.1962899685311
 11
1932.0474556478275
 21
1245.6153309685312
  0
LINE
  8
_0-1_Layer1
  6
CONTINUOUS
 62
    2
 10
1764.1618366478274
 20
1327.5876559685312
 11
1764.1618366478274
 21
842.59881296853121
  0
LINE
  8
_0-1_Layer1
  6
PLine2
 62
    3
 10
724.1618366478275
 20
1375.7328849685312
 11
724.1618366478275
 21
1263.6627449685311
  0
LINE
  8
_0-1_Layer1
  6
CONTINUOUS
 62
    6
 10
1764.1618366478274
 20
1163.1344299685311
 11
1884.1618366478274
 21
1043.1344299685311
  0
LINE
  8
_0-1_Layer1
  6
CONTINUOUS
 62
    6
 10
1764.1618366478274
 20
1168.6548219685312
 11
1884.1618366478274
 21
1048.6548219685312
  0
LINE
  8
_0-1_Layer1
  6
CONTINUOUS
 62
    6
 10
1764.1618366478274
 20
1173.3259229685311
 11
1884.1618366478274
 21
1053.3259229685311
  0
LINE
  8
_0-1_Layer1
  6
CONTINUOUS
 62
    4
 10
1904.1300406478274
 20
1203.5513889685312
 11
1894.1618366478274
 21
1203.5513889685312
  0
LINE
  8
_0-1_Layer1
  6
CONTINUOUS
 62
    4
 10
1894.1618366478274
 20
1203.5513889685312
 11
1894.1618366478274
 21
1173.6467749685312
  0
LINE
  8
_0-1_Layer1
  6
CONTINUOUS
 62
    4
 10
1896.1554766478273
 20
1173.6467749685312
 11
1894.1618366478274
 21
1173.6467749685312
  0
LINE
  8
_0-1_Layer1
  6
CONTINUOUS
 62
    4
 10
1904.1300406478274
 20
1201.5577479685312
 11
1896.1554766478273
 21
1201.5577479685312
  0
LINE
  8
_0-1_Layer1
  6
CONTINUOUS
 62
    4
 10
1896.1554766478273
 20
1201.5577479685312
 11
1896.1554766478273
 21
1173.6467749685312
  0
LINE
  8
_0-1_Layer1
  6
CONTINUOUS
 62
    4
 10
1904.1300406478274
 20
1203.5513889685312
 11
1904.1300406478274
 21
1201.5577479685312
  0
LINE
  8
_0-1_Layer1
  6
CONTINUOUS
 62
    3
 10
1903.2498486478271
 20
1188.3448929685312
 11
1877.4462566478273
 21
1188.3448929685312
  0
LINE
  8
_0-1_Layer1
  6
CONTINUOUS
 62
    2
 10
1884.1618366478274
 20
1213.5195939685311
 11
1932.0474556478275
 21
1213.5195939685311
  0
LINE
  8
_0-1_Layer1
  6
CONTINUOUS
 62
    2
 10
1932.0474556478275
 20
1297.9854709685312
 11
1932.0474556478275
 21
1213.5195939685311
  0
LINE
  8
_0-1_Layer1
  6
CONTINUOUS
 62
    2
 10
1884.1618366478274
 20
1213.5195939685311
 11
1884.1618366478274
 21
962.59881296853109
  0
LINE
  8
_0-1_Layer1
  6
CONTINUOUS
 62
    2
 10
1894.1618366478274
 20
1213.5195939685311
 11
1894.1618366478274
 21
982.59881296853098
  0
ARC
  8
_0-1_Layer1
  6
CONTINUOUS
 62
    3
 10
796.68983664782729
 20
1395.6010269685312
 40
1
 50
270
 51
0
  0
ARC
  8
_0-1_Layer1
  6
CONTINUOUS
 62
    3
 10
1863.1618366478274
 20
1395.6003969685312
 40
1
 50
0
 51
90
  0
ARC
  8
_0-1_Layer1
  6
CONTINUOUS
 62
    3
 10
1764.9288366478274
 20
1395.6003969685312
 40
1
 50
180
 51
270
  0
LINE
  8
_0-1_Layer1
  6
CONTINUOUS
 62
    2
 10
574.1618366478275
 20
962.59881296853109
 11
674.1618366478275
 21
962.59881296853109
  0
LINE
  8
_0-1_Layer1
  6
CONTINUOUS
 62
    2
 10
574.1618366478275
 20
972.59881296853109
 11
654.1618366478275
 21
972.59881296853109
  0
LINE
  8
_0-1_Layer1
  6
CONTINUOUS
 62
    2
 10
654.1618366478275
 20
972.59881296853109
 11
664.1618366478275
 21
982.59881296853098
  0
LINE
  8
_0-1_Layer1
  6
CONTINUOUS
 62
    2
 10
574.1618366478275
 20
842.59881296853121
 11
674.1618366478275
 21
842.59881296853121
  0
LINE
  8
_0-1_Layer1
  6
CONTINUOUS
 62
    2
 10
674.1618366478275
 20
842.59881296853121
 11
674.1618366478275
 21
658.58753496853092
  0
LINE
  8
_0-1_Layer1
  6
CONTINUOUS
 62
    2
 10
1984.1618366478274
 20
962.59881296853109
 11
1884.1618366478274
 21
962.59881296853109
  0
LINE
  8
_0-1_Layer1
  6
CONTINUOUS
 62
    2
 10
1984.1618366478274
 20
972.59881296853109
 11
1904.1618366478274
 21
972.59881296853109
  0
LINE
  8
_0-1_Layer1
  6
CONTINUOUS
 62
    2
 10
1904.1618366478274
 20
972.59881296853109
 11
1894.1618366478274
 21
982.59881296853098
  0
LINE
  8
_0-1_Layer1
  6
CONTINUOUS
 62
    2
 10
1984.1618366478274
 20
842.59881296853121
 11
1764.1618366478274
 21
842.59881296853121
  0
LINE
  8
_0-1_Layer1
  6
CONTINUOUS
 62
    4
 10
1839.1618366478274
 20
1265.4343209685312
 11
1839.1618366478274
 21
1373.1353039685312
  0
LINE
  8
_0-1_Layer1
  6
CONTINUOUS
 62
    4
 10
1839.1618366478274
 20
1373.1353039685312
 11
1829.1618366478274
 21
1373.1353039685312
  0
LINE
  8
_0-1_Layer1
  6
CONTINUOUS
 62
    4
 10
1829.1618366478274
 20
1373.1353039685312
 11
1829.1618366478274
 21
1265.4343209685312
  0
LINE
  8
_0-1_Layer1
  6
PLine2
 62
    3
 10
1834.1618366478274
 20
1375.7328849685312
 11
1834.1618366478274
 21
1263.6627449685311
  0
LINE
  8
_0-1_Layer1
  6
CONTINUOUS
 62
    3
 10
1186.5094516478273
 20
1044.3533669685312
 11
1198.2951516478274
 21
1044.3533669685312
  0
LINE
  8
_0-1_Layer1
  6
CONTINUOUS
 62
    3
 10
1198.2951516478274
 20
1044.3533669685312
 11
1198.2951516478274
 21
1057.0456589685311
  0
LINE
  8
_0-1_Layer1
  6
CONTINUOUS
 62
    3
 10
1198.2951516478274
 20
1057.0456589685311
 11
1186.5094516478273
 21
1057.0456589685311
  0
LINE
  8
_0-1_Layer1
  6
CONTINUOUS
 62
    3
 10
1186.5094516478273
 20
1057.0456589685311
 11
1186.5094516478273
 21
1044.3533669685312
  0
INSERT
  2
-011-DIM_11
  8
_0-1_Layer1
 10
679.88612064782728
 20
1625.5844209685313
 41
1
 42
1
 50
0
  0
INSERT
  2
-012-DIM_12
  8
_0-1_Layer1
 10
687.7385636478275
 20
1341.6006399685311
 41
1
 42
1
 50
0
  0
INSERT
  2
-013-DIM_13
  8
_0-1_Layer1
 10
688.23602964782731
 20
1396.6006399685311
 41
1
 42
1
 50
0
  0
INSERT
  2
-014-DIM_14
  8
_0-1_Layer1
 10
794.16183664782716
 20
917.65298596853108
 41
1
 42
1
 50
0
  0
LINE
  8
_0-1_Layer1
  6
CONTINUOUS
 62
    3
 10
1195.0596286478274
 20
935.55685496853107
 11
1206.8453286478273
 21
935.55685496853107
  0
LINE
  8
_0-1_Layer1
  6
CONTINUOUS
 62
    3
 10
1206.8453286478273
 20
935.55685496853107
 11
1206.8453286478273
 21
948.24914696853114
  0
LINE
  8
_0-1_Layer1
  6
CONTINUOUS
 62
    3
 10
1206.8453286478273
 20
948.24914696853114
 11
1195.0596286478274
 21
948.24914696853114
  0
LINE
  8
_0-1_Layer1
  6
CONTINUOUS
 62
    3
 10
1195.0596286478274
 20
948.24914696853114
 11
1195.0596286478274
 21
935.55685496853107
  0
LINE
  8
_0-1_Layer1
  6
CONTINUOUS
 62
    4
 10
707.16183664782704
 20
1324.6317299685311
 11
707.16183664782704
 21
1394.600135968531
  0
LINE
  8
_0-1_Layer1
  6
CONTINUOUS
 62
    4
 10
611.27621664782737
 20
1265.4948779685312
 11
611.27621664782737
 21
1306.6890579685312
  0
LINE
  8
_0-1_Layer1
  6
CONTINUOUS
 62
    4
 10
613.27621664782725
 20
1305.8516629685312
 11
708.3374556478276
 21
1322.8098769685312
  0
LINE
  8
_0-1_Layer1
  6
CONTINUOUS
 62
    4
 10
739.1618366478275
 20
1394.6004539685309
 11
739.1618366478275
 21
1392.6001559685312
  0
LINE
  8
_0-1_Layer1
  6
CONTINUOUS
 62
    4
 10
613.27621664782725
 20
1265.4948779685312
 11
613.27621664782725
 21
1305.8516629685312
  0
LINE
  8
_0-1_Layer1
  6
CONTINUOUS
 62
    4
 10
707.16183664782704
 20
1324.6317299685311
 11
612.10059664782739
 21
1307.6735159685311
  0
LINE
  8
_0-1_Layer1
  6
CONTINUOUS
 62
    4
 10
709.1618366478275
 20
1342.6001559685312
 11
709.1618366478275
 21
1323.7943359685312
  0
ARC
  8
_0-1_Layer1
  6
CONTINUOUS
 62
    4
 10
708.16183664782727
 20
1323.7943359685312
 40
1
 50
280.11473799999999
 51
0
  0
ARC
  8
_0-1_Layer1
  6
CONTINUOUS
 62
    4
 10
612.27621664782737
 20
1306.6890579685312
 40
1
 50
100.114738
 51
180
  0
LINE
  8
_0-1_Layer1
  6
CONTINUOUS
 62
    4
 10
611.27621664782737
 20
1265.4948779685312
 11
613.27621664782725
 21
1265.4948779685312
  0
LINE
  8
_0-1_Layer1
  6
CONTINUOUS
 62
    6
 10
613.27621664782725
 20
1265.4948779685312
 11
626.27621664782737
 21
1263.0746539685313
  0
LINE
  8
_0-1_Layer1
  6
CONTINUOUS
 62
    6
 10
613.27621664782725
 20
1268.6032439685312
 11
617.0563236478273
 21
1272.3833499685311
  0
LINE
  8
_0-1_Layer1
  6
CONTINUOUS
 62
    6
 10
614.05441264782723
 20
1272.3833499685311
 11
622.69670764782722
 21
1263.7410549685312
  0
LINE
  8
_0-1_Layer1
  6
CONTINUOUS
 62
    6
 10
621.17414064782736
 20
1272.3833499685311
 11
614.12723364782721
 21
1265.3364429685312
  0
LINE
  8
_0-1_Layer1
  6
CONTINUOUS
 62
    6
 10
625.45450264782721
 20
1272.3833499685311
 11
617.73578664782747
 21
1264.6646349685311
  0
LINE
  8
_0-1_Layer1
  6
CONTINUOUS
 62
    6
 10
626.27621664782737
 20
1269.1414299685312
 11
621.16162864782723
 21
1264.0268419685312
  0
LINE
  8
_0-1_Layer1
  6
CONTINUOUS
 62
    6
 10
613.27621664782725
 20
1269.6939109685311
 11
618.4358186478272
 21
1264.5343099685313
  0
LINE
  8
_0-1_Layer1
  6
CONTINUOUS
 62
    6
 10
617.90027764782735
 20
1272.3833499685311
 11
626.27621664782737
 21
1264.0074109685311
  0
LINE
  8
_0-1_Layer1
  6
CONTINUOUS
 62
    6
 10
622.00253364782748
 20
1272.3833499685311
 11
626.27621664782737
 21
1268.1096669685312
  0
LINE
  8
_0-1_Layer1
  6
CONTINUOUS
 62
    4
 10
1851.1618366478274
 20
1324.6317299685311
 11
1851.1618366478274
 21
1394.600135968531
  0
LINE
  8
_0-1_Layer1
  6
CONTINUOUS
 62
    4
 10
1947.0474556478275
 20
1265.4948779685312
 11
1947.0474556478275
 21
1306.6890579685312
  0
LINE
  8
_0-1_Layer1
  6
CONTINUOUS
 62
    4
 10
1945.0474556478273
 20
1305.8516629685312
 11
1849.9862166478274
 21
1322.8098769685312
  0
LINE
  8
_0-1_Layer1
  6
CONTINUOUS
 62
    4
 10
1819.1618366478274
 20
1394.6004539685309
 11
1819.1618366478274
 21
1392.6001559685312
  0
LINE
  8
_0-1_Layer1
  6
CONTINUOUS
 62
    4
 10
1945.0474556478273
 20
1265.4948779685312
 11
1945.0474556478273
 21
1305.8516629685312
  0
LINE
  8
_0-1_Layer1
  6
CONTINUOUS
 62
    4
 10
1851.1618366478274
 20
1324.6317299685311
 11
1946.223075647827
 21
1307.6735159685311
  0
LINE
  8
_0-1_Layer1
  6
CONTINUOUS
 62
    4
 10
1849.1618366478274
 20
1342.6001559685312
 11
1849.1618366478274
 21
1323.7943359685312
  0
ARC
  8
_0-1_Layer1
  6
CONTINUOUS
 62
    4
 10
1850.1618366478274
 20
1323.7943359685312
 40
1.0000000005673411
 50
180
 51
259.88526200000001
  0
ARC
  8
_0-1_Layer1
  6
CONTINUOUS
 62
    4
 10
1946.0474556478271
 20
1306.6890579685312
 40
1.0000000015572641
 50
0
 51
79.885261999999983
  0
LINE
  8
_0-1_Layer1
  6
CONTINUOUS
 62
    4
 10
1947.0474556478275
 20
1265.4948779685312
 11
1945.0474556478273
 21
1265.4948779685312
  0
LINE
  8
_0-1_Layer1
  6
CONTINUOUS
 62
    6
 10
1945.0474556478273
 20
1265.4948779685312
 11
1932.0474556478275
 21
1263.0746539685313
  0
LINE
  8
_0-1_Layer1
  6
CONTINUOUS
 62
    6
 10
1945.0474556478273
 20
1268.6032439685312
 11
1941.2673486478272
 21
1272.3833499685311
  0
LINE
  8
_0-1_Layer1
  6
CONTINUOUS
 62
    6
 10
1944.2692596478273
 20
1272.3833499685311
 11
1935.6269646478272
 21
1263.7410549685312
  0
LINE
  8
_0-1_Layer1
  6
CONTINUOUS
 62
    6
 10
1937.1495316478274
 20
1272.3833499685311
 11
1944.1964386478273
 21
1265.3364429685312
  0
LINE
  8
_0-1_Layer1
  6
CONTINUOUS
 62
    6
 10
1932.8691696478272
 20
1272.3833499685311
 11
1940.5878856478273
 21
1264.6646349685311
  0
LINE
  8
_0-1_Layer1
  6
CONTINUOUS
 62
    6
 10
1932.0474556478275
 20
1269.1414299685312
 11
1937.1620436478274
 21
1264.0268419685312
  0
LINE
  8
_0-1_Layer1
  6
CONTINUOUS
 62
    6
 10
1945.0474556478273
 20
1269.6939109685311
 11
1939.8878536478273
 21
1264.5343099685313
  0
LINE
  8
_0-1_Layer1
  6
CONTINUOUS
 62
    6
 10
1940.4233946478275
 20
1272.3833499685311
 11
1932.0474556478275
 21
1264.0074109685311
  0
LINE
  8
_0-1_Layer1
  6
CONTINUOUS
 62
    6
 10
1936.3211386478274
 20
1272.3833499685311
 11
1932.0474556478275
 21
1268.1096669685312
  0
INSERT
  2
-015-DIM_15
  8
_0-1_Layer1
 10
829.16183664782739
 20
1645.2852359685312
 41
1
 42
1
 50
0
  0
LINE
  8
_0-1_Layer1
  6
CONTINUOUS
 62
    6
 10
1747.9724986478273
 20
1625.9504209685313
 11
1777.7668366478274
 21
1625.9504209685313
  0
LINE
  8
_0-1_Layer1
  6
CONTINUOUS
 62
    6
 10
1747.9726846478275
 20
1626.2214209685312
 11
1777.7668366478274
 21
1626.2214209685312
  0
LINE
  8
_0-1_Layer1
  6
CONTINUOUS
 62
    6
 10
1747.9728686478275
 20
1626.4914209685312
 11
1777.7668366478274
 21
1626.4914209685312
  0
LINE
  8
_0-1_Layer1
  6
CONTINUOUS
 62
    6
 10
1747.9731156478274
 20
1626.8514209685309
 11
1777.7668366478274
 21
1626.8514209685309
  0
LINE
  8
_0-1_Layer1
  6
CONTINUOUS
 62
    6
 10
1747.9733606478273
 20
1627.2104249685312
 11
1777.7668366478274
 21
1627.2114099685311
  0
LINE
  8
_0-1_Layer1
  6
CONTINUOUS
 62
    6
 10
1752.0458366478274
 20
1615.9614209685312
 11
1755.3308366478273
 21
1612.6764209685311
  0
LINE
  8
_0-1_Layer1
  6
CONTINUOUS
 62
    6
 10
1751.9398366478274
 20
1619.9894209685312
 11
1759.3598366478273
 21
1612.5694209685312
  0
LINE
  8
_0-1_Layer1
  6
CONTINUOUS
 62
    6
 10
1753.8468366478273
 20
1622.5334209685311
 11
1763.7048366478275
 21
1612.6764209685311
  0
LINE
  8
_0-1_Layer1
  6
CONTINUOUS
 62
    6
 10
1758.2998366478273
 20
1622.5334209685311
 11
1768.157836647827
 21
1612.6754209685309
  0
LINE
  8
_0-1_Layer1
  6
CONTINUOUS
 62
    6
 10
1762.3268366478273
 20
1622.5334209685311
 11
1772.2908366478273
 21
1612.5694209685312
  0
LINE
  8
_0-1_Layer1
  6
CONTINUOUS
 62
    6
 10
1774.0388366478273
 20
1614.5323879685311
 11
1766.0368366478274
 21
1622.5334209685311
  0
LINE
  8
_0-1_Layer1
  6
CONTINUOUS
 62
    6
 10
1774.0388366478273
 20
1618.3484209685312
 11
1769.7478366478274
 21
1622.6394209685309
  0
LINE
  8
_0-1_Layer1
  6
CONTINUOUS
 62
    6
 10
1771.1248366478274
 20
1612.6764209685311
 11
1774.0938366478276
 21
1615.6444209685312
  0
LINE
  8
_0-1_Layer1
  6
CONTINUOUS
 62
    6
 10
1774.0388366478273
 20
1620.0414209685312
 11
1766.4618366478273
 21
1612.4644209685312
  0
LINE
  8
_0-1_Layer1
  6
CONTINUOUS
 62
    6
 10
1762.0098366478273
 20
1612.6754209685309
 11
1771.7618366478273
 21
1622.4284209685311
  0
LINE
  8
_0-1_Layer1
  6
CONTINUOUS
 62
    6
 10
1757.7698366478273
 20
1612.5694209685312
 11
1767.8398366478273
 21
1622.6394209685309
  0
LINE
  8
_0-1_Layer1
  6
CONTINUOUS
 62
    6
 10
1753.7408366478276
 20
1612.6764209685311
 11
1763.4938366478273
 21
1622.4284209685311
  0
LINE
  8
_0-1_Layer1
  6
CONTINUOUS
 62
    6
 10
1751.9398366478274
 20
1615.0084209685313
 11
1759.570836647827
 21
1622.6404209685311
  0
LINE
  8
_0-1_Layer1
  6
CONTINUOUS
 62
    6
 10
1751.9398366478274
 20
1618.5054209685311
 11
1756.0738366478272
 21
1622.6394209685309
  0
LINE
  8
_0-1_Layer1
  6
CONTINUOUS
 62
    6
 10
1752.0388366478273
 20
1612.6254209685312
 11
1752.0388366478273
 21
1622.6254209685312
  0
LINE
  8
_0-1_Layer1
  6
CONTINUOUS
 62
    6
 10
1774.0388366478273
 20
1622.6254209685312
 11
1774.0388366478273
 21
1612.6254209685312
  0
LINE
  8
_0-1_Layer1
  6
PLine2
 62
    3
 10
1762.9648366478273
 20
1640.7114209685312
 11
1762.9648366478273
 21
1606.5114209685312
  0
LINE
  8
_0-1_Layer1
  6
CONTINUOUS
 62
    6
 10
1747.9735626478273
 20
1627.5054209685311
 11
1777.7668366478274
 21
1627.5054209685311
  0
LINE
  8
_0-1_Layer1
  6
CONTINUOUS
 62
    3
 10
1777.7668366478274
 20
1629.3674209685312
 11
1777.7668366478274
 21
1625.5844209685313
  0
ARC
  8
_0-1_Layer1
  6
CONTINUOUS
 62
    3
 10
1825.2477906478273
 20
1620.5844209685313
 40
2.0000000008204251
 50
13.890294000000001
 51
90.000000000000014
  0
ARC
  8
_0-1_Layer1
  6
CONTINUOUS
 62
    3
 10
1825.2477906478273
 20
1620.5844209685313
 40
4.9999999996688853
 50
13.897290999999999
 51
90.000000000000014
  0
ARC
  8
_0-1_Layer1
  6
CONTINUOUS
 62
    3
 10
1766.3348366478274
 20
1634.9054209685312
 40
2.2969999997580932
 50
46.518580999999998
 51
130.141098
  0
LINE
  8
_0-1_Layer1
  6
CONTINUOUS
 62
    3
 10
1759.7220326478273
 20
1637.2539779685312
 11
1766.5630326478274
 21
1637.2539779685312
  0
LINE
  8
_0-1_Layer1
  6
CONTINUOUS
 62
    3
 10
1767.9138366478273
 20
1636.4804209685312
 11
1767.9148366478273
 21
1632.7014209685312
  0
LINE
  8
_0-1_Layer1
  6
CONTINUOUS
 62
    3
 10
1764.8548366478276
 20
1636.5704209685309
 11
1764.8548366478276
 21
1632.7014209685312
  0
LINE
  8
_0-1_Layer1
  6
CONTINUOUS
 62
    3
 10
1761.0738366478272
 20
1636.5714209685311
 11
1761.0738366478272
 21
1632.7014209685312
  0
LINE
  8
_0-1_Layer1
  6
CONTINUOUS
 62
    3
 10
1758.0138366478272
 20
1636.5714209685311
 11
1758.0138366478272
 21
1632.6114209685311
  0
LINE
  8
_0-1_Layer1
  6
CONTINUOUS
 62
    3
 10
1747.9748366478273
 20
1629.3674209685312
 11
1747.9722486478274
 21
1625.5844209685313
  0
LINE
  8
_0-1_Layer1
  6
CONTINUOUS
 62
    3
 10
1747.9748366478273
 20
1629.3674209685312
 11
1777.7668366478274
 21
1629.3674209685312
  0
ARC
  8
_0-1_Layer1
  6
CONTINUOUS
 62
    3
 10
1762.9648366478273
 20
1633.7754209685313
 40
3.4259999995515109
 50
54.685943999999985
 51
125.318039
  0
ARC
  8
_0-1_Layer1
  6
CONTINUOUS
 62
    3
 10
1759.5898366478273
 20
1635.1194209685311
 40
2.0820000003846579
 50
40.849185999999989
 51
139.186813
  0
ARC
  8
_0-1_Layer1
  6
CONTINUOUS
 62
    3
 10
1757.5788366478273
 20
1626.3744209685315
 40
6.3839999998227004
 50
102.33607499999998
 51
152.91726700000001
  0
ARC
  8
_0-1_Layer1
  6
CONTINUOUS
 62
    3
 10
1768.5568366478274
 20
1626.6494209685311
 40
6.198000000801164
 50
26.052387
 51
74.138085000000004
  0
LINE
  8
_0-1_Layer1
  6
CONTINUOUS
 62
    3
 10
1756.2167466478274
 20
1632.6114209685311
 11
1770.2508726478275
 21
1632.6114209685311
  0
LINE
  8
_0-1_Layer1
  6
CONTINUOUS
 62
    3
 10
1830.1017906478273
 20
1621.7854209685311
 11
1839.0587036478273
 21
1585.5844209685313
  0
LINE
  8
_0-1_Layer1
  6
CONTINUOUS
 62
    3
 10
1827.1887906478273
 20
1621.0644209685311
 11
1835.9673656478274
 21
1585.5844209685313
  0
LINE
  8
_0-1_Layer1
  6
CONTINUOUS
 62
    3
 10
1731.9310926478274
 20
1625.5844209685313
 11
1825.2477906478273
 21
1625.5844209685313
  0
LINE
  8
_0-1_Layer1
  6
CONTINUOUS
 62
    3
 10
1731.9310926478274
 20
1622.584420968531
 11
1825.2477906478273
 21
1622.584420968531
  0
LINE
  8
_0-1_Layer1
  6
CONTINUOUS
 62
    3
 10
719.26496964782723
 20
1585.5844209685313
 11
780.28483664782721
 21
1585.5844209685313
  0
LINE
  8
_0-1_Layer1
  6
CONTINUOUS
 62
    3
 10
1780.6008366478275
 20
1585.5844209685313
 11
1839.0587036478273
 21
1585.5844209685313
  0
ARC
  8
_0-1_Layer1
  6
CONTINUOUS
 62
    3
 10
1279.1618366478274
 20
1345.5844209685313
 40
529.99999999999977
 50
32.188761
 51
147.811239
  0
ARC
  8
_0-1_Layer1
  6
CONTINUOUS
 62
    3
 10
1279.1618366478274
 20
1345.5844209685313
 40
526.99999999999977
 50
32.188761
 51
147.811239
  0
ARC
  8
_0-1_Layer1
  6
CONTINUOUS
 62
    3
 10
826.39257964782746
 20
1630.5844209685313
 40
5
 50
270
 51
327.811239
  0
ARC
  8
_0-1_Layer1
  6
CONTINUOUS
 62
    3
 10
826.39257964782746
 20
1630.5844209685313
 40
8
 50
270
 51
327.811239
  0
ARC
  8
_0-1_Layer1
  6
CONTINUOUS
 62
    3
 10
1731.9310926478274
 20
1630.5844209685313
 40
4.9999999997263478
 50
212.18876100000003
 51
270
  0
ARC
  8
_0-1_Layer1
  6
CONTINUOUS
 62
    3
 10
1731.9310926478274
 20
1630.5844209685313
 40
7.9999999999749241
 50
212.18876100000003
 51
270
  0
LINE
  8
_0-1_Layer1
  6
PLine1
 62
    3
 10
1387.2358986478273
 20
2260.0781009685311
 11
1299.8884836478273
 21
2209.6480469685312
  0
LINE
  8
_0-1_Layer1
  6
CONTINUOUS
 62
    4
 10
1331.0320106478273
 20
2123.7057229685311
 11
1331.8980376478273
 21
2124.2057229685311
  0
ARC
  8
_0-1_Layer1
  6
CONTINUOUS
 62
    4
 10
1329.0320106478273
 20
2127.1698239685311
 40
4.0000000002813456
 50
210.00000000000003
 51
300
  0
LINE
  8
_0-1_Layer1
  6
PLine1
 62
    3
 10
1325.5679076478273
 20
2125.1698279685311
 11
1287.5679656478274
 21
2190.987810968531
  0
ARC
  8
_0-1_Layer1
  6
CONTINUOUS
 62
    4
 10
1304.8884836478273
 20
2200.9877929685313
 40
19.999999999963819
 50
119.99999999999999
 51
209.999942
  0
LINE
  8
_0-1_Layer1
  6
PLine1
 62
    3
 10
1294.8884836478273
 20
2218.3083009685311
 11
1382.2358986478273
 21
2268.7383549685323
  0
ARC
  8
_0-1_Layer1
  6
CONTINUOUS
 62
    4
 10
1304.8884836478273
 20
2200.9877929685313
 40
10.00000000007959
 50
119.99999999999999
 51
209.999942
  0
LINE
  8
_0-1_Layer1
  6
PLine1
 62
    3
 10
1296.2282246478273
 20
2195.9878019685311
 11
1333.7281666478273
 21
2131.0358459685312
  0
ARC
  8
_0-1_Layer1
  6
CONTINUOUS
 62
    4
 10
1329.3980376478273
 20
2128.5358499685312
 40
4.9999999999944826
 50
300
 51
30.000000000000018
  0
ARC
  8
_0-1_Layer1
  6
CONTINUOUS
 62
    3
 10
1320.8441176478273
 20
2390.9900389685313
 40
5.0000000002730332
 50
29.999999999999996
 51
106.10270900000002
  0
LINE
  8
_0-1_Layer1
  6
PLine1
 62
    3
 10
1325.1742446478274
 20
2393.4900389685313
 11
1823.2172216478273
 21
1530.8542979685312
  0
LINE
  8
_0-1_Layer1
  6
PLine1
 62
    3
 10
1319.4572136478273
 20
2395.794225968531
 11
1283.6277726478274
 21
2385.450639968531
  0
ARC
  8
_0-1_Layer1
  6
CONTINUOUS
 62
    3
 10
1866.9300726478273
 20
1445.1414199685312
 40
4.9999999996550937
 50
313.897291
 51
29.999999999999979
  0
LINE
  8
_0-1_Layer1
  6
PLine1
 62
    3
 10
1870.3971686478276
 20
1441.5382329685312
 11
1843.5246396478274
 21
1415.6808189685312
  0
LINE
  8
_0-1_Layer1
  6
PLine1
 62
    3
 10
1824.6018506478274
 20
1528.4560509685311
 11
1871.2601996478274
 21
1447.6414199685312
  0
ARC
  8
_0-1_Layer1
  6
PLine1
 62
    3
 10
1355.7301086478274
 20
1780.5657299685313
 40
530.00000000000057
 50
332.188761
 51
87.811239000000029
  0
ARC
  8
_0-1_Layer1
  6
CONTINUOUS
 62
    3
 10
1376.1627206478274
 20
2315.1754079685311
 40
4.9999999992939879
 50
210.00000000000003
 51
267.811239
  0
ARC
  8
_0-1_Layer1
  6
CONTINUOUS
 62
    3
 10
1828.9319776478274
 20
1530.9560509685311
 40
4.9999999996798072
 50
152.188761
 51
210.00000000000003
  0
LINE
  8
_0-1_Layer1
  6
PLine1
 62
    3
 10
1788.5762056478275
 20
1510.8542979685312
 11
1283.6277726478274
 21
2385.450639968531
  0
LINE
  8
_0-1_Layer1
  6
CONTINUOUS
 62
    3
 10
1382.2358986478273
 20
2268.7383549685323
 11
1387.2358986478273
 21
2260.0781009685311
  0
INSERT
  2
-016-DIM_16
  8
_0-1_Layer1
 10
1463.0548296478273
 20
1622.5994209685311
 41
1
 42
1
 50
0
  0
LINE
  8
_0-1_Layer1
  6
PLine2
 62
    3
 10
732.16183664782704
 20
1401.9522149685313
 11
732.16183664782704
 21
1380.9650579685313
  0
LINE
  8
_0-1_Layer1
  6
PLine2
 62
    3
 10
1826.1618366478274
 20
1401.9522149685313
 11
1826.1618366478274
 21
1380.9650579685313
  0
LINE
  8
_0-1_Layer1
  6
CONTINUOUS
 62
    6
 10
696.16183664782739
 20
1341.7580259685312
 11
707.16183664782704
 21
1339.710144968531
  0
LINE
  8
_0-1_Layer1
  6
CONTINUOUS
 62
    6
 10
696.16183664782739
 20
1344.8663919685309
 11
699.9419426478272
 21
1348.646498968531
  0
LINE
  8
_0-1_Layer1
  6
CONTINUOUS
 62
    6
 10
696.94003164782714
 20
1348.646498968531
 11
705.58232664782736
 21
1340.0042039685311
  0
LINE
  8
_0-1_Layer1
  6
CONTINUOUS
 62
    6
 10
704.05975964782726
 20
1348.646498968531
 11
697.01285264782712
 21
1341.5995919685313
  0
LINE
  8
_0-1_Layer1
  6
CONTINUOUS
 62
    6
 10
707.16183664782704
 20
1347.4682129685311
 11
700.62140664782737
 21
1340.9277829685311
  0
LINE
  8
_0-1_Layer1
  6
CONTINUOUS
 62
    6
 10
707.16183664782704
 20
1343.4045789685315
 11
704.04724864782736
 21
1340.2899909685311
  0
LINE
  8
_0-1_Layer1
  6
CONTINUOUS
 62
    6
 10
696.16183664782739
 20
1345.9570589685311
 11
701.32143764782711
 21
1340.7974579685313
  0
LINE
  8
_0-1_Layer1
  6
CONTINUOUS
 62
    6
 10
700.78589664782749
 20
1348.646498968531
 11
707.16183664782704
 21
1342.2705589685311
  0
LINE
  8
_0-1_Layer1
  6
CONTINUOUS
 62
    6
 10
704.88815264782738
 20
1348.646498968531
 11
707.16183664782704
 21
1346.3728159685311
  0
LINE
  8
_0-1_Layer1
  6
CONTINUOUS
 62
    6
 10
613.27621664782725
 20
1280.4948779685312
 11
626.27621664782737
 21
1280.4948779685312
  0
LINE
  8
_0-1_Layer1
  6
CONTINUOUS
 62
    6
 10
1932.0474556478275
 20
1280.4948779685312
 11
1945.0474556478273
 21
1280.4948779685312
  0
LINE
  8
_0-1_Layer1
  6
CONTINUOUS
 62
    6
 10
1862.1618366478274
 20
1341.7580259685312
 11
1851.1618366478274
 21
1339.710144968531
  0
LINE
  8
_0-1_Layer1
  6
CONTINUOUS
 62
    6
 10
1862.1618366478274
 20
1344.8663919685309
 11
1858.3817296478273
 21
1348.646498968531
  0
LINE
  8
_0-1_Layer1
  6
CONTINUOUS
 62
    6
 10
1861.3836406478274
 20
1348.646498968531
 11
1852.7413456478275
 21
1340.0042039685311
  0
LINE
  8
_0-1_Layer1
  6
CONTINUOUS
 62
    6
 10
1854.2639126478273
 20
1348.646498968531
 11
1861.3108196478274
 21
1341.5995919685313
  0
LINE
  8
_0-1_Layer1
  6
CONTINUOUS
 62
    6
 10
1851.1618366478274
 20
1347.4682129685311
 11
1857.7022666478274
 21
1340.9277829685311
  0
LINE
  8
_0-1_Layer1
  6
CONTINUOUS
 62
    6
 10
1851.1618366478274
 20
1343.4045789685315
 11
1854.2764236478274
 21
1340.2899909685311
  0
LINE
  8
_0-1_Layer1
  6
CONTINUOUS
 62
    6
 10
1862.1618366478274
 20
1345.9570589685311
 11
1857.0022346478263
 21
1340.7974579685313
  0
LINE
  8
_0-1_Layer1
  6
CONTINUOUS
 62
    6
 10
1857.5377756478274
 20
1348.646498968531
 11
1851.1618366478274
 21
1342.2705589685311
  0
LINE
  8
_0-1_Layer1
  6
CONTINUOUS
 62
    6
 10
1853.4355196478273
 20
1348.646498968531
 11
1851.1618366478274
 21
1346.3728159685311
  0
LINE
  8
_0-1_Layer1
  6
CONTINUOUS
 62
    3
 10
612.21754764782736
 20
1240.9379629685311
 11
617.88742064782753
 21
1260.7584709685311
  0
LINE
  8
_0-1_Layer1
  6
CONTINUOUS
 62
    3
 10
617.88742064782753
 20
1260.7584709685311
 11
544.7339666478274
 21
1134.0529709685311
  0
LINE
  8
_0-1_Layer1
  6
CONTINUOUS
 62
    3
 10
544.7339666478274
 20
1134.0529709685311
 11
364.49774564782729
 21
1134.0529709685311
  0
TEXT
  8
_0-1_Layer1
 62
    7
 10
335.31657464782768
 20
1139.0529709685311
 40
30
 41
0.8582679999999999
 50
-0.0000000000000225
  1
シーリング処理
  0
TEXT
  8
_0-1_Layer1
 62
    7
 10
350.01944564782718
 20
1097.6181949685313
 40
30
 41
0.8582679999999999
 50
0
  1
（別途）
  0
INSERT
  2
-017-DIM_17
  8
_0-1_Layer1
 10
694.16183664782716
 20
1413.9473699685311
 41
1
 42
1
 50
0
  0
LINE
  8
_0-1_Layer1
  6
CONTINUOUS
 62
    3
 10
896.77683664782717
 20
750.85459096853106
 11
896.77683664782717
 21
735.52066696853126
  0
LINE
  8
_0-1_Layer1
  6
CONTINUOUS
 62
    3
 10
896.77683664782717
 20
762.31877996853109
 11
896.77683664782717
 21
1473.9702759685313
  0
ARC
  8
_0-1_Layer1
  6
CONTINUOUS
 62
    3
 10
895.77683664782717
 20
735.50733196853105
 40
0.999999999999943
 50
180
 51
0
  0
LINE
  8
_0-1_Layer1
  6
CONTINUOUS
 62
    3
 10
713.56176964782719
 20
1284.1454599685312
 11
719.23164264782736
 21
1303.9659679685312
  0
LINE
  8
_0-1_Layer1
  6
CONTINUOUS
 62
    3
 10
719.23164264782736
 20
1303.9659679685312
 11
566.25118564782724
 21
1038.9960429685311
  0
LINE
  8
_0-1_Layer1
  6
CONTINUOUS
 62
    3
 10
566.25118564782724
 20
1038.9960429685311
 11
489.00709064782717
 21
1038.9960429685311
  0
TEXT
  8
_0-1_Layer1
 62
    7
 10
480.42438564782714
 20
1043.9960429685311
 40
30
 41
0.8582679999999999
 50
0
  1
差し筋
  0
LINE
  8
_0-1_Layer1
  6
CONTINUOUS
 62
    3
 10
719.16183664782716
 20
1396.6002229685314
 11
795.68983664782706
 21
1529.1506079685312
  0
LINE
  8
_0-1_Layer1
  6
CONTINUOUS
 62
    3
 10
2577.9355436478272
 20
1502.2491879685313
 11
2502.9355436478272
 21
1502.2491879685313
  0
LINE
  8
_0-1_Layer1
  6
CONTINUOUS
 62
    3
 10
2502.9355436478272
 20
1502.2491879685313
 11
2502.9355436478272
 21
1500.2491879685313
  0
LINE
  8
_0-1_Layer1
  6
CONTINUOUS
 62
    3
 10
2502.9355436478272
 20
1500.2491879685313
 11
2577.9355436478272
 21
1500.2491879685313
  0
TEXT
  8
_0-1_Layer1
 62
    7
 10
1254.0579956478273
 20
1100.8200209685313
 40
30
 41
0.8582679999999999
 50
0
  1
受枠Ｌ５０×５０×６（別途）
  0
TEXT
  8
_0-1_Layer1
 62
    7
 10
2719.7642856478274
 20
763.53925996853104
 40
30
 41
0.8582679999999999
 50
0
  1
屋外用把手φ９５
  0
TEXT
  8
_0-1_Layer1
 62
    7
 10
2674.2618156478275
 20
1140.4231399685311
 40
30
 41
0.8582679999999999
 50
0
  1
解錠ワイヤーφ２．５ＳＵＳ
  0
ENDSEC
  0
EOF
