  0
SECTION
  2
HEADER
  9
$ACADVER
  1
AC1015
  9
$ACADMAINTVER
 70
     6
  9
$DWGCODEPAGE
  3
ANSI_932
  9
$INSBASE
 10
0.0
 20
0.0
 30
0.0
  9
$EXTMIN
 10
0.0
 20
0.0
 30
0.0
  9
$EXTMAX
 10
4200.0
 20
2970.0
 30
0.0
  9
$LIMMIN
 10
0.0
 20
0.0
  9
$LIMMAX
 10
12.0
 20
9.0
  9
$ORTHOMODE
 70
     0
  9
$REGENMODE
 70
     1
  9
$FILLMODE
 70
     1
  9
$QTEXTMODE
 70
     0
  9
$MIRRTEXT
 70
     1
  9
$LTSCALE
 40
10.0
  9
$ATTMODE
 70
     1
  9
$TEXTSIZE
 40
0.2
  9
$TRACEWID
 40
0.05
  9
$TEXTSTYLE
  7
Standard
  9
$CLAYER
  8
0
  9
$CELTYPE
  6
ByLayer
  9
$CECOLOR
 62
   256
  9
$CELTSCALE
 40
1.0
  9
$DISPSILH
 70
     0
  9
$DIMSCALE
 40
1.0
  9
$DIMASZ
 40
0.18
  9
$DIMEXO
 40
0.0625
  9
$DIMDLI
 40
0.38
  9
$DIMRND
 40
0.0
  9
$DIMDLE
 40
0.0
  9
$DIMEXE
 40
0.18
  9
$DIMTP
 40
0.0
  9
$DIMTM
 40
0.0
  9
$DIMTXT
 40
0.18
  9
$DIMCEN
 40
0.09
  9
$DIMTSZ
 40
0.0
  9
$DIMTOL
 70
     0
  9
$DIMLIM
 70
     0
  9
$DIMTIH
 70
     1
  9
$DIMTOH
 70
     1
  9
$DIMSE1
 70
     0
  9
$DIMSE2
 70
     0
  9
$DIMTAD
 70
     0
  9
$DIMZIN
 70
     0
  9
$DIMBLK
  1

  9
$DIMASO
 70
     1
  9
$DIMSHO
 70
     1
  9
$DIMPOST
  1

  9
$DIMAPOST
  1

  9
$DIMALT
 70
     0
  9
$DIMALTD
 70
     2
  9
$DIMALTF
 40
25.4
  9
$DIMLFAC
 40
1.0
  9
$DIMTOFL
 70
     0
  9
$DIMTVP
 40
0.0
  9
$DIMTIX
 70
     0
  9
$DIMSOXD
 70
     0
  9
$DIMSAH
 70
     0
  9
$DIMBLK1
  1

  9
$DIMBLK2
  1

  9
$DIMSTYLE
  2
Standard
  9
$DIMCLRD
 70
     0
  9
$DIMCLRE
 70
     0
  9
$DIMCLRT
 70
     0
  9
$DIMTFAC
 40
1.0
  9
$DIMGAP
 40
0.09
  9
$DIMJUST
 70
     0
  9
$DIMSD1
 70
     0
  9
$DIMSD2
 70
     0
  9
$DIMTOLJ
 70
     1
  9
$DIMTZIN
 70
     0
  9
$DIMALTZ
 70
     0
  9
$DIMALTTZ
 70
     0
  9
$DIMUPT
 70
     0
  9
$DIMDEC
 70
     4
  9
$DIMTDEC
 70
     4
  9
$DIMALTU
 70
     2
  9
$DIMALTTD
 70
     2
  9
$DIMTXSTY
  7
Standard
  9
$DIMAUNIT
 70
     0
  9
$DIMADEC
 70
     0
  9
$DIMALTRND
 40
0.0
  9
$DIMAZIN
 70
     0
  9
$DIMDSEP
 70
    46
  9
$DIMATFIT
 70
     3
  9
$DIMFRAC
 70
     0
  9
$DIMLDRBLK
  1

  9
$DIMLUNIT
 70
     2
  9
$DIMLWD
 70
    -2
  9
$DIMLWE
 70
    -2
  9
$DIMTMOVE
 70
     0
  9
$LUNITS
 70
     2
  9
$LUPREC
 70
     4
  9
$SKETCHINC
 40
0.1
  9
$FILLETRAD
 40
0.5
  9
$AUNITS
 70
     0
  9
$AUPREC
 70
     0
  9
$MENU
  1
.
  9
$ELEVATION
 40
0.0
  9
$PELEVATION
 40
0.0
  9
$THICKNESS
 40
0.0
  9
$LIMCHECK
 70
     0
  9
$CHAMFERA
 40
0.5
  9
$CHAMFERB
 40
0.5
  9
$CHAMFERC
 40
1.0
  9
$CHAMFERD
 40
0.0
  9
$SKPOLY
 70
     0
  9
$TDCREATE
 40
2456819.74527228
  9
$TDUCREATE
 40
2456819.37027228
  9
$TDUPDATE
 40
2456819.745272292
  9
$TDUUPDATE
 40
2456819.370272292
  9
$TDINDWG
 40
0.0000000116
  9
$TDUSRTIMER
 40
0.0000000116
  9
$USRTIMER
 70
     1
  9
$ANGBASE
 50
0.0
  9
$ANGDIR
 70
     0
  9
$PDMODE
 70
     0
  9
$PDSIZE
 40
0.0
  9
$PLINEWID
 40
0.0
  9
$SPLFRAME
 70
     0
  9
$SPLINETYPE
 70
     6
  9
$SPLINESEGS
 70
     8
  9
$HANDSEED
  5
655
  9
$SURFTAB1
 70
     6
  9
$SURFTAB2
 70
     6
  9
$SURFTYPE
 70
     6
  9
$SURFU
 70
     6
  9
$SURFV
 70
     6
  9
$UCSBASE
  2

  9
$UCSNAME
  2

  9
$UCSORG
 10
0.0
 20
0.0
 30
0.0
  9
$UCSXDIR
 10
1.0
 20
0.0
 30
0.0
  9
$UCSYDIR
 10
0.0
 20
1.0
 30
0.0
  9
$UCSORTHOREF
  2

  9
$UCSORTHOVIEW
 70
     0
  9
$UCSORGTOP
 10
0.0
 20
0.0
 30
0.0
  9
$UCSORGBOTTOM
 10
0.0
 20
0.0
 30
0.0
  9
$UCSORGLEFT
 10
0.0
 20
0.0
 30
0.0
  9
$UCSORGRIGHT
 10
0.0
 20
0.0
 30
0.0
  9
$UCSORGFRONT
 10
0.0
 20
0.0
 30
0.0
  9
$UCSORGBACK
 10
0.0
 20
0.0
 30
0.0
  9
$PUCSBASE
  2

  9
$PUCSNAME
  2

  9
$PUCSORG
 10
0.0
 20
0.0
 30
0.0
  9
$PUCSXDIR
 10
1.0
 20
0.0
 30
0.0
  9
$PUCSYDIR
 10
0.0
 20
1.0
 30
0.0
  9
$PUCSORTHOREF
  2

  9
$PUCSORTHOVIEW
 70
     0
  9
$PUCSORGTOP
 10
0.0
 20
0.0
 30
0.0
  9
$PUCSORGBOTTOM
 10
0.0
 20
0.0
 30
0.0
  9
$PUCSORGLEFT
 10
0.0
 20
0.0
 30
0.0
  9
$PUCSORGRIGHT
 10
0.0
 20
0.0
 30
0.0
  9
$PUCSORGFRONT
 10
0.0
 20
0.0
 30
0.0
  9
$PUCSORGBACK
 10
0.0
 20
0.0
 30
0.0
  9
$USERI1
 70
     0
  9
$USERI2
 70
     0
  9
$USERI3
 70
     0
  9
$USERI4
 70
     0
  9
$USERI5
 70
     0
  9
$USERR1
 40
0.0
  9
$USERR2
 40
0.0
  9
$USERR3
 40
0.0
  9
$USERR4
 40
0.0
  9
$USERR5
 40
0.0
  9
$WORLDVIEW
 70
     1
  9
$SHADEDGE
 70
     3
  9
$SHADEDIF
 70
    70
  9
$TILEMODE
 70
     1
  9
$MAXACTVP
 70
    64
  9
$PINSBASE
 10
0.0
 20
0.0
 30
0.0
  9
$PLIMCHECK
 70
     0
  9
$PEXTMIN
 10
1.000000E+20
 20
1.000000E+20
 30
1.000000E+20
  9
$PEXTMAX
 10
-1.000000E+20
 20
-1.000000E+20
 30
-1.000000E+20
  9
$PLIMMIN
 10
0.0
 20
0.0
  9
$PLIMMAX
 10
12.0
 20
9.0
  9
$UNITMODE
 70
     0
  9
$VISRETAIN
 70
     1
  9
$PLINEGEN
 70
     0
  9
$PSLTSCALE
 70
     1
  9
$TREEDEPTH
 70
  3020
  9
$CMLSTYLE
  2
Standard
  9
$CMLJUST
 70
     0
  9
$CMLSCALE
 40
1.0
  9
$PROXYGRAPHICS
 70
     1
  9
$MEASUREMENT
 70
     0
  9
$CELWEIGHT
370
    -1
  9
$ENDCAPS
280
     0
  9
$JOINSTYLE
280
     0
  9
$LWDISPLAY
290
     0
  9
$INSUNITS
 70
     1
  9
$HYPERLINKBASE
  1

  9
$STYLESHEET
  1

  9
$XEDIT
290
     1
  9
$CEPSNTYPE
380
     0
  9
$PSTYLEMODE
290
     1
  9
$FINGERPRINTGUID
  2
{3C6FE657-9EBB-4141-8A67-49E521001F70}
  9
$VERSIONGUID
  2
{FAEB1C32-E019-11D5-929B-00C0DF256EC4}
  9
$EXTNAMES
290
     1
  9
$PSVPSCALE
 40
0.0
  9
$OLESTARTUP
290
     0
  0
ENDSEC
  0
SECTION
  2
CLASSES
  0
CLASS
  1
ACDBDICTIONARYWDFLT
  2
AcDbDictionaryWithDefault
  3
ObjectDBX Classes
 90
        0
280
     0
281
     0
  0
CLASS
  1
VISUALSTYLE
  2
AcDbVisualStyle
  3
ObjectDBX Classes
 90
     4095
280
     0
281
     0
  0
CLASS
  1
SCALE
  2
AcDbScale
  3
ObjectDBX Classes
 90
     1153
280
     0
281
     0
  0
CLASS
  1
DICTIONARYVAR
  2
AcDbDictionaryVar
  3
ObjectDBX Classes
 90
        0
280
     0
281
     0
  0
CLASS
  1
ACDBPLACEHOLDER
  2
AcDbPlaceHolder
  3
ObjectDBX Classes
 90
        0
280
     0
281
     0
  0
CLASS
  1
LAYOUT
  2
AcDbLayout
  3
ObjectDBX Classes
 90
        0
280
     0
281
     0
  0
ENDSEC
  0
SECTION
  2
TABLES
  0
TABLE
  2
VPORT
  5
8
330
0
100
AcDbSymbolTable
 70
     1
  0
VPORT
  5
29
330
8
100
AcDbSymbolTableRecord
100
AcDbViewportTableRecord
  2
*Active
 70
     0
 10
0.0
 20
0.0
 11
1.0
 21
1.0
 12
10.429907
 22
4.5
 13
0.0
 23
0.0
 14
0.5
 24
0.5
 15
0.5
 25
0.5
 16
0.0
 26
0.0
 36
1.0
 17
0.0
 27
0.0
 37
0.0
 40
9.0
 41
1.972973
 42
50.0
 43
0.0
 44
0.0
 50
0.0
 51
0.0
 71
     0
 72
   100
 73
     1
 74
     3
 75
     0
 76
     0
 77
     0
 78
     0
281
     0
 65
     1
110
0.0
120
0.0
130
0.0
111
1.0
121
0.0
131
0.0
112
0.0
122
1.0
132
0.0
 79
     0
146
0.0
  0
ENDTAB
  0
TABLE
  2
LTYPE
  5
5
330
0
100
AcDbSymbolTable
 70
    16
  0
LTYPE
  5
14
330
5
100
AcDbSymbolTableRecord
100
AcDbLinetypeTableRecord
  2
ByBlock
 70
     0
  3

 72
    65
 73
     0
 40
0.0
  0
LTYPE
  5
15
330
5
100
AcDbSymbolTableRecord
100
AcDbLinetypeTableRecord
  2
ByLayer
 70
     0
  3

 72
    65
 73
     0
 40
0.0
  0
LTYPE
  5
16
330
5
100
AcDbSymbolTableRecord
100
AcDbLinetypeTableRecord
  2
Continuous
 70
     0
  3
Solid line
 72
    65
 73
     0
 40
0.0
  0
LTYPE
  5
3B
330
5
100
AcDbSymbolTableRecord
100
AcDbLinetypeTableRecord
  2
PLine1
 70
     0
  3
破線
 72
    65
 73
     2
 40
30.0
 49
21.0
 74
     0
 49
-9.0
 74
     0
  0
LTYPE
  5
3C
330
5
100
AcDbSymbolTableRecord
100
AcDbLinetypeTableRecord
  2
PLine2
 70
     0
  3
一点鎖線
 72
    65
 73
     4
 40
100.0
 49
70.0
 74
     0
 49
-10.0
 74
     0
 49
10.0
 74
     0
 49
-10.0
 74
     0
  0
LTYPE
  5
3D
330
5
100
AcDbSymbolTableRecord
100
AcDbLinetypeTableRecord
  2
PLine3
 70
     0
  3
二点鎖線
 72
    65
 73
     6
 40
100.0
 49
50.0
 74
     0
 49
-10.0
 74
     0
 49
10.0
 74
     0
 49
-10.0
 74
     0
 49
10.0
 74
     0
 49
-10.0
 74
     0
  0
LTYPE
  5
3E
330
5
100
AcDbSymbolTableRecord
100
AcDbLinetypeTableRecord
  2
PLine4
 70
     0
  3
破線1
 72
    65
 73
     2
 40
50.0
 49
35.0
 74
     0
 49
-15.0
 74
     0
  0
LTYPE
  5
3F
330
5
100
AcDbSymbolTableRecord
100
AcDbLinetypeTableRecord
  2
PLine5
 70
     0
  3
一点鎖線1
 72
    65
 73
     4
 40
150.0
 49
105.0
 74
     0
 49
-15.0
 74
     0
 49
15.0
 74
     0
 49
-15.0
 74
     0
  0
LTYPE
  5
40
330
5
100
AcDbSymbolTableRecord
100
AcDbLinetypeTableRecord
  2
PLine6
 70
     0
  3
二点鎖線1
 72
    65
 73
     6
 40
150.0
 49
75.0
 74
     0
 49
-15.0
 74
     0
 49
15.0
 74
     0
 49
-15.0
 74
     0
 49
15.0
 74
     0
 49
-15.0
 74
     0
  0
LTYPE
  5
41
330
5
100
AcDbSymbolTableRecord
100
AcDbLinetypeTableRecord
  2
PLine7
 70
     0
  3
破線2
 72
    65
 73
     2
 40
70.0
 49
49.0
 74
     0
 49
-21.0
 74
     0
  0
LTYPE
  5
42
330
5
100
AcDbSymbolTableRecord
100
AcDbLinetypeTableRecord
  2
PLine8
 70
     0
  3
一点鎖線2
 72
    65
 73
     4
 40
200.0
 49
140.0
 74
     0
 49
-20.0
 74
     0
 49
20.0
 74
     0
 49
-20.0
 74
     0
  0
LTYPE
  5
43
330
5
100
AcDbSymbolTableRecord
100
AcDbLinetypeTableRecord
  2
PLine9
 70
     0
  3
二点鎖線2
 72
    65
 73
     6
 40
200.0
 49
100.0
 74
     0
 49
-20.0
 74
     0
 49
20.0
 74
     0
 49
-20.0
 74
     0
 49
20.0
 74
     0
 49
-20.0
 74
     0
  0
LTYPE
  5
44
330
5
100
AcDbSymbolTableRecord
100
AcDbLinetypeTableRecord
  2
PLine10
 70
     0
  3
破線3
 72
    65
 73
     2
 40
90.0
 49
63.0
 74
     0
 49
-27.0
 74
     0
  0
LTYPE
  5
45
330
5
100
AcDbSymbolTableRecord
100
AcDbLinetypeTableRecord
  2
PLine11
 70
     0
  3
一点鎖線3
 72
    65
 73
     4
 40
250.0
 49
175.0
 74
     0
 49
-25.0
 74
     0
 49
25.0
 74
     0
 49
-25.0
 74
     0
  0
LTYPE
  5
46
330
5
100
AcDbSymbolTableRecord
100
AcDbLinetypeTableRecord
  2
PLine12
 70
     0
  3
二点鎖線3
 72
    65
 73
     6
 40
250.0
 49
125.0
 74
     0
 49
-25.0
 74
     0
 49
25.0
 74
     0
 49
-25.0
 74
     0
 49
25.0
 74
     0
 49
-25.0
 74
     0
  0
LTYPE
  5
47
330
5
100
AcDbSymbolTableRecord
100
AcDbLinetypeTableRecord
  2
PLine13
 70
     0
  3
破線4
 72
    65
 73
     2
 40
110.0
 49
77.0
 74
     0
 49
-33.0
 74
     0
  0
LTYPE
  5
48
330
5
100
AcDbSymbolTableRecord
100
AcDbLinetypeTableRecord
  2
PLine14
 70
     0
  3
一点鎖線4
 72
    65
 73
     4
 40
300.0
 49
210.0
 74
     0
 49
-30.0
 74
     0
 49
30.0
 74
     0
 49
-30.0
 74
     0
  0
LTYPE
  5
49
330
5
100
AcDbSymbolTableRecord
100
AcDbLinetypeTableRecord
  2
PLine15
 70
     0
  3
二点鎖線4
 72
    65
 73
     6
 40
300.0
 49
150.0
 74
     0
 49
-30.0
 74
     0
 49
30.0
 74
     0
 49
-30.0
 74
     0
 49
30.0
 74
     0
 49
-30.0
 74
     0
  0
ENDTAB
  0
TABLE
  2
LAYER
  5
2
330
0
100
AcDbSymbolTable
 70
     2
  0
LAYER
  5
10
330
2
100
AcDbSymbolTableRecord
100
AcDbLayerTableRecord
  2
0
 70
     0
 62
     7
  6
Continuous
370
    -3
390
F
  0
LAYER
  5
4E
330
2
100
AcDbSymbolTableRecord
100
AcDbLayerTableRecord
  2
dxfile
 70
     0
 62
     7
  6
Continuous
370
    -3
390
F
  0
ENDTAB
  0
TABLE
  2
STYLE
  5
3
330
0
100
AcDbSymbolTable
 70
     5
  0
STYLE
  5
11
330
3
100
AcDbSymbolTableRecord
100
AcDbTextStyleTableRecord
  2
Standard
 70
     0
 40
0.0
 41
1.0
 50
0.0
 71
     0
 42
0.2
  3
txt
  4
bigfont
  0
STYLE
  5
4A
330
3
100
AcDbSymbolTableRecord
100
AcDbTextStyleTableRecord
  2
BIGFONT
 70
     0
 40
0.2
 41
1.0
 50
0.0
 71
     0
 42
3.5
  3
monotxt
  4
bigfont
  0
STYLE
  5
4B
330
3
100
AcDbSymbolTableRecord
100
AcDbTextStyleTableRecord
  2
BIG VER
 70
     4
 40
0.2
 41
1.0
 50
0.0
 71
     0
 42
3.5
  3
monotxt
  4
bigfont
  0
STYLE
  5
4C
330
3
100
AcDbSymbolTableRecord
100
AcDbTextStyleTableRecord
  2
EXTFONT
 70
     0
 40
0.2
 41
1.0
 50
0.0
 71
     0
 42
3.5
  3
monotxt
  4
extfont
  0
STYLE
  5
4D
330
3
100
AcDbSymbolTableRecord
100
AcDbTextStyleTableRecord
  2
EXT VER
 70
     4
 40
0.2
 41
1.0
 50
0.0
 71
     0
 42
3.5
  3
monotxt
  4
extfont
  0
ENDTAB
  0
TABLE
  2
VIEW
  5
6
330
0
100
AcDbSymbolTable
 70
     0
  0
ENDTAB
  0
TABLE
  2
UCS
  5
7
330
0
100
AcDbSymbolTable
 70
     0
  0
ENDTAB
  0
TABLE
  2
APPID
  5
9
330
0
100
AcDbSymbolTable
 70
     1
  0
APPID
  5
12
330
9
100
AcDbSymbolTableRecord
100
AcDbRegAppTableRecord
  2
ACAD
 70
     0
  0
ENDTAB
  0
TABLE
  2
DIMSTYLE
  5
A
330
0
100
AcDbSymbolTable
 70
     1
100
AcDbDimStyleTable
  0
DIMSTYLE
105
27
330
A
100
AcDbSymbolTableRecord
100
AcDbDimStyleTableRecord
  2
Standard
 70
     0
340
11
  0
ENDTAB
  0
TABLE
  2
BLOCK_RECORD
  5
1
330
0
100
AcDbSymbolTable
 70
    29
  0
BLOCK_RECORD
  5
1F
330
1
100
AcDbSymbolTableRecord
100
AcDbBlockTableRecord
  2
*Model_Space
340
22
  0
BLOCK_RECORD
  5
1B
330
1
100
AcDbSymbolTableRecord
100
AcDbBlockTableRecord
  2
*Paper_Space
340
1E
  0
BLOCK_RECORD
  5
23
330
1
100
AcDbSymbolTableRecord
100
AcDbBlockTableRecord
  2
*Paper_Space0
340
26
  0
BLOCK_RECORD
  5
EB
330
1
100
AcDbSymbolTableRecord
100
AcDbBlockTableRecord
  2
DIM_0
340
0
102
{BLKREFS
331
F4
102
}
  0
BLOCK_RECORD
  5
140
330
1
100
AcDbSymbolTableRecord
100
AcDbBlockTableRecord
  2
DIM_1
340
0
102
{BLKREFS
331
149
102
}
  0
BLOCK_RECORD
  5
1E4
330
1
100
AcDbSymbolTableRecord
100
AcDbBlockTableRecord
  2
DIM_2
340
0
102
{BLKREFS
331
1ED
102
}
  0
BLOCK_RECORD
  5
2D9
330
1
100
AcDbSymbolTableRecord
100
AcDbBlockTableRecord
  2
DIM_3
340
0
102
{BLKREFS
331
2E2
102
}
  0
BLOCK_RECORD
  5
2E3
330
1
100
AcDbSymbolTableRecord
100
AcDbBlockTableRecord
  2
DIM_4
340
0
102
{BLKREFS
331
2EC
102
}
  0
BLOCK_RECORD
  5
304
330
1
100
AcDbSymbolTableRecord
100
AcDbBlockTableRecord
  2
DIM_5
340
0
102
{BLKREFS
331
30D
102
}
  0
BLOCK_RECORD
  5
3D8
330
1
100
AcDbSymbolTableRecord
100
AcDbBlockTableRecord
  2
DIM_6
340
0
102
{BLKREFS
331
3E1
102
}
  0
BLOCK_RECORD
  5
3E2
330
1
100
AcDbSymbolTableRecord
100
AcDbBlockTableRecord
  2
DIM_7
340
0
102
{BLKREFS
331
3EB
102
}
  0
BLOCK_RECORD
  5
3EC
330
1
100
AcDbSymbolTableRecord
100
AcDbBlockTableRecord
  2
DIM_8
340
0
102
{BLKREFS
331
3F5
102
}
  0
BLOCK_RECORD
  5
3FB
330
1
100
AcDbSymbolTableRecord
100
AcDbBlockTableRecord
  2
DIM_9
340
0
102
{BLKREFS
331
404
102
}
  0
BLOCK_RECORD
  5
405
330
1
100
AcDbSymbolTableRecord
100
AcDbBlockTableRecord
  2
DIM_10
340
0
102
{BLKREFS
331
40E
102
}
  0
BLOCK_RECORD
  5
413
330
1
100
AcDbSymbolTableRecord
100
AcDbBlockTableRecord
  2
DIM_11
340
0
102
{BLKREFS
331
41C
102
}
  0
BLOCK_RECORD
  5
458
330
1
100
AcDbSymbolTableRecord
100
AcDbBlockTableRecord
  2
DIM_12
340
0
102
{BLKREFS
331
461
102
}
  0
BLOCK_RECORD
  5
472
330
1
100
AcDbSymbolTableRecord
100
AcDbBlockTableRecord
  2
DIM_13
340
0
102
{BLKREFS
331
47B
102
}
  0
BLOCK_RECORD
  5
47C
330
1
100
AcDbSymbolTableRecord
100
AcDbBlockTableRecord
  2
DIM_14
340
0
102
{BLKREFS
331
485
102
}
  0
BLOCK_RECORD
  5
4A1
330
1
100
AcDbSymbolTableRecord
100
AcDbBlockTableRecord
  2
DIM_15
340
0
102
{BLKREFS
331
4AA
102
}
  0
BLOCK_RECORD
  5
4AD
330
1
100
AcDbSymbolTableRecord
100
AcDbBlockTableRecord
  2
DIM_16
340
0
102
{BLKREFS
331
4B6
102
}
  0
BLOCK_RECORD
  5
4B7
330
1
100
AcDbSymbolTableRecord
100
AcDbBlockTableRecord
  2
DIM_17
340
0
102
{BLKREFS
331
4C0
102
}
  0
BLOCK_RECORD
  5
4C1
330
1
100
AcDbSymbolTableRecord
100
AcDbBlockTableRecord
  2
DIM_18
340
0
102
{BLKREFS
331
4CA
102
}
  0
BLOCK_RECORD
  5
4F1
330
1
100
AcDbSymbolTableRecord
100
AcDbBlockTableRecord
  2
DIM_19
340
0
102
{BLKREFS
331
4FA
102
}
  0
BLOCK_RECORD
  5
4FD
330
1
100
AcDbSymbolTableRecord
100
AcDbBlockTableRecord
  2
DIM_20
340
0
102
{BLKREFS
331
506
102
}
  0
BLOCK_RECORD
  5
507
330
1
100
AcDbSymbolTableRecord
100
AcDbBlockTableRecord
  2
DIM_21
340
0
102
{BLKREFS
331
510
102
}
  0
BLOCK_RECORD
  5
511
330
1
100
AcDbSymbolTableRecord
100
AcDbBlockTableRecord
  2
DIM_22
340
0
102
{BLKREFS
331
51A
102
}
  0
BLOCK_RECORD
  5
532
330
1
100
AcDbSymbolTableRecord
100
AcDbBlockTableRecord
  2
DIM_23
340
0
102
{BLKREFS
331
53B
102
}
  0
BLOCK_RECORD
  5
53C
330
1
100
AcDbSymbolTableRecord
100
AcDbBlockTableRecord
  2
DIM_24
340
0
102
{BLKREFS
331
545
102
}
  0
BLOCK_RECORD
  5
566
330
1
100
AcDbSymbolTableRecord
100
AcDbBlockTableRecord
  2
DIM_25
340
0
102
{BLKREFS
331
56F
102
}
  0
BLOCK_RECORD
  5
574
330
1
100
AcDbSymbolTableRecord
100
AcDbBlockTableRecord
  2
DIM_26
340
0
102
{BLKREFS
331
57D
102
}
  0
BLOCK_RECORD
  5
57E
330
1
100
AcDbSymbolTableRecord
100
AcDbBlockTableRecord
  2
DIM_27
340
0
102
{BLKREFS
331
587
102
}
  0
ENDTAB
  0
ENDSEC
  0
SECTION
  2
BLOCKS
  0
BLOCK
  5
20
330
1F
100
AcDbEntity
  8
0
100
AcDbBlockBegin
  2
*Model_Space
 70
     0
 10
0.0
 20
0.0
 30
0.0
  3
*Model_Space
  1

  0
ENDBLK
  5
21
330
1F
100
AcDbEntity
  8
0
100
AcDbBlockEnd
  0
BLOCK
  5
1C
330
1B
100
AcDbEntity
 67
     1
  8
0
100
AcDbBlockBegin
  2
*Paper_Space
 70
     0
 10
0.0
 20
0.0
 30
0.0
  3
*Paper_Space
  1

  0
ENDBLK
  5
1D
330
1B
100
AcDbEntity
 67
     1
  8
0
100
AcDbBlockEnd
  0
BLOCK
  5
24
330
23
100
AcDbEntity
  8
0
100
AcDbBlockBegin
  2
*Paper_Space0
 70
     0
 10
0.0
 20
0.0
 30
0.0
  3
*Paper_Space0
  1

  0
ENDBLK
  5
25
330
23
100
AcDbEntity
  8
0
100
AcDbBlockEnd
  0
BLOCK
  5
EC
330
EB
100
AcDbEntity
  8
0
100
AcDbBlockBegin
  2
DIM_0
 70
     0
 10
375.08681
 20
727.744789
 30
0.0
  3
DIM_0
  1

  0
CIRCLE
  5
EE
330
EB
100
AcDbEntity
  8
dxfile
  6
Continuous
 62
     3
100
AcDbCircle
 10
375.08681
 20
735.656419
 30
0.0
 40
4.0
  0
CIRCLE
  5
EF
330
EB
100
AcDbEntity
  8
dxfile
  6
Continuous
 62
     3
100
AcDbCircle
 10
400.08681
 20
735.656419
 30
0.0
 40
4.0
  0
LINE
  5
F0
330
EB
100
AcDbEntity
  8
dxfile
  6
Continuous
 62
     3
100
AcDbLine
 10
375.08681
 20
735.656419
 30
0.0
 11
400.08681
 21
735.656419
 31
0.0
  0
LINE
  5
F1
330
EB
100
AcDbEntity
  8
dxfile
  6
Continuous
 62
     3
100
AcDbLine
 10
375.08681
 20
727.744789
 30
0.0
 11
375.08681
 21
745.656419
 31
0.0
  0
LINE
  5
F2
330
EB
100
AcDbEntity
  8
dxfile
  6
Continuous
 62
     3
100
AcDbLine
 10
400.08681
 20
725.562003
 30
0.0
 11
400.08681
 21
745.656419
 31
0.0
  0
TEXT
  5
F3
330
EB
100
AcDbEntity
  8
dxfile
  6
Continuous
 62
     3
100
AcDbText
 10
408.567678
 20
722.317885
 30
0.0
 40
30.0
  1
２５
 41
0.858268
  7
BIGFONT
 72
     1
 11
428.798274
 21
737.317885
 31
0.0
100
AcDbText
 73
     2
  0
ENDBLK
  5
ED
330
EB
100
AcDbEntity
  8
0
100
AcDbBlockEnd
  0
BLOCK
  5
141
330
140
100
AcDbEntity
  8
0
100
AcDbBlockBegin
  2
DIM_1
 70
     0
 10
390.08681
 20
1011.845913
 30
0.0
  3
DIM_1
  1

  0
CIRCLE
  5
143
330
140
100
AcDbEntity
  8
dxfile
  6
Continuous
 62
     3
100
AcDbCircle
 10
390.08681
 20
1356.468478
 30
0.0
 40
5.0
  0
CIRCLE
  5
144
330
140
100
AcDbEntity
  8
dxfile
  6
Continuous
 62
     3
100
AcDbCircle
 10
1290.08681
 20
1356.468478
 30
0.0
 40
5.0
  0
LINE
  5
145
330
140
100
AcDbEntity
  8
dxfile
  6
Continuous
 62
     3
100
AcDbLine
 10
390.08681
 20
1356.468478
 30
0.0
 11
1290.08681
 21
1356.468478
 31
0.0
  0
LINE
  5
146
330
140
100
AcDbEntity
  8
dxfile
  6
Continuous
 62
     3
100
AcDbLine
 10
390.08681
 20
1011.845913
 30
0.0
 11
390.08681
 21
1366.468478
 31
0.0
  0
LINE
  5
147
330
140
100
AcDbEntity
  8
dxfile
  6
Continuous
 62
     3
100
AcDbLine
 10
1290.08681
 20
1007.29143
 30
0.0
 11
1290.08681
 21
1366.468478
 31
0.0
  0
TEXT
  5
148
330
140
100
AcDbEntity
  8
dxfile
  6
Continuous
 62
     3
100
AcDbText
 10
764.68186
 20
1361.468478
 30
0.0
 40
30.0
  1
Ａ　ドーム寸法
 41
0.858268
  7
BIGFONT
 72
     1
 11
840.08681
 21
1361.468478
 31
0.0
100
AcDbText
  0
ENDBLK
  5
142
330
140
100
AcDbEntity
  8
0
100
AcDbBlockEnd
  0
BLOCK
  5
1E5
330
1E4
100
AcDbEntity
  8
0
100
AcDbBlockBegin
  2
DIM_2
 70
     0
 10
355.08681
 20
1015.291477
 30
0.0
  3
DIM_2
  1

  0
CIRCLE
  5
1E7
330
1E4
100
AcDbEntity
  8
dxfile
  6
Continuous
 62
     3
100
AcDbCircle
 10
355.08681
 20
1064.423199
 30
0.0
 40
5.0
  0
CIRCLE
  5
1E8
330
1E4
100
AcDbEntity
  8
dxfile
  6
Continuous
 62
     3
100
AcDbCircle
 10
390.08681
 20
1064.423199
 30
0.0
 40
5.0
  0
LINE
  5
1E9
330
1E4
100
AcDbEntity
  8
dxfile
  6
Continuous
 62
     3
100
AcDbLine
 10
355.08681
 20
1064.423199
 30
0.0
 11
390.08681
 21
1064.423199
 31
0.0
  0
LINE
  5
1EA
330
1E4
100
AcDbEntity
  8
dxfile
  6
Continuous
 62
     3
100
AcDbLine
 10
355.08681
 20
1015.291477
 30
0.0
 11
355.08681
 21
1074.423199
 31
0.0
  0
LINE
  5
1EB
330
1E4
100
AcDbEntity
  8
dxfile
  6
Continuous
 62
     3
100
AcDbLine
 10
390.08681
 20
1121.976931
 30
0.0
 11
390.08681
 21
1054.423199
 31
0.0
  0
TEXT
  5
1EC
330
1E4
100
AcDbEntity
  8
dxfile
  6
Continuous
 62
     3
100
AcDbText
 10
336.369009
 20
1070.133742
 30
0.0
 40
30.0
  1
３５
 41
0.858268
 51
0.0
  7
BIGFONT
 72
     1
 11
356.599605
 21
1085.133742
 31
0.0
100
AcDbText
 73
     2
  0
ENDBLK
  5
1E6
330
1E4
100
AcDbEntity
  8
0
100
AcDbBlockEnd
  0
BLOCK
  5
2DA
330
2D9
100
AcDbEntity
  8
0
100
AcDbBlockBegin
  2
DIM_3
 70
     0
 10
375.08681
 20
626.005557
 30
0.0
  3
DIM_3
  1

  0
CIRCLE
  5
2DC
330
2D9
100
AcDbEntity
  8
dxfile
  6
Continuous
 62
     3
100
AcDbCircle
 10
375.08681
 20
505.013301
 30
0.0
 40
5.0
  0
CIRCLE
  5
2DD
330
2D9
100
AcDbEntity
  8
dxfile
  6
Continuous
 62
     3
100
AcDbCircle
 10
1305.08681
 20
505.013301
 30
0.0
 40
5.0
  0
LINE
  5
2DE
330
2D9
100
AcDbEntity
  8
dxfile
  6
Continuous
 62
     3
100
AcDbLine
 10
375.08681
 20
505.013301
 30
0.0
 11
1305.08681
 21
505.013301
 31
0.0
  0
LINE
  5
2DF
330
2D9
100
AcDbEntity
  8
dxfile
  6
Continuous
 62
     3
100
AcDbLine
 10
375.08681
 20
626.005557
 30
0.0
 11
375.08681
 21
495.013301
 31
0.0
  0
LINE
  5
2E0
330
2D9
100
AcDbEntity
  8
dxfile
  6
Continuous
 62
     3
100
AcDbLine
 10
1305.08681
 20
626.005557
 30
0.0
 11
1305.08681
 21
495.013301
 31
0.0
  0
TEXT
  5
2E1
330
2D9
100
AcDbEntity
  8
dxfile
  6
Continuous
 62
     3
100
AcDbText
 10
753.64699
 20
510.013301
 30
0.0
 40
30.0
  1
Ｊ　躯体開口寸法
 41
0.858268
  7
BIGFONT
 72
     1
 11
840.08681
 21
510.013301
 31
0.0
100
AcDbText
  0
ENDBLK
  5
2DB
330
2D9
100
AcDbEntity
  8
0
100
AcDbBlockEnd
  0
BLOCK
  5
2E4
330
2E3
100
AcDbEntity
  8
0
100
AcDbBlockBegin
  2
DIM_4
 70
     0
 10
275.08681
 20
869.44938
 30
0.0
  3
DIM_4
  1

  0
CIRCLE
  5
2E6
330
2E3
100
AcDbEntity
  8
dxfile
  6
Continuous
 62
     3
100
AcDbCircle
 10
275.08681
 20
410.128297
 30
0.0
 40
5.0
  0
CIRCLE
  5
2E7
330
2E3
100
AcDbEntity
  8
dxfile
  6
Continuous
 62
     3
100
AcDbCircle
 10
1405.08681
 20
410.128297
 30
0.0
 40
5.0
  0
LINE
  5
2E8
330
2E3
100
AcDbEntity
  8
dxfile
  6
Continuous
 62
     3
100
AcDbLine
 10
275.08681
 20
410.128297
 30
0.0
 11
1405.08681
 21
410.128297
 31
0.0
  0
LINE
  5
2E9
330
2E3
100
AcDbEntity
  8
dxfile
  6
Continuous
 62
     3
100
AcDbLine
 10
275.08681
 20
869.44938
 30
0.0
 11
275.08681
 21
400.128297
 31
0.0
  0
LINE
  5
2EA
330
2E3
100
AcDbEntity
  8
dxfile
  6
Continuous
 62
     3
100
AcDbLine
 10
1405.08681
 20
869.44938
 30
0.0
 11
1405.08681
 21
400.128297
 31
0.0
  0
TEXT
  5
2EB
330
2E3
100
AcDbEntity
  8
dxfile
  6
Continuous
 62
     3
100
AcDbText
 10
753.64699
 20
415.128297
 30
0.0
 40
30.0
  1
Ｗ　フレーム寸法
 41
0.858268
  7
BIGFONT
 72
     1
 11
840.08681
 21
415.128297
 31
0.0
100
AcDbText
  0
ENDBLK
  5
2E5
330
2E3
100
AcDbEntity
  8
0
100
AcDbBlockEnd
  0
BLOCK
  5
305
330
304
100
AcDbEntity
  8
0
100
AcDbBlockBegin
  2
DIM_5
 70
     0
 10
225.08681
 20
634.985189
 30
0.0
  3
DIM_5
  1

  0
CIRCLE
  5
307
330
304
100
AcDbEntity
  8
dxfile
  6
Continuous
 62
     3
100
AcDbCircle
 10
225.08681
 20
565.805651
 30
0.0
 40
5.0
  0
CIRCLE
  5
308
330
304
100
AcDbEntity
  8
dxfile
  6
Continuous
 62
     3
100
AcDbCircle
 10
375.08681
 20
565.805651
 30
0.0
 40
5.0
  0
LINE
  5
309
330
304
100
AcDbEntity
  8
dxfile
  6
Continuous
 62
     3
100
AcDbLine
 10
225.08681
 20
565.805651
 30
0.0
 11
375.08681
 21
565.805651
 31
0.0
  0
LINE
  5
30A
330
304
100
AcDbEntity
  8
dxfile
  6
Continuous
 62
     3
100
AcDbLine
 10
225.08681
 20
634.985189
 30
0.0
 11
225.08681
 21
555.805651
 31
0.0
  0
LINE
  5
30B
330
304
100
AcDbEntity
  8
dxfile
  6
Continuous
 62
     3
100
AcDbLine
 10
375.08681
 20
578.242422
 30
0.0
 11
375.08681
 21
555.805651
 31
0.0
  0
TEXT
  5
30C
330
304
100
AcDbEntity
  8
dxfile
  6
Continuous
 62
     3
100
AcDbText
 10
285.144604
 20
570.805651
 30
0.0
 40
30.0
  1
１５０
 41
0.858268
 51
0.0
  7
BIGFONT
 72
     1
 11
316.410071
 21
585.805651
 31
0.0
100
AcDbText
 73
     2
  0
ENDBLK
  5
306
330
304
100
AcDbEntity
  8
0
100
AcDbBlockEnd
  0
BLOCK
  5
3D9
330
3D8
100
AcDbEntity
  8
0
100
AcDbBlockBegin
  2
DIM_6
 70
     0
 10
3327.986027
 20
1125.962251
 30
0.0
  3
DIM_6
  1

  0
CIRCLE
  5
3DB
330
3D8
100
AcDbEntity
  8
dxfile
  6
Continuous
 62
     3
100
AcDbCircle
 10
3327.986027
 20
1094.870322
 30
0.0
 40
5.0
  0
CIRCLE
  5
3DC
330
3D8
100
AcDbEntity
  8
dxfile
  6
Continuous
 62
     3
100
AcDbCircle
 10
3527.986027
 20
1094.870322
 30
0.0
 40
5.0
  0
LINE
  5
3DD
330
3D8
100
AcDbEntity
  8
dxfile
  6
Continuous
 62
     3
100
AcDbLine
 10
3327.986027
 20
1094.870322
 30
0.0
 11
3527.986027
 21
1094.870322
 31
0.0
  0
LINE
  5
3DE
330
3D8
100
AcDbEntity
  8
dxfile
  6
Continuous
 62
     3
100
AcDbLine
 10
3327.986027
 20
1125.962251
 30
0.0
 11
3327.986027
 21
1084.870322
 31
0.0
  0
LINE
  5
3DF
330
3D8
100
AcDbEntity
  8
dxfile
  6
Continuous
 62
     3
100
AcDbLine
 10
3527.986027
 20
1127.905496
 30
0.0
 11
3527.986027
 21
1084.870322
 31
0.0
  0
TEXT
  5
3E0
330
3D8
100
AcDbEntity
  8
dxfile
  6
Continuous
 62
     3
100
AcDbText
 10
3407.755431
 20
1099.870322
 30
0.0
 40
30.0
  1
４０
 41
0.858268
 51
0.0
  7
BIGFONT
 72
     1
 11
3427.986027
 21
1099.870322
 31
0.0
100
AcDbText
  0
ENDBLK
  5
3DA
330
3D8
100
AcDbEntity
  8
0
100
AcDbBlockEnd
  0
BLOCK
  5
3E3
330
3E2
100
AcDbEntity
  8
0
100
AcDbBlockBegin
  2
DIM_7
 70
     0
 10
3427.986027
 20
2191.967323
 30
0.0
  3
DIM_7
  1

  0
CIRCLE
  5
3E5
330
3E2
100
AcDbEntity
  8
dxfile
  6
Continuous
 62
     3
100
AcDbCircle
 10
3427.986027
 20
2293.987696
 30
0.0
 40
5.0
  0
CIRCLE
  5
3E6
330
3E2
100
AcDbEntity
  8
dxfile
  6
Continuous
 62
     3
100
AcDbCircle
 10
3602.986027
 20
2293.987696
 30
0.0
 40
5.0
  0
LINE
  5
3E7
330
3E2
100
AcDbEntity
  8
dxfile
  6
Continuous
 62
     3
100
AcDbLine
 10
3427.986027
 20
2293.987696
 30
0.0
 11
3602.986027
 21
2293.987696
 31
0.0
  0
LINE
  5
3E8
330
3E2
100
AcDbEntity
  8
dxfile
  6
Continuous
 62
     3
100
AcDbLine
 10
3427.986027
 20
2191.967323
 30
0.0
 11
3427.986027
 21
2303.987696
 31
0.0
  0
LINE
  5
3E9
330
3E2
100
AcDbEntity
  8
dxfile
  6
Continuous
 62
     3
100
AcDbLine
 10
3602.986027
 20
2116.666572
 30
0.0
 11
3602.986027
 21
2303.987696
 31
0.0
  0
TEXT
  5
3EA
330
3E2
100
AcDbEntity
  8
dxfile
  6
Continuous
 62
     3
100
AcDbText
 10
3495.255431
 20
2298.987696
 30
0.0
 40
30.0
  1
３５
 41
0.858268
 51
0.0
  7
BIGFONT
 72
     1
 11
3515.486027
 21
2298.987696
 31
0.0
100
AcDbText
  0
ENDBLK
  5
3E4
330
3E2
100
AcDbEntity
  8
0
100
AcDbBlockEnd
  0
BLOCK
  5
3ED
330
3EC
100
AcDbEntity
  8
0
100
AcDbBlockBegin
  2
DIM_8
 70
     0
 10
3102.986027
 20
2116.666572
 30
0.0
  3
DIM_8
  1

  0
CIRCLE
  5
3EF
330
3EC
100
AcDbEntity
  8
dxfile
  6
Continuous
 62
     3
100
AcDbCircle
 10
3102.986027
 20
2430.01486
 30
0.0
 40
5.0
  0
CIRCLE
  5
3F0
330
3EC
100
AcDbEntity
  8
dxfile
  6
Continuous
 62
     3
100
AcDbCircle
 10
3602.986027
 20
2430.01486
 30
0.0
 40
5.0
  0
LINE
  5
3F1
330
3EC
100
AcDbEntity
  8
dxfile
  6
Continuous
 62
     3
100
AcDbLine
 10
3102.986027
 20
2430.01486
 30
0.0
 11
3602.986027
 21
2430.01486
 31
0.0
  0
LINE
  5
3F2
330
3EC
100
AcDbEntity
  8
dxfile
  6
Continuous
 62
     3
100
AcDbLine
 10
3102.986027
 20
2116.666572
 30
0.0
 11
3102.986027
 21
2440.01486
 31
0.0
  0
LINE
  5
3F3
330
3EC
100
AcDbEntity
  8
dxfile
  6
Continuous
 62
     3
100
AcDbLine
 10
3602.986027
 20
2279.413357
 30
0.0
 11
3602.986027
 21
2440.01486
 31
0.0
  0
TEXT
  5
3F4
330
3EC
100
AcDbEntity
  8
dxfile
  6
Continuous
 62
     3
100
AcDbText
 10
3364.310988
 20
2433.149343
 30
0.0
 40
30.0
  1
Ｄ
 41
0.858268
  7
BIGFONT
 72
     1
 11
3373.506713
 21
2448.149343
 31
0.0
100
AcDbText
 73
     2
  0
ENDBLK
  5
3EE
330
3EC
100
AcDbEntity
  8
0
100
AcDbBlockEnd
  0
BLOCK
  5
3FC
330
3FB
100
AcDbEntity
  8
0
100
AcDbBlockBegin
  2
DIM_9
 70
     0
 10
3084.32779
 20
2098.625927
 30
0.0
  3
DIM_9
  1

  0
CIRCLE
  5
3FE
330
3FB
100
AcDbEntity
  8
dxfile
  6
Continuous
 62
     3
100
AcDbCircle
 10
2919.267426
 20
2098.625927
 30
0.0
 40
5.0
  0
CIRCLE
  5
3FF
330
3FB
100
AcDbEntity
  8
dxfile
  6
Continuous
 62
     3
100
AcDbCircle
 10
2919.267426
 20
1898.625927
 30
0.0
 40
5.0
  0
LINE
  5
400
330
3FB
100
AcDbEntity
  8
dxfile
  6
Continuous
 62
     3
100
AcDbLine
 10
2919.267426
 20
2098.625927
 30
0.0
 11
2919.267426
 21
1898.625927
 31
0.0
  0
LINE
  5
401
330
3FB
100
AcDbEntity
  8
dxfile
  6
Continuous
 62
     3
100
AcDbLine
 10
3084.32779
 20
2098.625927
 30
0.0
 11
2909.267426
 21
2098.625927
 31
0.0
  0
LINE
  5
402
330
3FB
100
AcDbEntity
  8
dxfile
  6
Continuous
 62
     3
100
AcDbLine
 10
3006.901625
 20
1898.625927
 30
0.0
 11
2909.267426
 21
1898.625927
 31
0.0
  0
TEXT
  5
403
330
3FB
100
AcDbEntity
  8
dxfile
  6
Continuous
 62
     3
100
AcDbText
 10
2914.267426
 20
1978.39533
 30
0.0
 40
30.0
  1
４０
 50
90.0
 41
0.858268
 51
0.0
  7
BIGFONT
 72
     1
 11
2914.267426
 21
1998.625927
 31
0.0
100
AcDbText
  0
ENDBLK
  5
3FD
330
3FB
100
AcDbEntity
  8
0
100
AcDbBlockEnd
  0
BLOCK
  5
406
330
405
100
AcDbEntity
  8
0
100
AcDbBlockBegin
  2
DIM_10
 70
     0
 10
3527.986027
 20
1914.211865
 30
0.0
  3
DIM_10
  1

  0
CIRCLE
  5
408
330
405
100
AcDbEntity
  8
dxfile
  6
Continuous
 62
     3
100
AcDbCircle
 10
3527.986027
 20
1982.225418
 30
0.0
 40
5.0
  0
CIRCLE
  5
409
330
405
100
AcDbEntity
  8
dxfile
  6
Continuous
 62
     3
100
AcDbCircle
 10
3587.986027
 20
1982.225418
 30
0.0
 40
5.0
  0
LINE
  5
40A
330
405
100
AcDbEntity
  8
dxfile
  6
Continuous
 62
     3
100
AcDbLine
 10
3527.986027
 20
1982.225418
 30
0.0
 11
3587.986027
 21
1982.225418
 31
0.0
  0
LINE
  5
40B
330
405
100
AcDbEntity
  8
dxfile
  6
Continuous
 62
     3
100
AcDbLine
 10
3527.986027
 20
1914.211865
 30
0.0
 11
3527.986027
 21
1992.225418
 31
0.0
  0
LINE
  5
40C
330
405
100
AcDbEntity
  8
dxfile
  6
Continuous
 62
     3
100
AcDbLine
 10
3587.986027
 20
1891.135838
 30
0.0
 11
3587.986027
 21
1992.225418
 31
0.0
  0
TEXT
  5
40D
330
405
100
AcDbEntity
  8
dxfile
  6
Continuous
 62
     3
100
AcDbText
 10
3573.075867
 20
1994.190012
 30
0.0
 40
30.0
  1
１２
 41
0.858268
 51
0.0
  7
BIGFONT
 72
     1
 11
3593.306464
 21
2009.190012
 31
0.0
100
AcDbText
 73
     2
  0
ENDBLK
  5
407
330
405
100
AcDbEntity
  8
0
100
AcDbBlockEnd
  0
BLOCK
  5
414
330
413
100
AcDbEntity
  8
0
100
AcDbBlockBegin
  2
DIM_11
 70
     0
 10
2777.986027
 20
625.538691
 30
0.0
  3
DIM_11
  1

  0
CIRCLE
  5
416
330
413
100
AcDbEntity
  8
dxfile
  6
Continuous
 62
     3
100
AcDbCircle
 10
2777.986027
 20
617.947893
 30
0.0
 40
5.0
  0
CIRCLE
  5
417
330
413
100
AcDbEntity
  8
dxfile
  6
Continuous
 62
     3
100
AcDbCircle
 10
3527.986027
 20
617.947893
 30
0.0
 40
5.0
  0
LINE
  5
418
330
413
100
AcDbEntity
  8
dxfile
  6
Continuous
 62
     3
100
AcDbLine
 10
2777.986027
 20
617.947893
 30
0.0
 11
3527.986027
 21
617.947893
 31
0.0
  0
LINE
  5
419
330
413
100
AcDbEntity
  8
dxfile
  6
Continuous
 62
     3
100
AcDbLine
 10
2777.986027
 20
625.538691
 30
0.0
 11
2777.986027
 21
607.947893
 31
0.0
  0
LINE
  5
41A
330
413
100
AcDbEntity
  8
dxfile
  6
Continuous
 62
     3
100
AcDbLine
 10
3527.986027
 20
640.720287
 30
0.0
 11
3527.986027
 21
607.947893
 31
0.0
  0
TEXT
  5
41B
330
413
100
AcDbEntity
  8
dxfile
  6
Continuous
 62
     3
100
AcDbText
 10
3222.298633
 20
624.845592
 30
0.0
 40
30.0
  1
１５０
 41
0.858268
 51
0.0
  7
BIGFONT
 72
     1
 11
3253.564099
 21
639.845592
 31
0.0
100
AcDbText
 73
     2
  0
ENDBLK
  5
415
330
413
100
AcDbEntity
  8
0
100
AcDbBlockEnd
  0
BLOCK
  5
459
330
458
100
AcDbEntity
  8
0
100
AcDbBlockBegin
  2
DIM_12
 70
     0
 10
3527.986027
 20
1106.619272
 30
0.0
  3
DIM_12
  1

  0
CIRCLE
  5
45B
330
458
100
AcDbEntity
  8
dxfile
  6
Continuous
 62
     3
100
AcDbCircle
 10
3527.986027
 20
1094.870322
 30
0.0
 40
5.0
  0
CIRCLE
  5
45C
330
458
100
AcDbEntity
  8
dxfile
  6
Continuous
 62
     3
100
AcDbCircle
 10
3652.986027
 20
1094.870322
 30
0.0
 40
5.0
  0
LINE
  5
45D
330
458
100
AcDbEntity
  8
dxfile
  6
Continuous
 62
     3
100
AcDbLine
 10
3527.986027
 20
1094.870322
 30
0.0
 11
3652.986027
 21
1094.870322
 31
0.0
  0
LINE
  5
45E
330
458
100
AcDbEntity
  8
dxfile
  6
Continuous
 62
     3
100
AcDbLine
 10
3527.986027
 20
1106.619272
 30
0.0
 11
3527.986027
 21
1084.870322
 31
0.0
  0
LINE
  5
45F
330
458
100
AcDbEntity
  8
dxfile
  6
Continuous
 62
     3
100
AcDbLine
 10
3652.986027
 20
1107.590894
 30
0.0
 11
3652.986027
 21
1084.870322
 31
0.0
  0
TEXT
  5
460
330
458
100
AcDbEntity
  8
dxfile
  6
Continuous
 62
     3
100
AcDbText
 10
3570.255431
 20
1099.870322
 30
0.0
 40
30.0
  1
２５
 41
0.858268
 51
0.0
  7
BIGFONT
 72
     1
 11
3590.486027
 21
1099.870322
 31
0.0
100
AcDbText
  0
ENDBLK
  5
45A
330
458
100
AcDbEntity
  8
0
100
AcDbBlockEnd
  0
BLOCK
  5
473
330
472
100
AcDbEntity
  8
0
100
AcDbBlockBegin
  2
DIM_13
 70
     0
 10
785.355751
 20
1241.223595
 30
0.0
  3
DIM_13
  1

  0
CIRCLE
  5
475
330
472
100
AcDbEntity
  8
dxfile
  6
Continuous
 62
     3
100
AcDbCircle
 10
200.407705
 20
1241.223595
 30
0.0
 40
5.0
  0
CIRCLE
  5
476
330
472
100
AcDbEntity
  8
dxfile
  6
Continuous
 62
     3
100
AcDbCircle
 10
200.407705
 20
991.223595
 30
0.0
 40
5.0
  0
LINE
  5
477
330
472
100
AcDbEntity
  8
dxfile
  6
Continuous
 62
     3
100
AcDbLine
 10
200.407705
 20
1241.223595
 30
0.0
 11
200.407705
 21
991.223595
 31
0.0
  0
LINE
  5
478
330
472
100
AcDbEntity
  8
dxfile
  6
Continuous
 62
     3
100
AcDbLine
 10
785.355751
 20
1241.223595
 30
0.0
 11
190.407705
 21
1241.223595
 31
0.0
  0
LINE
  5
479
330
472
100
AcDbEntity
  8
dxfile
  6
Continuous
 62
     3
100
AcDbLine
 10
280.141628
 20
991.223595
 30
0.0
 11
190.407705
 21
991.223595
 31
0.0
  0
TEXT
  5
47A
330
472
100
AcDbEntity
  8
dxfile
  6
Continuous
 62
     3
100
AcDbText
 10
195.407705
 20
1107.02787
 30
0.0
 40
30.0
  1
Ｈ
 50
90.0
 41
0.858268
  7
BIGFONT
 72
     1
 11
195.407705
 21
1116.223595
 31
0.0
100
AcDbText
  0
ENDBLK
  5
474
330
472
100
AcDbEntity
  8
0
100
AcDbBlockEnd
  0
BLOCK
  5
47D
330
47C
100
AcDbEntity
  8
0
100
AcDbBlockBegin
  2
DIM_14
 70
     0
 10
335.08681
 20
809.257294
 30
0.0
  3
DIM_14
  1

  0
CIRCLE
  5
47F
330
47C
100
AcDbEntity
  8
dxfile
  6
Continuous
 62
     3
100
AcDbCircle
 10
335.08681
 20
735.656419
 30
0.0
 40
5.0
  0
CIRCLE
  5
480
330
47C
100
AcDbEntity
  8
dxfile
  6
Continuous
 62
     3
100
AcDbCircle
 10
375.08681
 20
735.656419
 30
0.0
 40
5.0
  0
LINE
  5
481
330
47C
100
AcDbEntity
  8
dxfile
  6
Continuous
 62
     3
100
AcDbLine
 10
335.08681
 20
735.656419
 30
0.0
 11
375.08681
 21
735.656419
 31
0.0
  0
LINE
  5
482
330
47C
100
AcDbEntity
  8
dxfile
  6
Continuous
 62
     3
100
AcDbLine
 10
335.08681
 20
809.257294
 30
0.0
 11
335.08681
 21
725.656419
 31
0.0
  0
LINE
  5
483
330
47C
100
AcDbEntity
  8
dxfile
  6
Continuous
 62
     3
100
AcDbLine
 10
375.08681
 20
741.476876
 30
0.0
 11
375.08681
 21
725.656419
 31
0.0
  0
TEXT
  5
484
330
47C
100
AcDbEntity
  8
dxfile
  6
Continuous
 62
     3
100
AcDbText
 10
287.713067
 20
732.261597
 30
0.0
 40
30.0
  1
４０
 41
0.858268
 51
0.0
  7
BIGFONT
 72
     1
 11
307.943663
 21
747.261597
 31
0.0
100
AcDbText
 73
     2
  0
ENDBLK
  5
47E
330
47C
100
AcDbEntity
  8
0
100
AcDbBlockEnd
  0
BLOCK
  5
4A2
330
4A1
100
AcDbEntity
  8
0
100
AcDbBlockBegin
  2
DIM_15
 70
     0
 10
324.648176
 20
2191.844855
 30
0.0
  3
DIM_15
  1

  0
CIRCLE
  5
4A4
330
4A1
100
AcDbEntity
  8
dxfile
  6
Continuous
 62
     3
100
AcDbCircle
 10
324.648176
 20
2249.170403
 30
0.0
 40
5.0
  0
CIRCLE
  5
4A5
330
4A1
100
AcDbEntity
  8
dxfile
  6
Continuous
 62
     3
100
AcDbCircle
 10
549.648176
 20
2249.170403
 30
0.0
 40
5.0
  0
LINE
  5
4A6
330
4A1
100
AcDbEntity
  8
dxfile
  6
Continuous
 62
     3
100
AcDbLine
 10
324.648176
 20
2249.170403
 30
0.0
 11
549.648176
 21
2249.170403
 31
0.0
  0
LINE
  5
4A7
330
4A1
100
AcDbEntity
  8
dxfile
  6
Continuous
 62
     3
100
AcDbLine
 10
324.648176
 20
2191.844855
 30
0.0
 11
324.648176
 21
2259.170403
 31
0.0
  0
LINE
  5
4A8
330
4A1
100
AcDbEntity
  8
dxfile
  6
Continuous
 62
     3
100
AcDbLine
 10
549.648176
 20
2187.958377
 30
0.0
 11
549.648176
 21
2259.170403
 31
0.0
  0
TEXT
  5
4A9
330
4A1
100
AcDbEntity
  8
dxfile
  6
Continuous
 62
     3
100
AcDbText
 10
405.882709
 20
2254.170403
 30
0.0
 40
30.0
  1
４５０
 41
0.858268
 51
0.0
  7
BIGFONT
 72
     1
 11
437.148176
 21
2254.170403
 31
0.0
100
AcDbText
  0
ENDBLK
  5
4A3
330
4A1
100
AcDbEntity
  8
0
100
AcDbBlockEnd
  0
BLOCK
  5
4AE
330
4AD
100
AcDbEntity
  8
0
100
AcDbBlockBegin
  2
DIM_16
 70
     0
 10
239.668322
 20
2106.865001
 30
0.0
  3
DIM_16
  1

  0
CIRCLE
  5
4B0
330
4AD
100
AcDbEntity
  8
dxfile
  6
Continuous
 62
     3
100
AcDbCircle
 10
182.342774
 20
2106.865001
 30
0.0
 40
5.0
  0
CIRCLE
  5
4B1
330
4AD
100
AcDbEntity
  8
dxfile
  6
Continuous
 62
     3
100
AcDbCircle
 10
182.342774
 20
1881.865001
 30
0.0
 40
5.0
  0
LINE
  5
4B2
330
4AD
100
AcDbEntity
  8
dxfile
  6
Continuous
 62
     3
100
AcDbLine
 10
182.342774
 20
2106.865001
 30
0.0
 11
182.342774
 21
1881.865001
 31
0.0
  0
LINE
  5
4B3
330
4AD
100
AcDbEntity
  8
dxfile
  6
Continuous
 62
     3
100
AcDbLine
 10
239.668322
 20
2106.865001
 30
0.0
 11
172.342774
 21
2106.865001
 31
0.0
  0
LINE
  5
4B4
330
4AD
100
AcDbEntity
  8
dxfile
  6
Continuous
 62
     3
100
AcDbLine
 10
243.5548
 20
1881.865001
 30
0.0
 11
172.342774
 21
1881.865001
 31
0.0
  0
TEXT
  5
4B5
330
4AD
100
AcDbEntity
  8
dxfile
  6
Continuous
 62
     3
100
AcDbText
 10
177.342774
 20
1963.099534
 30
0.0
 40
30.0
  1
４５０
 50
90.0
 41
0.858268
 51
0.0
  7
BIGFONT
 72
     1
 11
177.342774
 21
1994.365001
 31
0.0
100
AcDbText
  0
ENDBLK
  5
4AF
330
4AD
100
AcDbEntity
  8
0
100
AcDbBlockEnd
  0
BLOCK
  5
4B8
330
4B7
100
AcDbEntity
  8
0
100
AcDbBlockBegin
  2
DIM_17
 70
     0
 10
259.648176
 20
1803.46501
 30
0.0
  3
DIM_17
  1

  0
CIRCLE
  5
4BA
330
4B7
100
AcDbEntity
  8
dxfile
  6
Continuous
 62
     3
100
AcDbCircle
 10
259.648176
 20
1709.339013
 30
0.0
 40
5.0
  0
CIRCLE
  5
4BB
330
4B7
100
AcDbEntity
  8
dxfile
  6
Continuous
 62
     3
100
AcDbCircle
 10
614.648176
 20
1709.339013
 30
0.0
 40
5.0
  0
LINE
  5
4BC
330
4B7
100
AcDbEntity
  8
dxfile
  6
Continuous
 62
     3
100
AcDbLine
 10
259.648176
 20
1709.339013
 30
0.0
 11
614.648176
 21
1709.339013
 31
0.0
  0
LINE
  5
4BD
330
4B7
100
AcDbEntity
  8
dxfile
  6
Continuous
 62
     3
100
AcDbLine
 10
259.648176
 20
1803.46501
 30
0.0
 11
259.648176
 21
1699.339013
 31
0.0
  0
LINE
  5
4BE
330
4B7
100
AcDbEntity
  8
dxfile
  6
Continuous
 62
     3
100
AcDbLine
 10
614.648176
 20
1803.46501
 30
0.0
 11
614.648176
 21
1699.339013
 31
0.0
  0
TEXT
  5
4BF
330
4B7
100
AcDbEntity
  8
dxfile
  6
Continuous
 62
     3
100
AcDbText
 10
405.882709
 20
1714.339013
 30
0.0
 40
30.0
  1
７１０
 41
0.858268
 51
0.0
  7
BIGFONT
 72
     1
 11
437.148176
 21
1714.339013
 31
0.0
100
AcDbText
  0
ENDBLK
  5
4B9
330
4B7
100
AcDbEntity
  8
0
100
AcDbBlockEnd
  0
BLOCK
  5
4C2
330
4C1
100
AcDbEntity
  8
0
100
AcDbBlockBegin
  2
DIM_18
 70
     0
 10
637.855149
 20
2171.865001
 30
0.0
  3
DIM_18
  1

  0
CIRCLE
  5
4C4
330
4C1
100
AcDbEntity
  8
dxfile
  6
Continuous
 62
     3
100
AcDbCircle
 10
720.576153
 20
2171.865001
 30
0.0
 40
5.0
  0
CIRCLE
  5
4C5
330
4C1
100
AcDbEntity
  8
dxfile
  6
Continuous
 62
     3
100
AcDbCircle
 10
720.576153
 20
1816.865001
 30
0.0
 40
5.0
  0
LINE
  5
4C6
330
4C1
100
AcDbEntity
  8
dxfile
  6
Continuous
 62
     3
100
AcDbLine
 10
720.576153
 20
2171.865001
 30
0.0
 11
720.576153
 21
1816.865001
 31
0.0
  0
LINE
  5
4C7
330
4C1
100
AcDbEntity
  8
dxfile
  6
Continuous
 62
     3
100
AcDbLine
 10
637.855149
 20
2171.865001
 30
0.0
 11
730.576153
 21
2171.865001
 31
0.0
  0
LINE
  5
4C8
330
4C1
100
AcDbEntity
  8
dxfile
  6
Continuous
 62
     3
100
AcDbLine
 10
637.855149
 20
1816.865001
 30
0.0
 11
730.576153
 21
1816.865001
 31
0.0
  0
TEXT
  5
4C9
330
4C1
100
AcDbEntity
  8
dxfile
  6
Continuous
 62
     3
100
AcDbText
 10
715.576153
 20
1963.099534
 30
0.0
 40
30.0
  1
７１０
 50
90.0
 41
0.858268
 51
0.0
  7
BIGFONT
 72
     1
 11
715.576153
 21
1994.365001
 31
0.0
100
AcDbText
  0
ENDBLK
  5
4C3
330
4C1
100
AcDbEntity
  8
0
100
AcDbBlockEnd
  0
BLOCK
  5
4F2
330
4F1
100
AcDbEntity
  8
0
100
AcDbBlockBegin
  2
DIM_19
 70
     0
 10
972.387898
 20
2266.844855
 30
0.0
  3
DIM_19
  1

  0
CIRCLE
  5
4F4
330
4F1
100
AcDbEntity
  8
dxfile
  6
Continuous
 62
     3
100
AcDbCircle
 10
972.387898
 20
2324.170403
 30
0.0
 40
5.0
  0
CIRCLE
  5
4F5
330
4F1
100
AcDbEntity
  8
dxfile
  6
Continuous
 62
     3
100
AcDbCircle
 10
1272.387898
 20
2324.170403
 30
0.0
 40
5.0
  0
LINE
  5
4F6
330
4F1
100
AcDbEntity
  8
dxfile
  6
Continuous
 62
     3
100
AcDbLine
 10
972.387898
 20
2324.170403
 30
0.0
 11
1272.387898
 21
2324.170403
 31
0.0
  0
LINE
  5
4F7
330
4F1
100
AcDbEntity
  8
dxfile
  6
Continuous
 62
     3
100
AcDbLine
 10
972.387898
 20
2266.844855
 30
0.0
 11
972.387898
 21
2334.170403
 31
0.0
  0
LINE
  5
4F8
330
4F1
100
AcDbEntity
  8
dxfile
  6
Continuous
 62
     3
100
AcDbLine
 10
1272.387898
 20
2262.958377
 30
0.0
 11
1272.387898
 21
2334.170403
 31
0.0
  0
TEXT
  5
4F9
330
4F1
100
AcDbEntity
  8
dxfile
  6
Continuous
 62
     3
100
AcDbText
 10
1091.122431
 20
2329.170403
 30
0.0
 40
30.0
  1
６００
 41
0.858268
 51
0.0
  7
BIGFONT
 72
     1
 11
1122.387898
 21
2329.170403
 31
0.0
100
AcDbText
  0
ENDBLK
  5
4F3
330
4F1
100
AcDbEntity
  8
0
100
AcDbBlockEnd
  0
BLOCK
  5
4FE
330
4FD
100
AcDbEntity
  8
0
100
AcDbBlockBegin
  2
DIM_20
 70
     0
 10
849.908044
 20
2144.365001
 30
0.0
  3
DIM_20
  1

  0
CIRCLE
  5
500
330
4FD
100
AcDbEntity
  8
dxfile
  6
Continuous
 62
     3
100
AcDbCircle
 10
792.582495
 20
2144.365001
 30
0.0
 40
5.0
  0
CIRCLE
  5
501
330
4FD
100
AcDbEntity
  8
dxfile
  6
Continuous
 62
     3
100
AcDbCircle
 10
792.582495
 20
1844.365001
 30
0.0
 40
5.0
  0
LINE
  5
502
330
4FD
100
AcDbEntity
  8
dxfile
  6
Continuous
 62
     3
100
AcDbLine
 10
792.582495
 20
2144.365001
 30
0.0
 11
792.582495
 21
1844.365001
 31
0.0
  0
LINE
  5
503
330
4FD
100
AcDbEntity
  8
dxfile
  6
Continuous
 62
     3
100
AcDbLine
 10
849.908044
 20
2144.365001
 30
0.0
 11
782.582495
 21
2144.365001
 31
0.0
  0
LINE
  5
504
330
4FD
100
AcDbEntity
  8
dxfile
  6
Continuous
 62
     3
100
AcDbLine
 10
853.794522
 20
1844.365001
 30
0.0
 11
782.582495
 21
1844.365001
 31
0.0
  0
TEXT
  5
505
330
4FD
100
AcDbEntity
  8
dxfile
  6
Continuous
 62
     3
100
AcDbText
 10
787.582495
 20
1963.099534
 30
0.0
 40
30.0
  1
６００
 50
90.0
 41
0.858268
 51
0.0
  7
BIGFONT
 72
     1
 11
787.582495
 21
1994.365001
 31
0.0
100
AcDbText
  0
ENDBLK
  5
4FF
330
4FD
100
AcDbEntity
  8
0
100
AcDbBlockEnd
  0
BLOCK
  5
508
330
507
100
AcDbEntity
  8
0
100
AcDbBlockBegin
  2
DIM_21
 70
     0
 10
869.887898
 20
1728.46501
 30
0.0
  3
DIM_21
  1

  0
CIRCLE
  5
50A
330
507
100
AcDbEntity
  8
dxfile
  6
Continuous
 62
     3
100
AcDbCircle
 10
869.887898
 20
1634.339013
 30
0.0
 40
5.0
  0
CIRCLE
  5
50B
330
507
100
AcDbEntity
  8
dxfile
  6
Continuous
 62
     3
100
AcDbCircle
 10
1374.887898
 20
1634.339013
 30
0.0
 40
5.0
  0
LINE
  5
50C
330
507
100
AcDbEntity
  8
dxfile
  6
Continuous
 62
     3
100
AcDbLine
 10
869.887898
 20
1634.339013
 30
0.0
 11
1374.887898
 21
1634.339013
 31
0.0
  0
LINE
  5
50D
330
507
100
AcDbEntity
  8
dxfile
  6
Continuous
 62
     3
100
AcDbLine
 10
869.887898
 20
1728.46501
 30
0.0
 11
869.887898
 21
1624.339013
 31
0.0
  0
LINE
  5
50E
330
507
100
AcDbEntity
  8
dxfile
  6
Continuous
 62
     3
100
AcDbLine
 10
1374.887898
 20
1728.46501
 30
0.0
 11
1374.887898
 21
1624.339013
 31
0.0
  0
TEXT
  5
50F
330
507
100
AcDbEntity
  8
dxfile
  6
Continuous
 62
     3
100
AcDbText
 10
1080.08756
 20
1639.339013
 30
0.0
 40
30.0
  1
１０１０
 41
0.858268
 51
0.0
  7
BIGFONT
 72
     1
 11
1122.387898
 21
1639.339013
 31
0.0
100
AcDbText
  0
ENDBLK
  5
509
330
507
100
AcDbEntity
  8
0
100
AcDbBlockEnd
  0
BLOCK
  5
512
330
511
100
AcDbEntity
  8
0
100
AcDbBlockBegin
  2
DIM_22
 70
     0
 10
1398.094871
 20
2246.865001
 30
0.0
  3
DIM_22
  1

  0
CIRCLE
  5
514
330
511
100
AcDbEntity
  8
dxfile
  6
Continuous
 62
     3
100
AcDbCircle
 10
1491.537183
 20
2246.865001
 30
0.0
 40
5.0
  0
CIRCLE
  5
515
330
511
100
AcDbEntity
  8
dxfile
  6
Continuous
 62
     3
100
AcDbCircle
 10
1491.537183
 20
1741.865001
 30
0.0
 40
5.0
  0
LINE
  5
516
330
511
100
AcDbEntity
  8
dxfile
  6
Continuous
 62
     3
100
AcDbLine
 10
1491.537183
 20
2246.865001
 30
0.0
 11
1491.537183
 21
1741.865001
 31
0.0
  0
LINE
  5
517
330
511
100
AcDbEntity
  8
dxfile
  6
Continuous
 62
     3
100
AcDbLine
 10
1398.094871
 20
2246.865001
 30
0.0
 11
1501.537183
 21
2246.865001
 31
0.0
  0
LINE
  5
518
330
511
100
AcDbEntity
  8
dxfile
  6
Continuous
 62
     3
100
AcDbLine
 10
1398.094871
 20
1741.865001
 30
0.0
 11
1501.537183
 21
1741.865001
 31
0.0
  0
TEXT
  5
519
330
511
100
AcDbEntity
  8
dxfile
  6
Continuous
 62
     3
100
AcDbText
 10
1486.537183
 20
1952.064663
 30
0.0
 40
30.0
  1
１０１０
 50
90.0
 41
0.858268
 51
0.0
  7
BIGFONT
 72
     1
 11
1486.537183
 21
1994.365001
 31
0.0
100
AcDbText
  0
ENDBLK
  5
513
330
511
100
AcDbEntity
  8
0
100
AcDbBlockEnd
  0
BLOCK
  5
533
330
532
100
AcDbEntity
  8
0
100
AcDbBlockBegin
  2
DIM_23
 70
     0
 10
290.08681
 20
999.324433
 30
0.0
  3
DIM_23
  1

  0
CIRCLE
  5
535
330
532
100
AcDbEntity
  8
dxfile
  6
Continuous
 62
     3
100
AcDbCircle
 10
290.08681
 20
1132.436836
 30
0.0
 40
5.0
  0
CIRCLE
  5
536
330
532
100
AcDbEntity
  8
dxfile
  6
Continuous
 62
     3
100
AcDbCircle
 10
390.08681
 20
1132.436836
 30
0.0
 40
5.0
  0
LINE
  5
537
330
532
100
AcDbEntity
  8
dxfile
  6
Continuous
 62
     3
100
AcDbLine
 10
290.08681
 20
1132.436836
 30
0.0
 11
390.08681
 21
1132.436836
 31
0.0
  0
LINE
  5
538
330
532
100
AcDbEntity
  8
dxfile
  6
Continuous
 62
     3
100
AcDbLine
 10
290.08681
 20
999.324433
 30
0.0
 11
290.08681
 21
1142.436836
 31
0.0
  0
LINE
  5
539
330
532
100
AcDbEntity
  8
dxfile
  6
Continuous
 62
     3
100
AcDbLine
 10
390.08681
 20
1129.521966
 30
0.0
 11
390.08681
 21
1142.436836
 31
0.0
  0
TEXT
  5
53A
330
532
100
AcDbEntity
  8
dxfile
  6
Continuous
 62
     3
100
AcDbText
 10
330.891084
 20
1137.436836
 30
0.0
 40
30.0
  1
Ｄ
 41
0.858268
  7
BIGFONT
 72
     1
 11
340.08681
 21
1137.436836
 31
0.0
100
AcDbText
  0
ENDBLK
  5
534
330
532
100
AcDbEntity
  8
0
100
AcDbBlockEnd
  0
BLOCK
  5
53D
330
53C
100
AcDbEntity
  8
0
100
AcDbBlockBegin
  2
DIM_24
 70
     0
 10
1390.08681
 20
999.324433
 30
0.0
  3
DIM_24
  1

  0
CIRCLE
  5
53F
330
53C
100
AcDbEntity
  8
dxfile
  6
Continuous
 62
     3
100
AcDbCircle
 10
1390.08681
 20
1132.436836
 30
0.0
 40
5.0
  0
CIRCLE
  5
540
330
53C
100
AcDbEntity
  8
dxfile
  6
Continuous
 62
     3
100
AcDbCircle
 10
1290.08681
 20
1132.436836
 30
0.0
 40
5.0
  0
LINE
  5
541
330
53C
100
AcDbEntity
  8
dxfile
  6
Continuous
 62
     3
100
AcDbLine
 10
1390.08681
 20
1132.436836
 30
0.0
 11
1290.08681
 21
1132.436836
 31
0.0
  0
LINE
  5
542
330
53C
100
AcDbEntity
  8
dxfile
  6
Continuous
 62
     3
100
AcDbLine
 10
1390.08681
 20
999.324433
 30
0.0
 11
1390.08681
 21
1142.436836
 31
0.0
  0
LINE
  5
543
330
53C
100
AcDbEntity
  8
dxfile
  6
Continuous
 62
     3
100
AcDbLine
 10
1290.08681
 20
1129.521966
 30
0.0
 11
1290.08681
 21
1142.436836
 31
0.0
  0
TEXT
  5
544
330
53C
100
AcDbEntity
  8
dxfile
  6
Continuous
 62
     3
100
AcDbText
 10
1330.891084
 20
1137.436836
 30
0.0
 40
30.0
  1
Ｄ
 41
0.858268
  7
BIGFONT
 72
     1
 11
1340.08681
 21
1137.436836
 31
0.0
100
AcDbText
  0
ENDBLK
  5
53E
330
53C
100
AcDbEntity
  8
0
100
AcDbBlockEnd
  0
BLOCK
  5
567
330
566
100
AcDbEntity
  8
0
100
AcDbBlockBegin
  2
DIM_25
 70
     0
 10
1669.398032
 20
657.882849
 30
0.0
  3
DIM_25
  1

  0
CIRCLE
  5
569
330
566
100
AcDbEntity
  8
dxfile
  6
Continuous
 62
     3
100
AcDbCircle
 10
1669.398032
 20
781.878614
 30
0.0
 40
5.0
  0
CIRCLE
  5
56A
330
566
100
AcDbEntity
  8
dxfile
  6
Continuous
 62
     3
100
AcDbCircle
 10
1969.398032
 20
781.878614
 30
0.0
 40
5.0
  0
LINE
  5
56B
330
566
100
AcDbEntity
  8
dxfile
  6
Continuous
 62
     3
100
AcDbLine
 10
1669.398032
 20
781.878614
 30
0.0
 11
1969.398032
 21
781.878614
 31
0.0
  0
LINE
  5
56C
330
566
100
AcDbEntity
  8
dxfile
  6
Continuous
 62
     3
100
AcDbLine
 10
1669.398032
 20
657.882849
 30
0.0
 11
1669.398032
 21
791.878614
 31
0.0
  0
LINE
  5
56D
330
566
100
AcDbEntity
  8
dxfile
  6
Continuous
 62
     3
100
AcDbLine
 10
1969.398032
 20
657.882849
 30
0.0
 11
1969.398032
 21
791.878614
 31
0.0
  0
TEXT
  5
56E
330
566
100
AcDbEntity
  8
dxfile
  6
Continuous
 62
     3
100
AcDbText
 10
1761.979619
 20
786.539131
 30
0.0
 40
30.0
  1
Ａ　ドーム寸法
 41
0.858268
  7
BIGFONT
 72
     1
 11
1837.384569
 21
801.539131
 31
0.0
100
AcDbText
 73
     2
  0
ENDBLK
  5
568
330
566
100
AcDbEntity
  8
0
100
AcDbBlockEnd
  0
BLOCK
  5
575
330
574
100
AcDbEntity
  8
0
100
AcDbBlockBegin
  2
DIM_26
 70
     0
 10
1619.398032
 20
705.526756
 30
0.0
  3
DIM_26
  1

  0
CIRCLE
  5
577
330
574
100
AcDbEntity
  8
dxfile
  6
Continuous
 62
     3
100
AcDbCircle
 10
1619.398032
 20
781.878614
 30
0.0
 40
5.0
  0
CIRCLE
  5
578
330
574
100
AcDbEntity
  8
dxfile
  6
Continuous
 62
     3
100
AcDbCircle
 10
1669.398032
 20
781.878614
 30
0.0
 40
5.0
  0
LINE
  5
579
330
574
100
AcDbEntity
  8
dxfile
  6
Continuous
 62
     3
100
AcDbLine
 10
1619.398032
 20
781.878614
 30
0.0
 11
1669.398032
 21
781.878614
 31
0.0
  0
LINE
  5
57A
330
574
100
AcDbEntity
  8
dxfile
  6
Continuous
 62
     3
100
AcDbLine
 10
1619.398032
 20
705.526756
 30
0.0
 11
1619.398032
 21
791.878614
 31
0.0
  0
LINE
  5
57B
330
574
100
AcDbEntity
  8
dxfile
  6
Continuous
 62
     3
100
AcDbLine
 10
1669.398032
 20
773.16607
 30
0.0
 11
1669.398032
 21
791.878614
 31
0.0
  0
TEXT
  5
57C
330
574
100
AcDbEntity
  8
dxfile
  6
Continuous
 62
     3
100
AcDbText
 10
1638.311464
 20
790.125161
 30
0.0
 40
30.0
  1
Ｄ
 41
0.858268
  7
BIGFONT
 72
     1
 11
1647.50719
 21
805.125161
 31
0.0
100
AcDbText
 73
     2
  0
ENDBLK
  5
576
330
574
100
AcDbEntity
  8
0
100
AcDbBlockEnd
  0
BLOCK
  5
57F
330
57E
100
AcDbEntity
  8
0
100
AcDbBlockBegin
  2
DIM_27
 70
     0
 10
2019.398032
 20
705.526756
 30
0.0
  3
DIM_27
  1

  0
CIRCLE
  5
581
330
57E
100
AcDbEntity
  8
dxfile
  6
Continuous
 62
     3
100
AcDbCircle
 10
2019.398032
 20
781.878614
 30
0.0
 40
5.0
  0
CIRCLE
  5
582
330
57E
100
AcDbEntity
  8
dxfile
  6
Continuous
 62
     3
100
AcDbCircle
 10
1969.398032
 20
781.878614
 30
0.0
 40
5.0
  0
LINE
  5
583
330
57E
100
AcDbEntity
  8
dxfile
  6
Continuous
 62
     3
100
AcDbLine
 10
2019.398032
 20
781.878614
 30
0.0
 11
1969.398032
 21
781.878614
 31
0.0
  0
LINE
  5
584
330
57E
100
AcDbEntity
  8
dxfile
  6
Continuous
 62
     3
100
AcDbLine
 10
2019.398032
 20
705.526756
 30
0.0
 11
2019.398032
 21
791.878614
 31
0.0
  0
LINE
  5
585
330
57E
100
AcDbEntity
  8
dxfile
  6
Continuous
 62
     3
100
AcDbLine
 10
1969.398032
 20
773.16607
 30
0.0
 11
1969.398032
 21
791.878614
 31
0.0
  0
TEXT
  5
586
330
57E
100
AcDbEntity
  8
dxfile
  6
Continuous
 62
     3
100
AcDbText
 10
1988.311464
 20
790.125161
 30
0.0
 40
30.0
  1
Ｄ
 41
0.858268
  7
BIGFONT
 72
     1
 11
1997.50719
 21
805.125161
 31
0.0
100
AcDbText
 73
     2
  0
ENDBLK
  5
580
330
57E
100
AcDbEntity
  8
0
100
AcDbBlockEnd
  0
ENDSEC
  0
SECTION
  2
ENTITIES
  0
TEXT
  5
4F
330
1F
100
AcDbEntity
  8
dxfile
  6
Continuous
 62
     3
100
AcDbText
 10
2149.402595
 20
120.182644
 30
0.0
 40
30.0
  1
注、図中数字で示す寸法は全種共通です。
 41
0.858268
  7
BIGFONT
100
AcDbText
  0
TEXT
  5
72
330
1F
100
AcDbEntity
  8
dxfile
  6
Continuous
 62
     2
100
AcDbText
 10
2064.613879
 20
2741.923955
 30
0.0
 40
55.0
  1
三洋トッフ゜ライト（サントップドーム）Ｂ－Ｗ型（断熱タイプ）インナードーム付き標準図
 41
0.858268
  7
BIGFONT
100
AcDbText
  0
TEXT
  5
73
330
1F
100
AcDbEntity
  8
dxfile
  6
Continuous
 62
     2
100
AcDbText
 10
3686.815279
 20
96.666934
 30
0.0
 40
40.0
  1
Ｈ－１２－Ｂ－１０
 41
0.858268
  7
BIGFONT
100
AcDbText
  0
LINE
  5
74
330
1F
100
AcDbEntity
  8
dxfile
  6
Continuous
 62
     1
100
AcDbLine
 10
2650.136889
 20
270.915924
 30
0.0
 11
2650.136889
 21
70.915924
 31
0.0
  0
LINE
  5
75
330
1F
100
AcDbEntity
  8
dxfile
  6
Continuous
 62
     1
100
AcDbLine
 10
4120.136889
 20
70.915924
 30
0.0
 11
4120.136889
 21
270.915924
 31
0.0
  0
LINE
  5
76
330
1F
100
AcDbEntity
  8
dxfile
  6
Continuous
 62
     1
100
AcDbLine
 10
4120.136889
 20
270.915924
 30
0.0
 11
2650.136889
 21
270.915924
 31
0.0
  0
LINE
  5
77
330
1F
100
AcDbEntity
  8
dxfile
  6
Continuous
 62
     3
100
AcDbLine
 10
3270.136889
 20
270.915924
 30
0.0
 11
3270.136889
 21
70.915924
 31
0.0
  0
LINE
  5
78
330
1F
100
AcDbEntity
  8
dxfile
  6
Continuous
 62
     3
100
AcDbLine
 10
3370.136889
 20
270.915924
 30
0.0
 11
3370.136889
 21
70.915924
 31
0.0
  0
LINE
  5
79
330
1F
100
AcDbEntity
  8
dxfile
  6
Continuous
 62
     3
100
AcDbLine
 10
3470.136889
 20
270.915924
 30
0.0
 11
3470.136889
 21
70.915924
 31
0.0
  0
LINE
  5
7A
330
1F
100
AcDbEntity
  8
dxfile
  6
Continuous
 62
     3
100
AcDbLine
 10
3570.136889
 20
270.915924
 30
0.0
 11
3570.136889
 21
70.915924
 31
0.0
  0
LINE
  5
7B
330
1F
100
AcDbEntity
  8
dxfile
  6
Continuous
 62
     3
100
AcDbLine
 10
3270.136889
 20
170.915924
 30
0.0
 11
4120.136889
 21
170.915924
 31
0.0
  0
TEXT
  5
7C
330
1F
100
AcDbEntity
  8
dxfile
  6
Continuous
 62
     2
100
AcDbText
 10
3321.567624
 20
248.352163
 30
0.0
 40
30.0
  1
単位
 41
0.858268
  7
BIG VER
100
AcDbText
  0
TEXT
  5
7D
330
1F
100
AcDbEntity
  8
dxfile
  6
Continuous
 62
     2
100
AcDbText
 10
3321.567624
 20
148.938513
 30
0.0
 40
30.0
  1
製図
 41
0.858268
  7
BIG VER
100
AcDbText
  0
TEXT
  5
7E
330
1F
100
AcDbEntity
  8
dxfile
  6
Continuous
 62
     2
100
AcDbText
 10
3521.712301
 20
251.512033
 30
0.0
 40
30.0
  1
形名
 41
0.858268
  7
BIG VER
100
AcDbText
  0
TEXT
  5
7F
330
1F
100
AcDbEntity
  8
dxfile
  6
Continuous
 62
     2
100
AcDbText
 10
3521.712301
 20
147.776073
 30
0.0
 40
30.0
  1
図番
 41
0.858268
  7
BIG VER
100
AcDbText
  0
TEXT
  5
80
330
1F
100
AcDbEntity
  8
dxfile
  6
Continuous
 62
     3
100
AcDbText
 10
3396.810469
 20
183.687194
 30
0.0
 40
30.0
  1
ｍｍ
 41
0.858268
  7
BIGFONT
100
AcDbText
  0
TEXT
  5
81
330
1F
100
AcDbEntity
  8
dxfile
  6
Continuous
 62
     2
100
AcDbText
 10
3600.721581
 20
223.320445
 30
0.0
 40
35.0
  1
サントップドーム　断熱タイプ
 41
0.858268
  7
BIGFONT
100
AcDbText
  0
LINE
  5
82
330
1F
100
AcDbEntity
  8
dxfile
  6
Continuous
 62
     1
100
AcDbLine
 10
4120.136889
 20
70.915924
 30
0.0
 11
90.136889
 21
70.915924
 31
0.0
  0
TEXT
  5
83
330
1F
100
AcDbEntity
  8
dxfile
  6
Continuous
 62
     1
100
AcDbText
 10
2782.832969
 20
180.942524
 30
0.0
 40
70.0
  1
三洋工業株式会社
 41
0.858268
  7
BIGFONT
100
AcDbText
  0
CIRCLE
  5
84
330
1F
100
AcDbEntity
  8
dxfile
  6
Continuous
 62
     2
100
AcDbCircle
 10
2720.049086
 20
215.915924
 30
0.0
 40
35.0
  0
ARC
  5
85
330
1F
100
AcDbEntity
  8
dxfile
  6
Continuous
 62
     2
100
AcDbCircle
 10
2720.049086
 20
215.915924
 30
0.0
 40
24.99999999994628
100
AcDbArc
 50
61.260205
 51
118.739795
  0
ARC
  5
86
330
1F
100
AcDbEntity
  8
dxfile
  6
Continuous
 62
     2
100
AcDbCircle
 10
2720.049086
 20
215.915924
 30
0.0
 40
24.99999999995723
100
AcDbArc
 50
286.260205
 51
28.739795
  0
ARC
  5
87
330
1F
100
AcDbEntity
  8
dxfile
  6
Continuous
 62
     2
100
AcDbCircle
 10
2720.049086
 20
215.915924
 30
0.0
 40
25.00000000000554
100
AcDbArc
 50
151.260205
 51
253.739795
  0
TEXT
  5
88
330
1F
100
AcDbEntity
  8
dxfile
  6
Continuous
 62
     3
100
AcDbText
 10
2788.723469
 20
131.593334
 30
0.0
 40
30.0
  1
本社　東京都江東区亀戸６－２０－７
 41
0.858268
  7
BIGFONT
100
AcDbText
  0
TEXT
  5
89
330
1F
100
AcDbEntity
  8
dxfile
  6
Continuous
 62
     3
100
AcDbText
 10
2787.418229
 20
90.590904
 30
0.0
 40
30.0
  1
電話　０３－３６８５－３４５１（代）
 41
0.858268
  7
BIGFONT
100
AcDbText
  0
CIRCLE
  5
8A
330
1F
100
AcDbEntity
  8
dxfile
  6
Continuous
 62
     2
100
AcDbCircle
 10
2720.049086
 20
215.915924
 30
0.0
 40
36.99999999999989
  0
CIRCLE
  5
8B
330
1F
100
AcDbEntity
  8
dxfile
  6
Continuous
 62
     2
100
AcDbCircle
 10
2720.049086
 20
215.915924
 30
0.0
 40
33.00000000000011
  0
ARC
  5
8C
330
1F
100
AcDbEntity
  8
dxfile
  6
Continuous
 62
     2
100
AcDbCircle
 10
2720.049086
 20
215.915924
 30
0.0
 40
27.00000000002646
100
AcDbArc
 50
150.026114
 51
254.973886
  0
ARC
  5
8D
330
1F
100
AcDbEntity
  8
dxfile
  6
Continuous
 62
     2
100
AcDbCircle
 10
2720.049086
 20
215.915924
 30
0.0
 40
22.99999999999088
100
AcDbArc
 50
152.718932
 51
252.281068
  0
ARC
  5
8E
330
1F
100
AcDbEntity
  8
dxfile
  6
Continuous
 62
     2
100
AcDbCircle
 10
2720.049086
 20
215.915924
 30
0.0
 40
22.99999999999216
100
AcDbArc
 50
287.718932
 51
27.281068
  0
ARC
  5
8F
330
1F
100
AcDbEntity
  8
dxfile
  6
Continuous
 62
     2
100
AcDbCircle
 10
2720.049086
 20
215.915924
 30
0.0
 40
27.00000000005545
100
AcDbArc
 50
285.026114
 51
29.973886
  0
ARC
  5
90
330
1F
100
AcDbEntity
  8
dxfile
  6
Continuous
 62
     2
100
AcDbCircle
 10
2720.049086
 20
215.915924
 30
0.0
 40
27.0000000000563
100
AcDbArc
 50
60.026114
 51
119.973886
  0
ARC
  5
91
330
1F
100
AcDbEntity
  8
dxfile
  6
Continuous
 62
     2
100
AcDbCircle
 10
2720.049086
 20
215.915924
 30
0.0
 40
22.99999999994583
100
AcDbArc
 50
62.718932
 51
117.281068
  0
LINE
  5
92
330
1F
100
AcDbEntity
  8
dxfile
  6
Continuous
 62
     2
100
AcDbLine
 10
2700.957203
 20
235.007807
 30
0.0
 11
2720.049086
 21
215.915924
 31
0.0
  0
LINE
  5
93
330
1F
100
AcDbEntity
  8
dxfile
  6
Continuous
 62
     2
100
AcDbLine
 10
2720.049086
 20
215.915924
 30
0.0
 11
2720.049086
 21
188.915924
 31
0.0
  0
LINE
  5
94
330
1F
100
AcDbEntity
  8
dxfile
  6
Continuous
 62
     2
100
AcDbLine
 10
2720.049086
 20
215.915924
 30
0.0
 11
2739.140969
 21
235.007807
 31
0.0
  0
LINE
  5
95
330
1F
100
AcDbEntity
  8
dxfile
  6
Continuous
 62
     2
100
AcDbLine
 10
2737.674306
 20
236.36957
 30
0.0
 11
2720.049086
 21
218.744351
 31
0.0
  0
LINE
  5
96
330
1F
100
AcDbEntity
  8
dxfile
  6
Continuous
 62
     2
100
AcDbLine
 10
2720.049086
 20
218.744351
 30
0.0
 11
2702.423867
 21
236.36957
 31
0.0
  0
LINE
  5
97
330
1F
100
AcDbEntity
  8
dxfile
  6
Continuous
 62
     2
100
AcDbLine
 10
2720.049086
 20
255.915924
 30
0.0
 11
2720.049086
 21
248.915924
 31
0.0
  0
LINE
  5
98
330
1F
100
AcDbEntity
  8
dxfile
  6
Continuous
 62
     2
100
AcDbLine
 10
2720.049086
 20
255.915924
 30
0.0
 11
2718.049086
 21
248.855262
 31
0.0
  0
LINE
  5
99
330
1F
100
AcDbEntity
  8
dxfile
  6
Continuous
 62
     2
100
AcDbLine
 10
2720.049086
 20
255.915924
 30
0.0
 11
2722.049086
 21
248.855262
 31
0.0
  0
LINE
  5
9A
330
1F
100
AcDbEntity
  8
dxfile
  6
Continuous
 62
     2
100
AcDbLine
 10
2680.049086
 20
215.915924
 30
0.0
 11
2687.109748
 21
217.915924
 31
0.0
  0
LINE
  5
9B
330
1F
100
AcDbEntity
  8
dxfile
  6
Continuous
 62
     2
100
AcDbLine
 10
2680.049086
 20
215.915924
 30
0.0
 11
2687.049086
 21
215.915924
 31
0.0
  0
LINE
  5
9C
330
1F
100
AcDbEntity
  8
dxfile
  6
Continuous
 62
     2
100
AcDbLine
 10
2680.049086
 20
215.915924
 30
0.0
 11
2687.109748
 21
213.915924
 31
0.0
  0
LINE
  5
9D
330
1F
100
AcDbEntity
  8
dxfile
  6
Continuous
 62
     2
100
AcDbLine
 10
2720.049086
 20
175.915924
 30
0.0
 11
2718.049086
 21
182.976585
 31
0.0
  0
LINE
  5
9E
330
1F
100
AcDbEntity
  8
dxfile
  6
Continuous
 62
     2
100
AcDbLine
 10
2720.049086
 20
175.915924
 30
0.0
 11
2722.049086
 21
182.976585
 31
0.0
  0
LINE
  5
9F
330
1F
100
AcDbEntity
  8
dxfile
  6
Continuous
 62
     2
100
AcDbLine
 10
2720.049086
 20
175.915924
 30
0.0
 11
2720.049086
 21
182.915924
 31
0.0
  0
LINE
  5
A0
330
1F
100
AcDbEntity
  8
dxfile
  6
Continuous
 62
     2
100
AcDbLine
 10
2752.988425
 20
217.915924
 30
0.0
 11
2760.049086
 21
215.915924
 31
0.0
  0
LINE
  5
A1
330
1F
100
AcDbEntity
  8
dxfile
  6
Continuous
 62
     2
100
AcDbLine
 10
2760.049086
 20
215.915924
 30
0.0
 11
2753.049086
 21
215.915924
 31
0.0
  0
LINE
  5
A2
330
1F
100
AcDbEntity
  8
dxfile
  6
Continuous
 62
     2
100
AcDbLine
 10
2760.049086
 20
215.915924
 30
0.0
 11
2752.988425
 21
213.915924
 31
0.0
  0
LINE
  5
A3
330
1F
100
AcDbEntity
  8
dxfile
  6
Continuous
 62
     2
100
AcDbLine
 10
2699.59544
 20
233.541143
 30
0.0
 11
2718.049086
 21
215.087496
 31
0.0
  0
LINE
  5
A4
330
1F
100
AcDbEntity
  8
dxfile
  6
Continuous
 62
     2
100
AcDbLine
 10
2718.049086
 20
215.087496
 30
0.0
 11
2718.049086
 21
188.9901
 31
0.0
  0
LINE
  5
A5
330
1F
100
AcDbEntity
  8
dxfile
  6
Continuous
 62
     2
100
AcDbLine
 10
2722.049086
 20
188.9901
 30
0.0
 11
2722.049086
 21
215.087496
 31
0.0
  0
LINE
  5
A6
330
1F
100
AcDbEntity
  8
dxfile
  6
Continuous
 62
     2
100
AcDbLine
 10
2722.049086
 20
215.087496
 30
0.0
 11
2740.502733
 21
233.541143
 31
0.0
  0
LINE
  5
A7
330
1F
100
AcDbEntity
  8
dxfile
  6
Continuous
 62
     1
100
AcDbLine
 10
90.136889
 20
70.915924
 30
0.0
 11
90.136889
 21
2890.915924
 31
0.0
  0
TEXT
  5
A8
330
1F
100
AcDbEntity
  8
dxfile
  6
Continuous
 62
     2
100
AcDbText
 10
3601.49888
 20
177.459822
 30
0.0
 40
35.0
  1
Ｂ－Ｗ型インナードーム付き標準図
 41
0.858268
  7
BIGFONT
100
AcDbText
  0
LINE
  5
A9
330
1F
100
AcDbEntity
  8
dxfile
  6
Continuous
 62
     7
100
AcDbLine
 10
4120.136889
 20
70.915924
 30
0.0
 11
4120.136889
 21
2890.915924
 31
0.0
  0
LINE
  5
AA
330
1F
100
AcDbEntity
  8
dxfile
  6
Continuous
 62
     7
100
AcDbLine
 10
90.136889
 20
2890.915924
 30
0.0
 11
4120.136889
 21
2890.915924
 31
0.0
  0
LINE
  5
AB
330
1F
100
AcDbEntity
  8
dxfile
  6
Continuous
 62
     3
100
AcDbLine
 10
1337.297028
 20
1030.645566
 30
0.0
 11
1328.792218
 21
1000.914804
 31
0.0
  0
LINE
  5
AC
330
1F
100
AcDbEntity
  8
dxfile
  6
Continuous
 62
     3
100
AcDbLine
 10
1328.792218
 20
1000.914804
 30
0.0
 11
1466.626783
 21
1239.651273
 31
0.0
  0
LINE
  5
AD
330
1F
100
AcDbEntity
  8
dxfile
  6
Continuous
 62
     3
100
AcDbLine
 10
1466.626783
 20
1239.651273
 30
0.0
 11
1801.351192
 21
1239.651273
 31
0.0
  0
TEXT
  5
AE
330
1F
100
AcDbEntity
  8
dxfile
  6
Continuous
 62
     3
100
AcDbText
 10
1466.626783
 20
1244.651273
 30
0.0
 40
30.0
  1
Ｍ８×４０　Ｗ．Ｐ．Ｎ　ＳＵＳ
 41
0.858268
  7
BIGFONT
100
AcDbText
  0
LINE
  5
AF
330
1F
100
AcDbEntity
  8
dxfile
  6
Continuous
 62
     3
100
AcDbLine
 10
1425.720315
 20
897.324138
 30
0.0
 11
1420.050442
 21
877.50363
 31
0.0
  0
LINE
  5
B0
330
1F
100
AcDbEntity
  8
dxfile
  6
Continuous
 62
     3
100
AcDbLine
 10
1420.050442
 20
877.50363
 30
0.0
 11
1532.421748
 21
1072.13644
 31
0.0
  0
LINE
  5
B1
330
1F
100
AcDbEntity
  8
dxfile
  6
Continuous
 62
     3
100
AcDbLine
 10
1532.421748
 20
1072.13644
 30
0.0
 11
1825.650095
 21
1072.13644
 31
0.0
  0
TEXT
  5
B2
330
1F
100
AcDbEntity
  8
dxfile
  6
Continuous
 62
     3
100
AcDbText
 10
1542.421748
 20
1077.13644
 30
0.0
 40
30.0
  1
シーリング処理（別途）
 41
0.858268
 51
0.0
  7
BIGFONT
100
AcDbText
  0
LINE
  5
B3
330
1F
100
AcDbEntity
  8
dxfile
  6
Continuous
 62
     3
100
AcDbLine
 10
1404.999966
 20
927.904818
 30
0.0
 11
1399.330093
 21
908.08431
 31
0.0
  0
LINE
  5
B4
330
1F
100
AcDbEntity
  8
dxfile
  6
Continuous
 62
     3
100
AcDbLine
 10
1399.330093
 20
908.08431
 30
0.0
 11
1552.61968
 21
1173.589664
 31
0.0
  0
LINE
  5
B5
330
1F
100
AcDbEntity
  8
dxfile
  6
Continuous
 62
     3
100
AcDbLine
 10
1552.61968
 20
1173.589664
 30
0.0
 11
1944.334241
 21
1173.589664
 31
0.0
  0
TEXT
  5
B6
330
1F
100
AcDbEntity
  8
dxfile
  6
Continuous
 62
     3
100
AcDbText
 10
1580.24735
 20
1178.589664
 30
0.0
 40
30.0
  1
トップライトフレーム　アルミ
 41
0.858268
  7
BIGFONT
 72
     1
 11
1732.896394
 21
1193.589664
 31
0.0
100
AcDbText
 73
     2
  0
LINE
  5
B7
330
1F
100
AcDbEntity
  8
dxfile
  6
Continuous
 62
     2
100
AcDbLine
 10
200.602738
 20
2591.724906
 30
0.0
 11
1635.599242
 21
2591.724906
 31
0.0
  0
LINE
  5
B8
330
1F
100
AcDbEntity
  8
dxfile
  6
Continuous
 62
     2
100
AcDbLine
 10
226.19605
 20
2642.184906
 30
0.0
 11
1635.599242
 21
2642.184906
 31
0.0
  0
LINE
  5
B9
330
1F
100
AcDbEntity
  8
dxfile
  6
Continuous
 62
     2
100
AcDbLine
 10
225.89329
 20
2690.364114
 30
0.0
 11
1635.599242
 21
2690.364114
 31
0.0
  0
LINE
  5
BA
330
1F
100
AcDbEntity
  8
dxfile
  6
Continuous
 62
     2
100
AcDbLine
 10
226.19605
 20
2743.104906
 30
0.0
 11
1635.599242
 21
2743.104906
 31
0.0
  0
LINE
  5
BB
330
1F
100
AcDbEntity
  8
dxfile
  6
Continuous
 62
     2
100
AcDbLine
 10
275.808322
 20
2793.28233
 30
0.0
 11
1635.599242
 21
2793.28233
 31
0.0
  0
TEXT
  5
BC
330
1F
100
AcDbEntity
  8
dxfile
  6
Continuous
 62
     3
100
AcDbText
 10
1353.237691
 20
2650.497205
 30
0.0
 40
30.0
  1
２５０
 41
0.858268
  7
BIGFONT
100
AcDbText
  0
TEXT
  5
BD
330
1F
100
AcDbEntity
  8
dxfile
  6
Continuous
 62
     3
100
AcDbText
 10
1280.496782
 20
2601.974286
 30
0.0
 40
30.0
  1
　３１０（３５０）
 41
0.789606
  7
BIGFONT
100
AcDbText
  0
TEXT
  5
BE
330
1F
100
AcDbEntity
  8
dxfile
  6
Continuous
 62
     3
100
AcDbText
 10
1302.407637
 20
2701.340013
 30
0.0
 40
30.0
  1
１７０（１８０）
 41
0.790679
  7
BIGFONT
100
AcDbText
  0
TEXT
  5
BF
330
1F
100
AcDbEntity
  8
dxfile
  6
Continuous
 62
     3
100
AcDbText
 10
1378.069462
 20
2752.98748
 30
0.0
 40
30.0
  1
Ｈ
 41
0.858268
  7
BIGFONT
100
AcDbText
  0
LINE
  5
C0
330
1F
100
AcDbEntity
  8
dxfile
  6
Continuous
 62
     2
100
AcDbLine
 10
1484.219242
 20
2793.28233
 30
0.0
 11
1484.219242
 21
2591.44233
 31
0.0
  0
TEXT
  5
C1
330
1F
100
AcDbEntity
  8
dxfile
  6
Continuous
 62
     3
100
AcDbText
 10
224.816486
 20
2805.263247
 30
0.0
 40
30.0
  1
Ｂ－Ｗ型寸法表
 41
0.858268
  7
BIGFONT
100
AcDbText
  0
TEXT
  5
C2
330
1F
100
AcDbEntity
  8
dxfile
  6
Continuous
 62
     3
100
AcDbText
 10
217.780816
 20
2505.469032
 30
0.0
 40
30.0
  1
ＡＣ：アクリル製ト゛ーム、乳半色
 41
0.858268
  7
BIGFONT
100
AcDbText
  0
TEXT
  5
C3
330
1F
100
AcDbEntity
  8
dxfile
  6
Continuous
 62
     3
100
AcDbText
 10
216.586902
 20
2463.941096
 30
0.0
 40
30.0
  1
ＰＣ：ホ゜リカーボネート製ト゛ーム、透明片マット、乳半色
 41
0.858268
  7
BIGFONT
100
AcDbText
  0
LINE
  5
C4
330
1F
100
AcDbEntity
  8
dxfile
  6
Continuous
 62
     2
100
AcDbLine
 10
229.506226
 20
2690.364114
 30
0.0
 11
200.602738
 21
2690.364114
 31
0.0
  0
LINE
  5
C5
330
1F
100
AcDbEntity
  8
dxfile
  6
Continuous
 62
     2
100
AcDbLine
 10
233.119162
 20
2743.104906
 30
0.0
 11
200.602738
 21
2743.104906
 31
0.0
  0
LINE
  5
C6
330
1F
100
AcDbEntity
  8
dxfile
  6
Continuous
 62
     2
100
AcDbLine
 10
777.592851
 20
2793.28233
 30
0.0
 11
777.592851
 21
2591.44233
 31
0.0
  0
LINE
  5
C7
330
1F
100
AcDbEntity
  8
dxfile
  6
Continuous
 62
     2
100
AcDbLine
 10
991.778008
 20
2793.28233
 30
0.0
 11
991.778008
 21
2591.44233
 31
0.0
  0
LINE
  5
C8
330
1F
100
AcDbEntity
  8
dxfile
  6
Continuous
 62
     2
100
AcDbLine
 10
1143.158008
 20
2793.28233
 30
0.0
 11
1143.158008
 21
2591.44233
 31
0.0
  0
LINE
  5
C9
330
1F
100
AcDbEntity
  8
dxfile
  6
Continuous
 62
     2
100
AcDbLine
 10
276.282646
 20
2793.28233
 30
0.0
 11
200.602738
 21
2793.28233
 31
0.0
  0
LINE
  5
CA
330
1F
100
AcDbEntity
  8
dxfile
  6
Continuous
 62
     2
100
AcDbLine
 10
200.602738
 20
2793.28233
 30
0.0
 11
200.602738
 21
2790.96117
 31
0.0
  0
LINE
  5
CB
330
1F
100
AcDbEntity
  8
dxfile
  6
Continuous
 62
     2
100
AcDbLine
 10
234.92563
 20
2642.184906
 30
0.0
 11
200.602738
 21
2642.184906
 31
0.0
  0
TEXT
  5
CC
330
1F
100
AcDbEntity
  8
dxfile
  6
Continuous
 62
     3
100
AcDbText
 10
1206.735158
 20
2752.953957
 30
0.0
 40
30.0
  1
Ｊ
 41
0.858268
  7
BIGFONT
100
AcDbText
  0
TEXT
  5
CD
330
1F
100
AcDbEntity
  8
dxfile
  6
Continuous
 62
     3
100
AcDbText
 10
1190.905576
 20
2648.141184
 30
0.0
 40
30.0
  1
９３０
 41
0.858268
  7
BIGFONT
100
AcDbText
  0
TEXT
  5
CE
330
1F
100
AcDbEntity
  8
dxfile
  6
Continuous
 62
     3
100
AcDbText
 10
1166.038936
 20
2601.846934
 30
0.0
 40
30.0
  1
１３３０
 41
0.858268
  7
BIGFONT
100
AcDbText
  0
TEXT
  5
CF
330
1F
100
AcDbEntity
  8
dxfile
  6
Continuous
 62
     3
100
AcDbText
 10
223.808466
 20
2701.481148
 30
0.0
 40
30.0
  1
Ｂ－　６００・ＡＣ・ＰＣＷ
 41
0.858268
  7
BIGFONT
100
AcDbText
  0
TEXT
  5
D0
330
1F
100
AcDbEntity
  8
dxfile
  6
Continuous
 62
     3
100
AcDbText
 10
223.910346
 20
2601.846934
 30
0.0
 40
30.0
  1
Ｂ－１３００・ＡＣ・ＰＣＷ
 41
0.858268
  7
BIGFONT
100
AcDbText
  0
TEXT
  5
D1
330
1F
100
AcDbEntity
  8
dxfile
  6
Continuous
 62
     3
100
AcDbText
 10
224.086791
 20
2652.428144
 30
0.0
 40
30.0
  1
Ｂ－　９００・ＡＣ・ＰＣＷ
 41
0.858268
  7
BIGFONT
100
AcDbText
  0
TEXT
  5
D2
330
1F
100
AcDbEntity
  8
dxfile
  6
Continuous
 62
     3
100
AcDbText
 10
334.892899
 20
2751.568614
 30
0.0
 40
30.0
  1
型
 41
0.858268
  7
BIGFONT
100
AcDbText
  0
TEXT
  5
D3
330
1F
100
AcDbEntity
  8
dxfile
  6
Continuous
 62
     3
100
AcDbText
 10
681.771459
 20
2705.088514
 30
0.0
 40
30.0
  1
６００
 41
0.858268
  7
BIGFONT
100
AcDbText
  0
TEXT
  5
D4
330
1F
100
AcDbEntity
  8
dxfile
  6
Continuous
 62
     3
100
AcDbText
 10
680.671299
 20
2652.287004
 30
0.0
 40
30.0
  1
９００
 41
0.858268
  7
BIGFONT
100
AcDbText
  0
TEXT
  5
D5
330
1F
100
AcDbEntity
  8
dxfile
  6
Continuous
 62
     3
100
AcDbText
 10
655.436249
 20
2601.081827
 30
0.0
 40
30.0
  1
１３００
 41
0.858268
  7
BIGFONT
100
AcDbText
  0
TEXT
  5
D6
330
1F
100
AcDbEntity
  8
dxfile
  6
Continuous
 62
     3
100
AcDbText
 10
1042.684136
 20
2705.088514
 30
0.0
 40
30.0
  1
８３０
 41
0.858268
  7
BIGFONT
100
AcDbText
  0
TEXT
  5
D7
330
1F
100
AcDbEntity
  8
dxfile
  6
Continuous
 62
     3
100
AcDbText
 10
1015.109906
 20
2649.562694
 30
0.0
 40
30.0
  1
１１３０
 41
0.858268
  7
BIGFONT
100
AcDbText
  0
TEXT
  5
D8
330
1F
100
AcDbEntity
  8
dxfile
  6
Continuous
 62
     3
100
AcDbText
 10
1015.183756
 20
2602.785654
 30
0.0
 40
30.0
  1
１５３０
 41
0.858268
  7
BIGFONT
100
AcDbText
  0
TEXT
  5
D9
330
1F
100
AcDbEntity
  8
dxfile
  6
Continuous
 62
     3
100
AcDbText
 10
1189.842576
 20
2699.111344
 30
0.0
 40
30.0
  1
６３０
 41
0.858268
  7
BIGFONT
100
AcDbText
  0
TEXT
  5
DA
330
1F
100
AcDbEntity
  8
dxfile
  6
Continuous
 62
     3
100
AcDbText
 10
449.295219
 20
2751.568614
 30
0.0
 40
30.0
  1
式
 41
0.858268
  7
BIGFONT
100
AcDbText
  0
TEXT
  5
DB
330
1F
100
AcDbEntity
  8
dxfile
  6
Continuous
 62
     3
100
AcDbText
 10
1574.648307
 20
2796.473759
 30
0.0
 40
30.0
  1
ｍｍ
 41
0.858268
  7
BIGFONT
100
AcDbText
  0
TEXT
  5
DC
330
1F
100
AcDbEntity
  8
dxfile
  6
Continuous
 62
     3
100
AcDbText
 10
1495.536827
 20
2796.382509
 30
0.0
 40
30.0
  1
単位
 41
0.858268
  7
BIGFONT
100
AcDbText
  0
TEXT
  5
DD
330
1F
100
AcDbEntity
  8
dxfile
  6
Continuous
 62
     3
100
AcDbText
 10
666.966188
 20
2751.889861
 30
0.0
 40
30.0
  1
　Ａ
 41
0.858268
  7
BIGFONT
100
AcDbText
  0
TEXT
  5
DE
330
1F
100
AcDbEntity
  8
dxfile
  6
Continuous
 62
     3
100
AcDbText
 10
1055.884516
 20
2752.651638
 30
0.0
 40
30.0
  1
Ｗ
 41
0.858268
  7
BIGFONT
100
AcDbText
  0
LINE
  5
DF
330
1F
100
AcDbEntity
  8
dxfile
  6
Continuous
 62
     2
100
AcDbLine
 10
626.212851
 20
2793.28233
 30
0.0
 11
626.212851
 21
2591.724906
 31
0.0
  0
LINE
  5
E0
330
1F
100
AcDbEntity
  8
dxfile
  6
Continuous
 62
     2
100
AcDbLine
 10
200.602738
 20
2591.724906
 30
0.0
 11
200.602738
 21
2793.28233
 31
0.0
  0
LINE
  5
E1
330
1F
100
AcDbEntity
  8
dxfile
  6
Continuous
 62
     2
100
AcDbLine
 10
1294.538008
 20
2591.724906
 30
0.0
 11
1294.538008
 21
2793.28233
 31
0.0
  0
LINE
  5
E2
330
1F
100
AcDbEntity
  8
dxfile
  6
Continuous
 62
     2
100
AcDbLine
 10
1329.807566
 20
1567.996687
 30
0.0
 11
1004.651122
 21
1567.996687
 31
0.0
  0
LINE
  5
E3
330
1F
100
AcDbEntity
  8
dxfile
  6
Continuous
 62
     2
100
AcDbLine
 10
1329.807566
 20
1567.996687
 30
0.0
 11
1329.807566
 21
1514.805119
 31
0.0
  0
LINE
  5
E4
330
1F
100
AcDbEntity
  8
dxfile
  6
Continuous
 62
     2
100
AcDbLine
 10
1329.807566
 20
1514.805119
 30
0.0
 11
1004.651122
 21
1514.805119
 31
0.0
  0
LINE
  5
E5
330
1F
100
AcDbEntity
  8
dxfile
  6
Continuous
 62
     2
100
AcDbLine
 10
1004.651122
 20
1514.805119
 30
0.0
 11
1004.651122
 21
1567.996687
 31
0.0
  0
TEXT
  5
E6
330
1F
100
AcDbEntity
  8
dxfile
  6
Continuous
 62
     2
100
AcDbText
 10
1011.574606
 20
1525.328938
 30
0.0
 40
30.0
  1
アンカー位置図Ｓ１：２０
 41
0.858268
  7
BIGFONT
100
AcDbText
  0
LINE
  5
E7
330
1F
100
AcDbEntity
  8
dxfile
  6
Continuous
 62
     3
100
AcDbLine
 10
934.61979
 20
1254.063605
 30
0.0
 11
928.949917
 21
1234.243097
 31
0.0
  0
LINE
  5
E8
330
1F
100
AcDbEntity
  8
dxfile
  6
Continuous
 62
     3
100
AcDbLine
 10
928.949917
 20
1234.243097
 30
0.0
 11
1030.155269
 21
1409.535909
 31
0.0
  0
LINE
  5
E9
330
1F
100
AcDbEntity
  8
dxfile
  6
Continuous
 62
     3
100
AcDbLine
 10
1030.155269
 20
1409.535909
 30
0.0
 11
1168.343925
 21
1409.535909
 31
0.0
  0
TEXT
  5
EA
330
1F
100
AcDbEntity
  8
dxfile
  6
Continuous
 62
     3
100
AcDbText
 10
1039.603768
 20
1414.535909
 30
0.0
 40
30.0
  1
Ｂ型ドーム
 41
0.858268
  7
BIGFONT
100
AcDbText
  0
INSERT
  5
F4
330
1F
100
AcDbEntity
  8
dxfile
  6
Continuous
 62
     3
100
AcDbBlockReference
  2
DIM_0
 10
375.08681
 20
727.744789
 30
0.0
  0
LINE
  5
F5
330
1F
100
AcDbEntity
  8
dxfile
  6
Continuous
 62
     3
100
AcDbLine
 10
479.698202
 20
921.925099
 30
0.0
 11
465.368075
 21
936.745607
 31
0.0
  0
LINE
  5
F6
330
1F
100
AcDbEntity
  8
dxfile
  6
Continuous
 62
     3
100
AcDbLine
 10
465.368075
 20
936.745607
 30
0.0
 11
519.944318
 21
842.216781
 31
0.0
  0
LINE
  5
F7
330
1F
100
AcDbEntity
  8
dxfile
  6
Continuous
 62
     3
100
AcDbLine
 10
519.944318
 20
842.216781
 30
0.0
 11
803.172665
 21
842.216781
 31
0.0
  0
TEXT
  5
F8
330
1F
100
AcDbEntity
  8
dxfile
  6
Continuous
 62
     3
100
AcDbText
 10
519.944318
 20
847.216781
 30
0.0
 40
30.0
  1
６．８網入り硝子（別途）
 41
0.858268
  7
BIGFONT
100
AcDbText
  0
LINE
  5
F9
330
1F
100
AcDbEntity
  8
dxfile
  6
Continuous
 62
     3
100
AcDbLine
 10
416.186128
 20
670.206534
 30
0.0
 11
401.856001
 21
685.027042
 31
0.0
  0
LINE
  5
FA
330
1F
100
AcDbEntity
  8
dxfile
  6
Continuous
 62
     3
100
AcDbLine
 10
401.856001
 20
685.027042
 30
0.0
 11
455.06415
 21
592.867825
 31
0.0
  0
LINE
  5
FB
330
1F
100
AcDbEntity
  8
dxfile
  6
Continuous
 62
     3
100
AcDbLine
 10
455.06415
 20
592.867825
 30
0.0
 11
619.552339
 21
592.867825
 31
0.0
  0
TEXT
  5
FC
330
1F
100
AcDbEntity
  8
dxfile
  6
Continuous
 62
     3
100
AcDbText
 10
461.29585
 20
602.074135
 30
0.0
 40
30.0
  1
内装仕上げ面
 41
0.858268
  7
BIGFONT
100
AcDbText
  0
LINE
  5
FD
330
1F
100
AcDbEntity
  8
dxfile
  6
Continuous
 62
     4
100
AcDbLine
 10
205.118605
 20
745.947907
 30
0.0
 11
215.08681
 21
745.947907
 31
0.0
  0
LINE
  5
FE
330
1F
100
AcDbEntity
  8
dxfile
  6
Continuous
 62
     4
100
AcDbLine
 10
215.08681
 20
745.947907
 30
0.0
 11
215.08681
 21
716.043293
 31
0.0
  0
LINE
  5
FF
330
1F
100
AcDbEntity
  8
dxfile
  6
Continuous
 62
     4
100
AcDbLine
 10
213.093169
 20
716.043293
 30
0.0
 11
215.08681
 21
716.043293
 31
0.0
  0
LINE
  5
100
330
1F
100
AcDbEntity
  8
dxfile
  6
Continuous
 62
     4
100
AcDbLine
 10
205.118605
 20
743.954266
 30
0.0
 11
213.093169
 21
743.954266
 31
0.0
  0
LINE
  5
101
330
1F
100
AcDbEntity
  8
dxfile
  6
Continuous
 62
     4
100
AcDbLine
 10
213.093169
 20
743.954266
 30
0.0
 11
213.093169
 21
716.043293
 31
0.0
  0
LINE
  5
102
330
1F
100
AcDbEntity
  8
dxfile
  6
Continuous
 62
     4
100
AcDbLine
 10
205.118605
 20
745.947907
 30
0.0
 11
205.118605
 21
743.954266
 31
0.0
  0
LINE
  5
103
330
1F
100
AcDbEntity
  8
dxfile
  6
Continuous
 62
     3
100
AcDbLine
 10
276.416727
 20
874.969372
 30
0.0
 11
157.264781
 21
853.960802
 31
0.0
  0
LINE
  5
104
330
1F
100
AcDbEntity
  8
dxfile
  6
Continuous
 62
     3
100
AcDbLine
 10
205.998798
 20
730.741411
 30
0.0
 11
231.802389
 21
730.741411
 31
0.0
  0
LINE
  5
105
330
1F
100
AcDbEntity
  8
dxfile
  6
Continuous
 62
     3
100
AcDbLine
 10
157.264781
 20
745.947907
 30
0.0
 11
157.264781
 21
853.960802
 31
0.0
  0
LINE
  5
106
330
1F
100
AcDbEntity
  8
dxfile
  6
Continuous
 62
     3
100
AcDbLine
 10
197.1376
 20
755.916112
 30
0.0
 11
197.1376
 21
745.947907
 31
0.0
  0
LINE
  5
107
330
1F
100
AcDbEntity
  8
dxfile
  6
Continuous
 62
     3
100
AcDbLine
 10
197.1376
 20
745.947907
 30
0.0
 11
157.264781
 21
745.947907
 31
0.0
  0
CIRCLE
  5
108
330
1F
100
AcDbEntity
  8
dxfile
  6
Continuous
 62
     6
100
AcDbCircle
 10
257.027571
 20
856.110526
 30
0.0
 40
0.50439116288
  0
CIRCLE
  5
109
330
1F
100
AcDbEntity
  8
dxfile
  6
Continuous
 62
     6
100
AcDbCircle
 10
162.611726
 20
771.218303
 30
0.0
 40
0.94996991744
  0
CIRCLE
  5
10A
330
1F
100
AcDbEntity
  8
dxfile
  6
Continuous
 62
     6
100
AcDbCircle
 10
171.104637
 20
802.642072
 30
0.0
 40
0.8492910489599999
  0
CIRCLE
  5
10B
330
1F
100
AcDbEntity
  8
dxfile
  6
Continuous
 62
     6
100
AcDbCircle
 10
168.556763
 20
826.422221
 30
0.0
 40
0.60008592896
  0
CIRCLE
  5
10C
330
1F
100
AcDbEntity
  8
dxfile
  6
Continuous
 62
     6
100
AcDbCircle
 10
170.679991
 20
760.602165
 30
0.0
 40
0.8492910489599999
  0
CIRCLE
  5
10D
330
1F
100
AcDbEntity
  8
dxfile
  6
Continuous
 62
     6
100
AcDbCircle
 10
165.159599
 20
787.779479
 30
0.0
 40
1.34271718656
  0
CIRCLE
  5
10E
330
1F
100
AcDbEntity
  8
dxfile
  6
Continuous
 62
     6
100
AcDbCircle
 10
162.611726
 20
812.833565
 30
0.0
 40
0.94996991744
  0
CIRCLE
  5
10F
330
1F
100
AcDbEntity
  8
dxfile
  6
Continuous
 62
     6
100
AcDbCircle
 10
249.37199
 20
865.36102
 30
0.0
 40
0.4784738304
  0
CIRCLE
  5
110
330
1F
100
AcDbEntity
  8
dxfile
  6
Continuous
 62
     6
100
AcDbCircle
 10
370.744852
 20
892.333554
 30
0.0
 40
0.4784738304
  0
CIRCLE
  5
111
330
1F
100
AcDbEntity
  8
dxfile
  6
Continuous
 62
     6
100
AcDbCircle
 10
358.145041
 20
881.310147
 30
0.0
 40
0.5751654169599999
  0
CIRCLE
  5
112
330
1F
100
AcDbEntity
  8
dxfile
  6
Continuous
 62
     6
100
AcDbCircle
 10
370.585361
 20
879.236761
 30
0.0
 40
0.3189825536000001
  0
CIRCLE
  5
113
330
1F
100
AcDbEntity
  8
dxfile
  6
Continuous
 62
     6
100
AcDbCircle
 10
351.446407
 20
877.482357
 30
0.0
 40
0.4784738304
  0
CIRCLE
  5
114
330
1F
100
AcDbEntity
  8
dxfile
  6
Continuous
 62
     6
100
AcDbCircle
 10
359.420971
 20
896.480327
 30
0.0
 40
0.6379651072000001
  0
CIRCLE
  5
115
330
1F
100
AcDbEntity
  8
dxfile
  6
Continuous
 62
     6
100
AcDbCircle
 10
369.628413
 20
896.161345
 30
0.0
 40
0.50439116288
  0
CIRCLE
  5
116
330
1F
100
AcDbEntity
  8
dxfile
  6
Continuous
 62
     6
100
AcDbCircle
 10
326.406277
 20
882.90506
 30
0.0
 40
0.6379651072000001
  0
CIRCLE
  5
117
330
1F
100
AcDbEntity
  8
dxfile
  6
Continuous
 62
     6
100
AcDbCircle
 10
324.492382
 20
871.900162
 30
0.0
 40
0.3189825536000001
  0
CIRCLE
  5
118
330
1F
100
AcDbEntity
  8
dxfile
  6
Continuous
 62
     6
100
AcDbCircle
 10
312.371045
 20
872.378636
 30
0.0
 40
0.50439116288
  0
CIRCLE
  5
119
330
1F
100
AcDbEntity
  8
dxfile
  6
Continuous
 62
     6
100
AcDbCircle
 10
315.401379
 20
886.910851
 30
0.0
 40
0.50439116288
  0
CIRCLE
  5
11A
330
1F
100
AcDbEntity
  8
dxfile
  6
Continuous
 62
     6
100
AcDbCircle
 10
302.323094
 20
867.91288
 30
0.0
 40
0.45155967744
  0
CIRCLE
  5
11B
330
1F
100
AcDbEntity
  8
dxfile
  6
Continuous
 62
     6
100
AcDbCircle
 10
290.839722
 20
866.477459
 30
0.0
 40
0.4784738304
  0
CIRCLE
  5
11C
330
1F
100
AcDbEntity
  8
dxfile
  6
Continuous
 62
     6
100
AcDbCircle
 10
298.01683
 20
881.150656
 30
0.0
 40
0.6379651072000001
  0
CIRCLE
  5
11D
330
1F
100
AcDbEntity
  8
dxfile
  6
Continuous
 62
     6
100
AcDbCircle
 10
214.602892
 20
851.166296
 30
0.0
 40
0.7137234636799996
  0
CIRCLE
  5
11E
330
1F
100
AcDbEntity
  8
dxfile
  6
Continuous
 62
     6
100
AcDbCircle
 10
226.724229
 20
855.313069
 30
0.0
 40
0.7137234636799996
  0
CIRCLE
  5
11F
330
1F
100
AcDbEntity
  8
dxfile
  6
Continuous
 62
     6
100
AcDbCircle
 10
285.895493
 20
880.672182
 30
0.0
 40
0.7137234636799996
  0
CIRCLE
  5
120
330
1F
100
AcDbEntity
  8
dxfile
  6
Continuous
 62
     6
100
AcDbCircle
 10
218.749665
 20
859.459843
 30
0.0
 40
0.5751654169599999
  0
CIRCLE
  5
121
330
1F
100
AcDbEntity
  8
dxfile
  6
Continuous
 62
     6
100
AcDbCircle
 10
279.834824
 20
866.955933
 30
0.0
 40
0.45155967744
  0
CIRCLE
  5
122
330
1F
100
AcDbEntity
  8
dxfile
  6
Continuous
 62
     6
100
AcDbCircle
 10
264.36417
 20
868.550845
 30
0.0
 40
0.8134055116800001
  0
CIRCLE
  5
123
330
1F
100
AcDbEntity
  8
dxfile
  6
Continuous
 62
     6
100
AcDbCircle
 10
166.858181
 20
848.503789
 30
0.0
 40
1.34271718656
  0
CIRCLE
  5
124
330
1F
100
AcDbEntity
  8
dxfile
  6
Continuous
 62
     6
100
AcDbCircle
 10
193.186204
 20
853.174889
 30
0.0
 40
0.4246455244799999
  0
CIRCLE
  5
125
330
1F
100
AcDbEntity
  8
dxfile
  6
Continuous
 62
     6
100
AcDbCircle
 10
244.746743
 20
855.632052
 30
0.0
 40
0.22528142848
  0
LINE
  5
126
330
1F
100
AcDbEntity
  8
dxfile
  6
Continuous
 62
     2
100
AcDbLine
 10
713.680543
 20
350.504155
 30
0.0
 11
715.439931
 21
350.504155
 31
0.0
  0
TEXT
  5
127
330
1F
100
AcDbEntity
  8
dxfile
  6
Continuous
 62
     2
100
AcDbText
 10
726.64024
 20
308.264409
 30
0.0
 40
31.1506
  1
正面図Ｓ１：１０
 41
0.858268
  7
BIGFONT
100
AcDbText
  0
LINE
  5
128
330
1F
100
AcDbEntity
  8
dxfile
  6
Continuous
 62
     2
100
AcDbLine
 10
715.000084
 20
350.504155
 30
0.0
 11
946.271226
 21
350.504155
 31
0.0
  0
LINE
  5
129
330
1F
100
AcDbEntity
  8
dxfile
  6
Continuous
 62
     2
100
AcDbLine
 10
946.271226
 20
350.504155
 30
0.0
 11
946.271226
 21
299.481899
 31
0.0
  0
LINE
  5
12A
330
1F
100
AcDbEntity
  8
dxfile
  6
Continuous
 62
     2
100
AcDbLine
 10
946.271226
 20
299.481899
 30
0.0
 11
713.680543
 21
299.481899
 31
0.0
  0
LINE
  5
12B
330
1F
100
AcDbEntity
  8
dxfile
  6
Continuous
 62
     2
100
AcDbLine
 10
713.680543
 20
299.481899
 30
0.0
 11
713.680543
 21
350.944002
 31
0.0
  0
LINE
  5
12C
330
1F
100
AcDbEntity
  8
dxfile
  6
Continuous
 62
     3
100
AcDbLine
 10
340.16042
 20
994.831467
 30
0.0
 11
370.065034
 21
994.831467
 31
0.0
  0
LINE
  5
12D
330
1F
100
AcDbEntity
  8
dxfile
  6
Continuous
 62
     6
100
AcDbLine
 10
370.065034
 20
992.831467
 30
0.0
 11
340.150452
 21
992.831467
 31
0.0
  0
LINE
  5
12E
330
1F
100
AcDbEntity
  8
dxfile
  6
Continuous
 62
     3
100
AcDbLine
 10
370.065034
 20
994.831467
 30
0.0
 11
370.065034
 21
992.831467
 31
0.0
  0
LINE
  5
12F
330
1F
100
AcDbEntity
  8
dxfile
  6
Continuous
 62
     3
100
AcDbLine
 10
340.16042
 20
994.831467
 30
0.0
 11
340.16042
 21
992.831467
 31
0.0
  0
LINE
  5
130
330
1F
100
AcDbEntity
  8
dxfile
  6
Continuous
 62
     2
100
AcDbLine
 10
225.08681
 20
755.916112
 30
0.0
 11
225.08681
 21
640.730405
 31
0.0
  0
LINE
  5
131
330
1F
100
AcDbEntity
  8
dxfile
  6
Continuous
 62
     2
100
AcDbLine
 10
215.08681
 20
755.916112
 30
0.0
 11
215.08681
 21
640.730405
 31
0.0
  0
LINE
  5
132
330
1F
100
AcDbEntity
  8
dxfile
  6
Continuous
 62
     2
100
AcDbLine
 10
375.08681
 20
875.273879
 30
0.0
 11
375.08681
 21
640.730405
 31
0.0
  0
LINE
  5
133
330
1F
100
AcDbEntity
  8
dxfile
  6
Continuous
 62
     2
100
AcDbLine
 10
225.08681
 20
755.916112
 30
0.0
 11
177.201191
 21
755.916112
 31
0.0
  0
LINE
  5
134
330
1F
100
AcDbEntity
  8
dxfile
  6
Continuous
 62
     2
100
AcDbLine
 10
177.201191
 20
840.382692
 30
0.0
 11
177.201191
 21
755.916112
 31
0.0
  0
LINE
  5
135
330
1F
100
AcDbEntity
  8
dxfile
  6
Continuous
 62
     6
100
AcDbLine
 10
180.856531
 20
755.916112
 30
0.0
 11
284.186421
 21
859.246002
 31
0.0
  0
LINE
  5
136
330
1F
100
AcDbEntity
  8
dxfile
  6
Continuous
 62
     2
100
AcDbLine
 10
375.08681
 20
875.273879
 30
0.0
 11
177.201191
 21
840.381989
 31
0.0
  0
LINE
  5
137
330
1F
100
AcDbEntity
  8
dxfile
  6
PLine2
 62
     3
100
AcDbLine
 10
400.08681
 20
925.223595
 30
0.0
 11
400.08681
 21
637.508002
 31
0.0
  0
LINE
  5
138
330
1F
100
AcDbEntity
  8
dxfile
  6
Continuous
 62
     6
100
AcDbLine
 10
270.782149
 20
856.882513
 30
0.0
 11
177.201191
 21
763.301555
 31
0.0
  0
LINE
  5
139
330
1F
100
AcDbEntity
  8
dxfile
  6
Continuous
 62
     6
100
AcDbLine
 10
276.968736
 20
857.973354
 30
0.0
 11
177.201191
 21
758.205809
 31
0.0
  0
LINE
  5
13A
330
1F
100
AcDbEntity
  8
dxfile
  6
Continuous
 62
     6
100
AcDbLine
 10
375.08681
 20
710.820654
 30
0.0
 11
303.45525
 21
639.189094
 31
0.0
  0
LINE
  5
13B
330
1F
100
AcDbEntity
  8
dxfile
  6
Continuous
 62
     6
100
AcDbLine
 10
375.08681
 20
716.341046
 30
0.0
 11
297.934858
 21
639.189094
 31
0.0
  0
LINE
  5
13C
330
1F
100
AcDbEntity
  8
dxfile
  6
Continuous
 62
     6
100
AcDbLine
 10
375.08681
 20
721.012147
 30
0.0
 11
293.263757
 21
639.189094
 31
0.0
  0
LINE
  5
13D
330
1F
100
AcDbEntity
  8
dxfile
  6
Continuous
 62
     6
100
AcDbLine
 10
342.652471
 20
980.223595
 30
0.0
 11
342.652471
 21
975.223595
 31
0.0
  0
LINE
  5
13E
330
1F
100
AcDbEntity
  8
dxfile
  6
Continuous
 62
     6
100
AcDbLine
 10
367.572983
 20
980.223595
 30
0.0
 11
367.572983
 21
975.223595
 31
0.0
  0
LINE
  5
13F
330
1F
100
AcDbEntity
  8
dxfile
  6
PLine2
 62
     3
100
AcDbLine
 10
840.08681
 20
712.884608
 30
0.0
 11
840.08681
 21
1297.875945
 31
0.0
  0
INSERT
  5
149
330
1F
100
AcDbEntity
  8
dxfile
  6
Continuous
 62
     3
100
AcDbBlockReference
  2
DIM_1
 10
390.08681
 20
1011.845913
 30
0.0
  0
LINE
  5
14A
330
1F
100
AcDbEntity
  8
dxfile
  6
Continuous
 62
     4
100
AcDbLine
 10
384.01664
 20
991.223595
 30
0.0
 11
297.364032
 21
991.223595
 31
0.0
  0
LINE
  5
14B
330
1F
100
AcDbEntity
  8
dxfile
  6
Continuous
 62
     4
100
AcDbLine
 10
384.01664
 20
987.223595
 30
0.0
 11
297.364032
 21
987.223595
 31
0.0
  0
LINE
  5
14C
330
1F
100
AcDbEntity
  8
dxfile
  6
Continuous
 62
     4
100
AcDbLine
 10
273.08681
 20
951.223595
 30
0.0
 11
287.240392
 21
984.526142
 31
0.0
  0
LINE
  5
14D
330
1F
100
AcDbEntity
  8
dxfile
  6
Continuous
 62
     4
100
AcDbLine
 10
277.433073
 20
951.223595
 30
0.0
 11
290.921716
 21
982.96158
 31
0.0
  0
LINE
  5
14E
330
1F
100
AcDbEntity
  8
dxfile
  6
Continuous
 62
     4
100
AcDbLine
 10
273.08681
 20
951.223595
 30
0.0
 11
277.433073
 21
951.223595
 31
0.0
  0
ARC
  5
14F
330
1F
100
AcDbEntity
  8
dxfile
  6
Continuous
 62
     4
100
AcDbCircle
 10
840.08681
 20
711.223595
 30
0.0
 40
529.9999999999999
100
AcDbArc
 50
32.540307
 51
147.459693
  0
ARC
  5
150
330
1F
100
AcDbEntity
  8
dxfile
  6
Continuous
 62
     4
100
AcDbCircle
 10
840.08681
 20
711.223595
 30
0.0
 40
526.0
100
AcDbArc
 50
32.540307
 51
147.459693
  0
LINE
  5
151
330
1F
100
AcDbEntity
  8
dxfile
  6
PLine2
 62
     3
100
AcDbLine
 10
355.08681
 20
950.621155
 30
0.0
 11
355.08681
 21
1009.804362
 31
0.0
  0
LINE
  5
152
330
1F
100
AcDbEntity
  8
dxfile
  6
Continuous
 62
     3
100
AcDbLine
 10
351.08681
 20
967.729955
 30
0.0
 11
351.08681
 21
955.831467
 31
0.0
  0
LINE
  5
153
330
1F
100
AcDbEntity
  8
dxfile
  6
Continuous
 62
     3
100
AcDbLine
 10
351.08681
 20
955.831467
 30
0.0
 11
352.08681
 21
954.831467
 31
0.0
  0
LINE
  5
154
330
1F
100
AcDbEntity
  8
dxfile
  6
Continuous
 62
     3
100
AcDbLine
 10
359.08681
 20
967.729955
 30
0.0
 11
359.08681
 21
955.831467
 31
0.0
  0
LINE
  5
155
330
1F
100
AcDbEntity
  8
dxfile
  6
Continuous
 62
     3
100
AcDbLine
 10
358.08681
 20
954.831467
 30
0.0
 11
352.08681
 21
954.831467
 31
0.0
  0
LINE
  5
156
330
1F
100
AcDbEntity
  8
dxfile
  6
Continuous
 62
     3
100
AcDbLine
 10
359.08681
 20
955.831467
 30
0.0
 11
358.08681
 21
954.831467
 31
0.0
  0
LINE
  5
157
330
1F
100
AcDbEntity
  8
dxfile
  6
Continuous
 62
     3
100
AcDbLine
 10
347.08681
 20
973.223595
 30
0.0
 11
347.08681
 21
968.446165
 31
0.0
  0
LINE
  5
158
330
1F
100
AcDbEntity
  8
dxfile
  6
Continuous
 62
     3
100
AcDbLine
 10
363.086809
 20
968.446165
 30
0.0
 11
363.086809
 21
973.223595
 31
0.0
  0
LINE
  5
159
330
1F
100
AcDbEntity
  8
dxfile
  6
Continuous
 62
     3
100
AcDbLine
 10
363.086809
 20
973.223595
 30
0.0
 11
347.08681
 21
973.223595
 31
0.0
  0
LINE
  5
15A
330
1F
100
AcDbEntity
  8
dxfile
  6
Continuous
 62
     3
100
AcDbLine
 10
363.086809
 20
968.446165
 30
0.0
 11
361.835282
 21
967.723596
 31
0.0
  0
LINE
  5
15B
330
1F
100
AcDbEntity
  8
dxfile
  6
Continuous
 62
     3
100
AcDbLine
 10
361.835282
 20
967.723596
 30
0.0
 11
355.08681
 21
967.723596
 31
0.0
  0
LINE
  5
15C
330
1F
100
AcDbEntity
  8
dxfile
  6
Continuous
 62
     3
100
AcDbLine
 10
359.08681
 20
973.223595
 30
0.0
 11
359.08681
 21
968.409887
 31
0.0
  0
ARC
  5
15D
330
1F
100
AcDbEntity
  8
dxfile
  6
Continuous
 62
     3
100
AcDbCircle
 10
355.08681
 20
979.723595
 30
0.0
 40
11.9999995200061
100
AcDbArc
 50
270.0
 51
289.471221
  0
ARC
  5
15E
330
1F
100
AcDbEntity
  8
dxfile
  6
Continuous
 62
     3
100
AcDbCircle
 10
361.016477
 20
970.779595
 30
0.0
 40
3.05599987776958
100
AcDbArc
 50
230.843868
 51
270.0
  0
LINE
  5
15F
330
1F
100
AcDbEntity
  8
dxfile
  6
Continuous
 62
     3
100
AcDbLine
 10
347.08681
 20
968.446165
 30
0.0
 11
348.338338
 21
967.723596
 31
0.0
  0
LINE
  5
160
330
1F
100
AcDbEntity
  8
dxfile
  6
Continuous
 62
     3
100
AcDbLine
 10
348.338338
 20
967.723596
 30
0.0
 11
355.08681
 21
967.723596
 31
0.0
  0
ARC
  5
161
330
1F
100
AcDbEntity
  8
dxfile
  6
Continuous
 62
     3
100
AcDbCircle
 10
355.08681
 20
979.723595
 30
0.0
 40
11.9999995200061
100
AcDbArc
 50
250.528779
 51
270.0
  0
ARC
  5
162
330
1F
100
AcDbEntity
  8
dxfile
  6
Continuous
 62
     3
100
AcDbCircle
 10
349.157142
 20
970.779595
 30
0.0
 40
3.05599987776958
100
AcDbArc
 50
270.0
 51
309.156132
  0
LINE
  5
163
330
1F
100
AcDbEntity
  8
dxfile
  6
Continuous
 62
     3
100
AcDbLine
 10
351.08681
 20
973.223595
 30
0.0
 11
351.08681
 21
968.409887
 31
0.0
  0
LINE
  5
164
330
1F
100
AcDbEntity
  8
dxfile
  6
Continuous
 62
     3
100
AcDbLine
 10
363.086809
 20
994.831469
 30
0.0
 11
363.086809
 21
999.608899
 31
0.0
  0
LINE
  5
165
330
1F
100
AcDbEntity
  8
dxfile
  6
Continuous
 62
     3
100
AcDbLine
 10
363.086809
 20
999.608899
 30
0.0
 11
361.835282
 21
1000.331469
 31
0.0
  0
LINE
  5
166
330
1F
100
AcDbEntity
  8
dxfile
  6
Continuous
 62
     3
100
AcDbLine
 10
361.835282
 20
1000.331469
 30
0.0
 11
355.08681
 21
1000.331469
 31
0.0
  0
LINE
  5
167
330
1F
100
AcDbEntity
  8
dxfile
  6
Continuous
 62
     3
100
AcDbLine
 10
359.08681
 20
994.831469
 30
0.0
 11
359.08681
 21
999.645178
 31
0.0
  0
ARC
  5
168
330
1F
100
AcDbEntity
  8
dxfile
  6
Continuous
 62
     3
100
AcDbCircle
 10
355.08681
 20
988.33147
 30
0.0
 40
11.99999951989322
100
AcDbArc
 50
70.528779
 51
90.0
  0
ARC
  5
169
330
1F
100
AcDbEntity
  8
dxfile
  6
Continuous
 62
     3
100
AcDbCircle
 10
361.016477
 20
997.275469
 30
0.0
 40
3.05599987757103
100
AcDbArc
 50
90.0
 51
129.156132
  0
LINE
  5
16A
330
1F
100
AcDbEntity
  8
dxfile
  6
Continuous
 62
     3
100
AcDbLine
 10
347.08681
 20
994.831469
 30
0.0
 11
347.08681
 21
999.608899
 31
0.0
  0
LINE
  5
16B
330
1F
100
AcDbEntity
  8
dxfile
  6
Continuous
 62
     3
100
AcDbLine
 10
347.08681
 20
999.608899
 30
0.0
 11
348.338338
 21
1000.331469
 31
0.0
  0
LINE
  5
16C
330
1F
100
AcDbEntity
  8
dxfile
  6
Continuous
 62
     3
100
AcDbLine
 10
348.338338
 20
1000.331469
 30
0.0
 11
355.08681
 21
1000.331469
 31
0.0
  0
ARC
  5
16D
330
1F
100
AcDbEntity
  8
dxfile
  6
Continuous
 62
     3
100
AcDbCircle
 10
355.08681
 20
988.33147
 30
0.0
 40
11.99999951974545
100
AcDbArc
 50
90.0
 51
109.471221
  0
ARC
  5
16E
330
1F
100
AcDbEntity
  8
dxfile
  6
Continuous
 62
     3
100
AcDbCircle
 10
349.157142
 20
997.275469
 30
0.0
 40
3.055999877845681
100
AcDbArc
 50
50.843868
 51
90.0
  0
LINE
  5
16F
330
1F
100
AcDbEntity
  8
dxfile
  6
Continuous
 62
     3
100
AcDbLine
 10
351.08681
 20
994.831469
 30
0.0
 11
351.08681
 21
999.645178
 31
0.0
  0
LINE
  5
170
330
1F
100
AcDbEntity
  8
dxfile
  6
Continuous
 62
     3
100
AcDbLine
 10
347.08681
 20
994.831467
 30
0.0
 11
363.086809
 21
994.831467
 31
0.0
  0
LINE
  5
171
330
1F
100
AcDbEntity
  8
dxfile
  6
Continuous
 62
     6
100
AcDbLine
 10
340.16042
 20
992.831467
 30
0.0
 11
370.065034
 21
992.831467
 31
0.0
  0
LINE
  5
172
330
1F
100
AcDbEntity
  8
dxfile
  6
Continuous
 62
     6
100
AcDbLine
 10
370.065034
 20
992.831467
 30
0.0
 11
370.065034
 21
991.223595
 31
0.0
  0
LINE
  5
173
330
1F
100
AcDbEntity
  8
dxfile
  6
Continuous
 62
     6
100
AcDbLine
 10
340.16042
 20
991.223595
 30
0.0
 11
340.16042
 21
992.831467
 31
0.0
  0
LINE
  5
174
330
1F
100
AcDbEntity
  8
dxfile
  6
Continuous
 62
     6
100
AcDbLine
 10
340.16042
 20
992.331467
 30
0.0
 11
370.065034
 21
992.331467
 31
0.0
  0
LINE
  5
175
330
1F
100
AcDbEntity
  8
dxfile
  6
Continuous
 62
     6
100
AcDbLine
 10
340.16042
 20
991.831467
 30
0.0
 11
370.065034
 21
991.831467
 31
0.0
  0
LINE
  5
176
330
1F
100
AcDbEntity
  8
dxfile
  6
Continuous
 62
     6
100
AcDbLine
 10
366.161637
 20
975.223595
 30
0.0
 11
361.161637
 21
980.223595
 31
0.0
  0
LINE
  5
177
330
1F
100
AcDbEntity
  8
dxfile
  6
Continuous
 62
     6
100
AcDbLine
 10
361.107165
 20
975.223595
 30
0.0
 11
366.107165
 21
980.223595
 31
0.0
  0
LINE
  5
178
330
1F
100
AcDbEntity
  8
dxfile
  6
Continuous
 62
     6
100
AcDbLine
 10
352.603302
 20
980.223595
 30
0.0
 11
357.603302
 21
975.223595
 31
0.0
  0
LINE
  5
179
330
1F
100
AcDbEntity
  8
dxfile
  6
Continuous
 62
     6
100
AcDbLine
 10
352.518742
 20
975.223595
 30
0.0
 11
357.518742
 21
980.223595
 31
0.0
  0
LINE
  5
17A
330
1F
100
AcDbEntity
  8
dxfile
  6
Continuous
 62
     6
100
AcDbLine
 10
348.93097
 20
975.223595
 30
0.0
 11
343.93097
 21
980.223595
 31
0.0
  0
LINE
  5
17B
330
1F
100
AcDbEntity
  8
dxfile
  6
Continuous
 62
     6
100
AcDbLine
 10
343.957731
 20
975.223595
 30
0.0
 11
348.957731
 21
980.223595
 31
0.0
  0
LINE
  5
17C
330
1F
100
AcDbEntity
  8
dxfile
  6
Continuous
 62
     3
100
AcDbLine
 10
375.08681
 20
927.723595
 30
0.0
 11
382.05381
 21
927.723595
 31
0.0
  0
LINE
  5
17D
330
1F
100
AcDbEntity
  8
dxfile
  6
Continuous
 62
     6
100
AcDbLine
 10
382.07781
 20
926.691595
 30
0.0
 11
382.07781
 21
948.217595
 31
0.0
  0
LINE
  5
17E
330
1F
100
AcDbEntity
  8
dxfile
  6
Continuous
 62
     3
100
AcDbLine
 10
382.05381
 20
926.691595
 30
0.0
 11
382.05381
 21
927.723595
 31
0.0
  0
LINE
  5
17F
330
1F
100
AcDbEntity
  8
dxfile
  6
Continuous
 62
     6
100
AcDbLine
 10
389.07781
 20
948.217595
 30
0.0
 11
389.07781
 21
945.217595
 31
0.0
  0
LINE
  5
180
330
1F
100
AcDbEntity
  8
dxfile
  6
Continuous
 62
     6
100
AcDbLine
 10
405.05381
 20
938.191595
 30
0.0
 11
405.05381
 21
935.191595
 31
0.0
  0
LINE
  5
181
330
1F
100
AcDbEntity
  8
dxfile
  6
Continuous
 62
     6
100
AcDbLine
 10
385.07781
 20
945.217595
 30
0.0
 11
389.07781
 21
945.217595
 31
0.0
  0
LINE
  5
182
330
1F
100
AcDbEntity
  8
dxfile
  6
Continuous
 62
     6
100
AcDbLine
 10
385.07781
 20
945.217595
 30
0.0
 11
385.07781
 21
938.191595
 31
0.0
  0
LINE
  5
183
330
1F
100
AcDbEntity
  8
dxfile
  6
Continuous
 62
     6
100
AcDbLine
 10
389.07781
 20
946.217595
 30
0.0
 11
388.07781
 21
945.217595
 31
0.0
  0
LINE
  5
184
330
1F
100
AcDbEntity
  8
dxfile
  6
Continuous
 62
     6
100
AcDbLine
 10
387.07781
 20
933.217595
 30
0.0
 11
398.07781
 21
933.217595
 31
0.0
  0
LINE
  5
185
330
1F
100
AcDbEntity
  8
dxfile
  6
Continuous
 62
     6
100
AcDbLine
 10
399.50781
 20
926.647595
 30
0.0
 11
403.58281
 21
930.722595
 31
0.0
  0
LINE
  5
186
330
1F
100
AcDbEntity
  8
dxfile
  6
Continuous
 62
     6
100
AcDbLine
 10
398.07781
 20
933.217595
 30
0.0
 11
398.07781
 21
926.647595
 31
0.0
  0
LINE
  5
187
330
1F
100
AcDbEntity
  8
dxfile
  6
Continuous
 62
     6
100
AcDbLine
 10
387.07781
 20
933.217595
 30
0.0
 11
387.07781
 21
926.697595
 31
0.0
  0
LINE
  5
188
330
1F
100
AcDbEntity
  8
dxfile
  6
Continuous
 62
     6
100
AcDbLine
 10
398.07781
 20
932.217595
 30
0.0
 11
403.57781
 21
926.717595
 31
0.0
  0
LINE
  5
189
330
1F
100
AcDbEntity
  8
dxfile
  6
Continuous
 62
     6
100
AcDbLine
 10
405.05381
 20
938.191595
 30
0.0
 11
385.07781
 21
938.191595
 31
0.0
  0
LINE
  5
18A
330
1F
100
AcDbEntity
  8
dxfile
  6
Continuous
 62
     3
100
AcDbLine
 10
395.05381
 20
926.691595
 30
0.0
 11
403.55381
 21
926.691595
 31
0.0
  0
LINE
  5
18B
330
1F
100
AcDbEntity
  8
dxfile
  6
Continuous
 62
     3
100
AcDbLine
 10
403.58681
 20
933.723595
 30
0.0
 11
403.58681
 21
926.723595
 31
0.0
  0
LINE
  5
18C
330
1F
100
AcDbEntity
  8
dxfile
  6
Continuous
 62
     6
100
AcDbLine
 10
389.07781
 20
948.217595
 30
0.0
 11
382.07781
 21
948.217595
 31
0.0
  0
LINE
  5
18D
330
1F
100
AcDbEntity
  8
dxfile
  6
Continuous
 62
     6
100
AcDbLine
 10
382.07781
 20
945.217595
 30
0.0
 11
385.07781
 21
948.217595
 31
0.0
  0
LINE
  5
18E
330
1F
100
AcDbEntity
  8
dxfile
  6
Continuous
 62
     6
100
AcDbLine
 10
385.07781
 20
942.217595
 30
0.0
 11
382.07781
 21
939.217595
 31
0.0
  0
LINE
  5
18F
330
1F
100
AcDbEntity
  8
dxfile
  6
Continuous
 62
     6
100
AcDbLine
 10
382.07781
 20
927.217595
 30
0.0
 11
387.07781
 21
932.217595
 31
0.0
  0
LINE
  5
190
330
1F
100
AcDbEntity
  8
dxfile
  6
Continuous
 62
     6
100
AcDbLine
 10
385.07781
 20
939.217595
 30
0.0
 11
382.07781
 21
942.217595
 31
0.0
  0
LINE
  5
191
330
1F
100
AcDbEntity
  8
dxfile
  6
Continuous
 62
     6
100
AcDbLine
 10
385.07781
 20
945.217595
 30
0.0
 11
382.07781
 21
948.217595
 31
0.0
  0
LINE
  5
192
330
1F
100
AcDbEntity
  8
dxfile
  6
Continuous
 62
     6
100
AcDbLine
 10
382.07781
 20
936.217595
 30
0.0
 11
387.07781
 21
931.217595
 31
0.0
  0
LINE
  5
193
330
1F
100
AcDbEntity
  8
dxfile
  6
Continuous
 62
     6
100
AcDbLine
 10
382.07781
 20
930.217595
 30
0.0
 11
385.65281
 21
926.642595
 31
0.0
  0
LINE
  5
194
330
1F
100
AcDbEntity
  8
dxfile
  6
Continuous
 62
     3
100
AcDbLine
 10
382.05381
 20
926.691595
 30
0.0
 11
395.05381
 21
926.691595
 31
0.0
  0
LINE
  5
195
330
1F
100
AcDbEntity
  8
dxfile
  6
Continuous
 62
     3
100
AcDbLine
 10
337.08681
 20
973.223595
 30
0.0
 11
368.08681
 21
973.223595
 31
0.0
  0
LINE
  5
196
330
1F
100
AcDbEntity
  8
dxfile
  6
Continuous
 62
     3
100
AcDbLine
 10
337.08681
 20
973.223595
 30
0.0
 11
337.08681
 21
967.223595
 31
0.0
  0
LINE
  5
197
330
1F
100
AcDbEntity
  8
dxfile
  6
Continuous
 62
     3
100
AcDbLine
 10
337.08681
 20
967.223595
 30
0.0
 11
340.08681
 21
967.223595
 31
0.0
  0
LINE
  5
198
330
1F
100
AcDbEntity
  8
dxfile
  6
Continuous
 62
     3
100
AcDbLine
 10
340.08681
 20
967.223595
 30
0.0
 11
340.08681
 21
966.223595
 31
0.0
  0
LINE
  5
199
330
1F
100
AcDbEntity
  8
dxfile
  6
Continuous
 62
     3
100
AcDbLine
 10
340.08681
 20
966.223595
 30
0.0
 11
337.08681
 21
966.223595
 31
0.0
  0
LINE
  5
19A
330
1F
100
AcDbEntity
  8
dxfile
  6
Continuous
 62
     3
100
AcDbLine
 10
368.08681
 20
973.223595
 30
0.0
 11
373.08681
 21
973.223595
 31
0.0
  0
LINE
  5
19B
330
1F
100
AcDbEntity
  8
dxfile
  6
Continuous
 62
     3
100
AcDbLine
 10
373.08681
 20
966.223595
 30
0.0
 11
373.08681
 21
956.223595
 31
0.0
  0
LINE
  5
19C
330
1F
100
AcDbEntity
  8
dxfile
  6
Continuous
 62
     3
100
AcDbLine
 10
370.08681
 20
966.223595
 30
0.0
 11
373.08681
 21
966.223595
 31
0.0
  0
LINE
  5
19D
330
1F
100
AcDbEntity
  8
dxfile
  6
Continuous
 62
     3
100
AcDbLine
 10
370.08681
 20
967.223595
 30
0.0
 11
370.08681
 21
966.223595
 31
0.0
  0
LINE
  5
19E
330
1F
100
AcDbEntity
  8
dxfile
  6
Continuous
 62
     3
100
AcDbLine
 10
370.08681
 20
967.223595
 30
0.0
 11
373.08681
 21
967.223595
 31
0.0
  0
LINE
  5
19F
330
1F
100
AcDbEntity
  8
dxfile
  6
Continuous
 62
     3
100
AcDbLine
 10
373.08681
 20
967.223595
 30
0.0
 11
373.08681
 21
973.223595
 31
0.0
  0
LINE
  5
1A0
330
1F
100
AcDbEntity
  8
dxfile
  6
Continuous
 62
     3
100
AcDbLine
 10
373.08681
 20
956.223595
 30
0.0
 11
373.08681
 21
925.223595
 31
0.0
  0
ARC
  5
1A1
330
1F
100
AcDbEntity
  8
dxfile
  6
Continuous
 62
     3
100
AcDbCircle
 10
335.38681
 20
974.923595
 30
0.0
 40
0.3
100
AcDbArc
 50
90.0
 51
180.0
  0
LINE
  5
1A2
330
1F
100
AcDbEntity
  8
dxfile
  6
Continuous
 62
     3
100
AcDbLine
 10
335.08681
 20
974.923595
 30
0.0
 11
335.08681
 21
965.523595
 31
0.0
  0
ARC
  5
1A3
330
1F
100
AcDbEntity
  8
dxfile
  6
Continuous
 62
     3
100
AcDbCircle
 10
335.38681
 20
965.523595
 30
0.0
 40
0.3
100
AcDbArc
 50
180.0
 51
270.0
  0
LINE
  5
1A4
330
1F
100
AcDbEntity
  8
dxfile
  6
Continuous
 62
     3
100
AcDbLine
 10
335.38681
 20
965.223595
 30
0.0
 11
336.78681
 21
965.223595
 31
0.0
  0
LINE
  5
1A5
330
1F
100
AcDbEntity
  8
dxfile
  6
Continuous
 62
     3
100
AcDbLine
 10
337.08681
 20
966.223595
 30
0.0
 11
337.08681
 21
965.523595
 31
0.0
  0
ARC
  5
1A6
330
1F
100
AcDbEntity
  8
dxfile
  6
Continuous
 62
     3
100
AcDbCircle
 10
336.78681
 20
965.523595
 30
0.0
 40
0.3
100
AcDbArc
 50
270.0
 51
0.0
  0
LINE
  5
1A7
330
1F
100
AcDbEntity
  8
dxfile
  6
Continuous
 62
     3
100
AcDbLine
 10
335.38681
 20
975.223595
 30
0.0
 11
374.78681
 21
975.223595
 31
0.0
  0
ARC
  5
1A8
330
1F
100
AcDbEntity
  8
dxfile
  6
Continuous
 62
     3
100
AcDbCircle
 10
374.78681
 20
974.923595
 30
0.0
 40
0.3
100
AcDbArc
 50
0.0
 51
90.0
  0
LINE
  5
1A9
330
1F
100
AcDbEntity
  8
dxfile
  6
Continuous
 62
     3
100
AcDbLine
 10
375.08681
 20
925.223595
 30
0.0
 11
404.78681
 21
925.223595
 31
0.0
  0
ARC
  5
1AA
330
1F
100
AcDbEntity
  8
dxfile
  6
Continuous
 62
     3
100
AcDbCircle
 10
404.78681
 20
925.523595
 30
0.0
 40
0.3
100
AcDbArc
 50
270.0
 51
0.0
  0
LINE
  5
1AB
330
1F
100
AcDbEntity
  8
dxfile
  6
Continuous
 62
     3
100
AcDbLine
 10
405.08681
 20
925.523595
 30
0.0
 11
405.08681
 21
934.923595
 31
0.0
  0
ARC
  5
1AC
330
1F
100
AcDbEntity
  8
dxfile
  6
Continuous
 62
     3
100
AcDbCircle
 10
404.78681
 20
934.923595
 30
0.0
 40
0.3
100
AcDbArc
 50
0.0
 51
90.0
  0
LINE
  5
1AD
330
1F
100
AcDbEntity
  8
dxfile
  6
Continuous
 62
     3
100
AcDbLine
 10
404.78681
 20
935.223595
 30
0.0
 11
402.38681
 21
935.223595
 31
0.0
  0
ARC
  5
1AE
330
1F
100
AcDbEntity
  8
dxfile
  6
Continuous
 62
     3
100
AcDbCircle
 10
402.38681
 20
934.923595
 30
0.0
 40
0.3
100
AcDbArc
 50
90.0
 51
180.0
  0
LINE
  5
1AF
330
1F
100
AcDbEntity
  8
dxfile
  6
Continuous
 62
     3
100
AcDbLine
 10
403.58681
 20
933.723595
 30
0.0
 11
402.38681
 21
933.723595
 31
0.0
  0
LINE
  5
1B0
330
1F
100
AcDbEntity
  8
dxfile
  6
Continuous
 62
     3
100
AcDbLine
 10
402.08681
 20
934.923595
 30
0.0
 11
402.08681
 21
934.023595
 31
0.0
  0
ARC
  5
1B1
330
1F
100
AcDbEntity
  8
dxfile
  6
Continuous
 62
     3
100
AcDbCircle
 10
402.38681
 20
934.023595
 30
0.0
 40
0.3
100
AcDbArc
 50
180.0
 51
270.0
  0
LINE
  5
1B2
330
1F
100
AcDbEntity
  8
dxfile
  6
Continuous
 62
     3
100
AcDbLine
 10
373.08681
 20
956.223595
 30
0.0
 11
373.08681
 21
925.215657
 31
0.0
  0
LINE
  5
1B3
330
1F
100
AcDbEntity
  8
dxfile
  6
Continuous
 62
     6
100
AcDbLine
 10
405.05181
 20
938.191595
 30
0.0
 11
398.07781
 21
931.217595
 31
0.0
  0
LINE
  5
1B4
330
1F
100
AcDbEntity
  8
dxfile
  6
Continuous
 62
     6
100
AcDbLine
 10
398.10381
 20
938.191595
 30
0.0
 11
402.07781
 21
934.217595
 31
0.0
  0
LINE
  5
1B5
330
1F
100
AcDbEntity
  8
dxfile
  6
Continuous
 62
     6
100
AcDbLine
 10
399.05181
 20
938.191595
 30
0.0
 11
394.07781
 21
933.217595
 31
0.0
  0
LINE
  5
1B6
330
1F
100
AcDbEntity
  8
dxfile
  6
Continuous
 62
     6
100
AcDbLine
 10
392.10381
 20
938.191595
 30
0.0
 11
397.07781
 21
933.217595
 31
0.0
  0
LINE
  5
1B7
330
1F
100
AcDbEntity
  8
dxfile
  6
Continuous
 62
     6
100
AcDbLine
 10
388.07781
 20
933.217595
 30
0.0
 11
393.05181
 21
938.191595
 31
0.0
  0
LINE
  5
1B8
330
1F
100
AcDbEntity
  8
dxfile
  6
Continuous
 62
     6
100
AcDbLine
 10
386.10381
 20
938.191595
 30
0.0
 11
391.07781
 21
933.217595
 31
0.0
  0
LINE
  5
1B9
330
1F
100
AcDbEntity
  8
dxfile
  6
Continuous
 62
     6
100
AcDbLine
 10
382.07781
 20
933.217595
 30
0.0
 11
387.05181
 21
938.191595
 31
0.0
  0
LINE
  5
1BA
330
1F
100
AcDbEntity
  8
dxfile
  6
Continuous
 62
     6
100
AcDbLine
 10
387.08681
 20
944.991595
 30
0.0
 11
387.08681
 21
938.191595
 31
0.0
  0
LINE
  5
1BB
330
1F
100
AcDbEntity
  8
dxfile
  6
Continuous
 62
     3
100
AcDbLine
 10
375.08681
 20
927.723595
 30
0.0
 11
375.08681
 21
975.223595
 31
0.0
  0
LINE
  5
1BC
330
1F
100
AcDbEntity
  8
dxfile
  6
Continuous
 62
     3
100
AcDbLine
 10
308.55281
 20
901.217595
 30
0.0
 11
319.07781
 21
901.217595
 31
0.0
  0
LINE
  5
1BD
330
1F
100
AcDbEntity
  8
dxfile
  6
Continuous
 62
     3
100
AcDbLine
 10
358.07781
 20
901.217595
 30
0.0
 11
368.03081
 21
901.217595
 31
0.0
  0
LINE
  5
1BE
330
1F
100
AcDbEntity
  8
dxfile
  6
Continuous
 62
     3
100
AcDbLine
 10
368.03081
 20
903.223595
 30
0.0
 11
368.03081
 21
901.217595
 31
0.0
  0
LINE
  5
1BF
330
1F
100
AcDbEntity
  8
dxfile
  6
Continuous
 62
     3
100
AcDbLine
 10
262.08681
 20
903.546377
 30
0.0
 11
262.08681
 21
891.723595
 31
0.0
  0
LINE
  5
1C0
330
1F
100
AcDbEntity
  8
dxfile
  6
Continuous
 62
     3
100
AcDbLine
 10
273.58681
 20
890.223595
 30
0.0
 11
260.38681
 21
890.223595
 31
0.0
  0
ARC
  5
1C1
330
1F
100
AcDbEntity
  8
dxfile
  6
Continuous
 62
     3
100
AcDbCircle
 10
260.38681
 20
890.523595
 30
0.0
 40
0.3
100
AcDbArc
 50
180.0
 51
270.0
  0
LINE
  5
1C2
330
1F
100
AcDbEntity
  8
dxfile
  6
Continuous
 62
     3
100
AcDbLine
 10
260.08681
 20
890.523595
 30
0.0
 11
260.08681
 21
904.972013
 31
0.0
  0
ARC
  5
1C3
330
1F
100
AcDbEntity
  8
dxfile
  6
Continuous
 62
     3
100
AcDbCircle
 10
260.38681
 20
904.972013
 30
0.0
 40
0.3
100
AcDbArc
 50
100.033
 51
180.0
  0
LINE
  5
1C4
330
1F
100
AcDbEntity
  8
dxfile
  6
Continuous
 62
     3
100
AcDbLine
 10
262.08681
 20
891.723595
 30
0.0
 11
274.78681
 21
891.723595
 31
0.0
  0
ARC
  5
1C5
330
1F
100
AcDbEntity
  8
dxfile
  6
Continuous
 62
     3
100
AcDbCircle
 10
274.78681
 20
891.423595
 30
0.0
 40
0.3
100
AcDbArc
 50
0.0
 51
90.0
  0
LINE
  5
1C6
330
1F
100
AcDbEntity
  8
dxfile
  6
Continuous
 62
     3
100
AcDbLine
 10
275.08681
 20
891.423595
 30
0.0
 11
275.08681
 21
875.523595
 31
0.0
  0
ARC
  5
1C7
330
1F
100
AcDbEntity
  8
dxfile
  6
Continuous
 62
     3
100
AcDbCircle
 10
274.78681
 20
875.523595
 30
0.0
 40
0.3
100
AcDbArc
 50
270.0
 51
0.0
  0
LINE
  5
1C8
330
1F
100
AcDbEntity
  8
dxfile
  6
Continuous
 62
     3
100
AcDbLine
 10
274.78681
 20
875.223595
 30
0.0
 11
273.88681
 21
875.223595
 31
0.0
  0
LINE
  5
1C9
330
1F
100
AcDbEntity
  8
dxfile
  6
Continuous
 62
     3
100
AcDbLine
 10
308.55281
 20
901.217595
 30
0.0
 11
308.55281
 21
903.223595
 31
0.0
  0
LINE
  5
1CA
330
1F
100
AcDbEntity
  8
dxfile
  6
Continuous
 62
     3
100
AcDbLine
 10
318.25481
 20
903.223595
 30
0.0
 11
319.75481
 21
904.723595
 31
0.0
  0
LINE
  5
1CB
330
1F
100
AcDbEntity
  8
dxfile
  6
Continuous
 62
     3
100
AcDbLine
 10
319.07781
 20
901.217595
 30
0.0
 11
322.58381
 21
904.723595
 31
0.0
  0
LINE
  5
1CC
330
1F
100
AcDbEntity
  8
dxfile
  6
Continuous
 62
     3
100
AcDbLine
 10
313.08681
 20
903.223595
 30
0.0
 11
313.08681
 21
903.723595
 31
0.0
  0
ARC
  5
1CD
330
1F
100
AcDbEntity
  8
dxfile
  6
Continuous
 62
     3
100
AcDbCircle
 10
312.08681
 20
903.723595
 30
0.0
 40
1.0
100
AcDbArc
 50
0.0
 51
90.0
  0
LINE
  5
1CE
330
1F
100
AcDbEntity
  8
dxfile
  6
Continuous
 62
     3
100
AcDbLine
 10
373.58681
 20
904.723595
 30
0.0
 11
373.58681
 21
922.080607
 31
0.0
  0
LINE
  5
1CF
330
1F
100
AcDbEntity
  8
dxfile
  6
Continuous
 62
     3
100
AcDbLine
 10
307.49481
 20
906.654595
 30
0.0
 11
369.03881
 21
906.654595
 31
0.0
  0
LINE
  5
1D0
330
1F
100
AcDbEntity
  8
dxfile
  6
Continuous
 62
     3
100
AcDbLine
 10
369.03881
 20
904.723595
 30
0.0
 11
369.03881
 21
906.654595
 31
0.0
  0
LINE
  5
1D1
330
1F
100
AcDbEntity
  8
dxfile
  6
Continuous
 62
     3
100
AcDbLine
 10
312.05381
 20
904.723595
 30
0.0
 11
364.050912
 21
904.723595
 31
0.0
  0
LINE
  5
1D2
330
1F
100
AcDbEntity
  8
dxfile
  6
Continuous
 62
     3
100
AcDbLine
 10
373.58681
 20
904.723595
 30
0.0
 11
364.08681
 21
904.723595
 31
0.0
  0
ARC
  5
1D3
330
1F
100
AcDbEntity
  8
dxfile
  6
Continuous
 62
     3
100
AcDbCircle
 10
364.08681
 20
903.723595
 30
0.0
 40
1.0
100
AcDbArc
 50
90.0
 51
180.0
  0
LINE
  5
1D4
330
1F
100
AcDbEntity
  8
dxfile
  6
Continuous
 62
     3
100
AcDbLine
 10
358.07781
 20
901.217595
 30
0.0
 11
354.57181
 21
904.723595
 31
0.0
  0
LINE
  5
1D5
330
1F
100
AcDbEntity
  8
dxfile
  6
Continuous
 62
     3
100
AcDbLine
 10
363.08681
 20
903.223595
 30
0.0
 11
363.08681
 21
903.723595
 31
0.0
  0
LINE
  5
1D6
330
1F
100
AcDbEntity
  8
dxfile
  6
Continuous
 62
     3
100
AcDbLine
 10
359.071814
 20
903.223595
 30
0.0
 11
357.572834
 21
904.723595
 31
0.0
  0
LINE
  5
1D7
330
1F
100
AcDbEntity
  8
dxfile
  6
Continuous
 62
     3
100
AcDbLine
 10
307.49481
 20
904.723595
 30
0.0
 11
307.49481
 21
906.654595
 31
0.0
  0
LINE
  5
1D8
330
1F
100
AcDbEntity
  8
dxfile
  6
Continuous
 62
     3
100
AcDbLine
 10
305.58681
 20
904.723595
 30
0.0
 11
312.05381
 21
904.723595
 31
0.0
  0
LINE
  5
1D9
330
1F
100
AcDbEntity
  8
dxfile
  6
Continuous
 62
     3
100
AcDbLine
 10
305.58681
 20
904.723595
 30
0.0
 11
305.58681
 21
911.242436
 31
0.0
  0
LINE
  5
1DA
330
1F
100
AcDbEntity
  8
dxfile
  6
Continuous
 62
     3
100
AcDbLine
 10
318.25481
 20
903.223595
 30
0.0
 11
304.38681
 21
903.223595
 31
0.0
  0
LINE
  5
1DB
330
1F
100
AcDbEntity
  8
dxfile
  6
Continuous
 62
     3
100
AcDbLine
 10
304.08681
 20
910.977055
 30
0.0
 11
304.08681
 21
903.523595
 31
0.0
  0
ARC
  5
1DC
330
1F
100
AcDbEntity
  8
dxfile
  6
Continuous
 62
     3
100
AcDbCircle
 10
304.38681
 20
903.523595
 30
0.0
 40
0.3
100
AcDbArc
 50
180.0
 51
270.0
  0
LINE
  5
1DD
330
1F
100
AcDbEntity
  8
dxfile
  6
Continuous
 62
     3
100
AcDbLine
 10
359.071814
 20
903.223595
 30
0.0
 11
374.78681
 21
903.223595
 31
0.0
  0
LINE
  5
1DE
330
1F
100
AcDbEntity
  8
dxfile
  6
Continuous
 62
     3
100
AcDbLine
 10
375.08681
 20
925.223595
 30
0.0
 11
375.08681
 21
903.523595
 31
0.0
  0
ARC
  5
1DF
330
1F
100
AcDbEntity
  8
dxfile
  6
Continuous
 62
     3
100
AcDbCircle
 10
374.78681
 20
903.523595
 30
0.0
 40
0.3
100
AcDbArc
 50
270.0
 51
0.0
  0
LINE
  5
1E0
330
1F
100
AcDbEntity
  8
dxfile
  6
Continuous
 62
     3
100
AcDbLine
 10
260.334545
 20
905.267425
 30
0.0
 11
373.08681
 21
925.215657
 31
0.0
  0
LINE
  5
1E1
330
1F
100
AcDbEntity
  8
dxfile
  6
Continuous
 62
     3
100
AcDbLine
 10
342.97581
 20
885.564595
 30
0.0
 11
342.97581
 21
904.723595
 31
0.0
  0
LINE
  5
1E2
330
1F
100
AcDbEntity
  8
dxfile
  6
Continuous
 62
     3
100
AcDbLine
 10
342.97581
 20
885.564595
 30
0.0
 11
344.97581
 21
885.564595
 31
0.0
  0
LINE
  5
1E3
330
1F
100
AcDbEntity
  8
dxfile
  6
Continuous
 62
     3
100
AcDbLine
 10
344.97581
 20
885.564595
 30
0.0
 11
344.97581
 21
904.723595
 31
0.0
  0
INSERT
  5
1ED
330
1F
100
AcDbEntity
  8
dxfile
  6
Continuous
 62
     3
100
AcDbBlockReference
  2
DIM_2
 10
355.08681
 20
1015.291477
 30
0.0
  0
LINE
  5
1EE
330
1F
100
AcDbEntity
  8
dxfile
  6
Continuous
 62
     3
100
AcDbLine
 10
262.08681
 20
903.546377
 30
0.0
 11
304.08681
 21
910.977055
 31
0.0
  0
LINE
  5
1EF
330
1F
100
AcDbEntity
  8
dxfile
  6
Continuous
 62
     3
100
AcDbLine
 10
305.58681
 20
911.242436
 30
0.0
 11
372.412594
 21
923.065314
 31
0.0
  0
LINE
  5
1F0
330
1F
100
AcDbEntity
  8
dxfile
  6
Continuous
 62
     3
100
AcDbLine
 10
273.58681
 20
890.223595
 30
0.0
 11
273.58681
 21
875.523595
 31
0.0
  0
ARC
  5
1F1
330
1F
100
AcDbEntity
  8
dxfile
  6
Continuous
 62
     3
100
AcDbCircle
 10
273.88681
 20
875.523595
 30
0.0
 40
0.3
100
AcDbArc
 50
180.0
 51
270.0
  0
ARC
  5
1F2
330
1F
100
AcDbEntity
  8
dxfile
  6
Continuous
 62
     3
100
AcDbCircle
 10
372.58681
 20
922.080607
 30
0.0
 40
1.0
100
AcDbArc
 50
0.0
 51
100.033
  0
LINE
  5
1F3
330
1F
100
AcDbEntity
  8
dxfile
  6
Continuous
 62
     4
100
AcDbLine
 10
330.08681
 20
813.120545
 30
0.0
 11
330.08681
 21
899.171743
 31
0.0
  0
LINE
  5
1F4
330
1F
100
AcDbEntity
  8
dxfile
  6
Continuous
 62
     4
100
AcDbLine
 10
330.08681
 20
899.171743
 30
0.0
 11
340.08681
 21
899.171743
 31
0.0
  0
LINE
  5
1F5
330
1F
100
AcDbEntity
  8
dxfile
  6
Continuous
 62
     4
100
AcDbLine
 10
340.08681
 20
899.171743
 30
0.0
 11
340.08681
 21
813.120545
 31
0.0
  0
LINE
  5
1F6
330
1F
100
AcDbEntity
  8
dxfile
  6
Continuous
 62
     4
100
AcDbLine
 10
1475.055015
 20
745.947907
 30
0.0
 11
1465.08681
 21
745.947907
 31
0.0
  0
LINE
  5
1F7
330
1F
100
AcDbEntity
  8
dxfile
  6
Continuous
 62
     4
100
AcDbLine
 10
1465.08681
 20
745.947907
 30
0.0
 11
1465.08681
 21
716.043293
 31
0.0
  0
LINE
  5
1F8
330
1F
100
AcDbEntity
  8
dxfile
  6
Continuous
 62
     4
100
AcDbLine
 10
1467.080451
 20
716.043293
 30
0.0
 11
1465.08681
 21
716.043293
 31
0.0
  0
LINE
  5
1F9
330
1F
100
AcDbEntity
  8
dxfile
  6
Continuous
 62
     4
100
AcDbLine
 10
1475.055015
 20
743.954266
 30
0.0
 11
1467.080451
 21
743.954266
 31
0.0
  0
LINE
  5
1FA
330
1F
100
AcDbEntity
  8
dxfile
  6
Continuous
 62
     4
100
AcDbLine
 10
1467.080451
 20
743.954266
 30
0.0
 11
1467.080451
 21
716.043293
 31
0.0
  0
LINE
  5
1FB
330
1F
100
AcDbEntity
  8
dxfile
  6
Continuous
 62
     4
100
AcDbLine
 10
1475.055015
 20
745.947907
 30
0.0
 11
1475.055015
 21
743.954266
 31
0.0
  0
LINE
  5
1FC
330
1F
100
AcDbEntity
  8
dxfile
  6
Continuous
 62
     3
100
AcDbLine
 10
1403.756893
 20
874.969372
 30
0.0
 11
1522.908839
 21
853.960802
 31
0.0
  0
LINE
  5
1FD
330
1F
100
AcDbEntity
  8
dxfile
  6
Continuous
 62
     3
100
AcDbLine
 10
1474.174822
 20
730.741411
 30
0.0
 11
1448.37123
 21
730.741411
 31
0.0
  0
LINE
  5
1FE
330
1F
100
AcDbEntity
  8
dxfile
  6
Continuous
 62
     3
100
AcDbLine
 10
1522.908839
 20
745.947907
 30
0.0
 11
1522.908839
 21
853.960802
 31
0.0
  0
LINE
  5
1FF
330
1F
100
AcDbEntity
  8
dxfile
  6
Continuous
 62
     3
100
AcDbLine
 10
1483.036019
 20
755.916112
 30
0.0
 11
1483.036019
 21
745.947907
 31
0.0
  0
LINE
  5
200
330
1F
100
AcDbEntity
  8
dxfile
  6
Continuous
 62
     3
100
AcDbLine
 10
1483.036019
 20
745.947907
 30
0.0
 11
1522.908839
 21
745.947907
 31
0.0
  0
CIRCLE
  5
201
330
1F
100
AcDbEntity
  8
dxfile
  6
Continuous
 62
     6
100
AcDbCircle
 10
1423.146048
 20
856.110526
 30
0.0
 40
0.50439116288
  0
CIRCLE
  5
202
330
1F
100
AcDbEntity
  8
dxfile
  6
Continuous
 62
     6
100
AcDbCircle
 10
1517.561894
 20
771.218303
 30
0.0
 40
0.94996991744
  0
CIRCLE
  5
203
330
1F
100
AcDbEntity
  8
dxfile
  6
Continuous
 62
     6
100
AcDbCircle
 10
1509.068983
 20
802.642072
 30
0.0
 40
0.8492910489599999
  0
CIRCLE
  5
204
330
1F
100
AcDbEntity
  8
dxfile
  6
Continuous
 62
     6
100
AcDbCircle
 10
1511.616856
 20
826.422221
 30
0.0
 40
0.60008592896
  0
CIRCLE
  5
205
330
1F
100
AcDbEntity
  8
dxfile
  6
Continuous
 62
     6
100
AcDbCircle
 10
1509.493629
 20
760.602165
 30
0.0
 40
0.8492910489599999
  0
CIRCLE
  5
206
330
1F
100
AcDbEntity
  8
dxfile
  6
Continuous
 62
     6
100
AcDbCircle
 10
1515.01402
 20
787.779479
 30
0.0
 40
1.34271718656
  0
CIRCLE
  5
207
330
1F
100
AcDbEntity
  8
dxfile
  6
Continuous
 62
     6
100
AcDbCircle
 10
1517.561894
 20
812.833565
 30
0.0
 40
0.94996991744
  0
CIRCLE
  5
208
330
1F
100
AcDbEntity
  8
dxfile
  6
Continuous
 62
     6
100
AcDbCircle
 10
1430.801629
 20
865.36102
 30
0.0
 40
0.4784738304
  0
CIRCLE
  5
209
330
1F
100
AcDbEntity
  8
dxfile
  6
Continuous
 62
     6
100
AcDbCircle
 10
1309.428768
 20
892.333554
 30
0.0
 40
0.4784738304
  0
CIRCLE
  5
20A
330
1F
100
AcDbEntity
  8
dxfile
  6
Continuous
 62
     6
100
AcDbCircle
 10
1322.028579
 20
881.310147
 30
0.0
 40
0.5751654169599999
  0
CIRCLE
  5
20B
330
1F
100
AcDbEntity
  8
dxfile
  6
Continuous
 62
     6
100
AcDbCircle
 10
1309.588259
 20
879.236761
 30
0.0
 40
0.3189825536000001
  0
CIRCLE
  5
20C
330
1F
100
AcDbEntity
  8
dxfile
  6
Continuous
 62
     6
100
AcDbCircle
 10
1328.727212
 20
877.482357
 30
0.0
 40
0.4784738304
  0
CIRCLE
  5
20D
330
1F
100
AcDbEntity
  8
dxfile
  6
Continuous
 62
     6
100
AcDbCircle
 10
1320.752648
 20
896.480327
 30
0.0
 40
0.6379651072000001
  0
CIRCLE
  5
20E
330
1F
100
AcDbEntity
  8
dxfile
  6
Continuous
 62
     6
100
AcDbCircle
 10
1310.545207
 20
896.161345
 30
0.0
 40
0.50439116288
  0
CIRCLE
  5
20F
330
1F
100
AcDbEntity
  8
dxfile
  6
Continuous
 62
     6
100
AcDbCircle
 10
1353.767343
 20
882.90506
 30
0.0
 40
0.6379651072000001
  0
CIRCLE
  5
210
330
1F
100
AcDbEntity
  8
dxfile
  6
Continuous
 62
     6
100
AcDbCircle
 10
1355.681238
 20
871.900162
 30
0.0
 40
0.3189825536000001
  0
CIRCLE
  5
211
330
1F
100
AcDbEntity
  8
dxfile
  6
Continuous
 62
     6
100
AcDbCircle
 10
1367.802575
 20
872.378636
 30
0.0
 40
0.50439116288
  0
CIRCLE
  5
212
330
1F
100
AcDbEntity
  8
dxfile
  6
Continuous
 62
     6
100
AcDbCircle
 10
1364.772241
 20
886.910851
 30
0.0
 40
0.50439116288
  0
CIRCLE
  5
213
330
1F
100
AcDbEntity
  8
dxfile
  6
Continuous
 62
     6
100
AcDbCircle
 10
1377.850526
 20
867.91288
 30
0.0
 40
0.45155967744
  0
CIRCLE
  5
214
330
1F
100
AcDbEntity
  8
dxfile
  6
Continuous
 62
     6
100
AcDbCircle
 10
1389.333897
 20
866.477459
 30
0.0
 40
0.4784738304
  0
CIRCLE
  5
215
330
1F
100
AcDbEntity
  8
dxfile
  6
Continuous
 62
     6
100
AcDbCircle
 10
1382.15679
 20
881.150656
 30
0.0
 40
0.6379651072000001
  0
CIRCLE
  5
216
330
1F
100
AcDbEntity
  8
dxfile
  6
Continuous
 62
     6
100
AcDbCircle
 10
1465.570728
 20
851.166296
 30
0.0
 40
0.7137234636799996
  0
CIRCLE
  5
217
330
1F
100
AcDbEntity
  8
dxfile
  6
Continuous
 62
     6
100
AcDbCircle
 10
1453.449391
 20
855.313069
 30
0.0
 40
0.7137234636799996
  0
CIRCLE
  5
218
330
1F
100
AcDbEntity
  8
dxfile
  6
Continuous
 62
     6
100
AcDbCircle
 10
1394.278127
 20
880.672182
 30
0.0
 40
0.7137234636799996
  0
CIRCLE
  5
219
330
1F
100
AcDbEntity
  8
dxfile
  6
Continuous
 62
     6
100
AcDbCircle
 10
1461.423955
 20
859.459843
 30
0.0
 40
0.5751654169599999
  0
CIRCLE
  5
21A
330
1F
100
AcDbEntity
  8
dxfile
  6
Continuous
 62
     6
100
AcDbCircle
 10
1400.338796
 20
866.955933
 30
0.0
 40
0.45155967744
  0
CIRCLE
  5
21B
330
1F
100
AcDbEntity
  8
dxfile
  6
Continuous
 62
     6
100
AcDbCircle
 10
1415.809449
 20
868.550845
 30
0.0
 40
0.8134055116800001
  0
CIRCLE
  5
21C
330
1F
100
AcDbEntity
  8
dxfile
  6
Continuous
 62
     6
100
AcDbCircle
 10
1513.315438
 20
848.503789
 30
0.0
 40
1.34271718656
  0
CIRCLE
  5
21D
330
1F
100
AcDbEntity
  8
dxfile
  6
Continuous
 62
     6
100
AcDbCircle
 10
1486.987416
 20
853.174889
 30
0.0
 40
0.4246455244799999
  0
CIRCLE
  5
21E
330
1F
100
AcDbEntity
  8
dxfile
  6
Continuous
 62
     6
100
AcDbCircle
 10
1435.426876
 20
855.632052
 30
0.0
 40
0.22528142848
  0
LINE
  5
21F
330
1F
100
AcDbEntity
  8
dxfile
  6
Continuous
 62
     3
100
AcDbLine
 10
1340.0132
 20
994.831467
 30
0.0
 11
1310.108585
 21
994.831467
 31
0.0
  0
LINE
  5
220
330
1F
100
AcDbEntity
  8
dxfile
  6
Continuous
 62
     6
100
AcDbLine
 10
1310.108585
 20
992.831467
 30
0.0
 11
1340.023168
 21
992.831467
 31
0.0
  0
LINE
  5
221
330
1F
100
AcDbEntity
  8
dxfile
  6
Continuous
 62
     3
100
AcDbLine
 10
1310.108585
 20
994.831467
 30
0.0
 11
1310.108585
 21
992.831467
 31
0.0
  0
LINE
  5
222
330
1F
100
AcDbEntity
  8
dxfile
  6
Continuous
 62
     3
100
AcDbLine
 10
1340.0132
 20
994.831467
 30
0.0
 11
1340.0132
 21
992.831467
 31
0.0
  0
LINE
  5
223
330
1F
100
AcDbEntity
  8
dxfile
  6
Continuous
 62
     2
100
AcDbLine
 10
1455.08681
 20
755.916112
 30
0.0
 11
1455.08681
 21
640.730405
 31
0.0
  0
LINE
  5
224
330
1F
100
AcDbEntity
  8
dxfile
  6
Continuous
 62
     2
100
AcDbLine
 10
1465.08681
 20
755.916112
 30
0.0
 11
1465.08681
 21
640.730405
 31
0.0
  0
LINE
  5
225
330
1F
100
AcDbEntity
  8
dxfile
  6
Continuous
 62
     2
100
AcDbLine
 10
1305.08681
 20
875.273879
 30
0.0
 11
1305.08681
 21
640.730405
 31
0.0
  0
LINE
  5
226
330
1F
100
AcDbEntity
  8
dxfile
  6
Continuous
 62
     2
100
AcDbLine
 10
1455.08681
 20
755.916112
 30
0.0
 11
1502.972429
 21
755.916112
 31
0.0
  0
LINE
  5
227
330
1F
100
AcDbEntity
  8
dxfile
  6
Continuous
 62
     2
100
AcDbLine
 10
1502.972429
 20
840.382692
 30
0.0
 11
1502.972429
 21
755.916112
 31
0.0
  0
LINE
  5
228
330
1F
100
AcDbEntity
  8
dxfile
  6
Continuous
 62
     6
100
AcDbLine
 10
1499.317088
 20
755.916112
 30
0.0
 11
1395.987198
 21
859.246002
 31
0.0
  0
LINE
  5
229
330
1F
100
AcDbEntity
  8
dxfile
  6
Continuous
 62
     2
100
AcDbLine
 10
1305.08681
 20
875.273879
 30
0.0
 11
1502.972429
 21
840.381989
 31
0.0
  0
LINE
  5
22A
330
1F
100
AcDbEntity
  8
dxfile
  6
PLine2
 62
     3
100
AcDbLine
 10
1280.08681
 20
925.223595
 30
0.0
 11
1280.08681
 21
637.508002
 31
0.0
  0
LINE
  5
22B
330
1F
100
AcDbEntity
  8
dxfile
  6
Continuous
 62
     6
100
AcDbLine
 10
1403.204883
 20
857.973354
 30
0.0
 11
1502.972429
 21
758.205809
 31
0.0
  0
LINE
  5
22C
330
1F
100
AcDbEntity
  8
dxfile
  6
Continuous
 62
     6
100
AcDbLine
 10
1409.391471
 20
856.882513
 30
0.0
 11
1502.972429
 21
763.301555
 31
0.0
  0
LINE
  5
22D
330
1F
100
AcDbEntity
  8
dxfile
  6
Continuous
 62
     4
100
AcDbLine
 10
1382.809587
 20
991.223595
 30
0.0
 11
1296.15698
 21
991.223595
 31
0.0
  0
LINE
  5
22E
330
1F
100
AcDbEntity
  8
dxfile
  6
Continuous
 62
     4
100
AcDbLine
 10
1382.809587
 20
987.223595
 30
0.0
 11
1296.15698
 21
987.223595
 31
0.0
  0
LINE
  5
22F
330
1F
100
AcDbEntity
  8
dxfile
  6
Continuous
 62
     4
100
AcDbLine
 10
1407.08681
 20
951.223595
 30
0.0
 11
1392.933227
 21
984.526142
 31
0.0
  0
LINE
  5
230
330
1F
100
AcDbEntity
  8
dxfile
  6
Continuous
 62
     4
100
AcDbLine
 10
1402.740547
 20
951.223595
 30
0.0
 11
1389.251904
 21
982.96158
 31
0.0
  0
LINE
  5
231
330
1F
100
AcDbEntity
  8
dxfile
  6
Continuous
 62
     4
100
AcDbLine
 10
1407.08681
 20
951.223595
 30
0.0
 11
1402.740547
 21
951.223595
 31
0.0
  0
LINE
  5
232
330
1F
100
AcDbEntity
  8
dxfile
  6
Continuous
 62
     3
100
AcDbLine
 10
1329.08681
 20
967.729955
 30
0.0
 11
1329.08681
 21
955.831467
 31
0.0
  0
LINE
  5
233
330
1F
100
AcDbEntity
  8
dxfile
  6
Continuous
 62
     3
100
AcDbLine
 10
1329.08681
 20
955.831467
 30
0.0
 11
1328.08681
 21
954.831467
 31
0.0
  0
LINE
  5
234
330
1F
100
AcDbEntity
  8
dxfile
  6
Continuous
 62
     3
100
AcDbLine
 10
1321.08681
 20
967.729955
 30
0.0
 11
1321.08681
 21
955.831467
 31
0.0
  0
LINE
  5
235
330
1F
100
AcDbEntity
  8
dxfile
  6
Continuous
 62
     3
100
AcDbLine
 10
1322.08681
 20
954.831467
 30
0.0
 11
1328.08681
 21
954.831467
 31
0.0
  0
LINE
  5
236
330
1F
100
AcDbEntity
  8
dxfile
  6
Continuous
 62
     3
100
AcDbLine
 10
1321.08681
 20
955.831467
 30
0.0
 11
1322.08681
 21
954.831467
 31
0.0
  0
LINE
  5
237
330
1F
100
AcDbEntity
  8
dxfile
  6
Continuous
 62
     3
100
AcDbLine
 10
1333.086809
 20
973.223595
 30
0.0
 11
1333.086809
 21
968.446165
 31
0.0
  0
LINE
  5
238
330
1F
100
AcDbEntity
  8
dxfile
  6
Continuous
 62
     3
100
AcDbLine
 10
1317.08681
 20
968.446165
 30
0.0
 11
1317.08681
 21
973.223595
 31
0.0
  0
LINE
  5
239
330
1F
100
AcDbEntity
  8
dxfile
  6
Continuous
 62
     3
100
AcDbLine
 10
1317.08681
 20
973.223595
 30
0.0
 11
1333.086809
 21
973.223595
 31
0.0
  0
LINE
  5
23A
330
1F
100
AcDbEntity
  8
dxfile
  6
Continuous
 62
     3
100
AcDbLine
 10
1317.08681
 20
968.446165
 30
0.0
 11
1318.338338
 21
967.723596
 31
0.0
  0
LINE
  5
23B
330
1F
100
AcDbEntity
  8
dxfile
  6
Continuous
 62
     3
100
AcDbLine
 10
1318.338338
 20
967.723596
 30
0.0
 11
1325.08681
 21
967.723596
 31
0.0
  0
LINE
  5
23C
330
1F
100
AcDbEntity
  8
dxfile
  6
Continuous
 62
     3
100
AcDbLine
 10
1321.08681
 20
973.223595
 30
0.0
 11
1321.08681
 21
968.409887
 31
0.0
  0
ARC
  5
23D
330
1F
100
AcDbEntity
  8
dxfile
  6
Continuous
 62
     3
100
AcDbCircle
 10
1325.08681
 20
979.723595
 30
0.0
 40
11.9999995200061
100
AcDbArc
 50
250.528779
 51
270.0
  0
ARC
  5
23E
330
1F
100
AcDbEntity
  8
dxfile
  6
Continuous
 62
     3
100
AcDbCircle
 10
1319.157142
 20
970.779595
 30
0.0
 40
3.05599987776958
100
AcDbArc
 50
270.0
 51
309.156132
  0
LINE
  5
23F
330
1F
100
AcDbEntity
  8
dxfile
  6
Continuous
 62
     3
100
AcDbLine
 10
1333.086809
 20
968.446165
 30
0.0
 11
1331.835282
 21
967.723596
 31
0.0
  0
LINE
  5
240
330
1F
100
AcDbEntity
  8
dxfile
  6
Continuous
 62
     3
100
AcDbLine
 10
1331.835282
 20
967.723596
 30
0.0
 11
1325.08681
 21
967.723596
 31
0.0
  0
ARC
  5
241
330
1F
100
AcDbEntity
  8
dxfile
  6
Continuous
 62
     3
100
AcDbCircle
 10
1325.08681
 20
979.723595
 30
0.0
 40
11.9999995200061
100
AcDbArc
 50
270.0
 51
289.471221
  0
ARC
  5
242
330
1F
100
AcDbEntity
  8
dxfile
  6
Continuous
 62
     3
100
AcDbCircle
 10
1331.016477
 20
970.779595
 30
0.0
 40
3.05599987776958
100
AcDbArc
 50
230.843868
 51
270.0
  0
LINE
  5
243
330
1F
100
AcDbEntity
  8
dxfile
  6
Continuous
 62
     3
100
AcDbLine
 10
1329.08681
 20
973.223595
 30
0.0
 11
1329.08681
 21
968.409887
 31
0.0
  0
LINE
  5
244
330
1F
100
AcDbEntity
  8
dxfile
  6
Continuous
 62
     3
100
AcDbLine
 10
1317.08681
 20
994.831469
 30
0.0
 11
1317.08681
 21
999.608899
 31
0.0
  0
LINE
  5
245
330
1F
100
AcDbEntity
  8
dxfile
  6
Continuous
 62
     3
100
AcDbLine
 10
1317.08681
 20
999.608899
 30
0.0
 11
1318.338338
 21
1000.331469
 31
0.0
  0
LINE
  5
246
330
1F
100
AcDbEntity
  8
dxfile
  6
Continuous
 62
     3
100
AcDbLine
 10
1318.338338
 20
1000.331469
 30
0.0
 11
1325.08681
 21
1000.331469
 31
0.0
  0
LINE
  5
247
330
1F
100
AcDbEntity
  8
dxfile
  6
Continuous
 62
     3
100
AcDbLine
 10
1321.08681
 20
994.831469
 30
0.0
 11
1321.08681
 21
999.645178
 31
0.0
  0
ARC
  5
248
330
1F
100
AcDbEntity
  8
dxfile
  6
Continuous
 62
     3
100
AcDbCircle
 10
1325.08681
 20
988.33147
 30
0.0
 40
11.99999951996459
100
AcDbArc
 50
90.0
 51
109.471221
  0
ARC
  5
249
330
1F
100
AcDbEntity
  8
dxfile
  6
Continuous
 62
     3
100
AcDbCircle
 10
1319.157142
 20
997.275469
 30
0.0
 40
3.05599987778014
100
AcDbArc
 50
50.843868
 51
90.0
  0
LINE
  5
24A
330
1F
100
AcDbEntity
  8
dxfile
  6
Continuous
 62
     3
100
AcDbLine
 10
1333.086809
 20
994.831469
 30
0.0
 11
1333.086809
 21
999.608899
 31
0.0
  0
LINE
  5
24B
330
1F
100
AcDbEntity
  8
dxfile
  6
Continuous
 62
     3
100
AcDbLine
 10
1333.086809
 20
999.608899
 30
0.0
 11
1331.835282
 21
1000.331469
 31
0.0
  0
LINE
  5
24C
330
1F
100
AcDbEntity
  8
dxfile
  6
Continuous
 62
     3
100
AcDbLine
 10
1331.835282
 20
1000.331469
 30
0.0
 11
1325.08681
 21
1000.331469
 31
0.0
  0
ARC
  5
24D
330
1F
100
AcDbEntity
  8
dxfile
  6
Continuous
 62
     3
100
AcDbCircle
 10
1325.08681
 20
988.33147
 30
0.0
 40
11.99999952017808
100
AcDbArc
 50
70.528779
 51
90.0
  0
ARC
  5
24E
330
1F
100
AcDbEntity
  8
dxfile
  6
Continuous
 62
     3
100
AcDbCircle
 10
1331.016477
 20
997.275469
 30
0.0
 40
3.055999877788684
100
AcDbArc
 50
90.0
 51
129.156132
  0
LINE
  5
24F
330
1F
100
AcDbEntity
  8
dxfile
  6
Continuous
 62
     3
100
AcDbLine
 10
1329.08681
 20
994.831469
 30
0.0
 11
1329.08681
 21
999.645178
 31
0.0
  0
LINE
  5
250
330
1F
100
AcDbEntity
  8
dxfile
  6
Continuous
 62
     3
100
AcDbLine
 10
1333.086809
 20
994.831467
 30
0.0
 11
1317.08681
 21
994.831467
 31
0.0
  0
LINE
  5
251
330
1F
100
AcDbEntity
  8
dxfile
  6
Continuous
 62
     6
100
AcDbLine
 10
1340.0132
 20
992.831467
 30
0.0
 11
1310.108585
 21
992.831467
 31
0.0
  0
LINE
  5
252
330
1F
100
AcDbEntity
  8
dxfile
  6
Continuous
 62
     6
100
AcDbLine
 10
1310.108585
 20
992.831467
 30
0.0
 11
1310.108585
 21
991.223595
 31
0.0
  0
LINE
  5
253
330
1F
100
AcDbEntity
  8
dxfile
  6
Continuous
 62
     6
100
AcDbLine
 10
1340.0132
 20
991.223595
 30
0.0
 11
1340.0132
 21
992.831467
 31
0.0
  0
LINE
  5
254
330
1F
100
AcDbEntity
  8
dxfile
  6
Continuous
 62
     6
100
AcDbLine
 10
1340.0132
 20
992.331467
 30
0.0
 11
1310.108585
 21
992.331467
 31
0.0
  0
LINE
  5
255
330
1F
100
AcDbEntity
  8
dxfile
  6
Continuous
 62
     6
100
AcDbLine
 10
1340.0132
 20
991.831467
 30
0.0
 11
1310.108585
 21
991.831467
 31
0.0
  0
LINE
  5
256
330
1F
100
AcDbEntity
  8
dxfile
  6
Continuous
 62
     3
100
AcDbLine
 10
1305.08681
 20
927.723595
 30
0.0
 11
1298.11981
 21
927.723595
 31
0.0
  0
LINE
  5
257
330
1F
100
AcDbEntity
  8
dxfile
  6
Continuous
 62
     6
100
AcDbLine
 10
1298.09581
 20
926.691595
 30
0.0
 11
1298.09581
 21
948.217595
 31
0.0
  0
LINE
  5
258
330
1F
100
AcDbEntity
  8
dxfile
  6
Continuous
 62
     3
100
AcDbLine
 10
1298.11981
 20
926.691595
 30
0.0
 11
1298.11981
 21
927.723595
 31
0.0
  0
LINE
  5
259
330
1F
100
AcDbEntity
  8
dxfile
  6
Continuous
 62
     6
100
AcDbLine
 10
1291.09581
 20
948.217595
 30
0.0
 11
1291.09581
 21
945.217595
 31
0.0
  0
LINE
  5
25A
330
1F
100
AcDbEntity
  8
dxfile
  6
Continuous
 62
     6
100
AcDbLine
 10
1275.11981
 20
938.191595
 30
0.0
 11
1275.11981
 21
935.191595
 31
0.0
  0
LINE
  5
25B
330
1F
100
AcDbEntity
  8
dxfile
  6
Continuous
 62
     6
100
AcDbLine
 10
1295.09581
 20
945.217595
 30
0.0
 11
1291.09581
 21
945.217595
 31
0.0
  0
LINE
  5
25C
330
1F
100
AcDbEntity
  8
dxfile
  6
Continuous
 62
     6
100
AcDbLine
 10
1295.09581
 20
945.217595
 30
0.0
 11
1295.09581
 21
938.191595
 31
0.0
  0
LINE
  5
25D
330
1F
100
AcDbEntity
  8
dxfile
  6
Continuous
 62
     6
100
AcDbLine
 10
1291.09581
 20
946.217595
 30
0.0
 11
1292.09581
 21
945.217595
 31
0.0
  0
LINE
  5
25E
330
1F
100
AcDbEntity
  8
dxfile
  6
Continuous
 62
     6
100
AcDbLine
 10
1293.09581
 20
933.217595
 30
0.0
 11
1282.09581
 21
933.217595
 31
0.0
  0
LINE
  5
25F
330
1F
100
AcDbEntity
  8
dxfile
  6
Continuous
 62
     6
100
AcDbLine
 10
1280.66581
 20
926.647595
 30
0.0
 11
1276.59081
 21
930.722595
 31
0.0
  0
LINE
  5
260
330
1F
100
AcDbEntity
  8
dxfile
  6
Continuous
 62
     6
100
AcDbLine
 10
1282.09581
 20
933.217595
 30
0.0
 11
1282.09581
 21
926.647595
 31
0.0
  0
LINE
  5
261
330
1F
100
AcDbEntity
  8
dxfile
  6
Continuous
 62
     6
100
AcDbLine
 10
1293.09581
 20
933.217595
 30
0.0
 11
1293.09581
 21
926.697595
 31
0.0
  0
LINE
  5
262
330
1F
100
AcDbEntity
  8
dxfile
  6
Continuous
 62
     6
100
AcDbLine
 10
1282.09581
 20
932.217595
 30
0.0
 11
1276.59581
 21
926.717595
 31
0.0
  0
LINE
  5
263
330
1F
100
AcDbEntity
  8
dxfile
  6
Continuous
 62
     6
100
AcDbLine
 10
1275.11981
 20
938.191595
 30
0.0
 11
1295.09581
 21
938.191595
 31
0.0
  0
LINE
  5
264
330
1F
100
AcDbEntity
  8
dxfile
  6
Continuous
 62
     3
100
AcDbLine
 10
1285.11981
 20
926.691595
 30
0.0
 11
1276.61981
 21
926.691595
 31
0.0
  0
LINE
  5
265
330
1F
100
AcDbEntity
  8
dxfile
  6
Continuous
 62
     3
100
AcDbLine
 10
1276.58681
 20
933.723595
 30
0.0
 11
1276.58681
 21
926.723595
 31
0.0
  0
LINE
  5
266
330
1F
100
AcDbEntity
  8
dxfile
  6
Continuous
 62
     6
100
AcDbLine
 10
1291.09581
 20
948.217595
 30
0.0
 11
1298.09581
 21
948.217595
 31
0.0
  0
LINE
  5
267
330
1F
100
AcDbEntity
  8
dxfile
  6
Continuous
 62
     6
100
AcDbLine
 10
1298.09581
 20
945.217595
 30
0.0
 11
1295.09581
 21
948.217595
 31
0.0
  0
LINE
  5
268
330
1F
100
AcDbEntity
  8
dxfile
  6
Continuous
 62
     6
100
AcDbLine
 10
1295.09581
 20
942.217595
 30
0.0
 11
1298.09581
 21
939.217595
 31
0.0
  0
LINE
  5
269
330
1F
100
AcDbEntity
  8
dxfile
  6
Continuous
 62
     6
100
AcDbLine
 10
1298.09581
 20
927.217595
 30
0.0
 11
1293.09581
 21
932.217595
 31
0.0
  0
LINE
  5
26A
330
1F
100
AcDbEntity
  8
dxfile
  6
Continuous
 62
     6
100
AcDbLine
 10
1295.09581
 20
939.217595
 30
0.0
 11
1298.09581
 21
942.217595
 31
0.0
  0
LINE
  5
26B
330
1F
100
AcDbEntity
  8
dxfile
  6
Continuous
 62
     6
100
AcDbLine
 10
1295.09581
 20
945.217595
 30
0.0
 11
1298.09581
 21
948.217595
 31
0.0
  0
LINE
  5
26C
330
1F
100
AcDbEntity
  8
dxfile
  6
Continuous
 62
     6
100
AcDbLine
 10
1298.09581
 20
936.217595
 30
0.0
 11
1293.09581
 21
931.217595
 31
0.0
  0
LINE
  5
26D
330
1F
100
AcDbEntity
  8
dxfile
  6
Continuous
 62
     6
100
AcDbLine
 10
1298.09581
 20
930.217595
 30
0.0
 11
1294.52081
 21
926.642595
 31
0.0
  0
LINE
  5
26E
330
1F
100
AcDbEntity
  8
dxfile
  6
Continuous
 62
     3
100
AcDbLine
 10
1298.11981
 20
926.691595
 30
0.0
 11
1285.11981
 21
926.691595
 31
0.0
  0
LINE
  5
26F
330
1F
100
AcDbEntity
  8
dxfile
  6
Continuous
 62
     3
100
AcDbLine
 10
1343.08681
 20
973.223595
 30
0.0
 11
1312.08681
 21
973.223595
 31
0.0
  0
LINE
  5
270
330
1F
100
AcDbEntity
  8
dxfile
  6
Continuous
 62
     3
100
AcDbLine
 10
1343.08681
 20
973.223595
 30
0.0
 11
1343.08681
 21
967.223595
 31
0.0
  0
LINE
  5
271
330
1F
100
AcDbEntity
  8
dxfile
  6
Continuous
 62
     3
100
AcDbLine
 10
1343.08681
 20
967.223595
 30
0.0
 11
1340.08681
 21
967.223595
 31
0.0
  0
LINE
  5
272
330
1F
100
AcDbEntity
  8
dxfile
  6
Continuous
 62
     3
100
AcDbLine
 10
1340.08681
 20
967.223595
 30
0.0
 11
1340.08681
 21
966.223595
 31
0.0
  0
LINE
  5
273
330
1F
100
AcDbEntity
  8
dxfile
  6
Continuous
 62
     3
100
AcDbLine
 10
1340.08681
 20
966.223595
 30
0.0
 11
1343.08681
 21
966.223595
 31
0.0
  0
LINE
  5
274
330
1F
100
AcDbEntity
  8
dxfile
  6
Continuous
 62
     3
100
AcDbLine
 10
1312.08681
 20
973.223595
 30
0.0
 11
1307.08681
 21
973.223595
 31
0.0
  0
LINE
  5
275
330
1F
100
AcDbEntity
  8
dxfile
  6
Continuous
 62
     3
100
AcDbLine
 10
1307.08681
 20
966.223595
 30
0.0
 11
1307.08681
 21
956.223595
 31
0.0
  0
LINE
  5
276
330
1F
100
AcDbEntity
  8
dxfile
  6
Continuous
 62
     3
100
AcDbLine
 10
1310.08681
 20
966.223595
 30
0.0
 11
1307.08681
 21
966.223595
 31
0.0
  0
LINE
  5
277
330
1F
100
AcDbEntity
  8
dxfile
  6
Continuous
 62
     3
100
AcDbLine
 10
1310.08681
 20
967.223595
 30
0.0
 11
1310.08681
 21
966.223595
 31
0.0
  0
LINE
  5
278
330
1F
100
AcDbEntity
  8
dxfile
  6
Continuous
 62
     3
100
AcDbLine
 10
1310.08681
 20
967.223595
 30
0.0
 11
1307.08681
 21
967.223595
 31
0.0
  0
LINE
  5
279
330
1F
100
AcDbEntity
  8
dxfile
  6
Continuous
 62
     3
100
AcDbLine
 10
1307.08681
 20
967.223595
 30
0.0
 11
1307.08681
 21
973.223595
 31
0.0
  0
LINE
  5
27A
330
1F
100
AcDbEntity
  8
dxfile
  6
Continuous
 62
     3
100
AcDbLine
 10
1307.08681
 20
956.223595
 30
0.0
 11
1307.08681
 21
925.223595
 31
0.0
  0
ARC
  5
27B
330
1F
100
AcDbEntity
  8
dxfile
  6
Continuous
 62
     3
100
AcDbCircle
 10
1344.78681
 20
974.923595
 30
0.0
 40
0.3
100
AcDbArc
 50
0.0
 51
90.0
  0
LINE
  5
27C
330
1F
100
AcDbEntity
  8
dxfile
  6
Continuous
 62
     3
100
AcDbLine
 10
1345.08681
 20
974.923595
 30
0.0
 11
1345.08681
 21
965.523595
 31
0.0
  0
ARC
  5
27D
330
1F
100
AcDbEntity
  8
dxfile
  6
Continuous
 62
     3
100
AcDbCircle
 10
1344.78681
 20
965.523595
 30
0.0
 40
0.3
100
AcDbArc
 50
270.0
 51
0.0
  0
LINE
  5
27E
330
1F
100
AcDbEntity
  8
dxfile
  6
Continuous
 62
     3
100
AcDbLine
 10
1344.78681
 20
965.223595
 30
0.0
 11
1343.38681
 21
965.223595
 31
0.0
  0
LINE
  5
27F
330
1F
100
AcDbEntity
  8
dxfile
  6
Continuous
 62
     3
100
AcDbLine
 10
1343.08681
 20
966.223595
 30
0.0
 11
1343.08681
 21
965.523595
 31
0.0
  0
ARC
  5
280
330
1F
100
AcDbEntity
  8
dxfile
  6
Continuous
 62
     3
100
AcDbCircle
 10
1343.38681
 20
965.523595
 30
0.0
 40
0.3
100
AcDbArc
 50
180.0
 51
270.0
  0
LINE
  5
281
330
1F
100
AcDbEntity
  8
dxfile
  6
Continuous
 62
     3
100
AcDbLine
 10
1344.78681
 20
975.223595
 30
0.0
 11
1305.38681
 21
975.223595
 31
0.0
  0
ARC
  5
282
330
1F
100
AcDbEntity
  8
dxfile
  6
Continuous
 62
     3
100
AcDbCircle
 10
1305.38681
 20
974.923595
 30
0.0
 40
0.3
100
AcDbArc
 50
90.0
 51
180.0
  0
LINE
  5
283
330
1F
100
AcDbEntity
  8
dxfile
  6
Continuous
 62
     3
100
AcDbLine
 10
1305.08681
 20
925.223595
 30
0.0
 11
1275.38681
 21
925.223595
 31
0.0
  0
ARC
  5
284
330
1F
100
AcDbEntity
  8
dxfile
  6
Continuous
 62
     3
100
AcDbCircle
 10
1275.38681
 20
925.523595
 30
0.0
 40
0.3
100
AcDbArc
 50
180.0
 51
270.0
  0
LINE
  5
285
330
1F
100
AcDbEntity
  8
dxfile
  6
Continuous
 62
     3
100
AcDbLine
 10
1275.08681
 20
925.523595
 30
0.0
 11
1275.08681
 21
934.923595
 31
0.0
  0
ARC
  5
286
330
1F
100
AcDbEntity
  8
dxfile
  6
Continuous
 62
     3
100
AcDbCircle
 10
1275.38681
 20
934.923595
 30
0.0
 40
0.3
100
AcDbArc
 50
90.0
 51
180.0
  0
LINE
  5
287
330
1F
100
AcDbEntity
  8
dxfile
  6
Continuous
 62
     3
100
AcDbLine
 10
1275.38681
 20
935.223595
 30
0.0
 11
1277.78681
 21
935.223595
 31
0.0
  0
ARC
  5
288
330
1F
100
AcDbEntity
  8
dxfile
  6
Continuous
 62
     3
100
AcDbCircle
 10
1277.78681
 20
934.923595
 30
0.0
 40
0.3
100
AcDbArc
 50
0.0
 51
90.0
  0
LINE
  5
289
330
1F
100
AcDbEntity
  8
dxfile
  6
Continuous
 62
     3
100
AcDbLine
 10
1276.58681
 20
933.723595
 30
0.0
 11
1277.78681
 21
933.723595
 31
0.0
  0
LINE
  5
28A
330
1F
100
AcDbEntity
  8
dxfile
  6
Continuous
 62
     3
100
AcDbLine
 10
1278.08681
 20
934.923595
 30
0.0
 11
1278.08681
 21
934.023595
 31
0.0
  0
ARC
  5
28B
330
1F
100
AcDbEntity
  8
dxfile
  6
Continuous
 62
     3
100
AcDbCircle
 10
1277.78681
 20
934.023595
 30
0.0
 40
0.3
100
AcDbArc
 50
270.0
 51
0.0
  0
LINE
  5
28C
330
1F
100
AcDbEntity
  8
dxfile
  6
Continuous
 62
     3
100
AcDbLine
 10
1307.08681
 20
956.223595
 30
0.0
 11
1307.08681
 21
925.215657
 31
0.0
  0
LINE
  5
28D
330
1F
100
AcDbEntity
  8
dxfile
  6
Continuous
 62
     6
100
AcDbLine
 10
1275.12181
 20
938.191595
 30
0.0
 11
1282.09581
 21
931.217595
 31
0.0
  0
LINE
  5
28E
330
1F
100
AcDbEntity
  8
dxfile
  6
Continuous
 62
     6
100
AcDbLine
 10
1282.06981
 20
938.191595
 30
0.0
 11
1278.09581
 21
934.217595
 31
0.0
  0
LINE
  5
28F
330
1F
100
AcDbEntity
  8
dxfile
  6
Continuous
 62
     6
100
AcDbLine
 10
1281.12181
 20
938.191595
 30
0.0
 11
1286.09581
 21
933.217595
 31
0.0
  0
LINE
  5
290
330
1F
100
AcDbEntity
  8
dxfile
  6
Continuous
 62
     6
100
AcDbLine
 10
1288.06981
 20
938.191595
 30
0.0
 11
1283.09581
 21
933.217595
 31
0.0
  0
LINE
  5
291
330
1F
100
AcDbEntity
  8
dxfile
  6
Continuous
 62
     6
100
AcDbLine
 10
1292.09581
 20
933.217595
 30
0.0
 11
1287.12181
 21
938.191595
 31
0.0
  0
LINE
  5
292
330
1F
100
AcDbEntity
  8
dxfile
  6
Continuous
 62
     6
100
AcDbLine
 10
1294.06981
 20
938.191595
 30
0.0
 11
1289.09581
 21
933.217595
 31
0.0
  0
LINE
  5
293
330
1F
100
AcDbEntity
  8
dxfile
  6
Continuous
 62
     6
100
AcDbLine
 10
1298.09581
 20
933.217595
 30
0.0
 11
1293.12181
 21
938.191595
 31
0.0
  0
LINE
  5
294
330
1F
100
AcDbEntity
  8
dxfile
  6
Continuous
 62
     6
100
AcDbLine
 10
1293.08681
 20
944.991595
 30
0.0
 11
1293.08681
 21
938.191595
 31
0.0
  0
LINE
  5
295
330
1F
100
AcDbEntity
  8
dxfile
  6
Continuous
 62
     3
100
AcDbLine
 10
1305.08681
 20
927.723595
 30
0.0
 11
1305.08681
 21
975.223595
 31
0.0
  0
LINE
  5
296
330
1F
100
AcDbEntity
  8
dxfile
  6
Continuous
 62
     3
100
AcDbLine
 10
1371.62081
 20
901.217595
 30
0.0
 11
1361.09581
 21
901.217595
 31
0.0
  0
LINE
  5
297
330
1F
100
AcDbEntity
  8
dxfile
  6
Continuous
 62
     3
100
AcDbLine
 10
1322.09581
 20
901.217595
 30
0.0
 11
1312.14281
 21
901.217595
 31
0.0
  0
LINE
  5
298
330
1F
100
AcDbEntity
  8
dxfile
  6
Continuous
 62
     3
100
AcDbLine
 10
1312.14281
 20
903.223595
 30
0.0
 11
1312.14281
 21
901.217595
 31
0.0
  0
LINE
  5
299
330
1F
100
AcDbEntity
  8
dxfile
  6
Continuous
 62
     3
100
AcDbLine
 10
1418.08681
 20
903.546377
 30
0.0
 11
1418.08681
 21
891.723595
 31
0.0
  0
LINE
  5
29A
330
1F
100
AcDbEntity
  8
dxfile
  6
Continuous
 62
     3
100
AcDbLine
 10
1406.58681
 20
890.223595
 30
0.0
 11
1419.78681
 21
890.223595
 31
0.0
  0
ARC
  5
29B
330
1F
100
AcDbEntity
  8
dxfile
  6
Continuous
 62
     3
100
AcDbCircle
 10
1419.78681
 20
890.523595
 30
0.0
 40
0.3
100
AcDbArc
 50
270.0
 51
0.0
  0
LINE
  5
29C
330
1F
100
AcDbEntity
  8
dxfile
  6
Continuous
 62
     3
100
AcDbLine
 10
1420.08681
 20
890.523595
 30
0.0
 11
1420.08681
 21
904.972013
 31
0.0
  0
ARC
  5
29D
330
1F
100
AcDbEntity
  8
dxfile
  6
Continuous
 62
     3
100
AcDbCircle
 10
1419.78681
 20
904.972013
 30
0.0
 40
0.3
100
AcDbArc
 50
0.0
 51
79.967
  0
LINE
  5
29E
330
1F
100
AcDbEntity
  8
dxfile
  6
Continuous
 62
     3
100
AcDbLine
 10
1418.08681
 20
891.723595
 30
0.0
 11
1405.38681
 21
891.723595
 31
0.0
  0
ARC
  5
29F
330
1F
100
AcDbEntity
  8
dxfile
  6
Continuous
 62
     3
100
AcDbCircle
 10
1405.38681
 20
891.423595
 30
0.0
 40
0.3
100
AcDbArc
 50
90.0
 51
180.0
  0
LINE
  5
2A0
330
1F
100
AcDbEntity
  8
dxfile
  6
Continuous
 62
     3
100
AcDbLine
 10
1405.08681
 20
891.423595
 30
0.0
 11
1405.08681
 21
875.523595
 31
0.0
  0
ARC
  5
2A1
330
1F
100
AcDbEntity
  8
dxfile
  6
Continuous
 62
     3
100
AcDbCircle
 10
1405.38681
 20
875.523595
 30
0.0
 40
0.3
100
AcDbArc
 50
180.0
 51
270.0
  0
LINE
  5
2A2
330
1F
100
AcDbEntity
  8
dxfile
  6
Continuous
 62
     3
100
AcDbLine
 10
1405.38681
 20
875.223595
 30
0.0
 11
1406.28681
 21
875.223595
 31
0.0
  0
LINE
  5
2A3
330
1F
100
AcDbEntity
  8
dxfile
  6
Continuous
 62
     3
100
AcDbLine
 10
1371.62081
 20
901.217595
 30
0.0
 11
1371.62081
 21
903.223595
 31
0.0
  0
LINE
  5
2A4
330
1F
100
AcDbEntity
  8
dxfile
  6
Continuous
 62
     3
100
AcDbLine
 10
1361.91881
 20
903.223595
 30
0.0
 11
1360.41881
 21
904.723595
 31
0.0
  0
LINE
  5
2A5
330
1F
100
AcDbEntity
  8
dxfile
  6
Continuous
 62
     3
100
AcDbLine
 10
1361.09581
 20
901.217595
 30
0.0
 11
1357.58981
 21
904.723595
 31
0.0
  0
LINE
  5
2A6
330
1F
100
AcDbEntity
  8
dxfile
  6
Continuous
 62
     3
100
AcDbLine
 10
1367.08681
 20
903.223595
 30
0.0
 11
1367.08681
 21
903.723595
 31
0.0
  0
ARC
  5
2A7
330
1F
100
AcDbEntity
  8
dxfile
  6
Continuous
 62
     3
100
AcDbCircle
 10
1368.08681
 20
903.723595
 30
0.0
 40
1.0
100
AcDbArc
 50
90.0
 51
180.0
  0
LINE
  5
2A8
330
1F
100
AcDbEntity
  8
dxfile
  6
Continuous
 62
     3
100
AcDbLine
 10
1306.58681
 20
904.723595
 30
0.0
 11
1306.58681
 21
922.080607
 31
0.0
  0
LINE
  5
2A9
330
1F
100
AcDbEntity
  8
dxfile
  6
Continuous
 62
     3
100
AcDbLine
 10
1372.67881
 20
906.654595
 30
0.0
 11
1311.13481
 21
906.654595
 31
0.0
  0
LINE
  5
2AA
330
1F
100
AcDbEntity
  8
dxfile
  6
Continuous
 62
     3
100
AcDbLine
 10
1311.13481
 20
904.723595
 30
0.0
 11
1311.13481
 21
906.654595
 31
0.0
  0
LINE
  5
2AB
330
1F
100
AcDbEntity
  8
dxfile
  6
Continuous
 62
     3
100
AcDbLine
 10
1368.11981
 20
904.723595
 30
0.0
 11
1316.122708
 21
904.723595
 31
0.0
  0
LINE
  5
2AC
330
1F
100
AcDbEntity
  8
dxfile
  6
Continuous
 62
     3
100
AcDbLine
 10
1306.58681
 20
904.723595
 30
0.0
 11
1316.08681
 21
904.723595
 31
0.0
  0
ARC
  5
2AD
330
1F
100
AcDbEntity
  8
dxfile
  6
Continuous
 62
     3
100
AcDbCircle
 10
1316.08681
 20
903.723595
 30
0.0
 40
1.0
100
AcDbArc
 50
0.0
 51
90.0
  0
LINE
  5
2AE
330
1F
100
AcDbEntity
  8
dxfile
  6
Continuous
 62
     3
100
AcDbLine
 10
1322.09581
 20
901.217595
 30
0.0
 11
1325.60181
 21
904.723595
 31
0.0
  0
LINE
  5
2AF
330
1F
100
AcDbEntity
  8
dxfile
  6
Continuous
 62
     3
100
AcDbLine
 10
1317.08681
 20
903.223595
 30
0.0
 11
1317.08681
 21
903.723595
 31
0.0
  0
LINE
  5
2B0
330
1F
100
AcDbEntity
  8
dxfile
  6
Continuous
 62
     3
100
AcDbLine
 10
1321.101806
 20
903.223595
 30
0.0
 11
1322.600786
 21
904.723595
 31
0.0
  0
LINE
  5
2B1
330
1F
100
AcDbEntity
  8
dxfile
  6
Continuous
 62
     3
100
AcDbLine
 10
1372.67881
 20
904.723595
 30
0.0
 11
1372.67881
 21
906.654595
 31
0.0
  0
LINE
  5
2B2
330
1F
100
AcDbEntity
  8
dxfile
  6
Continuous
 62
     3
100
AcDbLine
 10
1374.58681
 20
904.723595
 30
0.0
 11
1368.11981
 21
904.723595
 31
0.0
  0
LINE
  5
2B3
330
1F
100
AcDbEntity
  8
dxfile
  6
Continuous
 62
     3
100
AcDbLine
 10
1374.58681
 20
904.723595
 30
0.0
 11
1374.58681
 21
911.242436
 31
0.0
  0
LINE
  5
2B4
330
1F
100
AcDbEntity
  8
dxfile
  6
Continuous
 62
     3
100
AcDbLine
 10
1361.91881
 20
903.223595
 30
0.0
 11
1375.78681
 21
903.223595
 31
0.0
  0
LINE
  5
2B5
330
1F
100
AcDbEntity
  8
dxfile
  6
Continuous
 62
     3
100
AcDbLine
 10
1376.08681
 20
910.977055
 30
0.0
 11
1376.08681
 21
903.523595
 31
0.0
  0
ARC
  5
2B6
330
1F
100
AcDbEntity
  8
dxfile
  6
Continuous
 62
     3
100
AcDbCircle
 10
1375.78681
 20
903.523595
 30
0.0
 40
0.3
100
AcDbArc
 50
270.0
 51
0.0
  0
LINE
  5
2B7
330
1F
100
AcDbEntity
  8
dxfile
  6
Continuous
 62
     3
100
AcDbLine
 10
1321.101806
 20
903.223595
 30
0.0
 11
1305.38681
 21
903.223595
 31
0.0
  0
LINE
  5
2B8
330
1F
100
AcDbEntity
  8
dxfile
  6
Continuous
 62
     3
100
AcDbLine
 10
1305.08681
 20
925.223595
 30
0.0
 11
1305.08681
 21
903.523595
 31
0.0
  0
ARC
  5
2B9
330
1F
100
AcDbEntity
  8
dxfile
  6
Continuous
 62
     3
100
AcDbCircle
 10
1305.38681
 20
903.523595
 30
0.0
 40
0.3
100
AcDbArc
 50
180.0
 51
270.0
  0
LINE
  5
2BA
330
1F
100
AcDbEntity
  8
dxfile
  6
Continuous
 62
     3
100
AcDbLine
 10
1419.839074
 20
905.267425
 30
0.0
 11
1307.08681
 21
925.215657
 31
0.0
  0
LINE
  5
2BB
330
1F
100
AcDbEntity
  8
dxfile
  6
Continuous
 62
     3
100
AcDbLine
 10
1337.19781
 20
885.564595
 30
0.0
 11
1337.19781
 21
904.723595
 31
0.0
  0
LINE
  5
2BC
330
1F
100
AcDbEntity
  8
dxfile
  6
Continuous
 62
     3
100
AcDbLine
 10
1337.19781
 20
885.564595
 30
0.0
 11
1335.19781
 21
885.564595
 31
0.0
  0
LINE
  5
2BD
330
1F
100
AcDbEntity
  8
dxfile
  6
Continuous
 62
     3
100
AcDbLine
 10
1335.19781
 20
885.564595
 30
0.0
 11
1335.19781
 21
904.723595
 31
0.0
  0
LINE
  5
2BE
330
1F
100
AcDbEntity
  8
dxfile
  6
Continuous
 62
     3
100
AcDbLine
 10
1418.08681
 20
903.546377
 30
0.0
 11
1376.08681
 21
910.977055
 31
0.0
  0
LINE
  5
2BF
330
1F
100
AcDbEntity
  8
dxfile
  6
Continuous
 62
     3
100
AcDbLine
 10
1374.58681
 20
911.242436
 30
0.0
 11
1307.761025
 21
923.065314
 31
0.0
  0
LINE
  5
2C0
330
1F
100
AcDbEntity
  8
dxfile
  6
Continuous
 62
     3
100
AcDbLine
 10
1406.58681
 20
890.223595
 30
0.0
 11
1406.58681
 21
875.523595
 31
0.0
  0
ARC
  5
2C1
330
1F
100
AcDbEntity
  8
dxfile
  6
Continuous
 62
     3
100
AcDbCircle
 10
1406.28681
 20
875.523595
 30
0.0
 40
0.3
100
AcDbArc
 50
270.0
 51
0.0
  0
ARC
  5
2C2
330
1F
100
AcDbEntity
  8
dxfile
  6
Continuous
 62
     3
100
AcDbCircle
 10
1307.58681
 20
922.080607
 30
0.0
 40
1.0
100
AcDbArc
 50
79.967
 51
180.0
  0
LINE
  5
2C3
330
1F
100
AcDbEntity
  8
dxfile
  6
Continuous
 62
     4
100
AcDbLine
 10
1350.08681
 20
813.120545
 30
0.0
 11
1350.08681
 21
899.171743
 31
0.0
  0
LINE
  5
2C4
330
1F
100
AcDbEntity
  8
dxfile
  6
Continuous
 62
     4
100
AcDbLine
 10
1350.08681
 20
899.171743
 30
0.0
 11
1340.08681
 21
899.171743
 31
0.0
  0
LINE
  5
2C5
330
1F
100
AcDbEntity
  8
dxfile
  6
Continuous
 62
     4
100
AcDbLine
 10
1340.08681
 20
899.171743
 30
0.0
 11
1340.08681
 21
813.120545
 31
0.0
  0
LINE
  5
2C6
330
1F
100
AcDbEntity
  8
dxfile
  6
Continuous
 62
     6
100
AcDbLine
 10
387.05381
 20
938.191595
 30
0.0
 11
1293.11981
 21
938.191595
 31
0.0
  0
LINE
  5
2C7
330
1F
100
AcDbEntity
  8
dxfile
  6
Continuous
 62
     6
100
AcDbLine
 10
387.08681
 20
944.991595
 30
0.0
 11
1293.08681
 21
944.991595
 31
0.0
  0
LINE
  5
2C8
330
1F
100
AcDbEntity
  8
dxfile
  6
Continuous
 62
     6
100
AcDbLine
 10
260.38681
 20
890.223595
 30
0.0
 11
259.045313
 21
871.906489
 31
0.0
  0
LINE
  5
2C9
330
1F
100
AcDbEntity
  8
dxfile
  6
Continuous
 62
     6
100
AcDbLine
 10
259.841354
 20
882.775813
 30
0.0
 11
267.113211
 21
890.04767
 31
0.0
  0
LINE
  5
2CA
330
1F
100
AcDbEntity
  8
dxfile
  6
Continuous
 62
     6
100
AcDbLine
 10
267.113211
 20
884.441174
 30
0.0
 11
261.33079
 21
890.223595
 31
0.0
  0
LINE
  5
2CB
330
1F
100
AcDbEntity
  8
dxfile
  6
Continuous
 62
     6
100
AcDbLine
 10
259.401002
 20
876.763152
 30
0.0
 11
267.113211
 21
884.47536
 31
0.0
  0
LINE
  5
2CC
330
1F
100
AcDbEntity
  8
dxfile
  6
Continuous
 62
     6
100
AcDbLine
 10
267.113211
 20
879.381654
 30
0.0
 11
260.105967
 21
886.388898
 31
0.0
  0
LINE
  5
2CD
330
1F
100
AcDbEntity
  8
dxfile
  6
Continuous
 62
     6
100
AcDbLine
 10
259.721048
 20
881.133135
 30
0.0
 11
267.113211
 21
873.740973
 31
0.0
  0
LINE
  5
2CE
330
1F
100
AcDbEntity
  8
dxfile
  6
Continuous
 62
     6
100
AcDbLine
 10
259.357126
 20
876.16405
 30
0.0
 11
262.929786
 21
872.591389
 31
0.0
  0
LINE
  5
2CF
330
1F
100
AcDbEntity
  8
dxfile
  6
Continuous
 62
     6
100
AcDbLine
 10
267.113211
 20
878.253518
 30
0.0
 11
261.134551
 21
872.274858
 31
0.0
  0
CIRCLE
  5
2D0
330
1F
100
AcDbEntity
  8
dxfile
  6
Continuous
 62
     6
100
AcDbCircle
 10
1415.809449
 20
868.550845
 30
0.0
 40
0.8134055116800001
  0
LINE
  5
2D1
330
1F
100
AcDbEntity
  8
dxfile
  6
Continuous
 62
     6
100
AcDbLine
 10
1419.78681
 20
890.223595
 30
0.0
 11
1421.128307
 21
871.906489
 31
0.0
  0
LINE
  5
2D2
330
1F
100
AcDbEntity
  8
dxfile
  6
Continuous
 62
     6
100
AcDbLine
 10
1420.332266
 20
882.775813
 30
0.0
 11
1413.060409
 21
890.04767
 31
0.0
  0
LINE
  5
2D3
330
1F
100
AcDbEntity
  8
dxfile
  6
Continuous
 62
     6
100
AcDbLine
 10
1413.060409
 20
884.441174
 30
0.0
 11
1418.84283
 21
890.223595
 31
0.0
  0
LINE
  5
2D4
330
1F
100
AcDbEntity
  8
dxfile
  6
Continuous
 62
     6
100
AcDbLine
 10
1420.772617
 20
876.763152
 30
0.0
 11
1413.060409
 21
884.47536
 31
0.0
  0
LINE
  5
2D5
330
1F
100
AcDbEntity
  8
dxfile
  6
Continuous
 62
     6
100
AcDbLine
 10
1413.060409
 20
879.381654
 30
0.0
 11
1420.067653
 21
886.388898
 31
0.0
  0
LINE
  5
2D6
330
1F
100
AcDbEntity
  8
dxfile
  6
Continuous
 62
     6
100
AcDbLine
 10
1420.452571
 20
881.133135
 30
0.0
 11
1413.060409
 21
873.740973
 31
0.0
  0
LINE
  5
2D7
330
1F
100
AcDbEntity
  8
dxfile
  6
Continuous
 62
     6
100
AcDbLine
 10
1420.816494
 20
876.16405
 30
0.0
 11
1417.243833
 21
872.591389
 31
0.0
  0
LINE
  5
2D8
330
1F
100
AcDbEntity
  8
dxfile
  6
Continuous
 62
     6
100
AcDbLine
 10
1413.060409
 20
878.253518
 30
0.0
 11
1419.039069
 21
872.274858
 31
0.0
  0
INSERT
  5
2E2
330
1F
100
AcDbEntity
  8
dxfile
  6
Continuous
 62
     3
100
AcDbBlockReference
  2
DIM_3
 10
375.08681
 20
626.005557
 30
0.0
  0
INSERT
  5
2EC
330
1F
100
AcDbEntity
  8
dxfile
  6
Continuous
 62
     3
100
AcDbBlockReference
  2
DIM_4
 10
275.08681
 20
869.44938
 30
0.0
  0
LINE
  5
2ED
330
1F
100
AcDbEntity
  8
dxfile
  6
PLine2
 62
     3
100
AcDbLine
 10
1325.08681
 20
950.621155
 30
0.0
 11
1325.08681
 21
1009.804362
 31
0.0
  0
LINE
  5
2EE
330
1F
100
AcDbEntity
  8
dxfile
  6
Continuous
 62
     3
100
AcDbLine
 10
721.964989
 20
1411.654283
 30
0.0
 11
741.863803
 21
1411.654283
 31
0.0
  0
LINE
  5
2EF
330
1F
100
AcDbEntity
  8
dxfile
  6
Continuous
 62
     3
100
AcDbLine
 10
741.863803
 20
1411.654283
 30
0.0
 11
741.863803
 21
1391.755469
 31
0.0
  0
LINE
  5
2F0
330
1F
100
AcDbEntity
  8
dxfile
  6
Continuous
 62
     3
100
AcDbLine
 10
741.863803
 20
1391.755469
 30
0.0
 11
721.964989
 21
1391.755469
 31
0.0
  0
LINE
  5
2F1
330
1F
100
AcDbEntity
  8
dxfile
  6
Continuous
 62
     3
100
AcDbLine
 10
721.964989
 20
1391.755469
 30
0.0
 11
721.964989
 21
1411.654283
 31
0.0
  0
LINE
  5
2F2
330
1F
100
AcDbEntity
  8
dxfile
  6
Continuous
 62
     3
100
AcDbLine
 10
708.551368
 20
557.598813
 30
0.0
 11
728.450183
 21
557.598813
 31
0.0
  0
LINE
  5
2F3
330
1F
100
AcDbEntity
  8
dxfile
  6
Continuous
 62
     3
100
AcDbLine
 10
728.450183
 20
557.598813
 30
0.0
 11
728.450183
 21
537.699998
 31
0.0
  0
LINE
  5
2F4
330
1F
100
AcDbEntity
  8
dxfile
  6
Continuous
 62
     3
100
AcDbLine
 10
728.450183
 20
537.699998
 30
0.0
 11
708.551368
 21
537.699998
 31
0.0
  0
LINE
  5
2F5
330
1F
100
AcDbEntity
  8
dxfile
  6
Continuous
 62
     3
100
AcDbLine
 10
708.551368
 20
537.699998
 30
0.0
 11
708.551368
 21
557.598813
 31
0.0
  0
LINE
  5
2F6
330
1F
100
AcDbEntity
  8
dxfile
  6
Continuous
 62
     3
100
AcDbLine
 10
699.233128
 20
469.1237
 30
0.0
 11
719.131943
 21
469.1237
 31
0.0
  0
LINE
  5
2F7
330
1F
100
AcDbEntity
  8
dxfile
  6
Continuous
 62
     3
100
AcDbLine
 10
719.131943
 20
469.1237
 30
0.0
 11
719.131943
 21
449.224885
 31
0.0
  0
LINE
  5
2F8
330
1F
100
AcDbEntity
  8
dxfile
  6
Continuous
 62
     3
100
AcDbLine
 10
719.131943
 20
449.224885
 30
0.0
 11
699.233128
 21
449.224885
 31
0.0
  0
LINE
  5
2F9
330
1F
100
AcDbEntity
  8
dxfile
  6
Continuous
 62
     3
100
AcDbLine
 10
699.233128
 20
449.224885
 30
0.0
 11
699.233128
 21
469.1237
 31
0.0
  0
LINE
  5
2FA
330
1F
100
AcDbEntity
  8
dxfile
  6
Continuous
 62
     3
100
AcDbLine
 10
1339.169816
 20
835.835651
 30
0.0
 11
1344.839689
 21
855.656159
 31
0.0
  0
LINE
  5
2FB
330
1F
100
AcDbEntity
  8
dxfile
  6
Continuous
 62
     3
100
AcDbLine
 10
1344.839689
 20
855.656159
 30
0.0
 11
1190.013068
 21
587.488585
 31
0.0
  0
LINE
  5
2FC
330
1F
100
AcDbEntity
  8
dxfile
  6
Continuous
 62
     3
100
AcDbLine
 10
1190.013068
 20
587.488585
 30
0.0
 11
1035.524879
 21
587.488585
 31
0.0
  0
TEXT
  5
2FD
330
1F
100
AcDbEntity
  8
dxfile
  6
Continuous
 62
     3
100
AcDbText
 10
1061.27291
 20
592.488585
 30
0.0
 40
30.0
  1
差筋（別途）
 41
0.858268
  7
BIGFONT
 72
     2
 11
1190.013068
 21
592.488585
 31
0.0
100
AcDbText
  0
LINE
  5
2FE
330
1F
100
AcDbEntity
  8
dxfile
  6
Continuous
 62
     3
100
AcDbLine
 10
1481.100494
 20
880.989335
 30
0.0
 11
1475.430621
 21
861.168827
 31
0.0
  0
LINE
  5
2FF
330
1F
100
AcDbEntity
  8
dxfile
  6
Continuous
 62
     3
100
AcDbLine
 10
1475.430621
 20
861.168827
 30
0.0
 11
1546.725003
 21
984.654318
 31
0.0
  0
LINE
  5
300
330
1F
100
AcDbEntity
  8
dxfile
  6
Continuous
 62
     3
100
AcDbLine
 10
1546.725003
 20
984.654318
 30
0.0
 11
1804.205318
 21
984.654318
 31
0.0
  0
TEXT
  5
301
330
1F
100
AcDbEntity
  8
dxfile
  6
Continuous
 62
     3
100
AcDbText
 10
1587.186195
 20
989.654318
 30
0.0
 40
30.0
  1
防水モルタル（別途）
 41
0.858268
  7
BIGFONT
 72
     2
 11
1804.205318
 21
989.654318
 31
0.0
100
AcDbText
  0
LINE
  5
302
330
1F
100
AcDbEntity
  8
dxfile
  6
Continuous
 62
     6
100
AcDbLine
 10
375.08681
 20
875.273879
 30
0.0
 11
375.08681
 21
903.223595
 31
0.0
  0
LINE
  5
303
330
1F
100
AcDbEntity
  8
dxfile
  6
Continuous
 62
     6
100
AcDbLine
 10
1305.08681
 20
875.273879
 30
0.0
 11
1305.08681
 21
903.223595
 31
0.0
  0
INSERT
  5
30D
330
1F
100
AcDbEntity
  8
dxfile
  6
Continuous
 62
     3
100
AcDbBlockReference
  2
DIM_5
 10
225.08681
 20
634.985189
 30
0.0
  0
LINE
  5
30E
330
1F
100
AcDbEntity
  8
dxfile
  6
Continuous
 62
     4
100
AcDbLine
 10
2678.145003
 20
872.247486
 30
0.0
 11
2727.986027
 21
872.247486
 31
0.0
  0
LINE
  5
30F
330
1F
100
AcDbEntity
  8
dxfile
  6
Continuous
 62
     4
100
AcDbLine
 10
2727.986027
 20
872.247486
 30
0.0
 11
2727.986027
 21
722.724414
 31
0.0
  0
LINE
  5
310
330
1F
100
AcDbEntity
  8
dxfile
  6
Continuous
 62
     4
100
AcDbLine
 10
2718.017822
 20
722.724414
 30
0.0
 11
2727.986027
 21
722.724414
 31
0.0
  0
LINE
  5
311
330
1F
100
AcDbEntity
  8
dxfile
  6
Continuous
 62
     4
100
AcDbLine
 10
2678.145003
 20
862.279281
 30
0.0
 11
2718.017822
 21
862.279281
 31
0.0
  0
LINE
  5
312
330
1F
100
AcDbEntity
  8
dxfile
  6
Continuous
 62
     4
100
AcDbLine
 10
2718.017822
 20
862.279281
 30
0.0
 11
2718.017822
 21
722.724414
 31
0.0
  0
LINE
  5
313
330
1F
100
AcDbEntity
  8
dxfile
  6
Continuous
 62
     4
100
AcDbLine
 10
2678.145003
 20
872.247486
 30
0.0
 11
2678.145003
 21
862.279281
 31
0.0
  0
LINE
  5
314
330
1F
100
AcDbEntity
  8
dxfile
  6
Continuous
 62
     2
100
AcDbLine
 10
3034.635611
 20
1517.354812
 30
0.0
 11
2438.875883
 21
1412.311961
 31
0.0
  0
LINE
  5
315
330
1F
100
AcDbEntity
  8
dxfile
  6
Continuous
 62
     3
100
AcDbLine
 10
2682.545965
 20
796.215004
 30
0.0
 11
2811.563925
 21
796.215004
 31
0.0
  0
LINE
  5
316
330
1F
100
AcDbEntity
  8
dxfile
  6
Continuous
 62
     2
100
AcDbLine
 10
2438.875883
 20
872.247486
 30
0.0
 11
2438.875883
 21
1412.311961
 31
0.0
  0
LINE
  5
317
330
1F
100
AcDbEntity
  8
dxfile
  6
Continuous
 62
     2
100
AcDbLine
 10
2638.239979
 20
922.08851
 30
0.0
 11
2638.239979
 21
872.247486
 31
0.0
  0
LINE
  5
318
330
1F
100
AcDbEntity
  8
dxfile
  6
Continuous
 62
     2
100
AcDbLine
 10
2638.239979
 20
872.247486
 30
0.0
 11
2438.875883
 21
872.247486
 31
0.0
  0
CIRCLE
  5
319
330
1F
100
AcDbEntity
  8
dxfile
  6
Continuous
 62
     6
100
AcDbCircle
 10
2937.689835
 20
1423.060578
 30
0.0
 40
2.5219558144
  0
CIRCLE
  5
31A
330
1F
100
AcDbEntity
  8
dxfile
  6
Continuous
 62
     6
100
AcDbCircle
 10
2465.610608
 20
998.599466
 30
0.0
 40
4.7498495872
  0
CIRCLE
  5
31B
330
1F
100
AcDbEntity
  8
dxfile
  6
Continuous
 62
     6
100
AcDbCircle
 10
2508.07516
 20
1155.71831
 30
0.0
 40
4.246455244799999
  0
CIRCLE
  5
31C
330
1F
100
AcDbEntity
  8
dxfile
  6
Continuous
 62
     6
100
AcDbCircle
 10
2495.335795
 20
1274.619057
 30
0.0
 40
3.0004296448
  0
CIRCLE
  5
31D
330
1F
100
AcDbEntity
  8
dxfile
  6
Continuous
 62
     6
100
AcDbCircle
 10
2505.951933
 20
945.518775
 30
0.0
 40
4.246455244799999
  0
CIRCLE
  5
31E
330
1F
100
AcDbEntity
  8
dxfile
  6
Continuous
 62
     6
100
AcDbCircle
 10
2478.349974
 20
1081.405343
 30
0.0
 40
6.713585932800001
  0
CIRCLE
  5
31F
330
1F
100
AcDbEntity
  8
dxfile
  6
Continuous
 62
     6
100
AcDbCircle
 10
2465.610608
 20
1206.675773
 30
0.0
 40
4.7498495872
  0
CIRCLE
  5
320
330
1F
100
AcDbEntity
  8
dxfile
  6
Continuous
 62
     6
100
AcDbCircle
 10
2899.411929
 20
1469.313049
 30
0.0
 40
2.392369152
  0
CIRCLE
  5
321
330
1F
100
AcDbEntity
  8
dxfile
  6
Continuous
 62
     6
100
AcDbCircle
 10
3506.276237
 20
1604.175721
 30
0.0
 40
2.392369152
  0
CIRCLE
  5
322
330
1F
100
AcDbEntity
  8
dxfile
  6
Continuous
 62
     6
100
AcDbCircle
 10
3443.277182
 20
1549.058687
 30
0.0
 40
2.8758270848
  0
CIRCLE
  5
323
330
1F
100
AcDbEntity
  8
dxfile
  6
Continuous
 62
     6
100
AcDbCircle
 10
3505.47878
 20
1538.691754
 30
0.0
 40
1.594912768
  0
CIRCLE
  5
324
330
1F
100
AcDbEntity
  8
dxfile
  6
Continuous
 62
     6
100
AcDbCircle
 10
3409.784014
 20
1529.919734
 30
0.0
 40
2.392369152
  0
CIRCLE
  5
325
330
1F
100
AcDbEntity
  8
dxfile
  6
Continuous
 62
     6
100
AcDbCircle
 10
3449.656834
 20
1624.909587
 30
0.0
 40
3.189825536000001
  0
CIRCLE
  5
326
330
1F
100
AcDbEntity
  8
dxfile
  6
Continuous
 62
     6
100
AcDbCircle
 10
3500.694042
 20
1623.314674
 30
0.0
 40
2.5219558144
  0
CIRCLE
  5
327
330
1F
100
AcDbEntity
  8
dxfile
  6
Continuous
 62
     6
100
AcDbCircle
 10
3284.583362
 20
1557.033251
 30
0.0
 40
3.189825536000001
  0
CIRCLE
  5
328
330
1F
100
AcDbEntity
  8
dxfile
  6
Continuous
 62
     6
100
AcDbCircle
 10
3275.013885
 20
1502.00876
 30
0.0
 40
1.594912768
  0
CIRCLE
  5
329
330
1F
100
AcDbEntity
  8
dxfile
  6
Continuous
 62
     6
100
AcDbCircle
 10
3214.4072
 20
1504.40113
 30
0.0
 40
2.5219558144
  0
CIRCLE
  5
32A
330
1F
100
AcDbEntity
  8
dxfile
  6
Continuous
 62
     6
100
AcDbCircle
 10
3229.558872
 20
1577.062204
 30
0.0
 40
2.5219558144
  0
CIRCLE
  5
32B
330
1F
100
AcDbEntity
  8
dxfile
  6
Continuous
 62
     6
100
AcDbCircle
 10
3164.167448
 20
1482.072351
 30
0.0
 40
2.2577983872
  0
CIRCLE
  5
32C
330
1F
100
AcDbEntity
  8
dxfile
  6
Continuous
 62
     6
100
AcDbCircle
 10
3106.750588
 20
1474.895243
 30
0.0
 40
2.392369152
  0
CIRCLE
  5
32D
330
1F
100
AcDbEntity
  8
dxfile
  6
Continuous
 62
     6
100
AcDbCircle
 10
3142.636126
 20
1548.261231
 30
0.0
 40
3.189825536000001
  0
CIRCLE
  5
32E
330
1F
100
AcDbEntity
  8
dxfile
  6
Continuous
 62
     6
100
AcDbCircle
 10
2725.566437
 20
1398.339431
 30
0.0
 40
3.568617318399998
  0
CIRCLE
  5
32F
330
1F
100
AcDbEntity
  8
dxfile
  6
Continuous
 62
     6
100
AcDbCircle
 10
2786.173122
 20
1419.073297
 30
0.0
 40
3.568617318399998
  0
CIRCLE
  5
330
330
1F
100
AcDbEntity
  8
dxfile
  6
Continuous
 62
     6
100
AcDbCircle
 10
3082.02944
 20
1545.868862
 30
0.0
 40
3.568617318399998
  0
CIRCLE
  5
331
330
1F
100
AcDbEntity
  8
dxfile
  6
Continuous
 62
     6
100
AcDbCircle
 10
2746.300303
 20
1439.807163
 30
0.0
 40
2.8758270848
  0
CIRCLE
  5
332
330
1F
100
AcDbEntity
  8
dxfile
  6
Continuous
 62
     6
100
AcDbCircle
 10
3051.726098
 20
1477.287613
 30
0.0
 40
2.2577983872
  0
CIRCLE
  5
333
330
1F
100
AcDbEntity
  8
dxfile
  6
Continuous
 62
     6
100
AcDbCircle
 10
2974.372829
 20
1485.262176
 30
0.0
 40
4.0670275584
  0
CIRCLE
  5
334
330
1F
100
AcDbEntity
  8
dxfile
  6
Continuous
 62
     6
100
AcDbCircle
 10
2486.842884
 20
1385.026893
 30
0.0
 40
6.713585932800001
  0
CIRCLE
  5
335
330
1F
100
AcDbEntity
  8
dxfile
  6
Continuous
 62
     6
100
AcDbCircle
 10
2618.482997
 20
1408.382397
 30
0.0
 40
2.1232276224
  0
CIRCLE
  5
336
330
1F
100
AcDbEntity
  8
dxfile
  6
Continuous
 62
     6
100
AcDbCircle
 10
2876.285693
 20
1420.668209
 30
0.0
 40
1.1264071424
  0
LINE
  5
337
330
1F
100
AcDbEntity
  8
dxfile
  6
Continuous
 62
     2
100
AcDbLine
 10
2777.986027
 20
922.08851
 30
0.0
 11
2538.557931
 21
922.08851
 31
0.0
  0
LINE
  5
338
330
1F
100
AcDbEntity
  8
dxfile
  6
Continuous
 62
     2
100
AcDbLine
 10
2538.557931
 20
1344.421411
 30
0.0
 11
2538.557931
 21
922.08851
 31
0.0
  0
LINE
  5
339
330
1F
100
AcDbEntity
  8
dxfile
  6
Continuous
 62
     6
100
AcDbLine
 10
2556.834634
 20
922.08851
 30
0.0
 11
3073.484084
 21
1438.73796
 31
0.0
  0
LINE
  5
33A
330
1F
100
AcDbEntity
  8
dxfile
  6
Continuous
 62
     2
100
AcDbLine
 10
3527.986027
 20
1518.877347
 30
0.0
 11
2538.557931
 21
1344.417893
 31
0.0
  0
LINE
  5
33B
330
1F
100
AcDbEntity
  8
dxfile
  6
Continuous
 62
     2
100
AcDbLine
 10
2777.986027
 20
922.08851
 30
0.0
 11
2777.986027
 21
508.020713
 31
0.0
  0
LINE
  5
33C
330
1F
100
AcDbEntity
  8
dxfile
  6
Continuous
 62
     2
100
AcDbLine
 10
2727.986027
 20
922.08851
 30
0.0
 11
2727.986027
 21
508.020713
 31
0.0
  0
LINE
  5
33D
330
1F
100
AcDbEntity
  8
dxfile
  6
Continuous
 62
     2
100
AcDbLine
 10
3527.986027
 20
1518.877347
 30
0.0
 11
3527.986027
 21
508.020713
 31
0.0
  0
LINE
  5
33E
330
1F
100
AcDbEntity
  8
dxfile
  6
Continuous
 62
     6
100
AcDbLine
 10
3527.986027
 20
1026.963032
 30
0.0
 11
3009.043707
 21
508.020713
 31
0.0
  0
LINE
  5
33F
330
1F
100
AcDbEntity
  8
dxfile
  6
Continuous
 62
     6
100
AcDbLine
 10
3527.986027
 20
1054.564991
 30
0.0
 11
2981.441748
 21
508.020713
 31
0.0
  0
LINE
  5
340
330
1F
100
AcDbEntity
  8
dxfile
  6
Continuous
 62
     6
100
AcDbLine
 10
3527.986027
 20
1077.920495
 30
0.0
 11
2958.086244
 21
508.020713
 31
0.0
  0
LINE
  5
341
330
1F
100
AcDbEntity
  8
dxfile
  6
PLine2
 62
     3
100
AcDbLine
 10
3652.986027
 20
1768.625927
 30
0.0
 11
3652.986027
 21
508.020713
 31
0.0
  0
LINE
  5
342
330
1F
100
AcDbEntity
  8
dxfile
  6
Continuous
 62
     6
100
AcDbLine
 10
3037.395659
 20
1432.374721
 30
0.0
 11
2538.557931
 21
933.536993
 31
0.0
  0
LINE
  5
343
330
1F
100
AcDbEntity
  8
dxfile
  6
Continuous
 62
     6
100
AcDbLine
 10
3006.462723
 20
1426.920517
 30
0.0
 11
2538.557931
 21
959.015724
 31
0.0
  0
LINE
  5
344
330
1F
100
AcDbEntity
  8
dxfile
  6
PLine2
 62
     3
100
AcDbLine
 10
3427.986027
 20
1895.613723
 30
0.0
 11
3427.986027
 21
2183.38421
 31
0.0
  0
LINE
  5
345
330
1F
100
AcDbEntity
  8
dxfile
  6
Continuous
 62
     3
100
AcDbLine
 10
3407.986027
 20
1981.157723
 30
0.0
 11
3407.986027
 21
1921.665284
 31
0.0
  0
LINE
  5
346
330
1F
100
AcDbEntity
  8
dxfile
  6
Continuous
 62
     3
100
AcDbLine
 10
3407.986027
 20
1921.665284
 30
0.0
 11
3412.986027
 21
1916.665284
 31
0.0
  0
LINE
  5
347
330
1F
100
AcDbEntity
  8
dxfile
  6
Continuous
 62
     3
100
AcDbLine
 10
3447.986026
 20
1981.157723
 30
0.0
 11
3447.986026
 21
1921.665284
 31
0.0
  0
LINE
  5
348
330
1F
100
AcDbEntity
  8
dxfile
  6
Continuous
 62
     3
100
AcDbLine
 10
3442.986026
 20
1916.665284
 30
0.0
 11
3412.986027
 21
1916.665284
 31
0.0
  0
LINE
  5
349
330
1F
100
AcDbEntity
  8
dxfile
  6
Continuous
 62
     3
100
AcDbLine
 10
3447.986026
 20
1921.665284
 30
0.0
 11
3442.986026
 21
1916.665284
 31
0.0
  0
LINE
  5
34A
330
1F
100
AcDbEntity
  8
dxfile
  6
Continuous
 62
     3
100
AcDbLine
 10
3387.986028
 20
2008.625927
 30
0.0
 11
3387.986028
 21
1984.738776
 31
0.0
  0
LINE
  5
34B
330
1F
100
AcDbEntity
  8
dxfile
  6
Continuous
 62
     3
100
AcDbLine
 10
3467.986025
 20
1984.738776
 30
0.0
 11
3467.986025
 21
2008.625927
 31
0.0
  0
LINE
  5
34C
330
1F
100
AcDbEntity
  8
dxfile
  6
Continuous
 62
     3
100
AcDbLine
 10
3467.986025
 20
2008.625927
 30
0.0
 11
3387.986028
 21
2008.625927
 31
0.0
  0
LINE
  5
34D
330
1F
100
AcDbEntity
  8
dxfile
  6
Continuous
 62
     3
100
AcDbLine
 10
3467.986025
 20
1984.738776
 30
0.0
 11
3461.728388
 21
1981.125928
 31
0.0
  0
LINE
  5
34E
330
1F
100
AcDbEntity
  8
dxfile
  6
Continuous
 62
     3
100
AcDbLine
 10
3461.728388
 20
1981.125928
 30
0.0
 11
3427.986027
 21
1981.125928
 31
0.0
  0
LINE
  5
34F
330
1F
100
AcDbEntity
  8
dxfile
  6
Continuous
 62
     3
100
AcDbLine
 10
3447.986026
 20
2008.625927
 30
0.0
 11
3447.986026
 21
1984.557385
 31
0.0
  0
ARC
  5
350
330
1F
100
AcDbEntity
  8
dxfile
  6
Continuous
 62
     3
100
AcDbCircle
 10
3427.986027
 20
2041.125925
 30
0.0
 40
59.9999976000305
100
AcDbArc
 50
270.0
 51
289.471221
  0
ARC
  5
351
330
1F
100
AcDbEntity
  8
dxfile
  6
Continuous
 62
     3
100
AcDbCircle
 10
3457.634364
 20
1996.405927
 30
0.0
 40
15.2799993888479
100
AcDbArc
 50
230.843868
 51
270.0
  0
LINE
  5
352
330
1F
100
AcDbEntity
  8
dxfile
  6
Continuous
 62
     3
100
AcDbLine
 10
3387.986028
 20
1984.738776
 30
0.0
 11
3394.243665
 21
1981.125928
 31
0.0
  0
LINE
  5
353
330
1F
100
AcDbEntity
  8
dxfile
  6
Continuous
 62
     3
100
AcDbLine
 10
3394.243665
 20
1981.125928
 30
0.0
 11
3427.986027
 21
1981.125928
 31
0.0
  0
ARC
  5
354
330
1F
100
AcDbEntity
  8
dxfile
  6
Continuous
 62
     3
100
AcDbCircle
 10
3427.986027
 20
2041.125925
 30
0.0
 40
59.9999976000305
100
AcDbArc
 50
250.528779
 51
270.0
  0
ARC
  5
355
330
1F
100
AcDbEntity
  8
dxfile
  6
Continuous
 62
     3
100
AcDbCircle
 10
3398.337689
 20
1996.405927
 30
0.0
 40
15.2799993888479
100
AcDbArc
 50
270.0
 51
309.156132
  0
LINE
  5
356
330
1F
100
AcDbEntity
  8
dxfile
  6
Continuous
 62
     3
100
AcDbLine
 10
3407.986027
 20
2008.625927
 30
0.0
 11
3407.986027
 21
1984.557385
 31
0.0
  0
LINE
  5
357
330
1F
100
AcDbEntity
  8
dxfile
  6
Continuous
 62
     3
100
AcDbLine
 10
3527.986027
 20
1781.125927
 30
0.0
 11
3562.821027
 21
1781.125927
 31
0.0
  0
LINE
  5
358
330
1F
100
AcDbEntity
  8
dxfile
  6
Continuous
 62
     6
100
AcDbLine
 10
3562.941027
 20
1775.965927
 30
0.0
 11
3562.941027
 21
1883.595927
 31
0.0
  0
LINE
  5
359
330
1F
100
AcDbEntity
  8
dxfile
  6
Continuous
 62
     3
100
AcDbLine
 10
3562.821027
 20
1775.965927
 30
0.0
 11
3562.821027
 21
1781.125927
 31
0.0
  0
LINE
  5
35A
330
1F
100
AcDbEntity
  8
dxfile
  6
Continuous
 62
     6
100
AcDbLine
 10
3597.941027
 20
1883.595927
 30
0.0
 11
3597.941027
 21
1868.595927
 31
0.0
  0
LINE
  5
35B
330
1F
100
AcDbEntity
  8
dxfile
  6
Continuous
 62
     6
100
AcDbLine
 10
3677.821027
 20
1833.465927
 30
0.0
 11
3677.821027
 21
1818.465927
 31
0.0
  0
LINE
  5
35C
330
1F
100
AcDbEntity
  8
dxfile
  6
Continuous
 62
     6
100
AcDbLine
 10
3577.941027
 20
1868.595927
 30
0.0
 11
3597.941027
 21
1868.595927
 31
0.0
  0
LINE
  5
35D
330
1F
100
AcDbEntity
  8
dxfile
  6
Continuous
 62
     6
100
AcDbLine
 10
3577.941027
 20
1868.595927
 30
0.0
 11
3577.941027
 21
1833.465927
 31
0.0
  0
LINE
  5
35E
330
1F
100
AcDbEntity
  8
dxfile
  6
Continuous
 62
     6
100
AcDbLine
 10
3597.941027
 20
1873.595927
 30
0.0
 11
3592.941027
 21
1868.595927
 31
0.0
  0
LINE
  5
35F
330
1F
100
AcDbEntity
  8
dxfile
  6
Continuous
 62
     6
100
AcDbLine
 10
3587.941027
 20
1808.595927
 30
0.0
 11
3642.941027
 21
1808.595927
 31
0.0
  0
LINE
  5
360
330
1F
100
AcDbEntity
  8
dxfile
  6
Continuous
 62
     6
100
AcDbLine
 10
3650.091027
 20
1775.745927
 30
0.0
 11
3670.466027
 21
1796.120927
 31
0.0
  0
LINE
  5
361
330
1F
100
AcDbEntity
  8
dxfile
  6
Continuous
 62
     6
100
AcDbLine
 10
3642.941027
 20
1808.595927
 30
0.0
 11
3642.941027
 21
1775.745927
 31
0.0
  0
LINE
  5
362
330
1F
100
AcDbEntity
  8
dxfile
  6
Continuous
 62
     6
100
AcDbLine
 10
3587.941027
 20
1808.595927
 30
0.0
 11
3587.941027
 21
1775.995927
 31
0.0
  0
LINE
  5
363
330
1F
100
AcDbEntity
  8
dxfile
  6
Continuous
 62
     6
100
AcDbLine
 10
3642.941027
 20
1803.595927
 30
0.0
 11
3670.441027
 21
1776.095927
 31
0.0
  0
LINE
  5
364
330
1F
100
AcDbEntity
  8
dxfile
  6
Continuous
 62
     6
100
AcDbLine
 10
3677.821027
 20
1833.465927
 30
0.0
 11
3577.941027
 21
1833.465927
 31
0.0
  0
LINE
  5
365
330
1F
100
AcDbEntity
  8
dxfile
  6
Continuous
 62
     3
100
AcDbLine
 10
3627.821027
 20
1775.965927
 30
0.0
 11
3670.321027
 21
1775.965927
 31
0.0
  0
LINE
  5
366
330
1F
100
AcDbEntity
  8
dxfile
  6
Continuous
 62
     3
100
AcDbLine
 10
3670.486027
 20
1811.125927
 30
0.0
 11
3670.486027
 21
1776.125927
 31
0.0
  0
LINE
  5
367
330
1F
100
AcDbEntity
  8
dxfile
  6
Continuous
 62
     6
100
AcDbLine
 10
3597.941027
 20
1883.595927
 30
0.0
 11
3562.941027
 21
1883.595927
 31
0.0
  0
LINE
  5
368
330
1F
100
AcDbEntity
  8
dxfile
  6
Continuous
 62
     6
100
AcDbLine
 10
3562.941027
 20
1868.595927
 30
0.0
 11
3577.941027
 21
1883.595927
 31
0.0
  0
LINE
  5
369
330
1F
100
AcDbEntity
  8
dxfile
  6
Continuous
 62
     6
100
AcDbLine
 10
3577.941027
 20
1853.595927
 30
0.0
 11
3562.941027
 21
1838.595927
 31
0.0
  0
LINE
  5
36A
330
1F
100
AcDbEntity
  8
dxfile
  6
Continuous
 62
     6
100
AcDbLine
 10
3562.941027
 20
1778.595927
 30
0.0
 11
3587.941027
 21
1803.595927
 31
0.0
  0
LINE
  5
36B
330
1F
100
AcDbEntity
  8
dxfile
  6
Continuous
 62
     6
100
AcDbLine
 10
3577.941027
 20
1838.595927
 30
0.0
 11
3562.941027
 21
1853.595927
 31
0.0
  0
LINE
  5
36C
330
1F
100
AcDbEntity
  8
dxfile
  6
Continuous
 62
     6
100
AcDbLine
 10
3577.941027
 20
1868.595927
 30
0.0
 11
3562.941027
 21
1883.595927
 31
0.0
  0
LINE
  5
36D
330
1F
100
AcDbEntity
  8
dxfile
  6
Continuous
 62
     6
100
AcDbLine
 10
3562.941027
 20
1823.595927
 30
0.0
 11
3587.941027
 21
1798.595927
 31
0.0
  0
LINE
  5
36E
330
1F
100
AcDbEntity
  8
dxfile
  6
Continuous
 62
     6
100
AcDbLine
 10
3562.941027
 20
1793.595927
 30
0.0
 11
3580.816027
 21
1775.720927
 31
0.0
  0
LINE
  5
36F
330
1F
100
AcDbEntity
  8
dxfile
  6
Continuous
 62
     3
100
AcDbLine
 10
3562.821027
 20
1775.965927
 30
0.0
 11
3627.821027
 21
1775.965927
 31
0.0
  0
LINE
  5
370
330
1F
100
AcDbEntity
  8
dxfile
  6
Continuous
 62
     3
100
AcDbLine
 10
3337.986027
 20
2008.625927
 30
0.0
 11
3492.986027
 21
2008.625927
 31
0.0
  0
LINE
  5
371
330
1F
100
AcDbEntity
  8
dxfile
  6
Continuous
 62
     3
100
AcDbLine
 10
3337.986027
 20
2008.625927
 30
0.0
 11
3337.986027
 21
1978.625927
 31
0.0
  0
LINE
  5
372
330
1F
100
AcDbEntity
  8
dxfile
  6
Continuous
 62
     3
100
AcDbLine
 10
3337.986027
 20
1978.625927
 30
0.0
 11
3352.986027
 21
1978.625927
 31
0.0
  0
LINE
  5
373
330
1F
100
AcDbEntity
  8
dxfile
  6
Continuous
 62
     3
100
AcDbLine
 10
3352.986027
 20
1978.625927
 30
0.0
 11
3352.986027
 21
1973.625927
 31
0.0
  0
LINE
  5
374
330
1F
100
AcDbEntity
  8
dxfile
  6
Continuous
 62
     3
100
AcDbLine
 10
3352.986027
 20
1973.625927
 30
0.0
 11
3337.986027
 21
1973.625927
 31
0.0
  0
LINE
  5
375
330
1F
100
AcDbEntity
  8
dxfile
  6
Continuous
 62
     3
100
AcDbLine
 10
3492.986027
 20
2008.625927
 30
0.0
 11
3517.986027
 21
2008.625927
 31
0.0
  0
LINE
  5
376
330
1F
100
AcDbEntity
  8
dxfile
  6
Continuous
 62
     3
100
AcDbLine
 10
3517.986027
 20
1973.625927
 30
0.0
 11
3517.986027
 21
1923.625927
 31
0.0
  0
LINE
  5
377
330
1F
100
AcDbEntity
  8
dxfile
  6
Continuous
 62
     3
100
AcDbLine
 10
3502.986027
 20
1973.625927
 30
0.0
 11
3517.986027
 21
1973.625927
 31
0.0
  0
LINE
  5
378
330
1F
100
AcDbEntity
  8
dxfile
  6
Continuous
 62
     3
100
AcDbLine
 10
3502.986027
 20
1978.625927
 30
0.0
 11
3502.986027
 21
1973.625927
 31
0.0
  0
LINE
  5
379
330
1F
100
AcDbEntity
  8
dxfile
  6
Continuous
 62
     3
100
AcDbLine
 10
3502.986027
 20
1978.625927
 30
0.0
 11
3517.986027
 21
1978.625927
 31
0.0
  0
LINE
  5
37A
330
1F
100
AcDbEntity
  8
dxfile
  6
Continuous
 62
     3
100
AcDbLine
 10
3517.986027
 20
1978.625927
 30
0.0
 11
3517.986027
 21
2008.625927
 31
0.0
  0
LINE
  5
37B
330
1F
100
AcDbEntity
  8
dxfile
  6
Continuous
 62
     3
100
AcDbLine
 10
3517.986027
 20
1923.625927
 30
0.0
 11
3517.986027
 21
1768.625927
 31
0.0
  0
ARC
  5
37C
330
1F
100
AcDbEntity
  8
dxfile
  6
Continuous
 62
     3
100
AcDbCircle
 10
3329.486027
 20
2017.125927
 30
0.0
 40
1.5
100
AcDbArc
 50
90.0
 51
180.0
  0
LINE
  5
37D
330
1F
100
AcDbEntity
  8
dxfile
  6
Continuous
 62
     3
100
AcDbLine
 10
3327.986027
 20
2017.125927
 30
0.0
 11
3327.986027
 21
1970.125927
 31
0.0
  0
ARC
  5
37E
330
1F
100
AcDbEntity
  8
dxfile
  6
Continuous
 62
     3
100
AcDbCircle
 10
3329.486027
 20
1970.125927
 30
0.0
 40
1.5
100
AcDbArc
 50
180.0
 51
270.0
  0
LINE
  5
37F
330
1F
100
AcDbEntity
  8
dxfile
  6
Continuous
 62
     3
100
AcDbLine
 10
3329.486027
 20
1968.625927
 30
0.0
 11
3336.486027
 21
1968.625927
 31
0.0
  0
LINE
  5
380
330
1F
100
AcDbEntity
  8
dxfile
  6
Continuous
 62
     3
100
AcDbLine
 10
3337.986027
 20
1973.625927
 30
0.0
 11
3337.986027
 21
1970.125927
 31
0.0
  0
ARC
  5
381
330
1F
100
AcDbEntity
  8
dxfile
  6
Continuous
 62
     3
100
AcDbCircle
 10
3336.486027
 20
1970.125927
 30
0.0
 40
1.5
100
AcDbArc
 50
270.0
 51
0.0
  0
LINE
  5
382
330
1F
100
AcDbEntity
  8
dxfile
  6
Continuous
 62
     3
100
AcDbLine
 10
3527.986027
 20
1781.125927
 30
0.0
 11
3527.986027
 21
2017.125927
 31
0.0
  0
ARC
  5
383
330
1F
100
AcDbEntity
  8
dxfile
  6
Continuous
 62
     3
100
AcDbCircle
 10
3526.486027
 20
2017.125927
 30
0.0
 40
1.5
100
AcDbArc
 50
0.0
 51
90.0
  0
LINE
  5
384
330
1F
100
AcDbEntity
  8
dxfile
  6
Continuous
 62
     3
100
AcDbLine
 10
3527.986027
 20
1768.625927
 30
0.0
 11
3676.486027
 21
1768.625927
 31
0.0
  0
ARC
  5
385
330
1F
100
AcDbEntity
  8
dxfile
  6
Continuous
 62
     3
100
AcDbCircle
 10
3676.486027
 20
1770.125927
 30
0.0
 40
1.5
100
AcDbArc
 50
270.0
 51
0.0
  0
LINE
  5
386
330
1F
100
AcDbEntity
  8
dxfile
  6
Continuous
 62
     3
100
AcDbLine
 10
3677.986027
 20
1770.125927
 30
0.0
 11
3677.986027
 21
1817.125927
 31
0.0
  0
ARC
  5
387
330
1F
100
AcDbEntity
  8
dxfile
  6
Continuous
 62
     3
100
AcDbCircle
 10
3676.486027
 20
1817.125927
 30
0.0
 40
1.5
100
AcDbArc
 50
0.0
 51
90.0
  0
LINE
  5
388
330
1F
100
AcDbEntity
  8
dxfile
  6
Continuous
 62
     3
100
AcDbLine
 10
3676.486027
 20
1818.625927
 30
0.0
 11
3664.486027
 21
1818.625927
 31
0.0
  0
ARC
  5
389
330
1F
100
AcDbEntity
  8
dxfile
  6
Continuous
 62
     3
100
AcDbCircle
 10
3664.486027
 20
1817.125927
 30
0.0
 40
1.5
100
AcDbArc
 50
90.0
 51
180.0
  0
LINE
  5
38A
330
1F
100
AcDbEntity
  8
dxfile
  6
Continuous
 62
     3
100
AcDbLine
 10
3670.486027
 20
1811.125927
 30
0.0
 11
3664.486027
 21
1811.125927
 31
0.0
  0
LINE
  5
38B
330
1F
100
AcDbEntity
  8
dxfile
  6
Continuous
 62
     3
100
AcDbLine
 10
3662.986027
 20
1817.125927
 30
0.0
 11
3662.986027
 21
1812.625927
 31
0.0
  0
ARC
  5
38C
330
1F
100
AcDbEntity
  8
dxfile
  6
Continuous
 62
     3
100
AcDbCircle
 10
3664.486027
 20
1812.625927
 30
0.0
 40
1.5
100
AcDbArc
 50
180.0
 51
270.0
  0
LINE
  5
38D
330
1F
100
AcDbEntity
  8
dxfile
  6
Continuous
 62
     3
100
AcDbLine
 10
3517.986027
 20
1923.625927
 30
0.0
 11
3517.986027
 21
1768.586234
 31
0.0
  0
LINE
  5
38E
330
1F
100
AcDbEntity
  8
dxfile
  6
Continuous
 62
     6
100
AcDbLine
 10
3677.811027
 20
1833.465927
 30
0.0
 11
3642.941027
 21
1798.595927
 31
0.0
  0
LINE
  5
38F
330
1F
100
AcDbEntity
  8
dxfile
  6
Continuous
 62
     6
100
AcDbLine
 10
3643.071027
 20
1833.465927
 30
0.0
 11
3662.941027
 21
1813.595927
 31
0.0
  0
LINE
  5
390
330
1F
100
AcDbEntity
  8
dxfile
  6
Continuous
 62
     6
100
AcDbLine
 10
3647.811027
 20
1833.465927
 30
0.0
 11
3622.941027
 21
1808.595927
 31
0.0
  0
LINE
  5
391
330
1F
100
AcDbEntity
  8
dxfile
  6
Continuous
 62
     6
100
AcDbLine
 10
3613.071027
 20
1833.465927
 30
0.0
 11
3637.941027
 21
1808.595927
 31
0.0
  0
LINE
  5
392
330
1F
100
AcDbEntity
  8
dxfile
  6
Continuous
 62
     6
100
AcDbLine
 10
3592.941027
 20
1808.595927
 30
0.0
 11
3617.811027
 21
1833.465927
 31
0.0
  0
LINE
  5
393
330
1F
100
AcDbEntity
  8
dxfile
  6
Continuous
 62
     6
100
AcDbLine
 10
3583.071027
 20
1833.465927
 30
0.0
 11
3607.941027
 21
1808.595927
 31
0.0
  0
LINE
  5
394
330
1F
100
AcDbEntity
  8
dxfile
  6
Continuous
 62
     6
100
AcDbLine
 10
3562.941027
 20
1808.595927
 30
0.0
 11
3587.811027
 21
1833.465927
 31
0.0
  0
LINE
  5
395
330
1F
100
AcDbEntity
  8
dxfile
  6
Continuous
 62
     6
100
AcDbLine
 10
3587.986027
 20
1867.465927
 30
0.0
 11
3587.986027
 21
1833.465927
 31
0.0
  0
LINE
  5
396
330
1F
100
AcDbEntity
  8
dxfile
  6
Continuous
 62
     3
100
AcDbLine
 10
3329.486027
 20
2018.625927
 30
0.0
 11
3526.486027
 21
2018.625927
 31
0.0
  0
LINE
  5
397
330
1F
100
AcDbEntity
  8
dxfile
  6
Continuous
 62
     3
100
AcDbLine
 10
3195.316027
 20
1648.595927
 30
0.0
 11
3247.941027
 21
1648.595927
 31
0.0
  0
LINE
  5
398
330
1F
100
AcDbEntity
  8
dxfile
  6
Continuous
 62
     3
100
AcDbLine
 10
3442.941027
 20
1648.595927
 30
0.0
 11
3492.706027
 21
1648.595927
 31
0.0
  0
LINE
  5
399
330
1F
100
AcDbEntity
  8
dxfile
  6
Continuous
 62
     3
100
AcDbLine
 10
3492.706027
 20
1658.625927
 30
0.0
 11
3492.706027
 21
1648.595927
 31
0.0
  0
LINE
  5
39A
330
1F
100
AcDbEntity
  8
dxfile
  6
Continuous
 62
     3
100
AcDbLine
 10
2962.986027
 20
1660.239836
 30
0.0
 11
2962.986027
 21
1601.125927
 31
0.0
  0
LINE
  5
39B
330
1F
100
AcDbEntity
  8
dxfile
  6
Continuous
 62
     3
100
AcDbLine
 10
3020.486027
 20
1593.625927
 30
0.0
 11
2954.486027
 21
1593.625927
 31
0.0
  0
ARC
  5
39C
330
1F
100
AcDbEntity
  8
dxfile
  6
Continuous
 62
     3
100
AcDbCircle
 10
2954.486027
 20
1595.125927
 30
0.0
 40
1.5
100
AcDbArc
 50
180.0
 51
270.0
  0
LINE
  5
39D
330
1F
100
AcDbEntity
  8
dxfile
  6
Continuous
 62
     3
100
AcDbLine
 10
2952.986027
 20
1595.125927
 30
0.0
 11
2952.986027
 21
1667.368013
 31
0.0
  0
ARC
  5
39E
330
1F
100
AcDbEntity
  8
dxfile
  6
Continuous
 62
     3
100
AcDbCircle
 10
2954.486027
 20
1667.368013
 30
0.0
 40
1.5
100
AcDbArc
 50
100.033
 51
180.0
  0
LINE
  5
39F
330
1F
100
AcDbEntity
  8
dxfile
  6
Continuous
 62
     3
100
AcDbLine
 10
2962.986027
 20
1601.125927
 30
0.0
 11
3026.486027
 21
1601.125927
 31
0.0
  0
ARC
  5
3A0
330
1F
100
AcDbEntity
  8
dxfile
  6
Continuous
 62
     3
100
AcDbCircle
 10
3026.486027
 20
1599.625927
 30
0.0
 40
1.5
100
AcDbArc
 50
0.0
 51
90.0
  0
LINE
  5
3A1
330
1F
100
AcDbEntity
  8
dxfile
  6
Continuous
 62
     3
100
AcDbLine
 10
3027.986027
 20
1599.625927
 30
0.0
 11
3027.986027
 21
1520.125927
 31
0.0
  0
ARC
  5
3A2
330
1F
100
AcDbEntity
  8
dxfile
  6
Continuous
 62
     3
100
AcDbCircle
 10
3026.486027
 20
1520.125927
 30
0.0
 40
1.5
100
AcDbArc
 50
270.0
 51
0.0
  0
LINE
  5
3A3
330
1F
100
AcDbEntity
  8
dxfile
  6
Continuous
 62
     3
100
AcDbLine
 10
3026.486027
 20
1518.625927
 30
0.0
 11
3021.986027
 21
1518.625927
 31
0.0
  0
LINE
  5
3A4
330
1F
100
AcDbEntity
  8
dxfile
  6
Continuous
 62
     3
100
AcDbLine
 10
3195.316027
 20
1648.595927
 30
0.0
 11
3195.316027
 21
1658.625927
 31
0.0
  0
LINE
  5
3A5
330
1F
100
AcDbEntity
  8
dxfile
  6
Continuous
 62
     3
100
AcDbLine
 10
3243.826027
 20
1658.625927
 30
0.0
 11
3251.326027
 21
1666.125927
 31
0.0
  0
LINE
  5
3A6
330
1F
100
AcDbEntity
  8
dxfile
  6
Continuous
 62
     3
100
AcDbLine
 10
3247.941027
 20
1648.595927
 30
0.0
 11
3265.471027
 21
1666.125927
 31
0.0
  0
LINE
  5
3A7
330
1F
100
AcDbEntity
  8
dxfile
  6
Continuous
 62
     3
100
AcDbLine
 10
3217.986027
 20
1658.625927
 30
0.0
 11
3217.986027
 21
1661.125927
 31
0.0
  0
ARC
  5
3A8
330
1F
100
AcDbEntity
  8
dxfile
  6
Continuous
 62
     3
100
AcDbCircle
 10
3212.986027
 20
1661.125927
 30
0.0
 40
5.0
100
AcDbArc
 50
0.0
 51
90.0
  0
LINE
  5
3A9
330
1F
100
AcDbEntity
  8
dxfile
  6
Continuous
 62
     3
100
AcDbLine
 10
3520.486027
 20
1666.125927
 30
0.0
 11
3520.486027
 21
1752.910983
 31
0.0
  0
LINE
  5
3AA
330
1F
100
AcDbEntity
  8
dxfile
  6
Continuous
 62
     3
100
AcDbLine
 10
3190.026027
 20
1675.780927
 30
0.0
 11
3497.746027
 21
1675.780927
 31
0.0
  0
LINE
  5
3AB
330
1F
100
AcDbEntity
  8
dxfile
  6
Continuous
 62
     3
100
AcDbLine
 10
3497.746027
 20
1666.125927
 30
0.0
 11
3497.746027
 21
1675.780927
 31
0.0
  0
LINE
  5
3AC
330
1F
100
AcDbEntity
  8
dxfile
  6
Continuous
 62
     3
100
AcDbLine
 10
3212.821027
 20
1666.125927
 30
0.0
 11
3472.806536
 21
1666.125927
 31
0.0
  0
LINE
  5
3AD
330
1F
100
AcDbEntity
  8
dxfile
  6
Continuous
 62
     3
100
AcDbLine
 10
3520.486027
 20
1666.125927
 30
0.0
 11
3472.986027
 21
1666.125927
 31
0.0
  0
ARC
  5
3AE
330
1F
100
AcDbEntity
  8
dxfile
  6
Continuous
 62
     3
100
AcDbCircle
 10
3472.986027
 20
1661.125927
 30
0.0
 40
5.0
100
AcDbArc
 50
90.0
 51
180.0
  0
LINE
  5
3AF
330
1F
100
AcDbEntity
  8
dxfile
  6
Continuous
 62
     3
100
AcDbLine
 10
3442.941027
 20
1648.595927
 30
0.0
 11
3425.411027
 21
1666.125927
 31
0.0
  0
LINE
  5
3B0
330
1F
100
AcDbEntity
  8
dxfile
  6
Continuous
 62
     3
100
AcDbLine
 10
3467.986027
 20
1658.625927
 30
0.0
 11
3467.986027
 21
1661.125927
 31
0.0
  0
LINE
  5
3B1
330
1F
100
AcDbEntity
  8
dxfile
  6
Continuous
 62
     3
100
AcDbLine
 10
3447.911047
 20
1658.625927
 30
0.0
 11
3440.416146
 21
1666.125927
 31
0.0
  0
LINE
  5
3B2
330
1F
100
AcDbEntity
  8
dxfile
  6
Continuous
 62
     3
100
AcDbLine
 10
3377.431027
 20
1570.330927
 30
0.0
 11
3377.431027
 21
1666.125927
 31
0.0
  0
LINE
  5
3B3
330
1F
100
AcDbEntity
  8
dxfile
  6
Continuous
 62
     3
100
AcDbLine
 10
3190.026027
 20
1666.125927
 30
0.0
 11
3190.026027
 21
1675.780927
 31
0.0
  0
LINE
  5
3B4
330
1F
100
AcDbEntity
  8
dxfile
  6
Continuous
 62
     3
100
AcDbLine
 10
3180.486027
 20
1666.125927
 30
0.0
 11
3212.821027
 21
1666.125927
 31
0.0
  0
LINE
  5
3B5
330
1F
100
AcDbEntity
  8
dxfile
  6
Continuous
 62
     3
100
AcDbLine
 10
3180.486027
 20
1666.125927
 30
0.0
 11
3180.486027
 21
1698.720132
 31
0.0
  0
LINE
  5
3B6
330
1F
100
AcDbEntity
  8
dxfile
  6
Continuous
 62
     3
100
AcDbLine
 10
3243.826027
 20
1658.625927
 30
0.0
 11
3174.486027
 21
1658.625927
 31
0.0
  0
LINE
  5
3B7
330
1F
100
AcDbEntity
  8
dxfile
  6
Continuous
 62
     3
100
AcDbLine
 10
3172.986027
 20
1697.393225
 30
0.0
 11
3172.986027
 21
1660.125927
 31
0.0
  0
ARC
  5
3B8
330
1F
100
AcDbEntity
  8
dxfile
  6
Continuous
 62
     3
100
AcDbCircle
 10
3174.486027
 20
1660.125927
 30
0.0
 40
1.5
100
AcDbArc
 50
180.0
 51
270.0
  0
LINE
  5
3B9
330
1F
100
AcDbEntity
  8
dxfile
  6
Continuous
 62
     3
100
AcDbLine
 10
3447.911047
 20
1658.625927
 30
0.0
 11
3526.486027
 21
1658.625927
 31
0.0
  0
LINE
  5
3BA
330
1F
100
AcDbEntity
  8
dxfile
  6
Continuous
 62
     3
100
AcDbLine
 10
3527.986027
 20
1768.625927
 30
0.0
 11
3527.986027
 21
1660.125927
 31
0.0
  0
ARC
  5
3BB
330
1F
100
AcDbEntity
  8
dxfile
  6
Continuous
 62
     3
100
AcDbCircle
 10
3526.486027
 20
1660.125927
 30
0.0
 40
1.5
100
AcDbArc
 50
270.0
 51
0.0
  0
LINE
  5
3BC
330
1F
100
AcDbEntity
  8
dxfile
  6
Continuous
 62
     3
100
AcDbLine
 10
2954.224704
 20
1668.845074
 30
0.0
 11
3517.986027
 21
1768.586234
 31
0.0
  0
LINE
  5
3BD
330
1F
100
AcDbEntity
  8
dxfile
  6
Continuous
 62
     3
100
AcDbLine
 10
3367.431027
 20
1570.330927
 30
0.0
 11
3377.416027
 21
1570.330927
 31
0.0
  0
LINE
  5
3BE
330
1F
100
AcDbEntity
  8
dxfile
  6
Continuous
 62
     3
100
AcDbLine
 10
3367.431027
 20
1570.330927
 30
0.0
 11
3367.431027
 21
1666.125927
 31
0.0
  0
LINE
  5
3BF
330
1F
100
AcDbEntity
  8
dxfile
  6
Continuous
 62
     3
100
AcDbLine
 10
2962.986027
 20
1660.239836
 30
0.0
 11
3172.986027
 21
1697.393225
 31
0.0
  0
LINE
  5
3C0
330
1F
100
AcDbEntity
  8
dxfile
  6
Continuous
 62
     3
100
AcDbLine
 10
3180.486027
 20
1698.720132
 30
0.0
 11
3514.61495
 21
1757.834521
 31
0.0
  0
LINE
  5
3C1
330
1F
100
AcDbEntity
  8
dxfile
  6
Continuous
 62
     3
100
AcDbLine
 10
3020.486027
 20
1593.625927
 30
0.0
 11
3020.486027
 21
1520.125927
 31
0.0
  0
ARC
  5
3C2
330
1F
100
AcDbEntity
  8
dxfile
  6
Continuous
 62
     3
100
AcDbCircle
 10
3021.986027
 20
1520.125927
 30
0.0
 40
1.5
100
AcDbArc
 50
180.0
 51
270.0
  0
ARC
  5
3C3
330
1F
100
AcDbEntity
  8
dxfile
  6
Continuous
 62
     3
100
AcDbCircle
 10
3515.486027
 20
1752.910983
 30
0.0
 40
5.0
100
AcDbArc
 50
0.0
 51
100.033
  0
LINE
  5
3C4
330
1F
100
AcDbEntity
  8
dxfile
  6
Continuous
 62
     4
100
AcDbLine
 10
3302.986027
 20
1208.110673
 30
0.0
 11
3302.986027
 21
1638.366664
 31
0.0
  0
LINE
  5
3C5
330
1F
100
AcDbEntity
  8
dxfile
  6
Continuous
 62
     4
100
AcDbLine
 10
3302.986027
 20
1638.366664
 30
0.0
 11
3352.986027
 21
1638.366664
 31
0.0
  0
LINE
  5
3C6
330
1F
100
AcDbEntity
  8
dxfile
  6
Continuous
 62
     4
100
AcDbLine
 10
3352.986027
 20
1638.366664
 30
0.0
 11
3352.986027
 21
1208.110673
 31
0.0
  0
LINE
  5
3C7
330
1F
100
AcDbEntity
  8
dxfile
  6
Continuous
 62
     6
100
AcDbLine
 10
3587.821027
 20
1833.465927
 30
0.0
 11
3965.656944
 21
1833.465927
 31
0.0
  0
LINE
  5
3C8
330
1F
100
AcDbEntity
  8
dxfile
  6
Continuous
 62
     6
100
AcDbLine
 10
3587.986027
 20
1867.465927
 30
0.0
 11
3965.656944
 21
1867.465927
 31
0.0
  0
LINE
  5
3C9
330
1F
100
AcDbEntity
  8
dxfile
  6
Continuous
 62
     6
100
AcDbLine
 10
2954.486027
 20
1593.625927
 30
0.0
 11
2947.778543
 21
1502.040393
 31
0.0
  0
LINE
  5
3CA
330
1F
100
AcDbEntity
  8
dxfile
  6
Continuous
 62
     6
100
AcDbLine
 10
2951.758747
 20
1556.387014
 30
0.0
 11
2988.118031
 21
1592.746299
 31
0.0
  0
LINE
  5
3CB
330
1F
100
AcDbEntity
  8
dxfile
  6
Continuous
 62
     6
100
AcDbLine
 10
2988.118031
 20
1564.713822
 30
0.0
 11
2959.205926
 21
1593.625927
 31
0.0
  0
LINE
  5
3CC
330
1F
100
AcDbEntity
  8
dxfile
  6
Continuous
 62
     6
100
AcDbLine
 10
2949.556989
 20
1526.32371
 30
0.0
 11
2988.118031
 21
1564.884751
 31
0.0
  0
LINE
  5
3CD
330
1F
100
AcDbEntity
  8
dxfile
  6
Continuous
 62
     6
100
AcDbLine
 10
2988.118031
 20
1539.41622
 30
0.0
 11
2953.081811
 21
1574.45244
 31
0.0
  0
LINE
  5
3CE
330
1F
100
AcDbEntity
  8
dxfile
  6
Continuous
 62
     6
100
AcDbLine
 10
2951.15722
 20
1548.173625
 30
0.0
 11
2988.118031
 21
1511.212813
 31
0.0
  0
LINE
  5
3CF
330
1F
100
AcDbEntity
  8
dxfile
  6
Continuous
 62
     6
100
AcDbLine
 10
2949.337606
 20
1523.328199
 30
0.0
 11
2967.200909
 21
1505.464896
 31
0.0
  0
LINE
  5
3D0
330
1F
100
AcDbEntity
  8
dxfile
  6
Continuous
 62
     6
100
AcDbLine
 10
2988.118031
 20
1533.775539
 30
0.0
 11
2958.224731
 21
1503.882238
 31
0.0
  0
LINE
  5
3D1
330
1F
100
AcDbEntity
  8
dxfile
  6
Continuous
 62
     6
100
AcDbLine
 10
3527.986027
 20
1518.877347
 30
0.0
 11
3527.986027
 21
1658.625927
 31
0.0
  0
TEXT
  5
3D2
330
1F
100
AcDbEntity
  8
dxfile
  6
Continuous
 62
     2
100
AcDbText
 10
3164.0544
 20
401.149874
 30
0.0
 40
33.64
  1
断面詳細図Ｓ１：２
 41
0.858268
  7
BIGFONT
100
AcDbText
  0
LINE
  5
3D3
330
1F
100
AcDbEntity
  8
dxfile
  6
Continuous
 62
     2
100
AcDbLine
 10
3143.86926
 20
387.464709
 30
0.0
 11
3143.86926
 21
450.573349
 31
0.0
  0
LINE
  5
3D4
330
1F
100
AcDbEntity
  8
dxfile
  6
Continuous
 62
     2
100
AcDbLine
 10
3433.91167
 20
387.464709
 30
0.0
 11
3143.86926
 21
387.464709
 31
0.0
  0
LINE
  5
3D5
330
1F
100
AcDbEntity
  8
dxfile
  6
Continuous
 62
     2
100
AcDbLine
 10
3433.91167
 20
450.573349
 30
0.0
 11
3433.91167
 21
387.464709
 31
0.0
  0
LINE
  5
3D6
330
1F
100
AcDbEntity
  8
dxfile
  6
Continuous
 62
     2
100
AcDbLine
 10
3433.91167
 20
450.573349
 30
0.0
 11
3143.86926
 21
450.573349
 31
0.0
  0
LINE
  5
3D7
330
1F
100
AcDbEntity
  8
dxfile
  6
PLine3
 62
     3
100
AcDbLine
 10
3327.986027
 20
1657.424749
 30
0.0
 11
3327.986027
 21
1139.731967
 31
0.0
  0
INSERT
  5
3E1
330
1F
100
AcDbEntity
  8
dxfile
  6
Continuous
 62
     3
100
AcDbBlockReference
  2
DIM_6
 10
3327.986027
 20
1125.962251
 30
0.0
  0
INSERT
  5
3EB
330
1F
100
AcDbEntity
  8
dxfile
  6
Continuous
 62
     3
100
AcDbBlockReference
  2
DIM_7
 10
3427.986027
 20
2191.967323
 30
0.0
  0
INSERT
  5
3F5
330
1F
100
AcDbEntity
  8
dxfile
  6
Continuous
 62
     3
100
AcDbBlockReference
  2
DIM_8
 10
3102.986027
 20
2116.666572
 30
0.0
  0
CIRCLE
  5
3F6
330
1F
100
AcDbEntity
  8
dxfile
  6
Continuous
 62
     3
100
AcDbCircle
 10
3602.986027
 20
2430.01486
 30
0.0
 40
5.0
  0
LINE
  5
3F7
330
1F
100
AcDbEntity
  8
dxfile
  6
Continuous
 62
     3
100
AcDbLine
 10
3602.986027
 20
2430.01486
 30
0.0
 11
4047.730435
 21
2430.01486
 31
0.0
  0
TEXT
  5
3F8
330
1F
100
AcDbEntity
  8
dxfile
  6
Continuous
 62
     3
100
AcDbText
 10
3749.953281
 20
2435.01486
 30
0.0
 40
30.0
  1
Ａ　ドーム寸法
 41
0.858268
  7
BIGFONT
 72
     1
 11
3825.358231
 21
2435.01486
 31
0.0
100
AcDbText
  0
CIRCLE
  5
3F9
330
1F
100
AcDbEntity
  8
dxfile
  6
Continuous
 62
     3
100
AcDbCircle
 10
4022.225342
 20
2430.01486
 30
0.0
 40
21.21082400326088
  0
CIRCLE
  5
3FA
330
1F
100
AcDbEntity
  8
dxfile
  6
Continuous
 62
     3
100
AcDbCircle
 10
4041.657794
 20
2430.01486
 30
0.0
 40
23.36191733036571
  0
INSERT
  5
404
330
1F
100
AcDbEntity
  8
dxfile
  6
Continuous
 62
     3
100
AcDbBlockReference
  2
DIM_9
 10
3084.32779
 20
2098.625927
 30
0.0
  0
INSERT
  5
40E
330
1F
100
AcDbEntity
  8
dxfile
  6
Continuous
 62
     3
100
AcDbBlockReference
  2
DIM_10
 10
3527.986027
 20
1914.211865
 30
0.0
  0
CIRCLE
  5
40F
330
1F
100
AcDbEntity
  8
dxfile
  6
Continuous
 62
     3
100
AcDbCircle
 10
3587.986027
 20
1982.225418
 30
0.0
 40
5.0
  0
LINE
  5
410
330
1F
100
AcDbEntity
  8
dxfile
  6
Continuous
 62
     3
100
AcDbLine
 10
3587.986027
 20
1982.225418
 30
0.0
 11
3997.307811
 21
1982.225418
 31
0.0
  0
TEXT
  5
411
330
1F
100
AcDbEntity
  8
dxfile
  6
Continuous
 62
     3
100
AcDbText
 10
3758.591435
 20
1986.448121
 30
0.0
 40
30.0
  1
Ｇ　硝子寸法
 41
0.858268
  7
BIGFONT
 72
     1
 11
3822.961514
 21
2001.448121
 31
0.0
100
AcDbText
 73
     2
  0
CIRCLE
  5
412
330
1F
100
AcDbEntity
  8
dxfile
  6
Continuous
 62
     3
100
AcDbCircle
 10
3981.518951
 20
1982.225418
 30
0.0
 40
21.8614993673151
  0
INSERT
  5
41C
330
1F
100
AcDbEntity
  8
dxfile
  6
Continuous
 62
     3
100
AcDbBlockReference
  2
DIM_11
 10
2777.986027
 20
625.538691
 30
0.0
  0
CIRCLE
  5
41D
330
1F
100
AcDbEntity
  8
dxfile
  6
Continuous
 62
     3
100
AcDbCircle
 10
3027.986027
 20
804.485809
 30
0.0
 40
5.0
  0
LINE
  5
41E
330
1F
100
AcDbEntity
  8
dxfile
  6
Continuous
 62
     3
100
AcDbLine
 10
3027.986027
 20
804.485809
 30
0.0
 11
4108.016035
 21
804.485809
 31
0.0
  0
LINE
  5
41F
330
1F
100
AcDbEntity
  8
dxfile
  6
Continuous
 62
     3
100
AcDbLine
 10
3027.986027
 20
1473.424847
 30
0.0
 11
3027.986027
 21
794.485809
 31
0.0
  0
TEXT
  5
420
330
1F
100
AcDbEntity
  8
dxfile
  6
Continuous
 62
     3
100
AcDbText
 10
3762.16423
 20
811.914864
 30
0.0
 40
30.0
  1
Ｗ　フレーム寸法
 41
0.858268
  7
BIGFONT
 72
     1
 11
3848.60405
 21
826.914864
 31
0.0
100
AcDbText
 73
     2
  0
CIRCLE
  5
421
330
1F
100
AcDbEntity
  8
dxfile
  6
Continuous
 62
     3
100
AcDbCircle
 10
3527.986027
 20
934.952642
 30
0.0
 40
5.0
  0
LINE
  5
422
330
1F
100
AcDbEntity
  8
dxfile
  6
Continuous
 62
     3
100
AcDbLine
 10
3527.986027
 20
934.952642
 30
0.0
 11
4058.201426
 21
934.952642
 31
0.0
  0
TEXT
  5
423
330
1F
100
AcDbEntity
  8
dxfile
  6
Continuous
 62
     3
100
AcDbText
 10
3757.992974
 20
940.729941
 30
0.0
 40
30.0
  1
Ｊ　躯体開口寸法
 41
0.858268
  7
BIGFONT
 72
     1
 11
3844.432794
 21
955.729941
 31
0.0
100
AcDbText
 73
     2
  0
CIRCLE
  5
424
330
1F
100
AcDbEntity
  8
dxfile
  6
Continuous
 62
     3
100
AcDbCircle
 10
4007.689279
 20
934.952642
 30
0.0
 40
26.20096871765604
  0
CIRCLE
  5
425
330
1F
100
AcDbEntity
  8
dxfile
  6
Continuous
 62
     3
100
AcDbCircle
 10
4036.15477
 20
932.580518
 30
0.0
 40
33.03986759418706
  0
CIRCLE
  5
426
330
1F
100
AcDbEntity
  8
dxfile
  6
Continuous
 62
     3
100
AcDbCircle
 10
4038.526894
 20
804.485809
 30
0.0
 40
35.26416217604137
  0
CIRCLE
  5
427
330
1F
100
AcDbEntity
  8
dxfile
  6
Continuous
 62
     3
100
AcDbCircle
 10
4071.736634
 20
809.230057
 30
0.0
 40
33.96365054977908
  0
LINE
  5
428
330
1F
100
AcDbEntity
  8
dxfile
  6
Continuous
 62
     3
100
AcDbLine
 10
3708.351368
 20
994.295283
 30
0.0
 11
3731.427392
 21
994.295283
 31
0.0
  0
LINE
  5
429
330
1F
100
AcDbEntity
  8
dxfile
  6
Continuous
 62
     3
100
AcDbLine
 10
3731.427392
 20
994.295283
 30
0.0
 11
3731.427392
 21
970.004732
 31
0.0
  0
LINE
  5
42A
330
1F
100
AcDbEntity
  8
dxfile
  6
Continuous
 62
     3
100
AcDbLine
 10
3731.427392
 20
970.004732
 30
0.0
 11
3708.351368
 21
970.004732
 31
0.0
  0
LINE
  5
42B
330
1F
100
AcDbEntity
  8
dxfile
  6
Continuous
 62
     3
100
AcDbLine
 10
3708.351368
 20
970.004732
 30
0.0
 11
3708.351368
 21
994.295283
 31
0.0
  0
LINE
  5
42C
330
1F
100
AcDbEntity
  8
dxfile
  6
Continuous
 62
     3
100
AcDbLine
 10
3710.916489
 20
870.294228
 30
0.0
 11
3733.992513
 21
870.294228
 31
0.0
  0
LINE
  5
42D
330
1F
100
AcDbEntity
  8
dxfile
  6
Continuous
 62
     3
100
AcDbLine
 10
3733.992513
 20
870.294228
 30
0.0
 11
3733.992513
 21
846.003677
 31
0.0
  0
LINE
  5
42E
330
1F
100
AcDbEntity
  8
dxfile
  6
Continuous
 62
     3
100
AcDbLine
 10
3733.992513
 20
846.003677
 30
0.0
 11
3710.916489
 21
846.003677
 31
0.0
  0
LINE
  5
42F
330
1F
100
AcDbEntity
  8
dxfile
  6
Continuous
 62
     3
100
AcDbLine
 10
3710.916489
 20
846.003677
 30
0.0
 11
3710.916489
 21
870.294228
 31
0.0
  0
LINE
  5
430
330
1F
100
AcDbEntity
  8
dxfile
  6
Continuous
 62
     3
100
AcDbLine
 10
3705.790473
 20
2486.417834
 30
0.0
 11
3726.777507
 21
2486.417834
 31
0.0
  0
LINE
  5
431
330
1F
100
AcDbEntity
  8
dxfile
  6
Continuous
 62
     3
100
AcDbLine
 10
3726.777507
 20
2486.417834
 30
0.0
 11
3726.777507
 21
2464.653502
 31
0.0
  0
LINE
  5
432
330
1F
100
AcDbEntity
  8
dxfile
  6
Continuous
 62
     3
100
AcDbLine
 10
3726.777507
 20
2464.653502
 30
0.0
 11
3705.790473
 21
2464.653502
 31
0.0
  0
LINE
  5
433
330
1F
100
AcDbEntity
  8
dxfile
  6
Continuous
 62
     3
100
AcDbLine
 10
3705.790473
 20
2464.653502
 30
0.0
 11
3705.790473
 21
2486.417834
 31
0.0
  0
LINE
  5
434
330
1F
100
AcDbEntity
  8
dxfile
  6
Continuous
 62
     3
100
AcDbLine
 10
3709.404176
 20
2042.154998
 30
0.0
 11
3731.414452
 21
2042.154998
 31
0.0
  0
LINE
  5
435
330
1F
100
AcDbEntity
  8
dxfile
  6
Continuous
 62
     3
100
AcDbLine
 10
3731.414452
 20
2042.154998
 30
0.0
 11
3731.414452
 21
2021.01251
 31
0.0
  0
LINE
  5
436
330
1F
100
AcDbEntity
  8
dxfile
  6
Continuous
 62
     3
100
AcDbLine
 10
3731.414452
 20
2021.01251
 30
0.0
 11
3709.404176
 21
2021.01251
 31
0.0
  0
LINE
  5
437
330
1F
100
AcDbEntity
  8
dxfile
  6
Continuous
 62
     3
100
AcDbLine
 10
3709.404176
 20
2021.01251
 30
0.0
 11
3709.404176
 21
2042.154998
 31
0.0
  0
LINE
  5
438
330
1F
100
AcDbEntity
  8
dxfile
  6
Continuous
 62
     3
100
AcDbLine
 10
2815.136679
 20
1480.656022
 30
0.0
 11
2829.466806
 21
1465.835514
 31
0.0
  0
LINE
  5
439
330
1F
100
AcDbEntity
  8
dxfile
  6
Continuous
 62
     3
100
AcDbLine
 10
2829.466806
 20
1465.835514
 30
0.0
 11
2782.363951
 21
1547.420052
 31
0.0
  0
LINE
  5
43A
330
1F
100
AcDbEntity
  8
dxfile
  6
Continuous
 62
     3
100
AcDbLine
 10
2782.363951
 20
1547.420052
 30
0.0
 11
2524.883636
 21
1547.420052
 31
0.0
  0
TEXT
  5
43B
330
1F
100
AcDbEntity
  8
dxfile
  6
Continuous
 62
     3
100
AcDbText
 10
2565.344829
 20
1552.420052
 30
0.0
 40
30.0
  1
防水モルタル（別途）
 50
360.0
 41
0.858268
  7
BIGFONT
 72
     2
 11
2782.363951
 21
1552.420052
 31
0.0
100
AcDbText
  0
LINE
  5
43C
330
1F
100
AcDbEntity
  8
dxfile
  6
Continuous
 62
     3
100
AcDbLine
 10
3299.257362
 20
1300.235092
 30
0.0
 11
3304.927235
 21
1320.0556
 31
0.0
  0
LINE
  5
43D
330
1F
100
AcDbEntity
  8
dxfile
  6
Continuous
 62
     3
100
AcDbLine
 10
3304.927235
 20
1320.0556
 30
0.0
 11
3234.806466
 21
1198.602866
 31
0.0
  0
LINE
  5
43E
330
1F
100
AcDbEntity
  8
dxfile
  6
Continuous
 62
     3
100
AcDbLine
 10
3234.806466
 20
1198.602866
 30
0.0
 11
3080.318277
 21
1198.602866
 31
0.0
  0
TEXT
  5
43F
330
1F
100
AcDbEntity
  8
dxfile
  6
Continuous
 62
     3
100
AcDbText
 10
3106.066309
 20
1203.602866
 30
0.0
 40
30.0
  1
差筋（別途）
 50
360.0
 41
0.858268
  7
BIGFONT
 72
     2
 11
3234.806466
 21
1203.602866
 31
0.0
100
AcDbText
  0
LINE
  5
440
330
1F
100
AcDbEntity
  8
dxfile
  6
Continuous
 62
     3
100
AcDbLine
 10
3365.307848
 20
2150.385856
 30
0.0
 11
3386.803039
 21
2128.155094
 31
0.0
  0
LINE
  5
441
330
1F
100
AcDbEntity
  8
dxfile
  6
Continuous
 62
     3
100
AcDbLine
 10
3386.803039
 20
2128.155094
 30
0.0
 11
3128.087873
 21
2576.262907
 31
0.0
  0
LINE
  5
442
330
1F
100
AcDbEntity
  8
dxfile
  6
Continuous
 62
     3
100
AcDbLine
 10
3128.087873
 20
2576.262907
 30
0.0
 11
2793.363463
 21
2576.262907
 31
0.0
  0
TEXT
  5
443
330
1F
100
AcDbEntity
  8
dxfile
  6
Continuous
 62
     3
100
AcDbText
 10
2793.363463
 20
2581.262907
 30
0.0
 40
30.0
  1
Ｍ８×４０　Ｗ．Ｐ．Ｎ　ＳＵＳ
 50
360.0
 41
0.858268
  7
BIGFONT
100
AcDbText
  0
LINE
  5
444
330
1F
100
AcDbEntity
  8
dxfile
  6
Continuous
 62
     3
100
AcDbLine
 10
2935.629045
 20
1555.748129
 30
0.0
 11
2949.959172
 21
1540.927621
 31
0.0
  0
LINE
  5
445
330
1F
100
AcDbEntity
  8
dxfile
  6
Continuous
 62
     3
100
AcDbLine
 10
2949.959172
 20
1540.927621
 30
0.0
 11
2892.870933
 21
1639.80735
 31
0.0
  0
LINE
  5
446
330
1F
100
AcDbEntity
  8
dxfile
  6
Continuous
 62
     3
100
AcDbLine
 10
2892.870933
 20
1639.80735
 30
0.0
 11
2599.642587
 21
1639.80735
 31
0.0
  0
TEXT
  5
447
330
1F
100
AcDbEntity
  8
dxfile
  6
Continuous
 62
     3
100
AcDbText
 10
2599.642587
 20
1644.80735
 30
0.0
 40
30.0
  1
シーリング処理（別途）
 50
360.0
 41
0.858268
 51
0.0
  7
BIGFONT
100
AcDbText
  0
LINE
  5
448
330
1F
100
AcDbEntity
  8
dxfile
  6
Continuous
 62
     3
100
AcDbLine
 10
3085.772413
 20
1708.085242
 30
0.0
 11
3100.10254
 21
1693.264734
 31
0.0
  0
LINE
  5
449
330
1F
100
AcDbEntity
  8
dxfile
  6
Continuous
 62
     3
100
AcDbLine
 10
3100.10254
 20
1693.264734
 30
0.0
 11
3059.418592
 21
1763.731398
 31
0.0
  0
LINE
  5
44A
330
1F
100
AcDbEntity
  8
dxfile
  6
Continuous
 62
     3
100
AcDbLine
 10
3059.418592
 20
1763.731398
 30
0.0
 11
2698.946152
 21
1763.731398
 31
0.0
  0
TEXT
  5
44B
330
1F
100
AcDbEntity
  8
dxfile
  6
Continuous
 62
     3
100
AcDbText
 10
2698.946152
 20
1768.731398
 30
0.0
 40
30.0
  1
トップライトフレーム　アルミ
 50
360.0
 41
0.858268
  7
BIGFONT
100
AcDbText
  0
LINE
  5
44C
330
1F
100
AcDbEntity
  8
dxfile
  6
Continuous
 62
     3
100
AcDbLine
 10
3221.854844
 20
2113.446435
 30
0.0
 11
3236.184971
 21
2098.625927
 31
0.0
  0
LINE
  5
44D
330
1F
100
AcDbEntity
  8
dxfile
  6
Continuous
 62
     3
100
AcDbLine
 10
3236.184971
 20
2098.625927
 30
0.0
 11
3056.79889
 21
2409.331733
 31
0.0
  0
LINE
  5
44E
330
1F
100
AcDbEntity
  8
dxfile
  6
Continuous
 62
     3
100
AcDbLine
 10
3056.79889
 20
2409.331733
 30
0.0
 11
2913.323854
 21
2409.331733
 31
0.0
  0
TEXT
  5
44F
330
1F
100
AcDbEntity
  8
dxfile
  6
Continuous
 62
     3
100
AcDbText
 10
2913.323854
 20
2414.331733
 30
0.0
 40
30.0
  1
Ｂ型ドーム
 50
360.0
 41
0.858268
  7
BIGFONT
100
AcDbText
  0
LINE
  5
450
330
1F
100
AcDbEntity
  8
dxfile
  6
Continuous
 62
     3
100
AcDbLine
 10
3727.508703
 20
1824.083877
 30
0.0
 11
3713.178576
 21
1838.904385
 31
0.0
  0
LINE
  5
451
330
1F
100
AcDbEntity
  8
dxfile
  6
Continuous
 62
     3
100
AcDbLine
 10
3713.178576
 20
1838.904385
 30
0.0
 11
3787.210203
 21
1710.677845
 31
0.0
  0
LINE
  5
452
330
1F
100
AcDbEntity
  8
dxfile
  6
Continuous
 62
     3
100
AcDbLine
 10
3787.210203
 20
1710.677845
 30
0.0
 11
4070.43855
 21
1710.677845
 31
0.0
  0
TEXT
  5
453
330
1F
100
AcDbEntity
  8
dxfile
  6
Continuous
 62
     3
100
AcDbText
 10
3787.210203
 20
1715.677845
 30
0.0
 40
30.0
  1
６．８網入り硝子（別途）
 41
0.858268
  7
BIGFONT
100
AcDbText
  0
LINE
  5
454
330
1F
100
AcDbEntity
  8
dxfile
  6
Continuous
 62
     3
100
AcDbLine
 10
3669.488849
 20
1168.204643
 30
0.0
 11
3655.158722
 21
1183.025151
 31
0.0
  0
LINE
  5
455
330
1F
100
AcDbEntity
  8
dxfile
  6
Continuous
 62
     3
100
AcDbLine
 10
3655.158722
 20
1183.025151
 30
0.0
 11
3708.366871
 21
1090.865934
 31
0.0
  0
LINE
  5
456
330
1F
100
AcDbEntity
  8
dxfile
  6
Continuous
 62
     3
100
AcDbLine
 10
3708.366871
 20
1090.865934
 30
0.0
 11
3872.85506
 21
1090.865934
 31
0.0
  0
TEXT
  5
457
330
1F
100
AcDbEntity
  8
dxfile
  6
Continuous
 62
     3
100
AcDbText
 10
3714.598571
 20
1100.072244
 30
0.0
 40
30.0
  1
内装仕上げ面
 41
0.858268
  7
BIGFONT
100
AcDbText
  0
INSERT
  5
461
330
1F
100
AcDbEntity
  8
dxfile
  6
Continuous
 62
     3
100
AcDbBlockReference
  2
DIM_12
 10
3527.986027
 20
1106.619272
 30
0.0
  0
LINE
  5
462
330
1F
100
AcDbEntity
  8
dxfile
  6
Continuous
 62
     3
100
AcDbLine
 10
3621.815543
 20
1803.996331
 30
0.0
 11
3607.485416
 21
1818.816839
 31
0.0
  0
LINE
  5
463
330
1F
100
AcDbEntity
  8
dxfile
  6
Continuous
 62
     3
100
AcDbLine
 10
3607.485416
 20
1818.816839
 30
0.0
 11
3709.53302
 21
1642.065204
 31
0.0
  0
LINE
  5
464
330
1F
100
AcDbEntity
  8
dxfile
  6
Continuous
 62
     3
100
AcDbLine
 10
3709.53302
 20
1642.065204
 30
0.0
 11
3875.601936
 21
1642.065204
 31
0.0
  0
TEXT
  5
465
330
1F
100
AcDbEntity
  8
dxfile
  6
Continuous
 62
     3
100
AcDbText
 10
3721.113747
 20
1647.065204
 30
0.0
 40
30.0
  1
硝子パッキン
 41
0.858268
  7
BIGFONT
100
AcDbText
  0
LINE
  5
466
330
1F
100
AcDbEntity
  8
dxfile
  6
Continuous
 62
     3
100
AcDbLine
 10
3361.057629
 20
2042.25052
 30
0.0
 11
3375.387756
 21
2027.430012
 31
0.0
  0
LINE
  5
467
330
1F
100
AcDbEntity
  8
dxfile
  6
Continuous
 62
     3
100
AcDbLine
 10
3375.387756
 20
2027.430012
 30
0.0
 11
3114.690034
 21
2478.971711
 31
0.0
  0
LINE
  5
468
330
1F
100
AcDbEntity
  8
dxfile
  6
Continuous
 62
     3
100
AcDbLine
 10
3114.690034
 20
2478.971711
 30
0.0
 11
2779.965625
 21
2478.971711
 31
0.0
  0
TEXT
  5
469
330
1F
100
AcDbEntity
  8
dxfile
  6
Continuous
 62
     3
100
AcDbText
 10
2831.461688
 20
2483.971711
 30
0.0
 40
30.0
  1
コンプリフォーム１０×２０
 50
360.0
 41
0.858268
  7
BIGFONT
 72
     2
 11
3114.690034
 21
2483.971711
 31
0.0
100
AcDbText
  0
LINE
  5
46A
330
1F
100
AcDbEntity
  8
dxfile
  6
Continuous
 62
     3
100
AcDbLine
 10
3535.33146
 20
1617.336939
 30
0.0
 11
3521.001333
 21
1632.157447
 31
0.0
  0
LINE
  5
46B
330
1F
100
AcDbEntity
  8
dxfile
  6
Continuous
 62
     3
100
AcDbLine
 10
3521.001333
 20
1632.157447
 30
0.0
 11
3719.389361
 21
1288.539304
 31
0.0
  0
LINE
  5
46C
330
1F
100
AcDbEntity
  8
dxfile
  6
Continuous
 62
     3
100
AcDbLine
 10
3719.389361
 20
1288.539304
 30
0.0
 11
3976.869675
 21
1288.539304
 31
0.0
  0
TEXT
  5
46D
330
1F
100
AcDbEntity
  8
dxfile
  6
Continuous
 62
     3
100
AcDbText
 10
3719.389361
 20
1293.539304
 30
0.0
 40
30.0
  1
モルタル充填（別途）
 41
0.858268
  7
BIGFONT
100
AcDbText
  0
LINE
  5
46E
330
1F
100
AcDbEntity
  8
dxfile
  6
Continuous
 62
     3
100
AcDbLine
 10
390.377861
 20
875.065019
 30
0.0
 11
376.047734
 21
889.885527
 31
0.0
  0
LINE
  5
46F
330
1F
100
AcDbEntity
  8
dxfile
  6
Continuous
 62
     3
100
AcDbLine
 10
376.047734
 20
889.885527
 30
0.0
 11
458.754402
 21
746.633376
 31
0.0
  0
LINE
  5
470
330
1F
100
AcDbEntity
  8
dxfile
  6
Continuous
 62
     3
100
AcDbLine
 10
458.754402
 20
746.633376
 30
0.0
 11
716.234717
 21
746.633376
 31
0.0
  0
TEXT
  5
471
330
1F
100
AcDbEntity
  8
dxfile
  6
Continuous
 62
     3
100
AcDbText
 10
458.754402
 20
751.633376
 30
0.0
 40
30.0
  1
モルタル充填（別途）
 41
0.858268
  7
BIGFONT
100
AcDbText
  0
INSERT
  5
47B
330
1F
100
AcDbEntity
  8
dxfile
  6
Continuous
 62
     3
100
AcDbBlockReference
  2
DIM_13
 10
785.355751
 20
1241.223595
 30
0.0
  0
INSERT
  5
485
330
1F
100
AcDbEntity
  8
dxfile
  6
Continuous
 62
     3
100
AcDbBlockReference
  2
DIM_14
 10
335.08681
 20
809.257294
 30
0.0
  0
LINE
  5
486
330
1F
100
AcDbEntity
  8
dxfile
  6
PLine2
 62
     3
100
AcDbLine
 10
335.08681
 20
901.769324
 30
0.0
 11
335.08681
 21
811.348968
 31
0.0
  0
LINE
  5
487
330
1F
100
AcDbEntity
  8
dxfile
  6
PLine2
 62
     3
100
AcDbLine
 10
1345.08681
 20
901.769324
 30
0.0
 11
1345.08681
 21
801.734848
 31
0.0
  0
LINE
  5
488
330
1F
100
AcDbEntity
  8
dxfile
  6
Continuous
 62
     6
100
AcDbLine
 10
1305.08681
 20
710.820654
 30
0.0
 11
1376.71837
 21
639.189094
 31
0.0
  0
LINE
  5
489
330
1F
100
AcDbEntity
  8
dxfile
  6
Continuous
 62
     6
100
AcDbLine
 10
1305.08681
 20
716.341046
 30
0.0
 11
1382.238762
 21
639.189094
 31
0.0
  0
LINE
  5
48A
330
1F
100
AcDbEntity
  8
dxfile
  6
Continuous
 62
     6
100
AcDbLine
 10
1305.08681
 20
721.012147
 30
0.0
 11
1386.909862
 21
639.189094
 31
0.0
  0
LINE
  5
48B
330
1F
100
AcDbEntity
  8
dxfile
  6
PLine2
 62
     3
100
AcDbLine
 10
437.148176
 20
2212.105528
 30
0.0
 11
437.148176
 21
1784.16908
 31
0.0
  0
LINE
  5
48C
330
1F
100
AcDbEntity
  8
dxfile
  6
PLine2
 62
     3
100
AcDbLine
 10
204.130389
 20
1994.365001
 30
0.0
 11
670.501409
 21
1994.365001
 31
0.0
  0
LINE
  5
48D
330
1F
100
AcDbEntity
  8
dxfile
  6
PLine3
 62
     2
100
AcDbLine
 10
259.648176
 20
2171.865001
 30
0.0
 11
614.648176
 21
2171.865001
 31
0.0
  0
LINE
  5
48E
330
1F
100
AcDbEntity
  8
dxfile
  6
PLine3
 62
     2
100
AcDbLine
 10
614.648176
 20
2171.865001
 30
0.0
 11
614.648176
 21
1816.865001
 31
0.0
  0
LINE
  5
48F
330
1F
100
AcDbEntity
  8
dxfile
  6
PLine3
 62
     2
100
AcDbLine
 10
614.648176
 20
1816.865001
 30
0.0
 11
259.648176
 21
1816.865001
 31
0.0
  0
LINE
  5
490
330
1F
100
AcDbEntity
  8
dxfile
  6
PLine3
 62
     2
100
AcDbLine
 10
259.648176
 20
1816.865001
 30
0.0
 11
259.648176
 21
2171.865001
 31
0.0
  0
LINE
  5
491
330
1F
100
AcDbEntity
  8
dxfile
  6
Continuous
 62
     2
100
AcDbLine
 10
317.148176
 20
2184.365001
 30
0.0
 11
332.148176
 21
2184.365001
 31
0.0
  0
LINE
  5
492
330
1F
100
AcDbEntity
  8
dxfile
  6
Continuous
 62
     2
100
AcDbLine
 10
332.148176
 20
2184.365001
 30
0.0
 11
332.148176
 21
2159.365001
 31
0.0
  0
LINE
  5
493
330
1F
100
AcDbEntity
  8
dxfile
  6
Continuous
 62
     2
100
AcDbLine
 10
332.148176
 20
2159.365001
 30
0.0
 11
317.148176
 21
2159.365001
 31
0.0
  0
LINE
  5
494
330
1F
100
AcDbEntity
  8
dxfile
  6
Continuous
 62
     2
100
AcDbLine
 10
317.148176
 20
2159.365001
 30
0.0
 11
317.148176
 21
2184.365001
 31
0.0
  0
LINE
  5
495
330
1F
100
AcDbEntity
  8
dxfile
  6
Continuous
 62
     2
100
AcDbLine
 10
557.148176
 20
2184.365001
 30
0.0
 11
542.148176
 21
2184.365001
 31
0.0
  0
LINE
  5
496
330
1F
100
AcDbEntity
  8
dxfile
  6
Continuous
 62
     2
100
AcDbLine
 10
542.148176
 20
2184.365001
 30
0.0
 11
542.148176
 21
2159.365001
 31
0.0
  0
LINE
  5
497
330
1F
100
AcDbEntity
  8
dxfile
  6
Continuous
 62
     2
100
AcDbLine
 10
542.148176
 20
2159.365001
 30
0.0
 11
557.148176
 21
2159.365001
 31
0.0
  0
LINE
  5
498
330
1F
100
AcDbEntity
  8
dxfile
  6
Continuous
 62
     2
100
AcDbLine
 10
557.148176
 20
2159.365001
 30
0.0
 11
557.148176
 21
2184.365001
 31
0.0
  0
LINE
  5
499
330
1F
100
AcDbEntity
  8
dxfile
  6
Continuous
 62
     2
100
AcDbLine
 10
247.148176
 20
2114.365001
 30
0.0
 11
247.148176
 21
2099.365001
 31
0.0
  0
LINE
  5
49A
330
1F
100
AcDbEntity
  8
dxfile
  6
Continuous
 62
     2
100
AcDbLine
 10
247.148176
 20
2099.365001
 30
0.0
 11
272.148176
 21
2099.365001
 31
0.0
  0
LINE
  5
49B
330
1F
100
AcDbEntity
  8
dxfile
  6
Continuous
 62
     2
100
AcDbLine
 10
272.148176
 20
2099.365001
 30
0.0
 11
272.148176
 21
2114.365001
 31
0.0
  0
LINE
  5
49C
330
1F
100
AcDbEntity
  8
dxfile
  6
Continuous
 62
     2
100
AcDbLine
 10
272.148176
 20
2114.365001
 30
0.0
 11
247.148176
 21
2114.365001
 31
0.0
  0
LINE
  5
49D
330
1F
100
AcDbEntity
  8
dxfile
  6
Continuous
 62
     2
100
AcDbLine
 10
247.148176
 20
1874.365001
 30
0.0
 11
247.148176
 21
1889.365001
 31
0.0
  0
LINE
  5
49E
330
1F
100
AcDbEntity
  8
dxfile
  6
Continuous
 62
     2
100
AcDbLine
 10
247.148176
 20
1889.365001
 30
0.0
 11
272.148176
 21
1889.365001
 31
0.0
  0
LINE
  5
49F
330
1F
100
AcDbEntity
  8
dxfile
  6
Continuous
 62
     2
100
AcDbLine
 10
272.148176
 20
1889.365001
 30
0.0
 11
272.148176
 21
1874.365001
 31
0.0
  0
LINE
  5
4A0
330
1F
100
AcDbEntity
  8
dxfile
  6
Continuous
 62
     2
100
AcDbLine
 10
272.148176
 20
1874.365001
 30
0.0
 11
247.148176
 21
1874.365001
 31
0.0
  0
INSERT
  5
4AA
330
1F
100
AcDbEntity
  8
dxfile
  6
Continuous
 62
     3
100
AcDbBlockReference
  2
DIM_15
 10
324.648176
 20
2191.844855
 30
0.0
  0
LINE
  5
4AB
330
1F
100
AcDbEntity
  8
dxfile
  6
PLine2
 62
     3
100
AcDbLine
 10
549.648176
 20
2192.240786
 30
0.0
 11
549.648176
 21
2139.384689
 31
0.0
  0
LINE
  5
4AC
330
1F
100
AcDbEntity
  8
dxfile
  6
PLine2
 62
     3
100
AcDbLine
 10
324.648176
 20
2193.484459
 30
0.0
 11
324.648176
 21
2144.981217
 31
0.0
  0
INSERT
  5
4B6
330
1F
100
AcDbEntity
  8
dxfile
  6
Continuous
 62
     3
100
AcDbBlockReference
  2
DIM_16
 10
239.668322
 20
2106.865001
 30
0.0
  0
INSERT
  5
4C0
330
1F
100
AcDbEntity
  8
dxfile
  6
Continuous
 62
     3
100
AcDbBlockReference
  2
DIM_17
 10
259.648176
 20
1803.46501
 30
0.0
  0
INSERT
  5
4CA
330
1F
100
AcDbEntity
  8
dxfile
  6
Continuous
 62
     3
100
AcDbBlockReference
  2
DIM_18
 10
637.855149
 20
2171.865001
 30
0.0
  0
LINE
  5
4CB
330
1F
100
AcDbEntity
  8
dxfile
  6
PLine2
 62
     3
100
AcDbLine
 10
1122.387898
 20
2287.105528
 30
0.0
 11
1122.387898
 21
1683.487002
 31
0.0
  0
LINE
  5
4CC
330
1F
100
AcDbEntity
  8
dxfile
  6
PLine2
 62
     3
100
AcDbLine
 10
814.370111
 20
1994.365001
 30
0.0
 11
1430.741131
 21
1994.365001
 31
0.0
  0
LINE
  5
4CD
330
1F
100
AcDbEntity
  8
dxfile
  6
PLine3
 62
     2
100
AcDbLine
 10
869.887898
 20
2246.865001
 30
0.0
 11
1374.887898
 21
2246.865001
 31
0.0
  0
LINE
  5
4CE
330
1F
100
AcDbEntity
  8
dxfile
  6
PLine3
 62
     2
100
AcDbLine
 10
1374.887898
 20
2246.865001
 30
0.0
 11
1374.887898
 21
1741.865001
 31
0.0
  0
LINE
  5
4CF
330
1F
100
AcDbEntity
  8
dxfile
  6
PLine3
 62
     2
100
AcDbLine
 10
1374.887898
 20
1741.865001
 30
0.0
 11
869.887898
 21
1741.865001
 31
0.0
  0
LINE
  5
4D0
330
1F
100
AcDbEntity
  8
dxfile
  6
PLine3
 62
     2
100
AcDbLine
 10
869.887898
 20
1741.865001
 30
0.0
 11
869.887898
 21
2246.865001
 31
0.0
  0
LINE
  5
4D1
330
1F
100
AcDbEntity
  8
dxfile
  6
Continuous
 62
     2
100
AcDbLine
 10
964.887898
 20
2259.365001
 30
0.0
 11
979.887898
 21
2259.365001
 31
0.0
  0
LINE
  5
4D2
330
1F
100
AcDbEntity
  8
dxfile
  6
Continuous
 62
     2
100
AcDbLine
 10
979.887898
 20
2259.365001
 30
0.0
 11
979.887898
 21
2234.365001
 31
0.0
  0
LINE
  5
4D3
330
1F
100
AcDbEntity
  8
dxfile
  6
Continuous
 62
     2
100
AcDbLine
 10
979.887898
 20
2234.365001
 30
0.0
 11
964.887898
 21
2234.365001
 31
0.0
  0
LINE
  5
4D4
330
1F
100
AcDbEntity
  8
dxfile
  6
Continuous
 62
     2
100
AcDbLine
 10
964.887898
 20
2234.365001
 30
0.0
 11
964.887898
 21
2259.365001
 31
0.0
  0
LINE
  5
4D5
330
1F
100
AcDbEntity
  8
dxfile
  6
Continuous
 62
     2
100
AcDbLine
 10
1279.887898
 20
2259.365001
 30
0.0
 11
1264.887898
 21
2259.365001
 31
0.0
  0
LINE
  5
4D6
330
1F
100
AcDbEntity
  8
dxfile
  6
Continuous
 62
     2
100
AcDbLine
 10
1264.887898
 20
2259.365001
 30
0.0
 11
1264.887898
 21
2234.365001
 31
0.0
  0
LINE
  5
4D7
330
1F
100
AcDbEntity
  8
dxfile
  6
Continuous
 62
     2
100
AcDbLine
 10
1264.887898
 20
2234.365001
 30
0.0
 11
1279.887898
 21
2234.365001
 31
0.0
  0
LINE
  5
4D8
330
1F
100
AcDbEntity
  8
dxfile
  6
Continuous
 62
     2
100
AcDbLine
 10
1279.887898
 20
2234.365001
 30
0.0
 11
1279.887898
 21
2259.365001
 31
0.0
  0
LINE
  5
4D9
330
1F
100
AcDbEntity
  8
dxfile
  6
Continuous
 62
     2
100
AcDbLine
 10
964.887898
 20
1729.365001
 30
0.0
 11
979.887898
 21
1729.365001
 31
0.0
  0
LINE
  5
4DA
330
1F
100
AcDbEntity
  8
dxfile
  6
Continuous
 62
     2
100
AcDbLine
 10
979.887898
 20
1729.365001
 30
0.0
 11
979.887898
 21
1754.365001
 31
0.0
  0
LINE
  5
4DB
330
1F
100
AcDbEntity
  8
dxfile
  6
Continuous
 62
     2
100
AcDbLine
 10
979.887898
 20
1754.365001
 30
0.0
 11
964.887898
 21
1754.365001
 31
0.0
  0
LINE
  5
4DC
330
1F
100
AcDbEntity
  8
dxfile
  6
Continuous
 62
     2
100
AcDbLine
 10
964.887898
 20
1754.365001
 30
0.0
 11
964.887898
 21
1729.365001
 31
0.0
  0
LINE
  5
4DD
330
1F
100
AcDbEntity
  8
dxfile
  6
Continuous
 62
     2
100
AcDbLine
 10
1279.887898
 20
1729.365001
 30
0.0
 11
1264.887898
 21
1729.365001
 31
0.0
  0
LINE
  5
4DE
330
1F
100
AcDbEntity
  8
dxfile
  6
Continuous
 62
     2
100
AcDbLine
 10
1264.887898
 20
1729.365001
 30
0.0
 11
1264.887898
 21
1754.365001
 31
0.0
  0
LINE
  5
4DF
330
1F
100
AcDbEntity
  8
dxfile
  6
Continuous
 62
     2
100
AcDbLine
 10
1264.887898
 20
1754.365001
 30
0.0
 11
1279.887898
 21
1754.365001
 31
0.0
  0
LINE
  5
4E0
330
1F
100
AcDbEntity
  8
dxfile
  6
Continuous
 62
     2
100
AcDbLine
 10
1279.887898
 20
1754.365001
 30
0.0
 11
1279.887898
 21
1729.365001
 31
0.0
  0
LINE
  5
4E1
330
1F
100
AcDbEntity
  8
dxfile
  6
Continuous
 62
     2
100
AcDbLine
 10
857.387898
 20
2151.865001
 30
0.0
 11
857.387898
 21
2136.865001
 31
0.0
  0
LINE
  5
4E2
330
1F
100
AcDbEntity
  8
dxfile
  6
Continuous
 62
     2
100
AcDbLine
 10
857.387898
 20
2136.865001
 30
0.0
 11
882.387898
 21
2136.865001
 31
0.0
  0
LINE
  5
4E3
330
1F
100
AcDbEntity
  8
dxfile
  6
Continuous
 62
     2
100
AcDbLine
 10
882.387898
 20
2136.865001
 30
0.0
 11
882.387898
 21
2151.865001
 31
0.0
  0
LINE
  5
4E4
330
1F
100
AcDbEntity
  8
dxfile
  6
Continuous
 62
     2
100
AcDbLine
 10
882.387898
 20
2151.865001
 30
0.0
 11
857.387898
 21
2151.865001
 31
0.0
  0
LINE
  5
4E5
330
1F
100
AcDbEntity
  8
dxfile
  6
Continuous
 62
     2
100
AcDbLine
 10
857.387898
 20
1836.865001
 30
0.0
 11
857.387898
 21
1851.865001
 31
0.0
  0
LINE
  5
4E6
330
1F
100
AcDbEntity
  8
dxfile
  6
Continuous
 62
     2
100
AcDbLine
 10
857.387898
 20
1851.865001
 30
0.0
 11
882.387898
 21
1851.865001
 31
0.0
  0
LINE
  5
4E7
330
1F
100
AcDbEntity
  8
dxfile
  6
Continuous
 62
     2
100
AcDbLine
 10
882.387898
 20
1851.865001
 30
0.0
 11
882.387898
 21
1836.865001
 31
0.0
  0
LINE
  5
4E8
330
1F
100
AcDbEntity
  8
dxfile
  6
Continuous
 62
     2
100
AcDbLine
 10
882.387898
 20
1836.865001
 30
0.0
 11
857.387898
 21
1836.865001
 31
0.0
  0
LINE
  5
4E9
330
1F
100
AcDbEntity
  8
dxfile
  6
Continuous
 62
     2
100
AcDbLine
 10
1387.387898
 20
2151.865001
 30
0.0
 11
1387.387898
 21
2136.865001
 31
0.0
  0
LINE
  5
4EA
330
1F
100
AcDbEntity
  8
dxfile
  6
Continuous
 62
     2
100
AcDbLine
 10
1387.387898
 20
2136.865001
 30
0.0
 11
1362.387898
 21
2136.865001
 31
0.0
  0
LINE
  5
4EB
330
1F
100
AcDbEntity
  8
dxfile
  6
Continuous
 62
     2
100
AcDbLine
 10
1362.387898
 20
2136.865001
 30
0.0
 11
1362.387898
 21
2151.865001
 31
0.0
  0
LINE
  5
4EC
330
1F
100
AcDbEntity
  8
dxfile
  6
Continuous
 62
     2
100
AcDbLine
 10
1362.387898
 20
2151.865001
 30
0.0
 11
1387.387898
 21
2151.865001
 31
0.0
  0
LINE
  5
4ED
330
1F
100
AcDbEntity
  8
dxfile
  6
Continuous
 62
     2
100
AcDbLine
 10
1387.387898
 20
1836.865001
 30
0.0
 11
1387.387898
 21
1851.865001
 31
0.0
  0
LINE
  5
4EE
330
1F
100
AcDbEntity
  8
dxfile
  6
Continuous
 62
     2
100
AcDbLine
 10
1387.387898
 20
1851.865001
 30
0.0
 11
1362.387898
 21
1851.865001
 31
0.0
  0
LINE
  5
4EF
330
1F
100
AcDbEntity
  8
dxfile
  6
Continuous
 62
     2
100
AcDbLine
 10
1362.387898
 20
1851.865001
 30
0.0
 11
1362.387898
 21
1836.865001
 31
0.0
  0
LINE
  5
4F0
330
1F
100
AcDbEntity
  8
dxfile
  6
Continuous
 62
     2
100
AcDbLine
 10
1362.387898
 20
1836.865001
 30
0.0
 11
1387.387898
 21
1836.865001
 31
0.0
  0
INSERT
  5
4FA
330
1F
100
AcDbEntity
  8
dxfile
  6
Continuous
 62
     3
100
AcDbBlockReference
  2
DIM_19
 10
972.387898
 20
2266.844855
 30
0.0
  0
LINE
  5
4FB
330
1F
100
AcDbEntity
  8
dxfile
  6
PLine2
 62
     3
100
AcDbLine
 10
1272.387898
 20
2267.240786
 30
0.0
 11
1272.387898
 21
2214.384689
 31
0.0
  0
LINE
  5
4FC
330
1F
100
AcDbEntity
  8
dxfile
  6
PLine2
 62
     3
100
AcDbLine
 10
972.387898
 20
2268.484459
 30
0.0
 11
972.387898
 21
2219.981217
 31
0.0
  0
INSERT
  5
506
330
1F
100
AcDbEntity
  8
dxfile
  6
Continuous
 62
     3
100
AcDbBlockReference
  2
DIM_20
 10
849.908044
 20
2144.365001
 30
0.0
  0
INSERT
  5
510
330
1F
100
AcDbEntity
  8
dxfile
  6
Continuous
 62
     3
100
AcDbBlockReference
  2
DIM_21
 10
869.887898
 20
1728.46501
 30
0.0
  0
INSERT
  5
51A
330
1F
100
AcDbEntity
  8
dxfile
  6
Continuous
 62
     3
100
AcDbBlockReference
  2
DIM_22
 10
1398.094871
 20
2246.865001
 30
0.0
  0
LINE
  5
51B
330
1F
100
AcDbEntity
  8
dxfile
  6
Continuous
 62
     2
100
AcDbLine
 10
317.148176
 20
1804.365001
 30
0.0
 11
332.148176
 21
1804.365001
 31
0.0
  0
LINE
  5
51C
330
1F
100
AcDbEntity
  8
dxfile
  6
Continuous
 62
     2
100
AcDbLine
 10
332.148176
 20
1804.365001
 30
0.0
 11
332.148176
 21
1829.365001
 31
0.0
  0
LINE
  5
51D
330
1F
100
AcDbEntity
  8
dxfile
  6
Continuous
 62
     2
100
AcDbLine
 10
332.148176
 20
1829.365001
 30
0.0
 11
317.148176
 21
1829.365001
 31
0.0
  0
LINE
  5
51E
330
1F
100
AcDbEntity
  8
dxfile
  6
Continuous
 62
     2
100
AcDbLine
 10
317.148176
 20
1829.365001
 30
0.0
 11
317.148176
 21
1804.365001
 31
0.0
  0
LINE
  5
51F
330
1F
100
AcDbEntity
  8
dxfile
  6
Continuous
 62
     2
100
AcDbLine
 10
557.148176
 20
1804.365001
 30
0.0
 11
542.148176
 21
1804.365001
 31
0.0
  0
LINE
  5
520
330
1F
100
AcDbEntity
  8
dxfile
  6
Continuous
 62
     2
100
AcDbLine
 10
542.148176
 20
1804.365001
 30
0.0
 11
542.148176
 21
1829.365001
 31
0.0
  0
LINE
  5
521
330
1F
100
AcDbEntity
  8
dxfile
  6
Continuous
 62
     2
100
AcDbLine
 10
542.148176
 20
1829.365001
 30
0.0
 11
557.148176
 21
1829.365001
 31
0.0
  0
LINE
  5
522
330
1F
100
AcDbEntity
  8
dxfile
  6
Continuous
 62
     2
100
AcDbLine
 10
557.148176
 20
1829.365001
 30
0.0
 11
557.148176
 21
1804.365001
 31
0.0
  0
LINE
  5
523
330
1F
100
AcDbEntity
  8
dxfile
  6
PLine2
 62
     3
100
AcDbLine
 10
549.648176
 20
1796.489215
 30
0.0
 11
549.648176
 21
1849.345313
 31
0.0
  0
LINE
  5
524
330
1F
100
AcDbEntity
  8
dxfile
  6
Continuous
 62
     2
100
AcDbLine
 10
627.148176
 20
2114.365001
 30
0.0
 11
627.148176
 21
2099.365001
 31
0.0
  0
LINE
  5
525
330
1F
100
AcDbEntity
  8
dxfile
  6
Continuous
 62
     2
100
AcDbLine
 10
627.148176
 20
2099.365001
 30
0.0
 11
602.148176
 21
2099.365001
 31
0.0
  0
LINE
  5
526
330
1F
100
AcDbEntity
  8
dxfile
  6
Continuous
 62
     2
100
AcDbLine
 10
602.148176
 20
2099.365001
 30
0.0
 11
602.148176
 21
2114.365001
 31
0.0
  0
LINE
  5
527
330
1F
100
AcDbEntity
  8
dxfile
  6
Continuous
 62
     2
100
AcDbLine
 10
602.148176
 20
2114.365001
 30
0.0
 11
627.148176
 21
2114.365001
 31
0.0
  0
LINE
  5
528
330
1F
100
AcDbEntity
  8
dxfile
  6
Continuous
 62
     2
100
AcDbLine
 10
627.148176
 20
1874.365001
 30
0.0
 11
627.148176
 21
1889.365001
 31
0.0
  0
LINE
  5
529
330
1F
100
AcDbEntity
  8
dxfile
  6
Continuous
 62
     2
100
AcDbLine
 10
627.148176
 20
1889.365001
 30
0.0
 11
602.148176
 21
1889.365001
 31
0.0
  0
LINE
  5
52A
330
1F
100
AcDbEntity
  8
dxfile
  6
Continuous
 62
     2
100
AcDbLine
 10
602.148176
 20
1889.365001
 30
0.0
 11
602.148176
 21
1874.365001
 31
0.0
  0
LINE
  5
52B
330
1F
100
AcDbEntity
  8
dxfile
  6
Continuous
 62
     2
100
AcDbLine
 10
602.148176
 20
1874.365001
 30
0.0
 11
627.148176
 21
1874.365001
 31
0.0
  0
TEXT
  5
52C
330
1F
100
AcDbEntity
  8
dxfile
  6
Continuous
 62
     3
100
AcDbText
 10
293.878848
 20
1909.208597
 30
0.0
 40
30.0
  1
Ｂ－６００
 41
0.858268
  7
BIGFONT
100
AcDbText
  0
TEXT
  5
52D
330
1F
100
AcDbEntity
  8
dxfile
  6
Continuous
 62
     3
100
AcDbText
 10
952.264858
 20
1890.350208
 30
0.0
 40
30.0
  1
Ｂ－９００
 41
0.858268
  7
BIGFONT
100
AcDbText
  0
LINE
  5
52E
330
1F
100
AcDbEntity
  8
dxfile
  6
Continuous
 62
     3
100
AcDbLine
 10
864.692957
 20
1817.408908
 30
0.0
 11
870.36283
 21
1837.229416
 31
0.0
  0
LINE
  5
52F
330
1F
100
AcDbEntity
  8
dxfile
  6
Continuous
 62
     3
100
AcDbLine
 10
870.36283
 20
1837.229416
 30
0.0
 11
757.889067
 21
1642.419144
 31
0.0
  0
LINE
  5
530
330
1F
100
AcDbEntity
  8
dxfile
  6
Continuous
 62
     3
100
AcDbLine
 10
757.889067
 20
1642.419144
 30
0.0
 11
603.089067
 21
1642.419144
 31
0.0
  0
TEXT
  5
531
330
1F
100
AcDbEntity
  8
dxfile
  6
Continuous
 62
     3
100
AcDbText
 10
628.837098
 20
1647.419144
 30
0.0
 40
30.0
  1
差筋（別途）
 50
360.0
 41
0.858268
  7
BIGFONT
 72
     2
 11
757.577256
 21
1647.419144
 31
0.0
100
AcDbText
  0
INSERT
  5
53B
330
1F
100
AcDbEntity
  8
dxfile
  6
Continuous
 62
     3
100
AcDbBlockReference
  2
DIM_23
 10
290.08681
 20
999.324433
 30
0.0
  0
INSERT
  5
545
330
1F
100
AcDbEntity
  8
dxfile
  6
Continuous
 62
     3
100
AcDbBlockReference
  2
DIM_24
 10
1390.08681
 20
999.324433
 30
0.0
  0
TEXT
  5
546
330
1F
100
AcDbEntity
  8
dxfile
  6
Continuous
 62
     3
100
AcDbText
 10
3262.123488
 20
2391.48613
 30
0.0
 40
30.0
  1
　（ＦＲＰ製は１２５）
 41
0.858268
  7
BIGFONT
 72
     1
 11
3381.667919
 21
2406.48613
 31
0.0
100
AcDbText
 73
     2
  0
TEXT
  5
547
330
1F
100
AcDbEntity
  8
dxfile
  6
Continuous
 62
     3
100
AcDbText
 10
219.3727
 20
2547.24877
 30
0.0
 40
30.0
  1
標準：ＦＲＰ製ト゛ーム、乳半色
 41
0.858268
  7
BIGFONT
100
AcDbText
  0
LINE
  5
548
330
1F
100
AcDbEntity
  8
dxfile
  6
Continuous
 62
     3
100
AcDbLine
 10
1674.398032
 20
650.363044
 30
0.0
 11
1964.398032
 21
650.363044
 31
0.0
  0
ARC
  5
549
330
1F
100
AcDbEntity
  8
dxfile
  6
Continuous
 62
     3
100
AcDbCircle
 10
1964.398032
 20
645.363044
 30
0.0
 40
4.99999999998135
100
AcDbArc
 50
0.0
 51
90.0
  0
LINE
  5
54A
330
1F
100
AcDbEntity
  8
dxfile
  6
Continuous
 62
     3
100
AcDbLine
 10
1969.398032
 20
645.363044
 30
0.0
 11
1969.398032
 21
355.363044
 31
0.0
  0
ARC
  5
54B
330
1F
100
AcDbEntity
  8
dxfile
  6
Continuous
 62
     3
100
AcDbCircle
 10
1964.398032
 20
355.363044
 30
0.0
 40
5.000000000088267
100
AcDbArc
 50
270.0
 51
0.0
  0
LINE
  5
54C
330
1F
100
AcDbEntity
  8
dxfile
  6
Continuous
 62
     3
100
AcDbLine
 10
1964.398032
 20
350.363044
 30
0.0
 11
1674.398032
 21
350.363044
 31
0.0
  0
ARC
  5
54D
330
1F
100
AcDbEntity
  8
dxfile
  6
Continuous
 62
     3
100
AcDbCircle
 10
1674.398032
 20
355.363044
 30
0.0
 40
4.999999999756487
100
AcDbArc
 50
180.0
 51
270.0
  0
LINE
  5
54E
330
1F
100
AcDbEntity
  8
dxfile
  6
Continuous
 62
     3
100
AcDbLine
 10
1669.398032
 20
355.363044
 30
0.0
 11
1669.398032
 21
645.363044
 31
0.0
  0
ARC
  5
54F
330
1F
100
AcDbEntity
  8
dxfile
  6
Continuous
 62
     3
100
AcDbCircle
 10
1674.398032
 20
645.363044
 30
0.0
 40
4.999999999750182
100
AcDbArc
 50
90.0
 51
180.0
  0
LINE
  5
550
330
1F
100
AcDbEntity
  8
dxfile
  6
PLine2
 62
     3
100
AcDbLine
 10
1581.500112
 20
500.363044
 30
0.0
 11
2062.267261
 21
500.363044
 31
0.0
  0
LINE
  5
551
330
1F
100
AcDbEntity
  8
dxfile
  6
PLine2
 62
     3
100
AcDbLine
 10
1819.398032
 20
734.721374
 30
0.0
 11
1819.398032
 21
268.654427
 31
0.0
  0
LINE
  5
552
330
1F
100
AcDbEntity
  8
dxfile
  6
Continuous
 62
     3
100
AcDbLine
 10
1624.398032
 20
700.363044
 30
0.0
 11
2014.398032
 21
700.363044
 31
0.0
  0
ARC
  5
553
330
1F
100
AcDbEntity
  8
dxfile
  6
Continuous
 62
     3
100
AcDbCircle
 10
2014.398032
 20
695.363044
 30
0.0
 40
4.999999999934574
100
AcDbArc
 50
0.0
 51
90.0
  0
LINE
  5
554
330
1F
100
AcDbEntity
  8
dxfile
  6
Continuous
 62
     3
100
AcDbLine
 10
2019.398032
 20
695.363044
 30
0.0
 11
2019.398032
 21
305.363044
 31
0.0
  0
ARC
  5
555
330
1F
100
AcDbEntity
  8
dxfile
  6
Continuous
 62
     3
100
AcDbCircle
 10
2014.398032
 20
305.363044
 30
0.0
 40
4.999999999786734
100
AcDbArc
 50
270.0
 51
0.0
  0
LINE
  5
556
330
1F
100
AcDbEntity
  8
dxfile
  6
Continuous
 62
     3
100
AcDbLine
 10
2014.398032
 20
300.363044
 30
0.0
 11
1624.398032
 21
300.363044
 31
0.0
  0
ARC
  5
557
330
1F
100
AcDbEntity
  8
dxfile
  6
Continuous
 62
     3
100
AcDbCircle
 10
1624.398032
 20
305.363044
 30
0.0
 40
5.00000000012095
100
AcDbArc
 50
180.0
 51
270.0
  0
LINE
  5
558
330
1F
100
AcDbEntity
  8
dxfile
  6
Continuous
 62
     3
100
AcDbLine
 10
1619.398032
 20
305.363044
 30
0.0
 11
1619.398032
 21
695.363044
 31
0.0
  0
ARC
  5
559
330
1F
100
AcDbEntity
  8
dxfile
  6
Continuous
 62
     3
100
AcDbCircle
 10
1624.398032
 20
695.363044
 30
0.0
 40
4.999999999941708
100
AcDbArc
 50
90.0
 51
180.0
  0
LINE
  5
55A
330
1F
100
AcDbEntity
  8
dxfile
  6
Continuous
 62
     3
100
AcDbLine
 10
1609.398032
 20
705.363044
 30
0.0
 11
1609.398032
 21
295.363044
 31
0.0
  0
LINE
  5
55B
330
1F
100
AcDbEntity
  8
dxfile
  6
Continuous
 62
     3
100
AcDbLine
 10
1614.398032
 20
710.363044
 30
0.0
 11
2024.398032
 21
710.363044
 31
0.0
  0
LINE
  5
55C
330
1F
100
AcDbEntity
  8
dxfile
  6
Continuous
 62
     3
100
AcDbLine
 10
2029.398032
 20
705.363044
 30
0.0
 11
2029.398032
 21
295.363044
 31
0.0
  0
LINE
  5
55D
330
1F
100
AcDbEntity
  8
dxfile
  6
Continuous
 62
     3
100
AcDbLine
 10
1614.398032
 20
290.363044
 30
0.0
 11
2024.398032
 21
290.363044
 31
0.0
  0
ARC
  5
55E
330
1F
100
AcDbEntity
  8
dxfile
  6
Continuous
 62
     3
100
AcDbCircle
 10
1614.398032
 20
705.363044
 30
0.0
 40
4.999999999933166
100
AcDbArc
 50
90.0
 51
180.0
  0
ARC
  5
55F
330
1F
100
AcDbEntity
  8
dxfile
  6
Continuous
 62
     3
100
AcDbCircle
 10
2024.398032
 20
705.363044
 30
0.0
 40
5.000000000287329
100
AcDbArc
 50
0.0
 51
90.0
  0
ARC
  5
560
330
1F
100
AcDbEntity
  8
dxfile
  6
Continuous
 62
     3
100
AcDbCircle
 10
1614.398032
 20
295.363044
 30
0.0
 40
4.999999999995644
100
AcDbArc
 50
180.0
 51
270.0
  0
ARC
  5
561
330
1F
100
AcDbEntity
  8
dxfile
  6
Continuous
 62
     3
100
AcDbCircle
 10
2024.398032
 20
295.363044
 30
0.0
 40
4.99999999977151
100
AcDbArc
 50
270.0
 51
0.0
  0
LINE
  5
562
330
1F
100
AcDbEntity
  8
dxfile
  6
Continuous
 62
     3
100
AcDbLine
 10
1967.933565
 20
351.82751
 30
0.0
 11
1929.86725
 21
389.893826
 31
0.0
  0
LINE
  5
563
330
1F
100
AcDbEntity
  8
dxfile
  6
Continuous
 62
     3
100
AcDbLine
 10
1967.933565
 20
648.898578
 30
0.0
 11
1929.86725
 21
610.832262
 31
0.0
  0
LINE
  5
564
330
1F
100
AcDbEntity
  8
dxfile
  6
Continuous
 62
     3
100
AcDbLine
 10
1670.862498
 20
351.82751
 30
0.0
 11
1708.928813
 21
389.893826
 31
0.0
  0
LINE
  5
565
330
1F
100
AcDbEntity
  8
dxfile
  6
Continuous
 62
     3
100
AcDbLine
 10
1670.862498
 20
648.898578
 30
0.0
 11
1708.928813
 21
610.832262
 31
0.0
  0
INSERT
  5
56F
330
1F
100
AcDbEntity
  8
dxfile
  6
Continuous
 62
     3
100
AcDbBlockReference
  2
DIM_25
 10
1669.398032
 20
657.882849
 30
0.0
  0
LINE
  5
570
330
1F
100
AcDbEntity
  8
dxfile
  6
Continuous
 62
     3
100
AcDbLine
 10
1718.810549
 20
807.996118
 30
0.0
 11
1738.709364
 21
807.996118
 31
0.0
  0
LINE
  5
571
330
1F
100
AcDbEntity
  8
dxfile
  6
Continuous
 62
     3
100
AcDbLine
 10
1738.709364
 20
807.996118
 30
0.0
 11
1738.709364
 21
827.894932
 31
0.0
  0
LINE
  5
572
330
1F
100
AcDbEntity
  8
dxfile
  6
Continuous
 62
     3
100
AcDbLine
 10
1738.709364
 20
827.894932
 30
0.0
 11
1718.810549
 21
827.894932
 31
0.0
  0
LINE
  5
573
330
1F
100
AcDbEntity
  8
dxfile
  6
Continuous
 62
     3
100
AcDbLine
 10
1718.810549
 20
827.894932
 30
0.0
 11
1718.810549
 21
807.996118
 31
0.0
  0
INSERT
  5
57D
330
1F
100
AcDbEntity
  8
dxfile
  6
Continuous
 62
     3
100
AcDbBlockReference
  2
DIM_26
 10
1619.398032
 20
705.526756
 30
0.0
  0
INSERT
  5
587
330
1F
100
AcDbEntity
  8
dxfile
  6
Continuous
 62
     3
100
AcDbBlockReference
  2
DIM_27
 10
2019.398032
 20
705.526756
 30
0.0
  0
TEXT
  5
588
330
1F
100
AcDbEntity
  8
dxfile
  6
Continuous
 62
     3
100
AcDbText
 10
1770.978467
 20
199.042254
 30
0.0
 40
30.0
  1
Ｂ型ドーム
 41
0.858268
  7
BIGFONT
100
AcDbText
  0
LINE
  5
589
330
1F
100
AcDbEntity
  8
dxfile
  6
Continuous
 62
     2
100
AcDbLine
 10
1773.772938
 20
174.202248
 30
0.0
 11
1775.532326
 21
174.202248
 31
0.0
  0
TEXT
  5
58A
330
1F
100
AcDbEntity
  8
dxfile
  6
Continuous
 62
     2
100
AcDbText
 10
1786.732635
 20
131.962501
 30
0.0
 40
31.1506
  1
平面図
 41
0.858268
  7
BIGFONT
100
AcDbText
  0
LINE
  5
58B
330
1F
100
AcDbEntity
  8
dxfile
  6
Continuous
 62
     2
100
AcDbLine
 10
1775.092479
 20
174.202248
 30
0.0
 11
1878.783799
 21
174.202248
 31
0.0
  0
LINE
  5
58C
330
1F
100
AcDbEntity
  8
dxfile
  6
Continuous
 62
     2
100
AcDbLine
 10
1878.783799
 20
174.202248
 30
0.0
 11
1878.783799
 21
123.179991
 31
0.0
  0
LINE
  5
58D
330
1F
100
AcDbEntity
  8
dxfile
  6
Continuous
 62
     2
100
AcDbLine
 10
1878.783799
 20
123.179991
 30
0.0
 11
1773.772938
 21
123.179991
 31
0.0
  0
LINE
  5
58E
330
1F
100
AcDbEntity
  8
dxfile
  6
Continuous
 62
     2
100
AcDbLine
 10
1773.772938
 20
123.179991
 30
0.0
 11
1773.772938
 21
174.642095
 31
0.0
  0
LINE
  5
58F
330
1F
100
AcDbEntity
  8
dxfile
  6
Continuous
 62
     6
100
AcDbLine
 10
3552.986027
 20
1781.125927
 30
0.0
 11
3552.986027
 21
2018.625927
 31
0.0
  0
LINE
  5
590
330
1F
100
AcDbEntity
  8
dxfile
  6
Continuous
 62
     6
100
AcDbLine
 10
3527.986027
 20
1967.790747
 30
0.0
 11
3552.986027
 21
1992.790747
 31
0.0
  0
LINE
  5
591
330
1F
100
AcDbEntity
  8
dxfile
  6
Continuous
 62
     6
100
AcDbLine
 10
3527.986027
 20
1994.057209
 30
0.0
 11
3552.554744
 21
2018.625927
 31
0.0
  0
LINE
  5
592
330
1F
100
AcDbEntity
  8
dxfile
  6
Continuous
 62
     6
100
AcDbLine
 10
3527.986027
 20
1941.524284
 30
0.0
 11
3552.986027
 21
1966.524284
 31
0.0
  0
LINE
  5
593
330
1F
100
AcDbEntity
  8
dxfile
  6
Continuous
 62
     6
100
AcDbLine
 10
3527.986027
 20
1915.655799
 30
0.0
 11
3552.986027
 21
1940.655799
 31
0.0
  0
LINE
  5
594
330
1F
100
AcDbEntity
  8
dxfile
  6
Continuous
 62
     6
100
AcDbLine
 10
3527.986027
 20
1889.389337
 30
0.0
 11
3552.986027
 21
1914.389337
 31
0.0
  0
LINE
  5
595
330
1F
100
AcDbEntity
  8
dxfile
  6
Continuous
 62
     6
100
AcDbLine
 10
3527.986027
 20
1864.316805
 30
0.0
 11
3552.986027
 21
1889.316805
 31
0.0
  0
LINE
  5
596
330
1F
100
AcDbEntity
  8
dxfile
  6
Continuous
 62
     6
100
AcDbLine
 10
3527.986027
 20
1839.244273
 30
0.0
 11
3552.986027
 21
1864.244273
 31
0.0
  0
LINE
  5
597
330
1F
100
AcDbEntity
  8
dxfile
  6
Continuous
 62
     6
100
AcDbLine
 10
3527.986027
 20
1813.375787
 30
0.0
 11
3552.986027
 21
1838.375787
 31
0.0
  0
LINE
  5
598
330
1F
100
AcDbEntity
  8
dxfile
  6
Continuous
 62
     6
100
AcDbLine
 10
3527.986027
 20
1789.099208
 30
0.0
 11
3552.986027
 21
1814.099208
 31
0.0
  0
LINE
  5
599
330
1F
100
AcDbEntity
  8
dxfile
  6
Continuous
 62
     6
100
AcDbLine
 10
3542.29944
 20
1781.125927
 30
0.0
 11
3552.986027
 21
1791.812513
 31
0.0
  0
LINE
  5
59A
330
1F
100
AcDbEntity
  8
dxfile
  6
Continuous
 62
     3
100
AcDbLine
 10
3556.534653
 20
1803.996331
 30
0.0
 11
3542.204526
 21
1818.816839
 31
0.0
  0
LINE
  5
59B
330
1F
100
AcDbEntity
  8
dxfile
  6
Continuous
 62
     3
100
AcDbLine
 10
3542.204526
 20
1818.816839
 30
0.0
 11
3707.227945
 21
1532.987894
 31
0.0
  0
LINE
  5
59C
330
1F
100
AcDbEntity
  8
dxfile
  6
Continuous
 62
     3
100
AcDbLine
 10
3707.227945
 20
1532.987894
 30
0.0
 11
4075.769944
 21
1532.987894
 31
0.0
  0
TEXT
  5
59D
330
1F
100
AcDbEntity
  8
dxfile
  6
Continuous
 62
     3
100
AcDbText
 10
3715.297503
 20
1537.987894
 30
0.0
 40
30.0
  1
断熱材内張り　
 41
0.858268
  7
BIGFONT
100
AcDbText
  0
TEXT
  5
59E
330
1F
100
AcDbEntity
  8
dxfile
  6
Continuous
 62
     3
100
AcDbText
 10
3712.797114
 20
1498.48448
 30
0.0
 40
30.0
  1
スーパーフェルトン　ｔ＝５．０
 41
0.858268
  7
BIGFONT
100
AcDbText
  0
TEXT
  5
59F
330
1F
100
AcDbEntity
  8
dxfile
  6
Continuous
 62
     3
100
AcDbText
 10
2149.402595
 20
82.289391
 30
0.0
 40
30.0
  1
注、断熱材内張りはオプションです。
 41
0.858268
  7
BIGFONT
100
AcDbText
  0
LINE
  5
5A0
330
1F
100
AcDbEntity
  8
dxfile
  6
Continuous
 62
     6
100
AcDbLine
 10
380.08681
 20
927.723595
 30
0.0
 11
380.08681
 21
975.223595
 31
0.0
  0
LINE
  5
5A1
330
1F
100
AcDbEntity
  8
dxfile
  6
Continuous
 62
     6
100
AcDbLine
 10
380.08681
 20
975.223595
 30
0.0
 11
375.08681
 21
975.223595
 31
0.0
  0
LINE
  5
5A2
330
1F
100
AcDbEntity
  8
dxfile
  6
Continuous
 62
     6
100
AcDbLine
 10
1300.08681
 20
927.723595
 30
0.0
 11
1300.08681
 21
975.223595
 31
0.0
  0
LINE
  5
5A3
330
1F
100
AcDbEntity
  8
dxfile
  6
Continuous
 62
     6
100
AcDbLine
 10
1300.08681
 20
975.223595
 30
0.0
 11
1305.08681
 21
975.223595
 31
0.0
  0
TEXT
  5
5A4
330
1F
100
AcDbEntity
  8
dxfile
  6
Continuous
 62
     3
100
AcDbText
 10
1555.474022
 20
1138.330763
 30
0.0
 40
30.0
  1
断熱材内張りｔ＝５．０
 41
0.781024
  7
BIGFONT
100
AcDbText
  0
TEXT
  5
5A5
330
1F
100
AcDbEntity
  8
dxfile
  6
Continuous
 62
     3
100
AcDbText
 10
216.586902
 20
2422.64726
 30
0.0
 40
30.0
  1
インナードーム：ホ゜リカーボネート製、透明
 41
0.858268
  7
BIGFONT
100
AcDbText
  0
LINE
  5
5A6
330
1F
100
AcDbEntity
  8
dxfile
  6
Continuous
 62
     6
100
AcDbLine
 10
342.652471
 20
987.223595
 30
0.0
 11
342.652471
 21
982.223595
 31
0.0
  0
LINE
  5
5A7
330
1F
100
AcDbEntity
  8
dxfile
  6
Continuous
 62
     6
100
AcDbLine
 10
367.572983
 20
987.223595
 30
0.0
 11
367.572983
 21
982.223595
 31
0.0
  0
LINE
  5
5A8
330
1F
100
AcDbEntity
  8
dxfile
  6
Continuous
 62
     6
100
AcDbLine
 10
366.161637
 20
982.223595
 30
0.0
 11
361.161637
 21
987.223595
 31
0.0
  0
LINE
  5
5A9
330
1F
100
AcDbEntity
  8
dxfile
  6
Continuous
 62
     6
100
AcDbLine
 10
361.107165
 20
982.223595
 30
0.0
 11
366.107165
 21
987.223595
 31
0.0
  0
LINE
  5
5AA
330
1F
100
AcDbEntity
  8
dxfile
  6
Continuous
 62
     6
100
AcDbLine
 10
352.603302
 20
987.223595
 30
0.0
 11
357.603302
 21
982.223595
 31
0.0
  0
LINE
  5
5AB
330
1F
100
AcDbEntity
  8
dxfile
  6
Continuous
 62
     6
100
AcDbLine
 10
352.518742
 20
982.223595
 30
0.0
 11
357.518742
 21
987.223595
 31
0.0
  0
LINE
  5
5AC
330
1F
100
AcDbEntity
  8
dxfile
  6
Continuous
 62
     6
100
AcDbLine
 10
348.93097
 20
982.223595
 30
0.0
 11
343.93097
 21
987.223595
 31
0.0
  0
LINE
  5
5AD
330
1F
100
AcDbEntity
  8
dxfile
  6
Continuous
 62
     6
100
AcDbLine
 10
343.957731
 20
982.223595
 30
0.0
 11
348.957731
 21
987.223595
 31
0.0
  0
LINE
  5
5AE
330
1F
100
AcDbEntity
  8
dxfile
  6
Continuous
 62
     6
100
AcDbLine
 10
1337.521148
 20
980.223595
 30
0.0
 11
1337.521148
 21
975.223595
 31
0.0
  0
LINE
  5
5AF
330
1F
100
AcDbEntity
  8
dxfile
  6
Continuous
 62
     6
100
AcDbLine
 10
1312.600636
 20
980.223595
 30
0.0
 11
1312.600636
 21
975.223595
 31
0.0
  0
LINE
  5
5B0
330
1F
100
AcDbEntity
  8
dxfile
  6
Continuous
 62
     6
100
AcDbLine
 10
1314.011982
 20
975.223595
 30
0.0
 11
1319.011982
 21
980.223595
 31
0.0
  0
LINE
  5
5B1
330
1F
100
AcDbEntity
  8
dxfile
  6
Continuous
 62
     6
100
AcDbLine
 10
1319.066455
 20
975.223595
 30
0.0
 11
1314.066455
 21
980.223595
 31
0.0
  0
LINE
  5
5B2
330
1F
100
AcDbEntity
  8
dxfile
  6
Continuous
 62
     6
100
AcDbLine
 10
1327.570318
 20
980.223595
 30
0.0
 11
1322.570318
 21
975.223595
 31
0.0
  0
LINE
  5
5B3
330
1F
100
AcDbEntity
  8
dxfile
  6
Continuous
 62
     6
100
AcDbLine
 10
1327.654878
 20
975.223595
 30
0.0
 11
1322.654878
 21
980.223595
 31
0.0
  0
LINE
  5
5B4
330
1F
100
AcDbEntity
  8
dxfile
  6
Continuous
 62
     6
100
AcDbLine
 10
1331.24265
 20
975.223595
 30
0.0
 11
1336.24265
 21
980.223595
 31
0.0
  0
LINE
  5
5B5
330
1F
100
AcDbEntity
  8
dxfile
  6
Continuous
 62
     6
100
AcDbLine
 10
1336.215889
 20
975.223595
 30
0.0
 11
1331.215889
 21
980.223595
 31
0.0
  0
LINE
  5
5B6
330
1F
100
AcDbEntity
  8
dxfile
  6
Continuous
 62
     6
100
AcDbLine
 10
1337.521148
 20
987.223595
 30
0.0
 11
1337.521148
 21
982.223595
 31
0.0
  0
LINE
  5
5B7
330
1F
100
AcDbEntity
  8
dxfile
  6
Continuous
 62
     6
100
AcDbLine
 10
1312.600636
 20
987.223595
 30
0.0
 11
1312.600636
 21
982.223595
 31
0.0
  0
LINE
  5
5B8
330
1F
100
AcDbEntity
  8
dxfile
  6
Continuous
 62
     6
100
AcDbLine
 10
1314.011982
 20
982.223595
 30
0.0
 11
1319.011982
 21
987.223595
 31
0.0
  0
LINE
  5
5B9
330
1F
100
AcDbEntity
  8
dxfile
  6
Continuous
 62
     6
100
AcDbLine
 10
1319.066455
 20
982.223595
 30
0.0
 11
1314.066455
 21
987.223595
 31
0.0
  0
LINE
  5
5BA
330
1F
100
AcDbEntity
  8
dxfile
  6
Continuous
 62
     6
100
AcDbLine
 10
1327.570318
 20
987.223595
 30
0.0
 11
1322.570318
 21
982.223595
 31
0.0
  0
LINE
  5
5BB
330
1F
100
AcDbEntity
  8
dxfile
  6
Continuous
 62
     6
100
AcDbLine
 10
1327.654878
 20
982.223595
 30
0.0
 11
1322.654878
 21
987.223595
 31
0.0
  0
LINE
  5
5BC
330
1F
100
AcDbEntity
  8
dxfile
  6
Continuous
 62
     6
100
AcDbLine
 10
1331.24265
 20
982.223595
 30
0.0
 11
1336.24265
 21
987.223595
 31
0.0
  0
LINE
  5
5BD
330
1F
100
AcDbEntity
  8
dxfile
  6
Continuous
 62
     6
100
AcDbLine
 10
1336.215889
 20
982.223595
 30
0.0
 11
1331.215889
 21
987.223595
 31
0.0
  0
ARC
  5
5BE
330
1F
100
AcDbEntity
  8
dxfile
  6
Continuous
 62
     3
100
AcDbCircle
 10
840.08681
 20
575.973595
 30
0.0
 40
606.2499999999998
100
AcDbArc
 50
42.283666
 51
137.716334
  0
ARC
  5
5BF
330
1F
100
AcDbEntity
  8
dxfile
  6
Continuous
 62
     3
100
AcDbCircle
 10
840.08681
 20
575.973595
 30
0.0
 40
604.2499999999998
100
AcDbArc
 50
42.283666
 51
137.716334
  0
LINE
  5
5C0
330
1F
100
AcDbEntity
  8
dxfile
  6
Continuous
 62
     3
100
AcDbLine
 10
310.08681
 20
982.223595
 30
0.0
 11
310.08681
 21
980.223595
 31
0.0
  0
LINE
  5
5C1
330
1F
100
AcDbEntity
  8
dxfile
  6
Continuous
 62
     3
100
AcDbLine
 10
310.08681
 20
982.223595
 30
0.0
 11
387.870048
 21
982.223595
 31
0.0
  0
LINE
  5
5C2
330
1F
100
AcDbEntity
  8
dxfile
  6
Continuous
 62
     3
100
AcDbLine
 10
310.08681
 20
980.223595
 30
0.0
 11
387.870048
 21
980.223595
 31
0.0
  0
LINE
  5
5C3
330
1F
100
AcDbEntity
  8
dxfile
  6
Continuous
 62
     3
100
AcDbLine
 10
1370.08681
 20
982.223595
 30
0.0
 11
1370.08681
 21
980.223595
 31
0.0
  0
LINE
  5
5C4
330
1F
100
AcDbEntity
  8
dxfile
  6
Continuous
 62
     3
100
AcDbLine
 10
1370.08681
 20
982.223595
 30
0.0
 11
1292.303572
 21
982.223595
 31
0.0
  0
LINE
  5
5C5
330
1F
100
AcDbEntity
  8
dxfile
  6
Continuous
 62
     3
100
AcDbLine
 10
1370.08681
 20
980.223595
 30
0.0
 11
1292.303572
 21
980.223595
 31
0.0
  0
LINE
  5
5C6
330
1F
100
AcDbEntity
  8
dxfile
  6
Continuous
 62
     3
100
AcDbLine
 10
988.777547
 20
1184.626029
 30
0.0
 11
983.107674
 21
1164.805521
 31
0.0
  0
LINE
  5
5C7
330
1F
100
AcDbEntity
  8
dxfile
  6
Continuous
 62
     3
100
AcDbLine
 10
983.107674
 20
1164.805521
 30
0.0
 11
1037.452597
 21
1258.93369
 31
0.0
  0
LINE
  5
5C8
330
1F
100
AcDbEntity
  8
dxfile
  6
Continuous
 62
     3
100
AcDbLine
 10
1037.452597
 20
1258.93369
 30
0.0
 11
1217.688818
 21
1258.93369
 31
0.0
  0
TEXT
  5
5C9
330
1F
100
AcDbEntity
  8
dxfile
  6
Continuous
 62
     3
100
AcDbText
 10
1037.452597
 20
1263.93369
 30
0.0
 40
30.0
  1
インナードーム
 41
0.858268
  7
BIGFONT
100
AcDbText
  0
ARC
  5
5CA
330
1F
100
AcDbEntity
  8
dxfile
  6
Continuous
 62
     4
100
AcDbCircle
 10
384.01664
 20
1002.223595
 30
0.0
 40
15.0
100
AcDbArc
 50
270.0
 51
327.459693
  0
ARC
  5
5CB
330
1F
100
AcDbEntity
  8
dxfile
  6
Continuous
 62
     4
100
AcDbCircle
 10
384.01664
 20
1002.223595
 30
0.0
 40
11.0
100
AcDbArc
 50
270.0
 51
327.459693
  0
ARC
  5
5CC
330
1F
100
AcDbEntity
  8
dxfile
  6
Continuous
 62
     3
100
AcDbCircle
 10
387.870048
 20
987.223595
 30
0.0
 40
5.0
100
AcDbArc
 50
270.0
 51
317.716334
  0
ARC
  5
5CD
330
1F
100
AcDbEntity
  8
dxfile
  6
Continuous
 62
     3
100
AcDbCircle
 10
387.870048
 20
987.223595
 30
0.0
 40
7.0
100
AcDbArc
 50
270.0
 51
317.716334
  0
ARC
  5
5CE
330
1F
100
AcDbEntity
  8
dxfile
  6
Continuous
 62
     4
100
AcDbCircle
 10
1296.15698
 20
1002.223595
 30
0.0
 40
15.00000000004842
100
AcDbArc
 50
212.540307
 51
270.0
  0
ARC
  5
5CF
330
1F
100
AcDbEntity
  8
dxfile
  6
Continuous
 62
     4
100
AcDbCircle
 10
1296.15698
 20
1002.223595
 30
0.0
 40
10.99999999998241
100
AcDbArc
 50
212.540307
 51
270.0
  0
ARC
  5
5D0
330
1F
100
AcDbEntity
  8
dxfile
  6
Continuous
 62
     3
100
AcDbCircle
 10
1292.303572
 20
987.223595
 30
0.0
 40
4.999999999914499
100
AcDbArc
 50
222.283666
 51
270.0
  0
ARC
  5
5D1
330
1F
100
AcDbEntity
  8
dxfile
  6
Continuous
 62
     3
100
AcDbCircle
 10
1292.303572
 20
987.223595
 30
0.0
 40
6.999999999953252
100
AcDbArc
 50
222.283666
 51
270.0
  0
LINE
  5
5D2
330
1F
100
AcDbEntity
  8
dxfile
  6
Continuous
 62
     3
100
AcDbLine
 10
3353.354077
 20
2116.665284
 30
0.0
 11
3502.877149
 21
2116.665284
 31
0.0
  0
LINE
  5
5D3
330
1F
100
AcDbEntity
  8
dxfile
  6
Continuous
 62
     6
100
AcDbLine
 10
3502.877149
 20
2106.665284
 30
0.0
 11
3353.304236
 21
2106.665284
 31
0.0
  0
LINE
  5
5D4
330
1F
100
AcDbEntity
  8
dxfile
  6
Continuous
 62
     3
100
AcDbLine
 10
3502.877149
 20
2116.665284
 30
0.0
 11
3502.877149
 21
2106.665284
 31
0.0
  0
LINE
  5
5D5
330
1F
100
AcDbEntity
  8
dxfile
  6
Continuous
 62
     3
100
AcDbLine
 10
3353.354077
 20
2116.665284
 30
0.0
 11
3353.354077
 21
2106.665284
 31
0.0
  0
LINE
  5
5D6
330
1F
100
AcDbEntity
  8
dxfile
  6
Continuous
 62
     6
100
AcDbLine
 10
3365.814333
 20
2043.625927
 30
0.0
 11
3365.814333
 21
2018.625927
 31
0.0
  0
LINE
  5
5D7
330
1F
100
AcDbEntity
  8
dxfile
  6
Continuous
 62
     6
100
AcDbLine
 10
3490.416893
 20
2043.625927
 30
0.0
 11
3490.416893
 21
2018.625927
 31
0.0
  0
LINE
  5
5D8
330
1F
100
AcDbEntity
  8
dxfile
  6
Continuous
 62
     4
100
AcDbLine
 10
3572.635176
 20
2098.625927
 30
0.0
 11
3139.37214
 21
2098.625927
 31
0.0
  0
LINE
  5
5D9
330
1F
100
AcDbEntity
  8
dxfile
  6
Continuous
 62
     4
100
AcDbLine
 10
3572.635176
 20
2078.625927
 30
0.0
 11
3139.37214
 21
2078.625927
 31
0.0
  0
LINE
  5
5DA
330
1F
100
AcDbEntity
  8
dxfile
  6
Continuous
 62
     4
100
AcDbLine
 10
3017.986027
 20
1898.625927
 30
0.0
 11
3088.753939
 21
2065.138662
 31
0.0
  0
LINE
  5
5DB
330
1F
100
AcDbEntity
  8
dxfile
  6
Continuous
 62
     4
100
AcDbLine
 10
3039.717341
 20
1898.625927
 30
0.0
 11
3107.160558
 21
2057.315849
 31
0.0
  0
LINE
  5
5DC
330
1F
100
AcDbEntity
  8
dxfile
  6
Continuous
 62
     4
100
AcDbLine
 10
3017.986027
 20
1898.625927
 30
0.0
 11
3039.717341
 21
1898.625927
 31
0.0
  0
ARC
  5
5DD
330
1F
100
AcDbEntity
  8
dxfile
  6
Continuous
 62
     4
100
AcDbCircle
 10
5852.986027
 20
698.625927
 30
0.0
 40
2650.0
100
AcDbArc
 50
141.662146
 51
147.459693
  0
ARC
  5
5DE
330
1F
100
AcDbEntity
  8
dxfile
  6
Continuous
 62
     4
100
AcDbCircle
 10
5852.986027
 20
698.625927
 30
0.0
 40
2630.0
100
AcDbArc
 50
141.673022
 51
147.459693
  0
LINE
  5
5DF
330
1F
100
AcDbEntity
  8
dxfile
  6
Continuous
 62
     3
100
AcDbLine
 10
3467.986025
 20
2116.665296
 30
0.0
 11
3467.986025
 21
2140.552447
 31
0.0
  0
LINE
  5
5E0
330
1F
100
AcDbEntity
  8
dxfile
  6
Continuous
 62
     3
100
AcDbLine
 10
3467.986025
 20
2140.552447
 30
0.0
 11
3461.728388
 21
2144.165295
 31
0.0
  0
LINE
  5
5E1
330
1F
100
AcDbEntity
  8
dxfile
  6
Continuous
 62
     3
100
AcDbLine
 10
3461.728388
 20
2144.165295
 30
0.0
 11
3427.986027
 21
2144.165295
 31
0.0
  0
LINE
  5
5E2
330
1F
100
AcDbEntity
  8
dxfile
  6
Continuous
 62
     3
100
AcDbLine
 10
3447.986026
 20
2116.665296
 30
0.0
 11
3447.986026
 21
2140.733838
 31
0.0
  0
ARC
  5
5E3
330
1F
100
AcDbEntity
  8
dxfile
  6
Continuous
 62
     3
100
AcDbCircle
 10
3427.986027
 20
2084.165298
 30
0.0
 40
59.99999760032245
100
AcDbArc
 50
70.528779
 51
90.0
  0
ARC
  5
5E4
330
1F
100
AcDbEntity
  8
dxfile
  6
Continuous
 62
     3
100
AcDbCircle
 10
3457.634364
 20
2128.885296
 30
0.0
 40
15.27999938790803
100
AcDbArc
 50
90.0
 51
129.156132
  0
LINE
  5
5E5
330
1F
100
AcDbEntity
  8
dxfile
  6
Continuous
 62
     3
100
AcDbLine
 10
3387.986028
 20
2116.665296
 30
0.0
 11
3387.986028
 21
2140.552447
 31
0.0
  0
LINE
  5
5E6
330
1F
100
AcDbEntity
  8
dxfile
  6
Continuous
 62
     3
100
AcDbLine
 10
3387.986028
 20
2140.552447
 30
0.0
 11
3394.243665
 21
2144.165295
 31
0.0
  0
LINE
  5
5E7
330
1F
100
AcDbEntity
  8
dxfile
  6
Continuous
 62
     3
100
AcDbLine
 10
3394.243665
 20
2144.165295
 30
0.0
 11
3427.986027
 21
2144.165295
 31
0.0
  0
ARC
  5
5E8
330
1F
100
AcDbEntity
  8
dxfile
  6
Continuous
 62
     3
100
AcDbCircle
 10
3427.986027
 20
2084.165298
 30
0.0
 40
59.9999975984266
100
AcDbArc
 50
90.0
 51
109.471221
  0
ARC
  5
5E9
330
1F
100
AcDbEntity
  8
dxfile
  6
Continuous
 62
     3
100
AcDbCircle
 10
3398.337689
 20
2128.885296
 30
0.0
 40
15.27999938858216
100
AcDbArc
 50
50.843868
 51
90.0
  0
LINE
  5
5EA
330
1F
100
AcDbEntity
  8
dxfile
  6
Continuous
 62
     3
100
AcDbLine
 10
3407.986027
 20
2116.665296
 30
0.0
 11
3407.986027
 21
2140.733838
 31
0.0
  0
LINE
  5
5EB
330
1F
100
AcDbEntity
  8
dxfile
  6
Continuous
 62
     3
100
AcDbLine
 10
3387.986028
 20
2116.665284
 30
0.0
 11
3467.986025
 21
2116.665284
 31
0.0
  0
LINE
  5
5EC
330
1F
100
AcDbEntity
  8
dxfile
  6
Continuous
 62
     6
100
AcDbLine
 10
3353.354077
 20
2106.665284
 30
0.0
 11
3502.877149
 21
2106.665284
 31
0.0
  0
LINE
  5
5ED
330
1F
100
AcDbEntity
  8
dxfile
  6
Continuous
 62
     6
100
AcDbLine
 10
3502.877149
 20
2106.665284
 30
0.0
 11
3502.877149
 21
2098.625927
 31
0.0
  0
LINE
  5
5EE
330
1F
100
AcDbEntity
  8
dxfile
  6
Continuous
 62
     6
100
AcDbLine
 10
3353.354077
 20
2098.625927
 30
0.0
 11
3353.354077
 21
2106.665284
 31
0.0
  0
LINE
  5
5EF
330
1F
100
AcDbEntity
  8
dxfile
  6
Continuous
 62
     6
100
AcDbLine
 10
3353.354077
 20
2104.165284
 30
0.0
 11
3502.877149
 21
2104.165284
 31
0.0
  0
LINE
  5
5F0
330
1F
100
AcDbEntity
  8
dxfile
  6
Continuous
 62
     6
100
AcDbLine
 10
3353.354077
 20
2101.665284
 30
0.0
 11
3502.877149
 21
2101.665284
 31
0.0
  0
LINE
  5
5F1
330
1F
100
AcDbEntity
  8
dxfile
  6
Continuous
 62
     6
100
AcDbLine
 10
3483.360164
 20
2018.625927
 30
0.0
 11
3458.360164
 21
2043.625927
 31
0.0
  0
LINE
  5
5F2
330
1F
100
AcDbEntity
  8
dxfile
  6
Continuous
 62
     6
100
AcDbLine
 10
3458.087802
 20
2018.625927
 30
0.0
 11
3483.087802
 21
2043.625927
 31
0.0
  0
LINE
  5
5F3
330
1F
100
AcDbEntity
  8
dxfile
  6
Continuous
 62
     6
100
AcDbLine
 10
3415.568487
 20
2043.625927
 30
0.0
 11
3440.568487
 21
2018.625927
 31
0.0
  0
LINE
  5
5F4
330
1F
100
AcDbEntity
  8
dxfile
  6
Continuous
 62
     6
100
AcDbLine
 10
3415.145688
 20
2018.625927
 30
0.0
 11
3440.145688
 21
2043.625927
 31
0.0
  0
LINE
  5
5F5
330
1F
100
AcDbEntity
  8
dxfile
  6
Continuous
 62
     6
100
AcDbLine
 10
3397.206827
 20
2018.625927
 30
0.0
 11
3372.206827
 21
2043.625927
 31
0.0
  0
LINE
  5
5F6
330
1F
100
AcDbEntity
  8
dxfile
  6
Continuous
 62
     6
100
AcDbLine
 10
3372.34063
 20
2018.625927
 30
0.0
 11
3397.34063
 21
2043.625927
 31
0.0
  0
LINE
  5
5F7
330
1F
100
AcDbEntity
  8
dxfile
  6
Continuous
 62
     6
100
AcDbLine
 10
3365.814333
 20
2078.625927
 30
0.0
 11
3365.814333
 21
2053.625927
 31
0.0
  0
LINE
  5
5F8
330
1F
100
AcDbEntity
  8
dxfile
  6
Continuous
 62
     6
100
AcDbLine
 10
3490.416893
 20
2078.625927
 30
0.0
 11
3490.416893
 21
2053.625927
 31
0.0
  0
LINE
  5
5F9
330
1F
100
AcDbEntity
  8
dxfile
  6
Continuous
 62
     6
100
AcDbLine
 10
3483.360164
 20
2053.625927
 30
0.0
 11
3458.360164
 21
2078.625927
 31
0.0
  0
LINE
  5
5FA
330
1F
100
AcDbEntity
  8
dxfile
  6
Continuous
 62
     6
100
AcDbLine
 10
3458.087802
 20
2053.625927
 30
0.0
 11
3483.087802
 21
2078.625927
 31
0.0
  0
LINE
  5
5FB
330
1F
100
AcDbEntity
  8
dxfile
  6
Continuous
 62
     6
100
AcDbLine
 10
3415.568487
 20
2078.625927
 30
0.0
 11
3440.568487
 21
2053.625927
 31
0.0
  0
LINE
  5
5FC
330
1F
100
AcDbEntity
  8
dxfile
  6
Continuous
 62
     6
100
AcDbLine
 10
3415.145688
 20
2053.625927
 30
0.0
 11
3440.145688
 21
2078.625927
 31
0.0
  0
LINE
  5
5FD
330
1F
100
AcDbEntity
  8
dxfile
  6
Continuous
 62
     6
100
AcDbLine
 10
3397.206827
 20
2053.625927
 30
0.0
 11
3372.206827
 21
2078.625927
 31
0.0
  0
LINE
  5
5FE
330
1F
100
AcDbEntity
  8
dxfile
  6
Continuous
 62
     6
100
AcDbLine
 10
3372.34063
 20
2053.625927
 30
0.0
 11
3397.34063
 21
2078.625927
 31
0.0
  0
ARC
  5
5FF
330
1F
100
AcDbEntity
  8
dxfile
  6
Continuous
 62
     3
100
AcDbCircle
 10
5852.986027
 20
22.375927
 30
0.0
 40
3031.249999999999
100
AcDbArc
 50
132.017093
 51
137.716334
  0
ARC
  5
600
330
1F
100
AcDbEntity
  8
dxfile
  6
Continuous
 62
     3
100
AcDbCircle
 10
5852.986027
 20
22.375927
 30
0.0
 40
3021.249999999998
100
AcDbArc
 50
132.01546
 51
137.716334
  0
LINE
  5
601
330
1F
100
AcDbEntity
  8
dxfile
  6
Continuous
 62
     3
100
AcDbLine
 10
3202.986027
 20
2053.625927
 30
0.0
 11
3202.986027
 21
2043.625927
 31
0.0
  0
LINE
  5
602
330
1F
100
AcDbEntity
  8
dxfile
  6
Continuous
 62
     3
100
AcDbLine
 10
3202.986027
 20
2053.625927
 30
0.0
 11
3591.902216
 21
2053.625927
 31
0.0
  0
LINE
  5
603
330
1F
100
AcDbEntity
  8
dxfile
  6
Continuous
 62
     3
100
AcDbLine
 10
3202.986027
 20
2043.625927
 30
0.0
 11
3591.902216
 21
2043.625927
 31
0.0
  0
ARC
  5
604
330
1F
100
AcDbEntity
  8
dxfile
  6
Continuous
 62
     4
100
AcDbCircle
 10
3572.635176
 20
2153.625927
 30
0.0
 40
75.0000000000138
100
AcDbArc
 50
270.0
 51
327.459693
  0
ARC
  5
605
330
1F
100
AcDbEntity
  8
dxfile
  6
Continuous
 62
     4
100
AcDbCircle
 10
3572.635176
 20
2153.625927
 30
0.0
 40
55.00000000013851
100
AcDbArc
 50
270.0
 51
327.459693
  0
ARC
  5
606
330
1F
100
AcDbEntity
  8
dxfile
  6
Continuous
 62
     3
100
AcDbCircle
 10
3591.902216
 20
2078.625927
 30
0.0
 40
25.00000000041172
100
AcDbArc
 50
270.0
 51
317.716334
  0
ARC
  5
607
330
1F
100
AcDbEntity
  8
dxfile
  6
Continuous
 62
     3
100
AcDbCircle
 10
3591.902216
 20
2078.625927
 30
0.0
 40
34.99999999991689
100
AcDbArc
 50
270.0
 51
317.716334
  0
ARC
  5
608
330
1F
100
AcDbEntity
  8
dxfile
  6
Continuous
 62
     4
100
AcDbCircle
 10
3139.37214
 20
2043.625927
 30
0.0
 40
35.0
100
AcDbArc
 50
90.0
 51
156.974508
  0
ARC
  5
609
330
1F
100
AcDbEntity
  8
dxfile
  6
Continuous
 62
     4
100
AcDbCircle
 10
3139.37214
 20
2043.625927
 30
0.0
 40
55.0
100
AcDbArc
 50
90.0
 51
156.974508
  0
ARC
  5
60A
330
1F
100
AcDbEntity
  8
dxfile
  6
Continuous
 62
     4
100
AcDbCircle
 10
297.364032
 20
980.223595
 30
0.0
 40
7.0
100
AcDbArc
 50
90.0
 51
156.974508
  0
ARC
  5
60B
330
1F
100
AcDbEntity
  8
dxfile
  6
Continuous
 62
     4
100
AcDbCircle
 10
297.364032
 20
980.223595
 30
0.0
 40
11.0
100
AcDbArc
 50
90.0
 51
156.974508
  0
ARC
  5
60C
330
1F
100
AcDbEntity
  8
dxfile
  6
Continuous
 62
     4
100
AcDbCircle
 10
1382.809587
 20
980.223595
 30
0.0
 40
6.999999999876482
100
AcDbArc
 50
23.025492
 51
90.0
  0
ARC
  5
60D
330
1F
100
AcDbEntity
  8
dxfile
  6
Continuous
 62
     4
100
AcDbCircle
 10
1382.809587
 20
980.223595
 30
0.0
 40
10.99999999989325
100
AcDbArc
 50
23.025492
 51
90.0
  0
TEXT
  5
60E
330
1F
100
AcDbEntity
  8
dxfile
  6
Continuous
 62
     3
100
AcDbText
 10
871.388123
 20
2752.389543
 30
0.0
 40
30.0
  1
Ｄ
 41
0.858268
  7
BIGFONT
100
AcDbText
  0
TEXT
  5
60F
330
1F
100
AcDbEntity
  8
dxfile
  6
Continuous
 62
     3
100
AcDbText
 10
787.905747
 20
2700.96052
 30
0.0
 40
30.0
  1
１００（１２５）
 41
0.858268
  7
BIGFONT
100
AcDbText
  0
TEXT
  5
610
330
1F
100
AcDbEntity
  8
dxfile
  6
Continuous
 62
     3
100
AcDbText
 10
787.84745
 20
2648.765387
 30
0.0
 40
30.0
  1
１００（１２５）
 41
0.858268
  7
BIGFONT
100
AcDbText
  0
TEXT
  5
611
330
1F
100
AcDbEntity
  8
dxfile
  6
Continuous
 62
     3
100
AcDbText
 10
788.469283
 20
2600.884223
 30
0.0
 40
30.0
  1
１００（１２５）
 41
0.858268
  7
BIGFONT
100
AcDbText
  0
TEXT
  5
612
330
1F
100
AcDbEntity
  8
dxfile
  6
Continuous
 62
     3
100
AcDbText
 10
1247.119883
 20
2547.329728
 30
0.0
 40
30.0
  1
（　　）内寸法はＦＲＰ製ドーム
 41
0.858268
  7
BIGFONT
100
AcDbText
  0
LINE
  5
613
330
1F
100
AcDbEntity
  8
dxfile
  6
Continuous
 62
     3
100
AcDbLine
 10
1761.534516
 20
238.824267
 30
0.0
 11
1902.418246
 21
238.824267
 31
0.0
  0
LINE
  5
614
330
1F
100
AcDbEntity
  8
dxfile
  6
Continuous
 62
     3
100
AcDbLine
 10
1902.418246
 20
238.824267
 30
0.0
 11
1902.418246
 21
192.672701
 31
0.0
  0
LINE
  5
615
330
1F
100
AcDbEntity
  8
dxfile
  6
Continuous
 62
     3
100
AcDbLine
 10
1902.418246
 20
192.672701
 30
0.0
 11
1761.534516
 21
192.672701
 31
0.0
  0
LINE
  5
616
330
1F
100
AcDbEntity
  8
dxfile
  6
Continuous
 62
     3
100
AcDbLine
 10
1761.534516
 20
192.672701
 30
0.0
 11
1761.534516
 21
238.824267
 31
0.0
  0
LINE
  5
617
330
1F
100
AcDbEntity
  8
dxfile
  6
Continuous
 62
     3
100
AcDbLine
 10
3758.544373
 20
2173.58445
 30
0.0
 11
3744.214246
 21
2188.404958
 31
0.0
  0
LINE
  5
618
330
1F
100
AcDbEntity
  8
dxfile
  6
Continuous
 62
     3
100
AcDbLine
 10
3744.214246
 20
2188.404958
 30
0.0
 11
3785.164257
 21
2117.477458
 31
0.0
  0
LINE
  5
619
330
1F
100
AcDbEntity
  8
dxfile
  6
Continuous
 62
     3
100
AcDbLine
 10
3785.164257
 20
2117.477458
 30
0.0
 11
3965.400478
 21
2117.477458
 31
0.0
  0
TEXT
  5
61A
330
1F
100
AcDbEntity
  8
dxfile
  6
Continuous
 62
     3
100
AcDbText
 10
3785.164257
 20
2122.477458
 30
0.0
 40
30.0
  1
インナードーム
 41
0.858268
  7
BIGFONT
100
AcDbText
  0
LINE
  5
61B
330
1F
100
AcDbEntity
  8
dxfile
  6
Continuous
 62
     3
100
AcDbLine
 10
3374.549021
 20
1557.866173
 30
0.0
 11
3360.218894
 21
1572.686681
 31
0.0
  0
LINE
  5
61C
330
1F
100
AcDbEntity
  8
dxfile
  6
Continuous
 62
     3
100
AcDbLine
 10
3360.218894
 20
1572.686681
 30
0.0
 11
3455.871063
 21
1407.012266
 31
0.0
  0
LINE
  5
61D
330
1F
100
AcDbEntity
  8
dxfile
  6
Continuous
 62
     3
100
AcDbLine
 10
3455.871063
 20
1407.012266
 30
0.0
 11
3507.367126
 21
1407.012266
 31
0.0
  0
TEXT
  5
61E
330
1F
100
AcDbEntity
  8
dxfile
  6
Continuous
 62
     3
100
AcDbText
 10
3455.871063
 20
1412.012266
 30
0.0
 40
30.0
  1
溶接
 41
0.858268
  7
BIGFONT
100
AcDbText
  0
TEXT
  5
61F
330
1F
100
AcDbEntity
  8
dxfile
  6
Continuous
 62
     3
100
AcDbText
 10
2955.075595
 20
1957.297212
 30
0.0
 40
30.0
  1
（３０）
 50
90.0
 41
0.858268
  7
BIGFONT
 72
     1
 11
2955.075595
 21
1999.59755
 31
0.0
100
AcDbText
  0
TEXT
  5
620
330
1F
100
AcDbEntity
  8
dxfile
  6
Continuous
 62
     3
100
AcDbText
 10
1529.411965
 20
2701.600354
 30
0.0
 40
30.0
  1
６０６
 41
0.858268
  7
BIGFONT
100
AcDbText
  0
TEXT
  5
621
330
1F
100
AcDbEntity
  8
dxfile
  6
Continuous
 62
     3
100
AcDbText
 10
1529.666609
 20
2650.625774
 30
0.0
 40
30.0
  1
９０６
 41
0.858268
  7
BIGFONT
100
AcDbText
  0
TEXT
  5
622
330
1F
100
AcDbEntity
  8
dxfile
  6
Continuous
 62
     3
100
AcDbText
 10
1505.000779
 20
2603.885664
 30
0.0
 40
30.0
  1
１３０６
 41
0.858268
  7
BIGFONT
100
AcDbText
  0
TEXT
  5
623
330
1F
100
AcDbEntity
  8
dxfile
  6
Continuous
 62
     3
100
AcDbText
 10
1549.840076
 20
2752.389544
 30
0.0
 40
30.0
  1
Ｇ
 41
0.858268
  7
BIGFONT
100
AcDbText
  0
LINE
  5
624
330
1F
100
AcDbEntity
  8
dxfile
  6
Continuous
 62
     2
100
AcDbLine
 10
1635.599242
 20
2793.28233
 30
0.0
 11
1635.599242
 21
2591.44233
 31
0.0
  0
LINE
  5
625
330
1F
100
AcDbEntity
  8
dxfile
  6
Continuous
 62
     6
100
AcDbLine
 10
3527.986027
 20
2017.125927
 30
0.0
 11
3527.986027
 21
2018.625927
 31
0.0
  0
LINE
  5
626
330
1F
100
AcDbEntity
  8
dxfile
  6
Continuous
 62
     6
100
AcDbLine
 10
3527.986027
 20
2018.625927
 30
0.0
 11
3552.986027
 21
2018.625927
 31
0.0
  0
LINE
  5
627
330
1F
100
AcDbEntity
  8
dxfile
  6
Continuous
 62
     3
100
AcDbLine
 10
3423.930321
 20
1649.484205
 30
0.0
 11
3409.600194
 21
1664.304713
 31
0.0
  0
LINE
  5
628
330
1F
100
AcDbEntity
  8
dxfile
  6
Continuous
 62
     3
100
AcDbLine
 10
3409.600194
 20
1664.304713
 30
0.0
 11
3686.1512
 21
1185.30432
 31
0.0
  0
LINE
  5
629
330
1F
100
AcDbEntity
  8
dxfile
  6
Continuous
 62
     3
100
AcDbLine
 10
3686.1512
 20
1185.30432
 30
0.0
 11
3846.839022
 21
1185.30432
 31
0.0
  0
TEXT
  5
62A
330
1F
100
AcDbEntity
  8
dxfile
  6
Continuous
 62
     3
100
AcDbText
 10
3692.350833
 20
1190.30432
 30
0.0
 40
30.0
  1
アンカー金物
 41
0.858268
  7
BIGFONT
100
AcDbText
  0
CIRCLE
  5
62B
330
1F
100
AcDbEntity
  8
dxfile
  6
Continuous
 62
     3
100
AcDbCircle
 10
2919.267426
 20
2098.625927
 30
0.0
 40
5.0
  0
LINE
  5
62C
330
1F
100
AcDbEntity
  8
dxfile
  6
Continuous
 62
     3
100
AcDbLine
 10
2919.267426
 20
2098.625927
 30
0.0
 11
2919.267426
 21
2374.062091
 31
0.0
  0
TEXT
  5
62D
330
1F
100
AcDbEntity
  8
dxfile
  6
Continuous
 62
     3
100
AcDbText
 10
2914.267426
 20
2227.148283
 30
0.0
 40
30.0
  1
Ｈ
 50
90.0
 41
0.858268
  7
BIGFONT
 72
     1
 11
2914.267426
 21
2236.344009
 31
0.0
100
AcDbText
  0
LINE
  5
62E
330
1F
100
AcDbEntity
  8
dxfile
  6
Continuous
 62
     3
100
AcDbLine
 10
2919.267426
 20
2374.062091
 30
0.0
 11
2912.034503
 21
2347.068452
 31
0.0
  0
ENDSEC
  0
SECTION
  2
OBJECTS
  0
DICTIONARY
  5
C
330
0
100
AcDbDictionary
281
     1
  3
ACAD_GROUP
350
D
  3
ACAD_LAYOUT
350
1A
  3
ACAD_MLEADERSTYLE
350
631
  3
ACAD_MLINESTYLE
350
17
  3
ACAD_PLOTSETTINGS
350
19
  3
ACAD_PLOTSTYLENAME
350
E
  3
ACAD_SCALELIST
350
50
  3
ACAD_VISUALSTYLE
350
2A
  3
AcDbVariableDictionary
350
62F
  0
DICTIONARY
  5
D
102
{ACAD_REACTORS
330
C
102
}
330
C
100
AcDbDictionary
281
     1
  0
DICTIONARY
  5
1A
102
{ACAD_REACTORS
330
C
102
}
330
C
100
AcDbDictionary
281
     1
  3
Layout1
350
1E
  3
Layout2
350
26
  3
Model
350
22
  0
DICTIONARY
  5
631
102
{ACAD_REACTORS
330
C
102
}
330
C
100
AcDbDictionary
281
     1
  0
DICTIONARY
  5
17
102
{ACAD_REACTORS
330
C
102
}
330
C
100
AcDbDictionary
281
     1
  3
Standard
350
18
  0
DICTIONARY
  5
19
102
{ACAD_REACTORS
330
C
102
}
330
C
100
AcDbDictionary
281
     1
  0
ACDBDICTIONARYWDFLT
  5
E
102
{ACAD_REACTORS
330
C
102
}
330
C
100
AcDbDictionary
281
     1
  3
Normal
350
F
100
AcDbDictionaryWithDefault
340
F
  0
DICTIONARY
  5
50
102
{ACAD_REACTORS
330
C
102
}
330
C
100
AcDbDictionary
281
     1
  3
A0
350
51
  3
A1
350
52
  3
A2
350
53
  3
A3
350
54
  3
A4
350
55
  3
A5
350
56
  3
A6
350
57
  3
A7
350
58
  3
A8
350
59
  3
A9
350
5A
  3
B0
350
5B
  3
B1
350
5C
  3
B2
350
5D
  3
B3
350
5E
  3
B4
350
5F
  3
B5
350
60
  3
B6
350
61
  3
B7
350
62
  3
B8
350
63
  3
B9
350
64
  3
C0
350
65
  3
C1
350
66
  3
C2
350
67
  3
C3
350
68
  3
C4
350
69
  3
C5
350
6A
  3
C6
350
6B
  3
C7
350
6C
  3
C8
350
6D
  3
C9
350
6E
  3
D0
350
6F
  3
D1
350
70
  3
D2
350
71
  0
DICTIONARY
  5
2A
102
{ACAD_REACTORS
330
C
102
}
330
C
100
AcDbDictionary
281
     1
  3
2dWireframe
350
2F
  3
3D Hidden
350
31
  3
3dWireframe
350
30
  3
Basic
350
32
  3
Brighten
350
36
  3
ColorChange
350
3A
  3
Conceptual
350
34
  3
Dim
350
35
  3
Facepattern
350
39
  3
Flat
350
2B
  3
FlatWithEdges
350
2C
  3
Gouraud
350
2D
  3
GouraudWithEdges
350
2E
  3
Linepattern
350
38
  3
Realistic
350
33
  3
Thicken
350
37
  0
DICTIONARY
  5
62F
102
{ACAD_REACTORS
330
C
102
}
330
C
100
AcDbDictionary
281
     1
  3
CANNOSCALE
350
632
  3
DIMASSOC
350
633
  3
HIDETEXT
350
634
  0
LAYOUT
  5
1E
102
{ACAD_REACTORS
330
1A
102
}
330
1A
100
AcDbPlotSettings
  1

  2
none_device
  4

  6

 40
0.0
 41
0.0
 42
0.0
 43
0.0
 44
0.0
 45
0.0
 46
0.0
 47
0.0
 48
0.0
 49
0.0
140
0.0
141
0.0
142
1.0
143
1.0
 70
   688
 72
     0
 73
     0
 74
     5
  7

 75
    16
147
1.0
148
0.0
149
0.0
100
AcDbLayout
  1
Layout1
 70
     1
 71
     1
 10
0.0
 20
0.0
 11
12.0
 21
9.0
 12
0.0
 22
0.0
 32
0.0
 14
1.000000E+20
 24
1.000000E+20
 34
1.000000E+20
 15
-1.000000E+20
 25
-1.000000E+20
 35
-1.000000E+20
146
0.0
 13
0.0
 23
0.0
 33
0.0
 16
1.0
 26
0.0
 36
0.0
 17
0.0
 27
1.0
 37
0.0
 76
     0
330
1B
  0
LAYOUT
  5
26
102
{ACAD_REACTORS
330
1A
102
}
330
1A
100
AcDbPlotSettings
  1

  2
none_device
  4

  6

 40
0.0
 41
0.0
 42
0.0
 43
0.0
 44
0.0
 45
0.0
 46
0.0
 47
0.0
 48
0.0
 49
0.0
140
0.0
141
0.0
142
1.0
143
1.0
 70
   688
 72
     0
 73
     0
 74
     5
  7

 75
    16
147
1.0
148
0.0
149
0.0
100
AcDbLayout
  1
Layout2
 70
     1
 71
     2
 10
0.0
 20
0.0
 11
0.0
 21
0.0
 12
0.0
 22
0.0
 32
0.0
 14
0.0
 24
0.0
 34
0.0
 15
0.0
 25
0.0
 35
0.0
146
0.0
 13
0.0
 23
0.0
 33
0.0
 16
1.0
 26
0.0
 36
0.0
 17
0.0
 27
1.0
 37
0.0
 76
     0
330
23
  0
LAYOUT
  5
22
102
{ACAD_REACTORS
330
1A
102
}
330
1A
100
AcDbPlotSettings
  1

  2
none_device
  4

  6

 40
0.0
 41
0.0
 42
0.0
 43
0.0
 44
0.0
 45
0.0
 46
0.0
 47
0.0
 48
0.0
 49
0.0
140
0.0
141
0.0
142
1.0
143
1.0
 70
  1712
 72
     0
 73
     0
 74
     0
  7

 75
     0
147
1.0
148
0.0
149
0.0
100
AcDbLayout
  1
Model
 70
     1
 71
     0
 10
0.0
 20
0.0
 11
12.0
 21
9.0
 12
0.0
 22
0.0
 32
0.0
 14
0.0
 24
0.0
 34
0.0
 15
4200.0
 25
2970.0
 35
0.0
146
0.0
 13
0.0
 23
0.0
 33
0.0
 16
1.0
 26
0.0
 36
0.0
 17
0.0
 27
1.0
 37
0.0
 76
     0
330
1F
331
29
  0
MLINESTYLE
  5
18
102
{ACAD_REACTORS
330
17
102
}
330
17
100
AcDbMlineStyle
  2
Standard
 70
     0
  3

 62
   256
 51
90.0
 52
90.0
 71
     2
 49
0.5
 62
   256
  6
BYLAYER
 49
-0.5
 62
   256
  6
BYLAYER
  0
ACDBPLACEHOLDER
  5
F
102
{ACAD_REACTORS
330
E
102
}
330
E
  0
SCALE
  5
51
102
{ACAD_REACTORS
330
50
102
}
330
50
100
AcDbScale
 70
     0
300
1:1
140
1.0
141
1.0
290
     1
  0
SCALE
  5
52
102
{ACAD_REACTORS
330
50
102
}
330
50
100
AcDbScale
 70
     0
300
1:2
140
1.0
141
2.0
290
     0
  0
SCALE
  5
53
102
{ACAD_REACTORS
330
50
102
}
330
50
100
AcDbScale
 70
     0
300
1:4
140
1.0
141
4.0
290
     0
  0
SCALE
  5
54
102
{ACAD_REACTORS
330
50
102
}
330
50
100
AcDbScale
 70
     0
300
1:5
140
1.0
141
5.0
290
     0
  0
SCALE
  5
55
102
{ACAD_REACTORS
330
50
102
}
330
50
100
AcDbScale
 70
     0
300
1:8
140
1.0
141
8.0
290
     0
  0
SCALE
  5
56
102
{ACAD_REACTORS
330
50
102
}
330
50
100
AcDbScale
 70
     0
300
1:10
140
1.0
141
10.0
290
     0
  0
SCALE
  5
57
102
{ACAD_REACTORS
330
50
102
}
330
50
100
AcDbScale
 70
     0
300
1:16
140
1.0
141
16.0
290
     0
  0
SCALE
  5
58
102
{ACAD_REACTORS
330
50
102
}
330
50
100
AcDbScale
 70
     0
300
1:20
140
1.0
141
20.0
290
     0
  0
SCALE
  5
59
102
{ACAD_REACTORS
330
50
102
}
330
50
100
AcDbScale
 70
     0
300
1:30
140
1.0
141
30.0
290
     0
  0
SCALE
  5
5A
102
{ACAD_REACTORS
330
50
102
}
330
50
100
AcDbScale
 70
     0
300
1:40
140
1.0
141
40.0
290
     0
  0
SCALE
  5
5B
102
{ACAD_REACTORS
330
50
102
}
330
50
100
AcDbScale
 70
     0
300
1:50
140
1.0
141
50.0
290
     0
  0
SCALE
  5
5C
102
{ACAD_REACTORS
330
50
102
}
330
50
100
AcDbScale
 70
     0
300
1:100
140
1.0
141
100.0
290
     0
  0
SCALE
  5
5D
102
{ACAD_REACTORS
330
50
102
}
330
50
100
AcDbScale
 70
     0
300
2:1
140
2.0
141
1.0
290
     0
  0
SCALE
  5
5E
102
{ACAD_REACTORS
330
50
102
}
330
50
100
AcDbScale
 70
     0
300
4:1
140
4.0
141
1.0
290
     0
  0
SCALE
  5
5F
102
{ACAD_REACTORS
330
50
102
}
330
50
100
AcDbScale
 70
     0
300
8:1
140
8.0
141
1.0
290
     0
  0
SCALE
  5
60
102
{ACAD_REACTORS
330
50
102
}
330
50
100
AcDbScale
 70
     0
300
10:1
140
10.0
141
1.0
290
     0
  0
SCALE
  5
61
102
{ACAD_REACTORS
330
50
102
}
330
50
100
AcDbScale
 70
     0
300
100:1
140
100.0
141
1.0
290
     0
  0
SCALE
  5
62
102
{ACAD_REACTORS
330
50
102
}
330
50
100
AcDbScale
 70
     0
300
1/128" = 1'-0"
140
0.007812
141
12.0
290
     0
  0
SCALE
  5
63
102
{ACAD_REACTORS
330
50
102
}
330
50
100
AcDbScale
 70
     0
300
1/64" = 1'-0"
140
0.015625
141
12.0
290
     0
  0
SCALE
  5
64
102
{ACAD_REACTORS
330
50
102
}
330
50
100
AcDbScale
 70
     0
300
1/32" = 1'-0"
140
0.03125
141
12.0
290
     0
  0
SCALE
  5
65
102
{ACAD_REACTORS
330
50
102
}
330
50
100
AcDbScale
 70
     0
300
1/16" = 1'-0"
140
0.0625
141
12.0
290
     0
  0
SCALE
  5
66
102
{ACAD_REACTORS
330
50
102
}
330
50
100
AcDbScale
 70
     0
300
3/32" = 1'-0"
140
0.09375
141
12.0
290
     0
  0
SCALE
  5
67
102
{ACAD_REACTORS
330
50
102
}
330
50
100
AcDbScale
 70
     0
300
1/8" = 1'-0"
140
0.125
141
12.0
290
     0
  0
SCALE
  5
68
102
{ACAD_REACTORS
330
50
102
}
330
50
100
AcDbScale
 70
     0
300
3/16" = 1'-0"
140
0.1875
141
12.0
290
     0
  0
SCALE
  5
69
102
{ACAD_REACTORS
330
50
102
}
330
50
100
AcDbScale
 70
     0
300
1/4" = 1'-0"
140
0.25
141
12.0
290
     0
  0
SCALE
  5
6A
102
{ACAD_REACTORS
330
50
102
}
330
50
100
AcDbScale
 70
     0
300
3/8" = 1'-0"
140
0.375
141
12.0
290
     0
  0
SCALE
  5
6B
102
{ACAD_REACTORS
330
50
102
}
330
50
100
AcDbScale
 70
     0
300
1/2" = 1'-0"
140
0.5
141
12.0
290
     0
  0
SCALE
  5
6C
102
{ACAD_REACTORS
330
50
102
}
330
50
100
AcDbScale
 70
     0
300
3/4" = 1'-0"
140
0.75
141
12.0
290
     0
  0
SCALE
  5
6D
102
{ACAD_REACTORS
330
50
102
}
330
50
100
AcDbScale
 70
     0
300
1" = 1'-0"
140
1.0
141
12.0
290
     0
  0
SCALE
  5
6E
102
{ACAD_REACTORS
330
50
102
}
330
50
100
AcDbScale
 70
     0
300
1-1/2" = 1'-0"
140
1.5
141
12.0
290
     0
  0
SCALE
  5
6F
102
{ACAD_REACTORS
330
50
102
}
330
50
100
AcDbScale
 70
     0
300
3" = 1'-0"
140
3.0
141
12.0
290
     0
  0
SCALE
  5
70
102
{ACAD_REACTORS
330
50
102
}
330
50
100
AcDbScale
 70
     0
300
6" = 1'-0"
140
6.0
141
12.0
290
     0
  0
SCALE
  5
71
102
{ACAD_REACTORS
330
50
102
}
330
50
100
AcDbScale
 70
     0
300
1'-0" = 1'-0"
140
12.0
141
12.0
290
     0
  0
VISUALSTYLE
  5
2F
102
{ACAD_REACTORS
330
2A
102
}
102
{ACAD_XDICTIONARY
360
63D
102
}
330
2A
100
AcDbVisualStyle
  2
2dWireframe
 70
     4
 71
     0
 72
     2
 73
     0
 90
        0
 40
-0.6
 41
-30.0
 62
     5
 63
     7
 74
     1
 91
        4
 64
     7
 65
   257
 75
     1
175
     1
 42
1.0
 92
        0
 66
   257
 43
1.0
 76
     1
 77
     6
 78
     2
 67
     7
 79
     5
170
     0
171
     0
290
     0
174
     0
 93
        1
 44
0.0
173
     0
291
     0
 45
0.0
1001
ACAD
1000
AcDbSavedByObjectVersion
1070
     0
  0
VISUALSTYLE
  5
31
102
{ACAD_REACTORS
330
2A
102
}
102
{ACAD_XDICTIONARY
360
641
102
}
330
2A
100
AcDbVisualStyle
  2
3D Hidden
 70
     6
 71
     1
 72
     2
 73
     2
 90
        0
 40
-0.6
 41
-30.0
 62
     5
 63
     7
 74
     2
 91
        2
 64
     7
 65
   257
 75
     2
175
     1
 42
40.0
 92
        0
 66
   257
 43
1.0
 76
     1
 77
     6
 78
     2
 67
     7
 79
     3
170
     0
171
     0
290
     0
174
     0
 93
        1
 44
0.0
173
     0
291
     0
 45
0.0
1001
ACAD
1000
AcDbSavedByObjectVersion
1070
     0
  0
VISUALSTYLE
  5
30
102
{ACAD_REACTORS
330
2A
102
}
102
{ACAD_XDICTIONARY
360
63F
102
}
330
2A
100
AcDbVisualStyle
  2
3dWireframe
 70
     5
 71
     0
 72
     2
 73
     0
 90
        0
 40
-0.6
 41
-30.0
 62
     5
 63
     7
 74
     1
 91
        4
 64
     7
 65
   257
 75
     1
175
     1
 42
1.0
 92
        0
 66
   257
 43
1.0
 76
     1
 77
     6
 78
     2
 67
     7
 79
     5
170
     0
171
     0
290
     0
174
     0
 93
        1
 44
0.0
173
     0
291
     0
 45
0.0
1001
ACAD
1000
AcDbSavedByObjectVersion
1070
     0
  0
VISUALSTYLE
  5
32
102
{ACAD_REACTORS
330
2A
102
}
102
{ACAD_XDICTIONARY
360
643
102
}
330
2A
100
AcDbVisualStyle
  2
Basic
 70
     7
 71
     1
 72
     0
 73
     1
 90
        0
 40
-0.6
 41
-30.0
 62
     5
 63
     7
 74
     0
 91
        4
 64
     7
 65
   257
 75
     1
175
     1
 42
1.0
 92
        8
 66
     7
 43
1.0
 76
     1
 77
     6
 78
     2
 67
     7
 79
     5
170
     0
171
     0
290
     0
174
     0
 93
        1
 44
0.0
173
     0
291
     1
 45
0.0
1001
ACAD
1000
AcDbSavedByObjectVersion
1070
     0
  0
VISUALSTYLE
  5
36
102
{ACAD_REACTORS
330
2A
102
}
102
{ACAD_XDICTIONARY
360
64B
102
}
330
2A
100
AcDbVisualStyle
  2
Brighten
 70
    12
 71
     2
 72
     2
 73
     0
 90
        0
 40
-0.6
 41
-30.0
 62
     5
 63
     7
 74
     1
 91
        4
 64
     7
 65
   257
 75
     1
175
     1
 42
1.0
 92
        8
 66
     7
 43
1.0
 76
     1
 77
     6
 78
     2
 67
     7
 79
     5
170
     0
171
     0
290
     0
174
     0
 93
        1
 44
50.0
173
     0
291
     1
 45
0.0
1001
ACAD
1000
AcDbSavedByObjectVersion
1070
     0
  0
VISUALSTYLE
  5
3A
102
{ACAD_REACTORS
330
2A
102
}
102
{ACAD_XDICTIONARY
360
653
102
}
330
2A
100
AcDbVisualStyle
  2
ColorChange
 70
    16
 71
     2
 72
     2
 73
     3
 90
        0
 40
-0.6
 41
-30.0
 62
     5
 63
     8
 74
     1
 91
        4
 64
     7
 65
   257
 75
     1
175
     1
 42
1.0
 92
        8
 66
     8
 43
1.0
 76
     1
 77
     6
 78
     2
 67
     7
 79
     5
170
     0
171
     0
290
     0
174
     0
 93
        1
 44
0.0
173
     0
291
     1
 45
0.0
1001
ACAD
1000
AcDbSavedByObjectVersion
1070
     0
  0
VISUALSTYLE
  5
34
102
{ACAD_REACTORS
330
2A
102
}
102
{ACAD_XDICTIONARY
360
647
102
}
330
2A
100
AcDbVisualStyle
  2
Conceptual
 70
     9
 71
     3
 72
     2
 73
     0
 90
        0
 40
-0.6
 41
-30.0
 62
     5
 63
     7
 74
     2
 91
        2
 64
     7
 65
   257
 75
     1
175
     1
 42
40.0
 92
        8
 66
     7
 43
1.0
 76
     1
 77
     6
 78
     2
 67
     7
 79
     3
170
     0
171
     0
290
     0
174
     0
 93
        1
 44
0.0
173
     0
291
     0
 45
0.0
1001
ACAD
1000
AcDbSavedByObjectVersion
1070
     0
  0
VISUALSTYLE
  5
35
102
{ACAD_REACTORS
330
2A
102
}
102
{ACAD_XDICTIONARY
360
649
102
}
330
2A
100
AcDbVisualStyle
  2
Dim
 70
    11
 71
     2
 72
     2
 73
     0
 90
        0
 40
-0.6
 41
-30.0
 62
     5
 63
     7
 74
     1
 91
        4
 64
     7
 65
   257
 75
     1
175
     1
 42
1.0
 92
        8
 66
     7
 43
1.0
 76
     1
 77
     6
 78
     2
 67
     7
 79
     5
170
     0
171
     0
290
     0
174
     0
 93
        1
 44
-50.0
173
     0
291
     1
 45
0.0
1001
ACAD
1000
AcDbSavedByObjectVersion
1070
     0
  0
VISUALSTYLE
  5
39
102
{ACAD_REACTORS
330
2A
102
}
102
{ACAD_XDICTIONARY
360
651
102
}
330
2A
100
AcDbVisualStyle
  2
Facepattern
 70
    15
 71
     2
 72
     2
 73
     0
 90
        0
 40
-0.6
 41
-30.0
 62
     5
 63
     7
 74
     1
 91
        4
 64
     7
 65
   257
 75
     1
175
     1
 42
1.0
 92
        8
 66
     7
 43
1.0
 76
     1
 77
     6
 78
     2
 67
     7
 79
     5
170
     0
171
     0
290
     0
174
     0
 93
        1
 44
0.0
173
     0
291
     1
 45
0.0
1001
ACAD
1000
AcDbSavedByObjectVersion
1070
     0
  0
VISUALSTYLE
  5
2B
102
{ACAD_REACTORS
330
2A
102
}
102
{ACAD_XDICTIONARY
360
635
102
}
330
2A
100
AcDbVisualStyle
  2
Flat
 70
     0
 71
     2
 72
     1
 73
     1
 90
        2
 40
-0.6
 41
30.0
 62
     5
 63
     7
 74
     0
 91
        4
 64
     7
 65
   257
 75
     1
175
     1
 42
1.0
 92
        8
 66
     7
 43
1.0
 76
     1
 77
     6
 78
     2
 67
     7
 79
     5
170
     0
171
     0
290
     0
174
     0
 93
       13
 44
0.0
173
     0
291
     1
 45
0.0
1001
ACAD
1000
AcDbSavedByObjectVersion
1070
     0
  0
VISUALSTYLE
  5
2C
102
{ACAD_REACTORS
330
2A
102
}
102
{ACAD_XDICTIONARY
360
637
102
}
330
2A
100
AcDbVisualStyle
  2
FlatWithEdges
 70
     1
 71
     2
 72
     1
 73
     1
 90
        2
 40
-0.6
 41
30.0
 62
     5
 63
     7
 74
     1
 91
        4
 64
     7
 65
   257
 75
     1
175
     1
 42
1.0
 92
        0
 66
   257
 43
1.0
 76
     1
 77
     6
 78
     2
 67
     7
 79
     5
170
     0
171
     0
290
     0
174
     0
 93
       13
 44
0.0
173
     0
291
     1
 45
0.0
1001
ACAD
1000
AcDbSavedByObjectVersion
1070
     0
  0
VISUALSTYLE
  5
2D
102
{ACAD_REACTORS
330
2A
102
}
102
{ACAD_XDICTIONARY
360
639
102
}
330
2A
100
AcDbVisualStyle
  2
Gouraud
 70
     2
 71
     2
 72
     2
 73
     1
 90
        2
 40
-0.6
 41
30.0
 62
     5
 63
     7
 74
     0
 91
        4
 64
     7
 65
   257
 75
     1
175
     1
 42
1.0
 92
        0
 66
     7
 43
1.0
 76
     1
 77
     6
 78
     2
 67
     7
 79
     5
170
     0
171
     0
290
     0
174
     0
 93
       13
 44
0.0
173
     0
291
     1
 45
0.0
1001
ACAD
1000
AcDbSavedByObjectVersion
1070
     0
  0
VISUALSTYLE
  5
2E
102
{ACAD_REACTORS
330
2A
102
}
102
{ACAD_XDICTIONARY
360
63B
102
}
330
2A
100
AcDbVisualStyle
  2
GouraudWithEdges
 70
     3
 71
     2
 72
     2
 73
     1
 90
        2
 40
-0.6
 41
30.0
 62
     5
 63
     7
 74
     1
 91
        4
 64
     7
 65
   257
 75
     1
175
     1
 42
1.0
 92
        0
 66
   257
 43
1.0
 76
     1
 77
     6
 78
     2
 67
     7
 79
     5
170
     0
171
     0
290
     0
174
     0
 93
       13
 44
0.0
173
     0
291
     1
 45
0.0
1001
ACAD
1000
AcDbSavedByObjectVersion
1070
     0
  0
VISUALSTYLE
  5
38
102
{ACAD_REACTORS
330
2A
102
}
102
{ACAD_XDICTIONARY
360
64F
102
}
330
2A
100
AcDbVisualStyle
  2
Linepattern
 70
    14
 71
     2
 72
     2
 73
     0
 90
        0
 40
-0.6
 41
-30.0
 62
     5
 63
     7
 74
     1
 91
        4
 64
     7
 65
   257
 75
     7
175
     7
 42
1.0
 92
        8
 66
     7
 43
1.0
 76
     1
 77
     6
 78
     2
 67
     7
 79
     5
170
     0
171
     0
290
     0
174
     0
 93
        1
 44
0.0
173
     0
291
     1
 45
0.0
1001
ACAD
1000
AcDbSavedByObjectVersion
1070
     0
  0
VISUALSTYLE
  5
33
102
{ACAD_REACTORS
330
2A
102
}
102
{ACAD_XDICTIONARY
360
645
102
}
330
2A
100
AcDbVisualStyle
  2
Realistic
 70
     8
 71
     2
 72
     2
 73
     0
 90
        0
 40
-0.6
 41
-30.0
 62
     5
 63
     7
 74
     1
 91
        0
 64
     7
 65
   257
 75
     1
175
     1
 42
1.0
 92
        8
 66
     8
 43
1.0
 76
     1
 77
     6
 78
     2
 67
     7
 79
     5
170
     0
171
     0
290
     0
174
     0
 93
       13
 44
0.0
173
     0
291
     0
 45
0.0
1001
ACAD
1000
AcDbSavedByObjectVersion
1070
     0
  0
VISUALSTYLE
  5
37
102
{ACAD_REACTORS
330
2A
102
}
102
{ACAD_XDICTIONARY
360
64D
102
}
330
2A
100
AcDbVisualStyle
  2
Thicken
 70
    13
 71
     2
 72
     2
 73
     0
 90
        0
 40
-0.6
 41
-30.0
 62
     5
 63
     7
 74
     1
 91
        4
 64
     7
 65
   257
 75
     1
175
     1
 42
1.0
 92
       12
 66
     7
 43
1.0
 76
     1
 77
     6
 78
     2
 67
     7
 79
     5
170
     0
171
     0
290
     0
174
     0
 93
        1
 44
0.0
173
     0
291
     1
 45
0.0
1001
ACAD
1000
AcDbSavedByObjectVersion
1070
     0
  0
DICTIONARYVAR
  5
632
102
{ACAD_REACTORS
330
62F
102
}
330
62F
100
DictionaryVariables
280
     0
  1
1:1
  0
DICTIONARYVAR
  5
633
102
{ACAD_REACTORS
330
62F
102
}
330
62F
100
DictionaryVariables
280
     0
  1
2
  0
DICTIONARYVAR
  5
634
102
{ACAD_REACTORS
330
62F
102
}
330
62F
100
DictionaryVariables
280
     0
  1
1
  0
DICTIONARY
  5
63D
330
2F
100
AcDbDictionary
280
     1
281
     1
  3
ACAD_XREC_ROUNDTRIP
360
63E
  0
DICTIONARY
  5
641
330
31
100
AcDbDictionary
280
     1
281
     1
  3
ACAD_XREC_ROUNDTRIP
360
642
  0
DICTIONARY
  5
63F
330
30
100
AcDbDictionary
280
     1
281
     1
  3
ACAD_XREC_ROUNDTRIP
360
640
  0
DICTIONARY
  5
643
330
32
100
AcDbDictionary
280
     1
281
     1
  3
ACAD_XREC_ROUNDTRIP
360
644
  0
DICTIONARY
  5
64B
330
36
100
AcDbDictionary
280
     1
281
     1
  3
ACAD_XREC_ROUNDTRIP
360
64C
  0
DICTIONARY
  5
653
330
3A
100
AcDbDictionary
280
     1
281
     1
  3
ACAD_XREC_ROUNDTRIP
360
654
  0
DICTIONARY
  5
647
330
34
100
AcDbDictionary
280
     1
281
     1
  3
ACAD_XREC_ROUNDTRIP
360
648
  0
DICTIONARY
  5
649
330
35
100
AcDbDictionary
280
     1
281
     1
  3
ACAD_XREC_ROUNDTRIP
360
64A
  0
DICTIONARY
  5
651
330
39
100
AcDbDictionary
280
     1
281
     1
  3
ACAD_XREC_ROUNDTRIP
360
652
  0
DICTIONARY
  5
635
330
2B
100
AcDbDictionary
280
     1
281
     1
  3
ACAD_XREC_ROUNDTRIP
360
636
  0
DICTIONARY
  5
637
330
2C
100
AcDbDictionary
280
     1
281
     1
  3
ACAD_XREC_ROUNDTRIP
360
638
  0
DICTIONARY
  5
639
330
2D
100
AcDbDictionary
280
     1
281
     1
  3
ACAD_XREC_ROUNDTRIP
360
63A
  0
DICTIONARY
  5
63B
330
2E
100
AcDbDictionary
280
     1
281
     1
  3
ACAD_XREC_ROUNDTRIP
360
63C
  0
DICTIONARY
  5
64F
330
38
100
AcDbDictionary
280
     1
281
     1
  3
ACAD_XREC_ROUNDTRIP
360
650
  0
DICTIONARY
  5
645
330
33
100
AcDbDictionary
280
     1
281
     1
  3
ACAD_XREC_ROUNDTRIP
360
646
  0
DICTIONARY
  5
64D
330
37
100
AcDbDictionary
280
     1
281
     1
  3
ACAD_XREC_ROUNDTRIP
360
64E
  0
XRECORD
  5
63E
102
{ACAD_REACTORS
330
63D
102
}
330
63D
100
AcDbXrecord
280
     1
102
RTVSPropertyOp0
 70
     1
102
RTVSPropertyOp1
 70
     1
102
RTVSPropertyOp2
 70
     1
102
RTVSPropertyOp3
 70
     1
102
RTVSPropertyOp4
 70
     1
102
RTVSPropertyOp5
 70
     1
102
RTVSPropertyOp6
 70
     1
102
RTVSPropertyOp7
 70
     1
102
RTVSPropertyOp8
 70
     1
102
RTVSPropertyOp9
 70
     1
102
RTVSPropertyOp10
 70
     1
102
RTVSPropertyOp11
 70
     1
102
RTVSPropertyOp12
 70
     1
102
RTVSPropertyOp13
 70
     1
102
RTVSPropertyOp14
 70
     1
102
RTVSPropertyOp15
 70
     1
102
RTVSPropertyOp16
 70
     1
102
RTVSPropertyOp17
 70
     1
102
RTVSPropertyOp18
 70
     1
102
RTVSPropertyOp19
 70
     1
102
RTVSPropertyOp20
 70
     1
102
RTVSPropertyOp21
 70
     1
102
RTVSPropertyOp22
 70
     1
102
RTVSPropertyOp23
 70
     1
102
RTVSPropertyOp24
 70
     1
102
RTVSPropertyOp25
 70
     1
102
RTVSPropertyOp26
 70
     1
102
RTVSPropertyOp27
 70
     1
  0
XRECORD
  5
642
102
{ACAD_REACTORS
330
641
102
}
330
641
100
AcDbXrecord
280
     1
102
RTVSPropertyOp0
 70
     1
102
RTVSPropertyOp1
 70
     1
102
RTVSPropertyOp2
 70
     1
102
RTVSPropertyOp3
 70
     1
102
RTVSPropertyOp4
 70
     1
102
RTVSPropertyOp5
 70
     1
102
RTVSPropertyOp6
 70
     1
102
RTVSPropertyOp7
 70
     1
102
RTVSPropertyOp8
 70
     1
102
RTVSPropertyOp9
 70
     1
102
RTVSPropertyOp10
 70
     1
102
RTVSPropertyOp11
 70
     1
102
RTVSPropertyOp12
 70
     1
102
RTVSPropertyOp13
 70
     1
102
RTVSPropertyOp14
 70
     1
102
RTVSPropertyOp15
 70
     1
102
RTVSPropertyOp16
 70
     1
102
RTVSPropertyOp17
 70
     1
102
RTVSPropertyOp18
 70
     1
102
RTVSPropertyOp19
 70
     1
102
RTVSPropertyOp20
 70
     1
102
RTVSPropertyOp21
 70
     1
102
RTVSPropertyOp22
 70
     1
102
RTVSPropertyOp23
 70
     1
102
RTVSPropertyOp24
 70
     1
102
RTVSPropertyOp25
 70
     1
102
RTVSPropertyOp26
 70
     1
102
RTVSPropertyOp27
 70
     1
  0
XRECORD
  5
640
102
{ACAD_REACTORS
330
63F
102
}
330
63F
100
AcDbXrecord
280
     1
102
RTVSPropertyOp0
 70
     1
102
RTVSPropertyOp1
 70
     1
102
RTVSPropertyOp2
 70
     1
102
RTVSPropertyOp3
 70
     1
102
RTVSPropertyOp4
 70
     1
102
RTVSPropertyOp5
 70
     1
102
RTVSPropertyOp6
 70
     1
102
RTVSPropertyOp7
 70
     1
102
RTVSPropertyOp8
 70
     1
102
RTVSPropertyOp9
 70
     1
102
RTVSPropertyOp10
 70
     1
102
RTVSPropertyOp11
 70
     1
102
RTVSPropertyOp12
 70
     1
102
RTVSPropertyOp13
 70
     1
102
RTVSPropertyOp14
 70
     1
102
RTVSPropertyOp15
 70
     1
102
RTVSPropertyOp16
 70
     1
102
RTVSPropertyOp17
 70
     1
102
RTVSPropertyOp18
 70
     1
102
RTVSPropertyOp19
 70
     1
102
RTVSPropertyOp20
 70
     1
102
RTVSPropertyOp21
 70
     1
102
RTVSPropertyOp22
 70
     1
102
RTVSPropertyOp23
 70
     1
102
RTVSPropertyOp24
 70
     1
102
RTVSPropertyOp25
 70
     1
102
RTVSPropertyOp26
 70
     1
102
RTVSPropertyOp27
 70
     1
  0
XRECORD
  5
644
102
{ACAD_REACTORS
330
643
102
}
330
643
100
AcDbXrecord
280
     1
102
RTVSPropertyOp0
 70
     1
102
RTVSPropertyOp1
 70
     1
102
RTVSPropertyOp2
 70
     1
102
RTVSPropertyOp3
 70
     1
102
RTVSPropertyOp4
 70
     1
102
RTVSPropertyOp5
 70
     1
102
RTVSPropertyOp6
 70
     1
102
RTVSPropertyOp7
 70
     1
102
RTVSPropertyOp8
 70
     1
102
RTVSPropertyOp9
 70
     1
102
RTVSPropertyOp10
 70
     1
102
RTVSPropertyOp11
 70
     1
102
RTVSPropertyOp12
 70
     1
102
RTVSPropertyOp13
 70
     1
102
RTVSPropertyOp14
 70
     1
102
RTVSPropertyOp15
 70
     1
102
RTVSPropertyOp16
 70
     1
102
RTVSPropertyOp17
 70
     1
102
RTVSPropertyOp18
 70
     1
102
RTVSPropertyOp19
 70
     1
102
RTVSPropertyOp20
 70
     1
102
RTVSPropertyOp21
 70
     1
102
RTVSPropertyOp22
 70
     1
102
RTVSPropertyOp23
 70
     1
102
RTVSPropertyOp24
 70
     1
102
RTVSPropertyOp25
 70
     1
102
RTVSPropertyOp26
 70
     1
102
RTVSPropertyOp27
 70
     1
  0
XRECORD
  5
64C
102
{ACAD_REACTORS
330
64B
102
}
330
64B
100
AcDbXrecord
280
     1
102
RTVSPropertyOp0
 70
     1
102
RTVSPropertyOp1
 70
     1
102
RTVSPropertyOp2
 70
     1
102
RTVSPropertyOp3
 70
     1
102
RTVSPropertyOp4
 70
     1
102
RTVSPropertyOp5
 70
     1
102
RTVSPropertyOp6
 70
     1
102
RTVSPropertyOp7
 70
     1
102
RTVSPropertyOp8
 70
     1
102
RTVSPropertyOp9
 70
     1
102
RTVSPropertyOp10
 70
     1
102
RTVSPropertyOp11
 70
     1
102
RTVSPropertyOp12
 70
     1
102
RTVSPropertyOp13
 70
     1
102
RTVSPropertyOp14
 70
     1
102
RTVSPropertyOp15
 70
     1
102
RTVSPropertyOp16
 70
     1
102
RTVSPropertyOp17
 70
     1
102
RTVSPropertyOp18
 70
     1
102
RTVSPropertyOp19
 70
     1
102
RTVSPropertyOp20
 70
     1
102
RTVSPropertyOp21
 70
     1
102
RTVSPropertyOp22
 70
     1
102
RTVSPropertyOp23
 70
     1
102
RTVSPropertyOp24
 70
     1
102
RTVSPropertyOp25
 70
     1
102
RTVSPropertyOp26
 70
     1
102
RTVSPropertyOp27
 70
     1
  0
XRECORD
  5
654
102
{ACAD_REACTORS
330
653
102
}
330
653
100
AcDbXrecord
280
     1
102
RTVSPropertyOp0
 70
     1
102
RTVSPropertyOp1
 70
     1
102
RTVSPropertyOp2
 70
     1
102
RTVSPropertyOp3
 70
     1
102
RTVSPropertyOp4
 70
     1
102
RTVSPropertyOp5
 70
     1
102
RTVSPropertyOp6
 70
     1
102
RTVSPropertyOp7
 70
     1
102
RTVSPropertyOp8
 70
     1
102
RTVSPropertyOp9
 70
     1
102
RTVSPropertyOp10
 70
     1
102
RTVSPropertyOp11
 70
     1
102
RTVSPropertyOp12
 70
     1
102
RTVSPropertyOp13
 70
     1
102
RTVSPropertyOp14
 70
     1
102
RTVSPropertyOp15
 70
     1
102
RTVSPropertyOp16
 70
     1
102
RTVSPropertyOp17
 70
     1
102
RTVSPropertyOp18
 70
     1
102
RTVSPropertyOp19
 70
     1
102
RTVSPropertyOp20
 70
     1
102
RTVSPropertyOp21
 70
     1
102
RTVSPropertyOp22
 70
     1
102
RTVSPropertyOp23
 70
     1
102
RTVSPropertyOp24
 70
     1
102
RTVSPropertyOp25
 70
     1
102
RTVSPropertyOp26
 70
     1
102
RTVSPropertyOp27
 70
     1
  0
XRECORD
  5
648
102
{ACAD_REACTORS
330
647
102
}
330
647
100
AcDbXrecord
280
     1
102
RTVSPropertyOp0
 70
     1
102
RTVSPropertyOp1
 70
     1
102
RTVSPropertyOp2
 70
     1
102
RTVSPropertyOp3
 70
     1
102
RTVSPropertyOp4
 70
     1
102
RTVSPropertyOp5
 70
     1
102
RTVSPropertyOp6
 70
     1
102
RTVSPropertyOp7
 70
     1
102
RTVSPropertyOp8
 70
     1
102
RTVSPropertyOp9
 70
     1
102
RTVSPropertyOp10
 70
     1
102
RTVSPropertyOp11
 70
     1
102
RTVSPropertyOp12
 70
     1
102
RTVSPropertyOp13
 70
     1
102
RTVSPropertyOp14
 70
     1
102
RTVSPropertyOp15
 70
     1
102
RTVSPropertyOp16
 70
     1
102
RTVSPropertyOp17
 70
     1
102
RTVSPropertyOp18
 70
     1
102
RTVSPropertyOp19
 70
     1
102
RTVSPropertyOp20
 70
     1
102
RTVSPropertyOp21
 70
     1
102
RTVSPropertyOp22
 70
     1
102
RTVSPropertyOp23
 70
     1
102
RTVSPropertyOp24
 70
     1
102
RTVSPropertyOp25
 70
     1
102
RTVSPropertyOp26
 70
     1
102
RTVSPropertyOp27
 70
     1
  0
XRECORD
  5
64A
102
{ACAD_REACTORS
330
649
102
}
330
649
100
AcDbXrecord
280
     1
102
RTVSPropertyOp0
 70
     1
102
RTVSPropertyOp1
 70
     1
102
RTVSPropertyOp2
 70
     1
102
RTVSPropertyOp3
 70
     1
102
RTVSPropertyOp4
 70
     1
102
RTVSPropertyOp5
 70
     1
102
RTVSPropertyOp6
 70
     1
102
RTVSPropertyOp7
 70
     1
102
RTVSPropertyOp8
 70
     1
102
RTVSPropertyOp9
 70
     1
102
RTVSPropertyOp10
 70
     1
102
RTVSPropertyOp11
 70
     1
102
RTVSPropertyOp12
 70
     1
102
RTVSPropertyOp13
 70
     1
102
RTVSPropertyOp14
 70
     1
102
RTVSPropertyOp15
 70
     1
102
RTVSPropertyOp16
 70
     1
102
RTVSPropertyOp17
 70
     1
102
RTVSPropertyOp18
 70
     1
102
RTVSPropertyOp19
 70
     1
102
RTVSPropertyOp20
 70
     1
102
RTVSPropertyOp21
 70
     1
102
RTVSPropertyOp22
 70
     1
102
RTVSPropertyOp23
 70
     1
102
RTVSPropertyOp24
 70
     1
102
RTVSPropertyOp25
 70
     1
102
RTVSPropertyOp26
 70
     1
102
RTVSPropertyOp27
 70
     1
  0
XRECORD
  5
652
102
{ACAD_REACTORS
330
651
102
}
330
651
100
AcDbXrecord
280
     1
102
RTVSPropertyOp0
 70
     1
102
RTVSPropertyOp1
 70
     1
102
RTVSPropertyOp2
 70
     1
102
RTVSPropertyOp3
 70
     1
102
RTVSPropertyOp4
 70
     1
102
RTVSPropertyOp5
 70
     1
102
RTVSPropertyOp6
 70
     1
102
RTVSPropertyOp7
 70
     1
102
RTVSPropertyOp8
 70
     1
102
RTVSPropertyOp9
 70
     1
102
RTVSPropertyOp10
 70
     1
102
RTVSPropertyOp11
 70
     1
102
RTVSPropertyOp12
 70
     1
102
RTVSPropertyOp13
 70
     1
102
RTVSPropertyOp14
 70
     1
102
RTVSPropertyOp15
 70
     1
102
RTVSPropertyOp16
 70
     1
102
RTVSPropertyOp17
 70
     1
102
RTVSPropertyOp18
 70
     1
102
RTVSPropertyOp19
 70
     1
102
RTVSPropertyOp20
 70
     1
102
RTVSPropertyOp21
 70
     1
102
RTVSPropertyOp22
 70
     1
102
RTVSPropertyOp23
 70
     1
102
RTVSPropertyOp24
 70
     1
102
RTVSPropertyOp25
 70
     1
102
RTVSPropertyOp26
 70
     1
102
RTVSPropertyOp27
 70
     1
  0
XRECORD
  5
636
102
{ACAD_REACTORS
330
635
102
}
330
635
100
AcDbXrecord
280
     1
102
RTVSPropertyOp0
 70
     1
102
RTVSPropertyOp1
 70
     1
102
RTVSPropertyOp2
 70
     1
102
RTVSPropertyOp3
 70
     1
102
RTVSPropertyOp4
 70
     1
102
RTVSPropertyOp5
 70
     1
102
RTVSPropertyOp6
 70
     1
102
RTVSPropertyOp7
 70
     1
102
RTVSPropertyOp8
 70
     1
102
RTVSPropertyOp9
 70
     1
102
RTVSPropertyOp10
 70
     1
102
RTVSPropertyOp11
 70
     1
102
RTVSPropertyOp12
 70
     1
102
RTVSPropertyOp13
 70
     1
102
RTVSPropertyOp14
 70
     1
102
RTVSPropertyOp15
 70
     1
102
RTVSPropertyOp16
 70
     1
102
RTVSPropertyOp17
 70
     1
102
RTVSPropertyOp18
 70
     1
102
RTVSPropertyOp19
 70
     1
102
RTVSPropertyOp20
 70
     1
102
RTVSPropertyOp21
 70
     1
102
RTVSPropertyOp22
 70
     1
102
RTVSPropertyOp23
 70
     1
102
RTVSPropertyOp24
 70
     1
102
RTVSPropertyOp25
 70
     1
102
RTVSPropertyOp26
 70
     1
102
RTVSPropertyOp27
 70
     1
  0
XRECORD
  5
638
102
{ACAD_REACTORS
330
637
102
}
330
637
100
AcDbXrecord
280
     1
102
RTVSPropertyOp0
 70
     1
102
RTVSPropertyOp1
 70
     1
102
RTVSPropertyOp2
 70
     1
102
RTVSPropertyOp3
 70
     1
102
RTVSPropertyOp4
 70
     1
102
RTVSPropertyOp5
 70
     1
102
RTVSPropertyOp6
 70
     1
102
RTVSPropertyOp7
 70
     1
102
RTVSPropertyOp8
 70
     1
102
RTVSPropertyOp9
 70
     1
102
RTVSPropertyOp10
 70
     1
102
RTVSPropertyOp11
 70
     1
102
RTVSPropertyOp12
 70
     1
102
RTVSPropertyOp13
 70
     1
102
RTVSPropertyOp14
 70
     1
102
RTVSPropertyOp15
 70
     1
102
RTVSPropertyOp16
 70
     1
102
RTVSPropertyOp17
 70
     1
102
RTVSPropertyOp18
 70
     1
102
RTVSPropertyOp19
 70
     1
102
RTVSPropertyOp20
 70
     1
102
RTVSPropertyOp21
 70
     1
102
RTVSPropertyOp22
 70
     1
102
RTVSPropertyOp23
 70
     1
102
RTVSPropertyOp24
 70
     1
102
RTVSPropertyOp25
 70
     1
102
RTVSPropertyOp26
 70
     1
102
RTVSPropertyOp27
 70
     1
  0
XRECORD
  5
63A
102
{ACAD_REACTORS
330
639
102
}
330
639
100
AcDbXrecord
280
     1
102
RTVSPropertyOp0
 70
     1
102
RTVSPropertyOp1
 70
     1
102
RTVSPropertyOp2
 70
     1
102
RTVSPropertyOp3
 70
     1
102
RTVSPropertyOp4
 70
     1
102
RTVSPropertyOp5
 70
     1
102
RTVSPropertyOp6
 70
     1
102
RTVSPropertyOp7
 70
     1
102
RTVSPropertyOp8
 70
     1
102
RTVSPropertyOp9
 70
     1
102
RTVSPropertyOp10
 70
     1
102
RTVSPropertyOp11
 70
     1
102
RTVSPropertyOp12
 70
     1
102
RTVSPropertyOp13
 70
     1
102
RTVSPropertyOp14
 70
     1
102
RTVSPropertyOp15
 70
     1
102
RTVSPropertyOp16
 70
     1
102
RTVSPropertyOp17
 70
     1
102
RTVSPropertyOp18
 70
     1
102
RTVSPropertyOp19
 70
     1
102
RTVSPropertyOp20
 70
     1
102
RTVSPropertyOp21
 70
     1
102
RTVSPropertyOp22
 70
     1
102
RTVSPropertyOp23
 70
     1
102
RTVSPropertyOp24
 70
     1
102
RTVSPropertyOp25
 70
     1
102
RTVSPropertyOp26
 70
     1
102
RTVSPropertyOp27
 70
     1
  0
XRECORD
  5
63C
102
{ACAD_REACTORS
330
63B
102
}
330
63B
100
AcDbXrecord
280
     1
102
RTVSPropertyOp0
 70
     1
102
RTVSPropertyOp1
 70
     1
102
RTVSPropertyOp2
 70
     1
102
RTVSPropertyOp3
 70
     1
102
RTVSPropertyOp4
 70
     1
102
RTVSPropertyOp5
 70
     1
102
RTVSPropertyOp6
 70
     1
102
RTVSPropertyOp7
 70
     1
102
RTVSPropertyOp8
 70
     1
102
RTVSPropertyOp9
 70
     1
102
RTVSPropertyOp10
 70
     1
102
RTVSPropertyOp11
 70
     1
102
RTVSPropertyOp12
 70
     1
102
RTVSPropertyOp13
 70
     1
102
RTVSPropertyOp14
 70
     1
102
RTVSPropertyOp15
 70
     1
102
RTVSPropertyOp16
 70
     1
102
RTVSPropertyOp17
 70
     1
102
RTVSPropertyOp18
 70
     1
102
RTVSPropertyOp19
 70
     1
102
RTVSPropertyOp20
 70
     1
102
RTVSPropertyOp21
 70
     1
102
RTVSPropertyOp22
 70
     1
102
RTVSPropertyOp23
 70
     1
102
RTVSPropertyOp24
 70
     1
102
RTVSPropertyOp25
 70
     1
102
RTVSPropertyOp26
 70
     1
102
RTVSPropertyOp27
 70
     1
  0
XRECORD
  5
650
102
{ACAD_REACTORS
330
64F
102
}
330
64F
100
AcDbXrecord
280
     1
102
RTVSPropertyOp0
 70
     1
102
RTVSPropertyOp1
 70
     1
102
RTVSPropertyOp2
 70
     1
102
RTVSPropertyOp3
 70
     1
102
RTVSPropertyOp4
 70
     1
102
RTVSPropertyOp5
 70
     1
102
RTVSPropertyOp6
 70
     1
102
RTVSPropertyOp7
 70
     1
102
RTVSPropertyOp8
 70
     1
102
RTVSPropertyOp9
 70
     1
102
RTVSPropertyOp10
 70
     1
102
RTVSPropertyOp11
 70
     1
102
RTVSPropertyOp12
 70
     1
102
RTVSPropertyOp13
 70
     1
102
RTVSPropertyOp14
 70
     1
102
RTVSPropertyOp15
 70
     1
102
RTVSPropertyOp16
 70
     1
102
RTVSPropertyOp17
 70
     1
102
RTVSPropertyOp18
 70
     1
102
RTVSPropertyOp19
 70
     1
102
RTVSPropertyOp20
 70
     1
102
RTVSPropertyOp21
 70
     1
102
RTVSPropertyOp22
 70
     1
102
RTVSPropertyOp23
 70
     1
102
RTVSPropertyOp24
 70
     1
102
RTVSPropertyOp25
 70
     1
102
RTVSPropertyOp26
 70
     1
102
RTVSPropertyOp27
 70
     1
  0
XRECORD
  5
646
102
{ACAD_REACTORS
330
645
102
}
330
645
100
AcDbXrecord
280
     1
102
RTVSPropertyOp0
 70
     1
102
RTVSPropertyOp1
 70
     1
102
RTVSPropertyOp2
 70
     1
102
RTVSPropertyOp3
 70
     1
102
RTVSPropertyOp4
 70
     1
102
RTVSPropertyOp5
 70
     1
102
RTVSPropertyOp6
 70
     1
102
RTVSPropertyOp7
 70
     1
102
RTVSPropertyOp8
 70
     1
102
RTVSPropertyOp9
 70
     1
102
RTVSPropertyOp10
 70
     1
102
RTVSPropertyOp11
 70
     1
102
RTVSPropertyOp12
 70
     1
102
RTVSPropertyOp13
 70
     1
102
RTVSPropertyOp14
 70
     1
102
RTVSPropertyOp15
 70
     1
102
RTVSPropertyOp16
 70
     1
102
RTVSPropertyOp17
 70
     1
102
RTVSPropertyOp18
 70
     1
102
RTVSPropertyOp19
 70
     1
102
RTVSPropertyOp20
 70
     1
102
RTVSPropertyOp21
 70
     1
102
RTVSPropertyOp22
 70
     1
102
RTVSPropertyOp23
 70
     1
102
RTVSPropertyOp24
 70
     1
102
RTVSPropertyOp25
 70
     1
102
RTVSPropertyOp26
 70
     1
102
RTVSPropertyOp27
 70
     1
  0
XRECORD
  5
64E
102
{ACAD_REACTORS
330
64D
102
}
330
64D
100
AcDbXrecord
280
     1
102
RTVSPropertyOp0
 70
     1
102
RTVSPropertyOp1
 70
     1
102
RTVSPropertyOp2
 70
     1
102
RTVSPropertyOp3
 70
     1
102
RTVSPropertyOp4
 70
     1
102
RTVSPropertyOp5
 70
     1
102
RTVSPropertyOp6
 70
     1
102
RTVSPropertyOp7
 70
     1
102
RTVSPropertyOp8
 70
     1
102
RTVSPropertyOp9
 70
     1
102
RTVSPropertyOp10
 70
     1
102
RTVSPropertyOp11
 70
     1
102
RTVSPropertyOp12
 70
     1
102
RTVSPropertyOp13
 70
     1
102
RTVSPropertyOp14
 70
     1
102
RTVSPropertyOp15
 70
     1
102
RTVSPropertyOp16
 70
     1
102
RTVSPropertyOp17
 70
     1
102
RTVSPropertyOp18
 70
     1
102
RTVSPropertyOp19
 70
     1
102
RTVSPropertyOp20
 70
     1
102
RTVSPropertyOp21
 70
     1
102
RTVSPropertyOp22
 70
     1
102
RTVSPropertyOp23
 70
     1
102
RTVSPropertyOp24
 70
     1
102
RTVSPropertyOp25
 70
     1
102
RTVSPropertyOp26
 70
     1
102
RTVSPropertyOp27
 70
     1
  0
ENDSEC
  0
EOF
