  0
SECTION
  2
HEADER
  9
$ACADVER
  1
AC1009
  9
$INSBASE
 10
0
 20
0
 30
0
  9
$EXTMIN
 10
0
 20
0
  9
$EXTMAX
 10
841
 20
594
  9
$LIMMIN
 10
0
 20
0
  9
$LIMMAX
 10
841
 20
594
  9
$LTSCALE
 40
1
  0
ENDSEC
  0
SECTION
  2
TABLES
  0
TABLE
  2
LTYPE
 70
     9
  0
LTYPE
  2
CONTINUOUS
 70
    64
  3
実線
 72
    65
 73
     0
 40
0.0
  0
LTYPE
  2
DASHED1
 70
    64
  3
--  --  --  --  --  --  --  --  
 72
    65
 73
     2
 40
2.5
 49
1.25
 49
-1.25
  0
LTYPE
  2
DASHED2
 70
    64
  3
----    ----    ----    ----    
 72
    65
 73
     2
 40
5.0
 49
2.5
 49
-2.5
  0
LTYPE
  2
DASHED3
 70
    64
  3
------  ------  ------  ------  
 72
    65
 73
     2
 40
5.0
 49
3.75
 49
-1.25
  0
LTYPE
  2
CENTER1
 70
    64
  3
----- - ----- - ----- - ----- - 
 72
    65
 73
     4
 40
10.0
 49
6.25
 49
-1.25
 49
1.25
 49
-1.25
  0
LTYPE
  2
CENTER2
 70
    64
  3
----------  --  ----------  --  
 72
    65
 73
     4
 40
20.0
 49
12.5
 49
-2.5
 49
2.5
 49
-2.5
  0
LTYPE
  2
PHANTOM1
 70
    64
  3
--- - - --- - - --- - - --- - - 
 72
    65
 73
     6
 40
10.0
 49
3.25
 49
-1.25
 49
1.25
 49
-1.25
 49
1.25
 49
-1.25
  0
LTYPE
  2
PHANTOM2
 70
    64
  3
--------  -  -  --------  -  -  
 72
    65
 73
     6
 40
20.0
 49
10.0
 49
-2.5
 49
1.25
 49
-2.5
 49
1.25
 49
-2.5
  0
LTYPE
  2
DOT
 70
    64
  3
-   -   -   -   -   -   -   -   
 72
    65
 73
     2
 40
2.5
 49
0.625
 49
-1.875
  0
LTYPE
  2
DUMMY
 70
    64
  3
ダミー
 72
    65
 73
     0
 40
0.0
  0
LTYPE
  2
RAND1
 70
    64
  3
ランダム線1
 72
    65
 73
     4
 40
10.0
 49
1.0
 49
-2.0
 49
3.0
 49
-4.0
  0
LTYPE
  2
RAND2
 70
    64
  3
ランダム線2
 72
    65
 73
     4
 40
14.0
 49
2.0
 49
-3.0
 49
4.0
 49
-5.0
  0
LTYPE
  2
RAND3
 70
    64
  3
ランダム線3
 72
    65
 73
     4
 40
18.0
 49
3.0
 49
-4.0
 49
5.0
 49
-6.0
  0
LTYPE
  2
RAND4
 70
    64
  3
ランダム線4
 72
    65
 73
     4
 40
22.0
 49
4.0
 49
-5.0
 49
6.0
 49
-7.0
  0
LTYPE
  2
RAND5
 70
    64
  3
ランダム線5
 72
    65
 73
     4
 40
26.0
 49
5.0
 49
-6.0
 49
7.0
 49
-8.0
  0
LTYPE
  2
LONG1
 70
    64
  3
----------  --  ----------  --  
 72
    65
 73
     4
 40
40.0
 49
32.5
 49
-2.5
 49
2.5
 49
-2.5
  0
LTYPE
  2
LONG2
 70
    64
  3
--------  -  -  --------  -  -  
 72
    65
 73
     6
 40
40.0
 49
30.0
 49
-2.5
 49
1.25
 49
-2.5
 49
1.25
 49
-2.5
  0
LTYPE
  2
LONG3
 70
    64
  3
+++++++++++++++..+++++++++++++++
 72
    65
 73
     2
 40
40.0
 49
37.5
 49
-2.5
  0
LTYPE
  2
LONG4
 70
    64
  3
+++++++++++++++..+++++++++++++++
 72
    65
 73
     2
 40
80.0
 49
75.0
 49
-5.0
  0
LTYPE
  2
LONG5
 70
    64
  3
----------  --  ----------  --  
 72
    65
 73
     4
 40
60.0
 49
37.5
 49
-7.5
 49
7.5
 49
-7.5
  0
LTYPE
  2
dashed
 70
   64
  3
-------   -------------   ------
 72
   65
 73
    2
 40
7.5
 49
6
 49
-1.5
  0
LTYPE
  2
dashed_spaced
 70
   64
  3
----        --------        ----
 72
   65
 73
    2
 40
12
 49
6
 49
-6
  0
LTYPE
  2
long_dashed_dotted
 70
   64
  3
------------- --- --------------
 72
   65
 73
    4
 40
15.25
 49
12
 49
-1.5
 49
0.25
 49
-1.5
  0
LTYPE
  2
long_dashed_double-dotted
 70
   64
  3
----------- --- --- ------------
 72
   65
 73
    6
 40
17
 49
12
 49
-1.5
 49
0.25
 49
-1.5
 49
0.25
 49
-1.5
  0
LTYPE
  2
long_dashed_triplicate-dotted
 70
   64
  3
--------- --- --- --- ----------
 72
   65
 73
    8
 40
18.75
 49
12
 49
-1.5
 49
0.25
 49
-1.5
 49
0.25
 49
-1.5
 49
0.25
 49
-1.5
  0
LTYPE
  2
dotted
 70
   64
  3
   -       -       -       -    
 72
   65
 73
    2
 40
1.75
 49
0.25
 49
-1.5
  0
LTYPE
  2
chain
 70
   64
  3
-------------- -- --------------
 72
   65
 73
    4
 40
18.5
 49
12
 49
-1.5
 49
3.5
 49
-1.5
  0
LTYPE
  2
chain_double_dash
 70
   64
  3
------------ -- -- -------------
 72
   65
 73
    6
 40
23.5
 49
12
 49
-1.5
 49
3.5
 49
-1.5
 49
3.5
 49
-1.5
  0
LTYPE
  2
dashed_dotted
 70
   64
  3
-----------     -     ----------
 72
   65
 73
    4
 40
9.25
 49
6
 49
-1.5
 49
0.25
 49
-1.5
  0
LTYPE
  2
double-dashed_dotted
 70
   64
  3
------   -----------   -   -----
 72
   65
 73
    6
 40
16.75
 49
6
 49
-1.5
 49
6
 49
-1.5
 49
0.25
 49
-1.5
  0
LTYPE
  2
dashed_double-dotted
 70
   64
  3
---------    -    -    ---------
 72
   65
 73
    6
 40
11
 49
6
 49
-1.5
 49
0.25
 49
-1.5
 49
0.25
 49
-1.5
  0
LTYPE
  2
double-dashed_double-dotted
 70
   64
  3
-----   ---------   -   -   ----
 72
   65
 73
    8
 40
18.5
 49
6
 49
-1.5
 49
6
 49
-1.5
 49
0.25
 49
-1.5
 49
0.25
 49
-1.5
  0
LTYPE
  2
dashed_triplicate-dotted
 70
   64
  3
-------    -    -    -    ------
 72
   65
 73
    8
 40
12.75
 49
6
 49
-1.5
 49
0.25
 49
-1.5
 49
0.25
 49
-1.5
 49
0.25
 49
-1.5
  0
LTYPE
  2
double-dashed_triplicate-dotted
 70
   64
  3
-----  ---------  -  -  -  -----
 72
   65
 73
   10
 40
20.25
 49
6
 49
-1.5
 49
6
 49
-1.5
 49
0.25
 49
-1.5
 49
0.25
 49
-1.5
 49
0.25
 49
-1.5
  0
LTYPE
  2
undefined
 70
   64
  3
--------------------------------
 72
   65
 73
    0
 40
0
  0
LTYPE
  2
PLine1
 70
   64
  3
------     -----------     -----
 72
   65
 73
    2
 40
6
 49
4.2000000000000002
 49
-1.8
  0
LTYPE
  2
PLine2
 70
   64
  3
------------   ---   -----------
 72
   65
 73
    4
 40
20
 49
14
 49
-2
 49
2
 49
-2
  0
LTYPE
  2
PLine3
 70
   64
  3
---------   ---   ---   --------
 72
   65
 73
    6
 40
20
 49
10
 49
-2
 49
2
 49
-2
 49
2
 49
-2
  0
LTYPE
  2
PLine4
 70
   64
  3
------     -----------     -----
 72
   65
 73
    2
 40
10
 49
7
 49
-3
  0
LTYPE
  2
PLine5
 70
   64
  3
------------   ---   -----------
 72
   65
 73
    4
 40
30
 49
21
 49
-3
 49
3
 49
-3
  0
LTYPE
  2
PLine6
 70
   64
  3
---------   ---   ---   --------
 72
   65
 73
    6
 40
30
 49
15
 49
-3
 49
3
 49
-3
 49
3
 49
-3
  0
LTYPE
  2
PLine7
 70
   64
  3
------     -----------     -----
 72
   65
 73
    2
 40
14
 49
9.8000000000000007
 49
-4.2000000000000002
  0
LTYPE
  2
PLine8
 70
   64
  3
------------   ---   -----------
 72
   65
 73
    4
 40
40
 49
28
 49
-4
 49
4
 49
-4
  0
LTYPE
  2
PLine9
 70
   64
  3
---------   ---   ---   --------
 72
   65
 73
    6
 40
40
 49
20
 49
-4
 49
4
 49
-4
 49
4
 49
-4
  0
LTYPE
  2
PLine10
 70
   64
  3
------     -----------     -----
 72
   65
 73
    2
 40
18
 49
12.6
 49
-5.4000000000000004
  0
LTYPE
  2
PLine11
 70
   64
  3
------------   ---   -----------
 72
   65
 73
    4
 40
50
 49
35
 49
-5
 49
5
 49
-5
  0
LTYPE
  2
PLine12
 70
   64
  3
---------   ---   ---   --------
 72
   65
 73
    6
 40
50
 49
25
 49
-5
 49
5
 49
-5
 49
5
 49
-5
  0
LTYPE
  2
PLine13
 70
   64
  3
------     -----------     -----
 72
   65
 73
    2
 40
22
 49
15.4
 49
-6.5999999999999988
  0
LTYPE
  2
PLine14
 70
   64
  3
------------   ---   -----------
 72
   65
 73
    4
 40
60
 49
42
 49
-6
 49
6
 49
-6
  0
LTYPE
  2
PLine15
 70
   64
  3
---------   ---   ---   --------
 72
   65
 73
    6
 40
60
 49
30
 49
-6
 49
6
 49
-6
 49
6
 49
-6
  0
LTYPE
  2
_
 70
   64
  3
                                
 72
   65
 73
    0
 40
0
  0
ENDTAB
  0
TABLE
  2
STYLE
  5
3
100
AcDbSymbolTable
 70
     1
  0
STYLE
  5
10
100
AcDbSymbolTableRecord
100
AcDbTextStyleTableRecord
  2
STANDARD
 70
     0
 40
0.0
 41
1.0
 50
0.0
 71
     0
 42
0.2
  3
txt
  4
bigfont.shx
  0
STYLE
  5
26
100
AcDbSymbolTableRecord
100
AcDbTextStyleTableRecord
  2
TATEGAKI
 70
    68
 40
0.0
 41
1.0
 50
0.0
 71
     0
 42
1.0
  3
txt
  4
bigfont.shx
  0
ENDTAB
  0
TABLE
  2
LAYER
 70
    2
  0
LAYER
  2
_0-1_設計製図
 70
   64
 62
    7
  6
CONTINUOUS
  0
LAYER
  2
ADD_LINE
 70
   64
 62
    7
  6
CONTINUOUS
  0
ENDTAB
  0
ENDSEC
  0
SECTION
  2
BLOCKS
  0
ENDSEC
  0
SECTION
  2
ENTITIES
  0
TEXT
  8
_0-1_設計製図
 62
    7
 10
712.52115715523882
 20
41.266030479688538
 40
8
 41
0.8582679999999999
 50
0
  1
Ｂ型木架台納まり図
  0
TEXT
  8
_0-1_設計製図
 62
    7
 10
724.28573615523874
 20
25.488062479688551
 40
8
 41
0.8582679999999999
 50
0
  1
Ｈ－１４－Ｂ－１０２７
  0
LINE
  8
_0-1_設計製図
  6
CONTINUOUS
 62
    1
 10
524.49413915523894
 20
19.992214479688528
 11
818.49413915523894
 21
19.992214479688528
  0
LINE
  8
_0-1_設計製図
  6
CONTINUOUS
 62
    1
 10
818.49413915523894
 20
19.992214479688528
 11
818.49413915523894
 21
59.992214479688528
  0
LINE
  8
_0-1_設計製図
  6
CONTINUOUS
 62
    1
 10
528.51273215523884
 20
19.992214479688528
 11
648.51273215523884
 21
19.992214479688528
  0
LINE
  8
_0-1_設計製図
  6
CONTINUOUS
 62
    1
 10
524.49413915523894
 20
59.992214479688528
 11
524.49413915523894
 21
19.992214479688528
  0
LINE
  8
_0-1_設計製図
  6
CONTINUOUS
 62
    1
 10
524.49413915523894
 20
19.992214479688528
 11
818.49413915523894
 21
19.992214479688528
  0
LINE
  8
_0-1_設計製図
  6
CONTINUOUS
 62
    1
 10
818.49413915523894
 20
59.992214479688528
 11
524.49413915523894
 21
59.992214479688528
  0
LINE
  8
_0-1_設計製図
  6
CONTINUOUS
 62
    3
 10
648.49413915523894
 20
59.992214479688528
 11
648.49413915523894
 21
19.992214479688528
  0
LINE
  8
_0-1_設計製図
  6
CONTINUOUS
 62
    3
 10
668.49413915523894
 20
59.992214479688528
 11
668.49413915523894
 21
19.992214479688528
  0
LINE
  8
_0-1_設計製図
  6
CONTINUOUS
 62
    3
 10
688.49413915523894
 20
59.992214479688528
 11
688.49413915523894
 21
19.992214479688528
  0
LINE
  8
_0-1_設計製図
  6
CONTINUOUS
 62
    3
 10
708.49413915523894
 20
59.992214479688528
 11
708.49413915523894
 21
19.992214479688528
  0
LINE
  8
_0-1_設計製図
  6
CONTINUOUS
 62
    3
 10
648.49413915523894
 20
39.992214479688528
 11
818.49413915523894
 21
39.992214479688528
  0
TEXT
  8
_0-1_設計製図
 62
    7
 10
658.97727615523877
 20
55.577927479688526
 40
6
 41
0.8582679999999999
 50
0
  1
単位
  7
TATEGAKI
  0
TEXT
  8
_0-1_設計製図
 62
    7
 10
658.97727615523877
 20
35.695197479688545
 40
6
 41
0.8582679999999999
 50
0
  1
製図
  7
TATEGAKI
  0
TEXT
  8
_0-1_設計製図
 62
    7
 10
698.33379315523894
 20
56.160540479688535
 40
6
 41
0.8582679999999999
 50
0
  1
形名
  7
TATEGAKI
  0
TEXT
  8
_0-1_設計製図
 62
    7
 10
698.33379315523894
 20
35.413346479688528
 40
6
 41
0.8582679999999999
 50
0
  1
図番
  7
TATEGAKI
  0
TEXT
  8
_0-1_設計製図
 62
    7
 10
673.82891715523886
 20
42.546466479688519
 40
6
 41
0.8582679999999999
 50
0
  1
ｍｍ
  0
TEXT
  8
_0-1_設計製図
 62
    7
 10
712.27582315523875
 20
50.55045847968853
 40
8
 41
0.8582679999999999
 50
0
  1
サントップドーム
  0
TEXT
  8
_0-1_設計製図
 62
    7
 10
551.03335515523884
 20
33.004445793377727
 40
14
 41
0.8582679999999999
 50
0
  1
三洋工業株式会社
  0
CIRCLE
  8
_0-1_設計製図
  6
CONTINUOUS
 62
    2
 10
538.47657815523883
 20
39.999127793377738
 40
7
  0
ARC
  8
_0-1_設計製図
  6
CONTINUOUS
 62
    2
 10
538.47657815523883
 20
39.999127793377738
 40
4.9999999999892557
 50
61.260205000000028
 51
118.73979500000002
  0
ARC
  8
_0-1_設計製図
  6
CONTINUOUS
 62
    2
 10
538.47657815523883
 20
39.999127793377738
 40
4.9999999999914451
 50
286.26020499999998
 51
28.739795000000012
  0
ARC
  8
_0-1_設計製図
  6
CONTINUOUS
 62
    2
 10
538.47657815523883
 20
39.999127793377738
 40
5.0000000000011076
 50
151.26020500000004
 51
253.73979500000002
  0
LINE
  8
_0-1_設計製図
  6
CONTINUOUS
 62
    1
 10
528.51273215523884
 20
19.992214479688528
 11
648.51273215523884
 21
19.992214479688528
  0
CIRCLE
  8
_0-1_設計製図
  6
CONTINUOUS
 62
    2
 10
538.47657815523883
 20
39.999127793377738
 40
7.3999999999999773
  0
CIRCLE
  8
_0-1_設計製図
  6
CONTINUOUS
 62
    2
 10
538.47657815523883
 20
39.999127793377738
 40
6.6000000000000218
  0
ARC
  8
_0-1_設計製図
  6
CONTINUOUS
 62
    2
 10
538.47657815523883
 20
39.999127793377738
 40
5.4000000000052921
 50
150.02611400000001
 51
254.97388600000002
  0
ARC
  8
_0-1_設計製図
  6
CONTINUOUS
 62
    2
 10
538.47657815523883
 20
39.999127793377738
 40
4.5999999999981753
 50
152.718932
 51
252.28106800000003
  0
ARC
  8
_0-1_設計製図
  6
CONTINUOUS
 62
    2
 10
538.47657815523883
 20
39.999127793377738
 40
4.599999999998432
 50
287.71893199999988
 51
27.281067999999944
  0
ARC
  8
_0-1_設計製図
  6
CONTINUOUS
 62
    2
 10
538.47657815523883
 20
39.999127793377738
 40
5.4000000000110902
 50
285.02611400000001
 51
29.973885999999965
  0
ARC
  8
_0-1_設計製図
  6
CONTINUOUS
 62
    2
 10
538.47657815523883
 20
39.999127793377738
 40
5.4000000000112607
 50
60.026114000000007
 51
119.97388599999999
  0
ARC
  8
_0-1_設計製図
  6
CONTINUOUS
 62
    2
 10
538.47657815523883
 20
39.999127793377738
 40
4.5999999999891656
 50
62.718932000000017
 51
117.28106799999991
  0
LINE
  8
_0-1_設計製図
  6
CONTINUOUS
 62
    2
 10
534.65820215523888
 20
43.817503793377739
 11
538.47657815523883
 21
39.999127793377738
  0
LINE
  8
_0-1_設計製図
  6
CONTINUOUS
 62
    2
 10
538.47657815523883
 20
39.999127793377738
 11
538.47657815523883
 21
34.599127793377761
  0
LINE
  8
_0-1_設計製図
  6
CONTINUOUS
 62
    2
 10
538.47657815523883
 20
39.999127793377738
 11
542.29495515523888
 21
43.817503793377739
  0
LINE
  8
_0-1_設計製図
  6
CONTINUOUS
 62
    2
 10
542.00162215523892
 20
44.089856793377749
 11
538.47657815523883
 21
40.564812793377769
  0
LINE
  8
_0-1_設計製図
  6
CONTINUOUS
 62
    2
 10
538.47657815523883
 20
40.564812793377769
 11
534.95153415523885
 21
44.089856793377749
  0
LINE
  8
_0-1_設計製図
  6
CONTINUOUS
 62
    2
 10
538.47657815523883
 20
47.999127793377738
 11
538.47657815523883
 21
46.599127793377761
  0
LINE
  8
_0-1_設計製図
  6
CONTINUOUS
 62
    2
 10
538.47657815523883
 20
47.999127793377738
 11
538.07657815523874
 21
46.586994793377755
  0
LINE
  8
_0-1_設計製図
  6
CONTINUOUS
 62
    2
 10
538.47657815523883
 20
47.999127793377738
 11
538.87657815523892
 21
46.586994793377755
  0
LINE
  8
_0-1_設計製図
  6
CONTINUOUS
 62
    2
 10
530.47657815523883
 20
39.999127793377738
 11
531.88871115523875
 21
40.399127793377772
  0
LINE
  8
_0-1_設計製図
  6
CONTINUOUS
 62
    2
 10
530.47657815523883
 20
39.999127793377738
 11
531.87657815523892
 21
39.999127793377738
  0
LINE
  8
_0-1_設計製図
  6
CONTINUOUS
 62
    2
 10
530.47657815523883
 20
39.999127793377738
 11
531.88871115523875
 21
39.599127793377761
  0
LINE
  8
_0-1_設計製図
  6
CONTINUOUS
 62
    2
 10
538.47657815523883
 20
31.999127793377738
 11
538.07657815523874
 21
33.411259793377724
  0
LINE
  8
_0-1_設計製図
  6
CONTINUOUS
 62
    2
 10
538.47657815523883
 20
31.999127793377738
 11
538.87657815523892
 21
33.411259793377724
  0
LINE
  8
_0-1_設計製図
  6
CONTINUOUS
 62
    2
 10
538.47657815523883
 20
31.999127793377738
 11
538.47657815523883
 21
33.399127793377772
  0
LINE
  8
_0-1_設計製図
  6
CONTINUOUS
 62
    2
 10
545.0644461552389
 20
40.399127793377772
 11
546.47657815523883
 21
39.999127793377738
  0
LINE
  8
_0-1_設計製図
  6
CONTINUOUS
 62
    2
 10
546.47657815523883
 20
39.999127793377738
 11
545.07657815523874
 21
39.999127793377738
  0
LINE
  8
_0-1_設計製図
  6
CONTINUOUS
 62
    2
 10
546.47657815523883
 20
39.999127793377738
 11
545.0644461552389
 21
39.599127793377761
  0
LINE
  8
_0-1_設計製図
  6
CONTINUOUS
 62
    2
 10
534.38584915523882
 20
43.524171793377747
 11
538.07657815523874
 21
39.833441793377744
  0
LINE
  8
_0-1_設計製図
  6
CONTINUOUS
 62
    2
 10
538.07657815523874
 20
39.833441793377744
 11
538.07657815523874
 21
34.613962793377766
  0
LINE
  8
_0-1_設計製図
  6
CONTINUOUS
 62
    2
 10
538.87657815523892
 20
34.613962793377766
 11
538.87657815523892
 21
39.833441793377744
  0
LINE
  8
_0-1_設計製図
  6
CONTINUOUS
 62
    2
 10
538.87657815523892
 20
39.833441793377744
 11
542.56730815523895
 21
43.524171793377747
  0
LINE
  8
_0-1_設計製図
  6
CONTINUOUS
 62
    1
 10
22.494139155238884
 20
19.992214479688528
 11
22.494139155238884
 21
573.99221447968841
  0
LINE
  8
_0-1_設計製図
  6
CONTINUOUS
 62
    1
 10
22.494139155238884
 20
19.992214479688528
 11
818.49413915523894
 21
19.992214479688528
  0
LINE
  8
_0-1_設計製図
  6
CONTINUOUS
 62
    1
 10
818.49413915523894
 20
19.992214479688528
 11
818.49413915523894
 21
573.99221447968841
  0
LINE
  8
_0-1_設計製図
  6
CONTINUOUS
 62
    1
 10
22.494139155238884
 20
573.99221447968841
 11
818.49413915523894
 21
573.99221447968841
  0
CIRCLE
  8
_0-1_設計製図
  6
CONTINUOUS
 62
    3
 10
616.65469615523887
 20
122.79414147968853
 40
4.9166428683470249
  0
CIRCLE
  8
_0-1_設計製図
  6
CONTINUOUS
 62
    3
 10
612.1592751552389
 20
122.60683247968853
 40
4.3687631704506202
  0
CIRCLE
  8
_0-1_設計製図
  6
CONTINUOUS
 62
    3
 10
419.38418915523891
 20
122.39030047968853
 40
1
  0
LINE
  8
_0-1_設計製図
  6
CONTINUOUS
 62
    3
 10
419.38418915523891
 20
122.39030047968853
 11
621.55472515523888
 21
122.39030047968853
  0
TEXT
  8
_0-1_設計製図
 62
    7
 10
487.34209995523889
 20
124.95217447968855
 40
7
 41
0.8582679999999999
 50
0
  1
木架台内径（９００型：□９８０）
  0
ARC
  8
_0-1_設計製図
  6
CONTINUOUS
 62
    2
 10
424.02629415523887
 20
407.49486847968842
 40
8.5536762542916431
 50
62.119099000000013
 51
117.88090099999999
  0
ARC
  8
_0-1_設計製図
  6
CONTINUOUS
 62
    2
 10
429.52629415523882
 20
414.41904847968851
 40
1.629496308337933
 50
22.996333999999997
 51
157.0036659999999
  0
ARC
  8
_0-1_設計製図
  6
CONTINUOUS
 62
    2
 10
418.52629415523887
 20
414.41904847968851
 40
1.6294963084181959
 50
22.996333999999997
 51
157.0036659999999
  0
LINE
  8
_0-1_設計製図
  6
CONTINUOUS
 62
    2
 10
418.52629415523887
 20
416.04854447968853
 11
429.52629415523882
 21
416.04854447968853
  0
LINE
  8
_0-1_設計製図
  6
CONTINUOUS
 62
    2
 10
419.98129415523891
 20
371.08864747968852
 11
428.02629415523887
 21
371.08864747968852
  0
LINE
  8
_0-1_設計製図
  6
CONTINUOUS
 62
    1
 10
444.03529415523889
 20
344.06164747968853
 11
444.03529415523889
 21
322.88364747968853
  0
LINE
  8
_0-1_設計製図
  6
CONTINUOUS
 62
    2
 10
444.03529415523889
 20
322.88364747968853
 11
432.03529415523889
 21
322.88364747968853
  0
LINE
  8
_0-1_設計製図
  6
CONTINUOUS
 62
    1
 10
442.53529415523877
 20
341.91764747968853
 11
442.53529415523877
 21
324.31464747968852
  0
LINE
  8
_0-1_設計製図
  6
CONTINUOUS
 62
    1
 10
442.53529415523877
 20
324.31464747968852
 11
432.52890515523887
 21
324.31464747968852
  0
LINE
  8
_0-1_設計製図
  6
CONTINUOUS
 62
    1
 10
444.03529415523889
 20
342.06164747968853
 11
444.03529415523889
 21
322.88364747968853
  0
LINE
  8
_0-1_設計製図
  6
CONTINUOUS
 62
    1
 10
444.03529415523889
 20
322.88364747968853
 11
432.03529415523889
 21
322.88364747968853
  0
LINE
  8
_0-1_設計製図
  6
CONTINUOUS
 62
    1
 10
404.03529415523877
 20
395.06164747968853
 11
444.03529415523889
 21
395.06164747968853
  0
LINE
  8
_0-1_設計製図
  6
CONTINUOUS
 62
    1
 10
444.03529415523889
 20
395.06164747968853
 11
444.03529415523889
 21
349.01264747968855
  0
LINE
  8
_0-1_設計製図
  6
CONTINUOUS
 62
    2
 10
428.02629415523887
 20
387.05564747968845
 11
428.02629415523887
 21
371.07564747968854
  0
LINE
  8
_0-1_設計製図
  6
CONTINUOUS
 62
    2
 10
428.02629415523887
 20
371.07564747968854
 11
427.01229415523886
 21
370.06164747968853
  0
LINE
  8
_0-1_設計製図
  6
CONTINUOUS
 62
    2
 10
419.98129415523891
 20
387.01352647968855
 11
419.98129415523891
 21
371.08864747968852
  0
LINE
  8
_0-1_設計製図
  6
CONTINUOUS
 62
    2
 10
419.98129415523891
 20
371.08864747968852
 11
421.0082941552389
 21
370.06164747968853
  0
LINE
  8
_0-1_設計製図
  6
CONTINUOUS
 62
    2
 10
364.01674615523888
 20
404.05564747968845
 11
455.88429415523876
 21
404.05564747968845
  0
LINE
  8
_0-1_設計製図
  6
CONTINUOUS
 62
    3
 10
358.53329415523888
 20
435.05564747968856
 11
460.20129415523877
 21
435.05564747968856
  0
LINE
  8
_0-1_設計製図
  6
CONTINUOUS
 62
    3
 10
358.53329415523888
 20
455.10864747968856
 11
461.82129415523889
 21
455.10864747968856
  0
LINE
  8
_0-1_設計製図
  6
CONTINUOUS
 62
    2
 10
364.13874615523889
 20
407.06164747968842
 11
448.20629415523877
 21
407.06164747968842
  0
LINE
  8
_0-1_設計製図
  6
CONTINUOUS
 62
    3
 10
411.4933151552388
 20
406.86641047968845
 11
416.35934115523878
 21
400.43820747968846
  0
LINE
  8
_0-1_設計製図
  6
CONTINUOUS
 62
    3
 10
416.35934115523878
 20
400.43820747968846
 11
380.49619015523888
 21
462.55500647968842
  0
LINE
  8
_0-1_設計製図
  6
CONTINUOUS
 62
    3
 10
380.49619015523888
 20
462.55500647968842
 11
308.40170215523887
 21
462.55500647968842
  0
LINE
  8
_0-1_設計製図
  6
CONTINUOUS
 62
    3
 10
397.29329415523887
 20
394.98664747968854
 11
275.17056415523888
 21
394.98664747968854
  0
LINE
  8
_0-1_設計製図
  6
CONTINUOUS
 62
    2
 10
363.51374615523889
 20
407.05564747968845
 11
364.48274615523889
 21
407.05564747968845
  0
ARC
  8
_0-1_設計製図
  6
CONTINUOUS
 62
    2
 10
364.2657461552389
 20
397.06164747968853
 40
10.00000007468482
 50
90
 51
91.776488999999984
  0
LINE
  8
_0-1_設計製図
  6
CONTINUOUS
 62
    3
 10
354.7127461552389
 20
406.97564747968852
 11
332.1697461552389
 21
406.97564747968852
  0
CIRCLE
  8
_0-1_設計製図
  6
CONTINUOUS
 62
    2
 10
333.51474615523887
 20
406.97564747968852
 40
0.25
  0
CIRCLE
  8
_0-1_設計製図
  6
CONTINUOUS
 62
    2
 10
333.51474615523887
 20
406.97564747968852
 40
0.5
  0
CIRCLE
  8
_0-1_設計製図
  6
CONTINUOUS
 62
    2
 10
358.72529415523888
 20
455.06664747968853
 40
0.5259999999999537
  0
CIRCLE
  8
_0-1_設計製図
  6
CONTINUOUS
 62
    2
 10
358.72529415523888
 20
434.97864747968856
 40
0.3920000000000528
  0
CIRCLE
  8
_0-1_設計製図
  6
CONTINUOUS
 62
    2
 10
358.73829415523892
 20
435.05564747968856
 40
0.4950000000000044
  0
CIRCLE
  8
_0-1_設計製図
  6
CONTINUOUS
 62
    2
 10
358.82129415523889
 20
455.10864747968856
 40
0.4950000000000044
  0
ARC
  8
_0-1_設計製図
  6
CONTINUOUS
 62
    2
 10
364.13874615523889
 20
399.06164747968842
 40
7.9999999999615863
 50
90
 51
160.496002
  0
TEXT
  8
_0-1_設計製図
 62
    7
 10
332.16136148029619
 20
380.06239594635514
 40
7
 41
0.8582679999999999
 50
90.000002999999992
  1
４０
  0
ARC
  8
_0-1_設計製図
  6
CONTINUOUS
 62
    2
 10
364.01674615523888
 20
399.05564747968856
 40
5.0000000000361027
 50
90
 51
160.499573
  0
CIRCLE
  8
_0-1_設計製図
  6
CONTINUOUS
 62
    1
 10
276.69156415523889
 20
394.98664747968854
 40
0.25
  0
CIRCLE
  8
_0-1_設計製図
  6
CONTINUOUS
 62
    1
 10
276.69156415523889
 20
394.98664747968854
 40
0.5
  0
LINE
  8
_0-1_設計製図
  6
CONTINUOUS
 62
    3
 10
333.51474615523887
 20
365.51764747968855
 11
333.51474615523887
 21
408.32764747968855
  0
LINE
  8
_0-1_設計製図
  6
CONTINUOUS
 62
    2
 10
356.59774615523889
 20
401.73264747968852
 11
344.2649351552389
 21
366.90664747968856
  0
LINE
  8
_0-1_設計製図
  6
CONTINUOUS
 62
    2
 10
359.30374615523891
 20
400.72464747968843
 11
347.35093515523891
 21
366.97164747968856
  0
LINE
  8
_0-1_設計製図
  6
CONTINUOUS
 62
    3
 10
276.69156415523889
 20
293.63964747968856
 11
276.69156415523889
 21
396.03964747968854
  0
LINE
  8
_0-1_設計製図
  6
CONTINUOUS
 62
    3
 10
456.02629415523887
 20
372.05564747968856
 11
456.02629415523887
 21
429.31964747968851
  0
LINE
  8
_0-1_設計製図
  6
CONTINUOUS
 62
    1
 10
442.03529415523877
 20
386.06164747968853
 11
442.03529415523877
 21
376.06164747968853
  0
LINE
  8
_0-1_設計製図
  6
CONTINUOUS
 62
    2
 10
427.02629415523887
 20
387.05564747968845
 11
427.02629415523887
 21
370.06164747968853
  0
LINE
  8
_0-1_設計製図
  6
CONTINUOUS
 62
    2
 10
421.02629415523882
 20
387.05564747968845
 11
421.02629415523882
 21
370.06164747968853
  0
LINE
  8
_0-1_設計製図
  6
CONTINUOUS
 62
    1
 10
442.0292941552388
 20
345.05264747968852
 11
328.97129415523887
 21
324.85664747968855
  0
LINE
  8
_0-1_設計製図
  6
CONTINUOUS
 62
    1
 10
441.35929415523879
 20
342.90164747968856
 11
374.50229415523887
 21
330.95764747968855
  0
LINE
  8
_0-1_設計製図
  6
CONTINUOUS
 62
    3
 10
327.33729415523891
 20
353.67464747968853
 11
445.0972941552389
 21
353.67464747968853
  0
LINE
  8
_0-1_設計製図
  6
CONTINUOUS
 62
    3
 10
434.4212941552388
 20
345.00664747968852
 11
275.04256415523889
 21
345.00664747968852
  0
TEXT
  8
_0-1_設計製図
 62
    7
 10
375.76424488857231
 20
355.17364047968852
 40
7
 41
0.8582679999999999
 50
0
  1
１１５
  0
TEXT
  8
_0-1_設計製図
 62
    7
 10
378.95474408857217
 20
436.15798447968854
 40
7
 41
0.8582679999999999
 50
0
  1
６５
  0
ARC
  8
_0-1_設計製図
  6
CONTINUOUS
 62
    2
 10
455.88429415523876
 20
414.05564747968845
 40
9.999999999896918
 50
270
 51
315
  0
LINE
  8
_0-1_設計製図
  6
CONTINUOUS
 62
    3
 10
444.02629415523887
 20
404.05564747968845
 11
444.02629415523887
 21
431.05564747968856
  0
LINE
  8
_0-1_設計製図
  6
CONTINUOUS
 62
    3
 10
444.02629415523887
 20
398.05564747968845
 11
444.02629415523887
 21
429.19164747968853
  0
LINE
  8
_0-1_設計製図
  6
CONTINUOUS
 62
    2
 10
447.53529415523889
 20
407.06164747968842
 11
456.55029415523882
 21
407.06164747968842
  0
LINE
  8
_0-1_設計製図
  6
CONTINUOUS
 62
    3
 10
441.02629415523882
 20
428.05564747968856
 11
459.02629415523882
 21
428.05564747968856
  0
LINE
  8
_0-1_設計製図
  6
CONTINUOUS
 62
    3
 10
442.66529415523888
 20
428.05564747968856
 11
567.10519015523892
 21
428.05564747968856
  0
LINE
  8
_0-1_設計製図
  6
CONTINUOUS
 62
    3
 10
424.02629415523887
 20
426.05564747968856
 11
424.02629415523887
 21
436.10364747968856
  0
LINE
  8
_0-1_設計製図
  6
CONTINUOUS
 62
    2
 10
479.03829415523882
 20
423.06764747968856
 11
495.02629415523882
 21
439.05564747968856
  0
LINE
  8
_0-1_設計製図
  6
CONTINUOUS
 62
    2
 10
461.92329415523881
 20
409.94964747968845
 11
493.03529415523877
 21
441.06164747968853
  0
LINE
  8
_0-1_設計製図
  6
CONTINUOUS
 62
    3
 10
458.82129415523877
 20
410.38064747968843
 11
458.82129415523877
 21
458.10864747968856
  0
TEXT
  8
_0-1_設計製図
 62
    7
 10
565.02820511608638
 20
431.05225945372536
 40
7
 41
0.8582679999999999
 50
0
  1
（９００型：□９０６）
  0
TEXT
  8
_0-1_設計製図
 62
    7
 10
442.81709048857226
 20
421.40456647968841
 40
7
 41
0.8582679999999999
 50
0
  1
１２
  0
LINE
  8
_0-1_設計製図
  6
CONTINUOUS
 62
    2
 10
460.7222941552389
 20
408.74864747968854
 11
463.53529415523877
 21
411.56164747968842
  0
LINE
  8
_0-1_設計製図
  6
CONTINUOUS
 62
    2
 10
466.9339971552389
 20
410.96335047968842
 11
479.02629415523882
 21
423.05564747968856
  0
ARC
  8
_0-1_設計製図
  6
CONTINUOUS
 62
    2
 10
456.55029415523882
 20
413.06164747968853
 40
5.9999999999169624
 50
270
 51
315.00674400000003
  0
LINE
  8
_0-1_設計製図
  6
CONTINUOUS
 62
    1
 10
460.28029415523889
 20
408.30664747968842
 11
460.28129415523881
 21
408.30764747968846
  0
LINE
  8
_0-1_設計製図
  6
CONTINUOUS
 62
    2
 10
462.95529415523879
 20
406.98464747968853
 11
467.18029415523887
 21
411.20964747968844
  0
CIRCLE
  8
_0-1_設計製図
  6
CONTINUOUS
 62
    2
 10
455.97029415523889
 20
427.98264747968852
 40
0.3819999999999482
  0
TEXT
  8
_0-1_設計製図
 62
    7
 10
502.18382315523888
 20
431.35874328364434
 40
7
 41
0.8582679999999999
 50
0
  1
網入カ゛ラス寸法
  0
CIRCLE
  8
_0-1_設計製図
  6
CONTINUOUS
 62
    3
 10
563.40820315523888
 20
428.04864747968855
 40
1.8249999999998181
  0
CIRCLE
  8
_0-1_設計製図
  6
CONTINUOUS
 62
    3
 10
565.20820315523883
 20
428.04864747968855
 40
1.8969999999999341
  0
CIRCLE
  8
_0-1_設計製図
  6
CONTINUOUS
 62
    2
 10
456.02629415523887
 20
428.05564747968856
 40
0.4950000000000044
  0
LINE
  8
_0-1_設計製図
  6
CONTINUOUS
 62
    1
 10
439.03529415523889
 20
410.06164747968842
 11
439.03529415523889
 21
408.56164747968853
  0
LINE
  8
_0-1_設計製図
  6
CONTINUOUS
 62
    2
 10
409.03529415523877
 20
410.06164747968842
 11
439.03529415523889
 21
410.06164747968842
  0
LINE
  8
_0-1_設計製図
  6
CONTINUOUS
 62
    1
 10
409.03529415523877
 20
408.56164747968853
 11
409.03529415523877
 21
410.06164747968842
  0
LINE
  8
_0-1_設計製図
  6
CONTINUOUS
 62
    2
 10
420.02629415523882
 20
415.05564747968845
 11
420.02629415523882
 21
410.05564747968845
  0
LINE
  8
_0-1_設計製図
  6
CONTINUOUS
 62
    6
 10
409.03529415523877
 20
407.06164747968842
 11
409.03529415523877
 21
408.56164747968853
  0
LINE
  8
_0-1_設計製図
  6
CONTINUOUS
 62
    6
 10
409.03529415523877
 20
408.56164747968853
 11
439.03529415523889
 21
408.56164747968853
  0
LINE
  8
_0-1_設計製図
  6
CONTINUOUS
 62
    6
 10
439.03529415523889
 20
408.56164747968853
 11
439.03529415523889
 21
407.06164747968842
  0
CIRCLE
  8
_0-1_設計製図
  6
CONTINUOUS
 62
    2
 10
443.99229415523877
 20
427.98264747968852
 40
0.3350000000000363
  0
CIRCLE
  8
_0-1_設計製図
  6
CONTINUOUS
 62
    2
 10
444.02629415523887
 20
428.05564747968856
 40
0.4950000000000044
  0
CIRCLE
  8
_0-1_設計製図
  6
CONTINUOUS
 62
    2
 10
444.02629415523887
 20
428.05564747968856
 40
0.4950000000000044
  0
CIRCLE
  8
_0-1_設計製図
  6
CONTINUOUS
 62
    2
 10
458.81329415523879
 20
455.09964747968854
 40
0.3819999999999482
  0
CIRCLE
  8
_0-1_設計製図
  6
CONTINUOUS
 62
    2
 10
458.7262941552388
 20
434.97864747968856
 40
0.4740000000000463
  0
TEXT
  8
_0-1_設計製図
 62
    7
 10
499.97879002203558
 20
458.39638510568392
 40
7
 41
0.8582679999999999
 50
0
  1
ト゛ーム寸法
  0
CIRCLE
  8
_0-1_設計製図
  6
CONTINUOUS
 62
    3
 10
565.07010815523893
 20
455.34864747968857
 40
1.8969999999999341
  0
CIRCLE
  8
_0-1_設計製図
  6
CONTINUOUS
 62
    3
 10
562.9701081552389
 20
455.34864747968857
 40
1.799999999999726
  0
CIRCLE
  8
_0-1_設計製図
  6
CONTINUOUS
 62
    2
 10
458.7942941552389
 20
455.10664747968843
 40
0.2050000000000409
  0
CIRCLE
  8
_0-1_設計製図
  6
CONTINUOUS
 62
    2
 10
459.02629415523882
 20
435.05564747968856
 40
0.4950000000000044
  0
CIRCLE
  8
_0-1_設計製図
  6
CONTINUOUS
 62
    2
 10
458.82129415523877
 20
455.10864747968856
 40
0.4950000000000044
  0
LINE
  8
_0-1_設計製図
  6
CONTINUOUS
 62
    3
 10
457.62258715523882
 20
455.10864747968856
 11
566.95186515523892
 21
455.10864747968856
  0
CIRCLE
  8
_0-1_設計製図
  6
CONTINUOUS
 62
    2
 10
423.95829415523878
 20
434.97864747968856
 40
0.3819999999999482
  0
TEXT
  8
_0-1_設計製図
 62
    7
 10
405.27224742190549
 20
456.60769247968852
 40
7
 41
0.8582679999999999
 50
0
  1
１００
  0
TEXT
  8
_0-1_設計製図
 62
    7
 10
435.11673008857218
 20
436.55569047968856
 40
7
 41
0.8582679999999999
 50
0
  1
３５
  0
CIRCLE
  8
_0-1_設計製図
  6
CONTINUOUS
 62
    2
 10
424.02629415523887
 20
435.05564747968856
 40
0.4950000000000044
  0
LINE
  8
_0-1_設計製図
  6
CONTINUOUS
 62
    1
 10
439.03529415523889
 20
387.06164747968853
 11
442.03529415523877
 21
387.06164747968853
  0
LINE
  8
_0-1_設計製図
  6
CONTINUOUS
 62
    1
 10
442.03529415523877
 20
387.06164747968853
 11
442.03529415523877
 21
393.06164747968853
  0
LINE
  8
_0-1_設計製図
  6
CONTINUOUS
 62
    1
 10
439.03529415523889
 20
387.06164747968853
 11
439.03529415523889
 21
386.06164747968853
  0
LINE
  8
_0-1_設計製図
  6
CONTINUOUS
 62
    1
 10
439.03529415523889
 20
386.06164747968853
 11
442.03529415523877
 21
386.06164747968853
  0
LINE
  8
_0-1_設計製図
  6
CONTINUOUS
 62
    1
 10
437.03529415523889
 20
393.06164747968853
 11
442.03529415523877
 21
393.06164747968853
  0
LINE
  8
_0-1_設計製図
  6
CONTINUOUS
 62
    1
 10
406.03529415523889
 20
393.06164747968853
 11
406.03529415523889
 21
387.06164747968853
  0
LINE
  8
_0-1_設計製図
  6
CONTINUOUS
 62
    1
 10
406.03529415523889
 20
387.06164747968853
 11
409.03529415523877
 21
387.06164747968853
  0
LINE
  8
_0-1_設計製図
  6
CONTINUOUS
 62
    1
 10
409.03529415523877
 20
387.06164747968853
 11
409.03529415523877
 21
386.06164747968853
  0
LINE
  8
_0-1_設計製図
  6
CONTINUOUS
 62
    1
 10
409.03529415523877
 20
386.06164747968853
 11
406.03529415523889
 21
386.06164747968853
  0
LINE
  8
_0-1_設計製図
  6
CONTINUOUS
 62
    1
 10
406.03529415523889
 20
393.06164747968853
 11
437.03529415523889
 21
393.06164747968853
  0
LINE
  8
_0-1_設計製図
  6
CONTINUOUS
 62
    1
 10
404.03529415523877
 20
385.06164747968853
 11
406.03529415523889
 21
385.06164747968853
  0
LINE
  8
_0-1_設計製図
  6
CONTINUOUS
 62
    1
 10
406.03529415523889
 20
385.06164747968853
 11
406.03529415523889
 21
386.06164747968853
  0
LINE
  8
_0-1_設計製図
  6
CONTINUOUS
 62
    1
 10
404.03529415523877
 20
395.06164747968853
 11
404.03529415523877
 21
385.06164747968853
  0
LINE
  8
_0-1_設計製図
  6
CONTINUOUS
 62
    6
 10
416.0292941552388
 20
404.05564747968845
 11
411.53529415523889
 21
399.56164747968853
  0
LINE
  8
_0-1_設計製図
  6
CONTINUOUS
 62
    6
 10
411.53529415523889
 20
404.05564747968845
 11
411.53529415523889
 21
395.06164747968853
  0
LINE
  8
_0-1_設計製図
  6
CONTINUOUS
 62
    6
 10
418.04129415523892
 20
404.05564747968845
 11
427.03529415523889
 21
395.06164747968853
  0
LINE
  8
_0-1_設計製図
  6
CONTINUOUS
 62
    6
 10
436.0292941552388
 20
404.05564747968845
 11
427.03529415523889
 21
395.06164747968853
  0
LINE
  8
_0-1_設計製図
  6
CONTINUOUS
 62
    6
 10
436.53529415523889
 20
404.05564747968845
 11
436.53529415523889
 21
395.06164747968853
  0
LINE
  8
_0-1_設計製図
  6
CONTINUOUS
 62
    6
 10
411.53529415523889
 20
399.56164747968853
 11
416.0292941552388
 21
404.05564747968845
  0
LINE
  8
_0-1_設計製図
  6
CONTINUOUS
 62
    6
 10
418.03529415523877
 20
395.06164747968853
 11
427.02929415523892
 21
404.05564747968845
  0
LINE
  8
_0-1_設計製図
  6
CONTINUOUS
 62
    6
 10
436.53529415523889
 20
397.56164747968842
 11
430.04129415523892
 21
404.05564747968845
  0
LINE
  8
_0-1_設計製図
  6
CONTINUOUS
 62
    6
 10
436.53529415523889
 20
398.56164747968842
 11
431.0412941552388
 21
404.05564747968845
  0
LINE
  8
_0-1_設計製図
  6
CONTINUOUS
 62
    6
 10
411.53529415523889
 20
398.56164747968842
 11
415.03529415523889
 21
395.06164747968853
  0
LINE
  8
_0-1_設計製図
  6
CONTINUOUS
 62
    6
 10
411.53529415523889
 20
399.56164747968853
 11
416.03529415523889
 21
395.06164747968853
  0
LINE
  8
_0-1_設計製図
  6
CONTINUOUS
 62
    6
 10
411.53529415523889
 20
398.56164747968842
 11
417.0292941552388
 21
404.05564747968845
  0
LINE
  8
_0-1_設計製図
  6
CONTINUOUS
 62
    6
 10
428.03529415523889
 20
395.06164747968853
 11
419.0412941552388
 21
404.05564747968845
  0
LINE
  8
_0-1_設計製図
  6
CONTINUOUS
 62
    6
 10
417.03529415523877
 20
395.06164747968853
 11
426.0292941552388
 21
404.05564747968845
  0
LINE
  8
_0-1_設計製図
  6
CONTINUOUS
 62
    6
 10
409.03529415523877
 20
408.26064747968854
 11
439.03529415523889
 21
408.26064747968854
  0
LINE
  8
_0-1_設計製図
  6
CONTINUOUS
 62
    6
 10
439.01129415523877
 20
407.97864747968845
 11
409.03529415523877
 21
407.97864747968845
  0
LINE
  8
_0-1_設計製図
  6
CONTINUOUS
 62
    6
 10
409.03529415523877
 20
407.69664747968847
 11
439.03529415523889
 21
407.69664747968847
  0
LINE
  8
_0-1_設計製図
  6
CONTINUOUS
 62
    6
 10
409.03529415523877
 20
407.41464747968854
 11
439.03529415523889
 21
407.41464747968854
  0
LINE
  8
_0-1_設計製図
  6
CONTINUOUS
 62
    2
 10
428.02629415523887
 20
415.05564747968845
 11
428.02629415523887
 21
410.06164747968842
  0
LINE
  8
_0-1_設計製図
  6
CONTINUOUS
 62
    2
 10
431.02629415523887
 20
415.05564747968845
 11
431.02629415523887
 21
410.06164747968842
  0
LINE
  8
_0-1_設計製図
  6
CONTINUOUS
 62
    2
 10
417.02629415523882
 20
415.05564747968845
 11
417.02629415523882
 21
410.05564747968845
  0
LINE
  8
_0-1_設計製図
  6
CONTINUOUS
 62
    6
 10
428.03529415523889
 20
395.06164747968853
 11
436.53529415523889
 21
403.56164747968853
  0
LINE
  8
_0-1_設計製図
  6
CONTINUOUS
 62
    1
 10
451.00229415523881
 20
346.52964747968855
 11
464.00229415523881
 21
346.52964747968855
  0
LINE
  8
_0-1_設計製図
  6
CONTINUOUS
 62
    1
 10
444.03529415523889
 20
345.06164747968853
 11
474.03529415523889
 21
345.06164747968853
  0
LINE
  8
_0-1_設計製図
  6
CONTINUOUS
 62
    1
 10
474.03529415523889
 20
345.06164747968853
 11
474.03529415523889
 21
355.06164747968853
  0
LINE
  8
_0-1_設計製図
  6
CONTINUOUS
 62
    6
 10
451.02629415523882
 20
350.05564747968856
 11
454.6012941552388
 21
346.48064747968851
  0
LINE
  8
_0-1_設計製図
  6
CONTINUOUS
 62
    6
 10
451.02629415523882
 20
356.05564747968845
 11
456.02629415523887
 21
351.05564747968856
  0
LINE
  8
_0-1_設計製図
  6
CONTINUOUS
 62
    6
 10
454.02629415523882
 20
365.05564747968856
 11
451.02629415523882
 21
368.05564747968856
  0
LINE
  8
_0-1_設計製図
  6
CONTINUOUS
 62
    6
 10
454.02629415523882
 20
359.05564747968856
 11
451.02629415523882
 21
362.05564747968845
  0
LINE
  8
_0-1_設計製図
  6
CONTINUOUS
 62
    6
 10
451.02629415523882
 20
347.05564747968856
 11
456.02629415523887
 21
352.05564747968856
  0
LINE
  8
_0-1_設計製図
  6
CONTINUOUS
 62
    6
 10
451.02629415523882
 20
353.05564747968856
 11
456.02629415523887
 21
358.05564747968845
  0
LINE
  8
_0-1_設計製図
  6
CONTINUOUS
 62
    6
 10
454.02629415523882
 20
362.05564747968845
 11
451.02629415523882
 21
359.05564747968856
  0
LINE
  8
_0-1_設計製図
  6
CONTINUOUS
 62
    6
 10
451.02629415523882
 20
365.05564747968856
 11
454.02629415523882
 21
368.05564747968856
  0
LINE
  8
_0-1_設計製図
  6
CONTINUOUS
 62
    6
 10
458.02629415523882
 20
368.05564747968856
 11
451.02629415523882
 21
368.05564747968856
  0
CIRCLE
  8
_0-1_設計製図
  6
CONTINUOUS
 62
    2
 10
474.01429415523887
 20
330.13064747968855
 40
0.5
  0
CIRCLE
  8
_0-1_設計製図
  6
CONTINUOUS
 62
    2
 10
474.01429415523887
 20
330.13064747968855
 40
0.25
  0
LINE
  8
_0-1_設計製図
  6
CONTINUOUS
 62
    3
 10
474.01429415523887
 20
339.22964747968854
 11
474.01429415523887
 21
328.34364747968851
  0
TEXT
  8
_0-1_設計製図
 62
    7
 10
454.54770662190538
 20
331.17113847968852
 40
7
 41
0.8582679999999999
 50
0
  1
３０
  0
LINE
  8
_0-1_設計製図
  6
CONTINUOUS
 62
    3
 10
442.73829415523892
 20
330.13064747968855
 11
475.12829415523879
 21
330.13064747968855
  0
LINE
  8
_0-1_設計製図
  6
CONTINUOUS
 62
    1
 10
432.03529415523889
 20
323.38364747968853
 11
432.03529415523889
 21
322.88364747968853
  0
CIRCLE
  8
_0-1_設計製図
  6
CONTINUOUS
 62
    2
 10
443.93029415523887
 20
330.13064747968855
 40
0.25
  0
CIRCLE
  8
_0-1_設計製図
  6
CONTINUOUS
 62
    2
 10
443.93029415523887
 20
330.13064747968855
 40
0.5
  0
LINE
  8
_0-1_設計製図
  6
CONTINUOUS
 62
    2
 10
456.00229415523881
 20
358.02964747968855
 11
494.00229415523881
 21
358.02964747968855
  0
LINE
  8
_0-1_設計製図
  6
CONTINUOUS
 62
    2
 10
456.00229415523881
 20
365.02964747968855
 11
456.00229415523881
 21
358.02964747968855
  0
LINE
  8
_0-1_設計製図
  6
CONTINUOUS
 62
    1
 10
472.53529415523889
 20
353.56164747968853
 11
472.53529415523889
 21
346.56164747968853
  0
LINE
  8
_0-1_設計製図
  6
CONTINUOUS
 62
    1
 10
471.03529415523877
 20
353.56164747968853
 11
472.53529415523889
 21
353.56164747968853
  0
LINE
  8
_0-1_設計製図
  6
CONTINUOUS
 62
    1
 10
471.03529415523877
 20
355.06164747968853
 11
471.03529415523877
 21
353.56164747968853
  0
LINE
  8
_0-1_設計製図
  6
CONTINUOUS
 62
    1
 10
471.03529415523877
 20
355.06164747968853
 11
474.03529415523889
 21
355.06164747968853
  0
LINE
  8
_0-1_設計製図
  6
CONTINUOUS
 62
    1
 10
474.03529415523889
 20
355.06164747968853
 11
474.03529415523889
 21
345.06164747968853
  0
LINE
  8
_0-1_設計製図
  6
CONTINUOUS
 62
    1
 10
464.00229415523881
 20
346.52964747968855
 11
472.50229415523881
 21
346.52964747968855
  0
CIRCLE
  8
_0-1_設計製図
  6
CONTINUOUS
 62
    2
 10
474.02629415523887
 20
361.42664747968854
 40
0.2450000000000044
  0
CIRCLE
  8
_0-1_設計製図
  6
CONTINUOUS
 62
    2
 10
464.24029415523887
 20
361.40564747968853
 40
0.2110000000000127
  0
LINE
  8
_0-1_設計製図
  6
CONTINUOUS
 62
    6
 10
457.00229415523887
 20
358.02964747968855
 11
474.00229415523887
 21
358.02964747968855
  0
CIRCLE
  8
_0-1_設計製図
  6
CONTINUOUS
 62
    2
 10
494.06029415523881
 20
361.38464747968851
 40
0.2100000000000364
  0
CIRCLE
  8
_0-1_設計製図
  6
CONTINUOUS
 62
    2
 10
484.0222941552388
 20
361.38464747968851
 40
0.2100000000000364
  0
LINE
  8
_0-1_設計製図
  6
CONTINUOUS
 62
    2
 10
456.00229415523881
 20
365.02964747968855
 11
494.00229415523881
 21
365.02964747968855
  0
LINE
  8
_0-1_設計製図
  6
CONTINUOUS
 62
    6
 10
467.02629415523882
 20
352.05564747968856
 11
472.52629415523887
 21
346.55564747968856
  0
LINE
  8
_0-1_設計製図
  6
CONTINUOUS
 62
    6
 10
455.02629415523882
 20
358.05564747968845
 11
460.02629415523887
 21
353.05564747968856
  0
LINE
  8
_0-1_設計製図
  6
CONTINUOUS
 62
    6
 10
461.02629415523887
 20
358.05564747968845
 11
466.02629415523882
 21
353.05564747968856
  0
LINE
  8
_0-1_設計製図
  6
CONTINUOUS
 62
    6
 10
467.02629415523882
 20
358.05564747968845
 11
471.02629415523882
 21
354.05564747968856
  0
LINE
  8
_0-1_設計製図
  6
CONTINUOUS
 62
    6
 10
456.02629415523887
 20
353.05564747968856
 11
456.02629415523887
 21
346.53564747968852
  0
LINE
  8
_0-1_設計製図
  6
CONTINUOUS
 62
    6
 10
467.02629415523882
 20
353.05564747968856
 11
467.02629415523882
 21
346.48564747968857
  0
LINE
  8
_0-1_設計製図
  6
CONTINUOUS
 62
    6
 10
468.45629415523888
 20
346.48564747968857
 11
472.53129415523887
 21
350.56064747968855
  0
LINE
  8
_0-1_設計製図
  6
CONTINUOUS
 62
    6
 10
474.02629415523887
 20
358.05564747968845
 11
467.02629415523882
 21
351.05564747968856
  0
LINE
  8
_0-1_設計製図
  6
CONTINUOUS
 62
    6
 10
468.02629415523882
 20
358.05564747968845
 11
463.02629415523882
 21
353.05564747968856
  0
LINE
  8
_0-1_設計製図
  6
CONTINUOUS
 62
    6
 10
457.02629415523887
 20
353.05564747968856
 11
462.02629415523882
 21
358.05564747968845
  0
LINE
  8
_0-1_設計製図
  6
CONTINUOUS
 62
    6
 10
456.02629415523887
 20
353.05564747968856
 11
467.02629415523882
 21
353.05564747968856
  0
LINE
  8
_0-1_設計製図
  6
CONTINUOUS
 62
    6
 10
458.02629415523882
 20
366.05564747968856
 11
457.02629415523887
 21
365.05564747968856
  0
LINE
  8
_0-1_設計製図
  6
CONTINUOUS
 62
    6
 10
454.02629415523882
 20
358.05564747968845
 11
456.02629415523887
 21
358.05564747968845
  0
LINE
  8
_0-1_設計製図
  6
CONTINUOUS
 62
    6
 10
454.02629415523882
 20
365.05564747968856
 11
454.02629415523882
 21
358.05564747968845
  0
LINE
  8
_0-1_設計製図
  6
CONTINUOUS
 62
    6
 10
454.02629415523882
 20
365.05564747968856
 11
456.02629415523887
 21
365.05564747968856
  0
LINE
  8
_0-1_設計製図
  6
CONTINUOUS
 62
    6
 10
474.00229415523887
 20
358.02964747968855
 11
474.00229415523887
 21
355.02964747968855
  0
LINE
  8
_0-1_設計製図
  6
CONTINUOUS
 62
    6
 10
458.02629415523882
 20
368.05564747968856
 11
458.02629415523882
 21
365.05564747968856
  0
LINE
  8
_0-1_設計製図
  6
CONTINUOUS
 62
    1
 10
451.00229415523881
 20
347.52964747968855
 11
451.00229415523881
 21
346.52964747968855
  0
LINE
  8
_0-1_設計製図
  6
CONTINUOUS
 62
    1
 10
450.53529415523877
 20
347.56164747968853
 11
451.00229415523881
 21
347.56164747968853
  0
ARC
  8
_0-1_設計製図
  6
CONTINUOUS
 62
    1
 10
441.53529415523877
 20
341.91764747968853
 40
1.0000000001888001
 50
0
 51
100.14079300000002
  0
LINE
  8
_0-1_設計製図
  6
CONTINUOUS
 62
    1
 10
444.03529415523889
 20
345.06164747968853
 11
444.03529415523889
 21
343.06164747968853
  0
LINE
  8
_0-1_設計製図
  6
CONTINUOUS
 62
    1
 10
444.03529415523889
 20
347.56164747968853
 11
444.03529415523889
 21
351.06164747968853
  0
LINE
  8
_0-1_設計製図
  6
CONTINUOUS
 62
    1
 10
444.03529415523889
 20
345.06164747968853
 11
444.03529415523889
 21
343.06164747968853
  0
LINE
  8
_0-1_設計製図
  6
CONTINUOUS
 62
    1
 10
444.03529415523889
 20
347.56164747968853
 11
450.53529415523877
 21
347.56164747968853
  0
LINE
  8
_0-1_設計製図
  6
CONTINUOUS
 62
    1
 10
442.03529415523877
 20
376.06164747968853
 11
442.03529415523877
 21
345.06164747968853
  0
LINE
  8
_0-1_設計製図
  6
CONTINUOUS
 62
    2
 10
421.0082941552389
 20
370.06164747968853
 11
427.01229415523886
 21
370.06164747968853
  0
LINE
  8
_0-1_設計製図
  6
CONTINUOUS
 62
    6
 10
451.02629415523882
 20
368.05564747968856
 11
451.02629415523882
 21
347.05564747968856
  0
LINE
  8
_0-1_設計製図
  6
CONTINUOUS
 62
    3
 10
402.85729415523889
 20
360.05564747968845
 11
445.22529415523888
 21
360.05564747968845
  0
CIRCLE
  8
_0-1_設計製図
  6
CONTINUOUS
 62
    2
 10
443.93029415523887
 20
353.67464747968853
 40
0.5
  0
LINE
  8
_0-1_設計製図
  6
CONTINUOUS
 62
    3
 10
404.02629415523882
 20
382.05564747968856
 11
404.02629415523882
 21
358.66364747968856
  0
CIRCLE
  8
_0-1_設計製図
  6
CONTINUOUS
 62
    2
 10
443.93029415523887
 20
353.67464747968853
 40
0.25
  0
CIRCLE
  8
_0-1_設計製図
  6
CONTINUOUS
 62
    2
 10
443.99229415523877
 20
360.03664747968855
 40
0.3819999999999482
  0
CIRCLE
  8
_0-1_設計製図
  6
CONTINUOUS
 62
    2
 10
403.98729415523889
 20
360.03664747968855
 40
0.4239999999999782
  0
TEXT
  8
_0-1_設計製図
 62
    7
 10
417.81699262190557
 20
361.55566047968864
 40
7
 41
0.8582679999999999
 50
0
  1
４０
  0
CIRCLE
  8
_0-1_設計製図
  6
CONTINUOUS
 62
    2
 10
444.02629415523887
 20
360.05564747968845
 40
0.4950000000000044
  0
CIRCLE
  8
_0-1_設計製図
  6
CONTINUOUS
 62
    2
 10
404.02629415523882
 20
360.05564747968845
 40
0.4950000000000044
  0
ARC
  8
_0-1_設計製図
  6
CONTINUOUS
 62
    1
 10
433.03529415523889
 20
323.38364747968853
 40
1.000000000173197
 50
111.40876299999999
 51
180
  0
LINE
  8
_0-1_設計製図
  6
PLine2
 62
    3
 10
424.02629415523887
 20
421.44298647968856
 11
424.02629415523887
 21
366.05564747968856
  0
CIRCLE
  8
_0-1_設計製図
  6
CONTINUOUS
 62
    3
 10
345.72243915523887
 20
184.15459647968854
 40
1
  0
LINE
  8
_0-1_設計製図
  6
CONTINUOUS
 62
    3
 10
424.1600361552388
 20
317.84548447968854
 11
419.29401115523888
 21
324.27368747968853
  0
LINE
  8
_0-1_設計製図
  6
CONTINUOUS
 62
    3
 10
419.29401115523888
 20
324.27368747968853
 11
432.39389215523892
 21
301.58402747968853
  0
LINE
  8
_0-1_設計製図
  6
CONTINUOUS
 62
    3
 10
432.39389215523892
 20
301.58402747968853
 11
465.29153015523889
 21
301.58402747968853
  0
TEXT
  8
_0-1_設計製図
 62
    7
 10
434.39389215523892
 20
303.58402747968853
 40
7
 41
0.8582679999999999
 50
0
  1
アンカー金具
  0
LINE
  8
_0-1_設計製図
  6
CONTINUOUS
 62
    1
 10
343.82129415523889
 20
295.00664747968852
 11
345.82129415523889
 21
295.00664747968852
  0
LINE
  8
_0-1_設計製図
  6
CONTINUOUS
 62
    1
 10
328.97129415523887
 20
310.00664747968852
 11
343.82129415523889
 21
310.00664747968852
  0
LINE
  8
_0-1_設計製図
  6
CONTINUOUS
 62
    1
 10
328.97129415523887
 20
324.85664747968855
 11
328.97129415523887
 21
310.00664747968852
  0
LINE
  8
_0-1_設計製図
  6
CONTINUOUS
 62
    1
 10
373.00229415523887
 20
328.81664747968853
 11
373.00229415523887
 21
322.85164747968855
  0
LINE
  8
_0-1_設計製図
  6
CONTINUOUS
 62
    1
 10
377.50470915523891
 20
322.85164747968855
 11
373.00229415523887
 21
322.85164747968855
  0
LINE
  8
_0-1_設計製図
  6
CONTINUOUS
 62
    1
 10
374.50229415523887
 20
324.35164747968855
 11
374.50229415523887
 21
329.01464747968856
  0
LINE
  8
_0-1_設計製図
  6
CONTINUOUS
 62
    1
 10
373.00229415523887
 20
328.22264747968853
 11
373.00229415523887
 21
330.68964747968852
  0
LINE
  8
_0-1_設計製図
  6
CONTINUOUS
 62
    1
 10
374.50229415523887
 20
328.02464747968855
 11
374.50229415523887
 21
330.95764747968855
  0
LINE
  8
_0-1_設計製図
  6
CONTINUOUS
 62
    1
 10
382.00229415523887
 20
323.35164747968855
 11
382.00229415523887
 21
322.85164747968855
  0
LINE
  8
_0-1_設計製図
  6
CONTINUOUS
 62
    1
 10
374.50229415523887
 20
324.35164747968855
 11
381.00229415523887
 21
324.35164747968855
  0
ARC
  8
_0-1_設計製図
  6
CONTINUOUS
 62
    1
 10
381.00229415523887
 20
323.35164747968855
 40
0.9999999998654775
 50
0
 51
90
  0
LINE
  8
_0-1_設計製図
  6
CONTINUOUS
 62
    3
 10
324.27480015523889
 20
324.65764747968853
 11
275.17056415523888
 21
324.65764747968853
  0
CIRCLE
  8
_0-1_設計製図
  6
CONTINUOUS
 62
    2
 10
276.69156415523889
 20
324.65764747968853
 40
0.25
  0
CIRCLE
  8
_0-1_設計製図
  6
CONTINUOUS
 62
    2
 10
276.69156415523889
 20
324.65764747968853
 40
0.5
  0
CIRCLE
  8
_0-1_設計製図
  6
CONTINUOUS
 62
    2
 10
276.69156415523889
 20
310.02064747968853
 40
0.25
  0
CIRCLE
  8
_0-1_設計製図
  6
CONTINUOUS
 62
    2
 10
276.69156415523889
 20
310.02064747968853
 40
0.5
  0
LINE
  8
_0-1_設計製図
  6
CONTINUOUS
 62
    3
 10
324.27480015523889
 20
310.02064747968853
 11
275.17056415523888
 21
310.02064747968853
  0
TEXT
  8
_0-1_設計製図
 62
    7
 10
275.19248952223921
 20
310.32949181302183
 40
7
 41
0.8582679999999999
 50
90.000002999999992
  1
１５
  0
LINE
  8
_0-1_設計製図
  6
CONTINUOUS
 62
    3
 10
328.82629415523888
 20
329.20664747968851
 11
328.82629415523888
 21
354.95164747968852
  0
TEXT
  8
_0-1_設計製図
 62
    7
 10
275.19248948029627
 20
328.62352194635525
 40
7
 41
0.8582679999999999
 50
90.000002999999992
  1
２０
  0
LINE
  8
_0-1_設計製図
  6
CONTINUOUS
 62
    2
 10
347.3349351552389
 20
367.06164747968853
 11
344.39193515523891
 21
367.06164747968853
  0
LINE
  8
_0-1_設計製図
  6
CONTINUOUS
 62
    3
 10
342.94074615523891
 20
366.97764747968853
 11
332.1697461552389
 21
366.97764747968853
  0
CIRCLE
  8
_0-1_設計製図
  6
CONTINUOUS
 62
    2
 10
276.69156415523889
 20
345.00664747968852
 40
0.5
  0
CIRCLE
  8
_0-1_設計製図
  6
CONTINUOUS
 62
    2
 10
328.82629415523888
 20
353.67464747968853
 40
0.25
  0
CIRCLE
  8
_0-1_設計製図
  6
CONTINUOUS
 62
    2
 10
328.82629415523888
 20
353.67464747968853
 40
0.5
  0
CIRCLE
  8
_0-1_設計製図
  6
CONTINUOUS
 62
    2
 10
333.51474615523887
 20
366.97764747968853
 40
0.5
  0
CIRCLE
  8
_0-1_設計製図
  6
CONTINUOUS
 62
    2
 10
276.69156415523889
 20
345.00664747968852
 40
0.25
  0
CIRCLE
  8
_0-1_設計製図
  6
CONTINUOUS
 62
    2
 10
333.51474615523887
 20
366.97764747968853
 40
0.25
  0
TEXT
  8
_0-1_設計製図
 62
    7
 10
275.19248949078201
 20
363.58723141302181
 40
7
 41
0.8582679999999999
 50
90.000002999999992
  1
５０
  0
LINE
  8
_0-1_設計製図
  6
CONTINUOUS
 62
    1
 10
373.00229415523887
 20
330.68964747968852
 11
330.97129415523887
 21
323.18164747968854
  0
LINE
  8
_0-1_設計製図
  6
CONTINUOUS
 62
    1
 10
330.97129415523887
 20
323.18164747968854
 11
330.97129415523887
 21
312.00664747968852
  0
LINE
  8
_0-1_設計製図
  6
CONTINUOUS
 62
    1
 10
330.97129415523887
 20
312.00664747968852
 11
345.82129415523889
 21
312.00664747968852
  0
LINE
  8
_0-1_設計製図
  6
CONTINUOUS
 62
    1
 10
345.82129415523889
 20
312.00664747968852
 11
345.82129415523889
 21
294.95864747968852
  0
CIRCLE
  8
_0-1_設計製図
  6
CONTINUOUS
 62
    2
 10
276.69156415523889
 20
295.02664747968856
 40
0.5
  0
CIRCLE
  8
_0-1_設計製図
  6
CONTINUOUS
 62
    2
 10
276.69156415523889
 20
295.02664747968856
 40
0.25
  0
TEXT
  8
_0-1_設計製図
 62
    7
 10
275.19248952223921
 20
295.51345181302196
 40
7
 41
0.8582679999999999
 50
90.000002999999992
  1
１５
  0
LINE
  8
_0-1_設計製図
  6
CONTINUOUS
 62
    1
 10
343.82129415523889
 20
310.00664747968852
 11
343.82129415523889
 21
293.49537447968856
  0
ARC
  8
_0-1_設計製図
  6
CONTINUOUS
 62
    2
 10
424.02629415523887
 20
395.62242647968856
 40
8.5536762542570841
 50
242.11909899999998
 51
297.88090099999999
  0
ARC
  8
_0-1_設計製図
  6
CONTINUOUS
 62
    2
 10
429.52629415523882
 20
388.69824647968852
 40
1.629496308386251
 50
202.99633399999999
 51
337.00366600000001
  0
ARC
  8
_0-1_設計製図
  6
CONTINUOUS
 62
    2
 10
418.52629415523887
 20
388.69824647968852
 40
1.629496308292459
 50
202.99633399999999
 51
337.00366600000001
  0
LINE
  8
_0-1_設計製図
  6
CONTINUOUS
 62
    2
 10
418.52629415523887
 20
387.06875047968856
 11
429.52629415523882
 21
387.06875047968856
  0
LINE
  8
_0-1_設計製図
  6
CONTINUOUS
 62
    2
 10
420.02629415523882
 20
388.06164747968853
 11
420.02629415523882
 21
393.06164747968853
  0
LINE
  8
_0-1_設計製図
  6
CONTINUOUS
 62
    2
 10
428.02629415523887
 20
388.06164747968853
 11
428.02629415523887
 21
393.05564747968856
  0
LINE
  8
_0-1_設計製図
  6
CONTINUOUS
 62
    2
 10
431.02629415523887
 20
388.06164747968853
 11
431.02629415523887
 21
393.05564747968856
  0
LINE
  8
_0-1_設計製図
  6
CONTINUOUS
 62
    2
 10
417.02629415523882
 20
388.06164747968853
 11
417.02629415523882
 21
393.06164747968853
  0
LINE
  8
_0-1_設計製図
  6
CONTINUOUS
 62
    3
 10
472.53473015523889
 20
349.08513947968856
 11
469.66870515523891
 21
352.04924147968853
  0
LINE
  8
_0-1_設計製図
  6
CONTINUOUS
 62
    3
 10
469.66870515523891
 20
352.04924147968853
 11
485.9703591552389
 21
323.81394747968852
  0
LINE
  8
_0-1_設計製図
  6
CONTINUOUS
 62
    3
 10
485.9703591552389
 20
323.81394747968852
 11
524.01760315523882
 21
323.81394747968852
  0
TEXT
  8
_0-1_設計製図
 62
    7
 10
487.9703591552389
 20
325.81394747968852
 40
7
 41
0.8582679999999999
 50
0
  1
エンビパッキン
  0
LINE
  8
_0-1_設計製図
  6
CONTINUOUS
 62
    3
 10
421.19244315523878
 20
419.26169447968852
 11
424.05846915523881
 21
416.29759247968855
  0
LINE
  8
_0-1_設計製図
  6
CONTINUOUS
 62
    3
 10
424.05846915523881
 20
416.29759247968855
 11
384.09293015523889
 21
485.51993647968845
  0
LINE
  8
_0-1_設計製図
  6
CONTINUOUS
 62
    3
 10
384.09293015523889
 20
485.51993647968845
 11
305.99056815523892
 21
485.51993647968845
  0
LINE
  8
_0-1_設計製図
  6
CONTINUOUS
 62
    3
 10
379.8080941552389
 20
337.98128447968855
 11
382.67411915523888
 21
335.01718247968853
  0
LINE
  8
_0-1_設計製図
  6
CONTINUOUS
 62
    3
 10
382.67411915523888
 20
335.01718247968853
 11
323.37868615523888
 21
437.71988547968851
  0
LINE
  8
_0-1_設計製図
  6
CONTINUOUS
 62
    3
 10
323.37868615523888
 20
437.71988547968851
 11
285.3314421552389
 21
437.71988547968851
  0
TEXT
  8
_0-1_設計製図
 62
    7
 10
285.3314671552389
 20
439.71987447968843
 40
7
 41
0.8582679999999999
 50
0
  1
アルミフレーム
  0
LINE
  8
_0-1_設計製図
  6
CONTINUOUS
 62
    3
 10
277.46420015523887
 20
203.74983947968855
 11
278.59817515523889
 21
207.71394047968855
  0
LINE
  8
_0-1_設計製図
  6
CONTINUOUS
 62
    3
 10
278.59817515523889
 20
207.71394047968855
 11
252.2171281552389
 21
162.02062747968853
  0
LINE
  8
_0-1_設計製図
  6
CONTINUOUS
 62
    3
 10
252.2171281552389
 20
162.02062747968853
 11
186.1305131552389
 21
162.02062747968853
  0
TEXT
  8
_0-1_設計製図
 62
    7
 10
186.1305131552389
 20
164.02062747968853
 40
7
 41
0.8582679999999999
 50
-0.0000000000000246
  1
シーリング処理（別途）
  0
LINE
  8
_0-1_設計製図
  6
CONTINUOUS
 62
    3
 10
478.7367201552388
 20
439.20552747968856
 11
483.60274615523889
 21
432.77732447968845
  0
LINE
  8
_0-1_設計製図
  6
CONTINUOUS
 62
    3
 10
483.60274615523889
 20
432.77732447968845
 11
433.27202115523892
 21
519.95269647968848
  0
LINE
  8
_0-1_設計製図
  6
CONTINUOUS
 62
    3
 10
433.27202115523892
 20
519.95269647968848
 11
364.97132236773479
 21
519.95269647968848
  0
TEXT
  8
_0-1_設計製図
 62
    7
 10
377.19851182190558
 20
521.95269647968848
 40
7
 41
0.8582679999999999
 50
0
  1
樹脂製ドームＢ型
  0
LINE
  8
_0-1_設計製図
  6
CONTINUOUS
 62
    3
 10
483.68987015523879
 20
372.43179347968857
 11
480.55589615523888
 21
365.00359047968851
  0
LINE
  8
_0-1_設計製図
  6
CONTINUOUS
 62
    3
 10
480.55589615523888
 20
365.00359047968851
 11
497.14182815523878
 21
393.73126847968854
  0
LINE
  8
_0-1_設計製図
  6
CONTINUOUS
 62
    3
 10
497.14182815523878
 20
393.73126847968854
 11
593.26781315523897
 21
393.73126847968854
  0
LINE
  8
_0-1_設計製図
  6
CONTINUOUS
 62
    3
 10
419.03529415523889
 20
153.53843647968853
 11
419.03529415523889
 21
121.18549547968854
  0
LINE
  8
_0-1_設計製図
  6
CONTINUOUS
 62
    3
 10
275.5087461552389
 20
295.00664747968852
 11
340.67947815523888
 21
295.00664747968852
  0
CIRCLE
  8
_0-1_設計製図
  6
CONTINUOUS
 62
    3
 10
553.07304915523878
 20
184.61344847968854
 40
4.9166428683467966
  0
CIRCLE
  8
_0-1_設計製図
  6
CONTINUOUS
 62
    3
 10
548.57762815523881
 20
184.42613947968854
 40
4.3687631704508476
  0
LINE
  8
_0-1_設計製図
  6
CONTINUOUS
 62
    3
 10
287.34558715523889
 20
153.63009547968855
 11
288.47956215523891
 21
157.59419647968855
  0
LINE
  8
_0-1_設計製図
  6
CONTINUOUS
 62
    3
 10
288.47956215523891
 20
157.59419647968855
 11
265.47537115523892
 21
117.74977047968855
  0
LINE
  8
_0-1_設計製図
  6
CONTINUOUS
 62
    3
 10
265.47537115523892
 20
117.74977047968855
 11
211.40450515523889
 21
117.74977047968855
  0
TEXT
  8
_0-1_設計製図
 62
    7
 10
205.3966111552389
 20
119.74977047968855
 40
7
 41
0.8582679999999999
 50
0
  1
板金水切板（別途）
  0
LINE
  8
_0-1_設計製図
  6
CONTINUOUS
 62
    3
 10
414.4710041552388
 20
291.15002247968852
 11
411.60497915523877
 21
294.11412447968854
  0
LINE
  8
_0-1_設計製図
  6
CONTINUOUS
 62
    3
 10
411.60497915523877
 20
294.11412447968854
 11
449.99877215523878
 21
227.61412447968854
  0
LINE
  8
_0-1_設計製図
  6
CONTINUOUS
 62
    3
 10
449.99877215523878
 20
227.61412447968854
 11
529.24286615523874
 21
227.61412447968854
  0
LINE
  8
_0-1_設計製図
  6
CONTINUOUS
 62
    3
 10
414.98914815523881
 20
309.37527247968853
 11
412.12312315523889
 21
312.33937347968856
  0
LINE
  8
_0-1_設計製図
  6
CONTINUOUS
 62
    3
 10
412.12312315523889
 20
312.33937347968856
 11
448.2609731552389
 21
249.74678147968854
  0
LINE
  8
_0-1_設計製図
  6
CONTINUOUS
 62
    3
 10
448.2609731552389
 20
249.74678147968854
 11
481.15861115523887
 21
249.74678147968854
  0
TEXT
  8
_0-1_設計製図
 62
    7
 10
448.2609661552388
 20
251.74678947968854
 40
7
 41
0.8582679999999999
 50
0
  1
現場溶接止め
  0
LINE
  8
_0-1_設計製図
  6
CONTINUOUS
 62
    2
 10
437.9907091552389
 20
324.46849947968855
 11
376.44670915523886
 21
324.46849947968855
  0
LINE
  8
_0-1_設計製図
  6
CONTINUOUS
 62
    2
 10
376.44670915523886
 20
326.46849947968855
 11
437.9907091552389
 21
326.46849947968855
  0
LINE
  8
_0-1_設計製図
  6
CONTINUOUS
 62
    2
 10
377.50470915523891
 20
322.85995347968856
 11
377.50470915523891
 21
320.86895347968851
  0
LINE
  8
_0-1_設計製図
  6
CONTINUOUS
 62
    2
 10
376.44670915523886
 20
324.46949947968852
 11
376.44670915523886
 21
326.46849947968855
  0
LINE
  8
_0-1_設計製図
  6
CONTINUOUS
 62
    2
 10
391.4667091552389
 20
324.46849947968855
 11
388.00470915523891
 21
320.86895347968851
  0
LINE
  8
_0-1_設計製図
  6
CONTINUOUS
 62
    2
 10
388.63770915523889
 20
324.46849947968855
 11
387.14270915523889
 21
322.83595347968856
  0
LINE
  8
_0-1_設計製図
  6
CONTINUOUS
 62
    2
 10
425.43988515523887
 20
322.62132347968856
 11
423.57870915523887
 21
324.48249947968856
  0
LINE
  8
_0-1_設計製図
  6
CONTINUOUS
 62
    2
 10
427.02970915523878
 20
320.88364747968853
 11
426.25416415523887
 21
321.65919247968856
  0
LINE
  8
_0-1_設計製図
  6
CONTINUOUS
 62
    2
 10
423.7647091552389
 20
324.29749947968855
 11
423.61070915523879
 21
324.45149947968855
  0
LINE
  8
_0-1_設計製図
  6
CONTINUOUS
 62
    2
 10
427.02970915523878
 20
320.88364747968853
 11
425.42870915523889
 21
322.63349947968857
  0
LINE
  8
_0-1_設計製図
  6
CONTINUOUS
 62
    2
 10
426.59368615523891
 20
324.46849947968855
 11
428.02970915523889
 21
322.88364747968853
  0
LINE
  8
_0-1_設計製図
  6
CONTINUOUS
 62
    2
 10
427.02970915523878
 20
320.88364747968853
 11
429.02970915523889
 21
320.88364747968853
  0
LINE
  8
_0-1_設計製図
  6
CONTINUOUS
 62
    2
 10
428.02970915523889
 20
322.88364747968853
 11
432.06089615523888
 21
322.88364747968853
  0
LINE
  8
_0-1_設計製図
  6
CONTINUOUS
 62
    2
 10
432.08232415523878
 20
322.88364747968853
 11
436.98270915523887
 21
322.88364747968853
  0
LINE
  8
_0-1_設計製図
  6
CONTINUOUS
 62
    2
 10
413.92770915523892
 20
324.40449947968852
 11
413.92770915523892
 21
309.24649947968857
  0
LINE
  8
_0-1_設計製図
  6
CONTINUOUS
 62
    2
 10
411.92770915523892
 20
324.46849947968855
 11
411.92770915523892
 21
305.37849947968851
  0
LINE
  8
_0-1_設計製図
  6
CONTINUOUS
 62
    2
 10
413.92770915523892
 20
324.46849947968855
 11
413.92770915523892
 21
305.37849947968851
  0
LINE
  8
_0-1_設計製図
  6
CONTINUOUS
 62
    2
 10
411.90870915523891
 20
305.37849947968851
 11
413.92470915523887
 21
305.37849947968851
  0
LINE
  8
_0-1_設計製図
  6
CONTINUOUS
 62
    2
 10
436.98270915523887
 20
320.85864747968856
 11
428.37570915523878
 21
320.85864747968856
  0
LINE
  8
_0-1_設計製図
  6
CONTINUOUS
 62
    2
 10
436.98270915523887
 20
320.85464747968854
 11
436.98270915523887
 21
322.88364747968853
  0
LINE
  8
_0-1_設計製図
  6
CONTINUOUS
 62
    2
 10
437.9907091552389
 20
324.46849947968855
 11
437.9907091552389
 21
326.46849947968855
  0
LINE
  8
_0-1_設計製図
  6
CONTINUOUS
 62
    2
 10
377.50470915523891
 20
322.85995347968856
 11
387.14270915523889
 21
322.83595347968856
  0
LINE
  8
_0-1_設計製図
  6
CONTINUOUS
 62
    3
 10
358.82129415523889
 20
456.58196947968855
 11
358.82129415523889
 21
407.24382347968856
  0
LINE
  8
_0-1_設計製図
  6
CONTINUOUS
 62
    2
 10
399.37565615523891
 20
69.409283479688554
 11
479.19677515523887
 21
69.409283479688554
  0
LINE
  8
_0-1_設計製図
  6
CONTINUOUS
 62
    2
 10
479.19677515523887
 20
69.409283479688554
 11
479.19677515523887
 21
84.759498479688546
  0
LINE
  8
_0-1_設計製図
  6
CONTINUOUS
 62
    2
 10
479.19677515523887
 20
84.759498479688546
 11
399.37565615523891
 21
84.759498479688546
  0
LINE
  8
_0-1_設計製図
  6
CONTINUOUS
 62
    2
 10
399.37565615523891
 20
84.759498479688546
 11
399.37565615523891
 21
69.409283479688554
  0
TEXT
  8
_0-1_設計製図
 62
    7
 10
401.53675815523889
 20
72.401336479688524
 40
9
 41
0.8582679999999999
 50
0
  1
断面詳細図　Ｓ１：２
  0
LINE
  8
_0-1_設計製図
  6
CONTINUOUS
 62
    2
 10
377.50470915523891
 20
320.86895347968851
 11
388.00470915523891
 21
320.86895347968851
  0
LINE
  8
_0-1_設計製図
  6
CONTINUOUS
 62
    3
 10
314.03529415523889
 20
260.02064747968853
 11
409.03529415523877
 21
260.02064747968853
  0
LINE
  8
_0-1_設計製図
  6
CONTINUOUS
 62
    3
 10
409.03529415523877
 20
260.02064747968853
 11
419.03529415523889
 21
250.02064747968853
  0
LINE
  8
_0-1_設計製図
  6
CONTINUOUS
 62
    3
 10
419.03529415523889
 20
250.02064747968853
 11
419.03529415523889
 21
155.02064747968853
  0
LINE
  8
_0-1_設計製図
  6
CONTINUOUS
 62
    3
 10
419.03529415523889
 20
155.02064747968853
 11
314.03529415523889
 21
155.02064747968853
  0
LINE
  8
_0-1_設計製図
  6
CONTINUOUS
 62
    3
 10
314.03529415523889
 20
155.02064747968853
 11
314.03529415523889
 21
260.02064747968853
  0
LINE
  8
_0-1_設計製図
  6
CONTINUOUS
 62
    3
 10
314.03529415523889
 20
260.02064747968853
 11
419.03529415523889
 21
155.02064747968853
  0
LINE
  8
_0-1_設計製図
  6
CONTINUOUS
 62
    3
 10
414.03529415523877
 20
255.02064747968853
 11
314.03529415523889
 21
155.02064747968853
  0
LINE
  8
_0-1_設計製図
  6
CONTINUOUS
 62
    3
 10
413.2018661552388
 20
260.35330247968852
 11
363.20186615523892
 21
260.35330247968852
  0
ARC
  8
_0-1_設計製図
  6
CONTINUOUS
 62
    3
 10
363.20186615523892
 20
263.35330247968852
 40
3
 50
180
 51
270
  0
LINE
  8
_0-1_設計製図
  6
CONTINUOUS
 62
    3
 10
360.20186615523897
 20
263.35330247968852
 11
360.20186615523897
 21
266.35330247968852
  0
LINE
  8
_0-1_設計製図
  6
CONTINUOUS
 62
    3
 10
360.20186615523897
 20
266.35330247968852
 11
425.20186615523892
 21
266.35330247968852
  0
LINE
  8
_0-1_設計製図
  6
CONTINUOUS
 62
    3
 10
425.20186615523892
 20
266.35330247968852
 11
425.20186615523892
 21
201.35330247968855
  0
LINE
  8
_0-1_設計製図
  6
CONTINUOUS
 62
    3
 10
425.20186615523892
 20
201.35330247968855
 11
422.2018661552388
 21
201.35330247968855
  0
ARC
  8
_0-1_設計製図
  6
CONTINUOUS
 62
    3
 10
422.2018661552388
 20
204.35330247968855
 40
3
 50
180
 51
270
  0
LINE
  8
_0-1_設計製図
  6
CONTINUOUS
 62
    3
 10
419.20186615523892
 20
204.35330247968855
 11
419.20186615523892
 21
254.35330247968852
  0
ARC
  8
_0-1_設計製図
  6
CONTINUOUS
 62
    3
 10
413.2018661552388
 20
254.35330247968852
 40
6
 50
0
 51
90
  0
LINE
  8
_0-1_設計製図
  6
CONTINUOUS
 62
    2
 10
375.54387215523889
 20
232.13452747968853
 11
372.03625115523892
 21
232.13452747968853
  0
LINE
  8
_0-1_設計製図
  6
CONTINUOUS
 62
    2
 10
369.53169215523889
 20
232.13452747968853
 11
366.02407115523891
 21
232.13452747968853
  0
LINE
  8
_0-1_設計製図
  6
CONTINUOUS
 62
    2
 10
363.51951215523889
 20
232.13452747968853
 11
360.01189115523891
 21
232.13452747968853
  0
LINE
  8
_0-1_設計製図
  6
CONTINUOUS
 62
    2
 10
357.50733215523888
 20
232.13452747968853
 11
353.99971115523891
 21
232.13452747968853
  0
LINE
  8
_0-1_設計製図
  6
CONTINUOUS
 62
    2
 10
345.16911115523891
 20
231.65442247968855
 11
335.20186615523897
 21
229.35330247968855
  0
LINE
  8
_0-1_設計製図
  6
CONTINUOUS
 62
    2
 10
351.49515215523888
 20
232.13452747968853
 11
347.98753115523891
 21
232.13452747968853
  0
LINE
  8
_0-1_設計製図
  6
CONTINUOUS
 62
    2
 10
347.1078761552389
 20
233.85060247968855
 11
347.98753115523891
 21
232.13452747968853
  0
LINE
  8
_0-1_設計製図
  6
CONTINUOUS
 62
    2
 10
345.48297215523888
 20
232.13452747968853
 11
347.1078761552389
 21
233.85060247968855
  0
LINE
  8
_0-1_設計製図
  6
CONTINUOUS
 62
    2
 10
377.1687761552389
 20
233.85060247968855
 11
378.04843115523892
 21
232.13452747968853
  0
LINE
  8
_0-1_設計製図
  6
CONTINUOUS
 62
    2
 10
378.04843115523892
 20
232.13452747968853
 11
371.1565961552389
 21
224.85600247968853
  0
LINE
  8
_0-1_設計製図
  6
CONTINUOUS
 62
    2
 10
371.1565961552389
 20
224.85600247968853
 11
370.27694115523889
 21
226.57207747968855
  0
LINE
  8
_0-1_設計製図
  6
CONTINUOUS
 62
    2
 10
370.27694115523889
 20
226.57207747968855
 11
377.1687761552389
 21
233.85060247968855
  0
LINE
  8
_0-1_設計製図
  6
CONTINUOUS
 62
    2
 10
377.1687761552389
 20
233.85060247968855
 11
371.1565961552389
 21
224.85600247968853
  0
LINE
  8
_0-1_設計製図
  6
CONTINUOUS
 62
    2
 10
382.03389515523889
 20
232.13452747968853
 11
378.79368015523892
 21
226.57207747968855
  0
LINE
  8
_0-1_設計製図
  6
CONTINUOUS
 62
    2
 10
345.48297215523888
 20
232.13452747968853
 11
342.91198315523889
 21
227.57328147968855
  0
LINE
  8
_0-1_設計製図
  6
CONTINUOUS
 62
    2
 10
335.20186615523897
 20
229.35330247968855
 11
346.4112781552389
 21
226.76540547968852
  0
LINE
  8
_0-1_設計製図
  6
CONTINUOUS
 62
    2
 10
376.28912115523889
 20
226.57207747968855
 11
382.03389515523889
 21
232.13452747968853
  0
LINE
  8
_0-1_設計製図
  6
CONTINUOUS
 62
    2
 10
382.03389515523889
 20
232.13452747968853
 11
377.1687761552389
 21
224.85600247968853
  0
LINE
  8
_0-1_設計製図
  6
CONTINUOUS
 62
    2
 10
371.1565961552389
 20
233.85060247968855
 11
372.03625115523892
 21
232.13452747968853
  0
LINE
  8
_0-1_設計製図
  6
CONTINUOUS
 62
    2
 10
372.03625115523892
 20
232.13452747968853
 11
365.1444161552389
 21
224.85600247968853
  0
LINE
  8
_0-1_設計製図
  6
CONTINUOUS
 62
    2
 10
365.1444161552389
 20
224.85600247968853
 11
364.26476115523889
 21
226.57207747968855
  0
LINE
  8
_0-1_設計製図
  6
CONTINUOUS
 62
    2
 10
364.26476115523889
 20
226.57207747968855
 11
371.1565961552389
 21
233.85060247968855
  0
LINE
  8
_0-1_設計製図
  6
CONTINUOUS
 62
    2
 10
371.1565961552389
 20
233.85060247968855
 11
365.1444161552389
 21
224.85600247968853
  0
LINE
  8
_0-1_設計製図
  6
CONTINUOUS
 62
    2
 10
365.1444161552389
 20
233.85060247968855
 11
366.02407115523891
 21
232.13452747968853
  0
LINE
  8
_0-1_設計製図
  6
CONTINUOUS
 62
    2
 10
366.02407115523891
 20
232.13452747968853
 11
359.13223615523879
 21
224.85600247968853
  0
LINE
  8
_0-1_設計製図
  6
CONTINUOUS
 62
    2
 10
359.13223615523879
 20
224.85600247968853
 11
358.25258115523889
 21
226.57207747968855
  0
LINE
  8
_0-1_設計製図
  6
CONTINUOUS
 62
    2
 10
358.25258115523889
 20
226.57207747968855
 11
365.1444161552389
 21
233.85060247968855
  0
LINE
  8
_0-1_設計製図
  6
CONTINUOUS
 62
    2
 10
365.1444161552389
 20
233.85060247968855
 11
359.13223615523879
 21
224.85600247968853
  0
LINE
  8
_0-1_設計製図
  6
CONTINUOUS
 62
    2
 10
359.13223615523879
 20
233.85060247968855
 11
360.01189115523891
 21
232.13452747968853
  0
LINE
  8
_0-1_設計製図
  6
CONTINUOUS
 62
    2
 10
360.01189115523891
 20
232.13452747968853
 11
353.1200561552389
 21
224.85600247968853
  0
LINE
  8
_0-1_設計製図
  6
CONTINUOUS
 62
    2
 10
353.1200561552389
 20
224.85600247968853
 11
352.24040115523889
 21
226.57207747968855
  0
LINE
  8
_0-1_設計製図
  6
CONTINUOUS
 62
    2
 10
352.24040115523889
 20
226.57207747968855
 11
359.13223615523879
 21
233.85060247968855
  0
LINE
  8
_0-1_設計製図
  6
CONTINUOUS
 62
    2
 10
359.13223615523879
 20
233.85060247968855
 11
353.1200561552389
 21
224.85600247968853
  0
LINE
  8
_0-1_設計製図
  6
CONTINUOUS
 62
    2
 10
353.1200561552389
 20
233.85060247968855
 11
353.99971115523891
 21
232.13452747968853
  0
LINE
  8
_0-1_設計製図
  6
CONTINUOUS
 62
    2
 10
353.99971115523891
 20
232.13452747968853
 11
347.1078761552389
 21
224.85600247968853
  0
LINE
  8
_0-1_設計製図
  6
CONTINUOUS
 62
    2
 10
347.1078761552389
 20
224.85600247968853
 11
346.22822115523888
 21
226.57207747968855
  0
LINE
  8
_0-1_設計製図
  6
CONTINUOUS
 62
    2
 10
346.22822115523888
 20
226.57207747968855
 11
353.1200561552389
 21
233.85060247968855
  0
LINE
  8
_0-1_設計製図
  6
CONTINUOUS
 62
    2
 10
353.1200561552389
 20
233.85060247968855
 11
347.1078761552389
 21
224.85600247968853
  0
LINE
  8
_0-1_設計製図
  6
CONTINUOUS
 62
    2
 10
347.1078761552389
 20
233.85060247968855
 11
342.91198315523889
 21
227.57328147968855
  0
LINE
  8
_0-1_設計製図
  6
CONTINUOUS
 62
    2
 10
347.98753115523891
 20
232.13452747968853
 11
342.91198315523889
 21
227.57328147968855
  0
LINE
  8
_0-1_設計製図
  6
CONTINUOUS
 62
    2
 10
376.28912115523889
 20
226.57207747968855
 11
372.78150015523892
 21
226.57207747968855
  0
LINE
  8
_0-1_設計製図
  6
CONTINUOUS
 62
    2
 10
370.27694115523889
 20
226.57207747968855
 11
366.76932015523892
 21
226.57207747968855
  0
LINE
  8
_0-1_設計製図
  6
CONTINUOUS
 62
    2
 10
364.26476115523889
 20
226.57207747968855
 11
360.75714015523891
 21
226.57207747968855
  0
LINE
  8
_0-1_設計製図
  6
CONTINUOUS
 62
    2
 10
358.25258115523889
 20
226.57207747968855
 11
354.74496015523891
 21
226.57207747968855
  0
LINE
  8
_0-1_設計製図
  6
CONTINUOUS
 62
    2
 10
352.24040115523889
 20
226.57207747968855
 11
348.73278015523891
 21
226.57207747968855
  0
LINE
  8
_0-1_設計製図
  6
CONTINUOUS
 62
    2
 10
378.79368015523892
 20
226.57207747968855
 11
377.1687761552389
 21
224.85600247968853
  0
LINE
  8
_0-1_設計製図
  6
CONTINUOUS
 62
    2
 10
377.1687761552389
 20
224.85600247968853
 11
376.28912115523889
 21
226.57207747968855
  0
LINE
  8
_0-1_設計製図
  6
CONTINUOUS
 62
    2
 10
378.04843115523892
 20
232.13452747968853
 11
419.03529415523889
 21
232.13452747968853
  0
LINE
  8
_0-1_設計製図
  6
CONTINUOUS
 62
    2
 10
378.79368015523892
 20
226.57207747968855
 11
419.03529415523889
 21
226.57207747968855
  0
LINE
  8
_0-1_設計製図
  6
CONTINUOUS
 62
    2
 10
431.27368315523887
 20
223.18329047968854
 11
430.61002415523888
 21
222.03380047968855
  0
ARC
  8
_0-1_設計製図
  6
CONTINUOUS
 62
    2
 10
420.85099115523889
 20
229.35330247968855
 40
10.42269212962966
 50
339.44337000000002
 51
20.55662999999997
  0
LINE
  8
_0-1_設計製図
  6
CONTINUOUS
 62
    2
 10
431.27368315523887
 20
235.52331447968854
 11
431.27368315523887
 21
223.18329047968854
  0
ARC
  8
_0-1_設計製図
  6
CONTINUOUS
 62
    2
 10
425.27337115523886
 20
222.93979647968854
 40
6.0052500000000002
 50
2.323802999999999
 51
27.29408900000001
  0
LINE
  8
_0-1_設計製図
  6
CONTINUOUS
 62
    2
 10
431.27368315523887
 20
235.52331447968854
 11
430.61002415523888
 21
236.67280447968855
  0
ARC
  8
_0-1_設計製図
  6
CONTINUOUS
 62
    2
 10
425.27337115523886
 20
235.76680847968854
 40
6.0052500000000002
 50
332.70591100000001
 51
357.676197
  0
LINE
  8
_0-1_設計製図
  6
CONTINUOUS
 62
    2
 10
430.61002415523888
 20
236.67280447968855
 11
425.20186615523892
 21
236.67280447968855
  0
LINE
  8
_0-1_設計製図
  6
CONTINUOUS
 62
    2
 10
430.61002415523888
 20
233.01305347968855
 11
425.20186615523892
 21
233.01305347968855
  0
LINE
  8
_0-1_設計製図
  6
CONTINUOUS
 62
    2
 10
430.61002415523888
 20
225.69355147968855
 11
425.20186615523892
 21
225.69355147968855
  0
LINE
  8
_0-1_設計製図
  6
CONTINUOUS
 62
    2
 10
430.61002415523888
 20
222.03380047968855
 11
425.20186615523892
 21
222.03380047968855
  0
LINE
  8
_0-1_設計製図
  6
PLine2
 62
    3
 10
436.1807771552389
 20
229.35330247968855
 11
332.3987371552389
 21
229.35330247968855
  0
LINE
  8
_0-1_設計製図
  6
CONTINUOUS
 62
    3
 10
381.92770915523892
 20
320.86895347968851
 11
381.92770915523892
 21
266.35330247968852
  0
LINE
  8
_0-1_設計製図
  6
CONTINUOUS
 62
    3
 10
381.92770915523892
 20
320.86895347968851
 11
411.92770915523892
 21
320.86895347968851
  0
LINE
  8
_0-1_設計製図
  6
CONTINUOUS
 62
    3
 10
411.92770915523892
 20
320.86895347968851
 11
411.92770915523892
 21
266.35330247968852
  0
LINE
  8
_0-1_設計製図
  6
PLine4
 62
    3
 10
408.92770915523892
 20
320.86895347968851
 11
408.92770915523892
 21
266.35330247968852
  0
ARC
  8
_0-1_設計製図
  6
CONTINUOUS
 62
    3
 10
411.92770915523892
 20
308.04102947968863
 40
1.4138938637006491
 50
270
 51
90
  0
ARC
  8
_0-1_設計製図
  6
CONTINUOUS
 62
    3
 10
411.92770915523892
 20
310.86881747968852
 40
1.4138938637006491
 50
270
 51
90
  0
ARC
  8
_0-1_設計製図
  6
CONTINUOUS
 62
    3
 10
411.92770915523892
 20
313.69660547968851
 40
1.4138938637006491
 50
270
 51
90
  0
ARC
  8
_0-1_設計製図
  6
CONTINUOUS
 62
    3
 10
411.92770915523892
 20
316.52439247968852
 40
1.4138938637006491
 50
270
 51
90
  0
ARC
  8
_0-1_設計製図
  6
CONTINUOUS
 62
    3
 10
405.45255615523888
 20
266.35330247968852
 40
2.0553562782241102
 50
0
 51
180
  0
ARC
  8
_0-1_設計製図
  6
CONTINUOUS
 62
    3
 10
401.34184315523891
 20
266.35330247968852
 40
2.0553562782241102
 50
0
 51
180
  0
ARC
  8
_0-1_設計製図
  6
CONTINUOUS
 62
    3
 10
397.23113115523887
 20
266.35330247968852
 40
2.0553562782241102
 50
0
 51
180
  0
ARC
  8
_0-1_設計製図
  6
CONTINUOUS
 62
    3
 10
393.12041815523889
 20
266.35330247968852
 40
2.0553562782241102
 50
0
 51
180
  0
ARC
  8
_0-1_設計製図
  6
CONTINUOUS
 62
    3
 10
389.00970615523892
 20
266.35330247968852
 40
2.0553562782241102
 50
0
 51
180
  0
LINE
  8
_0-1_設計製図
  6
CONTINUOUS
 62
    3
 10
314.03529415523889
 20
260.02064747968853
 11
290.03529415523889
 21
260.02064747968853
  0
LINE
  8
_0-1_設計製図
  6
CONTINUOUS
 62
    3
 10
290.03529415523889
 20
260.02064747968853
 11
290.03529415523889
 21
100.91555947968854
  0
LINE
  8
_0-1_設計製図
  6
CONTINUOUS
 62
    3
 10
302.03529415523889
 20
260.02064747968853
 11
302.03529415523889
 21
100.91555947968854
  0
LINE
  8
_0-1_設計製図
  6
CONTINUOUS
 62
    3
 10
314.03529415523889
 20
155.02064747968853
 11
314.03529415523889
 21
100.91555947968854
  0
LINE
  8
_0-1_設計製図
  6
CONTINUOUS
 62
    2
 10
289.23529415523888
 20
260.82064747968855
 11
349.40186615523891
 21
260.82064747968855
  0
LINE
  8
_0-1_設計製図
  6
CONTINUOUS
 62
    2
 10
349.40186615523891
 20
260.82064747968855
 11
349.40186615523891
 21
275.82064747968855
  0
LINE
  8
_0-1_設計製図
  6
CONTINUOUS
 62
    2
 10
349.40186615523891
 20
275.82064747968855
 11
350.20186615523892
 21
275.82064747968855
  0
LINE
  8
_0-1_設計製図
  6
CONTINUOUS
 62
    2
 10
350.20186615523892
 20
275.82064747968855
 11
350.20186615523892
 21
260.02064747968853
  0
LINE
  8
_0-1_設計製図
  6
CONTINUOUS
 62
    2
 10
289.23529415523888
 20
260.82064747968855
 11
289.23529415523888
 21
100.91555947968854
  0
LINE
  8
_0-1_設計製図
  6
CONTINUOUS
 62
    2
 10
341.82129415523889
 20
310.00664747968852
 11
341.82129415523889
 21
295.00664747968852
  0
LINE
  8
_0-1_設計製図
  6
CONTINUOUS
 62
    2
 10
341.82129415523889
 20
295.00664747968852
 11
270.71010915523891
 21
275.65425747968851
  0
ARC
  8
_0-1_設計製図
  6
CONTINUOUS
 62
    2
 10
271.23529415523888
 20
273.72444347968855
 40
2
 50
105.22394
 51
180
  0
LINE
  8
_0-1_設計製図
  6
CONTINUOUS
 62
    2
 10
269.23529415523888
 20
273.72444347968855
 11
269.23529415523888
 21
205.00664747968852
  0
LINE
  8
_0-1_設計製図
  6
CONTINUOUS
 62
    2
 10
269.23529415523888
 20
205.00664747968852
 11
271.23529415523888
 21
205.00664747968852
  0
LINE
  8
_0-1_設計製図
  6
CONTINUOUS
 62
    2
 10
271.23529415523888
 20
205.00664747968852
 11
271.23529415523888
 21
273.74162347968854
  0
LINE
  8
_0-1_設計製図
  6
CONTINUOUS
 62
    2
 10
271.23529415523888
 20
273.74162347968854
 11
343.82129415523889
 21
293.49537447968856
  0
LINE
  8
_0-1_設計製図
  6
CONTINUOUS
 62
    3
 10
286.23529415523888
 20
261.55544747968855
 11
347.91757215523899
 21
279.06552647968851
  0
LINE
  8
_0-1_設計製図
  6
CONTINUOUS
 62
    3
 10
286.23529415523888
 20
220.00664747968852
 11
286.23529415523888
 21
261.55544747968855
  0
LINE
  8
_0-1_設計製図
  6
CONTINUOUS
 62
    3
 10
271.23529415523888
 20
220.00664747968852
 11
286.23529415523888
 21
220.00664747968852
  0
LINE
  8
_0-1_設計製図
  6
CONTINUOUS
 62
    3
 10
343.82129415523889
 20
293.49537447968856
 11
347.91757215523899
 21
279.06552647968851
  0
LINE
  8
_0-1_設計製図
  6
CONTINUOUS
 62
    3
 10
271.23529415523888
 20
273.74162347968854
 11
286.23529415523888
 21
261.55544747968855
  0
LINE
  8
_0-1_設計製図
  6
CONTINUOUS
 62
    3
 10
284.23529415523888
 20
220.00664747968852
 11
284.23529415523888
 21
263.06672047968851
  0
LINE
  8
_0-1_設計製図
  6
CONTINUOUS
 62
    3
 10
347.37140215523891
 20
280.98950647968854
 11
284.23529415523888
 21
263.06672047968851
  0
ARC
  8
_0-1_設計製図
  6
CONTINUOUS
 62
    6
 10
305.17755015523886
 20
300.75813047968853
 40
25.527971234278091
 50
338.75912899999997
 51
21.240871000000041
  0
LINE
  8
_0-1_設計製図
  6
CONTINUOUS
 62
    6
 10
341.82129415523889
 20
310.00664747968852
 11
328.97129415523887
 21
291.50961347968854
  0
LINE
  8
_0-1_設計製図
  6
CONTINUOUS
 62
    6
 10
328.97129415523887
 20
310.00664747968852
 11
341.82129415523889
 21
295.00664747968852
  0
ARC
  8
_0-1_設計製図
  6
CONTINUOUS
 62
    6
 10
280.16899915523891
 20
192.07599147968853
 40
15.716646028991599
 50
54.770049000000007
 51
124.6403389999999
  0
LINE
  8
_0-1_設計製図
  6
CONTINUOUS
 62
    6
 10
289.23529415523888
 20
220.00664747968852
 11
271.23529415523888
 21
205.00664747968852
  0
LINE
  8
_0-1_設計製図
  6
CONTINUOUS
 62
    6
 10
271.23529415523888
 20
220.00664747968852
 11
289.23529415523888
 21
204.91403047968853
  0
LINE
  8
_0-1_設計製図
  6
CONTINUOUS
 62
    6
 10
286.23529415523888
 20
220.00664747968852
 11
289.23529415523888
 21
220.00664747968852
  0
LINE
  8
_0-1_設計製図
  6
CONTINUOUS
 62
    3
 10
327.83667215523889
 20
304.10192847968852
 11
330.70269815523886
 21
301.13782647968856
  0
LINE
  8
_0-1_設計製図
  6
CONTINUOUS
 62
    3
 10
330.70269815523886
 20
301.13782647968856
 11
269.27672515523886
 21
407.53073147968843
  0
LINE
  8
_0-1_設計製図
  6
CONTINUOUS
 62
    3
 10
269.27672515523886
 20
407.53073147968843
 11
185.16648915523888
 21
407.53073147968843
  0
TEXT
  8
_0-1_設計製図
 62
    7
 10
173.15070915523879
 20
409.53073147968854
 40
7
 41
0.8582679999999999
 50
0
  1
シーリング処理（シリコーン）
  0
LINE
  8
_0-1_設計製図
  6
CONTINUOUS
 62
    3
 10
434.13970815523891
 20
226.38920047968853
 11
431.27368315523887
 21
229.35330247968855
  0
LINE
  8
_0-1_設計製図
  6
CONTINUOUS
 62
    3
 10
431.27368315523887
 20
229.35330247968855
 11
443.13287115523889
 21
208.81258547968855
  0
LINE
  8
_0-1_設計製図
  6
CONTINUOUS
 62
    3
 10
443.13287115523889
 20
208.81258547968855
 11
551.27460315523876
 21
208.81258547968855
  0
LINE
  8
_0-1_設計製図
  6
CONTINUOUS
 62
    3
 10
428.06789215523878
 20
210.78540147968855
 11
425.20186615523892
 21
213.74950247968854
  0
LINE
  8
_0-1_設計製図
  6
CONTINUOUS
 62
    3
 10
425.20186615523892
 20
213.74950247968854
 11
435.8114291552389
 21
195.37320047968853
  0
LINE
  8
_0-1_設計製図
  6
CONTINUOUS
 62
    3
 10
435.8114291552389
 20
195.37320047968853
 11
525.9295401552389
 21
195.37320047968853
  0
LINE
  8
_0-1_設計製図
  6
CONTINUOUS
 62
    3
 10
266.3692691552389
 20
236.72200447968854
 11
269.23529415523888
 21
233.75790347968854
  0
LINE
  8
_0-1_設計製図
  6
CONTINUOUS
 62
    3
 10
269.23529415523888
 20
233.75790347968854
 11
209.90164015523888
 21
336.52680647968856
  0
LINE
  8
_0-1_設計製図
  6
CONTINUOUS
 62
    3
 10
209.90164015523888
 20
336.52680647968856
 11
137.8071521552389
 21
336.52680647968856
  0
TEXT
  8
_0-1_設計製図
 62
    7
 10
118.98245002190561
 20
338.52680647968856
 40
7
 41
0.8582679999999999
 50
0
  1
アルミ曲げ水切　ｔ＝２．０
  0
LINE
  8
_0-1_設計製図
  6
CONTINUOUS
 62
    6
 10
304.03529415523889
 20
260.02064747968853
 11
304.03529415523889
 21
100.91555947968854
  0
LINE
  8
_0-1_設計製図
  6
CONTINUOUS
 62
    6
 10
306.03529415523889
 20
260.02064747968853
 11
306.03529415523889
 21
100.91555947968854
  0
LINE
  8
_0-1_設計製図
  6
CONTINUOUS
 62
    6
 10
308.03529415523889
 20
260.02064747968853
 11
308.03529415523889
 21
100.91555947968854
  0
LINE
  8
_0-1_設計製図
  6
CONTINUOUS
 62
    6
 10
310.03529415523889
 20
260.02064747968853
 11
310.03529415523889
 21
100.91555947968854
  0
LINE
  8
_0-1_設計製図
  6
CONTINUOUS
 62
    6
 10
312.03529415523889
 20
260.02064747968853
 11
312.03529415523889
 21
100.91555947968854
  0
LINE
  8
_0-1_設計製図
  6
CONTINUOUS
 62
    4
 10
300.03529415523889
 20
260.02064747968853
 11
300.03529415523889
 21
100.91555947968854
  0
LINE
  8
_0-1_設計製図
  6
CONTINUOUS
 62
    4
 10
298.03529415523889
 20
260.02064747968853
 11
298.03529415523889
 21
100.91555947968854
  0
LINE
  8
_0-1_設計製図
  6
CONTINUOUS
 62
    4
 10
292.03529415523889
 20
260.02064747968853
 11
292.03529415523889
 21
100.91555947968854
  0
LINE
  8
_0-1_設計製図
  6
CONTINUOUS
 62
    4
 10
294.03529415523889
 20
260.02064747968853
 11
294.03529415523889
 21
100.91555947968854
  0
LINE
  8
_0-1_設計製図
  6
CONTINUOUS
 62
    4
 10
296.03529415523889
 20
260.02064747968853
 11
296.03529415523889
 21
100.91555947968854
  0
LINE
  8
_0-1_設計製図
  6
CONTINUOUS
 62
    3
 10
294.90132015523886
 20
136.23945047968854
 11
296.03529415523889
 21
140.20355247968854
  0
LINE
  8
_0-1_設計製図
  6
CONTINUOUS
 62
    3
 10
296.03529415523889
 20
140.20355247968854
 11
266.05297215523888
 21
88.272646479688547
  0
LINE
  8
_0-1_設計製図
  6
CONTINUOUS
 62
    3
 10
266.05297215523888
 20
88.272646479688547
 11
248.02935015523889
 21
88.272646479688547
  0
TEXT
  8
_0-1_設計製図
 62
    7
 10
246.02671882190549
 20
90.272646479688547
 40
7
 41
0.8582679999999999
 50
0
  1
野地板
  0
LINE
  8
_0-1_設計製図
  6
CONTINUOUS
 62
    3
 10
419.03529415523889
 20
155.02064747968853
 11
419.03529415523889
 21
100.91555947968854
  0
LINE
  8
_0-1_設計製図
  6
CONTINUOUS
 62
    3
 10
22.494139155238884
 20
541.94286547968852
 11
818.49413915523894
 21
541.94286547968852
  0
TEXT
  8
_0-1_設計製図
 62
    7
 10
187.95666090194948
 20
544.89682847968857
 40
24
 41
0.8582679999999999
 50
0
  1
サントップドームＢ型木架台標準納まり参考図
  0
CIRCLE
  8
_0-1_設計製図
  6
CONTINUOUS
 62
    3
 10
269.23529415523888
 20
171.54506847968855
 40
1
  0
CIRCLE
  8
_0-1_設計製図
  6
CONTINUOUS
 62
    3
 10
289.23529415523888
 20
171.54506847968855
 40
1
  0
LINE
  8
_0-1_設計製図
  6
CONTINUOUS
 62
    3
 10
269.23529415523888
 20
171.54506847968855
 11
289.23529415523888
 21
171.54506847968855
  0
LINE
  8
_0-1_設計製図
  6
CONTINUOUS
 62
    3
 10
269.23529415523888
 20
203.00664747968852
 11
269.23529415523888
 21
169.54506847968855
  0
LINE
  8
_0-1_設計製図
  6
CONTINUOUS
 62
    3
 10
289.23529415523888
 20
194.51858147968844
 11
289.23529415523888
 21
169.54506847968855
  0
TEXT
  8
_0-1_設計製図
 62
    7
 10
273.02715562190548
 20
173.54506847968855
 40
7
 41
0.8582679999999999
 50
0
  1
２０
  0
CIRCLE
  8
_0-1_設計製図
  6
CONTINUOUS
 62
    3
 10
328.97129415523887
 20
281.77337747968852
 40
1
  0
CIRCLE
  8
_0-1_設計製図
  6
CONTINUOUS
 62
    3
 10
269.23529415523888
 20
281.77337747968852
 40
1
  0
LINE
  8
_0-1_設計製図
  6
CONTINUOUS
 62
    3
 10
328.97129415523887
 20
281.77337747968852
 11
269.23529415523888
 21
281.77337747968852
  0
LINE
  8
_0-1_設計製図
  6
CONTINUOUS
 62
    3
 10
328.97129415523887
 20
311.18601747968853
 11
328.97129415523887
 21
279.77337747968852
  0
LINE
  8
_0-1_設計製図
  6
CONTINUOUS
 62
    3
 10
269.23529415523888
 20
272.62096147968856
 11
269.23529415523888
 21
283.77337747968852
  0
TEXT
  8
_0-1_設計製図
 62
    7
 10
292.89515562190547
 20
283.77337747968852
 40
7
 41
0.8582679999999999
 50
0
  1
６０
  0
CIRCLE
  8
_0-1_設計製図
  6
CONTINUOUS
 62
    3
 10
217.8024451552389
 20
275.00664747968852
 40
1
  0
CIRCLE
  8
_0-1_設計製図
  6
CONTINUOUS
 62
    3
 10
217.8024451552389
 20
205.00664747968852
 40
1
  0
LINE
  8
_0-1_設計製図
  6
CONTINUOUS
 62
    3
 10
217.8024451552389
 20
275.00664747968852
 11
217.8024451552389
 21
205.00664747968852
  0
LINE
  8
_0-1_設計製図
  6
CONTINUOUS
 62
    3
 10
264.86786615523891
 20
205.00664747968852
 11
215.8024451552389
 21
205.00664747968852
  0
TEXT
  8
_0-1_設計製図
 62
    7
 10
215.8024451552389
 20
233.79850894635513
 40
7
 41
0.8582679999999999
 50
90
  1
７０
  0
CIRCLE
  8
_0-1_設計製図
  6
CONTINUOUS
 62
    3
 10
217.8024451552389
 20
295.00664747968852
 40
1
  0
CIRCLE
  8
_0-1_設計製図
  6
CONTINUOUS
 62
    3
 10
217.8024451552389
 20
275.00664747968852
 40
1
  0
LINE
  8
_0-1_設計製図
  6
CONTINUOUS
 62
    3
 10
217.8024451552389
 20
295.00664747968852
 11
217.8024451552389
 21
275.00664747968852
  0
LINE
  8
_0-1_設計製図
  6
CONTINUOUS
 62
    3
 10
282.48109415523891
 20
295.00664747968852
 11
215.8024451552389
 21
295.00664747968852
  0
LINE
  8
_0-1_設計製図
  6
CONTINUOUS
 62
    3
 10
264.50841215523889
 20
275.00664747968852
 11
215.8024451552389
 21
275.00664747968852
  0
TEXT
  8
_0-1_設計製図
 62
    7
 10
215.8024451552389
 20
278.79850894635524
 40
7
 41
0.8582679999999999
 50
90
  1
２０
  0
CIRCLE
  8
_0-1_設計製図
  6
CONTINUOUS
 62
    3
 10
302.03529415523889
 20
122.39030047968853
 40
1
  0
CIRCLE
  8
_0-1_設計製図
  6
CONTINUOUS
 62
    3
 10
290.03529415523889
 20
122.39030047968853
 40
1
  0
LINE
  8
_0-1_設計製図
  6
CONTINUOUS
 62
    3
 10
302.03529415523889
 20
122.39030047968853
 11
290.03529415523889
 21
122.39030047968853
  0
LINE
  8
_0-1_設計製図
  6
CONTINUOUS
 62
    3
 10
290.03529415523889
 20
151.42266647968853
 11
290.03529415523889
 21
120.39030047968853
  0
TEXT
  8
_0-1_設計製図
 62
    7
 10
289.02610548857217
 20
124.39030047968853
 40
7
 41
0.8582679999999999
 50
0
  1
１２
  0
CIRCLE
  8
_0-1_設計製図
  6
CONTINUOUS
 62
    3
 10
314.03529415523889
 20
122.39030047968853
 40
1
  0
CIRCLE
  8
_0-1_設計製図
  6
CONTINUOUS
 62
    3
 10
302.03529415523889
 20
122.39030047968853
 40
1
  0
LINE
  8
_0-1_設計製図
  6
CONTINUOUS
 62
    3
 10
314.03529415523889
 20
122.39030047968853
 11
302.03529415523889
 21
122.39030047968853
  0
LINE
  8
_0-1_設計製図
  6
CONTINUOUS
 62
    3
 10
302.03529415523889
 20
149.95082947968854
 11
302.03529415523889
 21
120.39030047968853
  0
TEXT
  8
_0-1_設計製図
 62
    7
 10
301.02610548857228
 20
124.39030047968853
 40
7
 41
0.8582679999999999
 50
0
  1
１２
  0
CIRCLE
  8
_0-1_設計製図
  6
CONTINUOUS
 62
    3
 10
419.03529415523889
 20
122.39030047968853
 40
1
  0
CIRCLE
  8
_0-1_設計製図
  6
CONTINUOUS
 62
    3
 10
314.03529415523889
 20
122.39030047968853
 40
1
  0
LINE
  8
_0-1_設計製図
  6
CONTINUOUS
 62
    3
 10
419.03529415523889
 20
122.39030047968853
 11
314.03529415523889
 21
122.39030047968853
  0
LINE
  8
_0-1_設計製図
  6
CONTINUOUS
 62
    3
 10
419.03529415523889
 20
131.83591347968854
 11
419.03529415523889
 21
120.39030047968853
  0
LINE
  8
_0-1_設計製図
  6
CONTINUOUS
 62
    3
 10
314.03529415523889
 20
153.02064747968853
 11
314.03529415523889
 21
120.39030047968853
  0
TEXT
  8
_0-1_設計製図
 62
    7
 10
355.92137988857218
 20
124.39030047968853
 40
7
 41
0.8582679999999999
 50
0
  1
１０５
  0
CIRCLE
  8
_0-1_設計製図
  6
CONTINUOUS
 62
    3
 10
444.03529415523889
 20
143.56898747968853
 40
1
  0
CIRCLE
  8
_0-1_設計製図
  6
CONTINUOUS
 62
    3
 10
419.03529415523889
 20
143.56898747968853
 40
1
  0
LINE
  8
_0-1_設計製図
  6
CONTINUOUS
 62
    3
 10
444.03529415523889
 20
143.56898747968853
 11
419.03529415523889
 21
143.56898747968853
  0
LINE
  8
_0-1_設計製図
  6
CONTINUOUS
 62
    3
 10
444.03529415523889
 20
320.88364747968853
 11
444.03529415523889
 21
141.56898747968853
  0
LINE
  8
_0-1_設計製図
  6
CONTINUOUS
 62
    3
 10
419.03529415523889
 20
192.78053647968855
 11
419.03529415523889
 21
141.56898747968853
  0
TEXT
  8
_0-1_設計製図
 62
    7
 10
425.12689308857222
 20
145.56898747968853
 40
7
 41
0.8582679999999999
 50
0
  1
２５
  0
CIRCLE
  8
_0-1_設計製図
  6
CONTINUOUS
 62
    3
 10
456.49752415523881
 20
266.35330247968852
 40
1
  0
CIRCLE
  8
_0-1_設計製図
  6
CONTINUOUS
 62
    3
 10
456.49752415523881
 20
320.86895347968851
 40
1
  0
LINE
  8
_0-1_設計製図
  6
CONTINUOUS
 62
    3
 10
456.49752415523881
 20
266.35330247968852
 11
456.49752415523881
 21
320.86895347968851
  0
LINE
  8
_0-1_設計製図
  6
CONTINUOUS
 62
    3
 10
427.2018661552388
 20
266.35330247968852
 11
458.49752415523881
 21
266.35330247968852
  0
LINE
  8
_0-1_設計製図
  6
CONTINUOUS
 62
    3
 10
413.92770915523892
 20
320.86895347968851
 11
458.49752415523881
 21
320.86895347968851
  0
TEXT
  8
_0-1_設計製図
 62
    7
 10
454.49752415523886
 20
279.79301267968856
 40
7
 41
0.8582679999999999
 50
90
  1
５４．５
  0
CIRCLE
  8
_0-1_設計製図
  6
CONTINUOUS
 62
    3
 10
508.89231315523887
 20
345.06164747968853
 40
1
  0
CIRCLE
  8
_0-1_設計製図
  6
CONTINUOUS
 62
    3
 10
508.89231315523887
 20
260.02064747968853
 40
1
  0
LINE
  8
_0-1_設計製図
  6
CONTINUOUS
 62
    3
 10
508.89231315523887
 20
345.06164747968853
 11
508.89231315523887
 21
260.02064747968853
  0
LINE
  8
_0-1_設計製図
  6
CONTINUOUS
 62
    3
 10
471.03529415523877
 20
345.06164747968853
 11
510.89231315523887
 21
345.06164747968853
  0
LINE
  8
_0-1_設計製図
  6
CONTINUOUS
 62
    3
 10
411.03529415523889
 20
260.02064747968853
 11
510.89231315523887
 21
260.02064747968853
  0
TEXT
  8
_0-1_設計製図
 62
    7
 10
506.89231315523887
 20
296.13274641302183
 40
7
 41
0.8582679999999999
 50
90
  1
８５
  0
LINE
  8
_0-1_設計製図
  6
CONTINUOUS
 62
    3
 10
456.83585415523891
 20
360.46330747968852
 11
458.90672015523882
 21
361.84032547968854
  0
LINE
  8
_0-1_設計製図
  6
CONTINUOUS
 62
    3
 10
458.90672015523882
 20
361.84032547968854
 11
461.16298515523891
 21
363.05958647968856
  0
LINE
  8
_0-1_設計製図
  6
CONTINUOUS
 62
    3
 10
461.16298515523891
 20
363.05958647968856
 11
463.7607941552389
 21
363.93370847968856
  0
LINE
  8
_0-1_設計製図
  6
CONTINUOUS
 62
    3
 10
463.7607941552389
 20
363.93370847968856
 11
466.26900015523887
 21
363.83847047968851
  0
LINE
  8
_0-1_設計製図
  6
CONTINUOUS
 62
    3
 10
466.26900015523887
 20
363.83847047968851
 11
468.05002715523881
 21
362.70445447968854
  0
LINE
  8
_0-1_設計製図
  6
CONTINUOUS
 62
    3
 10
468.05002715523881
 20
362.70445447968854
 11
469.73070415523887
 21
361.15564847968852
  0
LINE
  8
_0-1_設計製図
  6
CONTINUOUS
 62
    3
 10
469.73070415523887
 20
361.15564847968852
 11
471.65546115523887
 21
359.77658147968856
  0
LINE
  8
_0-1_設計製図
  6
CONTINUOUS
 62
    3
 10
471.65546115523887
 20
359.77658147968856
 11
473.79820815523891
 21
358.99208347968863
  0
LINE
  8
_0-1_設計製図
  6
CONTINUOUS
 62
    3
 10
473.79820815523891
 20
358.99208347968863
 11
476.36596815523882
 21
358.94570047968853
  0
LINE
  8
_0-1_設計製図
  6
CONTINUOUS
 62
    3
 10
476.36596815523882
 20
358.94570047968853
 11
478.7311371552388
 21
359.85750947968853
  0
LINE
  8
_0-1_設計製図
  6
CONTINUOUS
 62
    3
 10
478.7311371552388
 20
359.85750947968853
 11
480.36913615523889
 21
361.46682047968852
  0
LINE
  8
_0-1_設計製図
  6
CONTINUOUS
 62
    3
 10
480.36913615523889
 20
361.46682047968852
 11
482.01975715523889
 21
363.05958647968856
  0
LINE
  8
_0-1_設計製図
  6
CONTINUOUS
 62
    3
 10
482.01975715523889
 20
363.05958647968856
 11
484.05803415523877
 21
363.88047447968853
  0
LINE
  8
_0-1_設計製図
  6
CONTINUOUS
 62
    3
 10
484.05803415523877
 20
363.88047447968853
 11
486.26034515523878
 21
363.83847047968851
  0
LINE
  8
_0-1_設計製図
  6
CONTINUOUS
 62
    3
 10
486.26034515523878
 20
363.83847047968851
 11
487.8851391552389
 21
363.17688047968852
  0
LINE
  8
_0-1_設計製図
  6
CONTINUOUS
 62
    3
 10
487.8851391552389
 20
363.17688047968852
 11
489.2893371552388
 21
362.10761747968854
  0
LINE
  8
_0-1_設計製図
  6
CONTINUOUS
 62
    3
 10
489.2893371552388
 20
362.10761747968854
 11
490.06187115523886
 21
361.31048547968862
  0
LINE
  8
_0-1_設計製図
  6
CONTINUOUS
 62
    3
 10
490.06187115523886
 20
361.31048547968862
 11
490.84710415523887
 21
360.54985047968853
  0
LINE
  8
_0-1_設計製図
  6
CONTINUOUS
 62
    3
 10
490.84710415523887
 20
360.54985047968853
 11
492.3195341552389
 21
359.61786947968852
  0
LINE
  8
_0-1_設計製図
  6
CONTINUOUS
 62
    3
 10
492.3195341552389
 20
359.61786947968852
 11
493.96263915523878
 21
358.90554047968851
  0
LINE
  8
_0-1_設計製図
  6
CONTINUOUS
 62
    3
 10
345.82129415523889
 20
183.85446747968854
 11
556.99905715523892
 21
183.85446747968854
  0
LINE
  8
_0-1_設計製図
  6
CONTINUOUS
 62
    3
 10
345.82129415523889
 20
293.95864747968852
 11
345.82129415523889
 21
182.85446747968854
  0
TEXT
  8
_0-1_設計製図
 62
    7
 10
408.40149152116271
 20
185.95364047968854
 40
7
 41
0.8582679999999999
 50
0
  1
アルミフレーム巾（９００型：□１１３０）
  0
CIRCLE
  8
_0-1_設計製図
  6
CONTINUOUS
 62
    3
 10
345.82129415523889
 20
183.85446747968854
 40
0.6
  0
CIRCLE
  8
_0-1_設計製図
  6
CONTINUOUS
 62
    3
 10
328.97129415523887
 20
183.85446747968854
 40
0.6
  0
LINE
  8
_0-1_設計製図
  6
CONTINUOUS
 62
    3
 10
345.82129415523889
 20
183.85446747968854
 11
328.97129415523887
 21
183.85446747968854
  0
LINE
  8
_0-1_設計製図
  6
CONTINUOUS
 62
    3
 10
345.82129415523889
 20
295.64093247968856
 11
345.82129415523889
 21
182.85446747968854
  0
LINE
  8
_0-1_設計製図
  6
CONTINUOUS
 62
    3
 10
328.97129415523887
 20
310.20885347968851
 11
328.97129415523887
 21
182.85446747968854
  0
TEXT
  8
_0-1_設計製図
 62
    7
 10
330.3869144885723
 20
185.85448847968854
 40
7
 41
0.8582679999999999
 50
0
  1
１５
  0
TEXT
  8
_0-1_設計製図
 62
    7
 10
305.99056815523892
 20
487.51993647968845
 40
7
 41
0.8582679999999999
 50
-0.0000000000000208
  1
ステン六角ボルトＭ８×４０
  0
TEXT
  8
_0-1_設計製図
 62
    7
 10
296.38592615523879
 20
464.55500647968853
 40
7
 41
0.8582679999999999
 50
0
  1
コンプリバンド１０×２５
  0
TEXT
  8
_0-1_設計製図
 62
    7
 10
352.30836922760375
 20
476.52693091506558
 40
7
 41
0.8582679999999999
 50
0
  1
Ｗ．Ｐ．Ｎ
  0
TEXT
  8
_0-1_設計製図
 62
    7
 10
497.35904482661061
 20
395.29855257962174
 40
7
 41
0.8582679999999999
 50
0
  1
ｔ＝６．８網入り型板ガラス（別途）
  0
TEXT
  8
_0-1_設計製図
 62
    7
 10
449.99882515523888
 20
229.61410047968855
 40
7
 41
0.8582679999999999
 50
0
  1
取り付けピースＬ３×３０×３０
  0
TEXT
  8
_0-1_設計製図
 62
    7
 10
443.13287115523889
 20
210.81258547968855
 40
7
 41
0.8582679999999999
 50
0
  1
六角コーチスクリュー９×７５（別途）
  0
TEXT
  8
_0-1_設計製図
 62
    7
 10
435.8114291552389
 20
197.37320047968853
 40
7
 41
0.8582679999999999
 50
0
  1
取付枠Ｌ６５×６５×６（別途）
  0
ENDSEC
  0
EOF
