  0
SECTION
  2
HEADER
  9
$ACADVER
  1
AC1015
  9
$ACADMAINTVER
 70
     6
  9
$DWGCODEPAGE
  3
ANSI_932
  9
$INSBASE
 10
0.0
 20
0.0
 30
0.0
  9
$EXTMIN
 10
0.0
 20
0.0
 30
0.0
  9
$EXTMAX
 10
4200.0
 20
2970.0
 30
0.0
  9
$LIMMIN
 10
0.0
 20
0.0
  9
$LIMMAX
 10
12.0
 20
9.0
  9
$ORTHOMODE
 70
     0
  9
$REGENMODE
 70
     1
  9
$FILLMODE
 70
     1
  9
$QTEXTMODE
 70
     0
  9
$MIRRTEXT
 70
     1
  9
$LTSCALE
 40
10.0
  9
$ATTMODE
 70
     1
  9
$TEXTSIZE
 40
0.2
  9
$TRACEWID
 40
0.05
  9
$TEXTSTYLE
  7
Standard
  9
$CLAYER
  8
0
  9
$CELTYPE
  6
ByLayer
  9
$CECOLOR
 62
   256
  9
$CELTSCALE
 40
1.0
  9
$DISPSILH
 70
     0
  9
$DIMSCALE
 40
1.0
  9
$DIMASZ
 40
0.18
  9
$DIMEXO
 40
0.0625
  9
$DIMDLI
 40
0.38
  9
$DIMRND
 40
0.0
  9
$DIMDLE
 40
0.0
  9
$DIMEXE
 40
0.18
  9
$DIMTP
 40
0.0
  9
$DIMTM
 40
0.0
  9
$DIMTXT
 40
0.18
  9
$DIMCEN
 40
0.09
  9
$DIMTSZ
 40
0.0
  9
$DIMTOL
 70
     0
  9
$DIMLIM
 70
     0
  9
$DIMTIH
 70
     1
  9
$DIMTOH
 70
     1
  9
$DIMSE1
 70
     0
  9
$DIMSE2
 70
     0
  9
$DIMTAD
 70
     0
  9
$DIMZIN
 70
     0
  9
$DIMBLK
  1

  9
$DIMASO
 70
     1
  9
$DIMSHO
 70
     1
  9
$DIMPOST
  1

  9
$DIMAPOST
  1

  9
$DIMALT
 70
     0
  9
$DIMALTD
 70
     2
  9
$DIMALTF
 40
25.4
  9
$DIMLFAC
 40
1.0
  9
$DIMTOFL
 70
     0
  9
$DIMTVP
 40
0.0
  9
$DIMTIX
 70
     0
  9
$DIMSOXD
 70
     0
  9
$DIMSAH
 70
     0
  9
$DIMBLK1
  1

  9
$DIMBLK2
  1

  9
$DIMSTYLE
  2
Standard
  9
$DIMCLRD
 70
     0
  9
$DIMCLRE
 70
     0
  9
$DIMCLRT
 70
     0
  9
$DIMTFAC
 40
1.0
  9
$DIMGAP
 40
0.09
  9
$DIMJUST
 70
     0
  9
$DIMSD1
 70
     0
  9
$DIMSD2
 70
     0
  9
$DIMTOLJ
 70
     1
  9
$DIMTZIN
 70
     0
  9
$DIMALTZ
 70
     0
  9
$DIMALTTZ
 70
     0
  9
$DIMUPT
 70
     0
  9
$DIMDEC
 70
     4
  9
$DIMTDEC
 70
     4
  9
$DIMALTU
 70
     2
  9
$DIMALTTD
 70
     2
  9
$DIMTXSTY
  7
Standard
  9
$DIMAUNIT
 70
     0
  9
$DIMADEC
 70
     0
  9
$DIMALTRND
 40
0.0
  9
$DIMAZIN
 70
     0
  9
$DIMDSEP
 70
    46
  9
$DIMATFIT
 70
     3
  9
$DIMFRAC
 70
     0
  9
$DIMLDRBLK
  1

  9
$DIMLUNIT
 70
     2
  9
$DIMLWD
 70
    -2
  9
$DIMLWE
 70
    -2
  9
$DIMTMOVE
 70
     0
  9
$LUNITS
 70
     2
  9
$LUPREC
 70
     4
  9
$SKETCHINC
 40
0.1
  9
$FILLETRAD
 40
0.5
  9
$AUNITS
 70
     0
  9
$AUPREC
 70
     0
  9
$MENU
  1
.
  9
$ELEVATION
 40
0.0
  9
$PELEVATION
 40
0.0
  9
$THICKNESS
 40
0.0
  9
$LIMCHECK
 70
     0
  9
$CHAMFERA
 40
0.5
  9
$CHAMFERB
 40
0.5
  9
$CHAMFERC
 40
1.0
  9
$CHAMFERD
 40
0.0
  9
$SKPOLY
 70
     0
  9
$TDCREATE
 40
2456862.805833692
  9
$TDUCREATE
 40
2456862.430833692
  9
$TDUPDATE
 40
2456862.805833704
  9
$TDUUPDATE
 40
2456862.430833704
  9
$TDINDWG
 40
0.0000000116
  9
$TDUSRTIMER
 40
0.0000000116
  9
$USRTIMER
 70
     1
  9
$ANGBASE
 50
0.0
  9
$ANGDIR
 70
     0
  9
$PDMODE
 70
     0
  9
$PDSIZE
 40
0.0
  9
$PLINEWID
 40
0.0
  9
$SPLFRAME
 70
     0
  9
$SPLINETYPE
 70
     6
  9
$SPLINESEGS
 70
     8
  9
$HANDSEED
  5
671
  9
$SURFTAB1
 70
     6
  9
$SURFTAB2
 70
     6
  9
$SURFTYPE
 70
     6
  9
$SURFU
 70
     6
  9
$SURFV
 70
     6
  9
$UCSBASE
  2

  9
$UCSNAME
  2

  9
$UCSORG
 10
0.0
 20
0.0
 30
0.0
  9
$UCSXDIR
 10
1.0
 20
0.0
 30
0.0
  9
$UCSYDIR
 10
0.0
 20
1.0
 30
0.0
  9
$UCSORTHOREF
  2

  9
$UCSORTHOVIEW
 70
     0
  9
$UCSORGTOP
 10
0.0
 20
0.0
 30
0.0
  9
$UCSORGBOTTOM
 10
0.0
 20
0.0
 30
0.0
  9
$UCSORGLEFT
 10
0.0
 20
0.0
 30
0.0
  9
$UCSORGRIGHT
 10
0.0
 20
0.0
 30
0.0
  9
$UCSORGFRONT
 10
0.0
 20
0.0
 30
0.0
  9
$UCSORGBACK
 10
0.0
 20
0.0
 30
0.0
  9
$PUCSBASE
  2

  9
$PUCSNAME
  2

  9
$PUCSORG
 10
0.0
 20
0.0
 30
0.0
  9
$PUCSXDIR
 10
1.0
 20
0.0
 30
0.0
  9
$PUCSYDIR
 10
0.0
 20
1.0
 30
0.0
  9
$PUCSORTHOREF
  2

  9
$PUCSORTHOVIEW
 70
     0
  9
$PUCSORGTOP
 10
0.0
 20
0.0
 30
0.0
  9
$PUCSORGBOTTOM
 10
0.0
 20
0.0
 30
0.0
  9
$PUCSORGLEFT
 10
0.0
 20
0.0
 30
0.0
  9
$PUCSORGRIGHT
 10
0.0
 20
0.0
 30
0.0
  9
$PUCSORGFRONT
 10
0.0
 20
0.0
 30
0.0
  9
$PUCSORGBACK
 10
0.0
 20
0.0
 30
0.0
  9
$USERI1
 70
     0
  9
$USERI2
 70
     0
  9
$USERI3
 70
     0
  9
$USERI4
 70
     0
  9
$USERI5
 70
     0
  9
$USERR1
 40
0.0
  9
$USERR2
 40
0.0
  9
$USERR3
 40
0.0
  9
$USERR4
 40
0.0
  9
$USERR5
 40
0.0
  9
$WORLDVIEW
 70
     1
  9
$SHADEDGE
 70
     3
  9
$SHADEDIF
 70
    70
  9
$TILEMODE
 70
     1
  9
$MAXACTVP
 70
    64
  9
$PINSBASE
 10
0.0
 20
0.0
 30
0.0
  9
$PLIMCHECK
 70
     0
  9
$PEXTMIN
 10
1.000000E+20
 20
1.000000E+20
 30
1.000000E+20
  9
$PEXTMAX
 10
-1.000000E+20
 20
-1.000000E+20
 30
-1.000000E+20
  9
$PLIMMIN
 10
0.0
 20
0.0
  9
$PLIMMAX
 10
12.0
 20
9.0
  9
$UNITMODE
 70
     0
  9
$VISRETAIN
 70
     1
  9
$PLINEGEN
 70
     0
  9
$PSLTSCALE
 70
     1
  9
$TREEDEPTH
 70
  3020
  9
$CMLSTYLE
  2
Standard
  9
$CMLJUST
 70
     0
  9
$CMLSCALE
 40
1.0
  9
$PROXYGRAPHICS
 70
     1
  9
$MEASUREMENT
 70
     0
  9
$CELWEIGHT
370
    -1
  9
$ENDCAPS
280
     0
  9
$JOINSTYLE
280
     0
  9
$LWDISPLAY
290
     0
  9
$INSUNITS
 70
     1
  9
$HYPERLINKBASE
  1

  9
$STYLESHEET
  1

  9
$XEDIT
290
     1
  9
$CEPSNTYPE
380
     0
  9
$PSTYLEMODE
290
     1
  9
$FINGERPRINTGUID
  2
{FD139BCE-0947-4DB3-ADA5-1331A277E4FD}
  9
$VERSIONGUID
  2
{FAEB1C32-E019-11D5-929B-00C0DF256EC4}
  9
$EXTNAMES
290
     1
  9
$PSVPSCALE
 40
0.0
  9
$OLESTARTUP
290
     0
  0
ENDSEC
  0
SECTION
  2
CLASSES
  0
CLASS
  1
ACDBDICTIONARYWDFLT
  2
AcDbDictionaryWithDefault
  3
ObjectDBX Classes
 90
        0
280
     0
281
     0
  0
CLASS
  1
VISUALSTYLE
  2
AcDbVisualStyle
  3
ObjectDBX Classes
 90
     4095
280
     0
281
     0
  0
CLASS
  1
SCALE
  2
AcDbScale
  3
ObjectDBX Classes
 90
     1153
280
     0
281
     0
  0
CLASS
  1
DICTIONARYVAR
  2
AcDbDictionaryVar
  3
ObjectDBX Classes
 90
        0
280
     0
281
     0
  0
CLASS
  1
ACDBPLACEHOLDER
  2
AcDbPlaceHolder
  3
ObjectDBX Classes
 90
        0
280
     0
281
     0
  0
CLASS
  1
LAYOUT
  2
AcDbLayout
  3
ObjectDBX Classes
 90
        0
280
     0
281
     0
  0
ENDSEC
  0
SECTION
  2
TABLES
  0
TABLE
  2
VPORT
  5
8
330
0
100
AcDbSymbolTable
 70
     1
  0
VPORT
  5
29
330
8
100
AcDbSymbolTableRecord
100
AcDbViewportTableRecord
  2
*Active
 70
     0
 10
0.0
 20
0.0
 11
1.0
 21
1.0
 12
10.429907
 22
4.5
 13
0.0
 23
0.0
 14
0.5
 24
0.5
 15
0.5
 25
0.5
 16
0.0
 26
0.0
 36
1.0
 17
0.0
 27
0.0
 37
0.0
 40
9.0
 41
1.972973
 42
50.0
 43
0.0
 44
0.0
 50
0.0
 51
0.0
 71
     0
 72
   100
 73
     1
 74
     3
 75
     0
 76
     0
 77
     0
 78
     0
281
     0
 65
     1
110
0.0
120
0.0
130
0.0
111
1.0
121
0.0
131
0.0
112
0.0
122
1.0
132
0.0
 79
     0
146
0.0
  0
ENDTAB
  0
TABLE
  2
LTYPE
  5
5
330
0
100
AcDbSymbolTable
 70
    16
  0
LTYPE
  5
14
330
5
100
AcDbSymbolTableRecord
100
AcDbLinetypeTableRecord
  2
ByBlock
 70
     0
  3

 72
    65
 73
     0
 40
0.0
  0
LTYPE
  5
15
330
5
100
AcDbSymbolTableRecord
100
AcDbLinetypeTableRecord
  2
ByLayer
 70
     0
  3

 72
    65
 73
     0
 40
0.0
  0
LTYPE
  5
16
330
5
100
AcDbSymbolTableRecord
100
AcDbLinetypeTableRecord
  2
Continuous
 70
     0
  3
Solid line
 72
    65
 73
     0
 40
0.0
  0
LTYPE
  5
3B
330
5
100
AcDbSymbolTableRecord
100
AcDbLinetypeTableRecord
  2
PLine1
 70
     0
  3
破線
 72
    65
 73
     2
 40
30.0
 49
21.0
 74
     0
 49
-9.0
 74
     0
  0
LTYPE
  5
3C
330
5
100
AcDbSymbolTableRecord
100
AcDbLinetypeTableRecord
  2
PLine2
 70
     0
  3
一点鎖線
 72
    65
 73
     4
 40
100.0
 49
70.0
 74
     0
 49
-10.0
 74
     0
 49
10.0
 74
     0
 49
-10.0
 74
     0
  0
LTYPE
  5
3D
330
5
100
AcDbSymbolTableRecord
100
AcDbLinetypeTableRecord
  2
PLine3
 70
     0
  3
二点鎖線
 72
    65
 73
     6
 40
100.0
 49
50.0
 74
     0
 49
-10.0
 74
     0
 49
10.0
 74
     0
 49
-10.0
 74
     0
 49
10.0
 74
     0
 49
-10.0
 74
     0
  0
LTYPE
  5
3E
330
5
100
AcDbSymbolTableRecord
100
AcDbLinetypeTableRecord
  2
PLine4
 70
     0
  3
破線1
 72
    65
 73
     2
 40
50.0
 49
35.0
 74
     0
 49
-15.0
 74
     0
  0
LTYPE
  5
3F
330
5
100
AcDbSymbolTableRecord
100
AcDbLinetypeTableRecord
  2
PLine5
 70
     0
  3
一点鎖線1
 72
    65
 73
     4
 40
150.0
 49
105.0
 74
     0
 49
-15.0
 74
     0
 49
15.0
 74
     0
 49
-15.0
 74
     0
  0
LTYPE
  5
40
330
5
100
AcDbSymbolTableRecord
100
AcDbLinetypeTableRecord
  2
PLine6
 70
     0
  3
二点鎖線1
 72
    65
 73
     6
 40
150.0
 49
75.0
 74
     0
 49
-15.0
 74
     0
 49
15.0
 74
     0
 49
-15.0
 74
     0
 49
15.0
 74
     0
 49
-15.0
 74
     0
  0
LTYPE
  5
41
330
5
100
AcDbSymbolTableRecord
100
AcDbLinetypeTableRecord
  2
PLine7
 70
     0
  3
破線2
 72
    65
 73
     2
 40
70.0
 49
49.0
 74
     0
 49
-21.0
 74
     0
  0
LTYPE
  5
42
330
5
100
AcDbSymbolTableRecord
100
AcDbLinetypeTableRecord
  2
PLine8
 70
     0
  3
一点鎖線2
 72
    65
 73
     4
 40
200.0
 49
140.0
 74
     0
 49
-20.0
 74
     0
 49
20.0
 74
     0
 49
-20.0
 74
     0
  0
LTYPE
  5
43
330
5
100
AcDbSymbolTableRecord
100
AcDbLinetypeTableRecord
  2
PLine9
 70
     0
  3
二点鎖線2
 72
    65
 73
     6
 40
200.0
 49
100.0
 74
     0
 49
-20.0
 74
     0
 49
20.0
 74
     0
 49
-20.0
 74
     0
 49
20.0
 74
     0
 49
-20.0
 74
     0
  0
LTYPE
  5
44
330
5
100
AcDbSymbolTableRecord
100
AcDbLinetypeTableRecord
  2
PLine10
 70
     0
  3
破線3
 72
    65
 73
     2
 40
90.0
 49
63.0
 74
     0
 49
-27.0
 74
     0
  0
LTYPE
  5
45
330
5
100
AcDbSymbolTableRecord
100
AcDbLinetypeTableRecord
  2
PLine11
 70
     0
  3
一点鎖線3
 72
    65
 73
     4
 40
250.0
 49
175.0
 74
     0
 49
-25.0
 74
     0
 49
25.0
 74
     0
 49
-25.0
 74
     0
  0
LTYPE
  5
46
330
5
100
AcDbSymbolTableRecord
100
AcDbLinetypeTableRecord
  2
PLine12
 70
     0
  3
二点鎖線3
 72
    65
 73
     6
 40
250.0
 49
125.0
 74
     0
 49
-25.0
 74
     0
 49
25.0
 74
     0
 49
-25.0
 74
     0
 49
25.0
 74
     0
 49
-25.0
 74
     0
  0
LTYPE
  5
47
330
5
100
AcDbSymbolTableRecord
100
AcDbLinetypeTableRecord
  2
PLine13
 70
     0
  3
破線4
 72
    65
 73
     2
 40
110.0
 49
77.0
 74
     0
 49
-33.0
 74
     0
  0
LTYPE
  5
48
330
5
100
AcDbSymbolTableRecord
100
AcDbLinetypeTableRecord
  2
PLine14
 70
     0
  3
一点鎖線4
 72
    65
 73
     4
 40
300.0
 49
210.0
 74
     0
 49
-30.0
 74
     0
 49
30.0
 74
     0
 49
-30.0
 74
     0
  0
LTYPE
  5
49
330
5
100
AcDbSymbolTableRecord
100
AcDbLinetypeTableRecord
  2
PLine15
 70
     0
  3
二点鎖線4
 72
    65
 73
     6
 40
300.0
 49
150.0
 74
     0
 49
-30.0
 74
     0
 49
30.0
 74
     0
 49
-30.0
 74
     0
 49
30.0
 74
     0
 49
-30.0
 74
     0
  0
ENDTAB
  0
TABLE
  2
LAYER
  5
2
330
0
100
AcDbSymbolTable
 70
     2
  0
LAYER
  5
10
330
2
100
AcDbSymbolTableRecord
100
AcDbLayerTableRecord
  2
0
 70
     0
 62
     7
  6
Continuous
370
    -3
390
F
  0
LAYER
  5
4E
330
2
100
AcDbSymbolTableRecord
100
AcDbLayerTableRecord
  2
dxfile
 70
     0
 62
     7
  6
Continuous
370
    -3
390
F
  0
ENDTAB
  0
TABLE
  2
STYLE
  5
3
330
0
100
AcDbSymbolTable
 70
     5
  0
STYLE
  5
11
330
3
100
AcDbSymbolTableRecord
100
AcDbTextStyleTableRecord
  2
Standard
 70
     0
 40
0.0
 41
1.0
 50
0.0
 71
     0
 42
0.2
  3
txt
  4
bigfont
  0
STYLE
  5
4A
330
3
100
AcDbSymbolTableRecord
100
AcDbTextStyleTableRecord
  2
BIGFONT
 70
     0
 40
0.2
 41
1.0
 50
0.0
 71
     0
 42
3.5
  3
monotxt
  4
bigfont
  0
STYLE
  5
4B
330
3
100
AcDbSymbolTableRecord
100
AcDbTextStyleTableRecord
  2
BIG VER
 70
     4
 40
0.2
 41
1.0
 50
0.0
 71
     0
 42
3.5
  3
monotxt
  4
bigfont
  0
STYLE
  5
4C
330
3
100
AcDbSymbolTableRecord
100
AcDbTextStyleTableRecord
  2
EXTFONT
 70
     0
 40
0.2
 41
1.0
 50
0.0
 71
     0
 42
3.5
  3
monotxt
  4
extfont
  0
STYLE
  5
4D
330
3
100
AcDbSymbolTableRecord
100
AcDbTextStyleTableRecord
  2
EXT VER
 70
     4
 40
0.2
 41
1.0
 50
0.0
 71
     0
 42
3.5
  3
monotxt
  4
extfont
  0
ENDTAB
  0
TABLE
  2
VIEW
  5
6
330
0
100
AcDbSymbolTable
 70
     0
  0
ENDTAB
  0
TABLE
  2
UCS
  5
7
330
0
100
AcDbSymbolTable
 70
     0
  0
ENDTAB
  0
TABLE
  2
APPID
  5
9
330
0
100
AcDbSymbolTable
 70
     1
  0
APPID
  5
12
330
9
100
AcDbSymbolTableRecord
100
AcDbRegAppTableRecord
  2
ACAD
 70
     0
  0
ENDTAB
  0
TABLE
  2
DIMSTYLE
  5
A
330
0
100
AcDbSymbolTable
 70
     1
100
AcDbDimStyleTable
  0
DIMSTYLE
105
27
330
A
100
AcDbSymbolTableRecord
100
AcDbDimStyleTableRecord
  2
Standard
 70
     0
340
11
  0
ENDTAB
  0
TABLE
  2
BLOCK_RECORD
  5
1
330
0
100
AcDbSymbolTable
 70
    36
  0
BLOCK_RECORD
  5
1F
330
1
100
AcDbSymbolTableRecord
100
AcDbBlockTableRecord
  2
*Model_Space
340
22
  0
BLOCK_RECORD
  5
1B
330
1
100
AcDbSymbolTableRecord
100
AcDbBlockTableRecord
  2
*Paper_Space
340
1E
  0
BLOCK_RECORD
  5
23
330
1
100
AcDbSymbolTableRecord
100
AcDbBlockTableRecord
  2
*Paper_Space0
340
26
  0
BLOCK_RECORD
  5
C1
330
1
100
AcDbSymbolTableRecord
100
AcDbBlockTableRecord
  2
DIM_0
340
0
102
{BLKREFS
331
CA
102
}
  0
BLOCK_RECORD
  5
118
330
1
100
AcDbSymbolTableRecord
100
AcDbBlockTableRecord
  2
DIM_1
340
0
102
{BLKREFS
331
121
102
}
  0
BLOCK_RECORD
  5
1BC
330
1
100
AcDbSymbolTableRecord
100
AcDbBlockTableRecord
  2
DIM_2
340
0
102
{BLKREFS
331
1C5
102
}
  0
BLOCK_RECORD
  5
2BB
330
1
100
AcDbSymbolTableRecord
100
AcDbBlockTableRecord
  2
DIM_3
340
0
102
{BLKREFS
331
2C4
102
}
  0
BLOCK_RECORD
  5
2C5
330
1
100
AcDbSymbolTableRecord
100
AcDbBlockTableRecord
  2
DIM_4
340
0
102
{BLKREFS
331
2CE
102
}
  0
BLOCK_RECORD
  5
2E2
330
1
100
AcDbSymbolTableRecord
100
AcDbBlockTableRecord
  2
DIM_5
340
0
102
{BLKREFS
331
2EB
102
}
  0
BLOCK_RECORD
  5
3DD
330
1
100
AcDbSymbolTableRecord
100
AcDbBlockTableRecord
  2
DIM_6
340
0
102
{BLKREFS
331
3E6
102
}
  0
BLOCK_RECORD
  5
3E7
330
1
100
AcDbSymbolTableRecord
100
AcDbBlockTableRecord
  2
DIM_7
340
0
102
{BLKREFS
331
3F0
102
}
  0
BLOCK_RECORD
  5
3F1
330
1
100
AcDbSymbolTableRecord
100
AcDbBlockTableRecord
  2
DIM_8
340
0
102
{BLKREFS
331
3FA
102
}
  0
BLOCK_RECORD
  5
3FF
330
1
100
AcDbSymbolTableRecord
100
AcDbBlockTableRecord
  2
DIM_9
340
0
102
{BLKREFS
331
408
102
}
  0
BLOCK_RECORD
  5
409
330
1
100
AcDbSymbolTableRecord
100
AcDbBlockTableRecord
  2
DIM_10
340
0
102
{BLKREFS
331
412
102
}
  0
BLOCK_RECORD
  5
417
330
1
100
AcDbSymbolTableRecord
100
AcDbBlockTableRecord
  2
DIM_11
340
0
102
{BLKREFS
331
420
102
}
  0
BLOCK_RECORD
  5
458
330
1
100
AcDbSymbolTableRecord
100
AcDbBlockTableRecord
  2
DIM_12
340
0
102
{BLKREFS
331
461
102
}
  0
BLOCK_RECORD
  5
472
330
1
100
AcDbSymbolTableRecord
100
AcDbBlockTableRecord
  2
DIM_13
340
0
102
{BLKREFS
331
47B
102
}
  0
BLOCK_RECORD
  5
47C
330
1
100
AcDbSymbolTableRecord
100
AcDbBlockTableRecord
  2
DIM_14
340
0
102
{BLKREFS
331
485
102
}
  0
BLOCK_RECORD
  5
4A1
330
1
100
AcDbSymbolTableRecord
100
AcDbBlockTableRecord
  2
DIM_15
340
0
102
{BLKREFS
331
4AA
102
}
  0
BLOCK_RECORD
  5
4AD
330
1
100
AcDbSymbolTableRecord
100
AcDbBlockTableRecord
  2
DIM_16
340
0
102
{BLKREFS
331
4B6
102
}
  0
BLOCK_RECORD
  5
4B7
330
1
100
AcDbSymbolTableRecord
100
AcDbBlockTableRecord
  2
DIM_17
340
0
102
{BLKREFS
331
4C0
102
}
  0
BLOCK_RECORD
  5
4C1
330
1
100
AcDbSymbolTableRecord
100
AcDbBlockTableRecord
  2
DIM_18
340
0
102
{BLKREFS
331
4CA
102
}
  0
BLOCK_RECORD
  5
4F1
330
1
100
AcDbSymbolTableRecord
100
AcDbBlockTableRecord
  2
DIM_19
340
0
102
{BLKREFS
331
4FA
102
}
  0
BLOCK_RECORD
  5
4FD
330
1
100
AcDbSymbolTableRecord
100
AcDbBlockTableRecord
  2
DIM_20
340
0
102
{BLKREFS
331
506
102
}
  0
BLOCK_RECORD
  5
507
330
1
100
AcDbSymbolTableRecord
100
AcDbBlockTableRecord
  2
DIM_21
340
0
102
{BLKREFS
331
510
102
}
  0
BLOCK_RECORD
  5
511
330
1
100
AcDbSymbolTableRecord
100
AcDbBlockTableRecord
  2
DIM_22
340
0
102
{BLKREFS
331
51A
102
}
  0
BLOCK_RECORD
  5
531
330
1
100
AcDbSymbolTableRecord
100
AcDbBlockTableRecord
  2
DIM_23
340
0
102
{BLKREFS
331
53A
102
}
  0
BLOCK_RECORD
  5
53D
330
1
100
AcDbSymbolTableRecord
100
AcDbBlockTableRecord
  2
DIM_24
340
0
102
{BLKREFS
331
546
102
}
  0
BLOCK_RECORD
  5
547
330
1
100
AcDbSymbolTableRecord
100
AcDbBlockTableRecord
  2
DIM_25
340
0
102
{BLKREFS
331
550
102
}
  0
BLOCK_RECORD
  5
551
330
1
100
AcDbSymbolTableRecord
100
AcDbBlockTableRecord
  2
DIM_26
340
0
102
{BLKREFS
331
55A
102
}
  0
BLOCK_RECORD
  5
572
330
1
100
AcDbSymbolTableRecord
100
AcDbBlockTableRecord
  2
DIM_27
340
0
102
{BLKREFS
331
57B
102
}
  0
BLOCK_RECORD
  5
581
330
1
100
AcDbSymbolTableRecord
100
AcDbBlockTableRecord
  2
DIM_28
340
0
102
{BLKREFS
331
58A
102
}
  0
BLOCK_RECORD
  5
5AB
330
1
100
AcDbSymbolTableRecord
100
AcDbBlockTableRecord
  2
DIM_29
340
0
102
{BLKREFS
331
5B4
102
}
  0
BLOCK_RECORD
  5
5B5
330
1
100
AcDbSymbolTableRecord
100
AcDbBlockTableRecord
  2
DIM_30
340
0
102
{BLKREFS
331
5BE
102
}
  0
BLOCK_RECORD
  5
5D4
330
1
100
AcDbSymbolTableRecord
100
AcDbBlockTableRecord
  2
DIM_31
340
0
102
{BLKREFS
331
5DB
102
}
  0
BLOCK_RECORD
  5
5DC
330
1
100
AcDbSymbolTableRecord
100
AcDbBlockTableRecord
  2
DIM_32
340
0
102
{BLKREFS
331
5E5
102
}
  0
BLOCK_RECORD
  5
5E6
330
1
100
AcDbSymbolTableRecord
100
AcDbBlockTableRecord
  2
DIM_33
340
0
102
{BLKREFS
331
5EF
102
}
  0
BLOCK_RECORD
  5
5F0
330
1
100
AcDbSymbolTableRecord
100
AcDbBlockTableRecord
  2
DIM_34
340
0
102
{BLKREFS
331
5F9
102
}
  0
ENDTAB
  0
ENDSEC
  0
SECTION
  2
BLOCKS
  0
BLOCK
  5
20
330
1F
100
AcDbEntity
  8
0
100
AcDbBlockBegin
  2
*Model_Space
 70
     0
 10
0.0
 20
0.0
 30
0.0
  3
*Model_Space
  1

  0
ENDBLK
  5
21
330
1F
100
AcDbEntity
  8
0
100
AcDbBlockEnd
  0
BLOCK
  5
1C
330
1B
100
AcDbEntity
 67
     1
  8
0
100
AcDbBlockBegin
  2
*Paper_Space
 70
     0
 10
0.0
 20
0.0
 30
0.0
  3
*Paper_Space
  1

  0
ENDBLK
  5
1D
330
1B
100
AcDbEntity
 67
     1
  8
0
100
AcDbBlockEnd
  0
BLOCK
  5
24
330
23
100
AcDbEntity
  8
0
100
AcDbBlockBegin
  2
*Paper_Space0
 70
     0
 10
0.0
 20
0.0
 30
0.0
  3
*Paper_Space0
  1

  0
ENDBLK
  5
25
330
23
100
AcDbEntity
  8
0
100
AcDbBlockEnd
  0
BLOCK
  5
C2
330
C1
100
AcDbEntity
  8
0
100
AcDbBlockBegin
  2
DIM_0
 70
     0
 10
377.925124
 20
729.142913
 30
0.0
  3
DIM_0
  1

  0
CIRCLE
  5
C4
330
C1
100
AcDbEntity
  8
dxfile
  6
Continuous
 62
     3
100
AcDbCircle
 10
377.925124
 20
737.054543
 30
0.0
 40
4.0
  0
CIRCLE
  5
C5
330
C1
100
AcDbEntity
  8
dxfile
  6
Continuous
 62
     3
100
AcDbCircle
 10
402.925124
 20
737.054543
 30
0.0
 40
4.0
  0
LINE
  5
C6
330
C1
100
AcDbEntity
  8
dxfile
  6
Continuous
 62
     3
100
AcDbLine
 10
377.925124
 20
737.054543
 30
0.0
 11
402.925124
 21
737.054543
 31
0.0
  0
LINE
  5
C7
330
C1
100
AcDbEntity
  8
dxfile
  6
Continuous
 62
     3
100
AcDbLine
 10
377.925124
 20
729.142913
 30
0.0
 11
377.925124
 21
747.054543
 31
0.0
  0
LINE
  5
C8
330
C1
100
AcDbEntity
  8
dxfile
  6
Continuous
 62
     3
100
AcDbLine
 10
402.925124
 20
726.960127
 30
0.0
 11
402.925124
 21
747.054543
 31
0.0
  0
TEXT
  5
C9
330
C1
100
AcDbEntity
  8
dxfile
  6
Continuous
 62
     3
100
AcDbText
 10
411.405993
 20
723.716009
 30
0.0
 40
30.0
  1
２５
 41
0.858268
  7
BIGFONT
 72
     1
 11
431.636589
 21
738.716009
 31
0.0
100
AcDbText
 73
     2
  0
ENDBLK
  5
C3
330
C1
100
AcDbEntity
  8
0
100
AcDbBlockEnd
  0
BLOCK
  5
119
330
118
100
AcDbEntity
  8
0
100
AcDbBlockBegin
  2
DIM_1
 70
     0
 10
392.925124
 20
1007.244037
 30
0.0
  3
DIM_1
  1

  0
CIRCLE
  5
11B
330
118
100
AcDbEntity
  8
dxfile
  6
Continuous
 62
     3
100
AcDbCircle
 10
392.925124
 20
1351.866602
 30
0.0
 40
5.0
  0
CIRCLE
  5
11C
330
118
100
AcDbEntity
  8
dxfile
  6
Continuous
 62
     3
100
AcDbCircle
 10
1292.925124
 20
1351.866602
 30
0.0
 40
5.0
  0
LINE
  5
11D
330
118
100
AcDbEntity
  8
dxfile
  6
Continuous
 62
     3
100
AcDbLine
 10
392.925124
 20
1351.866602
 30
0.0
 11
1292.925124
 21
1351.866602
 31
0.0
  0
LINE
  5
11E
330
118
100
AcDbEntity
  8
dxfile
  6
Continuous
 62
     3
100
AcDbLine
 10
392.925124
 20
1007.244037
 30
0.0
 11
392.925124
 21
1361.866602
 31
0.0
  0
LINE
  5
11F
330
118
100
AcDbEntity
  8
dxfile
  6
Continuous
 62
     3
100
AcDbLine
 10
1292.925124
 20
1002.689553
 30
0.0
 11
1292.925124
 21
1361.866602
 31
0.0
  0
TEXT
  5
120
330
118
100
AcDbEntity
  8
dxfile
  6
Continuous
 62
     3
100
AcDbText
 10
745.450434
 20
1356.866602
 30
0.0
 40
30.0
  1
φＡＢ型ドーム寸法
 41
0.858268
  7
BIGFONT
 72
     1
 11
842.925124
 21
1356.866602
 31
0.0
100
AcDbText
  0
ENDBLK
  5
11A
330
118
100
AcDbEntity
  8
0
100
AcDbBlockEnd
  0
BLOCK
  5
1BD
330
1BC
100
AcDbEntity
  8
0
100
AcDbBlockBegin
  2
DIM_2
 70
     0
 10
357.925124
 20
1010.689601
 30
0.0
  3
DIM_2
  1

  0
CIRCLE
  5
1BF
330
1BC
100
AcDbEntity
  8
dxfile
  6
Continuous
 62
     3
100
AcDbCircle
 10
357.925124
 20
1059.821323
 30
0.0
 40
5.0
  0
CIRCLE
  5
1C0
330
1BC
100
AcDbEntity
  8
dxfile
  6
Continuous
 62
     3
100
AcDbCircle
 10
392.925124
 20
1059.821323
 30
0.0
 40
5.0
  0
LINE
  5
1C1
330
1BC
100
AcDbEntity
  8
dxfile
  6
Continuous
 62
     3
100
AcDbLine
 10
357.925124
 20
1059.821323
 30
0.0
 11
392.925124
 21
1059.821323
 31
0.0
  0
LINE
  5
1C2
330
1BC
100
AcDbEntity
  8
dxfile
  6
Continuous
 62
     3
100
AcDbLine
 10
357.925124
 20
1010.689601
 30
0.0
 11
357.925124
 21
1069.821323
 31
0.0
  0
LINE
  5
1C3
330
1BC
100
AcDbEntity
  8
dxfile
  6
Continuous
 62
     3
100
AcDbLine
 10
392.925124
 20
1117.375054
 30
0.0
 11
392.925124
 21
1049.821323
 31
0.0
  0
TEXT
  5
1C4
330
1BC
100
AcDbEntity
  8
dxfile
  6
Continuous
 62
     3
100
AcDbText
 10
339.207324
 20
1065.531866
 30
0.0
 40
30.0
  1
３５
 41
0.858268
 51
0.0
  7
BIGFONT
 72
     1
 11
359.43792
 21
1080.531866
 31
0.0
100
AcDbText
 73
     2
  0
ENDBLK
  5
1BE
330
1BC
100
AcDbEntity
  8
0
100
AcDbBlockEnd
  0
BLOCK
  5
2BC
330
2BB
100
AcDbEntity
  8
0
100
AcDbBlockBegin
  2
DIM_3
 70
     0
 10
377.925124
 20
627.403681
 30
0.0
  3
DIM_3
  1

  0
CIRCLE
  5
2BE
330
2BB
100
AcDbEntity
  8
dxfile
  6
Continuous
 62
     3
100
AcDbCircle
 10
377.925124
 20
506.411424
 30
0.0
 40
5.0
  0
CIRCLE
  5
2BF
330
2BB
100
AcDbEntity
  8
dxfile
  6
Continuous
 62
     3
100
AcDbCircle
 10
1307.925124
 20
506.411424
 30
0.0
 40
5.0
  0
LINE
  5
2C0
330
2BB
100
AcDbEntity
  8
dxfile
  6
Continuous
 62
     3
100
AcDbLine
 10
377.925124
 20
506.411424
 30
0.0
 11
1307.925124
 21
506.411424
 31
0.0
  0
LINE
  5
2C1
330
2BB
100
AcDbEntity
  8
dxfile
  6
Continuous
 62
     3
100
AcDbLine
 10
377.925124
 20
627.403681
 30
0.0
 11
377.925124
 21
496.411424
 31
0.0
  0
LINE
  5
2C2
330
2BB
100
AcDbEntity
  8
dxfile
  6
Continuous
 62
     3
100
AcDbLine
 10
1307.925124
 20
627.403681
 30
0.0
 11
1307.925124
 21
496.411424
 31
0.0
  0
TEXT
  5
2C3
330
2BB
100
AcDbEntity
  8
dxfile
  6
Continuous
 62
     3
100
AcDbText
 10
756.485304
 20
511.411424
 30
0.0
 40
30.0
  1
Ｊ　躯体開口寸法
 41
0.858268
  7
BIGFONT
 72
     1
 11
842.925124
 21
511.411424
 31
0.0
100
AcDbText
  0
ENDBLK
  5
2BD
330
2BB
100
AcDbEntity
  8
0
100
AcDbBlockEnd
  0
BLOCK
  5
2C6
330
2C5
100
AcDbEntity
  8
0
100
AcDbBlockBegin
  2
DIM_4
 70
     0
 10
277.925124
 20
870.847504
 30
0.0
  3
DIM_4
  1

  0
CIRCLE
  5
2C8
330
2C5
100
AcDbEntity
  8
dxfile
  6
Continuous
 62
     3
100
AcDbCircle
 10
277.925124
 20
411.52642
 30
0.0
 40
5.0
  0
CIRCLE
  5
2C9
330
2C5
100
AcDbEntity
  8
dxfile
  6
Continuous
 62
     3
100
AcDbCircle
 10
1407.925124
 20
411.52642
 30
0.0
 40
5.0
  0
LINE
  5
2CA
330
2C5
100
AcDbEntity
  8
dxfile
  6
Continuous
 62
     3
100
AcDbLine
 10
277.925124
 20
411.52642
 30
0.0
 11
1407.925124
 21
411.52642
 31
0.0
  0
LINE
  5
2CB
330
2C5
100
AcDbEntity
  8
dxfile
  6
Continuous
 62
     3
100
AcDbLine
 10
277.925124
 20
870.847504
 30
0.0
 11
277.925124
 21
401.52642
 31
0.0
  0
LINE
  5
2CC
330
2C5
100
AcDbEntity
  8
dxfile
  6
Continuous
 62
     3
100
AcDbLine
 10
1407.925124
 20
870.847504
 30
0.0
 11
1407.925124
 21
401.52642
 31
0.0
  0
TEXT
  5
2CD
330
2C5
100
AcDbEntity
  8
dxfile
  6
Continuous
 62
     3
100
AcDbText
 10
756.485304
 20
416.52642
 30
0.0
 40
30.0
  1
Ｗ　フレーム寸法
 41
0.858268
  7
BIGFONT
 72
     1
 11
842.925124
 21
416.52642
 31
0.0
100
AcDbText
  0
ENDBLK
  5
2C7
330
2C5
100
AcDbEntity
  8
0
100
AcDbBlockEnd
  0
BLOCK
  5
2E3
330
2E2
100
AcDbEntity
  8
0
100
AcDbBlockBegin
  2
DIM_5
 70
     0
 10
227.925124
 20
636.383313
 30
0.0
  3
DIM_5
  1

  0
CIRCLE
  5
2E5
330
2E2
100
AcDbEntity
  8
dxfile
  6
Continuous
 62
     3
100
AcDbCircle
 10
227.925124
 20
567.203774
 30
0.0
 40
5.0
  0
CIRCLE
  5
2E6
330
2E2
100
AcDbEntity
  8
dxfile
  6
Continuous
 62
     3
100
AcDbCircle
 10
377.925124
 20
567.203774
 30
0.0
 40
5.0
  0
LINE
  5
2E7
330
2E2
100
AcDbEntity
  8
dxfile
  6
Continuous
 62
     3
100
AcDbLine
 10
227.925124
 20
567.203774
 30
0.0
 11
377.925124
 21
567.203774
 31
0.0
  0
LINE
  5
2E8
330
2E2
100
AcDbEntity
  8
dxfile
  6
Continuous
 62
     3
100
AcDbLine
 10
227.925124
 20
636.383313
 30
0.0
 11
227.925124
 21
557.203774
 31
0.0
  0
LINE
  5
2E9
330
2E2
100
AcDbEntity
  8
dxfile
  6
Continuous
 62
     3
100
AcDbLine
 10
377.925124
 20
579.640545
 30
0.0
 11
377.925124
 21
557.203774
 31
0.0
  0
TEXT
  5
2EA
330
2E2
100
AcDbEntity
  8
dxfile
  6
Continuous
 62
     3
100
AcDbText
 10
287.982919
 20
572.203774
 30
0.0
 40
30.0
  1
１５０
 41
0.858268
 51
0.0
  7
BIGFONT
 72
     1
 11
319.248386
 21
587.203774
 31
0.0
100
AcDbText
 73
     2
  0
ENDBLK
  5
2E4
330
2E2
100
AcDbEntity
  8
0
100
AcDbBlockEnd
  0
BLOCK
  5
3DE
330
3DD
100
AcDbEntity
  8
0
100
AcDbBlockBegin
  2
DIM_6
 70
     0
 10
3330.824341
 20
1127.360374
 30
0.0
  3
DIM_6
  1

  0
CIRCLE
  5
3E0
330
3DD
100
AcDbEntity
  8
dxfile
  6
Continuous
 62
     3
100
AcDbCircle
 10
3330.824341
 20
1096.268446
 30
0.0
 40
5.0
  0
CIRCLE
  5
3E1
330
3DD
100
AcDbEntity
  8
dxfile
  6
Continuous
 62
     3
100
AcDbCircle
 10
3530.824341
 20
1096.268446
 30
0.0
 40
5.0
  0
LINE
  5
3E2
330
3DD
100
AcDbEntity
  8
dxfile
  6
Continuous
 62
     3
100
AcDbLine
 10
3330.824341
 20
1096.268446
 30
0.0
 11
3530.824341
 21
1096.268446
 31
0.0
  0
LINE
  5
3E3
330
3DD
100
AcDbEntity
  8
dxfile
  6
Continuous
 62
     3
100
AcDbLine
 10
3330.824341
 20
1127.360374
 30
0.0
 11
3330.824341
 21
1086.268446
 31
0.0
  0
LINE
  5
3E4
330
3DD
100
AcDbEntity
  8
dxfile
  6
Continuous
 62
     3
100
AcDbLine
 10
3530.824341
 20
1129.30362
 30
0.0
 11
3530.824341
 21
1086.268446
 31
0.0
  0
TEXT
  5
3E5
330
3DD
100
AcDbEntity
  8
dxfile
  6
Continuous
 62
     3
100
AcDbText
 10
3410.593745
 20
1101.268446
 30
0.0
 40
30.0
  1
４０
 41
0.858268
 51
0.0
  7
BIGFONT
 72
     1
 11
3430.824341
 21
1101.268446
 31
0.0
100
AcDbText
  0
ENDBLK
  5
3DF
330
3DD
100
AcDbEntity
  8
0
100
AcDbBlockEnd
  0
BLOCK
  5
3E8
330
3E7
100
AcDbEntity
  8
0
100
AcDbBlockBegin
  2
DIM_7
 70
     0
 10
3430.824341
 20
2158.542746
 30
0.0
  3
DIM_7
  1

  0
CIRCLE
  5
3EA
330
3E7
100
AcDbEntity
  8
dxfile
  6
Continuous
 62
     3
100
AcDbCircle
 10
3430.824341
 20
2260.563119
 30
0.0
 40
5.0
  0
CIRCLE
  5
3EB
330
3E7
100
AcDbEntity
  8
dxfile
  6
Continuous
 62
     3
100
AcDbCircle
 10
3605.824341
 20
2260.563119
 30
0.0
 40
5.0
  0
LINE
  5
3EC
330
3E7
100
AcDbEntity
  8
dxfile
  6
Continuous
 62
     3
100
AcDbLine
 10
3430.824341
 20
2260.563119
 30
0.0
 11
3605.824341
 21
2260.563119
 31
0.0
  0
LINE
  5
3ED
330
3E7
100
AcDbEntity
  8
dxfile
  6
Continuous
 62
     3
100
AcDbLine
 10
3430.824341
 20
2158.542746
 30
0.0
 11
3430.824341
 21
2270.563119
 31
0.0
  0
LINE
  5
3EE
330
3E7
100
AcDbEntity
  8
dxfile
  6
Continuous
 62
     3
100
AcDbLine
 10
3605.824341
 20
2083.241995
 30
0.0
 11
3605.824341
 21
2270.563119
 31
0.0
  0
TEXT
  5
3EF
330
3E7
100
AcDbEntity
  8
dxfile
  6
Continuous
 62
     3
100
AcDbText
 10
3498.093745
 20
2265.563119
 30
0.0
 40
30.0
  1
３５
 41
0.858268
 51
0.0
  7
BIGFONT
 72
     1
 11
3518.324341
 21
2265.563119
 31
0.0
100
AcDbText
  0
ENDBLK
  5
3E9
330
3E7
100
AcDbEntity
  8
0
100
AcDbBlockEnd
  0
BLOCK
  5
3F2
330
3F1
100
AcDbEntity
  8
0
100
AcDbBlockBegin
  2
DIM_8
 70
     0
 10
3105.824341
 20
2083.241995
 30
0.0
  3
DIM_8
  1

  0
CIRCLE
  5
3F4
330
3F1
100
AcDbEntity
  8
dxfile
  6
Continuous
 62
     3
100
AcDbCircle
 10
3105.824341
 20
2396.590283
 30
0.0
 40
5.0
  0
CIRCLE
  5
3F5
330
3F1
100
AcDbEntity
  8
dxfile
  6
Continuous
 62
     3
100
AcDbCircle
 10
3605.824341
 20
2396.590283
 30
0.0
 40
5.0
  0
LINE
  5
3F6
330
3F1
100
AcDbEntity
  8
dxfile
  6
Continuous
 62
     3
100
AcDbLine
 10
3105.824341
 20
2396.590283
 30
0.0
 11
3605.824341
 21
2396.590283
 31
0.0
  0
LINE
  5
3F7
330
3F1
100
AcDbEntity
  8
dxfile
  6
Continuous
 62
     3
100
AcDbLine
 10
3105.824341
 20
2083.241995
 30
0.0
 11
3105.824341
 21
2406.590283
 31
0.0
  0
LINE
  5
3F8
330
3F1
100
AcDbEntity
  8
dxfile
  6
Continuous
 62
     3
100
AcDbLine
 10
3605.824341
 20
2245.98878
 30
0.0
 11
3605.824341
 21
2406.590283
 31
0.0
  0
TEXT
  5
3F9
330
3F1
100
AcDbEntity
  8
dxfile
  6
Continuous
 62
     3
100
AcDbText
 10
3353.468846
 20
2399.724766
 30
0.0
 40
30.0
  1
Ｄ
 41
0.858268
  7
BIGFONT
 72
     1
 11
3362.664571
 21
2414.724766
 31
0.0
100
AcDbText
 73
     2
  0
ENDBLK
  5
3F3
330
3F1
100
AcDbEntity
  8
0
100
AcDbBlockEnd
  0
BLOCK
  5
400
330
3FF
100
AcDbEntity
  8
0
100
AcDbBlockBegin
  2
DIM_9
 70
     0
 10
3089.031606
 20
2070.02405
 30
0.0
  3
DIM_9
  1

  0
CIRCLE
  5
402
330
3FF
100
AcDbEntity
  8
dxfile
  6
Continuous
 62
     3
100
AcDbCircle
 10
2879.525514
 20
2070.02405
 30
0.0
 40
5.0
  0
CIRCLE
  5
403
330
3FF
100
AcDbEntity
  8
dxfile
  6
Continuous
 62
     3
100
AcDbCircle
 10
2879.525514
 20
1870.02405
 30
0.0
 40
5.0
  0
LINE
  5
404
330
3FF
100
AcDbEntity
  8
dxfile
  6
Continuous
 62
     3
100
AcDbLine
 10
2879.525514
 20
2070.02405
 30
0.0
 11
2879.525514
 21
1870.02405
 31
0.0
  0
LINE
  5
405
330
3FF
100
AcDbEntity
  8
dxfile
  6
Continuous
 62
     3
100
AcDbLine
 10
3089.031606
 20
2070.02405
 30
0.0
 11
2869.525514
 21
2070.02405
 31
0.0
  0
LINE
  5
406
330
3FF
100
AcDbEntity
  8
dxfile
  6
Continuous
 62
     3
100
AcDbLine
 10
3011.605442
 20
1870.02405
 30
0.0
 11
2869.525514
 21
1870.02405
 31
0.0
  0
TEXT
  5
407
330
3FF
100
AcDbEntity
  8
dxfile
  6
Continuous
 62
     3
100
AcDbText
 10
2874.525514
 20
1949.793454
 30
0.0
 40
30.0
  1
４０
 50
90.0
 41
0.858268
 51
0.0
  7
BIGFONT
 72
     1
 11
2874.525514
 21
1970.02405
 31
0.0
100
AcDbText
  0
ENDBLK
  5
401
330
3FF
100
AcDbEntity
  8
0
100
AcDbBlockEnd
  0
BLOCK
  5
40A
330
409
100
AcDbEntity
  8
0
100
AcDbBlockBegin
  2
DIM_10
 70
     0
 10
3530.824341
 20
1915.609989
 30
0.0
  3
DIM_10
  1

  0
CIRCLE
  5
40C
330
409
100
AcDbEntity
  8
dxfile
  6
Continuous
 62
     3
100
AcDbCircle
 10
3530.824341
 20
1983.623542
 30
0.0
 40
5.0
  0
CIRCLE
  5
40D
330
409
100
AcDbEntity
  8
dxfile
  6
Continuous
 62
     3
100
AcDbCircle
 10
3590.824341
 20
1983.623542
 30
0.0
 40
5.0
  0
LINE
  5
40E
330
409
100
AcDbEntity
  8
dxfile
  6
Continuous
 62
     3
100
AcDbLine
 10
3530.824341
 20
1983.623542
 30
0.0
 11
3590.824341
 21
1983.623542
 31
0.0
  0
LINE
  5
40F
330
409
100
AcDbEntity
  8
dxfile
  6
Continuous
 62
     3
100
AcDbLine
 10
3530.824341
 20
1915.609989
 30
0.0
 11
3530.824341
 21
1993.623542
 31
0.0
  0
LINE
  5
410
330
409
100
AcDbEntity
  8
dxfile
  6
Continuous
 62
     3
100
AcDbLine
 10
3590.824341
 20
1892.533962
 30
0.0
 11
3590.824341
 21
1993.623542
 31
0.0
  0
TEXT
  5
411
330
409
100
AcDbEntity
  8
dxfile
  6
Continuous
 62
     3
100
AcDbText
 10
3575.914182
 20
1995.588135
 30
0.0
 40
30.0
  1
１２
 41
0.858268
 51
0.0
  7
BIGFONT
 72
     1
 11
3596.144778
 21
2010.588135
 31
0.0
100
AcDbText
 73
     2
  0
ENDBLK
  5
40B
330
409
100
AcDbEntity
  8
0
100
AcDbBlockEnd
  0
BLOCK
  5
418
330
417
100
AcDbEntity
  8
0
100
AcDbBlockBegin
  2
DIM_11
 70
     0
 10
2780.824341
 20
626.936815
 30
0.0
  3
DIM_11
  1

  0
CIRCLE
  5
41A
330
417
100
AcDbEntity
  8
dxfile
  6
Continuous
 62
     3
100
AcDbCircle
 10
2780.824341
 20
619.346017
 30
0.0
 40
5.0
  0
CIRCLE
  5
41B
330
417
100
AcDbEntity
  8
dxfile
  6
Continuous
 62
     3
100
AcDbCircle
 10
3530.824341
 20
619.346017
 30
0.0
 40
5.0
  0
LINE
  5
41C
330
417
100
AcDbEntity
  8
dxfile
  6
Continuous
 62
     3
100
AcDbLine
 10
2780.824341
 20
619.346017
 30
0.0
 11
3530.824341
 21
619.346017
 31
0.0
  0
LINE
  5
41D
330
417
100
AcDbEntity
  8
dxfile
  6
Continuous
 62
     3
100
AcDbLine
 10
2780.824341
 20
626.936815
 30
0.0
 11
2780.824341
 21
609.346017
 31
0.0
  0
LINE
  5
41E
330
417
100
AcDbEntity
  8
dxfile
  6
Continuous
 62
     3
100
AcDbLine
 10
3530.824341
 20
642.118411
 30
0.0
 11
3530.824341
 21
609.346017
 31
0.0
  0
TEXT
  5
41F
330
417
100
AcDbEntity
  8
dxfile
  6
Continuous
 62
     3
100
AcDbText
 10
3225.136947
 20
626.243716
 30
0.0
 40
30.0
  1
１５０
 41
0.858268
 51
0.0
  7
BIGFONT
 72
     1
 11
3256.402414
 21
641.243716
 31
0.0
100
AcDbText
 73
     2
  0
ENDBLK
  5
419
330
417
100
AcDbEntity
  8
0
100
AcDbBlockEnd
  0
BLOCK
  5
459
330
458
100
AcDbEntity
  8
0
100
AcDbBlockBegin
  2
DIM_12
 70
     0
 10
3530.824341
 20
1108.017395
 30
0.0
  3
DIM_12
  1

  0
CIRCLE
  5
45B
330
458
100
AcDbEntity
  8
dxfile
  6
Continuous
 62
     3
100
AcDbCircle
 10
3530.824341
 20
1096.268446
 30
0.0
 40
5.0
  0
CIRCLE
  5
45C
330
458
100
AcDbEntity
  8
dxfile
  6
Continuous
 62
     3
100
AcDbCircle
 10
3655.824341
 20
1096.268446
 30
0.0
 40
5.0
  0
LINE
  5
45D
330
458
100
AcDbEntity
  8
dxfile
  6
Continuous
 62
     3
100
AcDbLine
 10
3530.824341
 20
1096.268446
 30
0.0
 11
3655.824341
 21
1096.268446
 31
0.0
  0
LINE
  5
45E
330
458
100
AcDbEntity
  8
dxfile
  6
Continuous
 62
     3
100
AcDbLine
 10
3530.824341
 20
1108.017395
 30
0.0
 11
3530.824341
 21
1086.268446
 31
0.0
  0
LINE
  5
45F
330
458
100
AcDbEntity
  8
dxfile
  6
Continuous
 62
     3
100
AcDbLine
 10
3655.824341
 20
1108.989018
 30
0.0
 11
3655.824341
 21
1086.268446
 31
0.0
  0
TEXT
  5
460
330
458
100
AcDbEntity
  8
dxfile
  6
Continuous
 62
     3
100
AcDbText
 10
3573.093745
 20
1101.268446
 30
0.0
 40
30.0
  1
２５
 41
0.858268
 51
0.0
  7
BIGFONT
 72
     1
 11
3593.324341
 21
1101.268446
 31
0.0
100
AcDbText
  0
ENDBLK
  5
45A
330
458
100
AcDbEntity
  8
0
100
AcDbBlockEnd
  0
BLOCK
  5
473
330
472
100
AcDbEntity
  8
0
100
AcDbBlockBegin
  2
DIM_13
 70
     0
 10
788.194066
 20
1236.621719
 30
0.0
  3
DIM_13
  1

  0
CIRCLE
  5
475
330
472
100
AcDbEntity
  8
dxfile
  6
Continuous
 62
     3
100
AcDbCircle
 10
203.24602
 20
1236.621719
 30
0.0
 40
5.0
  0
CIRCLE
  5
476
330
472
100
AcDbEntity
  8
dxfile
  6
Continuous
 62
     3
100
AcDbCircle
 10
203.24602
 20
986.621719
 30
0.0
 40
5.0
  0
LINE
  5
477
330
472
100
AcDbEntity
  8
dxfile
  6
Continuous
 62
     3
100
AcDbLine
 10
203.24602
 20
1236.621719
 30
0.0
 11
203.24602
 21
986.621719
 31
0.0
  0
LINE
  5
478
330
472
100
AcDbEntity
  8
dxfile
  6
Continuous
 62
     3
100
AcDbLine
 10
788.194066
 20
1236.621719
 30
0.0
 11
193.24602
 21
1236.621719
 31
0.0
  0
LINE
  5
479
330
472
100
AcDbEntity
  8
dxfile
  6
Continuous
 62
     3
100
AcDbLine
 10
282.06883
 20
986.621719
 30
0.0
 11
193.24602
 21
986.621719
 31
0.0
  0
TEXT
  5
47A
330
472
100
AcDbEntity
  8
dxfile
  6
Continuous
 62
     3
100
AcDbText
 10
198.24602
 20
1102.425994
 30
0.0
 40
30.0
  1
Ｈ
 50
90.0
 41
0.858268
  7
BIGFONT
 72
     1
 11
198.24602
 21
1111.621719
 31
0.0
100
AcDbText
  0
ENDBLK
  5
474
330
472
100
AcDbEntity
  8
0
100
AcDbBlockEnd
  0
BLOCK
  5
47D
330
47C
100
AcDbEntity
  8
0
100
AcDbBlockBegin
  2
DIM_14
 70
     0
 10
337.925124
 20
810.655418
 30
0.0
  3
DIM_14
  1

  0
CIRCLE
  5
47F
330
47C
100
AcDbEntity
  8
dxfile
  6
Continuous
 62
     3
100
AcDbCircle
 10
337.925124
 20
737.054543
 30
0.0
 40
5.0
  0
CIRCLE
  5
480
330
47C
100
AcDbEntity
  8
dxfile
  6
Continuous
 62
     3
100
AcDbCircle
 10
377.925124
 20
737.054543
 30
0.0
 40
5.0
  0
LINE
  5
481
330
47C
100
AcDbEntity
  8
dxfile
  6
Continuous
 62
     3
100
AcDbLine
 10
337.925124
 20
737.054543
 30
0.0
 11
377.925124
 21
737.054543
 31
0.0
  0
LINE
  5
482
330
47C
100
AcDbEntity
  8
dxfile
  6
Continuous
 62
     3
100
AcDbLine
 10
337.925124
 20
810.655418
 30
0.0
 11
337.925124
 21
727.054543
 31
0.0
  0
LINE
  5
483
330
47C
100
AcDbEntity
  8
dxfile
  6
Continuous
 62
     3
100
AcDbLine
 10
377.925124
 20
742.875
 30
0.0
 11
377.925124
 21
727.054543
 31
0.0
  0
TEXT
  5
484
330
47C
100
AcDbEntity
  8
dxfile
  6
Continuous
 62
     3
100
AcDbText
 10
290.551382
 20
733.659721
 30
0.0
 40
30.0
  1
４０
 41
0.858268
 51
0.0
  7
BIGFONT
 72
     1
 11
310.781978
 21
748.659721
 31
0.0
100
AcDbText
 73
     2
  0
ENDBLK
  5
47E
330
47C
100
AcDbEntity
  8
0
100
AcDbBlockEnd
  0
BLOCK
  5
4A2
330
4A1
100
AcDbEntity
  8
0
100
AcDbBlockBegin
  2
DIM_15
 70
     0
 10
306.829568
 20
2270.335664
 30
0.0
  3
DIM_15
  1

  0
CIRCLE
  5
4A4
330
4A1
100
AcDbEntity
  8
dxfile
  6
Continuous
 62
     3
100
AcDbCircle
 10
306.829568
 20
2327.661213
 30
0.0
 40
5.0
  0
CIRCLE
  5
4A5
330
4A1
100
AcDbEntity
  8
dxfile
  6
Continuous
 62
     3
100
AcDbCircle
 10
531.829568
 20
2327.661213
 30
0.0
 40
5.0
  0
LINE
  5
4A6
330
4A1
100
AcDbEntity
  8
dxfile
  6
Continuous
 62
     3
100
AcDbLine
 10
306.829568
 20
2327.661213
 30
0.0
 11
531.829568
 21
2327.661213
 31
0.0
  0
LINE
  5
4A7
330
4A1
100
AcDbEntity
  8
dxfile
  6
Continuous
 62
     3
100
AcDbLine
 10
306.829568
 20
2270.335664
 30
0.0
 11
306.829568
 21
2337.661213
 31
0.0
  0
LINE
  5
4A8
330
4A1
100
AcDbEntity
  8
dxfile
  6
Continuous
 62
     3
100
AcDbLine
 10
531.829568
 20
2266.449187
 30
0.0
 11
531.829568
 21
2337.661213
 31
0.0
  0
TEXT
  5
4A9
330
4A1
100
AcDbEntity
  8
dxfile
  6
Continuous
 62
     3
100
AcDbText
 10
388.064101
 20
2332.661213
 30
0.0
 40
30.0
  1
４５０
 41
0.858268
 51
0.0
  7
BIGFONT
 72
     1
 11
419.329568
 21
2332.661213
 31
0.0
100
AcDbText
  0
ENDBLK
  5
4A3
330
4A1
100
AcDbEntity
  8
0
100
AcDbBlockEnd
  0
BLOCK
  5
4AE
330
4AD
100
AcDbEntity
  8
0
100
AcDbBlockBegin
  2
DIM_16
 70
     0
 10
221.849714
 20
2185.355811
 30
0.0
  3
DIM_16
  1

  0
CIRCLE
  5
4B0
330
4AD
100
AcDbEntity
  8
dxfile
  6
Continuous
 62
     3
100
AcDbCircle
 10
164.524165
 20
2185.355811
 30
0.0
 40
5.0
  0
CIRCLE
  5
4B1
330
4AD
100
AcDbEntity
  8
dxfile
  6
Continuous
 62
     3
100
AcDbCircle
 10
164.524165
 20
1960.355811
 30
0.0
 40
5.0
  0
LINE
  5
4B2
330
4AD
100
AcDbEntity
  8
dxfile
  6
Continuous
 62
     3
100
AcDbLine
 10
164.524165
 20
2185.355811
 30
0.0
 11
164.524165
 21
1960.355811
 31
0.0
  0
LINE
  5
4B3
330
4AD
100
AcDbEntity
  8
dxfile
  6
Continuous
 62
     3
100
AcDbLine
 10
221.849714
 20
2185.355811
 30
0.0
 11
154.524165
 21
2185.355811
 31
0.0
  0
LINE
  5
4B4
330
4AD
100
AcDbEntity
  8
dxfile
  6
Continuous
 62
     3
100
AcDbLine
 10
225.736192
 20
1960.355811
 30
0.0
 11
154.524165
 21
1960.355811
 31
0.0
  0
TEXT
  5
4B5
330
4AD
100
AcDbEntity
  8
dxfile
  6
Continuous
 62
     3
100
AcDbText
 10
159.524165
 20
2041.590344
 30
0.0
 40
30.0
  1
４５０
 50
90.0
 41
0.858268
 51
0.0
  7
BIGFONT
 72
     1
 11
159.524165
 21
2072.855811
 31
0.0
100
AcDbText
  0
ENDBLK
  5
4AF
330
4AD
100
AcDbEntity
  8
0
100
AcDbBlockEnd
  0
BLOCK
  5
4B8
330
4B7
100
AcDbEntity
  8
0
100
AcDbBlockBegin
  2
DIM_17
 70
     0
 10
241.829568
 20
1881.955819
 30
0.0
  3
DIM_17
  1

  0
CIRCLE
  5
4BA
330
4B7
100
AcDbEntity
  8
dxfile
  6
Continuous
 62
     3
100
AcDbCircle
 10
241.829568
 20
1787.829823
 30
0.0
 40
5.0
  0
CIRCLE
  5
4BB
330
4B7
100
AcDbEntity
  8
dxfile
  6
Continuous
 62
     3
100
AcDbCircle
 10
596.829568
 20
1787.829823
 30
0.0
 40
5.0
  0
LINE
  5
4BC
330
4B7
100
AcDbEntity
  8
dxfile
  6
Continuous
 62
     3
100
AcDbLine
 10
241.829568
 20
1787.829823
 30
0.0
 11
596.829568
 21
1787.829823
 31
0.0
  0
LINE
  5
4BD
330
4B7
100
AcDbEntity
  8
dxfile
  6
Continuous
 62
     3
100
AcDbLine
 10
241.829568
 20
1881.955819
 30
0.0
 11
241.829568
 21
1777.829823
 31
0.0
  0
LINE
  5
4BE
330
4B7
100
AcDbEntity
  8
dxfile
  6
Continuous
 62
     3
100
AcDbLine
 10
596.829568
 20
1881.955819
 30
0.0
 11
596.829568
 21
1777.829823
 31
0.0
  0
TEXT
  5
4BF
330
4B7
100
AcDbEntity
  8
dxfile
  6
Continuous
 62
     3
100
AcDbText
 10
388.064101
 20
1792.829823
 30
0.0
 40
30.0
  1
７１０
 41
0.858268
 51
0.0
  7
BIGFONT
 72
     1
 11
419.329568
 21
1792.829823
 31
0.0
100
AcDbText
  0
ENDBLK
  5
4B9
330
4B7
100
AcDbEntity
  8
0
100
AcDbBlockEnd
  0
BLOCK
  5
4C2
330
4C1
100
AcDbEntity
  8
0
100
AcDbBlockBegin
  2
DIM_18
 70
     0
 10
620.036541
 20
2250.355811
 30
0.0
  3
DIM_18
  1

  0
CIRCLE
  5
4C4
330
4C1
100
AcDbEntity
  8
dxfile
  6
Continuous
 62
     3
100
AcDbCircle
 10
702.757544
 20
2250.355811
 30
0.0
 40
5.0
  0
CIRCLE
  5
4C5
330
4C1
100
AcDbEntity
  8
dxfile
  6
Continuous
 62
     3
100
AcDbCircle
 10
702.757544
 20
1895.355811
 30
0.0
 40
5.0
  0
LINE
  5
4C6
330
4C1
100
AcDbEntity
  8
dxfile
  6
Continuous
 62
     3
100
AcDbLine
 10
702.757544
 20
2250.355811
 30
0.0
 11
702.757544
 21
1895.355811
 31
0.0
  0
LINE
  5
4C7
330
4C1
100
AcDbEntity
  8
dxfile
  6
Continuous
 62
     3
100
AcDbLine
 10
620.036541
 20
2250.355811
 30
0.0
 11
712.757544
 21
2250.355811
 31
0.0
  0
LINE
  5
4C8
330
4C1
100
AcDbEntity
  8
dxfile
  6
Continuous
 62
     3
100
AcDbLine
 10
620.036541
 20
1895.355811
 30
0.0
 11
712.757544
 21
1895.355811
 31
0.0
  0
TEXT
  5
4C9
330
4C1
100
AcDbEntity
  8
dxfile
  6
Continuous
 62
     3
100
AcDbText
 10
697.757544
 20
2041.590344
 30
0.0
 40
30.0
  1
７１０
 50
90.0
 41
0.858268
 51
0.0
  7
BIGFONT
 72
     1
 11
697.757544
 21
2072.855811
 31
0.0
100
AcDbText
  0
ENDBLK
  5
4C3
330
4C1
100
AcDbEntity
  8
0
100
AcDbBlockEnd
  0
BLOCK
  5
4F2
330
4F1
100
AcDbEntity
  8
0
100
AcDbBlockBegin
  2
DIM_19
 70
     0
 10
954.569289
 20
2345.335664
 30
0.0
  3
DIM_19
  1

  0
CIRCLE
  5
4F4
330
4F1
100
AcDbEntity
  8
dxfile
  6
Continuous
 62
     3
100
AcDbCircle
 10
954.569289
 20
2402.661213
 30
0.0
 40
5.0
  0
CIRCLE
  5
4F5
330
4F1
100
AcDbEntity
  8
dxfile
  6
Continuous
 62
     3
100
AcDbCircle
 10
1254.569289
 20
2402.661213
 30
0.0
 40
5.0
  0
LINE
  5
4F6
330
4F1
100
AcDbEntity
  8
dxfile
  6
Continuous
 62
     3
100
AcDbLine
 10
954.569289
 20
2402.661213
 30
0.0
 11
1254.569289
 21
2402.661213
 31
0.0
  0
LINE
  5
4F7
330
4F1
100
AcDbEntity
  8
dxfile
  6
Continuous
 62
     3
100
AcDbLine
 10
954.569289
 20
2345.335664
 30
0.0
 11
954.569289
 21
2412.661213
 31
0.0
  0
LINE
  5
4F8
330
4F1
100
AcDbEntity
  8
dxfile
  6
Continuous
 62
     3
100
AcDbLine
 10
1254.569289
 20
2341.449187
 30
0.0
 11
1254.569289
 21
2412.661213
 31
0.0
  0
TEXT
  5
4F9
330
4F1
100
AcDbEntity
  8
dxfile
  6
Continuous
 62
     3
100
AcDbText
 10
1073.303822
 20
2407.661213
 30
0.0
 40
30.0
  1
６００
 41
0.858268
 51
0.0
  7
BIGFONT
 72
     1
 11
1104.569289
 21
2407.661213
 31
0.0
100
AcDbText
  0
ENDBLK
  5
4F3
330
4F1
100
AcDbEntity
  8
0
100
AcDbBlockEnd
  0
BLOCK
  5
4FE
330
4FD
100
AcDbEntity
  8
0
100
AcDbBlockBegin
  2
DIM_20
 70
     0
 10
832.089436
 20
2222.855811
 30
0.0
  3
DIM_20
  1

  0
CIRCLE
  5
500
330
4FD
100
AcDbEntity
  8
dxfile
  6
Continuous
 62
     3
100
AcDbCircle
 10
774.763887
 20
2222.855811
 30
0.0
 40
5.0
  0
CIRCLE
  5
501
330
4FD
100
AcDbEntity
  8
dxfile
  6
Continuous
 62
     3
100
AcDbCircle
 10
774.763887
 20
1922.855811
 30
0.0
 40
5.0
  0
LINE
  5
502
330
4FD
100
AcDbEntity
  8
dxfile
  6
Continuous
 62
     3
100
AcDbLine
 10
774.763887
 20
2222.855811
 30
0.0
 11
774.763887
 21
1922.855811
 31
0.0
  0
LINE
  5
503
330
4FD
100
AcDbEntity
  8
dxfile
  6
Continuous
 62
     3
100
AcDbLine
 10
832.089436
 20
2222.855811
 30
0.0
 11
764.763887
 21
2222.855811
 31
0.0
  0
LINE
  5
504
330
4FD
100
AcDbEntity
  8
dxfile
  6
Continuous
 62
     3
100
AcDbLine
 10
835.975913
 20
1922.855811
 30
0.0
 11
764.763887
 21
1922.855811
 31
0.0
  0
TEXT
  5
505
330
4FD
100
AcDbEntity
  8
dxfile
  6
Continuous
 62
     3
100
AcDbText
 10
769.763887
 20
2041.590344
 30
0.0
 40
30.0
  1
６００
 50
90.0
 41
0.858268
 51
0.0
  7
BIGFONT
 72
     1
 11
769.763887
 21
2072.855811
 31
0.0
100
AcDbText
  0
ENDBLK
  5
4FF
330
4FD
100
AcDbEntity
  8
0
100
AcDbBlockEnd
  0
BLOCK
  5
508
330
507
100
AcDbEntity
  8
0
100
AcDbBlockBegin
  2
DIM_21
 70
     0
 10
852.069289
 20
1806.955819
 30
0.0
  3
DIM_21
  1

  0
CIRCLE
  5
50A
330
507
100
AcDbEntity
  8
dxfile
  6
Continuous
 62
     3
100
AcDbCircle
 10
852.069289
 20
1712.829823
 30
0.0
 40
5.0
  0
CIRCLE
  5
50B
330
507
100
AcDbEntity
  8
dxfile
  6
Continuous
 62
     3
100
AcDbCircle
 10
1357.069289
 20
1712.829823
 30
0.0
 40
5.0
  0
LINE
  5
50C
330
507
100
AcDbEntity
  8
dxfile
  6
Continuous
 62
     3
100
AcDbLine
 10
852.069289
 20
1712.829823
 30
0.0
 11
1357.069289
 21
1712.829823
 31
0.0
  0
LINE
  5
50D
330
507
100
AcDbEntity
  8
dxfile
  6
Continuous
 62
     3
100
AcDbLine
 10
852.069289
 20
1806.955819
 30
0.0
 11
852.069289
 21
1702.829823
 31
0.0
  0
LINE
  5
50E
330
507
100
AcDbEntity
  8
dxfile
  6
Continuous
 62
     3
100
AcDbLine
 10
1357.069289
 20
1806.955819
 30
0.0
 11
1357.069289
 21
1702.829823
 31
0.0
  0
TEXT
  5
50F
330
507
100
AcDbEntity
  8
dxfile
  6
Continuous
 62
     3
100
AcDbText
 10
1062.268952
 20
1717.829823
 30
0.0
 40
30.0
  1
１０１０
 41
0.858268
 51
0.0
  7
BIGFONT
 72
     1
 11
1104.569289
 21
1717.829823
 31
0.0
100
AcDbText
  0
ENDBLK
  5
509
330
507
100
AcDbEntity
  8
0
100
AcDbBlockEnd
  0
BLOCK
  5
512
330
511
100
AcDbEntity
  8
0
100
AcDbBlockBegin
  2
DIM_22
 70
     0
 10
1380.276263
 20
2325.355811
 30
0.0
  3
DIM_22
  1

  0
CIRCLE
  5
514
330
511
100
AcDbEntity
  8
dxfile
  6
Continuous
 62
     3
100
AcDbCircle
 10
1473.718575
 20
2325.355811
 30
0.0
 40
5.0
  0
CIRCLE
  5
515
330
511
100
AcDbEntity
  8
dxfile
  6
Continuous
 62
     3
100
AcDbCircle
 10
1473.718575
 20
1820.355811
 30
0.0
 40
5.0
  0
LINE
  5
516
330
511
100
AcDbEntity
  8
dxfile
  6
Continuous
 62
     3
100
AcDbLine
 10
1473.718575
 20
2325.355811
 30
0.0
 11
1473.718575
 21
1820.355811
 31
0.0
  0
LINE
  5
517
330
511
100
AcDbEntity
  8
dxfile
  6
Continuous
 62
     3
100
AcDbLine
 10
1380.276263
 20
2325.355811
 30
0.0
 11
1483.718575
 21
2325.355811
 31
0.0
  0
LINE
  5
518
330
511
100
AcDbEntity
  8
dxfile
  6
Continuous
 62
     3
100
AcDbLine
 10
1380.276263
 20
1820.355811
 30
0.0
 11
1483.718575
 21
1820.355811
 31
0.0
  0
TEXT
  5
519
330
511
100
AcDbEntity
  8
dxfile
  6
Continuous
 62
     3
100
AcDbText
 10
1468.718575
 20
2030.555473
 30
0.0
 40
30.0
  1
１０１０
 50
90.0
 41
0.858268
 51
0.0
  7
BIGFONT
 72
     1
 11
1468.718575
 21
2072.855811
 31
0.0
100
AcDbText
  0
ENDBLK
  5
513
330
511
100
AcDbEntity
  8
0
100
AcDbBlockEnd
  0
BLOCK
  5
532
330
531
100
AcDbEntity
  8
0
100
AcDbBlockBegin
  2
DIM_23
 70
     0
 10
1684.201872
 20
2445.335664
 30
0.0
  3
DIM_23
  1

  0
CIRCLE
  5
534
330
531
100
AcDbEntity
  8
dxfile
  6
Continuous
 62
     3
100
AcDbCircle
 10
1684.201872
 20
2502.661213
 30
0.0
 40
5.0
  0
CIRCLE
  5
535
330
531
100
AcDbEntity
  8
dxfile
  6
Continuous
 62
     3
100
AcDbCircle
 10
1984.201872
 20
2502.661213
 30
0.0
 40
5.0
  0
LINE
  5
536
330
531
100
AcDbEntity
  8
dxfile
  6
Continuous
 62
     3
100
AcDbLine
 10
1684.201872
 20
2502.661213
 30
0.0
 11
1984.201872
 21
2502.661213
 31
0.0
  0
LINE
  5
537
330
531
100
AcDbEntity
  8
dxfile
  6
Continuous
 62
     3
100
AcDbLine
 10
1684.201872
 20
2445.335664
 30
0.0
 11
1684.201872
 21
2512.661213
 31
0.0
  0
LINE
  5
538
330
531
100
AcDbEntity
  8
dxfile
  6
Continuous
 62
     3
100
AcDbLine
 10
1984.201872
 20
2441.449187
 30
0.0
 11
1984.201872
 21
2512.661213
 31
0.0
  0
TEXT
  5
539
330
531
100
AcDbEntity
  8
dxfile
  6
Continuous
 62
     3
100
AcDbText
 10
1802.936405
 20
2507.661213
 30
0.0
 40
30.0
  1
６００
 41
0.858268
 51
0.0
  7
BIGFONT
 72
     1
 11
1834.201872
 21
2507.661213
 31
0.0
100
AcDbText
  0
ENDBLK
  5
533
330
531
100
AcDbEntity
  8
0
100
AcDbBlockEnd
  0
BLOCK
  5
53E
330
53D
100
AcDbEntity
  8
0
100
AcDbBlockBegin
  2
DIM_24
 70
     0
 10
1611.722018
 20
2372.855811
 30
0.0
  3
DIM_24
  1

  0
CIRCLE
  5
540
330
53D
100
AcDbEntity
  8
dxfile
  6
Continuous
 62
     3
100
AcDbCircle
 10
1554.396469
 20
2372.855811
 30
0.0
 40
5.0
  0
CIRCLE
  5
541
330
53D
100
AcDbEntity
  8
dxfile
  6
Continuous
 62
     3
100
AcDbCircle
 10
1554.396469
 20
2072.855811
 30
0.0
 40
5.0
  0
LINE
  5
542
330
53D
100
AcDbEntity
  8
dxfile
  6
Continuous
 62
     3
100
AcDbLine
 10
1554.396469
 20
2372.855811
 30
0.0
 11
1554.396469
 21
2072.855811
 31
0.0
  0
LINE
  5
543
330
53D
100
AcDbEntity
  8
dxfile
  6
Continuous
 62
     3
100
AcDbLine
 10
1611.722018
 20
2372.855811
 30
0.0
 11
1544.396469
 21
2372.855811
 31
0.0
  0
LINE
  5
544
330
53D
100
AcDbEntity
  8
dxfile
  6
Continuous
 62
     3
100
AcDbLine
 10
1615.608496
 20
2072.855811
 30
0.0
 11
1544.396469
 21
2072.855811
 31
0.0
  0
TEXT
  5
545
330
53D
100
AcDbEntity
  8
dxfile
  6
Continuous
 62
     3
100
AcDbText
 10
1549.396469
 20
2191.590344
 30
0.0
 40
30.0
  1
６００
 50
90.0
 41
0.858268
 51
0.0
  7
BIGFONT
 72
     1
 11
1549.396469
 21
2222.855811
 31
0.0
100
AcDbText
  0
ENDBLK
  5
53F
330
53D
100
AcDbEntity
  8
0
100
AcDbBlockEnd
  0
BLOCK
  5
548
330
547
100
AcDbEntity
  8
0
100
AcDbBlockBegin
  2
DIM_25
 70
     0
 10
1631.701872
 20
1706.955819
 30
0.0
  3
DIM_25
  1

  0
CIRCLE
  5
54A
330
547
100
AcDbEntity
  8
dxfile
  6
Continuous
 62
     3
100
AcDbCircle
 10
1631.701872
 20
1612.829823
 30
0.0
 40
5.0
  0
CIRCLE
  5
54B
330
547
100
AcDbEntity
  8
dxfile
  6
Continuous
 62
     3
100
AcDbCircle
 10
2336.701872
 20
1612.829823
 30
0.0
 40
5.0
  0
LINE
  5
54C
330
547
100
AcDbEntity
  8
dxfile
  6
Continuous
 62
     3
100
AcDbLine
 10
1631.701872
 20
1612.829823
 30
0.0
 11
2336.701872
 21
1612.829823
 31
0.0
  0
LINE
  5
54D
330
547
100
AcDbEntity
  8
dxfile
  6
Continuous
 62
     3
100
AcDbLine
 10
1631.701872
 20
1706.955819
 30
0.0
 11
1631.701872
 21
1602.829823
 31
0.0
  0
LINE
  5
54E
330
547
100
AcDbEntity
  8
dxfile
  6
Continuous
 62
     3
100
AcDbLine
 10
2336.701872
 20
1706.955819
 30
0.0
 11
2336.701872
 21
1602.829823
 31
0.0
  0
TEXT
  5
54F
330
547
100
AcDbEntity
  8
dxfile
  6
Continuous
 62
     3
100
AcDbText
 10
1941.901535
 20
1617.829823
 30
0.0
 40
30.0
  1
１４１０
 41
0.858268
 51
0.0
  7
BIGFONT
 72
     1
 11
1984.201872
 21
1617.829823
 31
0.0
100
AcDbText
  0
ENDBLK
  5
549
330
547
100
AcDbEntity
  8
0
100
AcDbBlockEnd
  0
BLOCK
  5
552
330
551
100
AcDbEntity
  8
0
100
AcDbBlockBegin
  2
DIM_26
 70
     0
 10
2359.908845
 20
2425.355811
 30
0.0
  3
DIM_26
  1

  0
CIRCLE
  5
554
330
551
100
AcDbEntity
  8
dxfile
  6
Continuous
 62
     3
100
AcDbCircle
 10
2464.821508
 20
2425.355811
 30
0.0
 40
5.0
  0
CIRCLE
  5
555
330
551
100
AcDbEntity
  8
dxfile
  6
Continuous
 62
     3
100
AcDbCircle
 10
2464.821508
 20
1720.355811
 30
0.0
 40
5.0
  0
LINE
  5
556
330
551
100
AcDbEntity
  8
dxfile
  6
Continuous
 62
     3
100
AcDbLine
 10
2464.821508
 20
2425.355811
 30
0.0
 11
2464.821508
 21
1720.355811
 31
0.0
  0
LINE
  5
557
330
551
100
AcDbEntity
  8
dxfile
  6
Continuous
 62
     3
100
AcDbLine
 10
2359.908845
 20
2425.355811
 30
0.0
 11
2474.821508
 21
2425.355811
 31
0.0
  0
LINE
  5
558
330
551
100
AcDbEntity
  8
dxfile
  6
Continuous
 62
     3
100
AcDbLine
 10
2359.908845
 20
1720.355811
 30
0.0
 11
2474.821508
 21
1720.355811
 31
0.0
  0
TEXT
  5
559
330
551
100
AcDbEntity
  8
dxfile
  6
Continuous
 62
     3
100
AcDbText
 10
2459.821508
 20
2030.555473
 30
0.0
 40
30.0
  1
１４１０
 50
90.0
 41
0.858268
 51
0.0
  7
BIGFONT
 72
     1
 11
2459.821508
 21
2072.855811
 31
0.0
100
AcDbText
  0
ENDBLK
  5
553
330
551
100
AcDbEntity
  8
0
100
AcDbBlockEnd
  0
BLOCK
  5
573
330
572
100
AcDbEntity
  8
0
100
AcDbBlockBegin
  2
DIM_27
 70
     0
 10
2284.201872
 20
2445.335664
 30
0.0
  3
DIM_27
  1

  0
CIRCLE
  5
575
330
572
100
AcDbEntity
  8
dxfile
  6
Continuous
 62
     3
100
AcDbCircle
 10
2284.201872
 20
2502.661213
 30
0.0
 40
5.0
  0
CIRCLE
  5
576
330
572
100
AcDbEntity
  8
dxfile
  6
Continuous
 62
     3
100
AcDbCircle
 10
1984.201872
 20
2502.661213
 30
0.0
 40
5.0
  0
LINE
  5
577
330
572
100
AcDbEntity
  8
dxfile
  6
Continuous
 62
     3
100
AcDbLine
 10
2284.201872
 20
2502.661213
 30
0.0
 11
1984.201872
 21
2502.661213
 31
0.0
  0
LINE
  5
578
330
572
100
AcDbEntity
  8
dxfile
  6
Continuous
 62
     3
100
AcDbLine
 10
2284.201872
 20
2445.335664
 30
0.0
 11
2284.201872
 21
2512.661213
 31
0.0
  0
LINE
  5
579
330
572
100
AcDbEntity
  8
dxfile
  6
Continuous
 62
     3
100
AcDbLine
 10
1984.201872
 20
2441.449187
 30
0.0
 11
1984.201872
 21
2512.661213
 31
0.0
  0
TEXT
  5
57A
330
572
100
AcDbEntity
  8
dxfile
  6
Continuous
 62
     3
100
AcDbText
 10
2102.936405
 20
2507.661213
 30
0.0
 40
30.0
  1
６００
 41
0.858268
 51
0.0
  7
BIGFONT
 72
     1
 11
2134.201872
 21
2507.661213
 31
0.0
100
AcDbText
  0
ENDBLK
  5
574
330
572
100
AcDbEntity
  8
0
100
AcDbBlockEnd
  0
BLOCK
  5
582
330
581
100
AcDbEntity
  8
0
100
AcDbBlockBegin
  2
DIM_28
 70
     0
 10
1611.722018
 20
1772.855811
 30
0.0
  3
DIM_28
  1

  0
CIRCLE
  5
584
330
581
100
AcDbEntity
  8
dxfile
  6
Continuous
 62
     3
100
AcDbCircle
 10
1554.396469
 20
1772.855811
 30
0.0
 40
5.0
  0
CIRCLE
  5
585
330
581
100
AcDbEntity
  8
dxfile
  6
Continuous
 62
     3
100
AcDbCircle
 10
1554.396469
 20
2072.855811
 30
0.0
 40
5.0
  0
LINE
  5
586
330
581
100
AcDbEntity
  8
dxfile
  6
Continuous
 62
     3
100
AcDbLine
 10
1554.396469
 20
1772.855811
 30
0.0
 11
1554.396469
 21
2072.855811
 31
0.0
  0
LINE
  5
587
330
581
100
AcDbEntity
  8
dxfile
  6
Continuous
 62
     3
100
AcDbLine
 10
1611.722018
 20
1772.855811
 30
0.0
 11
1544.396469
 21
1772.855811
 31
0.0
  0
LINE
  5
588
330
581
100
AcDbEntity
  8
dxfile
  6
Continuous
 62
     3
100
AcDbLine
 10
1615.608496
 20
2072.855811
 30
0.0
 11
1544.396469
 21
2072.855811
 31
0.0
  0
TEXT
  5
589
330
581
100
AcDbEntity
  8
dxfile
  6
Continuous
 62
     3
100
AcDbText
 10
1549.396469
 20
1891.590344
 30
0.0
 40
30.0
  1
６００
 50
90.0
 41
0.858268
 51
0.0
  7
BIGFONT
 72
     1
 11
1549.396469
 21
1922.855811
 31
0.0
100
AcDbText
  0
ENDBLK
  5
583
330
581
100
AcDbEntity
  8
0
100
AcDbBlockEnd
  0
BLOCK
  5
5AC
330
5AB
100
AcDbEntity
  8
0
100
AcDbBlockBegin
  2
DIM_29
 70
     0
 10
292.925124
 20
994.722557
 30
0.0
  3
DIM_29
  1

  0
CIRCLE
  5
5AE
330
5AB
100
AcDbEntity
  8
dxfile
  6
Continuous
 62
     3
100
AcDbCircle
 10
292.925124
 20
1127.83496
 30
0.0
 40
5.0
  0
CIRCLE
  5
5AF
330
5AB
100
AcDbEntity
  8
dxfile
  6
Continuous
 62
     3
100
AcDbCircle
 10
392.925124
 20
1127.83496
 30
0.0
 40
5.0
  0
LINE
  5
5B0
330
5AB
100
AcDbEntity
  8
dxfile
  6
Continuous
 62
     3
100
AcDbLine
 10
292.925124
 20
1127.83496
 30
0.0
 11
392.925124
 21
1127.83496
 31
0.0
  0
LINE
  5
5B1
330
5AB
100
AcDbEntity
  8
dxfile
  6
Continuous
 62
     3
100
AcDbLine
 10
292.925124
 20
994.722557
 30
0.0
 11
292.925124
 21
1137.83496
 31
0.0
  0
LINE
  5
5B2
330
5AB
100
AcDbEntity
  8
dxfile
  6
Continuous
 62
     3
100
AcDbLine
 10
392.925124
 20
1124.92009
 30
0.0
 11
392.925124
 21
1137.83496
 31
0.0
  0
TEXT
  5
5B3
330
5AB
100
AcDbEntity
  8
dxfile
  6
Continuous
 62
     3
100
AcDbText
 10
333.729399
 20
1132.83496
 30
0.0
 40
30.0
  1
Ｄ
 41
0.858268
  7
BIGFONT
 72
     1
 11
342.925124
 21
1132.83496
 31
0.0
100
AcDbText
  0
ENDBLK
  5
5AD
330
5AB
100
AcDbEntity
  8
0
100
AcDbBlockEnd
  0
BLOCK
  5
5B6
330
5B5
100
AcDbEntity
  8
0
100
AcDbBlockBegin
  2
DIM_30
 70
     0
 10
1392.925124
 20
994.722557
 30
0.0
  3
DIM_30
  1

  0
CIRCLE
  5
5B8
330
5B5
100
AcDbEntity
  8
dxfile
  6
Continuous
 62
     3
100
AcDbCircle
 10
1392.925124
 20
1127.83496
 30
0.0
 40
5.0
  0
CIRCLE
  5
5B9
330
5B5
100
AcDbEntity
  8
dxfile
  6
Continuous
 62
     3
100
AcDbCircle
 10
1292.925124
 20
1127.83496
 30
0.0
 40
5.0
  0
LINE
  5
5BA
330
5B5
100
AcDbEntity
  8
dxfile
  6
Continuous
 62
     3
100
AcDbLine
 10
1392.925124
 20
1127.83496
 30
0.0
 11
1292.925124
 21
1127.83496
 31
0.0
  0
LINE
  5
5BB
330
5B5
100
AcDbEntity
  8
dxfile
  6
Continuous
 62
     3
100
AcDbLine
 10
1392.925124
 20
994.722557
 30
0.0
 11
1392.925124
 21
1137.83496
 31
0.0
  0
LINE
  5
5BC
330
5B5
100
AcDbEntity
  8
dxfile
  6
Continuous
 62
     3
100
AcDbLine
 10
1292.925124
 20
1124.92009
 30
0.0
 11
1292.925124
 21
1137.83496
 31
0.0
  0
TEXT
  5
5BD
330
5B5
100
AcDbEntity
  8
dxfile
  6
Continuous
 62
     3
100
AcDbText
 10
1333.729399
 20
1132.83496
 30
0.0
 40
30.0
  1
Ｄ
 41
0.858268
  7
BIGFONT
 72
     1
 11
1342.925124
 21
1132.83496
 31
0.0
100
AcDbText
  0
ENDBLK
  5
5B7
330
5B5
100
AcDbEntity
  8
0
100
AcDbBlockEnd
  0
BLOCK
  5
5D5
330
5D4
100
AcDbEntity
  8
0
100
AcDbBlockBegin
  2
DIM_31
 70
     0
 10
0.0
 20
0.0
 30
0.0
  3
DIM_31
  1

  0
CIRCLE
  5
5D7
330
5D4
100
AcDbEntity
  8
dxfile
  6
Continuous
 62
     3
100
AcDbCircle
 10
1958.677036
 20
583.827554
 30
0.0
 40
5.0
  0
CIRCLE
  5
5D8
330
5D4
100
AcDbEntity
  8
dxfile
  6
Continuous
 62
     3
100
AcDbCircle
 10
2218.484657
 20
733.827554
 30
0.0
 40
5.0
  0
LINE
  5
5D9
330
5D4
100
AcDbEntity
  8
dxfile
  6
Continuous
 62
     3
100
AcDbLine
 10
1958.677036
 20
583.827554
 30
0.0
 11
2218.484657
 21
733.827554
 31
0.0
  0
TEXT
  5
5DA
330
5D4
100
AcDbEntity
  8
dxfile
  6
Continuous
 62
     3
100
AcDbText
 10
2130.583255
 20
688.851159
 30
0.0
 40
30.0
  1
φＡ
 50
30.0
 41
0.858268
  7
BIGFONT
 72
     1
 11
2140.603465
 21
711.956838
 31
0.0
100
AcDbText
 73
     2
  0
ENDBLK
  5
5D6
330
5D4
100
AcDbEntity
  8
0
100
AcDbBlockEnd
  0
BLOCK
  5
5DD
330
5DC
100
AcDbEntity
  8
0
100
AcDbBlockBegin
  2
DIM_32
 70
     0
 10
1938.580846
 20
720.533678
 30
0.0
  3
DIM_32
  1

  0
CIRCLE
  5
5DF
330
5DC
100
AcDbEntity
  8
dxfile
  6
Continuous
 62
     3
100
AcDbCircle
 10
1938.580846
 20
940.343124
 30
0.0
 40
5.0
  0
CIRCLE
  5
5E0
330
5DC
100
AcDbEntity
  8
dxfile
  6
Continuous
 62
     3
100
AcDbCircle
 10
2238.580846
 20
940.343124
 30
0.0
 40
5.0
  0
LINE
  5
5E1
330
5DC
100
AcDbEntity
  8
dxfile
  6
Continuous
 62
     3
100
AcDbLine
 10
1938.580846
 20
940.343124
 30
0.0
 11
2238.580846
 21
940.343124
 31
0.0
  0
LINE
  5
5E2
330
5DC
100
AcDbEntity
  8
dxfile
  6
Continuous
 62
     3
100
AcDbLine
 10
1938.580846
 20
720.533678
 30
0.0
 11
1938.580846
 21
950.343124
 31
0.0
  0
LINE
  5
5E3
330
5DC
100
AcDbEntity
  8
dxfile
  6
Continuous
 62
     3
100
AcDbLine
 10
2238.580846
 20
712.780853
 30
0.0
 11
2238.580846
 21
950.343124
 31
0.0
  0
TEXT
  5
5E4
330
5DC
100
AcDbEntity
  8
dxfile
  6
Continuous
 62
     3
100
AcDbText
 10
2013.175897
 20
945.539814
 30
0.0
 40
30.0
  1
Ａ　ドーム寸法
 41
0.858268
  7
BIGFONT
 72
     1
 11
2088.580846
 21
960.539814
 31
0.0
100
AcDbText
 73
     2
  0
ENDBLK
  5
5DE
330
5DC
100
AcDbEntity
  8
0
100
AcDbBlockEnd
  0
BLOCK
  5
5E7
330
5E6
100
AcDbEntity
  8
0
100
AcDbBlockBegin
  2
DIM_33
 70
     0
 10
1876.080846
 20
886.653894
 30
0.0
  3
DIM_33
  1

  0
CIRCLE
  5
5E9
330
5E6
100
AcDbEntity
  8
dxfile
  6
Continuous
 62
     3
100
AcDbCircle
 10
1876.080846
 20
940.343124
 30
0.0
 40
5.0
  0
CIRCLE
  5
5EA
330
5E6
100
AcDbEntity
  8
dxfile
  6
Continuous
 62
     3
100
AcDbCircle
 10
1938.580846
 20
940.343124
 30
0.0
 40
5.0
  0
LINE
  5
5EB
330
5E6
100
AcDbEntity
  8
dxfile
  6
Continuous
 62
     3
100
AcDbLine
 10
1876.080846
 20
940.343124
 30
0.0
 11
1938.580846
 21
940.343124
 31
0.0
  0
LINE
  5
5EC
330
5E6
100
AcDbEntity
  8
dxfile
  6
Continuous
 62
     3
100
AcDbLine
 10
1876.080846
 20
886.653894
 30
0.0
 11
1876.080846
 21
950.343124
 31
0.0
  0
LINE
  5
5ED
330
5E6
100
AcDbEntity
  8
dxfile
  6
Continuous
 62
     3
100
AcDbLine
 10
1938.580846
 20
922.738286
 30
0.0
 11
1938.580846
 21
950.343124
 31
0.0
  0
TEXT
  5
5EE
330
5E6
100
AcDbEntity
  8
dxfile
  6
Continuous
 62
     3
100
AcDbText
 10
1876.065379
 20
950.30493
 30
0.0
 40
30.0
  1
１２５
 41
0.858268
 51
0.0
  7
BIGFONT
 72
     1
 11
1907.330846
 21
965.30493
 31
0.0
100
AcDbText
 73
     2
  0
ENDBLK
  5
5E8
330
5E6
100
AcDbEntity
  8
0
100
AcDbBlockEnd
  0
BLOCK
  5
5F1
330
5F0
100
AcDbEntity
  8
0
100
AcDbBlockBegin
  2
DIM_34
 70
     0
 10
2301.080846
 20
886.653894
 30
0.0
  3
DIM_34
  1

  0
CIRCLE
  5
5F3
330
5F0
100
AcDbEntity
  8
dxfile
  6
Continuous
 62
     3
100
AcDbCircle
 10
2301.080846
 20
940.343124
 30
0.0
 40
5.0
  0
CIRCLE
  5
5F4
330
5F0
100
AcDbEntity
  8
dxfile
  6
Continuous
 62
     3
100
AcDbCircle
 10
2238.580846
 20
940.343124
 30
0.0
 40
5.0
  0
LINE
  5
5F5
330
5F0
100
AcDbEntity
  8
dxfile
  6
Continuous
 62
     3
100
AcDbLine
 10
2301.080846
 20
940.343124
 30
0.0
 11
2238.580846
 21
940.343124
 31
0.0
  0
LINE
  5
5F6
330
5F0
100
AcDbEntity
  8
dxfile
  6
Continuous
 62
     3
100
AcDbLine
 10
2301.080846
 20
886.653894
 30
0.0
 11
2301.080846
 21
950.343124
 31
0.0
  0
LINE
  5
5F7
330
5F0
100
AcDbEntity
  8
dxfile
  6
Continuous
 62
     3
100
AcDbLine
 10
2238.580846
 20
922.738286
 30
0.0
 11
2238.580846
 21
950.343124
 31
0.0
  0
TEXT
  5
5F8
330
5F0
100
AcDbEntity
  8
dxfile
  6
Continuous
 62
     3
100
AcDbText
 10
2238.565379
 20
950.925155
 30
0.0
 40
30.0
  1
１２５
 41
0.858268
 51
0.0
  7
BIGFONT
 72
     1
 11
2269.830846
 21
965.925155
 31
0.0
100
AcDbText
 73
     2
  0
ENDBLK
  5
5F2
330
5F0
100
AcDbEntity
  8
0
100
AcDbBlockEnd
  0
ENDSEC
  0
SECTION
  2
ENTITIES
  0
TEXT
  5
4F
330
1F
100
AcDbEntity
  8
dxfile
  6
Continuous
 62
     3
100
AcDbText
 10
1884.733571
 20
276.358695
 30
0.0
 40
30.0
  1
注、図中数字で示す寸法は全種共通です。
 41
0.858268
  7
BIGFONT
100
AcDbText
  0
TEXT
  5
72
330
1F
100
AcDbEntity
  8
dxfile
  6
Continuous
 62
     2
100
AcDbText
 10
3700.895372
 20
2800.770977
 30
0.0
 40
50.0
  1
ＡＢ型標準施工図
 41
0.858268
  7
BIGFONT
100
AcDbText
  0
TEXT
  5
73
330
1F
100
AcDbEntity
  8
dxfile
  6
Continuous
 62
     2
100
AcDbText
 10
3663.112159
 20
98.065057
 30
0.0
 40
40.0
  1
Ｈ－１４－Ｂ－７２３
 41
0.858268
  7
BIGFONT
100
AcDbText
  0
LINE
  5
74
330
1F
100
AcDbEntity
  8
dxfile
  6
Continuous
 62
     1
100
AcDbLine
 10
2652.975204
 20
272.314047
 30
0.0
 11
2652.975204
 21
72.314047
 31
0.0
  0
LINE
  5
75
330
1F
100
AcDbEntity
  8
dxfile
  6
Continuous
 62
     1
100
AcDbLine
 10
4122.975204
 20
72.314047
 30
0.0
 11
4122.975204
 21
272.314047
 31
0.0
  0
LINE
  5
76
330
1F
100
AcDbEntity
  8
dxfile
  6
Continuous
 62
     1
100
AcDbLine
 10
4122.975204
 20
272.314047
 30
0.0
 11
2652.975204
 21
272.314047
 31
0.0
  0
LINE
  5
77
330
1F
100
AcDbEntity
  8
dxfile
  6
Continuous
 62
     3
100
AcDbLine
 10
3272.975204
 20
272.314047
 30
0.0
 11
3272.975204
 21
72.314047
 31
0.0
  0
LINE
  5
78
330
1F
100
AcDbEntity
  8
dxfile
  6
Continuous
 62
     3
100
AcDbLine
 10
3372.975204
 20
272.314047
 30
0.0
 11
3372.975204
 21
72.314047
 31
0.0
  0
LINE
  5
79
330
1F
100
AcDbEntity
  8
dxfile
  6
Continuous
 62
     3
100
AcDbLine
 10
3472.975204
 20
272.314047
 30
0.0
 11
3472.975204
 21
72.314047
 31
0.0
  0
LINE
  5
7A
330
1F
100
AcDbEntity
  8
dxfile
  6
Continuous
 62
     3
100
AcDbLine
 10
3572.975204
 20
272.314047
 30
0.0
 11
3572.975204
 21
72.314047
 31
0.0
  0
LINE
  5
7B
330
1F
100
AcDbEntity
  8
dxfile
  6
Continuous
 62
     3
100
AcDbLine
 10
3272.975204
 20
172.314047
 30
0.0
 11
4122.975204
 21
172.314047
 31
0.0
  0
TEXT
  5
7C
330
1F
100
AcDbEntity
  8
dxfile
  6
Continuous
 62
     2
100
AcDbText
 10
3324.923301
 20
249.213018
 30
0.0
 40
30.0
  1
単位
 41
0.858268
  7
BIG VER
100
AcDbText
  0
TEXT
  5
7D
330
1F
100
AcDbEntity
  8
dxfile
  6
Continuous
 62
     2
100
AcDbText
 10
3324.923301
 20
149.799368
 30
0.0
 40
30.0
  1
製図
 41
0.858268
  7
BIG VER
100
AcDbText
  0
TEXT
  5
7E
330
1F
100
AcDbEntity
  8
dxfile
  6
Continuous
 62
     2
100
AcDbText
 10
3524.152627
 20
251.915217
 30
0.0
 40
30.0
  1
形名
 41
0.858268
  7
BIG VER
100
AcDbText
  0
TEXT
  5
7F
330
1F
100
AcDbEntity
  8
dxfile
  6
Continuous
 62
     2
100
AcDbText
 10
3524.152627
 20
148.179257
 30
0.0
 40
30.0
  1
図番
 41
0.858268
  7
BIG VER
100
AcDbText
  0
TEXT
  5
80
330
1F
100
AcDbEntity
  8
dxfile
  6
Continuous
 62
     3
100
AcDbText
 10
3399.648784
 20
185.085317
 30
0.0
 40
30.0
  1
ｍｍ
 41
0.858268
  7
BIGFONT
100
AcDbText
  0
TEXT
  5
81
330
1F
100
AcDbEntity
  8
dxfile
  6
Continuous
 62
     2
100
AcDbText
 10
3700.632548
 20
224.718569
 30
0.0
 40
35.0
  1
サントップドーム　
 41
0.858268
  7
BIGFONT
100
AcDbText
  0
LINE
  5
82
330
1F
100
AcDbEntity
  8
dxfile
  6
Continuous
 62
     1
100
AcDbLine
 10
4122.975204
 20
72.314047
 30
0.0
 11
92.975204
 21
72.314047
 31
0.0
  0
TEXT
  5
83
330
1F
100
AcDbEntity
  8
dxfile
  6
Continuous
 62
     1
100
AcDbText
 10
2785.671284
 20
182.340647
 30
0.0
 40
70.0
  1
三洋工業株式会社
 41
0.858268
  7
BIGFONT
100
AcDbText
  0
CIRCLE
  5
84
330
1F
100
AcDbEntity
  8
dxfile
  6
Continuous
 62
     2
100
AcDbCircle
 10
2722.887401
 20
217.314047
 30
0.0
 40
35.0
  0
ARC
  5
85
330
1F
100
AcDbEntity
  8
dxfile
  6
Continuous
 62
     2
100
AcDbCircle
 10
2722.887401
 20
217.314047
 30
0.0
 40
24.99999999994628
100
AcDbArc
 50
61.260205
 51
118.739795
  0
ARC
  5
86
330
1F
100
AcDbEntity
  8
dxfile
  6
Continuous
 62
     2
100
AcDbCircle
 10
2722.887401
 20
217.314047
 30
0.0
 40
24.99999999995723
100
AcDbArc
 50
286.260205
 51
28.739795
  0
ARC
  5
87
330
1F
100
AcDbEntity
  8
dxfile
  6
Continuous
 62
     2
100
AcDbCircle
 10
2722.887401
 20
217.314047
 30
0.0
 40
25.00000000000554
100
AcDbArc
 50
151.260205
 51
253.739795
  0
TEXT
  5
88
330
1F
100
AcDbEntity
  8
dxfile
  6
Continuous
 62
     3
100
AcDbText
 10
2791.561784
 20
132.991457
 30
0.0
 40
30.0
  1
本社　東京都江東区亀戸６－２０－７
 41
0.858268
  7
BIGFONT
100
AcDbText
  0
TEXT
  5
89
330
1F
100
AcDbEntity
  8
dxfile
  6
Continuous
 62
     3
100
AcDbText
 10
2790.256544
 20
91.989027
 30
0.0
 40
30.0
  1
電話　０３－３６８５－３４５１（代）
 41
0.858268
  7
BIGFONT
100
AcDbText
  0
CIRCLE
  5
8A
330
1F
100
AcDbEntity
  8
dxfile
  6
Continuous
 62
     2
100
AcDbCircle
 10
2722.887401
 20
217.314047
 30
0.0
 40
36.99999999999989
  0
CIRCLE
  5
8B
330
1F
100
AcDbEntity
  8
dxfile
  6
Continuous
 62
     2
100
AcDbCircle
 10
2722.887401
 20
217.314047
 30
0.0
 40
33.00000000000011
  0
ARC
  5
8C
330
1F
100
AcDbEntity
  8
dxfile
  6
Continuous
 62
     2
100
AcDbCircle
 10
2722.887401
 20
217.314047
 30
0.0
 40
27.00000000002646
100
AcDbArc
 50
150.026114
 51
254.973886
  0
ARC
  5
8D
330
1F
100
AcDbEntity
  8
dxfile
  6
Continuous
 62
     2
100
AcDbCircle
 10
2722.887401
 20
217.314047
 30
0.0
 40
22.99999999999088
100
AcDbArc
 50
152.718932
 51
252.281068
  0
ARC
  5
8E
330
1F
100
AcDbEntity
  8
dxfile
  6
Continuous
 62
     2
100
AcDbCircle
 10
2722.887401
 20
217.314047
 30
0.0
 40
22.99999999999216
100
AcDbArc
 50
287.718932
 51
27.281068
  0
ARC
  5
8F
330
1F
100
AcDbEntity
  8
dxfile
  6
Continuous
 62
     2
100
AcDbCircle
 10
2722.887401
 20
217.314047
 30
0.0
 40
27.00000000005545
100
AcDbArc
 50
285.026114
 51
29.973886
  0
ARC
  5
90
330
1F
100
AcDbEntity
  8
dxfile
  6
Continuous
 62
     2
100
AcDbCircle
 10
2722.887401
 20
217.314047
 30
0.0
 40
27.0000000000563
100
AcDbArc
 50
60.026114
 51
119.973886
  0
ARC
  5
91
330
1F
100
AcDbEntity
  8
dxfile
  6
Continuous
 62
     2
100
AcDbCircle
 10
2722.887401
 20
217.314047
 30
0.0
 40
22.99999999994583
100
AcDbArc
 50
62.718932
 51
117.281068
  0
LINE
  5
92
330
1F
100
AcDbEntity
  8
dxfile
  6
Continuous
 62
     2
100
AcDbLine
 10
2703.795518
 20
236.405931
 30
0.0
 11
2722.887401
 21
217.314047
 31
0.0
  0
LINE
  5
93
330
1F
100
AcDbEntity
  8
dxfile
  6
Continuous
 62
     2
100
AcDbLine
 10
2722.887401
 20
217.314047
 30
0.0
 11
2722.887401
 21
190.314047
 31
0.0
  0
LINE
  5
94
330
1F
100
AcDbEntity
  8
dxfile
  6
Continuous
 62
     2
100
AcDbLine
 10
2722.887401
 20
217.314047
 30
0.0
 11
2741.979284
 21
236.405931
 31
0.0
  0
LINE
  5
95
330
1F
100
AcDbEntity
  8
dxfile
  6
Continuous
 62
     2
100
AcDbLine
 10
2740.51262
 20
237.767694
 30
0.0
 11
2722.887401
 21
220.142475
 31
0.0
  0
LINE
  5
96
330
1F
100
AcDbEntity
  8
dxfile
  6
Continuous
 62
     2
100
AcDbLine
 10
2722.887401
 20
220.142475
 30
0.0
 11
2705.262182
 21
237.767694
 31
0.0
  0
LINE
  5
97
330
1F
100
AcDbEntity
  8
dxfile
  6
Continuous
 62
     2
100
AcDbLine
 10
2722.887401
 20
257.314047
 30
0.0
 11
2722.887401
 21
250.314047
 31
0.0
  0
LINE
  5
98
330
1F
100
AcDbEntity
  8
dxfile
  6
Continuous
 62
     2
100
AcDbLine
 10
2722.887401
 20
257.314047
 30
0.0
 11
2720.887401
 21
250.253386
 31
0.0
  0
LINE
  5
99
330
1F
100
AcDbEntity
  8
dxfile
  6
Continuous
 62
     2
100
AcDbLine
 10
2722.887401
 20
257.314047
 30
0.0
 11
2724.887401
 21
250.253386
 31
0.0
  0
LINE
  5
9A
330
1F
100
AcDbEntity
  8
dxfile
  6
Continuous
 62
     2
100
AcDbLine
 10
2682.887401
 20
217.314047
 30
0.0
 11
2689.948063
 21
219.314047
 31
0.0
  0
LINE
  5
9B
330
1F
100
AcDbEntity
  8
dxfile
  6
Continuous
 62
     2
100
AcDbLine
 10
2682.887401
 20
217.314047
 30
0.0
 11
2689.887401
 21
217.314047
 31
0.0
  0
LINE
  5
9C
330
1F
100
AcDbEntity
  8
dxfile
  6
Continuous
 62
     2
100
AcDbLine
 10
2682.887401
 20
217.314047
 30
0.0
 11
2689.948063
 21
215.314047
 31
0.0
  0
LINE
  5
9D
330
1F
100
AcDbEntity
  8
dxfile
  6
Continuous
 62
     2
100
AcDbLine
 10
2722.887401
 20
177.314047
 30
0.0
 11
2720.887401
 21
184.374709
 31
0.0
  0
LINE
  5
9E
330
1F
100
AcDbEntity
  8
dxfile
  6
Continuous
 62
     2
100
AcDbLine
 10
2722.887401
 20
177.314047
 30
0.0
 11
2724.887401
 21
184.374709
 31
0.0
  0
LINE
  5
9F
330
1F
100
AcDbEntity
  8
dxfile
  6
Continuous
 62
     2
100
AcDbLine
 10
2722.887401
 20
177.314047
 30
0.0
 11
2722.887401
 21
184.314047
 31
0.0
  0
LINE
  5
A0
330
1F
100
AcDbEntity
  8
dxfile
  6
Continuous
 62
     2
100
AcDbLine
 10
2755.826739
 20
219.314047
 30
0.0
 11
2762.887401
 21
217.314047
 31
0.0
  0
LINE
  5
A1
330
1F
100
AcDbEntity
  8
dxfile
  6
Continuous
 62
     2
100
AcDbLine
 10
2762.887401
 20
217.314047
 30
0.0
 11
2755.887401
 21
217.314047
 31
0.0
  0
LINE
  5
A2
330
1F
100
AcDbEntity
  8
dxfile
  6
Continuous
 62
     2
100
AcDbLine
 10
2762.887401
 20
217.314047
 30
0.0
 11
2755.826739
 21
215.314047
 31
0.0
  0
LINE
  5
A3
330
1F
100
AcDbEntity
  8
dxfile
  6
Continuous
 62
     2
100
AcDbLine
 10
2702.433755
 20
234.939267
 30
0.0
 11
2720.887401
 21
216.48562
 31
0.0
  0
LINE
  5
A4
330
1F
100
AcDbEntity
  8
dxfile
  6
Continuous
 62
     2
100
AcDbLine
 10
2720.887401
 20
216.48562
 30
0.0
 11
2720.887401
 21
190.388223
 31
0.0
  0
LINE
  5
A5
330
1F
100
AcDbEntity
  8
dxfile
  6
Continuous
 62
     2
100
AcDbLine
 10
2724.887401
 20
190.388223
 30
0.0
 11
2724.887401
 21
216.48562
 31
0.0
  0
LINE
  5
A6
330
1F
100
AcDbEntity
  8
dxfile
  6
Continuous
 62
     2
100
AcDbLine
 10
2724.887401
 20
216.48562
 30
0.0
 11
2743.341047
 21
234.939267
 31
0.0
  0
LINE
  5
A7
330
1F
100
AcDbEntity
  8
dxfile
  6
Continuous
 62
     1
100
AcDbLine
 10
92.975204
 20
72.314047
 30
0.0
 11
92.975204
 21
2892.314047
 31
0.0
  0
TEXT
  5
A8
330
1F
100
AcDbEntity
  8
dxfile
  6
Continuous
 62
     2
100
AcDbText
 10
3701.409847
 20
178.857946
 30
0.0
 40
35.0
  1
ＡＢ型　標準図
 41
0.858268
  7
BIGFONT
100
AcDbText
  0
TEXT
  5
A9
330
1F
100
AcDbEntity
  8
dxfile
  6
Continuous
 62
     3
100
AcDbText
 10
3388.116622
 20
102.498674
 30
0.0
 40
30.0
  1
久保田
 41
0.858268
  7
BIGFONT
100
AcDbText
  0
LINE
  5
AA
330
1F
100
AcDbEntity
  8
dxfile
  6
Continuous
 62
     7
100
AcDbLine
 10
4122.975204
 20
72.314047
 30
0.0
 11
4122.975204
 21
2892.314047
 31
0.0
  0
LINE
  5
AB
330
1F
100
AcDbEntity
  8
dxfile
  6
Continuous
 62
     7
100
AcDbLine
 10
92.975204
 20
2892.314047
 30
0.0
 11
4122.975204
 21
2892.314047
 31
0.0
  0
LINE
  5
AC
330
1F
100
AcDbEntity
  8
dxfile
  6
Continuous
 62
     3
100
AcDbLine
 10
1338.340273
 20
1022.934538
 30
0.0
 11
1329.835463
 21
993.203776
 31
0.0
  0
LINE
  5
AD
330
1F
100
AcDbEntity
  8
dxfile
  6
Continuous
 62
     3
100
AcDbLine
 10
1329.835463
 20
993.203776
 30
0.0
 11
1428.835971
 21
1164.677685
 31
0.0
  0
LINE
  5
AE
330
1F
100
AcDbEntity
  8
dxfile
  6
Continuous
 62
     3
100
AcDbLine
 10
1428.835971
 20
1164.677685
 30
0.0
 11
1763.56038
 21
1164.677685
 31
0.0
  0
TEXT
  5
AF
330
1F
100
AcDbEntity
  8
dxfile
  6
Continuous
 62
     3
100
AcDbText
 10
1428.835971
 20
1169.677685
 30
0.0
 40
30.0
  1
Ｍ８×４０　Ｗ．Ｐ．Ｎ　ＳＵＳ
 41
0.858268
  7
BIGFONT
100
AcDbText
  0
LINE
  5
B0
330
1F
100
AcDbEntity
  8
dxfile
  6
Continuous
 62
     3
100
AcDbLine
 10
1428.55863
 20
898.722262
 30
0.0
 11
1422.888757
 21
878.901754
 31
0.0
  0
LINE
  5
B1
330
1F
100
AcDbEntity
  8
dxfile
  6
Continuous
 62
     3
100
AcDbLine
 10
1422.888757
 20
878.901754
 30
0.0
 11
1472.092761
 21
964.125589
 31
0.0
  0
LINE
  5
B2
330
1F
100
AcDbEntity
  8
dxfile
  6
Continuous
 62
     3
100
AcDbLine
 10
1472.092761
 20
964.125589
 30
0.0
 11
1765.321108
 21
964.125589
 31
0.0
  0
TEXT
  5
B3
330
1F
100
AcDbEntity
  8
dxfile
  6
Continuous
 62
     3
100
AcDbText
 10
1482.092761
 20
969.125589
 30
0.0
 40
30.0
  1
シーリング処理（別途）
 41
0.858268
 51
0.0
  7
BIGFONT
100
AcDbText
  0
LINE
  5
B4
330
1F
100
AcDbEntity
  8
dxfile
  6
Continuous
 62
     3
100
AcDbLine
 10
1407.83828
 20
929.302942
 30
0.0
 11
1402.168407
 21
909.482434
 31
0.0
  0
LINE
  5
B5
330
1F
100
AcDbEntity
  8
dxfile
  6
Continuous
 62
     3
100
AcDbLine
 10
1402.168407
 20
909.482434
 30
0.0
 11
1498.897149
 21
1077.021528
 31
0.0
  0
LINE
  5
B6
330
1F
100
AcDbEntity
  8
dxfile
  6
Continuous
 62
     3
100
AcDbLine
 10
1498.897149
 20
1077.021528
 30
0.0
 11
1890.61171
 21
1077.021528
 31
0.0
  0
TEXT
  5
B7
330
1F
100
AcDbEntity
  8
dxfile
  6
Continuous
 62
     3
100
AcDbText
 10
1531.417579
 20
1082.021528
 30
0.0
 40
30.0
  1
トップライトフレーム　アルミ
 41
0.858268
  7
BIGFONT
 72
     1
 11
1684.066623
 21
1097.021528
 31
0.0
100
AcDbText
 73
     2
  0
LINE
  5
B8
330
1F
100
AcDbEntity
  8
dxfile
  6
Continuous
 62
     2
100
AcDbLine
 10
1311.988958
 20
1646.487497
 30
0.0
 11
986.832514
 21
1646.487497
 31
0.0
  0
LINE
  5
B9
330
1F
100
AcDbEntity
  8
dxfile
  6
Continuous
 62
     2
100
AcDbLine
 10
1311.988958
 20
1646.487497
 30
0.0
 11
1311.988958
 21
1593.295929
 31
0.0
  0
LINE
  5
BA
330
1F
100
AcDbEntity
  8
dxfile
  6
Continuous
 62
     2
100
AcDbLine
 10
1311.988958
 20
1593.295929
 30
0.0
 11
986.832514
 21
1593.295929
 31
0.0
  0
LINE
  5
BB
330
1F
100
AcDbEntity
  8
dxfile
  6
Continuous
 62
     2
100
AcDbLine
 10
986.832514
 20
1593.295929
 30
0.0
 11
986.832514
 21
1646.487497
 31
0.0
  0
TEXT
  5
BC
330
1F
100
AcDbEntity
  8
dxfile
  6
Continuous
 62
     2
100
AcDbText
 10
993.755997
 20
1603.819748
 30
0.0
 40
30.0
  1
アンカー位置図Ｓ１：２０
 41
0.858268
  7
BIGFONT
100
AcDbText
  0
LINE
  5
BD
330
1F
100
AcDbEntity
  8
dxfile
  6
Continuous
 62
     3
100
AcDbLine
 10
979.25208
 20
1240.736294
 30
0.0
 11
973.582207
 21
1220.915786
 31
0.0
  0
LINE
  5
BE
330
1F
100
AcDbEntity
  8
dxfile
  6
Continuous
 62
     3
100
AcDbLine
 10
973.582207
 20
1220.915786
 30
0.0
 11
1091.963429
 21
1425.958075
 31
0.0
  0
LINE
  5
BF
330
1F
100
AcDbEntity
  8
dxfile
  6
Continuous
 62
     3
100
AcDbLine
 10
1091.963429
 20
1425.958075
 30
0.0
 11
1254.697453
 21
1425.958075
 31
0.0
  0
TEXT
  5
C0
330
1F
100
AcDbEntity
  8
dxfile
  6
Continuous
 62
     3
100
AcDbText
 10
1100.209264
 20
1430.958075
 30
0.0
 40
30.0
  1
ＡＢ型ドーム
 41
0.858268
  7
BIGFONT
100
AcDbText
  0
INSERT
  5
CA
330
1F
100
AcDbEntity
  8
dxfile
  6
Continuous
 62
     3
100
AcDbBlockReference
  2
DIM_0
 10
377.925124
 20
729.142913
 30
0.0
  0
LINE
  5
CB
330
1F
100
AcDbEntity
  8
dxfile
  6
Continuous
 62
     6
100
AcDbLine
 10
351.383057
 20
976.621719
 30
0.0
 11
345.490786
 21
976.621719
 31
0.0
  0
LINE
  5
CC
330
1F
100
AcDbEntity
  8
dxfile
  6
Continuous
 62
     6
100
AcDbLine
 10
345.490786
 20
976.621719
 30
0.0
 11
370.411298
 21
976.621719
 31
0.0
  0
LINE
  5
CD
330
1F
100
AcDbEntity
  8
dxfile
  6
Continuous
 62
     3
100
AcDbLine
 10
482.536517
 20
923.323223
 30
0.0
 11
468.20639
 21
938.143731
 31
0.0
  0
LINE
  5
CE
330
1F
100
AcDbEntity
  8
dxfile
  6
Continuous
 62
     3
100
AcDbLine
 10
468.20639
 20
938.143731
 30
0.0
 11
522.782633
 21
843.614905
 31
0.0
  0
LINE
  5
CF
330
1F
100
AcDbEntity
  8
dxfile
  6
Continuous
 62
     3
100
AcDbLine
 10
522.782633
 20
843.614905
 30
0.0
 11
806.010979
 21
843.614905
 31
0.0
  0
TEXT
  5
D0
330
1F
100
AcDbEntity
  8
dxfile
  6
Continuous
 62
     3
100
AcDbText
 10
522.782633
 20
848.614905
 30
0.0
 40
30.0
  1
６．８網入り硝子（別途）
 41
0.858268
  7
BIGFONT
100
AcDbText
  0
LINE
  5
D1
330
1F
100
AcDbEntity
  8
dxfile
  6
Continuous
 62
     3
100
AcDbLine
 10
419.024443
 20
671.604658
 30
0.0
 11
404.694316
 21
686.425166
 31
0.0
  0
LINE
  5
D2
330
1F
100
AcDbEntity
  8
dxfile
  6
Continuous
 62
     3
100
AcDbLine
 10
404.694316
 20
686.425166
 30
0.0
 11
457.902465
 21
594.265949
 31
0.0
  0
LINE
  5
D3
330
1F
100
AcDbEntity
  8
dxfile
  6
Continuous
 62
     3
100
AcDbLine
 10
457.902465
 20
594.265949
 30
0.0
 11
622.390654
 21
594.265949
 31
0.0
  0
TEXT
  5
D4
330
1F
100
AcDbEntity
  8
dxfile
  6
Continuous
 62
     3
100
AcDbText
 10
464.134165
 20
603.472259
 30
0.0
 40
30.0
  1
内装仕上げ面
 41
0.858268
  7
BIGFONT
100
AcDbText
  0
LINE
  5
D5
330
1F
100
AcDbEntity
  8
dxfile
  6
Continuous
 62
     4
100
AcDbLine
 10
207.95692
 20
747.346031
 30
0.0
 11
217.925124
 21
747.346031
 31
0.0
  0
LINE
  5
D6
330
1F
100
AcDbEntity
  8
dxfile
  6
Continuous
 62
     4
100
AcDbLine
 10
217.925124
 20
747.346031
 30
0.0
 11
217.925124
 21
717.441417
 31
0.0
  0
LINE
  5
D7
330
1F
100
AcDbEntity
  8
dxfile
  6
Continuous
 62
     4
100
AcDbLine
 10
215.931484
 20
717.441417
 30
0.0
 11
217.925124
 21
717.441417
 31
0.0
  0
LINE
  5
D8
330
1F
100
AcDbEntity
  8
dxfile
  6
Continuous
 62
     4
100
AcDbLine
 10
207.95692
 20
745.35239
 30
0.0
 11
215.931484
 21
745.35239
 31
0.0
  0
LINE
  5
D9
330
1F
100
AcDbEntity
  8
dxfile
  6
Continuous
 62
     4
100
AcDbLine
 10
215.931484
 20
745.35239
 30
0.0
 11
215.931484
 21
717.441417
 31
0.0
  0
LINE
  5
DA
330
1F
100
AcDbEntity
  8
dxfile
  6
Continuous
 62
     4
100
AcDbLine
 10
207.95692
 20
747.346031
 30
0.0
 11
207.95692
 21
745.35239
 31
0.0
  0
LINE
  5
DB
330
1F
100
AcDbEntity
  8
dxfile
  6
Continuous
 62
     3
100
AcDbLine
 10
279.255041
 20
876.367496
 30
0.0
 11
160.103096
 21
855.358926
 31
0.0
  0
LINE
  5
DC
330
1F
100
AcDbEntity
  8
dxfile
  6
Continuous
 62
     3
100
AcDbLine
 10
208.837112
 20
732.139535
 30
0.0
 11
234.640704
 21
732.139535
 31
0.0
  0
LINE
  5
DD
330
1F
100
AcDbEntity
  8
dxfile
  6
Continuous
 62
     3
100
AcDbLine
 10
160.103096
 20
747.346031
 30
0.0
 11
160.103096
 21
855.358926
 31
0.0
  0
LINE
  5
DE
330
1F
100
AcDbEntity
  8
dxfile
  6
Continuous
 62
     3
100
AcDbLine
 10
199.975915
 20
757.314236
 30
0.0
 11
199.975915
 21
747.346031
 31
0.0
  0
LINE
  5
DF
330
1F
100
AcDbEntity
  8
dxfile
  6
Continuous
 62
     3
100
AcDbLine
 10
199.975915
 20
747.346031
 30
0.0
 11
160.103096
 21
747.346031
 31
0.0
  0
CIRCLE
  5
E0
330
1F
100
AcDbEntity
  8
dxfile
  6
Continuous
 62
     6
100
AcDbCircle
 10
259.865886
 20
857.50865
 30
0.0
 40
0.50439116288
  0
CIRCLE
  5
E1
330
1F
100
AcDbEntity
  8
dxfile
  6
Continuous
 62
     6
100
AcDbCircle
 10
165.450041
 20
772.616427
 30
0.0
 40
0.94996991744
  0
CIRCLE
  5
E2
330
1F
100
AcDbEntity
  8
dxfile
  6
Continuous
 62
     6
100
AcDbCircle
 10
173.942951
 20
804.040196
 30
0.0
 40
0.8492910489599999
  0
CIRCLE
  5
E3
330
1F
100
AcDbEntity
  8
dxfile
  6
Continuous
 62
     6
100
AcDbCircle
 10
171.395078
 20
827.820345
 30
0.0
 40
0.60008592896
  0
CIRCLE
  5
E4
330
1F
100
AcDbEntity
  8
dxfile
  6
Continuous
 62
     6
100
AcDbCircle
 10
173.518306
 20
762.000289
 30
0.0
 40
0.8492910489599999
  0
CIRCLE
  5
E5
330
1F
100
AcDbEntity
  8
dxfile
  6
Continuous
 62
     6
100
AcDbCircle
 10
167.997914
 20
789.177602
 30
0.0
 40
1.34271718656
  0
CIRCLE
  5
E6
330
1F
100
AcDbEntity
  8
dxfile
  6
Continuous
 62
     6
100
AcDbCircle
 10
165.450041
 20
814.231688
 30
0.0
 40
0.94996991744
  0
CIRCLE
  5
E7
330
1F
100
AcDbEntity
  8
dxfile
  6
Continuous
 62
     6
100
AcDbCircle
 10
252.210305
 20
866.759144
 30
0.0
 40
0.4784738304
  0
CIRCLE
  5
E8
330
1F
100
AcDbEntity
  8
dxfile
  6
Continuous
 62
     6
100
AcDbCircle
 10
373.583166
 20
893.731678
 30
0.0
 40
0.4784738304
  0
CIRCLE
  5
E9
330
1F
100
AcDbEntity
  8
dxfile
  6
Continuous
 62
     6
100
AcDbCircle
 10
360.983356
 20
882.708271
 30
0.0
 40
0.5751654169599999
  0
CIRCLE
  5
EA
330
1F
100
AcDbEntity
  8
dxfile
  6
Continuous
 62
     6
100
AcDbCircle
 10
373.423675
 20
880.634885
 30
0.0
 40
0.3189825536000001
  0
CIRCLE
  5
EB
330
1F
100
AcDbEntity
  8
dxfile
  6
Continuous
 62
     6
100
AcDbCircle
 10
354.284722
 20
878.880481
 30
0.0
 40
0.4784738304
  0
CIRCLE
  5
EC
330
1F
100
AcDbEntity
  8
dxfile
  6
Continuous
 62
     6
100
AcDbCircle
 10
362.259286
 20
897.878451
 30
0.0
 40
0.6379651072000001
  0
CIRCLE
  5
ED
330
1F
100
AcDbEntity
  8
dxfile
  6
Continuous
 62
     6
100
AcDbCircle
 10
372.466728
 20
897.559469
 30
0.0
 40
0.50439116288
  0
CIRCLE
  5
EE
330
1F
100
AcDbEntity
  8
dxfile
  6
Continuous
 62
     6
100
AcDbCircle
 10
329.244592
 20
884.303184
 30
0.0
 40
0.6379651072000001
  0
CIRCLE
  5
EF
330
1F
100
AcDbEntity
  8
dxfile
  6
Continuous
 62
     6
100
AcDbCircle
 10
327.330696
 20
873.298286
 30
0.0
 40
0.3189825536000001
  0
CIRCLE
  5
F0
330
1F
100
AcDbEntity
  8
dxfile
  6
Continuous
 62
     6
100
AcDbCircle
 10
315.209359
 20
873.77676
 30
0.0
 40
0.50439116288
  0
CIRCLE
  5
F1
330
1F
100
AcDbEntity
  8
dxfile
  6
Continuous
 62
     6
100
AcDbCircle
 10
318.239693
 20
888.308975
 30
0.0
 40
0.50439116288
  0
CIRCLE
  5
F2
330
1F
100
AcDbEntity
  8
dxfile
  6
Continuous
 62
     6
100
AcDbCircle
 10
305.161409
 20
869.311004
 30
0.0
 40
0.45155967744
  0
CIRCLE
  5
F3
330
1F
100
AcDbEntity
  8
dxfile
  6
Continuous
 62
     6
100
AcDbCircle
 10
293.678037
 20
867.875583
 30
0.0
 40
0.4784738304
  0
CIRCLE
  5
F4
330
1F
100
AcDbEntity
  8
dxfile
  6
Continuous
 62
     6
100
AcDbCircle
 10
300.855144
 20
882.54878
 30
0.0
 40
0.6379651072000001
  0
CIRCLE
  5
F5
330
1F
100
AcDbEntity
  8
dxfile
  6
Continuous
 62
     6
100
AcDbCircle
 10
217.441206
 20
852.56442
 30
0.0
 40
0.7137234636799996
  0
CIRCLE
  5
F6
330
1F
100
AcDbEntity
  8
dxfile
  6
Continuous
 62
     6
100
AcDbCircle
 10
229.562544
 20
856.711193
 30
0.0
 40
0.7137234636799996
  0
CIRCLE
  5
F7
330
1F
100
AcDbEntity
  8
dxfile
  6
Continuous
 62
     6
100
AcDbCircle
 10
288.733807
 20
882.070306
 30
0.0
 40
0.7137234636799996
  0
CIRCLE
  5
F8
330
1F
100
AcDbEntity
  8
dxfile
  6
Continuous
 62
     6
100
AcDbCircle
 10
221.58798
 20
860.857966
 30
0.0
 40
0.5751654169599999
  0
CIRCLE
  5
F9
330
1F
100
AcDbEntity
  8
dxfile
  6
Continuous
 62
     6
100
AcDbCircle
 10
282.673139
 20
868.354056
 30
0.0
 40
0.45155967744
  0
CIRCLE
  5
FA
330
1F
100
AcDbEntity
  8
dxfile
  6
Continuous
 62
     6
100
AcDbCircle
 10
267.202485
 20
869.948969
 30
0.0
 40
0.8134055116800001
  0
CIRCLE
  5
FB
330
1F
100
AcDbEntity
  8
dxfile
  6
Continuous
 62
     6
100
AcDbCircle
 10
169.696496
 20
849.901912
 30
0.0
 40
1.34271718656
  0
CIRCLE
  5
FC
330
1F
100
AcDbEntity
  8
dxfile
  6
Continuous
 62
     6
100
AcDbCircle
 10
196.024518
 20
854.573013
 30
0.0
 40
0.4246455244799999
  0
CIRCLE
  5
FD
330
1F
100
AcDbEntity
  8
dxfile
  6
Continuous
 62
     6
100
AcDbCircle
 10
247.585058
 20
857.030176
 30
0.0
 40
0.22528142848
  0
LINE
  5
FE
330
1F
100
AcDbEntity
  8
dxfile
  6
Continuous
 62
     2
100
AcDbLine
 10
716.518858
 20
351.902279
 30
0.0
 11
718.278246
 21
351.902279
 31
0.0
  0
TEXT
  5
FF
330
1F
100
AcDbEntity
  8
dxfile
  6
Continuous
 62
     2
100
AcDbText
 10
729.478555
 20
309.662532
 30
0.0
 40
31.1506
  1
正面図Ｓ１：１０
 41
0.858268
  7
BIGFONT
100
AcDbText
  0
LINE
  5
100
330
1F
100
AcDbEntity
  8
dxfile
  6
Continuous
 62
     2
100
AcDbLine
 10
717.838399
 20
351.902279
 30
0.0
 11
943.637374
 21
351.902279
 31
0.0
  0
LINE
  5
101
330
1F
100
AcDbEntity
  8
dxfile
  6
Continuous
 62
     2
100
AcDbLine
 10
943.637374
 20
351.902279
 30
0.0
 11
943.637374
 21
300.880023
 31
0.0
  0
LINE
  5
102
330
1F
100
AcDbEntity
  8
dxfile
  6
Continuous
 62
     2
100
AcDbLine
 10
943.637374
 20
300.880023
 30
0.0
 11
716.518858
 21
300.880023
 31
0.0
  0
LINE
  5
103
330
1F
100
AcDbEntity
  8
dxfile
  6
Continuous
 62
     2
100
AcDbLine
 10
716.518858
 20
300.880023
 30
0.0
 11
716.518858
 21
352.342126
 31
0.0
  0
LINE
  5
104
330
1F
100
AcDbEntity
  8
dxfile
  6
Continuous
 62
     3
100
AcDbLine
 10
342.998735
 20
990.229591
 30
0.0
 11
372.903349
 21
990.229591
 31
0.0
  0
LINE
  5
105
330
1F
100
AcDbEntity
  8
dxfile
  6
Continuous
 62
     6
100
AcDbLine
 10
372.903349
 20
988.229591
 30
0.0
 11
342.988766
 21
988.229591
 31
0.0
  0
LINE
  5
106
330
1F
100
AcDbEntity
  8
dxfile
  6
Continuous
 62
     6
100
AcDbLine
 10
370.411298
 20
982.621719
 30
0.0
 11
370.411298
 21
976.621719
 31
0.0
  0
LINE
  5
107
330
1F
100
AcDbEntity
  8
dxfile
  6
Continuous
 62
     6
100
AcDbLine
 10
345.490786
 20
982.621719
 30
0.0
 11
345.490786
 21
976.621719
 31
0.0
  0
LINE
  5
108
330
1F
100
AcDbEntity
  8
dxfile
  6
Continuous
 62
     3
100
AcDbLine
 10
372.903349
 20
990.229591
 30
0.0
 11
372.903349
 21
988.229591
 31
0.0
  0
LINE
  5
109
330
1F
100
AcDbEntity
  8
dxfile
  6
Continuous
 62
     3
100
AcDbLine
 10
342.998735
 20
990.229591
 30
0.0
 11
342.998735
 21
988.229591
 31
0.0
  0
LINE
  5
10A
330
1F
100
AcDbEntity
  8
dxfile
  6
Continuous
 62
     2
100
AcDbLine
 10
227.925124
 20
757.314236
 30
0.0
 11
227.925124
 21
642.128529
 31
0.0
  0
LINE
  5
10B
330
1F
100
AcDbEntity
  8
dxfile
  6
Continuous
 62
     2
100
AcDbLine
 10
217.925124
 20
757.314236
 30
0.0
 11
217.925124
 21
642.128529
 31
0.0
  0
LINE
  5
10C
330
1F
100
AcDbEntity
  8
dxfile
  6
Continuous
 62
     2
100
AcDbLine
 10
377.925124
 20
876.672003
 30
0.0
 11
377.925124
 21
642.128529
 31
0.0
  0
LINE
  5
10D
330
1F
100
AcDbEntity
  8
dxfile
  6
Continuous
 62
     2
100
AcDbLine
 10
227.925124
 20
757.314236
 30
0.0
 11
180.039505
 21
757.314236
 31
0.0
  0
LINE
  5
10E
330
1F
100
AcDbEntity
  8
dxfile
  6
Continuous
 62
     2
100
AcDbLine
 10
180.039505
 20
841.780816
 30
0.0
 11
180.039505
 21
757.314236
 31
0.0
  0
LINE
  5
10F
330
1F
100
AcDbEntity
  8
dxfile
  6
Continuous
 62
     3
100
AcDbLine
 10
183.694846
 20
757.314236
 30
0.0
 11
287.024736
 21
860.644126
 31
0.0
  0
LINE
  5
110
330
1F
100
AcDbEntity
  8
dxfile
  6
Continuous
 62
     2
100
AcDbLine
 10
377.925124
 20
876.672003
 30
0.0
 11
180.039505
 21
841.780112
 31
0.0
  0
LINE
  5
111
330
1F
100
AcDbEntity
  8
dxfile
  6
PLine2
 62
     3
100
AcDbLine
 10
402.925124
 20
926.621719
 30
0.0
 11
402.925124
 21
638.906126
 31
0.0
  0
LINE
  5
112
330
1F
100
AcDbEntity
  8
dxfile
  6
Continuous
 62
     3
100
AcDbLine
 10
273.620464
 20
858.280637
 30
0.0
 11
180.039505
 21
764.699679
 31
0.0
  0
LINE
  5
113
330
1F
100
AcDbEntity
  8
dxfile
  6
Continuous
 62
     3
100
AcDbLine
 10
279.807051
 20
859.371478
 30
0.0
 11
180.039505
 21
759.603932
 31
0.0
  0
LINE
  5
114
330
1F
100
AcDbEntity
  8
dxfile
  6
Continuous
 62
     3
100
AcDbLine
 10
377.925124
 20
712.218778
 30
0.0
 11
306.293565
 21
640.587218
 31
0.0
  0
LINE
  5
115
330
1F
100
AcDbEntity
  8
dxfile
  6
Continuous
 62
     3
100
AcDbLine
 10
377.925124
 20
717.73917
 30
0.0
 11
300.773173
 21
640.587218
 31
0.0
  0
LINE
  5
116
330
1F
100
AcDbEntity
  8
dxfile
  6
Continuous
 62
     3
100
AcDbLine
 10
377.925124
 20
722.410271
 30
0.0
 11
296.102072
 21
640.587218
 31
0.0
  0
LINE
  5
117
330
1F
100
AcDbEntity
  8
dxfile
  6
PLine2
 62
     3
100
AcDbLine
 10
842.925124
 20
1278.993313
 30
0.0
 11
842.925124
 21
714.282732
 31
0.0
  0
INSERT
  5
121
330
1F
100
AcDbEntity
  8
dxfile
  6
Continuous
 62
     3
100
AcDbBlockReference
  2
DIM_1
 10
392.925124
 20
1007.244037
 30
0.0
  0
LINE
  5
122
330
1F
100
AcDbEntity
  8
dxfile
  6
Continuous
 62
     4
100
AcDbLine
 10
300.202347
 20
986.621719
 30
0.0
 11
386.854954
 21
986.621719
 31
0.0
  0
LINE
  5
123
330
1F
100
AcDbEntity
  8
dxfile
  6
Continuous
 62
     4
100
AcDbLine
 10
298.879216
 20
982.621719
 30
0.0
 11
386.854954
 21
982.621719
 31
0.0
  0
LINE
  5
124
330
1F
100
AcDbEntity
  8
dxfile
  6
Continuous
 62
     4
100
AcDbLine
 10
275.925124
 20
946.621719
 30
0.0
 11
290.078707
 21
979.924266
 31
0.0
  0
LINE
  5
125
330
1F
100
AcDbEntity
  8
dxfile
  6
Continuous
 62
     4
100
AcDbLine
 10
280.271387
 20
946.621719
 30
0.0
 11
294.277561
 21
979.577422
 31
0.0
  0
LINE
  5
126
330
1F
100
AcDbEntity
  8
dxfile
  6
Continuous
 62
     4
100
AcDbLine
 10
275.925124
 20
946.621719
 30
0.0
 11
280.271387
 21
946.621719
 31
0.0
  0
ARC
  5
127
330
1F
100
AcDbEntity
  8
dxfile
  6
Continuous
 62
     4
100
AcDbCircle
 10
842.925124
 20
706.621719
 30
0.0
 40
529.9999999999999
100
AcDbArc
 50
32.540307
 51
147.459693
  0
ARC
  5
128
330
1F
100
AcDbEntity
  8
dxfile
  6
Continuous
 62
     4
100
AcDbCircle
 10
842.925124
 20
706.621719
 30
0.0
 40
525.9999999999999
100
AcDbArc
 50
32.540307
 51
147.459693
  0
LINE
  5
129
330
1F
100
AcDbEntity
  8
dxfile
  6
PLine2
 62
     3
100
AcDbLine
 10
357.925124
 20
1002.591531
 30
0.0
 11
357.925124
 21
946.019278
 31
0.0
  0
LINE
  5
12A
330
1F
100
AcDbEntity
  8
dxfile
  6
Continuous
 62
     3
100
AcDbLine
 10
353.925125
 20
969.128078
 30
0.0
 11
353.925125
 21
951.229591
 31
0.0
  0
LINE
  5
12B
330
1F
100
AcDbEntity
  8
dxfile
  6
Continuous
 62
     3
100
AcDbLine
 10
353.925125
 20
951.229591
 30
0.0
 11
354.925125
 21
950.229591
 31
0.0
  0
LINE
  5
12C
330
1F
100
AcDbEntity
  8
dxfile
  6
Continuous
 62
     3
100
AcDbLine
 10
361.925124
 20
969.128078
 30
0.0
 11
361.925124
 21
951.229591
 31
0.0
  0
LINE
  5
12D
330
1F
100
AcDbEntity
  8
dxfile
  6
Continuous
 62
     3
100
AcDbLine
 10
360.925124
 20
950.229591
 30
0.0
 11
354.925125
 21
950.229591
 31
0.0
  0
LINE
  5
12E
330
1F
100
AcDbEntity
  8
dxfile
  6
Continuous
 62
     3
100
AcDbLine
 10
361.925124
 20
951.229591
 30
0.0
 11
360.925124
 21
950.229591
 31
0.0
  0
LINE
  5
12F
330
1F
100
AcDbEntity
  8
dxfile
  6
Continuous
 62
     3
100
AcDbLine
 10
349.925125
 20
974.621719
 30
0.0
 11
349.925125
 21
969.844289
 31
0.0
  0
LINE
  5
130
330
1F
100
AcDbEntity
  8
dxfile
  6
Continuous
 62
     3
100
AcDbLine
 10
365.925124
 20
969.844289
 30
0.0
 11
365.925124
 21
974.621719
 31
0.0
  0
LINE
  5
131
330
1F
100
AcDbEntity
  8
dxfile
  6
Continuous
 62
     3
100
AcDbLine
 10
365.925124
 20
974.621719
 30
0.0
 11
349.925125
 21
974.621719
 31
0.0
  0
LINE
  5
132
330
1F
100
AcDbEntity
  8
dxfile
  6
Continuous
 62
     3
100
AcDbLine
 10
365.925124
 20
969.844289
 30
0.0
 11
364.673597
 21
969.121719
 31
0.0
  0
LINE
  5
133
330
1F
100
AcDbEntity
  8
dxfile
  6
Continuous
 62
     3
100
AcDbLine
 10
364.673597
 20
969.121719
 30
0.0
 11
357.925124
 21
969.121719
 31
0.0
  0
LINE
  5
134
330
1F
100
AcDbEntity
  8
dxfile
  6
Continuous
 62
     3
100
AcDbLine
 10
361.925124
 20
974.621719
 30
0.0
 11
361.925124
 21
969.808011
 31
0.0
  0
ARC
  5
135
330
1F
100
AcDbEntity
  8
dxfile
  6
Continuous
 62
     3
100
AcDbCircle
 10
357.925124
 20
981.121719
 30
0.0
 40
11.9999995200061
100
AcDbArc
 50
270.0
 51
289.471221
  0
ARC
  5
136
330
1F
100
AcDbEntity
  8
dxfile
  6
Continuous
 62
     3
100
AcDbCircle
 10
363.854792
 20
972.177719
 30
0.0
 40
3.05599987776958
100
AcDbArc
 50
230.843868
 51
270.0
  0
LINE
  5
137
330
1F
100
AcDbEntity
  8
dxfile
  6
Continuous
 62
     3
100
AcDbLine
 10
349.925125
 20
969.844289
 30
0.0
 11
351.176652
 21
969.121719
 31
0.0
  0
LINE
  5
138
330
1F
100
AcDbEntity
  8
dxfile
  6
Continuous
 62
     3
100
AcDbLine
 10
351.176652
 20
969.121719
 30
0.0
 11
357.925124
 21
969.121719
 31
0.0
  0
ARC
  5
139
330
1F
100
AcDbEntity
  8
dxfile
  6
Continuous
 62
     3
100
AcDbCircle
 10
357.925124
 20
981.121719
 30
0.0
 40
11.9999995200061
100
AcDbArc
 50
250.528779
 51
270.0
  0
ARC
  5
13A
330
1F
100
AcDbEntity
  8
dxfile
  6
Continuous
 62
     3
100
AcDbCircle
 10
351.995457
 20
972.177719
 30
0.0
 40
3.05599987776958
100
AcDbArc
 50
270.0
 51
309.156132
  0
LINE
  5
13B
330
1F
100
AcDbEntity
  8
dxfile
  6
Continuous
 62
     3
100
AcDbLine
 10
353.925125
 20
974.621719
 30
0.0
 11
353.925125
 21
969.808011
 31
0.0
  0
LINE
  5
13C
330
1F
100
AcDbEntity
  8
dxfile
  6
Continuous
 62
     3
100
AcDbLine
 10
365.925124
 20
990.229593
 30
0.0
 11
365.925124
 21
995.007023
 31
0.0
  0
LINE
  5
13D
330
1F
100
AcDbEntity
  8
dxfile
  6
Continuous
 62
     3
100
AcDbLine
 10
365.925124
 20
995.007023
 30
0.0
 11
364.673597
 21
995.729593
 31
0.0
  0
LINE
  5
13E
330
1F
100
AcDbEntity
  8
dxfile
  6
Continuous
 62
     3
100
AcDbLine
 10
364.673597
 20
995.729593
 30
0.0
 11
357.925124
 21
995.729593
 31
0.0
  0
LINE
  5
13F
330
1F
100
AcDbEntity
  8
dxfile
  6
Continuous
 62
     3
100
AcDbLine
 10
361.925124
 20
990.229593
 30
0.0
 11
361.925124
 21
995.043301
 31
0.0
  0
ARC
  5
140
330
1F
100
AcDbEntity
  8
dxfile
  6
Continuous
 62
     3
100
AcDbCircle
 10
357.925124
 20
983.729593
 30
0.0
 40
11.9999995200061
100
AcDbArc
 50
70.528779
 51
90.0
  0
ARC
  5
141
330
1F
100
AcDbEntity
  8
dxfile
  6
Continuous
 62
     3
100
AcDbCircle
 10
363.854792
 20
992.673593
 30
0.0
 40
3.05599987776958
100
AcDbArc
 50
90.0
 51
129.156132
  0
LINE
  5
142
330
1F
100
AcDbEntity
  8
dxfile
  6
Continuous
 62
     3
100
AcDbLine
 10
349.925125
 20
990.229593
 30
0.0
 11
349.925125
 21
995.007023
 31
0.0
  0
LINE
  5
143
330
1F
100
AcDbEntity
  8
dxfile
  6
Continuous
 62
     3
100
AcDbLine
 10
349.925125
 20
995.007023
 30
0.0
 11
351.176652
 21
995.729593
 31
0.0
  0
LINE
  5
144
330
1F
100
AcDbEntity
  8
dxfile
  6
Continuous
 62
     3
100
AcDbLine
 10
351.176652
 20
995.729593
 30
0.0
 11
357.925124
 21
995.729593
 31
0.0
  0
ARC
  5
145
330
1F
100
AcDbEntity
  8
dxfile
  6
Continuous
 62
     3
100
AcDbCircle
 10
357.925124
 20
983.729593
 30
0.0
 40
11.9999995200061
100
AcDbArc
 50
90.0
 51
109.471221
  0
ARC
  5
146
330
1F
100
AcDbEntity
  8
dxfile
  6
Continuous
 62
     3
100
AcDbCircle
 10
351.995457
 20
992.673593
 30
0.0
 40
3.05599987776958
100
AcDbArc
 50
50.843868
 51
90.0
  0
LINE
  5
147
330
1F
100
AcDbEntity
  8
dxfile
  6
Continuous
 62
     3
100
AcDbLine
 10
353.925125
 20
990.229593
 30
0.0
 11
353.925125
 21
995.043301
 31
0.0
  0
LINE
  5
148
330
1F
100
AcDbEntity
  8
dxfile
  6
Continuous
 62
     3
100
AcDbLine
 10
349.925125
 20
990.229591
 30
0.0
 11
365.925124
 21
990.229591
 31
0.0
  0
LINE
  5
149
330
1F
100
AcDbEntity
  8
dxfile
  6
Continuous
 62
     6
100
AcDbLine
 10
342.998735
 20
988.229591
 30
0.0
 11
372.903349
 21
988.229591
 31
0.0
  0
LINE
  5
14A
330
1F
100
AcDbEntity
  8
dxfile
  6
Continuous
 62
     6
100
AcDbLine
 10
372.903349
 20
988.229591
 30
0.0
 11
372.903349
 21
986.621719
 31
0.0
  0
LINE
  5
14B
330
1F
100
AcDbEntity
  8
dxfile
  6
Continuous
 62
     6
100
AcDbLine
 10
342.998735
 20
986.621719
 30
0.0
 11
342.998735
 21
988.229591
 31
0.0
  0
LINE
  5
14C
330
1F
100
AcDbEntity
  8
dxfile
  6
Continuous
 62
     6
100
AcDbLine
 10
342.998735
 20
987.729591
 30
0.0
 11
372.903349
 21
987.729591
 31
0.0
  0
LINE
  5
14D
330
1F
100
AcDbEntity
  8
dxfile
  6
Continuous
 62
     6
100
AcDbLine
 10
342.998735
 20
987.229591
 30
0.0
 11
372.903349
 21
987.229591
 31
0.0
  0
LINE
  5
14E
330
1F
100
AcDbEntity
  8
dxfile
  6
Continuous
 62
     6
100
AcDbLine
 10
363.332872
 20
976.621719
 30
0.0
 11
369.332872
 21
982.621719
 31
0.0
  0
LINE
  5
14F
330
1F
100
AcDbEntity
  8
dxfile
  6
Continuous
 62
     6
100
AcDbLine
 10
354.205222
 20
976.621719
 30
0.0
 11
360.205222
 21
982.621719
 31
0.0
  0
LINE
  5
150
330
1F
100
AcDbEntity
  8
dxfile
  6
Continuous
 62
     6
100
AcDbLine
 10
346.547569
 20
976.621719
 30
0.0
 11
352.547569
 21
982.621719
 31
0.0
  0
LINE
  5
151
330
1F
100
AcDbEntity
  8
dxfile
  6
Continuous
 62
     6
100
AcDbLine
 10
351.835864
 20
976.621719
 30
0.0
 11
345.835864
 21
982.621719
 31
0.0
  0
LINE
  5
152
330
1F
100
AcDbEntity
  8
dxfile
  6
Continuous
 62
     6
100
AcDbLine
 10
355.031885
 20
982.621719
 30
0.0
 11
361.031885
 21
976.621719
 31
0.0
  0
LINE
  5
153
330
1F
100
AcDbEntity
  8
dxfile
  6
Continuous
 62
     6
100
AcDbLine
 10
369.612559
 20
976.621719
 30
0.0
 11
363.612559
 21
982.621719
 31
0.0
  0
LINE
  5
154
330
1F
100
AcDbEntity
  8
dxfile
  6
Continuous
 62
     3
100
AcDbLine
 10
377.925124
 20
929.121719
 30
0.0
 11
384.892124
 21
929.121719
 31
0.0
  0
LINE
  5
155
330
1F
100
AcDbEntity
  8
dxfile
  6
Continuous
 62
     6
100
AcDbLine
 10
384.916124
 20
928.089719
 30
0.0
 11
384.916124
 21
949.615719
 31
0.0
  0
LINE
  5
156
330
1F
100
AcDbEntity
  8
dxfile
  6
Continuous
 62
     3
100
AcDbLine
 10
384.892124
 20
928.089719
 30
0.0
 11
384.892124
 21
929.121719
 31
0.0
  0
LINE
  5
157
330
1F
100
AcDbEntity
  8
dxfile
  6
Continuous
 62
     6
100
AcDbLine
 10
391.916124
 20
949.615719
 30
0.0
 11
391.916124
 21
946.615719
 31
0.0
  0
LINE
  5
158
330
1F
100
AcDbEntity
  8
dxfile
  6
Continuous
 62
     6
100
AcDbLine
 10
407.892124
 20
939.589719
 30
0.0
 11
407.892124
 21
936.589719
 31
0.0
  0
LINE
  5
159
330
1F
100
AcDbEntity
  8
dxfile
  6
Continuous
 62
     6
100
AcDbLine
 10
387.916124
 20
946.615719
 30
0.0
 11
391.916124
 21
946.615719
 31
0.0
  0
LINE
  5
15A
330
1F
100
AcDbEntity
  8
dxfile
  6
Continuous
 62
     6
100
AcDbLine
 10
387.916124
 20
946.615719
 30
0.0
 11
387.916124
 21
939.589719
 31
0.0
  0
LINE
  5
15B
330
1F
100
AcDbEntity
  8
dxfile
  6
Continuous
 62
     6
100
AcDbLine
 10
391.916124
 20
947.615719
 30
0.0
 11
390.916124
 21
946.615719
 31
0.0
  0
LINE
  5
15C
330
1F
100
AcDbEntity
  8
dxfile
  6
Continuous
 62
     6
100
AcDbLine
 10
389.916124
 20
934.615719
 30
0.0
 11
400.916124
 21
934.615719
 31
0.0
  0
LINE
  5
15D
330
1F
100
AcDbEntity
  8
dxfile
  6
Continuous
 62
     6
100
AcDbLine
 10
402.346124
 20
928.045719
 30
0.0
 11
406.421124
 21
932.120719
 31
0.0
  0
LINE
  5
15E
330
1F
100
AcDbEntity
  8
dxfile
  6
Continuous
 62
     6
100
AcDbLine
 10
400.916124
 20
934.615719
 30
0.0
 11
400.916124
 21
928.045719
 31
0.0
  0
LINE
  5
15F
330
1F
100
AcDbEntity
  8
dxfile
  6
Continuous
 62
     6
100
AcDbLine
 10
389.916124
 20
934.615719
 30
0.0
 11
389.916124
 21
928.095719
 31
0.0
  0
LINE
  5
160
330
1F
100
AcDbEntity
  8
dxfile
  6
Continuous
 62
     6
100
AcDbLine
 10
400.916124
 20
933.615719
 30
0.0
 11
406.416124
 21
928.115719
 31
0.0
  0
LINE
  5
161
330
1F
100
AcDbEntity
  8
dxfile
  6
Continuous
 62
     6
100
AcDbLine
 10
407.892124
 20
939.589719
 30
0.0
 11
387.916124
 21
939.589719
 31
0.0
  0
LINE
  5
162
330
1F
100
AcDbEntity
  8
dxfile
  6
Continuous
 62
     3
100
AcDbLine
 10
397.892124
 20
928.089719
 30
0.0
 11
406.392124
 21
928.089719
 31
0.0
  0
LINE
  5
163
330
1F
100
AcDbEntity
  8
dxfile
  6
Continuous
 62
     3
100
AcDbLine
 10
406.425124
 20
935.121719
 30
0.0
 11
406.425124
 21
928.121719
 31
0.0
  0
LINE
  5
164
330
1F
100
AcDbEntity
  8
dxfile
  6
Continuous
 62
     6
100
AcDbLine
 10
391.916124
 20
949.615719
 30
0.0
 11
384.916124
 21
949.615719
 31
0.0
  0
LINE
  5
165
330
1F
100
AcDbEntity
  8
dxfile
  6
Continuous
 62
     6
100
AcDbLine
 10
384.916124
 20
946.615719
 30
0.0
 11
387.916124
 21
949.615719
 31
0.0
  0
LINE
  5
166
330
1F
100
AcDbEntity
  8
dxfile
  6
Continuous
 62
     6
100
AcDbLine
 10
387.916124
 20
943.615719
 30
0.0
 11
384.916124
 21
940.615719
 31
0.0
  0
LINE
  5
167
330
1F
100
AcDbEntity
  8
dxfile
  6
Continuous
 62
     6
100
AcDbLine
 10
384.916124
 20
928.615719
 30
0.0
 11
389.916124
 21
933.615719
 31
0.0
  0
LINE
  5
168
330
1F
100
AcDbEntity
  8
dxfile
  6
Continuous
 62
     6
100
AcDbLine
 10
387.916124
 20
940.615719
 30
0.0
 11
384.916124
 21
943.615719
 31
0.0
  0
LINE
  5
169
330
1F
100
AcDbEntity
  8
dxfile
  6
Continuous
 62
     6
100
AcDbLine
 10
387.916124
 20
946.615719
 30
0.0
 11
384.916124
 21
949.615719
 31
0.0
  0
LINE
  5
16A
330
1F
100
AcDbEntity
  8
dxfile
  6
Continuous
 62
     6
100
AcDbLine
 10
384.916124
 20
937.615719
 30
0.0
 11
389.916124
 21
932.615719
 31
0.0
  0
LINE
  5
16B
330
1F
100
AcDbEntity
  8
dxfile
  6
Continuous
 62
     6
100
AcDbLine
 10
384.916124
 20
931.615719
 30
0.0
 11
388.491124
 21
928.040719
 31
0.0
  0
LINE
  5
16C
330
1F
100
AcDbEntity
  8
dxfile
  6
Continuous
 62
     3
100
AcDbLine
 10
384.892124
 20
928.089719
 30
0.0
 11
397.892124
 21
928.089719
 31
0.0
  0
LINE
  5
16D
330
1F
100
AcDbEntity
  8
dxfile
  6
Continuous
 62
     3
100
AcDbLine
 10
339.925124
 20
974.621719
 30
0.0
 11
370.925124
 21
974.621719
 31
0.0
  0
LINE
  5
16E
330
1F
100
AcDbEntity
  8
dxfile
  6
Continuous
 62
     3
100
AcDbLine
 10
339.925124
 20
974.621719
 30
0.0
 11
339.925124
 21
968.621719
 31
0.0
  0
LINE
  5
16F
330
1F
100
AcDbEntity
  8
dxfile
  6
Continuous
 62
     3
100
AcDbLine
 10
339.925124
 20
968.621719
 30
0.0
 11
342.925124
 21
968.621719
 31
0.0
  0
LINE
  5
170
330
1F
100
AcDbEntity
  8
dxfile
  6
Continuous
 62
     3
100
AcDbLine
 10
342.925124
 20
968.621719
 30
0.0
 11
342.925124
 21
967.621719
 31
0.0
  0
LINE
  5
171
330
1F
100
AcDbEntity
  8
dxfile
  6
Continuous
 62
     3
100
AcDbLine
 10
342.925124
 20
967.621719
 30
0.0
 11
339.925124
 21
967.621719
 31
0.0
  0
LINE
  5
172
330
1F
100
AcDbEntity
  8
dxfile
  6
Continuous
 62
     3
100
AcDbLine
 10
370.925124
 20
974.621719
 30
0.0
 11
375.925124
 21
974.621719
 31
0.0
  0
LINE
  5
173
330
1F
100
AcDbEntity
  8
dxfile
  6
Continuous
 62
     3
100
AcDbLine
 10
375.925124
 20
967.621719
 30
0.0
 11
375.925124
 21
957.621719
 31
0.0
  0
LINE
  5
174
330
1F
100
AcDbEntity
  8
dxfile
  6
Continuous
 62
     3
100
AcDbLine
 10
372.925124
 20
967.621719
 30
0.0
 11
375.925124
 21
967.621719
 31
0.0
  0
LINE
  5
175
330
1F
100
AcDbEntity
  8
dxfile
  6
Continuous
 62
     3
100
AcDbLine
 10
372.925124
 20
968.621719
 30
0.0
 11
372.925124
 21
967.621719
 31
0.0
  0
LINE
  5
176
330
1F
100
AcDbEntity
  8
dxfile
  6
Continuous
 62
     3
100
AcDbLine
 10
372.925124
 20
968.621719
 30
0.0
 11
375.925124
 21
968.621719
 31
0.0
  0
LINE
  5
177
330
1F
100
AcDbEntity
  8
dxfile
  6
Continuous
 62
     3
100
AcDbLine
 10
375.925124
 20
968.621719
 30
0.0
 11
375.925124
 21
974.621719
 31
0.0
  0
LINE
  5
178
330
1F
100
AcDbEntity
  8
dxfile
  6
Continuous
 62
     3
100
AcDbLine
 10
375.925124
 20
957.621719
 30
0.0
 11
375.925124
 21
926.621719
 31
0.0
  0
ARC
  5
179
330
1F
100
AcDbEntity
  8
dxfile
  6
Continuous
 62
     3
100
AcDbCircle
 10
338.225124
 20
976.321719
 30
0.0
 40
0.3
100
AcDbArc
 50
90.0
 51
180.0
  0
LINE
  5
17A
330
1F
100
AcDbEntity
  8
dxfile
  6
Continuous
 62
     3
100
AcDbLine
 10
337.925124
 20
976.321719
 30
0.0
 11
337.925124
 21
966.921719
 31
0.0
  0
ARC
  5
17B
330
1F
100
AcDbEntity
  8
dxfile
  6
Continuous
 62
     3
100
AcDbCircle
 10
338.225124
 20
966.921719
 30
0.0
 40
0.3
100
AcDbArc
 50
180.0
 51
270.0
  0
LINE
  5
17C
330
1F
100
AcDbEntity
  8
dxfile
  6
Continuous
 62
     3
100
AcDbLine
 10
338.225124
 20
966.621719
 30
0.0
 11
339.625124
 21
966.621719
 31
0.0
  0
LINE
  5
17D
330
1F
100
AcDbEntity
  8
dxfile
  6
Continuous
 62
     3
100
AcDbLine
 10
339.925124
 20
967.621719
 30
0.0
 11
339.925124
 21
966.921719
 31
0.0
  0
ARC
  5
17E
330
1F
100
AcDbEntity
  8
dxfile
  6
Continuous
 62
     3
100
AcDbCircle
 10
339.625124
 20
966.921719
 30
0.0
 40
0.3
100
AcDbArc
 50
270.0
 51
0.0
  0
LINE
  5
17F
330
1F
100
AcDbEntity
  8
dxfile
  6
Continuous
 62
     3
100
AcDbLine
 10
338.225124
 20
976.621719
 30
0.0
 11
377.625124
 21
976.621719
 31
0.0
  0
ARC
  5
180
330
1F
100
AcDbEntity
  8
dxfile
  6
Continuous
 62
     3
100
AcDbCircle
 10
377.625124
 20
976.321719
 30
0.0
 40
0.3
100
AcDbArc
 50
0.0
 51
90.0
  0
LINE
  5
181
330
1F
100
AcDbEntity
  8
dxfile
  6
Continuous
 62
     3
100
AcDbLine
 10
377.925124
 20
926.621719
 30
0.0
 11
407.625124
 21
926.621719
 31
0.0
  0
ARC
  5
182
330
1F
100
AcDbEntity
  8
dxfile
  6
Continuous
 62
     3
100
AcDbCircle
 10
407.625124
 20
926.921719
 30
0.0
 40
0.3
100
AcDbArc
 50
270.0
 51
0.0
  0
LINE
  5
183
330
1F
100
AcDbEntity
  8
dxfile
  6
Continuous
 62
     3
100
AcDbLine
 10
407.925124
 20
926.921719
 30
0.0
 11
407.925124
 21
936.321719
 31
0.0
  0
ARC
  5
184
330
1F
100
AcDbEntity
  8
dxfile
  6
Continuous
 62
     3
100
AcDbCircle
 10
407.625124
 20
936.321719
 30
0.0
 40
0.3
100
AcDbArc
 50
0.0
 51
90.0
  0
LINE
  5
185
330
1F
100
AcDbEntity
  8
dxfile
  6
Continuous
 62
     3
100
AcDbLine
 10
407.625124
 20
936.621719
 30
0.0
 11
405.225124
 21
936.621719
 31
0.0
  0
ARC
  5
186
330
1F
100
AcDbEntity
  8
dxfile
  6
Continuous
 62
     3
100
AcDbCircle
 10
405.225124
 20
936.321719
 30
0.0
 40
0.3
100
AcDbArc
 50
90.0
 51
180.0
  0
LINE
  5
187
330
1F
100
AcDbEntity
  8
dxfile
  6
Continuous
 62
     3
100
AcDbLine
 10
406.425124
 20
935.121719
 30
0.0
 11
405.225124
 21
935.121719
 31
0.0
  0
LINE
  5
188
330
1F
100
AcDbEntity
  8
dxfile
  6
Continuous
 62
     3
100
AcDbLine
 10
404.925124
 20
936.321719
 30
0.0
 11
404.925124
 21
935.421719
 31
0.0
  0
ARC
  5
189
330
1F
100
AcDbEntity
  8
dxfile
  6
Continuous
 62
     3
100
AcDbCircle
 10
405.225124
 20
935.421719
 30
0.0
 40
0.3
100
AcDbArc
 50
180.0
 51
270.0
  0
LINE
  5
18A
330
1F
100
AcDbEntity
  8
dxfile
  6
Continuous
 62
     3
100
AcDbLine
 10
375.925124
 20
957.621719
 30
0.0
 11
375.925124
 21
926.613781
 31
0.0
  0
LINE
  5
18B
330
1F
100
AcDbEntity
  8
dxfile
  6
Continuous
 62
     6
100
AcDbLine
 10
407.890124
 20
939.589719
 30
0.0
 11
400.916124
 21
932.615719
 31
0.0
  0
LINE
  5
18C
330
1F
100
AcDbEntity
  8
dxfile
  6
Continuous
 62
     6
100
AcDbLine
 10
400.942124
 20
939.589719
 30
0.0
 11
404.916124
 21
935.615719
 31
0.0
  0
LINE
  5
18D
330
1F
100
AcDbEntity
  8
dxfile
  6
Continuous
 62
     6
100
AcDbLine
 10
401.890124
 20
939.589719
 30
0.0
 11
396.916124
 21
934.615719
 31
0.0
  0
LINE
  5
18E
330
1F
100
AcDbEntity
  8
dxfile
  6
Continuous
 62
     6
100
AcDbLine
 10
394.942124
 20
939.589719
 30
0.0
 11
399.916124
 21
934.615719
 31
0.0
  0
LINE
  5
18F
330
1F
100
AcDbEntity
  8
dxfile
  6
Continuous
 62
     6
100
AcDbLine
 10
390.916124
 20
934.615719
 30
0.0
 11
395.890124
 21
939.589719
 31
0.0
  0
LINE
  5
190
330
1F
100
AcDbEntity
  8
dxfile
  6
Continuous
 62
     6
100
AcDbLine
 10
388.942124
 20
939.589719
 30
0.0
 11
393.916124
 21
934.615719
 31
0.0
  0
LINE
  5
191
330
1F
100
AcDbEntity
  8
dxfile
  6
Continuous
 62
     6
100
AcDbLine
 10
384.916124
 20
934.615719
 30
0.0
 11
389.890124
 21
939.589719
 31
0.0
  0
LINE
  5
192
330
1F
100
AcDbEntity
  8
dxfile
  6
Continuous
 62
     6
100
AcDbLine
 10
389.925124
 20
946.389719
 30
0.0
 11
389.925124
 21
939.589719
 31
0.0
  0
LINE
  5
193
330
1F
100
AcDbEntity
  8
dxfile
  6
Continuous
 62
     3
100
AcDbLine
 10
377.925124
 20
929.121719
 30
0.0
 11
377.925124
 21
976.621719
 31
0.0
  0
LINE
  5
194
330
1F
100
AcDbEntity
  8
dxfile
  6
Continuous
 62
     3
100
AcDbLine
 10
311.391124
 20
902.615719
 30
0.0
 11
321.916124
 21
902.615719
 31
0.0
  0
LINE
  5
195
330
1F
100
AcDbEntity
  8
dxfile
  6
Continuous
 62
     3
100
AcDbLine
 10
360.916124
 20
902.615719
 30
0.0
 11
370.869124
 21
902.615719
 31
0.0
  0
LINE
  5
196
330
1F
100
AcDbEntity
  8
dxfile
  6
Continuous
 62
     3
100
AcDbLine
 10
370.869124
 20
904.621719
 30
0.0
 11
370.869124
 21
902.615719
 31
0.0
  0
LINE
  5
197
330
1F
100
AcDbEntity
  8
dxfile
  6
Continuous
 62
     3
100
AcDbLine
 10
264.925124
 20
904.944501
 30
0.0
 11
264.925124
 21
893.121719
 31
0.0
  0
LINE
  5
198
330
1F
100
AcDbEntity
  8
dxfile
  6
Continuous
 62
     3
100
AcDbLine
 10
276.425124
 20
891.621719
 30
0.0
 11
263.225124
 21
891.621719
 31
0.0
  0
ARC
  5
199
330
1F
100
AcDbEntity
  8
dxfile
  6
Continuous
 62
     3
100
AcDbCircle
 10
263.225124
 20
891.921719
 30
0.0
 40
0.3
100
AcDbArc
 50
180.0
 51
270.0
  0
LINE
  5
19A
330
1F
100
AcDbEntity
  8
dxfile
  6
Continuous
 62
     3
100
AcDbLine
 10
262.925124
 20
891.921719
 30
0.0
 11
262.925124
 21
906.370136
 31
0.0
  0
ARC
  5
19B
330
1F
100
AcDbEntity
  8
dxfile
  6
Continuous
 62
     3
100
AcDbCircle
 10
263.225124
 20
906.370136
 30
0.0
 40
0.3
100
AcDbArc
 50
100.033
 51
180.0
  0
LINE
  5
19C
330
1F
100
AcDbEntity
  8
dxfile
  6
Continuous
 62
     3
100
AcDbLine
 10
264.925124
 20
893.121719
 30
0.0
 11
277.625124
 21
893.121719
 31
0.0
  0
ARC
  5
19D
330
1F
100
AcDbEntity
  8
dxfile
  6
Continuous
 62
     3
100
AcDbCircle
 10
277.625124
 20
892.821719
 30
0.0
 40
0.3
100
AcDbArc
 50
0.0
 51
90.0
  0
LINE
  5
19E
330
1F
100
AcDbEntity
  8
dxfile
  6
Continuous
 62
     3
100
AcDbLine
 10
277.925124
 20
892.821719
 30
0.0
 11
277.925124
 21
876.921719
 31
0.0
  0
ARC
  5
19F
330
1F
100
AcDbEntity
  8
dxfile
  6
Continuous
 62
     3
100
AcDbCircle
 10
277.625124
 20
876.921719
 30
0.0
 40
0.3
100
AcDbArc
 50
270.0
 51
0.0
  0
LINE
  5
1A0
330
1F
100
AcDbEntity
  8
dxfile
  6
Continuous
 62
     3
100
AcDbLine
 10
277.625124
 20
876.621719
 30
0.0
 11
276.725124
 21
876.621719
 31
0.0
  0
LINE
  5
1A1
330
1F
100
AcDbEntity
  8
dxfile
  6
Continuous
 62
     3
100
AcDbLine
 10
311.391124
 20
902.615719
 30
0.0
 11
311.391124
 21
904.621719
 31
0.0
  0
LINE
  5
1A2
330
1F
100
AcDbEntity
  8
dxfile
  6
Continuous
 62
     3
100
AcDbLine
 10
321.093124
 20
904.621719
 30
0.0
 11
322.593124
 21
906.121719
 31
0.0
  0
LINE
  5
1A3
330
1F
100
AcDbEntity
  8
dxfile
  6
Continuous
 62
     3
100
AcDbLine
 10
321.916124
 20
902.615719
 30
0.0
 11
325.422124
 21
906.121719
 31
0.0
  0
LINE
  5
1A4
330
1F
100
AcDbEntity
  8
dxfile
  6
Continuous
 62
     3
100
AcDbLine
 10
315.925124
 20
904.621719
 30
0.0
 11
315.925124
 21
905.121719
 31
0.0
  0
ARC
  5
1A5
330
1F
100
AcDbEntity
  8
dxfile
  6
Continuous
 62
     3
100
AcDbCircle
 10
314.925124
 20
905.121719
 30
0.0
 40
1.0
100
AcDbArc
 50
0.0
 51
90.0
  0
LINE
  5
1A6
330
1F
100
AcDbEntity
  8
dxfile
  6
Continuous
 62
     3
100
AcDbLine
 10
376.425124
 20
906.121719
 30
0.0
 11
376.425124
 21
923.47873
 31
0.0
  0
LINE
  5
1A7
330
1F
100
AcDbEntity
  8
dxfile
  6
Continuous
 62
     3
100
AcDbLine
 10
310.333124
 20
908.052719
 30
0.0
 11
371.877124
 21
908.052719
 31
0.0
  0
LINE
  5
1A8
330
1F
100
AcDbEntity
  8
dxfile
  6
Continuous
 62
     3
100
AcDbLine
 10
371.877124
 20
906.121719
 30
0.0
 11
371.877124
 21
908.052719
 31
0.0
  0
LINE
  5
1A9
330
1F
100
AcDbEntity
  8
dxfile
  6
Continuous
 62
     3
100
AcDbLine
 10
314.892124
 20
906.121719
 30
0.0
 11
366.889226
 21
906.121719
 31
0.0
  0
LINE
  5
1AA
330
1F
100
AcDbEntity
  8
dxfile
  6
Continuous
 62
     3
100
AcDbLine
 10
376.425124
 20
906.121719
 30
0.0
 11
366.925124
 21
906.121719
 31
0.0
  0
ARC
  5
1AB
330
1F
100
AcDbEntity
  8
dxfile
  6
Continuous
 62
     3
100
AcDbCircle
 10
366.925124
 20
905.121719
 30
0.0
 40
1.0
100
AcDbArc
 50
90.0
 51
180.0
  0
LINE
  5
1AC
330
1F
100
AcDbEntity
  8
dxfile
  6
Continuous
 62
     3
100
AcDbLine
 10
360.916124
 20
902.615719
 30
0.0
 11
357.410124
 21
906.121719
 31
0.0
  0
LINE
  5
1AD
330
1F
100
AcDbEntity
  8
dxfile
  6
Continuous
 62
     3
100
AcDbLine
 10
365.925124
 20
904.621719
 30
0.0
 11
365.925124
 21
905.121719
 31
0.0
  0
LINE
  5
1AE
330
1F
100
AcDbEntity
  8
dxfile
  6
Continuous
 62
     3
100
AcDbLine
 10
361.910129
 20
904.621719
 30
0.0
 11
360.411148
 21
906.121719
 31
0.0
  0
LINE
  5
1AF
330
1F
100
AcDbEntity
  8
dxfile
  6
Continuous
 62
     3
100
AcDbLine
 10
310.333124
 20
906.121719
 30
0.0
 11
310.333124
 21
908.052719
 31
0.0
  0
LINE
  5
1B0
330
1F
100
AcDbEntity
  8
dxfile
  6
Continuous
 62
     3
100
AcDbLine
 10
308.425124
 20
906.121719
 30
0.0
 11
314.892124
 21
906.121719
 31
0.0
  0
LINE
  5
1B1
330
1F
100
AcDbEntity
  8
dxfile
  6
Continuous
 62
     3
100
AcDbLine
 10
308.425124
 20
906.121719
 30
0.0
 11
308.425124
 21
912.64056
 31
0.0
  0
LINE
  5
1B2
330
1F
100
AcDbEntity
  8
dxfile
  6
Continuous
 62
     3
100
AcDbLine
 10
321.093124
 20
904.621719
 30
0.0
 11
307.225124
 21
904.621719
 31
0.0
  0
LINE
  5
1B3
330
1F
100
AcDbEntity
  8
dxfile
  6
Continuous
 62
     3
100
AcDbLine
 10
306.925124
 20
912.375179
 30
0.0
 11
306.925124
 21
904.921719
 31
0.0
  0
ARC
  5
1B4
330
1F
100
AcDbEntity
  8
dxfile
  6
Continuous
 62
     3
100
AcDbCircle
 10
307.225124
 20
904.921719
 30
0.0
 40
0.3
100
AcDbArc
 50
180.0
 51
270.0
  0
LINE
  5
1B5
330
1F
100
AcDbEntity
  8
dxfile
  6
Continuous
 62
     3
100
AcDbLine
 10
361.910129
 20
904.621719
 30
0.0
 11
377.625124
 21
904.621719
 31
0.0
  0
LINE
  5
1B6
330
1F
100
AcDbEntity
  8
dxfile
  6
Continuous
 62
     3
100
AcDbLine
 10
377.925124
 20
926.621719
 30
0.0
 11
377.925124
 21
904.921719
 31
0.0
  0
ARC
  5
1B7
330
1F
100
AcDbEntity
  8
dxfile
  6
Continuous
 62
     3
100
AcDbCircle
 10
377.625124
 20
904.921719
 30
0.0
 40
0.3
100
AcDbArc
 50
270.0
 51
0.0
  0
LINE
  5
1B8
330
1F
100
AcDbEntity
  8
dxfile
  6
Continuous
 62
     3
100
AcDbLine
 10
263.17286
 20
906.665549
 30
0.0
 11
375.925124
 21
926.613781
 31
0.0
  0
LINE
  5
1B9
330
1F
100
AcDbEntity
  8
dxfile
  6
Continuous
 62
     3
100
AcDbLine
 10
345.814124
 20
886.962719
 30
0.0
 11
345.814124
 21
906.121719
 31
0.0
  0
LINE
  5
1BA
330
1F
100
AcDbEntity
  8
dxfile
  6
Continuous
 62
     3
100
AcDbLine
 10
345.814124
 20
886.962719
 30
0.0
 11
347.814124
 21
886.962719
 31
0.0
  0
LINE
  5
1BB
330
1F
100
AcDbEntity
  8
dxfile
  6
Continuous
 62
     3
100
AcDbLine
 10
347.814124
 20
886.962719
 30
0.0
 11
347.814124
 21
906.121719
 31
0.0
  0
INSERT
  5
1C5
330
1F
100
AcDbEntity
  8
dxfile
  6
Continuous
 62
     3
100
AcDbBlockReference
  2
DIM_2
 10
357.925124
 20
1010.689601
 30
0.0
  0
LINE
  5
1C6
330
1F
100
AcDbEntity
  8
dxfile
  6
Continuous
 62
     3
100
AcDbLine
 10
264.925124
 20
904.944501
 30
0.0
 11
306.925124
 21
912.375179
 31
0.0
  0
LINE
  5
1C7
330
1F
100
AcDbEntity
  8
dxfile
  6
Continuous
 62
     3
100
AcDbLine
 10
308.425124
 20
912.64056
 30
0.0
 11
375.250909
 21
924.463438
 31
0.0
  0
LINE
  5
1C8
330
1F
100
AcDbEntity
  8
dxfile
  6
Continuous
 62
     3
100
AcDbLine
 10
276.425124
 20
891.621719
 30
0.0
 11
276.425124
 21
876.921719
 31
0.0
  0
ARC
  5
1C9
330
1F
100
AcDbEntity
  8
dxfile
  6
Continuous
 62
     3
100
AcDbCircle
 10
276.725124
 20
876.921719
 30
0.0
 40
0.3
100
AcDbArc
 50
180.0
 51
270.0
  0
ARC
  5
1CA
330
1F
100
AcDbEntity
  8
dxfile
  6
Continuous
 62
     3
100
AcDbCircle
 10
375.425124
 20
923.47873
 30
0.0
 40
1.0
100
AcDbArc
 50
0.0
 51
100.033
  0
LINE
  5
1CB
330
1F
100
AcDbEntity
  8
dxfile
  6
Continuous
 62
     4
100
AcDbLine
 10
332.925124
 20
814.518668
 30
0.0
 11
332.925124
 21
900.569867
 31
0.0
  0
LINE
  5
1CC
330
1F
100
AcDbEntity
  8
dxfile
  6
Continuous
 62
     4
100
AcDbLine
 10
332.925124
 20
900.569867
 30
0.0
 11
342.925124
 21
900.569867
 31
0.0
  0
LINE
  5
1CD
330
1F
100
AcDbEntity
  8
dxfile
  6
Continuous
 62
     4
100
AcDbLine
 10
342.925124
 20
900.569867
 30
0.0
 11
342.925124
 21
814.518668
 31
0.0
  0
LINE
  5
1CE
330
1F
100
AcDbEntity
  8
dxfile
  6
Continuous
 62
     6
100
AcDbLine
 10
1334.467192
 20
976.621719
 30
0.0
 11
1340.359463
 21
976.621719
 31
0.0
  0
LINE
  5
1CF
330
1F
100
AcDbEntity
  8
dxfile
  6
Continuous
 62
     6
100
AcDbLine
 10
1340.359463
 20
976.621719
 30
0.0
 11
1315.438951
 21
976.621719
 31
0.0
  0
LINE
  5
1D0
330
1F
100
AcDbEntity
  8
dxfile
  6
Continuous
 62
     4
100
AcDbLine
 10
1477.893329
 20
747.346031
 30
0.0
 11
1467.925124
 21
747.346031
 31
0.0
  0
LINE
  5
1D1
330
1F
100
AcDbEntity
  8
dxfile
  6
Continuous
 62
     4
100
AcDbLine
 10
1467.925124
 20
747.346031
 30
0.0
 11
1467.925124
 21
717.441417
 31
0.0
  0
LINE
  5
1D2
330
1F
100
AcDbEntity
  8
dxfile
  6
Continuous
 62
     4
100
AcDbLine
 10
1469.918765
 20
717.441417
 30
0.0
 11
1467.925124
 21
717.441417
 31
0.0
  0
LINE
  5
1D3
330
1F
100
AcDbEntity
  8
dxfile
  6
Continuous
 62
     4
100
AcDbLine
 10
1477.893329
 20
745.35239
 30
0.0
 11
1469.918765
 21
745.35239
 31
0.0
  0
LINE
  5
1D4
330
1F
100
AcDbEntity
  8
dxfile
  6
Continuous
 62
     4
100
AcDbLine
 10
1469.918765
 20
745.35239
 30
0.0
 11
1469.918765
 21
717.441417
 31
0.0
  0
LINE
  5
1D5
330
1F
100
AcDbEntity
  8
dxfile
  6
Continuous
 62
     4
100
AcDbLine
 10
1477.893329
 20
747.346031
 30
0.0
 11
1477.893329
 21
745.35239
 31
0.0
  0
LINE
  5
1D6
330
1F
100
AcDbEntity
  8
dxfile
  6
Continuous
 62
     3
100
AcDbLine
 10
1406.595208
 20
876.367496
 30
0.0
 11
1525.747153
 21
855.358926
 31
0.0
  0
LINE
  5
1D7
330
1F
100
AcDbEntity
  8
dxfile
  6
Continuous
 62
     3
100
AcDbLine
 10
1477.013137
 20
732.139535
 30
0.0
 11
1451.209545
 21
732.139535
 31
0.0
  0
LINE
  5
1D8
330
1F
100
AcDbEntity
  8
dxfile
  6
Continuous
 62
     3
100
AcDbLine
 10
1525.747153
 20
747.346031
 30
0.0
 11
1525.747153
 21
855.358926
 31
0.0
  0
LINE
  5
1D9
330
1F
100
AcDbEntity
  8
dxfile
  6
Continuous
 62
     3
100
AcDbLine
 10
1485.874334
 20
757.314236
 30
0.0
 11
1485.874334
 21
747.346031
 31
0.0
  0
LINE
  5
1DA
330
1F
100
AcDbEntity
  8
dxfile
  6
Continuous
 62
     3
100
AcDbLine
 10
1485.874334
 20
747.346031
 30
0.0
 11
1525.747153
 21
747.346031
 31
0.0
  0
CIRCLE
  5
1DB
330
1F
100
AcDbEntity
  8
dxfile
  6
Continuous
 62
     6
100
AcDbCircle
 10
1425.984363
 20
857.50865
 30
0.0
 40
0.50439116288
  0
CIRCLE
  5
1DC
330
1F
100
AcDbEntity
  8
dxfile
  6
Continuous
 62
     6
100
AcDbCircle
 10
1520.400208
 20
772.616427
 30
0.0
 40
0.94996991744
  0
CIRCLE
  5
1DD
330
1F
100
AcDbEntity
  8
dxfile
  6
Continuous
 62
     6
100
AcDbCircle
 10
1511.907298
 20
804.040196
 30
0.0
 40
0.8492910489599999
  0
CIRCLE
  5
1DE
330
1F
100
AcDbEntity
  8
dxfile
  6
Continuous
 62
     6
100
AcDbCircle
 10
1514.455171
 20
827.820345
 30
0.0
 40
0.60008592896
  0
CIRCLE
  5
1DF
330
1F
100
AcDbEntity
  8
dxfile
  6
Continuous
 62
     6
100
AcDbCircle
 10
1512.331943
 20
762.000289
 30
0.0
 40
0.8492910489599999
  0
CIRCLE
  5
1E0
330
1F
100
AcDbEntity
  8
dxfile
  6
Continuous
 62
     6
100
AcDbCircle
 10
1517.852335
 20
789.177602
 30
0.0
 40
1.34271718656
  0
CIRCLE
  5
1E1
330
1F
100
AcDbEntity
  8
dxfile
  6
Continuous
 62
     6
100
AcDbCircle
 10
1520.400208
 20
814.231688
 30
0.0
 40
0.94996991744
  0
CIRCLE
  5
1E2
330
1F
100
AcDbEntity
  8
dxfile
  6
Continuous
 62
     6
100
AcDbCircle
 10
1433.639944
 20
866.759144
 30
0.0
 40
0.4784738304
  0
CIRCLE
  5
1E3
330
1F
100
AcDbEntity
  8
dxfile
  6
Continuous
 62
     6
100
AcDbCircle
 10
1312.267082
 20
893.731678
 30
0.0
 40
0.4784738304
  0
CIRCLE
  5
1E4
330
1F
100
AcDbEntity
  8
dxfile
  6
Continuous
 62
     6
100
AcDbCircle
 10
1324.866893
 20
882.708271
 30
0.0
 40
0.5751654169599999
  0
CIRCLE
  5
1E5
330
1F
100
AcDbEntity
  8
dxfile
  6
Continuous
 62
     6
100
AcDbCircle
 10
1312.426574
 20
880.634885
 30
0.0
 40
0.3189825536000001
  0
CIRCLE
  5
1E6
330
1F
100
AcDbEntity
  8
dxfile
  6
Continuous
 62
     6
100
AcDbCircle
 10
1331.565527
 20
878.880481
 30
0.0
 40
0.4784738304
  0
CIRCLE
  5
1E7
330
1F
100
AcDbEntity
  8
dxfile
  6
Continuous
 62
     6
100
AcDbCircle
 10
1323.590963
 20
897.878451
 30
0.0
 40
0.6379651072000001
  0
CIRCLE
  5
1E8
330
1F
100
AcDbEntity
  8
dxfile
  6
Continuous
 62
     6
100
AcDbCircle
 10
1313.383521
 20
897.559469
 30
0.0
 40
0.50439116288
  0
CIRCLE
  5
1E9
330
1F
100
AcDbEntity
  8
dxfile
  6
Continuous
 62
     6
100
AcDbCircle
 10
1356.605657
 20
884.303184
 30
0.0
 40
0.6379651072000001
  0
CIRCLE
  5
1EA
330
1F
100
AcDbEntity
  8
dxfile
  6
Continuous
 62
     6
100
AcDbCircle
 10
1358.519553
 20
873.298286
 30
0.0
 40
0.3189825536000001
  0
CIRCLE
  5
1EB
330
1F
100
AcDbEntity
  8
dxfile
  6
Continuous
 62
     6
100
AcDbCircle
 10
1370.64089
 20
873.77676
 30
0.0
 40
0.50439116288
  0
CIRCLE
  5
1EC
330
1F
100
AcDbEntity
  8
dxfile
  6
Continuous
 62
     6
100
AcDbCircle
 10
1367.610555
 20
888.308975
 30
0.0
 40
0.50439116288
  0
CIRCLE
  5
1ED
330
1F
100
AcDbEntity
  8
dxfile
  6
Continuous
 62
     6
100
AcDbCircle
 10
1380.68884
 20
869.311004
 30
0.0
 40
0.45155967744
  0
CIRCLE
  5
1EE
330
1F
100
AcDbEntity
  8
dxfile
  6
Continuous
 62
     6
100
AcDbCircle
 10
1392.172212
 20
867.875583
 30
0.0
 40
0.4784738304
  0
CIRCLE
  5
1EF
330
1F
100
AcDbEntity
  8
dxfile
  6
Continuous
 62
     6
100
AcDbCircle
 10
1384.995105
 20
882.54878
 30
0.0
 40
0.6379651072000001
  0
CIRCLE
  5
1F0
330
1F
100
AcDbEntity
  8
dxfile
  6
Continuous
 62
     6
100
AcDbCircle
 10
1468.409042
 20
852.56442
 30
0.0
 40
0.7137234636799996
  0
CIRCLE
  5
1F1
330
1F
100
AcDbEntity
  8
dxfile
  6
Continuous
 62
     6
100
AcDbCircle
 10
1456.287705
 20
856.711193
 30
0.0
 40
0.7137234636799996
  0
CIRCLE
  5
1F2
330
1F
100
AcDbEntity
  8
dxfile
  6
Continuous
 62
     6
100
AcDbCircle
 10
1397.116442
 20
882.070306
 30
0.0
 40
0.7137234636799996
  0
CIRCLE
  5
1F3
330
1F
100
AcDbEntity
  8
dxfile
  6
Continuous
 62
     6
100
AcDbCircle
 10
1464.262269
 20
860.857966
 30
0.0
 40
0.5751654169599999
  0
CIRCLE
  5
1F4
330
1F
100
AcDbEntity
  8
dxfile
  6
Continuous
 62
     6
100
AcDbCircle
 10
1403.17711
 20
868.354056
 30
0.0
 40
0.45155967744
  0
CIRCLE
  5
1F5
330
1F
100
AcDbEntity
  8
dxfile
  6
Continuous
 62
     6
100
AcDbCircle
 10
1418.647764
 20
869.948969
 30
0.0
 40
0.8134055116800001
  0
CIRCLE
  5
1F6
330
1F
100
AcDbEntity
  8
dxfile
  6
Continuous
 62
     6
100
AcDbCircle
 10
1516.153753
 20
849.901912
 30
0.0
 40
1.34271718656
  0
CIRCLE
  5
1F7
330
1F
100
AcDbEntity
  8
dxfile
  6
Continuous
 62
     6
100
AcDbCircle
 10
1489.82573
 20
854.573013
 30
0.0
 40
0.4246455244799999
  0
CIRCLE
  5
1F8
330
1F
100
AcDbEntity
  8
dxfile
  6
Continuous
 62
     6
100
AcDbCircle
 10
1438.265191
 20
857.030176
 30
0.0
 40
0.22528142848
  0
LINE
  5
1F9
330
1F
100
AcDbEntity
  8
dxfile
  6
Continuous
 62
     3
100
AcDbLine
 10
1342.851514
 20
990.229591
 30
0.0
 11
1312.9469
 21
990.229591
 31
0.0
  0
LINE
  5
1FA
330
1F
100
AcDbEntity
  8
dxfile
  6
Continuous
 62
     6
100
AcDbLine
 10
1312.9469
 20
988.229591
 30
0.0
 11
1342.861483
 21
988.229591
 31
0.0
  0
LINE
  5
1FB
330
1F
100
AcDbEntity
  8
dxfile
  6
Continuous
 62
     6
100
AcDbLine
 10
1315.438951
 20
982.621719
 30
0.0
 11
1315.438951
 21
976.621719
 31
0.0
  0
LINE
  5
1FC
330
1F
100
AcDbEntity
  8
dxfile
  6
Continuous
 62
     6
100
AcDbLine
 10
1340.359463
 20
982.621719
 30
0.0
 11
1340.359463
 21
976.621719
 31
0.0
  0
LINE
  5
1FD
330
1F
100
AcDbEntity
  8
dxfile
  6
Continuous
 62
     3
100
AcDbLine
 10
1312.9469
 20
990.229591
 30
0.0
 11
1312.9469
 21
988.229591
 31
0.0
  0
LINE
  5
1FE
330
1F
100
AcDbEntity
  8
dxfile
  6
Continuous
 62
     3
100
AcDbLine
 10
1342.851514
 20
990.229591
 30
0.0
 11
1342.851514
 21
988.229591
 31
0.0
  0
LINE
  5
1FF
330
1F
100
AcDbEntity
  8
dxfile
  6
Continuous
 62
     2
100
AcDbLine
 10
1457.925124
 20
757.314236
 30
0.0
 11
1457.925124
 21
642.128529
 31
0.0
  0
LINE
  5
200
330
1F
100
AcDbEntity
  8
dxfile
  6
Continuous
 62
     2
100
AcDbLine
 10
1467.925124
 20
757.314236
 30
0.0
 11
1467.925124
 21
642.128529
 31
0.0
  0
LINE
  5
201
330
1F
100
AcDbEntity
  8
dxfile
  6
Continuous
 62
     2
100
AcDbLine
 10
1307.925124
 20
876.672003
 30
0.0
 11
1307.925124
 21
642.128529
 31
0.0
  0
LINE
  5
202
330
1F
100
AcDbEntity
  8
dxfile
  6
Continuous
 62
     2
100
AcDbLine
 10
1457.925124
 20
757.314236
 30
0.0
 11
1505.810744
 21
757.314236
 31
0.0
  0
LINE
  5
203
330
1F
100
AcDbEntity
  8
dxfile
  6
Continuous
 62
     2
100
AcDbLine
 10
1505.810744
 20
841.780816
 30
0.0
 11
1505.810744
 21
757.314236
 31
0.0
  0
LINE
  5
204
330
1F
100
AcDbEntity
  8
dxfile
  6
Continuous
 62
     3
100
AcDbLine
 10
1502.155403
 20
757.314236
 30
0.0
 11
1398.825513
 21
860.644126
 31
0.0
  0
LINE
  5
205
330
1F
100
AcDbEntity
  8
dxfile
  6
Continuous
 62
     2
100
AcDbLine
 10
1307.925124
 20
876.672003
 30
0.0
 11
1505.810744
 21
841.780112
 31
0.0
  0
LINE
  5
206
330
1F
100
AcDbEntity
  8
dxfile
  6
PLine2
 62
     3
100
AcDbLine
 10
1282.925124
 20
926.621719
 30
0.0
 11
1282.925124
 21
638.906126
 31
0.0
  0
LINE
  5
207
330
1F
100
AcDbEntity
  8
dxfile
  6
Continuous
 62
     3
100
AcDbLine
 10
1406.043198
 20
859.371478
 30
0.0
 11
1505.810744
 21
759.603932
 31
0.0
  0
LINE
  5
208
330
1F
100
AcDbEntity
  8
dxfile
  6
Continuous
 62
     3
100
AcDbLine
 10
1412.229785
 20
858.280637
 30
0.0
 11
1505.810744
 21
764.699679
 31
0.0
  0
LINE
  5
209
330
1F
100
AcDbEntity
  8
dxfile
  6
Continuous
 62
     4
100
AcDbLine
 10
1385.647902
 20
986.621719
 30
0.0
 11
1298.995295
 21
986.621719
 31
0.0
  0
LINE
  5
20A
330
1F
100
AcDbEntity
  8
dxfile
  6
Continuous
 62
     4
100
AcDbLine
 10
1298.995295
 20
982.621719
 30
0.0
 11
1386.971033
 21
982.621719
 31
0.0
  0
LINE
  5
20B
330
1F
100
AcDbEntity
  8
dxfile
  6
Continuous
 62
     4
100
AcDbLine
 10
1409.925124
 20
946.621719
 30
0.0
 11
1395.771542
 21
979.924266
 31
0.0
  0
LINE
  5
20C
330
1F
100
AcDbEntity
  8
dxfile
  6
Continuous
 62
     4
100
AcDbLine
 10
1405.578862
 20
946.621719
 30
0.0
 11
1391.572688
 21
979.577422
 31
0.0
  0
LINE
  5
20D
330
1F
100
AcDbEntity
  8
dxfile
  6
Continuous
 62
     4
100
AcDbLine
 10
1409.925124
 20
946.621719
 30
0.0
 11
1405.578862
 21
946.621719
 31
0.0
  0
LINE
  5
20E
330
1F
100
AcDbEntity
  8
dxfile
  6
Continuous
 62
     3
100
AcDbLine
 10
1331.925124
 20
969.128078
 30
0.0
 11
1331.925124
 21
951.229591
 31
0.0
  0
LINE
  5
20F
330
1F
100
AcDbEntity
  8
dxfile
  6
Continuous
 62
     3
100
AcDbLine
 10
1331.925124
 20
951.229591
 30
0.0
 11
1330.925124
 21
950.229591
 31
0.0
  0
LINE
  5
210
330
1F
100
AcDbEntity
  8
dxfile
  6
Continuous
 62
     3
100
AcDbLine
 10
1323.925125
 20
969.128078
 30
0.0
 11
1323.925125
 21
951.229591
 31
0.0
  0
LINE
  5
211
330
1F
100
AcDbEntity
  8
dxfile
  6
Continuous
 62
     3
100
AcDbLine
 10
1324.925125
 20
950.229591
 30
0.0
 11
1330.925124
 21
950.229591
 31
0.0
  0
LINE
  5
212
330
1F
100
AcDbEntity
  8
dxfile
  6
Continuous
 62
     3
100
AcDbLine
 10
1323.925125
 20
951.229591
 30
0.0
 11
1324.925125
 21
950.229591
 31
0.0
  0
LINE
  5
213
330
1F
100
AcDbEntity
  8
dxfile
  6
Continuous
 62
     3
100
AcDbLine
 10
1335.925124
 20
974.621719
 30
0.0
 11
1335.925124
 21
969.844289
 31
0.0
  0
LINE
  5
214
330
1F
100
AcDbEntity
  8
dxfile
  6
Continuous
 62
     3
100
AcDbLine
 10
1319.925125
 20
969.844289
 30
0.0
 11
1319.925125
 21
974.621719
 31
0.0
  0
LINE
  5
215
330
1F
100
AcDbEntity
  8
dxfile
  6
Continuous
 62
     3
100
AcDbLine
 10
1319.925125
 20
974.621719
 30
0.0
 11
1335.925124
 21
974.621719
 31
0.0
  0
LINE
  5
216
330
1F
100
AcDbEntity
  8
dxfile
  6
Continuous
 62
     3
100
AcDbLine
 10
1319.925125
 20
969.844289
 30
0.0
 11
1321.176652
 21
969.121719
 31
0.0
  0
LINE
  5
217
330
1F
100
AcDbEntity
  8
dxfile
  6
Continuous
 62
     3
100
AcDbLine
 10
1321.176652
 20
969.121719
 30
0.0
 11
1327.925124
 21
969.121719
 31
0.0
  0
LINE
  5
218
330
1F
100
AcDbEntity
  8
dxfile
  6
Continuous
 62
     3
100
AcDbLine
 10
1323.925125
 20
974.621719
 30
0.0
 11
1323.925125
 21
969.808011
 31
0.0
  0
ARC
  5
219
330
1F
100
AcDbEntity
  8
dxfile
  6
Continuous
 62
     3
100
AcDbCircle
 10
1327.925124
 20
981.121719
 30
0.0
 40
11.9999995200061
100
AcDbArc
 50
250.528779
 51
270.0
  0
ARC
  5
21A
330
1F
100
AcDbEntity
  8
dxfile
  6
Continuous
 62
     3
100
AcDbCircle
 10
1321.995457
 20
972.177719
 30
0.0
 40
3.05599987776958
100
AcDbArc
 50
270.0
 51
309.156132
  0
LINE
  5
21B
330
1F
100
AcDbEntity
  8
dxfile
  6
Continuous
 62
     3
100
AcDbLine
 10
1335.925124
 20
969.844289
 30
0.0
 11
1334.673597
 21
969.121719
 31
0.0
  0
LINE
  5
21C
330
1F
100
AcDbEntity
  8
dxfile
  6
Continuous
 62
     3
100
AcDbLine
 10
1334.673597
 20
969.121719
 30
0.0
 11
1327.925124
 21
969.121719
 31
0.0
  0
ARC
  5
21D
330
1F
100
AcDbEntity
  8
dxfile
  6
Continuous
 62
     3
100
AcDbCircle
 10
1327.925124
 20
981.121719
 30
0.0
 40
11.9999995200061
100
AcDbArc
 50
270.0
 51
289.471221
  0
ARC
  5
21E
330
1F
100
AcDbEntity
  8
dxfile
  6
Continuous
 62
     3
100
AcDbCircle
 10
1333.854792
 20
972.177719
 30
0.0
 40
3.05599987776958
100
AcDbArc
 50
230.843868
 51
270.0
  0
LINE
  5
21F
330
1F
100
AcDbEntity
  8
dxfile
  6
Continuous
 62
     3
100
AcDbLine
 10
1331.925124
 20
974.621719
 30
0.0
 11
1331.925124
 21
969.808011
 31
0.0
  0
LINE
  5
220
330
1F
100
AcDbEntity
  8
dxfile
  6
Continuous
 62
     3
100
AcDbLine
 10
1319.925125
 20
990.229593
 30
0.0
 11
1319.925125
 21
995.007023
 31
0.0
  0
LINE
  5
221
330
1F
100
AcDbEntity
  8
dxfile
  6
Continuous
 62
     3
100
AcDbLine
 10
1319.925125
 20
995.007023
 30
0.0
 11
1321.176652
 21
995.729593
 31
0.0
  0
LINE
  5
222
330
1F
100
AcDbEntity
  8
dxfile
  6
Continuous
 62
     3
100
AcDbLine
 10
1321.176652
 20
995.729593
 30
0.0
 11
1327.925124
 21
995.729593
 31
0.0
  0
LINE
  5
223
330
1F
100
AcDbEntity
  8
dxfile
  6
Continuous
 62
     3
100
AcDbLine
 10
1323.925125
 20
990.229593
 30
0.0
 11
1323.925125
 21
995.043301
 31
0.0
  0
ARC
  5
224
330
1F
100
AcDbEntity
  8
dxfile
  6
Continuous
 62
     3
100
AcDbCircle
 10
1327.925124
 20
983.729593
 30
0.0
 40
11.9999995200061
100
AcDbArc
 50
90.0
 51
109.471221
  0
ARC
  5
225
330
1F
100
AcDbEntity
  8
dxfile
  6
Continuous
 62
     3
100
AcDbCircle
 10
1321.995457
 20
992.673593
 30
0.0
 40
3.05599987776958
100
AcDbArc
 50
50.843868
 51
90.0
  0
LINE
  5
226
330
1F
100
AcDbEntity
  8
dxfile
  6
Continuous
 62
     3
100
AcDbLine
 10
1335.925124
 20
990.229593
 30
0.0
 11
1335.925124
 21
995.007023
 31
0.0
  0
LINE
  5
227
330
1F
100
AcDbEntity
  8
dxfile
  6
Continuous
 62
     3
100
AcDbLine
 10
1335.925124
 20
995.007023
 30
0.0
 11
1334.673597
 21
995.729593
 31
0.0
  0
LINE
  5
228
330
1F
100
AcDbEntity
  8
dxfile
  6
Continuous
 62
     3
100
AcDbLine
 10
1334.673597
 20
995.729593
 30
0.0
 11
1327.925124
 21
995.729593
 31
0.0
  0
ARC
  5
229
330
1F
100
AcDbEntity
  8
dxfile
  6
Continuous
 62
     3
100
AcDbCircle
 10
1327.925124
 20
983.729593
 30
0.0
 40
11.9999995200061
100
AcDbArc
 50
70.528779
 51
90.0
  0
ARC
  5
22A
330
1F
100
AcDbEntity
  8
dxfile
  6
Continuous
 62
     3
100
AcDbCircle
 10
1333.854792
 20
992.673593
 30
0.0
 40
3.05599987776958
100
AcDbArc
 50
90.0
 51
129.156132
  0
LINE
  5
22B
330
1F
100
AcDbEntity
  8
dxfile
  6
Continuous
 62
     3
100
AcDbLine
 10
1331.925124
 20
990.229593
 30
0.0
 11
1331.925124
 21
995.043301
 31
0.0
  0
LINE
  5
22C
330
1F
100
AcDbEntity
  8
dxfile
  6
Continuous
 62
     3
100
AcDbLine
 10
1335.925124
 20
990.229591
 30
0.0
 11
1319.925125
 21
990.229591
 31
0.0
  0
LINE
  5
22D
330
1F
100
AcDbEntity
  8
dxfile
  6
Continuous
 62
     6
100
AcDbLine
 10
1342.851514
 20
988.229591
 30
0.0
 11
1312.9469
 21
988.229591
 31
0.0
  0
LINE
  5
22E
330
1F
100
AcDbEntity
  8
dxfile
  6
Continuous
 62
     6
100
AcDbLine
 10
1312.9469
 20
988.229591
 30
0.0
 11
1312.9469
 21
986.621719
 31
0.0
  0
LINE
  5
22F
330
1F
100
AcDbEntity
  8
dxfile
  6
Continuous
 62
     6
100
AcDbLine
 10
1342.851514
 20
986.621719
 30
0.0
 11
1342.851514
 21
988.229591
 31
0.0
  0
LINE
  5
230
330
1F
100
AcDbEntity
  8
dxfile
  6
Continuous
 62
     6
100
AcDbLine
 10
1342.851514
 20
987.729591
 30
0.0
 11
1312.9469
 21
987.729591
 31
0.0
  0
LINE
  5
231
330
1F
100
AcDbEntity
  8
dxfile
  6
Continuous
 62
     6
100
AcDbLine
 10
1342.851514
 20
987.229591
 30
0.0
 11
1312.9469
 21
987.229591
 31
0.0
  0
LINE
  5
232
330
1F
100
AcDbEntity
  8
dxfile
  6
Continuous
 62
     6
100
AcDbLine
 10
1322.517377
 20
976.621719
 30
0.0
 11
1316.517377
 21
982.621719
 31
0.0
  0
LINE
  5
233
330
1F
100
AcDbEntity
  8
dxfile
  6
Continuous
 62
     6
100
AcDbLine
 10
1331.645026
 20
976.621719
 30
0.0
 11
1325.645026
 21
982.621719
 31
0.0
  0
LINE
  5
234
330
1F
100
AcDbEntity
  8
dxfile
  6
Continuous
 62
     6
100
AcDbLine
 10
1339.30268
 20
976.621719
 30
0.0
 11
1333.30268
 21
982.621719
 31
0.0
  0
LINE
  5
235
330
1F
100
AcDbEntity
  8
dxfile
  6
Continuous
 62
     6
100
AcDbLine
 10
1334.014385
 20
976.621719
 30
0.0
 11
1340.014385
 21
982.621719
 31
0.0
  0
LINE
  5
236
330
1F
100
AcDbEntity
  8
dxfile
  6
Continuous
 62
     6
100
AcDbLine
 10
1330.818364
 20
982.621719
 30
0.0
 11
1324.818364
 21
976.621719
 31
0.0
  0
LINE
  5
237
330
1F
100
AcDbEntity
  8
dxfile
  6
Continuous
 62
     6
100
AcDbLine
 10
1316.23769
 20
976.621719
 30
0.0
 11
1322.23769
 21
982.621719
 31
0.0
  0
LINE
  5
238
330
1F
100
AcDbEntity
  8
dxfile
  6
Continuous
 62
     3
100
AcDbLine
 10
1307.925124
 20
929.121719
 30
0.0
 11
1300.958124
 21
929.121719
 31
0.0
  0
LINE
  5
239
330
1F
100
AcDbEntity
  8
dxfile
  6
Continuous
 62
     6
100
AcDbLine
 10
1300.934124
 20
928.089719
 30
0.0
 11
1300.934124
 21
949.615719
 31
0.0
  0
LINE
  5
23A
330
1F
100
AcDbEntity
  8
dxfile
  6
Continuous
 62
     3
100
AcDbLine
 10
1300.958124
 20
928.089719
 30
0.0
 11
1300.958124
 21
929.121719
 31
0.0
  0
LINE
  5
23B
330
1F
100
AcDbEntity
  8
dxfile
  6
Continuous
 62
     6
100
AcDbLine
 10
1293.934124
 20
949.615719
 30
0.0
 11
1293.934124
 21
946.615719
 31
0.0
  0
LINE
  5
23C
330
1F
100
AcDbEntity
  8
dxfile
  6
Continuous
 62
     6
100
AcDbLine
 10
1277.958124
 20
939.589719
 30
0.0
 11
1277.958124
 21
936.589719
 31
0.0
  0
LINE
  5
23D
330
1F
100
AcDbEntity
  8
dxfile
  6
Continuous
 62
     6
100
AcDbLine
 10
1297.934124
 20
946.615719
 30
0.0
 11
1293.934124
 21
946.615719
 31
0.0
  0
LINE
  5
23E
330
1F
100
AcDbEntity
  8
dxfile
  6
Continuous
 62
     6
100
AcDbLine
 10
1297.934124
 20
946.615719
 30
0.0
 11
1297.934124
 21
939.589719
 31
0.0
  0
LINE
  5
23F
330
1F
100
AcDbEntity
  8
dxfile
  6
Continuous
 62
     6
100
AcDbLine
 10
1293.934124
 20
947.615719
 30
0.0
 11
1294.934124
 21
946.615719
 31
0.0
  0
LINE
  5
240
330
1F
100
AcDbEntity
  8
dxfile
  6
Continuous
 62
     6
100
AcDbLine
 10
1295.934124
 20
934.615719
 30
0.0
 11
1284.934124
 21
934.615719
 31
0.0
  0
LINE
  5
241
330
1F
100
AcDbEntity
  8
dxfile
  6
Continuous
 62
     6
100
AcDbLine
 10
1283.504124
 20
928.045719
 30
0.0
 11
1279.429124
 21
932.120719
 31
0.0
  0
LINE
  5
242
330
1F
100
AcDbEntity
  8
dxfile
  6
Continuous
 62
     6
100
AcDbLine
 10
1284.934124
 20
934.615719
 30
0.0
 11
1284.934124
 21
928.045719
 31
0.0
  0
LINE
  5
243
330
1F
100
AcDbEntity
  8
dxfile
  6
Continuous
 62
     6
100
AcDbLine
 10
1295.934124
 20
934.615719
 30
0.0
 11
1295.934124
 21
928.095719
 31
0.0
  0
LINE
  5
244
330
1F
100
AcDbEntity
  8
dxfile
  6
Continuous
 62
     6
100
AcDbLine
 10
1284.934124
 20
933.615719
 30
0.0
 11
1279.434124
 21
928.115719
 31
0.0
  0
LINE
  5
245
330
1F
100
AcDbEntity
  8
dxfile
  6
Continuous
 62
     6
100
AcDbLine
 10
1277.958124
 20
939.589719
 30
0.0
 11
1297.934124
 21
939.589719
 31
0.0
  0
LINE
  5
246
330
1F
100
AcDbEntity
  8
dxfile
  6
Continuous
 62
     3
100
AcDbLine
 10
1287.958124
 20
928.089719
 30
0.0
 11
1279.458124
 21
928.089719
 31
0.0
  0
LINE
  5
247
330
1F
100
AcDbEntity
  8
dxfile
  6
Continuous
 62
     3
100
AcDbLine
 10
1279.425124
 20
935.121719
 30
0.0
 11
1279.425124
 21
928.121719
 31
0.0
  0
LINE
  5
248
330
1F
100
AcDbEntity
  8
dxfile
  6
Continuous
 62
     6
100
AcDbLine
 10
1293.934124
 20
949.615719
 30
0.0
 11
1300.934124
 21
949.615719
 31
0.0
  0
LINE
  5
249
330
1F
100
AcDbEntity
  8
dxfile
  6
Continuous
 62
     6
100
AcDbLine
 10
1300.934124
 20
946.615719
 30
0.0
 11
1297.934124
 21
949.615719
 31
0.0
  0
LINE
  5
24A
330
1F
100
AcDbEntity
  8
dxfile
  6
Continuous
 62
     6
100
AcDbLine
 10
1297.934124
 20
943.615719
 30
0.0
 11
1300.934124
 21
940.615719
 31
0.0
  0
LINE
  5
24B
330
1F
100
AcDbEntity
  8
dxfile
  6
Continuous
 62
     6
100
AcDbLine
 10
1300.934124
 20
928.615719
 30
0.0
 11
1295.934124
 21
933.615719
 31
0.0
  0
LINE
  5
24C
330
1F
100
AcDbEntity
  8
dxfile
  6
Continuous
 62
     6
100
AcDbLine
 10
1297.934124
 20
940.615719
 30
0.0
 11
1300.934124
 21
943.615719
 31
0.0
  0
LINE
  5
24D
330
1F
100
AcDbEntity
  8
dxfile
  6
Continuous
 62
     6
100
AcDbLine
 10
1297.934124
 20
946.615719
 30
0.0
 11
1300.934124
 21
949.615719
 31
0.0
  0
LINE
  5
24E
330
1F
100
AcDbEntity
  8
dxfile
  6
Continuous
 62
     6
100
AcDbLine
 10
1300.934124
 20
937.615719
 30
0.0
 11
1295.934124
 21
932.615719
 31
0.0
  0
LINE
  5
24F
330
1F
100
AcDbEntity
  8
dxfile
  6
Continuous
 62
     6
100
AcDbLine
 10
1300.934124
 20
931.615719
 30
0.0
 11
1297.359124
 21
928.040719
 31
0.0
  0
LINE
  5
250
330
1F
100
AcDbEntity
  8
dxfile
  6
Continuous
 62
     3
100
AcDbLine
 10
1300.958124
 20
928.089719
 30
0.0
 11
1287.958124
 21
928.089719
 31
0.0
  0
LINE
  5
251
330
1F
100
AcDbEntity
  8
dxfile
  6
Continuous
 62
     3
100
AcDbLine
 10
1345.925124
 20
974.621719
 30
0.0
 11
1314.925124
 21
974.621719
 31
0.0
  0
LINE
  5
252
330
1F
100
AcDbEntity
  8
dxfile
  6
Continuous
 62
     3
100
AcDbLine
 10
1345.925124
 20
974.621719
 30
0.0
 11
1345.925124
 21
968.621719
 31
0.0
  0
LINE
  5
253
330
1F
100
AcDbEntity
  8
dxfile
  6
Continuous
 62
     3
100
AcDbLine
 10
1345.925124
 20
968.621719
 30
0.0
 11
1342.925124
 21
968.621719
 31
0.0
  0
LINE
  5
254
330
1F
100
AcDbEntity
  8
dxfile
  6
Continuous
 62
     3
100
AcDbLine
 10
1342.925124
 20
968.621719
 30
0.0
 11
1342.925124
 21
967.621719
 31
0.0
  0
LINE
  5
255
330
1F
100
AcDbEntity
  8
dxfile
  6
Continuous
 62
     3
100
AcDbLine
 10
1342.925124
 20
967.621719
 30
0.0
 11
1345.925124
 21
967.621719
 31
0.0
  0
LINE
  5
256
330
1F
100
AcDbEntity
  8
dxfile
  6
Continuous
 62
     3
100
AcDbLine
 10
1314.925124
 20
974.621719
 30
0.0
 11
1309.925124
 21
974.621719
 31
0.0
  0
LINE
  5
257
330
1F
100
AcDbEntity
  8
dxfile
  6
Continuous
 62
     3
100
AcDbLine
 10
1309.925124
 20
967.621719
 30
0.0
 11
1309.925124
 21
957.621719
 31
0.0
  0
LINE
  5
258
330
1F
100
AcDbEntity
  8
dxfile
  6
Continuous
 62
     3
100
AcDbLine
 10
1312.925124
 20
967.621719
 30
0.0
 11
1309.925124
 21
967.621719
 31
0.0
  0
LINE
  5
259
330
1F
100
AcDbEntity
  8
dxfile
  6
Continuous
 62
     3
100
AcDbLine
 10
1312.925124
 20
968.621719
 30
0.0
 11
1312.925124
 21
967.621719
 31
0.0
  0
LINE
  5
25A
330
1F
100
AcDbEntity
  8
dxfile
  6
Continuous
 62
     3
100
AcDbLine
 10
1312.925124
 20
968.621719
 30
0.0
 11
1309.925124
 21
968.621719
 31
0.0
  0
LINE
  5
25B
330
1F
100
AcDbEntity
  8
dxfile
  6
Continuous
 62
     3
100
AcDbLine
 10
1309.925124
 20
968.621719
 30
0.0
 11
1309.925124
 21
974.621719
 31
0.0
  0
LINE
  5
25C
330
1F
100
AcDbEntity
  8
dxfile
  6
Continuous
 62
     3
100
AcDbLine
 10
1309.925124
 20
957.621719
 30
0.0
 11
1309.925124
 21
926.621719
 31
0.0
  0
ARC
  5
25D
330
1F
100
AcDbEntity
  8
dxfile
  6
Continuous
 62
     3
100
AcDbCircle
 10
1347.625124
 20
976.321719
 30
0.0
 40
0.3
100
AcDbArc
 50
0.0
 51
90.0
  0
LINE
  5
25E
330
1F
100
AcDbEntity
  8
dxfile
  6
Continuous
 62
     3
100
AcDbLine
 10
1347.925124
 20
976.321719
 30
0.0
 11
1347.925124
 21
966.921719
 31
0.0
  0
ARC
  5
25F
330
1F
100
AcDbEntity
  8
dxfile
  6
Continuous
 62
     3
100
AcDbCircle
 10
1347.625124
 20
966.921719
 30
0.0
 40
0.3
100
AcDbArc
 50
270.0
 51
0.0
  0
LINE
  5
260
330
1F
100
AcDbEntity
  8
dxfile
  6
Continuous
 62
     3
100
AcDbLine
 10
1347.625124
 20
966.621719
 30
0.0
 11
1346.225124
 21
966.621719
 31
0.0
  0
LINE
  5
261
330
1F
100
AcDbEntity
  8
dxfile
  6
Continuous
 62
     3
100
AcDbLine
 10
1345.925124
 20
967.621719
 30
0.0
 11
1345.925124
 21
966.921719
 31
0.0
  0
ARC
  5
262
330
1F
100
AcDbEntity
  8
dxfile
  6
Continuous
 62
     3
100
AcDbCircle
 10
1346.225124
 20
966.921719
 30
0.0
 40
0.3
100
AcDbArc
 50
180.0
 51
270.0
  0
LINE
  5
263
330
1F
100
AcDbEntity
  8
dxfile
  6
Continuous
 62
     3
100
AcDbLine
 10
1347.625124
 20
976.621719
 30
0.0
 11
1308.225124
 21
976.621719
 31
0.0
  0
ARC
  5
264
330
1F
100
AcDbEntity
  8
dxfile
  6
Continuous
 62
     3
100
AcDbCircle
 10
1308.225124
 20
976.321719
 30
0.0
 40
0.3
100
AcDbArc
 50
90.0
 51
180.0
  0
LINE
  5
265
330
1F
100
AcDbEntity
  8
dxfile
  6
Continuous
 62
     3
100
AcDbLine
 10
1307.925124
 20
926.621719
 30
0.0
 11
1278.225124
 21
926.621719
 31
0.0
  0
ARC
  5
266
330
1F
100
AcDbEntity
  8
dxfile
  6
Continuous
 62
     3
100
AcDbCircle
 10
1278.225124
 20
926.921719
 30
0.0
 40
0.3
100
AcDbArc
 50
180.0
 51
270.0
  0
LINE
  5
267
330
1F
100
AcDbEntity
  8
dxfile
  6
Continuous
 62
     3
100
AcDbLine
 10
1277.925124
 20
926.921719
 30
0.0
 11
1277.925124
 21
936.321719
 31
0.0
  0
ARC
  5
268
330
1F
100
AcDbEntity
  8
dxfile
  6
Continuous
 62
     3
100
AcDbCircle
 10
1278.225124
 20
936.321719
 30
0.0
 40
0.3
100
AcDbArc
 50
90.0
 51
180.0
  0
LINE
  5
269
330
1F
100
AcDbEntity
  8
dxfile
  6
Continuous
 62
     3
100
AcDbLine
 10
1278.225124
 20
936.621719
 30
0.0
 11
1280.625124
 21
936.621719
 31
0.0
  0
ARC
  5
26A
330
1F
100
AcDbEntity
  8
dxfile
  6
Continuous
 62
     3
100
AcDbCircle
 10
1280.625124
 20
936.321719
 30
0.0
 40
0.3
100
AcDbArc
 50
0.0
 51
90.0
  0
LINE
  5
26B
330
1F
100
AcDbEntity
  8
dxfile
  6
Continuous
 62
     3
100
AcDbLine
 10
1279.425124
 20
935.121719
 30
0.0
 11
1280.625124
 21
935.121719
 31
0.0
  0
LINE
  5
26C
330
1F
100
AcDbEntity
  8
dxfile
  6
Continuous
 62
     3
100
AcDbLine
 10
1280.925124
 20
936.321719
 30
0.0
 11
1280.925124
 21
935.421719
 31
0.0
  0
ARC
  5
26D
330
1F
100
AcDbEntity
  8
dxfile
  6
Continuous
 62
     3
100
AcDbCircle
 10
1280.625124
 20
935.421719
 30
0.0
 40
0.3
100
AcDbArc
 50
270.0
 51
0.0
  0
LINE
  5
26E
330
1F
100
AcDbEntity
  8
dxfile
  6
Continuous
 62
     3
100
AcDbLine
 10
1309.925124
 20
957.621719
 30
0.0
 11
1309.925124
 21
926.613781
 31
0.0
  0
LINE
  5
26F
330
1F
100
AcDbEntity
  8
dxfile
  6
Continuous
 62
     6
100
AcDbLine
 10
1277.960124
 20
939.589719
 30
0.0
 11
1284.934124
 21
932.615719
 31
0.0
  0
LINE
  5
270
330
1F
100
AcDbEntity
  8
dxfile
  6
Continuous
 62
     6
100
AcDbLine
 10
1284.908124
 20
939.589719
 30
0.0
 11
1280.934124
 21
935.615719
 31
0.0
  0
LINE
  5
271
330
1F
100
AcDbEntity
  8
dxfile
  6
Continuous
 62
     6
100
AcDbLine
 10
1283.960124
 20
939.589719
 30
0.0
 11
1288.934124
 21
934.615719
 31
0.0
  0
LINE
  5
272
330
1F
100
AcDbEntity
  8
dxfile
  6
Continuous
 62
     6
100
AcDbLine
 10
1290.908124
 20
939.589719
 30
0.0
 11
1285.934124
 21
934.615719
 31
0.0
  0
LINE
  5
273
330
1F
100
AcDbEntity
  8
dxfile
  6
Continuous
 62
     6
100
AcDbLine
 10
1294.934124
 20
934.615719
 30
0.0
 11
1289.960124
 21
939.589719
 31
0.0
  0
LINE
  5
274
330
1F
100
AcDbEntity
  8
dxfile
  6
Continuous
 62
     6
100
AcDbLine
 10
1296.908124
 20
939.589719
 30
0.0
 11
1291.934124
 21
934.615719
 31
0.0
  0
LINE
  5
275
330
1F
100
AcDbEntity
  8
dxfile
  6
Continuous
 62
     6
100
AcDbLine
 10
1300.934124
 20
934.615719
 30
0.0
 11
1295.960124
 21
939.589719
 31
0.0
  0
LINE
  5
276
330
1F
100
AcDbEntity
  8
dxfile
  6
Continuous
 62
     6
100
AcDbLine
 10
1295.925124
 20
946.389719
 30
0.0
 11
1295.925124
 21
939.589719
 31
0.0
  0
LINE
  5
277
330
1F
100
AcDbEntity
  8
dxfile
  6
Continuous
 62
     3
100
AcDbLine
 10
1307.925124
 20
929.121719
 30
0.0
 11
1307.925124
 21
976.621719
 31
0.0
  0
LINE
  5
278
330
1F
100
AcDbEntity
  8
dxfile
  6
Continuous
 62
     3
100
AcDbLine
 10
1374.459124
 20
902.615719
 30
0.0
 11
1363.934124
 21
902.615719
 31
0.0
  0
LINE
  5
279
330
1F
100
AcDbEntity
  8
dxfile
  6
Continuous
 62
     3
100
AcDbLine
 10
1324.934124
 20
902.615719
 30
0.0
 11
1314.981124
 21
902.615719
 31
0.0
  0
LINE
  5
27A
330
1F
100
AcDbEntity
  8
dxfile
  6
Continuous
 62
     3
100
AcDbLine
 10
1314.981124
 20
904.621719
 30
0.0
 11
1314.981124
 21
902.615719
 31
0.0
  0
LINE
  5
27B
330
1F
100
AcDbEntity
  8
dxfile
  6
Continuous
 62
     3
100
AcDbLine
 10
1420.925124
 20
904.944501
 30
0.0
 11
1420.925124
 21
893.121719
 31
0.0
  0
LINE
  5
27C
330
1F
100
AcDbEntity
  8
dxfile
  6
Continuous
 62
     3
100
AcDbLine
 10
1409.425124
 20
891.621719
 30
0.0
 11
1422.625124
 21
891.621719
 31
0.0
  0
ARC
  5
27D
330
1F
100
AcDbEntity
  8
dxfile
  6
Continuous
 62
     3
100
AcDbCircle
 10
1422.625124
 20
891.921719
 30
0.0
 40
0.3
100
AcDbArc
 50
270.0
 51
0.0
  0
LINE
  5
27E
330
1F
100
AcDbEntity
  8
dxfile
  6
Continuous
 62
     3
100
AcDbLine
 10
1422.925124
 20
891.921719
 30
0.0
 11
1422.925124
 21
906.370136
 31
0.0
  0
ARC
  5
27F
330
1F
100
AcDbEntity
  8
dxfile
  6
Continuous
 62
     3
100
AcDbCircle
 10
1422.625124
 20
906.370136
 30
0.0
 40
0.3
100
AcDbArc
 50
0.0
 51
79.967
  0
LINE
  5
280
330
1F
100
AcDbEntity
  8
dxfile
  6
Continuous
 62
     3
100
AcDbLine
 10
1420.925124
 20
893.121719
 30
0.0
 11
1408.225124
 21
893.121719
 31
0.0
  0
ARC
  5
281
330
1F
100
AcDbEntity
  8
dxfile
  6
Continuous
 62
     3
100
AcDbCircle
 10
1408.225124
 20
892.821719
 30
0.0
 40
0.3
100
AcDbArc
 50
90.0
 51
180.0
  0
LINE
  5
282
330
1F
100
AcDbEntity
  8
dxfile
  6
Continuous
 62
     3
100
AcDbLine
 10
1407.925124
 20
892.821719
 30
0.0
 11
1407.925124
 21
876.921719
 31
0.0
  0
ARC
  5
283
330
1F
100
AcDbEntity
  8
dxfile
  6
Continuous
 62
     3
100
AcDbCircle
 10
1408.225124
 20
876.921719
 30
0.0
 40
0.3
100
AcDbArc
 50
180.0
 51
270.0
  0
LINE
  5
284
330
1F
100
AcDbEntity
  8
dxfile
  6
Continuous
 62
     3
100
AcDbLine
 10
1408.225124
 20
876.621719
 30
0.0
 11
1409.125124
 21
876.621719
 31
0.0
  0
LINE
  5
285
330
1F
100
AcDbEntity
  8
dxfile
  6
Continuous
 62
     3
100
AcDbLine
 10
1374.459124
 20
902.615719
 30
0.0
 11
1374.459124
 21
904.621719
 31
0.0
  0
LINE
  5
286
330
1F
100
AcDbEntity
  8
dxfile
  6
Continuous
 62
     3
100
AcDbLine
 10
1364.757124
 20
904.621719
 30
0.0
 11
1363.257124
 21
906.121719
 31
0.0
  0
LINE
  5
287
330
1F
100
AcDbEntity
  8
dxfile
  6
Continuous
 62
     3
100
AcDbLine
 10
1363.934124
 20
902.615719
 30
0.0
 11
1360.428124
 21
906.121719
 31
0.0
  0
LINE
  5
288
330
1F
100
AcDbEntity
  8
dxfile
  6
Continuous
 62
     3
100
AcDbLine
 10
1369.925124
 20
904.621719
 30
0.0
 11
1369.925124
 21
905.121719
 31
0.0
  0
ARC
  5
289
330
1F
100
AcDbEntity
  8
dxfile
  6
Continuous
 62
     3
100
AcDbCircle
 10
1370.925124
 20
905.121719
 30
0.0
 40
1.0
100
AcDbArc
 50
90.0
 51
180.0
  0
LINE
  5
28A
330
1F
100
AcDbEntity
  8
dxfile
  6
Continuous
 62
     3
100
AcDbLine
 10
1309.425124
 20
906.121719
 30
0.0
 11
1309.425124
 21
923.47873
 31
0.0
  0
LINE
  5
28B
330
1F
100
AcDbEntity
  8
dxfile
  6
Continuous
 62
     3
100
AcDbLine
 10
1375.517124
 20
908.052719
 30
0.0
 11
1313.973124
 21
908.052719
 31
0.0
  0
LINE
  5
28C
330
1F
100
AcDbEntity
  8
dxfile
  6
Continuous
 62
     3
100
AcDbLine
 10
1313.973124
 20
906.121719
 30
0.0
 11
1313.973124
 21
908.052719
 31
0.0
  0
LINE
  5
28D
330
1F
100
AcDbEntity
  8
dxfile
  6
Continuous
 62
     3
100
AcDbLine
 10
1370.958124
 20
906.121719
 30
0.0
 11
1318.961023
 21
906.121719
 31
0.0
  0
LINE
  5
28E
330
1F
100
AcDbEntity
  8
dxfile
  6
Continuous
 62
     3
100
AcDbLine
 10
1309.425124
 20
906.121719
 30
0.0
 11
1318.925124
 21
906.121719
 31
0.0
  0
ARC
  5
28F
330
1F
100
AcDbEntity
  8
dxfile
  6
Continuous
 62
     3
100
AcDbCircle
 10
1318.925124
 20
905.121719
 30
0.0
 40
1.0
100
AcDbArc
 50
0.0
 51
90.0
  0
LINE
  5
290
330
1F
100
AcDbEntity
  8
dxfile
  6
Continuous
 62
     3
100
AcDbLine
 10
1324.934124
 20
902.615719
 30
0.0
 11
1328.440124
 21
906.121719
 31
0.0
  0
LINE
  5
291
330
1F
100
AcDbEntity
  8
dxfile
  6
Continuous
 62
     3
100
AcDbLine
 10
1319.925124
 20
904.621719
 30
0.0
 11
1319.925124
 21
905.121719
 31
0.0
  0
LINE
  5
292
330
1F
100
AcDbEntity
  8
dxfile
  6
Continuous
 62
     3
100
AcDbLine
 10
1323.94012
 20
904.621719
 30
0.0
 11
1325.439101
 21
906.121719
 31
0.0
  0
LINE
  5
293
330
1F
100
AcDbEntity
  8
dxfile
  6
Continuous
 62
     3
100
AcDbLine
 10
1375.517124
 20
906.121719
 30
0.0
 11
1375.517124
 21
908.052719
 31
0.0
  0
LINE
  5
294
330
1F
100
AcDbEntity
  8
dxfile
  6
Continuous
 62
     3
100
AcDbLine
 10
1377.425124
 20
906.121719
 30
0.0
 11
1370.958124
 21
906.121719
 31
0.0
  0
LINE
  5
295
330
1F
100
AcDbEntity
  8
dxfile
  6
Continuous
 62
     3
100
AcDbLine
 10
1377.425124
 20
906.121719
 30
0.0
 11
1377.425124
 21
912.64056
 31
0.0
  0
LINE
  5
296
330
1F
100
AcDbEntity
  8
dxfile
  6
Continuous
 62
     3
100
AcDbLine
 10
1364.757124
 20
904.621719
 30
0.0
 11
1378.625124
 21
904.621719
 31
0.0
  0
LINE
  5
297
330
1F
100
AcDbEntity
  8
dxfile
  6
Continuous
 62
     3
100
AcDbLine
 10
1378.925124
 20
912.375179
 30
0.0
 11
1378.925124
 21
904.921719
 31
0.0
  0
ARC
  5
298
330
1F
100
AcDbEntity
  8
dxfile
  6
Continuous
 62
     3
100
AcDbCircle
 10
1378.625124
 20
904.921719
 30
0.0
 40
0.3
100
AcDbArc
 50
270.0
 51
0.0
  0
LINE
  5
299
330
1F
100
AcDbEntity
  8
dxfile
  6
Continuous
 62
     3
100
AcDbLine
 10
1323.94012
 20
904.621719
 30
0.0
 11
1308.225124
 21
904.621719
 31
0.0
  0
LINE
  5
29A
330
1F
100
AcDbEntity
  8
dxfile
  6
Continuous
 62
     3
100
AcDbLine
 10
1307.925124
 20
926.621719
 30
0.0
 11
1307.925124
 21
904.921719
 31
0.0
  0
ARC
  5
29B
330
1F
100
AcDbEntity
  8
dxfile
  6
Continuous
 62
     3
100
AcDbCircle
 10
1308.225124
 20
904.921719
 30
0.0
 40
0.3
100
AcDbArc
 50
180.0
 51
270.0
  0
LINE
  5
29C
330
1F
100
AcDbEntity
  8
dxfile
  6
Continuous
 62
     3
100
AcDbLine
 10
1422.677389
 20
906.665549
 30
0.0
 11
1309.925124
 21
926.613781
 31
0.0
  0
LINE
  5
29D
330
1F
100
AcDbEntity
  8
dxfile
  6
Continuous
 62
     3
100
AcDbLine
 10
1340.036124
 20
886.962719
 30
0.0
 11
1340.036124
 21
906.121719
 31
0.0
  0
LINE
  5
29E
330
1F
100
AcDbEntity
  8
dxfile
  6
Continuous
 62
     3
100
AcDbLine
 10
1340.036124
 20
886.962719
 30
0.0
 11
1338.036124
 21
886.962719
 31
0.0
  0
LINE
  5
29F
330
1F
100
AcDbEntity
  8
dxfile
  6
Continuous
 62
     3
100
AcDbLine
 10
1338.036124
 20
886.962719
 30
0.0
 11
1338.036124
 21
906.121719
 31
0.0
  0
LINE
  5
2A0
330
1F
100
AcDbEntity
  8
dxfile
  6
Continuous
 62
     3
100
AcDbLine
 10
1420.925124
 20
904.944501
 30
0.0
 11
1378.925124
 21
912.375179
 31
0.0
  0
LINE
  5
2A1
330
1F
100
AcDbEntity
  8
dxfile
  6
Continuous
 62
     3
100
AcDbLine
 10
1377.425124
 20
912.64056
 30
0.0
 11
1310.59934
 21
924.463438
 31
0.0
  0
LINE
  5
2A2
330
1F
100
AcDbEntity
  8
dxfile
  6
Continuous
 62
     3
100
AcDbLine
 10
1409.425124
 20
891.621719
 30
0.0
 11
1409.425124
 21
876.921719
 31
0.0
  0
ARC
  5
2A3
330
1F
100
AcDbEntity
  8
dxfile
  6
Continuous
 62
     3
100
AcDbCircle
 10
1409.125124
 20
876.921719
 30
0.0
 40
0.3
100
AcDbArc
 50
270.0
 51
0.0
  0
ARC
  5
2A4
330
1F
100
AcDbEntity
  8
dxfile
  6
Continuous
 62
     3
100
AcDbCircle
 10
1310.425124
 20
923.47873
 30
0.0
 40
1.0
100
AcDbArc
 50
79.967
 51
180.0
  0
LINE
  5
2A5
330
1F
100
AcDbEntity
  8
dxfile
  6
Continuous
 62
     4
100
AcDbLine
 10
1352.925124
 20
814.518668
 30
0.0
 11
1352.925124
 21
900.569867
 31
0.0
  0
LINE
  5
2A6
330
1F
100
AcDbEntity
  8
dxfile
  6
Continuous
 62
     4
100
AcDbLine
 10
1352.925124
 20
900.569867
 30
0.0
 11
1342.925124
 21
900.569867
 31
0.0
  0
LINE
  5
2A7
330
1F
100
AcDbEntity
  8
dxfile
  6
Continuous
 62
     4
100
AcDbLine
 10
1342.925124
 20
900.569867
 30
0.0
 11
1342.925124
 21
814.518668
 31
0.0
  0
LINE
  5
2A8
330
1F
100
AcDbEntity
  8
dxfile
  6
Continuous
 62
     6
100
AcDbLine
 10
389.892124
 20
939.589719
 30
0.0
 11
1295.958124
 21
939.589719
 31
0.0
  0
LINE
  5
2A9
330
1F
100
AcDbEntity
  8
dxfile
  6
Continuous
 62
     6
100
AcDbLine
 10
389.925124
 20
946.389719
 30
0.0
 11
1295.925124
 21
946.389719
 31
0.0
  0
LINE
  5
2AA
330
1F
100
AcDbEntity
  8
dxfile
  6
Continuous
 62
     6
100
AcDbLine
 10
263.225124
 20
891.621719
 30
0.0
 11
261.883628
 21
873.304612
 31
0.0
  0
LINE
  5
2AB
330
1F
100
AcDbEntity
  8
dxfile
  6
Continuous
 62
     6
100
AcDbLine
 10
262.679668
 20
884.173937
 30
0.0
 11
269.951525
 21
891.445794
 31
0.0
  0
LINE
  5
2AC
330
1F
100
AcDbEntity
  8
dxfile
  6
Continuous
 62
     6
100
AcDbLine
 10
269.951525
 20
885.839298
 30
0.0
 11
264.169104
 21
891.621719
 31
0.0
  0
LINE
  5
2AD
330
1F
100
AcDbEntity
  8
dxfile
  6
Continuous
 62
     6
100
AcDbLine
 10
262.239317
 20
878.161276
 30
0.0
 11
269.951525
 21
885.873484
 31
0.0
  0
LINE
  5
2AE
330
1F
100
AcDbEntity
  8
dxfile
  6
Continuous
 62
     6
100
AcDbLine
 10
269.951525
 20
880.779778
 30
0.0
 11
262.944281
 21
887.787022
 31
0.0
  0
LINE
  5
2AF
330
1F
100
AcDbEntity
  8
dxfile
  6
Continuous
 62
     6
100
AcDbLine
 10
262.559363
 20
882.531259
 30
0.0
 11
269.951525
 21
875.139096
 31
0.0
  0
LINE
  5
2B0
330
1F
100
AcDbEntity
  8
dxfile
  6
Continuous
 62
     6
100
AcDbLine
 10
262.19544
 20
877.562174
 30
0.0
 11
265.768101
 21
873.989513
 31
0.0
  0
LINE
  5
2B1
330
1F
100
AcDbEntity
  8
dxfile
  6
Continuous
 62
     6
100
AcDbLine
 10
269.951525
 20
879.651642
 30
0.0
 11
263.972865
 21
873.672982
 31
0.0
  0
CIRCLE
  5
2B2
330
1F
100
AcDbEntity
  8
dxfile
  6
Continuous
 62
     6
100
AcDbCircle
 10
1418.647764
 20
869.948969
 30
0.0
 40
0.8134055116800001
  0
LINE
  5
2B3
330
1F
100
AcDbEntity
  8
dxfile
  6
Continuous
 62
     6
100
AcDbLine
 10
1422.625124
 20
891.621719
 30
0.0
 11
1423.966621
 21
873.304612
 31
0.0
  0
LINE
  5
2B4
330
1F
100
AcDbEntity
  8
dxfile
  6
Continuous
 62
     6
100
AcDbLine
 10
1423.17058
 20
884.173937
 30
0.0
 11
1415.898724
 21
891.445794
 31
0.0
  0
LINE
  5
2B5
330
1F
100
AcDbEntity
  8
dxfile
  6
Continuous
 62
     6
100
AcDbLine
 10
1415.898724
 20
885.839298
 30
0.0
 11
1421.681145
 21
891.621719
 31
0.0
  0
LINE
  5
2B6
330
1F
100
AcDbEntity
  8
dxfile
  6
Continuous
 62
     6
100
AcDbLine
 10
1423.610932
 20
878.161276
 30
0.0
 11
1415.898724
 21
885.873484
 31
0.0
  0
LINE
  5
2B7
330
1F
100
AcDbEntity
  8
dxfile
  6
Continuous
 62
     6
100
AcDbLine
 10
1415.898724
 20
880.779778
 30
0.0
 11
1422.905968
 21
887.787022
 31
0.0
  0
LINE
  5
2B8
330
1F
100
AcDbEntity
  8
dxfile
  6
Continuous
 62
     6
100
AcDbLine
 10
1423.290886
 20
882.531259
 30
0.0
 11
1415.898724
 21
875.139096
 31
0.0
  0
LINE
  5
2B9
330
1F
100
AcDbEntity
  8
dxfile
  6
Continuous
 62
     6
100
AcDbLine
 10
1423.654809
 20
877.562174
 30
0.0
 11
1420.082148
 21
873.989513
 31
0.0
  0
LINE
  5
2BA
330
1F
100
AcDbEntity
  8
dxfile
  6
Continuous
 62
     6
100
AcDbLine
 10
1415.898724
 20
879.651642
 30
0.0
 11
1421.877384
 21
873.672982
 31
0.0
  0
INSERT
  5
2C4
330
1F
100
AcDbEntity
  8
dxfile
  6
Continuous
 62
     3
100
AcDbBlockReference
  2
DIM_3
 10
377.925124
 20
627.403681
 30
0.0
  0
INSERT
  5
2CE
330
1F
100
AcDbEntity
  8
dxfile
  6
Continuous
 62
     3
100
AcDbBlockReference
  2
DIM_4
 10
277.925124
 20
870.847504
 30
0.0
  0
LINE
  5
2CF
330
1F
100
AcDbEntity
  8
dxfile
  6
PLine2
 62
     3
100
AcDbLine
 10
1327.925124
 20
1002.591531
 30
0.0
 11
1327.925124
 21
946.019278
 31
0.0
  0
LINE
  5
2D0
330
1F
100
AcDbEntity
  8
dxfile
  6
Continuous
 62
     3
100
AcDbLine
 10
711.389683
 20
558.996936
 30
0.0
 11
731.288497
 21
558.996936
 31
0.0
  0
LINE
  5
2D1
330
1F
100
AcDbEntity
  8
dxfile
  6
Continuous
 62
     3
100
AcDbLine
 10
731.288497
 20
558.996936
 30
0.0
 11
731.288497
 21
539.098122
 31
0.0
  0
LINE
  5
2D2
330
1F
100
AcDbEntity
  8
dxfile
  6
Continuous
 62
     3
100
AcDbLine
 10
731.288497
 20
539.098122
 30
0.0
 11
711.389683
 21
539.098122
 31
0.0
  0
LINE
  5
2D3
330
1F
100
AcDbEntity
  8
dxfile
  6
Continuous
 62
     3
100
AcDbLine
 10
711.389683
 20
539.098122
 30
0.0
 11
711.389683
 21
558.996936
 31
0.0
  0
LINE
  5
2D4
330
1F
100
AcDbEntity
  8
dxfile
  6
Continuous
 62
     3
100
AcDbLine
 10
702.071443
 20
470.521824
 30
0.0
 11
721.970257
 21
470.521824
 31
0.0
  0
LINE
  5
2D5
330
1F
100
AcDbEntity
  8
dxfile
  6
Continuous
 62
     3
100
AcDbLine
 10
721.970257
 20
470.521824
 30
0.0
 11
721.970257
 21
450.623009
 31
0.0
  0
LINE
  5
2D6
330
1F
100
AcDbEntity
  8
dxfile
  6
Continuous
 62
     3
100
AcDbLine
 10
721.970257
 20
450.623009
 30
0.0
 11
702.071443
 21
450.623009
 31
0.0
  0
LINE
  5
2D7
330
1F
100
AcDbEntity
  8
dxfile
  6
Continuous
 62
     3
100
AcDbLine
 10
702.071443
 20
450.623009
 30
0.0
 11
702.071443
 21
470.521824
 31
0.0
  0
LINE
  5
2D8
330
1F
100
AcDbEntity
  8
dxfile
  6
Continuous
 62
     3
100
AcDbLine
 10
1342.00813
 20
837.233775
 30
0.0
 11
1347.678003
 21
857.054283
 31
0.0
  0
LINE
  5
2D9
330
1F
100
AcDbEntity
  8
dxfile
  6
Continuous
 62
     3
100
AcDbLine
 10
1347.678003
 20
857.054283
 30
0.0
 11
1192.851382
 21
588.886709
 31
0.0
  0
LINE
  5
2DA
330
1F
100
AcDbEntity
  8
dxfile
  6
Continuous
 62
     3
100
AcDbLine
 10
1192.851382
 20
588.886709
 30
0.0
 11
1038.363193
 21
588.886709
 31
0.0
  0
TEXT
  5
2DB
330
1F
100
AcDbEntity
  8
dxfile
  6
Continuous
 62
     3
100
AcDbText
 10
1064.111225
 20
593.886709
 30
0.0
 40
30.0
  1
差筋（別途）
 41
0.858268
  7
BIGFONT
 72
     2
 11
1192.851382
 21
593.886709
 31
0.0
100
AcDbText
  0
LINE
  5
2DC
330
1F
100
AcDbEntity
  8
dxfile
  6
Continuous
 62
     3
100
AcDbLine
 10
1506.335873
 20
876.386183
 30
0.0
 11
1500.666
 21
856.565675
 31
0.0
  0
LINE
  5
2DD
330
1F
100
AcDbEntity
  8
dxfile
  6
Continuous
 62
     3
100
AcDbLine
 10
1500.666
 20
856.565675
 30
0.0
 11
1520.771333
 21
891.389134
 31
0.0
  0
LINE
  5
2DE
330
1F
100
AcDbEntity
  8
dxfile
  6
Continuous
 62
     3
100
AcDbLine
 10
1520.771333
 20
891.389134
 30
0.0
 11
1778.251648
 21
891.389134
 31
0.0
  0
TEXT
  5
2DF
330
1F
100
AcDbEntity
  8
dxfile
  6
Continuous
 62
     3
100
AcDbText
 10
1561.232526
 20
896.389134
 30
0.0
 40
30.0
  1
防水モルタル（別途）
 41
0.858268
  7
BIGFONT
 72
     2
 11
1778.251648
 21
896.389134
 31
0.0
100
AcDbText
  0
LINE
  5
2E0
330
1F
100
AcDbEntity
  8
dxfile
  6
Continuous
 62
     6
100
AcDbLine
 10
377.925124
 20
876.672003
 30
0.0
 11
377.925124
 21
904.621719
 31
0.0
  0
LINE
  5
2E1
330
1F
100
AcDbEntity
  8
dxfile
  6
Continuous
 62
     6
100
AcDbLine
 10
1307.925124
 20
876.672003
 30
0.0
 11
1307.925124
 21
904.621719
 31
0.0
  0
INSERT
  5
2EB
330
1F
100
AcDbEntity
  8
dxfile
  6
Continuous
 62
     3
100
AcDbBlockReference
  2
DIM_5
 10
227.925124
 20
636.383313
 30
0.0
  0
LINE
  5
2EC
330
1F
100
AcDbEntity
  8
dxfile
  6
Continuous
 62
     6
100
AcDbLine
 10
3398.114005
 20
2020.02405
 30
0.0
 11
3368.652648
 21
2020.02405
 31
0.0
  0
LINE
  5
2ED
330
1F
100
AcDbEntity
  8
dxfile
  6
Continuous
 62
     6
100
AcDbLine
 10
3368.652648
 20
2020.02405
 30
0.0
 11
3493.255208
 21
2020.02405
 31
0.0
  0
LINE
  5
2EE
330
1F
100
AcDbEntity
  8
dxfile
  6
Continuous
 62
     4
100
AcDbLine
 10
2680.983317
 20
873.64561
 30
0.0
 11
2730.824341
 21
873.64561
 31
0.0
  0
LINE
  5
2EF
330
1F
100
AcDbEntity
  8
dxfile
  6
Continuous
 62
     4
100
AcDbLine
 10
2730.824341
 20
873.64561
 30
0.0
 11
2730.824341
 21
724.122538
 31
0.0
  0
LINE
  5
2F0
330
1F
100
AcDbEntity
  8
dxfile
  6
Continuous
 62
     4
100
AcDbLine
 10
2720.856137
 20
724.122538
 30
0.0
 11
2730.824341
 21
724.122538
 31
0.0
  0
LINE
  5
2F1
330
1F
100
AcDbEntity
  8
dxfile
  6
Continuous
 62
     4
100
AcDbLine
 10
2680.983317
 20
863.677405
 30
0.0
 11
2720.856137
 21
863.677405
 31
0.0
  0
LINE
  5
2F2
330
1F
100
AcDbEntity
  8
dxfile
  6
Continuous
 62
     4
100
AcDbLine
 10
2720.856137
 20
863.677405
 30
0.0
 11
2720.856137
 21
724.122538
 31
0.0
  0
LINE
  5
2F3
330
1F
100
AcDbEntity
  8
dxfile
  6
Continuous
 62
     4
100
AcDbLine
 10
2680.983317
 20
873.64561
 30
0.0
 11
2680.983317
 21
863.677405
 31
0.0
  0
LINE
  5
2F4
330
1F
100
AcDbEntity
  8
dxfile
  6
Continuous
 62
     2
100
AcDbLine
 10
3037.473925
 20
1518.752936
 30
0.0
 11
2441.714197
 21
1413.710085
 31
0.0
  0
LINE
  5
2F5
330
1F
100
AcDbEntity
  8
dxfile
  6
Continuous
 62
     3
100
AcDbLine
 10
2685.38428
 20
797.613128
 30
0.0
 11
2814.402239
 21
797.613128
 31
0.0
  0
LINE
  5
2F6
330
1F
100
AcDbEntity
  8
dxfile
  6
Continuous
 62
     2
100
AcDbLine
 10
2441.714197
 20
873.64561
 30
0.0
 11
2441.714197
 21
1413.710085
 31
0.0
  0
LINE
  5
2F7
330
1F
100
AcDbEntity
  8
dxfile
  6
Continuous
 62
     2
100
AcDbLine
 10
2641.078293
 20
923.486634
 30
0.0
 11
2641.078293
 21
873.64561
 31
0.0
  0
LINE
  5
2F8
330
1F
100
AcDbEntity
  8
dxfile
  6
Continuous
 62
     2
100
AcDbLine
 10
2641.078293
 20
873.64561
 30
0.0
 11
2441.714197
 21
873.64561
 31
0.0
  0
CIRCLE
  5
2F9
330
1F
100
AcDbEntity
  8
dxfile
  6
Continuous
 62
     6
100
AcDbCircle
 10
2940.52815
 20
1424.458702
 30
0.0
 40
2.5219558144
  0
CIRCLE
  5
2FA
330
1F
100
AcDbEntity
  8
dxfile
  6
Continuous
 62
     6
100
AcDbCircle
 10
2468.448923
 20
999.99759
 30
0.0
 40
4.7498495872
  0
CIRCLE
  5
2FB
330
1F
100
AcDbEntity
  8
dxfile
  6
Continuous
 62
     6
100
AcDbCircle
 10
2510.913475
 20
1157.116434
 30
0.0
 40
4.246455244799999
  0
CIRCLE
  5
2FC
330
1F
100
AcDbEntity
  8
dxfile
  6
Continuous
 62
     6
100
AcDbCircle
 10
2498.174109
 20
1276.01718
 30
0.0
 40
3.0004296448
  0
CIRCLE
  5
2FD
330
1F
100
AcDbEntity
  8
dxfile
  6
Continuous
 62
     6
100
AcDbCircle
 10
2508.790247
 20
946.916899
 30
0.0
 40
4.246455244799999
  0
CIRCLE
  5
2FE
330
1F
100
AcDbEntity
  8
dxfile
  6
Continuous
 62
     6
100
AcDbCircle
 10
2481.188288
 20
1082.803467
 30
0.0
 40
6.713585932800001
  0
CIRCLE
  5
2FF
330
1F
100
AcDbEntity
  8
dxfile
  6
Continuous
 62
     6
100
AcDbCircle
 10
2468.448923
 20
1208.073897
 30
0.0
 40
4.7498495872
  0
CIRCLE
  5
300
330
1F
100
AcDbEntity
  8
dxfile
  6
Continuous
 62
     6
100
AcDbCircle
 10
2902.250243
 20
1470.711173
 30
0.0
 40
2.392369152
  0
CIRCLE
  5
301
330
1F
100
AcDbEntity
  8
dxfile
  6
Continuous
 62
     6
100
AcDbCircle
 10
3509.114551
 20
1605.573845
 30
0.0
 40
2.392369152
  0
CIRCLE
  5
302
330
1F
100
AcDbEntity
  8
dxfile
  6
Continuous
 62
     6
100
AcDbCircle
 10
3446.115497
 20
1550.456811
 30
0.0
 40
2.8758270848
  0
CIRCLE
  5
303
330
1F
100
AcDbEntity
  8
dxfile
  6
Continuous
 62
     6
100
AcDbCircle
 10
3508.317095
 20
1540.089878
 30
0.0
 40
1.594912768
  0
CIRCLE
  5
304
330
1F
100
AcDbEntity
  8
dxfile
  6
Continuous
 62
     6
100
AcDbCircle
 10
3412.622329
 20
1531.317858
 30
0.0
 40
2.392369152
  0
CIRCLE
  5
305
330
1F
100
AcDbEntity
  8
dxfile
  6
Continuous
 62
     6
100
AcDbCircle
 10
3452.495148
 20
1626.307711
 30
0.0
 40
3.189825536000001
  0
CIRCLE
  5
306
330
1F
100
AcDbEntity
  8
dxfile
  6
Continuous
 62
     6
100
AcDbCircle
 10
3503.532357
 20
1624.712798
 30
0.0
 40
2.5219558144
  0
CIRCLE
  5
307
330
1F
100
AcDbEntity
  8
dxfile
  6
Continuous
 62
     6
100
AcDbCircle
 10
3287.421677
 20
1558.431375
 30
0.0
 40
3.189825536000001
  0
CIRCLE
  5
308
330
1F
100
AcDbEntity
  8
dxfile
  6
Continuous
 62
     6
100
AcDbCircle
 10
3277.8522
 20
1503.406884
 30
0.0
 40
1.594912768
  0
CIRCLE
  5
309
330
1F
100
AcDbEntity
  8
dxfile
  6
Continuous
 62
     6
100
AcDbCircle
 10
3217.245515
 20
1505.799253
 30
0.0
 40
2.5219558144
  0
CIRCLE
  5
30A
330
1F
100
AcDbEntity
  8
dxfile
  6
Continuous
 62
     6
100
AcDbCircle
 10
3232.397186
 20
1578.460328
 30
0.0
 40
2.5219558144
  0
CIRCLE
  5
30B
330
1F
100
AcDbEntity
  8
dxfile
  6
Continuous
 62
     6
100
AcDbCircle
 10
3167.005763
 20
1483.470475
 30
0.0
 40
2.2577983872
  0
CIRCLE
  5
30C
330
1F
100
AcDbEntity
  8
dxfile
  6
Continuous
 62
     6
100
AcDbCircle
 10
3109.588903
 20
1476.293367
 30
0.0
 40
2.392369152
  0
CIRCLE
  5
30D
330
1F
100
AcDbEntity
  8
dxfile
  6
Continuous
 62
     6
100
AcDbCircle
 10
3145.47444
 20
1549.659355
 30
0.0
 40
3.189825536000001
  0
CIRCLE
  5
30E
330
1F
100
AcDbEntity
  8
dxfile
  6
Continuous
 62
     6
100
AcDbCircle
 10
2728.404751
 20
1399.737554
 30
0.0
 40
3.568617318399998
  0
CIRCLE
  5
30F
330
1F
100
AcDbEntity
  8
dxfile
  6
Continuous
 62
     6
100
AcDbCircle
 10
2789.011437
 20
1420.47142
 30
0.0
 40
3.568617318399998
  0
CIRCLE
  5
310
330
1F
100
AcDbEntity
  8
dxfile
  6
Continuous
 62
     6
100
AcDbCircle
 10
3084.867755
 20
1547.266985
 30
0.0
 40
3.568617318399998
  0
CIRCLE
  5
311
330
1F
100
AcDbEntity
  8
dxfile
  6
Continuous
 62
     6
100
AcDbCircle
 10
2749.138617
 20
1441.205286
 30
0.0
 40
2.8758270848
  0
CIRCLE
  5
312
330
1F
100
AcDbEntity
  8
dxfile
  6
Continuous
 62
     6
100
AcDbCircle
 10
3054.564413
 20
1478.685736
 30
0.0
 40
2.2577983872
  0
CIRCLE
  5
313
330
1F
100
AcDbEntity
  8
dxfile
  6
Continuous
 62
     6
100
AcDbCircle
 10
2977.211143
 20
1486.6603
 30
0.0
 40
4.0670275584
  0
CIRCLE
  5
314
330
1F
100
AcDbEntity
  8
dxfile
  6
Continuous
 62
     6
100
AcDbCircle
 10
2489.681199
 20
1386.425017
 30
0.0
 40
6.713585932800001
  0
CIRCLE
  5
315
330
1F
100
AcDbEntity
  8
dxfile
  6
Continuous
 62
     6
100
AcDbCircle
 10
2621.321311
 20
1409.780521
 30
0.0
 40
2.1232276224
  0
CIRCLE
  5
316
330
1F
100
AcDbEntity
  8
dxfile
  6
Continuous
 62
     6
100
AcDbCircle
 10
2879.124008
 20
1422.066333
 30
0.0
 40
1.1264071424
  0
LINE
  5
317
330
1F
100
AcDbEntity
  8
dxfile
  6
Continuous
 62
     3
100
AcDbLine
 10
3356.192392
 20
2088.063408
 30
0.0
 11
3505.715464
 21
2088.063408
 31
0.0
  0
LINE
  5
318
330
1F
100
AcDbEntity
  8
dxfile
  6
Continuous
 62
     6
100
AcDbLine
 10
3505.715464
 20
2078.063408
 30
0.0
 11
3356.142551
 21
2078.063408
 31
0.0
  0
LINE
  5
319
330
1F
100
AcDbEntity
  8
dxfile
  6
Continuous
 62
     6
100
AcDbLine
 10
3493.255208
 20
2050.02405
 30
0.0
 11
3493.255208
 21
2020.02405
 31
0.0
  0
LINE
  5
31A
330
1F
100
AcDbEntity
  8
dxfile
  6
Continuous
 62
     6
100
AcDbLine
 10
3368.652648
 20
2050.02405
 30
0.0
 11
3368.652648
 21
2020.02405
 31
0.0
  0
LINE
  5
31B
330
1F
100
AcDbEntity
  8
dxfile
  6
Continuous
 62
     3
100
AcDbLine
 10
3505.715464
 20
2088.063408
 30
0.0
 11
3505.715464
 21
2078.063408
 31
0.0
  0
LINE
  5
31C
330
1F
100
AcDbEntity
  8
dxfile
  6
Continuous
 62
     3
100
AcDbLine
 10
3356.192392
 20
2088.063408
 30
0.0
 11
3356.192392
 21
2078.063408
 31
0.0
  0
LINE
  5
31D
330
1F
100
AcDbEntity
  8
dxfile
  6
Continuous
 62
     2
100
AcDbLine
 10
2780.824341
 20
923.486634
 30
0.0
 11
2541.396245
 21
923.486634
 31
0.0
  0
LINE
  5
31E
330
1F
100
AcDbEntity
  8
dxfile
  6
Continuous
 62
     2
100
AcDbLine
 10
2541.396245
 20
1345.819535
 30
0.0
 11
2541.396245
 21
923.486634
 31
0.0
  0
LINE
  5
31F
330
1F
100
AcDbEntity
  8
dxfile
  6
Continuous
 62
     3
100
AcDbLine
 10
2559.672949
 20
923.486634
 30
0.0
 11
3076.322399
 21
1440.136084
 31
0.0
  0
LINE
  5
320
330
1F
100
AcDbEntity
  8
dxfile
  6
Continuous
 62
     2
100
AcDbLine
 10
3530.824341
 20
1520.27547
 30
0.0
 11
2541.396245
 21
1345.816016
 31
0.0
  0
LINE
  5
321
330
1F
100
AcDbEntity
  8
dxfile
  6
Continuous
 62
     2
100
AcDbLine
 10
2780.824341
 20
923.486634
 30
0.0
 11
2780.824341
 21
509.418836
 31
0.0
  0
LINE
  5
322
330
1F
100
AcDbEntity
  8
dxfile
  6
Continuous
 62
     2
100
AcDbLine
 10
2730.824341
 20
923.486634
 30
0.0
 11
2730.824341
 21
509.418836
 31
0.0
  0
LINE
  5
323
330
1F
100
AcDbEntity
  8
dxfile
  6
Continuous
 62
     2
100
AcDbLine
 10
3530.824341
 20
1520.27547
 30
0.0
 11
3530.824341
 21
509.418836
 31
0.0
  0
LINE
  5
324
330
1F
100
AcDbEntity
  8
dxfile
  6
Continuous
 62
     3
100
AcDbLine
 10
3530.824341
 20
1028.361156
 30
0.0
 11
3011.882022
 21
509.418836
 31
0.0
  0
LINE
  5
325
330
1F
100
AcDbEntity
  8
dxfile
  6
Continuous
 62
     3
100
AcDbLine
 10
3530.824341
 20
1055.963115
 30
0.0
 11
2984.280063
 21
509.418836
 31
0.0
  0
LINE
  5
326
330
1F
100
AcDbEntity
  8
dxfile
  6
Continuous
 62
     3
100
AcDbLine
 10
3530.824341
 20
1079.318619
 30
0.0
 11
2960.924559
 21
509.418836
 31
0.0
  0
LINE
  5
327
330
1F
100
AcDbEntity
  8
dxfile
  6
PLine2
 62
     3
100
AcDbLine
 10
3655.824341
 20
1770.02405
 30
0.0
 11
3655.824341
 21
509.418836
 31
0.0
  0
LINE
  5
328
330
1F
100
AcDbEntity
  8
dxfile
  6
Continuous
 62
     3
100
AcDbLine
 10
3040.233974
 20
1433.772845
 30
0.0
 11
2541.396245
 21
934.935117
 31
0.0
  0
LINE
  5
329
330
1F
100
AcDbEntity
  8
dxfile
  6
Continuous
 62
     3
100
AcDbLine
 10
3009.301038
 20
1428.318641
 30
0.0
 11
2541.396245
 21
960.413848
 31
0.0
  0
LINE
  5
32A
330
1F
100
AcDbEntity
  8
dxfile
  6
Continuous
 62
     4
100
AcDbLine
 10
3142.210454
 20
2070.02405
 30
0.0
 11
3575.473491
 21
2070.02405
 31
0.0
  0
LINE
  5
32B
330
1F
100
AcDbEntity
  8
dxfile
  6
Continuous
 62
     4
100
AcDbLine
 10
3135.594797
 20
2050.02405
 30
0.0
 11
3575.473491
 21
2050.02405
 31
0.0
  0
LINE
  5
32C
330
1F
100
AcDbEntity
  8
dxfile
  6
Continuous
 62
     4
100
AcDbLine
 10
3020.824341
 20
1870.02405
 30
0.0
 11
3091.592254
 21
2036.536786
 31
0.0
  0
LINE
  5
32D
330
1F
100
AcDbEntity
  8
dxfile
  6
Continuous
 62
     4
100
AcDbLine
 10
3042.555655
 20
1870.02405
 30
0.0
 11
3112.586524
 21
2034.802566
 31
0.0
  0
LINE
  5
32E
330
1F
100
AcDbEntity
  8
dxfile
  6
Continuous
 62
     4
100
AcDbLine
 10
3020.824341
 20
1870.02405
 30
0.0
 11
3042.555655
 21
1870.02405
 31
0.0
  0
ARC
  5
32F
330
1F
100
AcDbEntity
  8
dxfile
  6
Continuous
 62
     4
100
AcDbCircle
 10
5855.824341
 20
670.02405
 30
0.0
 40
2650.0
100
AcDbArc
 50
140.870172
 51
147.459693
  0
ARC
  5
330
330
1F
100
AcDbEntity
  8
dxfile
  6
Continuous
 62
     4
100
AcDbCircle
 10
5855.824341
 20
670.02405
 30
0.0
 40
2630.0
100
AcDbArc
 50
140.817179
 51
147.459693
  0
LINE
  5
331
330
1F
100
AcDbEntity
  8
dxfile
  6
PLine2
 62
     3
100
AcDbLine
 10
3430.824341
 20
2149.873108
 30
0.0
 11
3430.824341
 21
1867.011847
 31
0.0
  0
LINE
  5
332
330
1F
100
AcDbEntity
  8
dxfile
  6
Continuous
 62
     3
100
AcDbLine
 10
3410.824342
 20
1982.555847
 30
0.0
 11
3410.824342
 21
1893.063407
 31
0.0
  0
LINE
  5
333
330
1F
100
AcDbEntity
  8
dxfile
  6
Continuous
 62
     3
100
AcDbLine
 10
3410.824342
 20
1893.063407
 30
0.0
 11
3415.824342
 21
1888.063408
 31
0.0
  0
LINE
  5
334
330
1F
100
AcDbEntity
  8
dxfile
  6
Continuous
 62
     3
100
AcDbLine
 10
3450.824341
 20
1982.555847
 30
0.0
 11
3450.824341
 21
1893.063407
 31
0.0
  0
LINE
  5
335
330
1F
100
AcDbEntity
  8
dxfile
  6
Continuous
 62
     3
100
AcDbLine
 10
3445.824341
 20
1888.063408
 30
0.0
 11
3415.824342
 21
1888.063408
 31
0.0
  0
LINE
  5
336
330
1F
100
AcDbEntity
  8
dxfile
  6
Continuous
 62
     3
100
AcDbLine
 10
3450.824341
 20
1893.063407
 30
0.0
 11
3445.824341
 21
1888.063408
 31
0.0
  0
LINE
  5
337
330
1F
100
AcDbEntity
  8
dxfile
  6
Continuous
 62
     3
100
AcDbLine
 10
3390.824343
 20
2010.02405
 30
0.0
 11
3390.824343
 21
1986.1369
 31
0.0
  0
LINE
  5
338
330
1F
100
AcDbEntity
  8
dxfile
  6
Continuous
 62
     3
100
AcDbLine
 10
3470.82434
 20
1986.1369
 30
0.0
 11
3470.82434
 21
2010.02405
 31
0.0
  0
LINE
  5
339
330
1F
100
AcDbEntity
  8
dxfile
  6
Continuous
 62
     3
100
AcDbLine
 10
3470.82434
 20
2010.02405
 30
0.0
 11
3390.824343
 21
2010.02405
 31
0.0
  0
LINE
  5
33A
330
1F
100
AcDbEntity
  8
dxfile
  6
Continuous
 62
     3
100
AcDbLine
 10
3470.82434
 20
1986.1369
 30
0.0
 11
3464.566703
 21
1982.524051
 31
0.0
  0
LINE
  5
33B
330
1F
100
AcDbEntity
  8
dxfile
  6
Continuous
 62
     3
100
AcDbLine
 10
3464.566703
 20
1982.524051
 30
0.0
 11
3430.824341
 21
1982.524051
 31
0.0
  0
LINE
  5
33C
330
1F
100
AcDbEntity
  8
dxfile
  6
Continuous
 62
     3
100
AcDbLine
 10
3450.824341
 20
2010.02405
 30
0.0
 11
3450.824341
 21
1985.955509
 31
0.0
  0
ARC
  5
33D
330
1F
100
AcDbEntity
  8
dxfile
  6
Continuous
 62
     3
100
AcDbCircle
 10
3430.824341
 20
2042.524049
 30
0.0
 40
59.9999976000305
100
AcDbArc
 50
270.0
 51
289.471221
  0
ARC
  5
33E
330
1F
100
AcDbEntity
  8
dxfile
  6
Continuous
 62
     3
100
AcDbCircle
 10
3460.472679
 20
1997.804051
 30
0.0
 40
15.2799993888479
100
AcDbArc
 50
230.843868
 51
270.0
  0
LINE
  5
33F
330
1F
100
AcDbEntity
  8
dxfile
  6
Continuous
 62
     3
100
AcDbLine
 10
3390.824343
 20
1986.1369
 30
0.0
 11
3397.08198
 21
1982.524051
 31
0.0
  0
LINE
  5
340
330
1F
100
AcDbEntity
  8
dxfile
  6
Continuous
 62
     3
100
AcDbLine
 10
3397.08198
 20
1982.524051
 30
0.0
 11
3430.824341
 21
1982.524051
 31
0.0
  0
ARC
  5
341
330
1F
100
AcDbEntity
  8
dxfile
  6
Continuous
 62
     3
100
AcDbCircle
 10
3430.824341
 20
2042.524049
 30
0.0
 40
59.9999976000305
100
AcDbArc
 50
250.528779
 51
270.0
  0
ARC
  5
342
330
1F
100
AcDbEntity
  8
dxfile
  6
Continuous
 62
     3
100
AcDbCircle
 10
3401.176004
 20
1997.804051
 30
0.0
 40
15.2799993888479
100
AcDbArc
 50
270.0
 51
309.156132
  0
LINE
  5
343
330
1F
100
AcDbEntity
  8
dxfile
  6
Continuous
 62
     3
100
AcDbLine
 10
3410.824342
 20
2010.02405
 30
0.0
 11
3410.824342
 21
1985.955509
 31
0.0
  0
LINE
  5
344
330
1F
100
AcDbEntity
  8
dxfile
  6
Continuous
 62
     3
100
AcDbLine
 10
3470.82434
 20
2088.06342
 30
0.0
 11
3470.82434
 21
2111.950571
 31
0.0
  0
LINE
  5
345
330
1F
100
AcDbEntity
  8
dxfile
  6
Continuous
 62
     3
100
AcDbLine
 10
3470.82434
 20
2111.950571
 30
0.0
 11
3464.566703
 21
2115.563419
 31
0.0
  0
LINE
  5
346
330
1F
100
AcDbEntity
  8
dxfile
  6
Continuous
 62
     3
100
AcDbLine
 10
3464.566703
 20
2115.563419
 30
0.0
 11
3430.824341
 21
2115.563419
 31
0.0
  0
LINE
  5
347
330
1F
100
AcDbEntity
  8
dxfile
  6
Continuous
 62
     3
100
AcDbLine
 10
3450.824341
 20
2088.06342
 30
0.0
 11
3450.824341
 21
2112.131962
 31
0.0
  0
ARC
  5
348
330
1F
100
AcDbEntity
  8
dxfile
  6
Continuous
 62
     3
100
AcDbCircle
 10
3430.824341
 20
2055.563421
 30
0.0
 40
59.9999976000305
100
AcDbArc
 50
70.528779
 51
90.0
  0
ARC
  5
349
330
1F
100
AcDbEntity
  8
dxfile
  6
Continuous
 62
     3
100
AcDbCircle
 10
3460.472679
 20
2100.28342
 30
0.0
 40
15.2799993888479
100
AcDbArc
 50
90.0
 51
129.156132
  0
LINE
  5
34A
330
1F
100
AcDbEntity
  8
dxfile
  6
Continuous
 62
     3
100
AcDbLine
 10
3390.824343
 20
2088.06342
 30
0.0
 11
3390.824343
 21
2111.950571
 31
0.0
  0
LINE
  5
34B
330
1F
100
AcDbEntity
  8
dxfile
  6
Continuous
 62
     3
100
AcDbLine
 10
3390.824343
 20
2111.950571
 30
0.0
 11
3397.08198
 21
2115.563419
 31
0.0
  0
LINE
  5
34C
330
1F
100
AcDbEntity
  8
dxfile
  6
Continuous
 62
     3
100
AcDbLine
 10
3397.08198
 20
2115.563419
 30
0.0
 11
3430.824341
 21
2115.563419
 31
0.0
  0
ARC
  5
34D
330
1F
100
AcDbEntity
  8
dxfile
  6
Continuous
 62
     3
100
AcDbCircle
 10
3430.824341
 20
2055.563421
 30
0.0
 40
59.9999976000305
100
AcDbArc
 50
90.0
 51
109.471221
  0
ARC
  5
34E
330
1F
100
AcDbEntity
  8
dxfile
  6
Continuous
 62
     3
100
AcDbCircle
 10
3401.176004
 20
2100.28342
 30
0.0
 40
15.2799993888479
100
AcDbArc
 50
50.843868
 51
90.0
  0
LINE
  5
34F
330
1F
100
AcDbEntity
  8
dxfile
  6
Continuous
 62
     3
100
AcDbLine
 10
3410.824342
 20
2088.06342
 30
0.0
 11
3410.824342
 21
2112.131962
 31
0.0
  0
LINE
  5
350
330
1F
100
AcDbEntity
  8
dxfile
  6
Continuous
 62
     3
100
AcDbLine
 10
3390.824343
 20
2088.063408
 30
0.0
 11
3470.82434
 21
2088.063408
 31
0.0
  0
LINE
  5
351
330
1F
100
AcDbEntity
  8
dxfile
  6
Continuous
 62
     6
100
AcDbLine
 10
3356.192392
 20
2078.063408
 30
0.0
 11
3505.715464
 21
2078.063408
 31
0.0
  0
LINE
  5
352
330
1F
100
AcDbEntity
  8
dxfile
  6
Continuous
 62
     6
100
AcDbLine
 10
3505.715464
 20
2078.063408
 30
0.0
 11
3505.715464
 21
2070.02405
 31
0.0
  0
LINE
  5
353
330
1F
100
AcDbEntity
  8
dxfile
  6
Continuous
 62
     6
100
AcDbLine
 10
3356.192392
 20
2070.02405
 30
0.0
 11
3356.192392
 21
2078.063408
 31
0.0
  0
LINE
  5
354
330
1F
100
AcDbEntity
  8
dxfile
  6
Continuous
 62
     6
100
AcDbLine
 10
3356.192392
 20
2075.563408
 30
0.0
 11
3505.715464
 21
2075.563408
 31
0.0
  0
LINE
  5
355
330
1F
100
AcDbEntity
  8
dxfile
  6
Continuous
 62
     6
100
AcDbLine
 10
3356.192392
 20
2073.063408
 30
0.0
 11
3505.715464
 21
2073.063408
 31
0.0
  0
LINE
  5
356
330
1F
100
AcDbEntity
  8
dxfile
  6
Continuous
 62
     6
100
AcDbLine
 10
3457.863079
 20
2020.02405
 30
0.0
 11
3487.863079
 21
2050.02405
 31
0.0
  0
LINE
  5
357
330
1F
100
AcDbEntity
  8
dxfile
  6
Continuous
 62
     6
100
AcDbLine
 10
3412.224831
 20
2020.02405
 30
0.0
 11
3442.224831
 21
2050.02405
 31
0.0
  0
LINE
  5
358
330
1F
100
AcDbEntity
  8
dxfile
  6
Continuous
 62
     6
100
AcDbLine
 10
3373.936564
 20
2020.02405
 30
0.0
 11
3403.936564
 21
2050.02405
 31
0.0
  0
LINE
  5
359
330
1F
100
AcDbEntity
  8
dxfile
  6
Continuous
 62
     6
100
AcDbLine
 10
3400.378037
 20
2020.02405
 30
0.0
 11
3370.378037
 21
2050.02405
 31
0.0
  0
LINE
  5
35A
330
1F
100
AcDbEntity
  8
dxfile
  6
Continuous
 62
     6
100
AcDbLine
 10
3416.358144
 20
2050.02405
 30
0.0
 11
3446.358144
 21
2020.02405
 31
0.0
  0
LINE
  5
35B
330
1F
100
AcDbEntity
  8
dxfile
  6
Continuous
 62
     6
100
AcDbLine
 10
3489.261516
 20
2020.02405
 30
0.0
 11
3459.261516
 21
2050.02405
 31
0.0
  0
LINE
  5
35C
330
1F
100
AcDbEntity
  8
dxfile
  6
Continuous
 62
     3
100
AcDbLine
 10
3530.824341
 20
1782.52405
 30
0.0
 11
3565.659341
 21
1782.52405
 31
0.0
  0
LINE
  5
35D
330
1F
100
AcDbEntity
  8
dxfile
  6
Continuous
 62
     6
100
AcDbLine
 10
3565.779341
 20
1777.36405
 30
0.0
 11
3565.779341
 21
1884.99405
 31
0.0
  0
LINE
  5
35E
330
1F
100
AcDbEntity
  8
dxfile
  6
Continuous
 62
     3
100
AcDbLine
 10
3565.659341
 20
1777.36405
 30
0.0
 11
3565.659341
 21
1782.52405
 31
0.0
  0
LINE
  5
35F
330
1F
100
AcDbEntity
  8
dxfile
  6
Continuous
 62
     6
100
AcDbLine
 10
3600.779341
 20
1884.99405
 30
0.0
 11
3600.779341
 21
1869.99405
 31
0.0
  0
LINE
  5
360
330
1F
100
AcDbEntity
  8
dxfile
  6
Continuous
 62
     6
100
AcDbLine
 10
3680.659341
 20
1834.86405
 30
0.0
 11
3680.659341
 21
1819.86405
 31
0.0
  0
LINE
  5
361
330
1F
100
AcDbEntity
  8
dxfile
  6
Continuous
 62
     6
100
AcDbLine
 10
3580.779341
 20
1869.99405
 30
0.0
 11
3600.779341
 21
1869.99405
 31
0.0
  0
LINE
  5
362
330
1F
100
AcDbEntity
  8
dxfile
  6
Continuous
 62
     6
100
AcDbLine
 10
3580.779341
 20
1869.99405
 30
0.0
 11
3580.779341
 21
1834.86405
 31
0.0
  0
LINE
  5
363
330
1F
100
AcDbEntity
  8
dxfile
  6
Continuous
 62
     6
100
AcDbLine
 10
3600.779341
 20
1874.99405
 30
0.0
 11
3595.779341
 21
1869.99405
 31
0.0
  0
LINE
  5
364
330
1F
100
AcDbEntity
  8
dxfile
  6
Continuous
 62
     6
100
AcDbLine
 10
3590.779341
 20
1809.99405
 30
0.0
 11
3645.779341
 21
1809.99405
 31
0.0
  0
LINE
  5
365
330
1F
100
AcDbEntity
  8
dxfile
  6
Continuous
 62
     6
100
AcDbLine
 10
3652.929341
 20
1777.14405
 30
0.0
 11
3673.304341
 21
1797.51905
 31
0.0
  0
LINE
  5
366
330
1F
100
AcDbEntity
  8
dxfile
  6
Continuous
 62
     6
100
AcDbLine
 10
3645.779341
 20
1809.99405
 30
0.0
 11
3645.779341
 21
1777.14405
 31
0.0
  0
LINE
  5
367
330
1F
100
AcDbEntity
  8
dxfile
  6
Continuous
 62
     6
100
AcDbLine
 10
3590.779341
 20
1809.99405
 30
0.0
 11
3590.779341
 21
1777.39405
 31
0.0
  0
LINE
  5
368
330
1F
100
AcDbEntity
  8
dxfile
  6
Continuous
 62
     6
100
AcDbLine
 10
3645.779341
 20
1804.99405
 30
0.0
 11
3673.279341
 21
1777.49405
 31
0.0
  0
LINE
  5
369
330
1F
100
AcDbEntity
  8
dxfile
  6
Continuous
 62
     6
100
AcDbLine
 10
3680.659341
 20
1834.86405
 30
0.0
 11
3580.779341
 21
1834.86405
 31
0.0
  0
LINE
  5
36A
330
1F
100
AcDbEntity
  8
dxfile
  6
Continuous
 62
     3
100
AcDbLine
 10
3630.659341
 20
1777.36405
 30
0.0
 11
3673.159341
 21
1777.36405
 31
0.0
  0
LINE
  5
36B
330
1F
100
AcDbEntity
  8
dxfile
  6
Continuous
 62
     3
100
AcDbLine
 10
3673.324341
 20
1812.52405
 30
0.0
 11
3673.324341
 21
1777.52405
 31
0.0
  0
LINE
  5
36C
330
1F
100
AcDbEntity
  8
dxfile
  6
Continuous
 62
     6
100
AcDbLine
 10
3600.779341
 20
1884.99405
 30
0.0
 11
3565.779341
 21
1884.99405
 31
0.0
  0
LINE
  5
36D
330
1F
100
AcDbEntity
  8
dxfile
  6
Continuous
 62
     6
100
AcDbLine
 10
3565.779341
 20
1869.99405
 30
0.0
 11
3580.779341
 21
1884.99405
 31
0.0
  0
LINE
  5
36E
330
1F
100
AcDbEntity
  8
dxfile
  6
Continuous
 62
     6
100
AcDbLine
 10
3580.779341
 20
1854.99405
 30
0.0
 11
3565.779341
 21
1839.99405
 31
0.0
  0
LINE
  5
36F
330
1F
100
AcDbEntity
  8
dxfile
  6
Continuous
 62
     6
100
AcDbLine
 10
3565.779341
 20
1779.99405
 30
0.0
 11
3590.779341
 21
1804.99405
 31
0.0
  0
LINE
  5
370
330
1F
100
AcDbEntity
  8
dxfile
  6
Continuous
 62
     6
100
AcDbLine
 10
3580.779341
 20
1839.99405
 30
0.0
 11
3565.779341
 21
1854.99405
 31
0.0
  0
LINE
  5
371
330
1F
100
AcDbEntity
  8
dxfile
  6
Continuous
 62
     6
100
AcDbLine
 10
3580.779341
 20
1869.99405
 30
0.0
 11
3565.779341
 21
1884.99405
 31
0.0
  0
LINE
  5
372
330
1F
100
AcDbEntity
  8
dxfile
  6
Continuous
 62
     6
100
AcDbLine
 10
3565.779341
 20
1824.99405
 30
0.0
 11
3590.779341
 21
1799.99405
 31
0.0
  0
LINE
  5
373
330
1F
100
AcDbEntity
  8
dxfile
  6
Continuous
 62
     6
100
AcDbLine
 10
3565.779341
 20
1794.99405
 30
0.0
 11
3583.654341
 21
1777.11905
 31
0.0
  0
LINE
  5
374
330
1F
100
AcDbEntity
  8
dxfile
  6
Continuous
 62
     3
100
AcDbLine
 10
3565.659341
 20
1777.36405
 30
0.0
 11
3630.659341
 21
1777.36405
 31
0.0
  0
LINE
  5
375
330
1F
100
AcDbEntity
  8
dxfile
  6
Continuous
 62
     3
100
AcDbLine
 10
3340.824341
 20
2010.02405
 30
0.0
 11
3495.824341
 21
2010.02405
 31
0.0
  0
LINE
  5
376
330
1F
100
AcDbEntity
  8
dxfile
  6
Continuous
 62
     3
100
AcDbLine
 10
3340.824341
 20
2010.02405
 30
0.0
 11
3340.824341
 21
1980.02405
 31
0.0
  0
LINE
  5
377
330
1F
100
AcDbEntity
  8
dxfile
  6
Continuous
 62
     3
100
AcDbLine
 10
3340.824341
 20
1980.02405
 30
0.0
 11
3355.824341
 21
1980.02405
 31
0.0
  0
LINE
  5
378
330
1F
100
AcDbEntity
  8
dxfile
  6
Continuous
 62
     3
100
AcDbLine
 10
3355.824341
 20
1980.02405
 30
0.0
 11
3355.824341
 21
1975.02405
 31
0.0
  0
LINE
  5
379
330
1F
100
AcDbEntity
  8
dxfile
  6
Continuous
 62
     3
100
AcDbLine
 10
3355.824341
 20
1975.02405
 30
0.0
 11
3340.824341
 21
1975.02405
 31
0.0
  0
LINE
  5
37A
330
1F
100
AcDbEntity
  8
dxfile
  6
Continuous
 62
     3
100
AcDbLine
 10
3495.824341
 20
2010.02405
 30
0.0
 11
3520.824341
 21
2010.02405
 31
0.0
  0
LINE
  5
37B
330
1F
100
AcDbEntity
  8
dxfile
  6
Continuous
 62
     3
100
AcDbLine
 10
3520.824341
 20
1975.02405
 30
0.0
 11
3520.824341
 21
1925.02405
 31
0.0
  0
LINE
  5
37C
330
1F
100
AcDbEntity
  8
dxfile
  6
Continuous
 62
     3
100
AcDbLine
 10
3505.824341
 20
1975.02405
 30
0.0
 11
3520.824341
 21
1975.02405
 31
0.0
  0
LINE
  5
37D
330
1F
100
AcDbEntity
  8
dxfile
  6
Continuous
 62
     3
100
AcDbLine
 10
3505.824341
 20
1980.02405
 30
0.0
 11
3505.824341
 21
1975.02405
 31
0.0
  0
LINE
  5
37E
330
1F
100
AcDbEntity
  8
dxfile
  6
Continuous
 62
     3
100
AcDbLine
 10
3505.824341
 20
1980.02405
 30
0.0
 11
3520.824341
 21
1980.02405
 31
0.0
  0
LINE
  5
37F
330
1F
100
AcDbEntity
  8
dxfile
  6
Continuous
 62
     3
100
AcDbLine
 10
3520.824341
 20
1980.02405
 30
0.0
 11
3520.824341
 21
2010.02405
 31
0.0
  0
LINE
  5
380
330
1F
100
AcDbEntity
  8
dxfile
  6
Continuous
 62
     3
100
AcDbLine
 10
3520.824341
 20
1925.02405
 30
0.0
 11
3520.824341
 21
1770.02405
 31
0.0
  0
ARC
  5
381
330
1F
100
AcDbEntity
  8
dxfile
  6
Continuous
 62
     3
100
AcDbCircle
 10
3332.324341
 20
2018.52405
 30
0.0
 40
1.5
100
AcDbArc
 50
90.0
 51
180.0
  0
LINE
  5
382
330
1F
100
AcDbEntity
  8
dxfile
  6
Continuous
 62
     3
100
AcDbLine
 10
3330.824341
 20
2018.52405
 30
0.0
 11
3330.824341
 21
1971.52405
 31
0.0
  0
ARC
  5
383
330
1F
100
AcDbEntity
  8
dxfile
  6
Continuous
 62
     3
100
AcDbCircle
 10
3332.324341
 20
1971.52405
 30
0.0
 40
1.5
100
AcDbArc
 50
180.0
 51
270.0
  0
LINE
  5
384
330
1F
100
AcDbEntity
  8
dxfile
  6
Continuous
 62
     3
100
AcDbLine
 10
3332.324341
 20
1970.02405
 30
0.0
 11
3339.324341
 21
1970.02405
 31
0.0
  0
LINE
  5
385
330
1F
100
AcDbEntity
  8
dxfile
  6
Continuous
 62
     3
100
AcDbLine
 10
3340.824341
 20
1975.02405
 30
0.0
 11
3340.824341
 21
1971.52405
 31
0.0
  0
ARC
  5
386
330
1F
100
AcDbEntity
  8
dxfile
  6
Continuous
 62
     3
100
AcDbCircle
 10
3339.324341
 20
1971.52405
 30
0.0
 40
1.5
100
AcDbArc
 50
270.0
 51
0.0
  0
LINE
  5
387
330
1F
100
AcDbEntity
  8
dxfile
  6
Continuous
 62
     3
100
AcDbLine
 10
3530.824341
 20
1782.52405
 30
0.0
 11
3530.824341
 21
2018.52405
 31
0.0
  0
ARC
  5
388
330
1F
100
AcDbEntity
  8
dxfile
  6
Continuous
 62
     3
100
AcDbCircle
 10
3529.324341
 20
2018.52405
 30
0.0
 40
1.5
100
AcDbArc
 50
0.0
 51
90.0
  0
LINE
  5
389
330
1F
100
AcDbEntity
  8
dxfile
  6
Continuous
 62
     3
100
AcDbLine
 10
3530.824341
 20
1770.02405
 30
0.0
 11
3679.324341
 21
1770.02405
 31
0.0
  0
ARC
  5
38A
330
1F
100
AcDbEntity
  8
dxfile
  6
Continuous
 62
     3
100
AcDbCircle
 10
3679.324341
 20
1771.52405
 30
0.0
 40
1.5
100
AcDbArc
 50
270.0
 51
0.0
  0
LINE
  5
38B
330
1F
100
AcDbEntity
  8
dxfile
  6
Continuous
 62
     3
100
AcDbLine
 10
3680.824341
 20
1771.52405
 30
0.0
 11
3680.824341
 21
1818.52405
 31
0.0
  0
ARC
  5
38C
330
1F
100
AcDbEntity
  8
dxfile
  6
Continuous
 62
     3
100
AcDbCircle
 10
3679.324341
 20
1818.52405
 30
0.0
 40
1.5
100
AcDbArc
 50
0.0
 51
90.0
  0
LINE
  5
38D
330
1F
100
AcDbEntity
  8
dxfile
  6
Continuous
 62
     3
100
AcDbLine
 10
3679.324341
 20
1820.02405
 30
0.0
 11
3667.324341
 21
1820.02405
 31
0.0
  0
ARC
  5
38E
330
1F
100
AcDbEntity
  8
dxfile
  6
Continuous
 62
     3
100
AcDbCircle
 10
3667.324341
 20
1818.52405
 30
0.0
 40
1.5
100
AcDbArc
 50
90.0
 51
180.0
  0
LINE
  5
38F
330
1F
100
AcDbEntity
  8
dxfile
  6
Continuous
 62
     3
100
AcDbLine
 10
3673.324341
 20
1812.52405
 30
0.0
 11
3667.324341
 21
1812.52405
 31
0.0
  0
LINE
  5
390
330
1F
100
AcDbEntity
  8
dxfile
  6
Continuous
 62
     3
100
AcDbLine
 10
3665.824341
 20
1818.52405
 30
0.0
 11
3665.824341
 21
1814.02405
 31
0.0
  0
ARC
  5
391
330
1F
100
AcDbEntity
  8
dxfile
  6
Continuous
 62
     3
100
AcDbCircle
 10
3667.324341
 20
1814.02405
 30
0.0
 40
1.5
100
AcDbArc
 50
180.0
 51
270.0
  0
LINE
  5
392
330
1F
100
AcDbEntity
  8
dxfile
  6
Continuous
 62
     3
100
AcDbLine
 10
3520.824341
 20
1925.02405
 30
0.0
 11
3520.824341
 21
1769.984358
 31
0.0
  0
LINE
  5
393
330
1F
100
AcDbEntity
  8
dxfile
  6
Continuous
 62
     6
100
AcDbLine
 10
3680.649341
 20
1834.86405
 30
0.0
 11
3645.779341
 21
1799.99405
 31
0.0
  0
LINE
  5
394
330
1F
100
AcDbEntity
  8
dxfile
  6
Continuous
 62
     6
100
AcDbLine
 10
3645.909341
 20
1834.86405
 30
0.0
 11
3665.779341
 21
1814.99405
 31
0.0
  0
LINE
  5
395
330
1F
100
AcDbEntity
  8
dxfile
  6
Continuous
 62
     6
100
AcDbLine
 10
3650.649341
 20
1834.86405
 30
0.0
 11
3625.779341
 21
1809.99405
 31
0.0
  0
LINE
  5
396
330
1F
100
AcDbEntity
  8
dxfile
  6
Continuous
 62
     6
100
AcDbLine
 10
3615.909341
 20
1834.86405
 30
0.0
 11
3640.779341
 21
1809.99405
 31
0.0
  0
LINE
  5
397
330
1F
100
AcDbEntity
  8
dxfile
  6
Continuous
 62
     6
100
AcDbLine
 10
3595.779341
 20
1809.99405
 30
0.0
 11
3620.649341
 21
1834.86405
 31
0.0
  0
LINE
  5
398
330
1F
100
AcDbEntity
  8
dxfile
  6
Continuous
 62
     6
100
AcDbLine
 10
3585.909341
 20
1834.86405
 30
0.0
 11
3610.779341
 21
1809.99405
 31
0.0
  0
LINE
  5
399
330
1F
100
AcDbEntity
  8
dxfile
  6
Continuous
 62
     6
100
AcDbLine
 10
3565.779341
 20
1809.99405
 30
0.0
 11
3590.649341
 21
1834.86405
 31
0.0
  0
LINE
  5
39A
330
1F
100
AcDbEntity
  8
dxfile
  6
Continuous
 62
     6
100
AcDbLine
 10
3590.824341
 20
1868.86405
 30
0.0
 11
3590.824341
 21
1834.86405
 31
0.0
  0
LINE
  5
39B
330
1F
100
AcDbEntity
  8
dxfile
  6
Continuous
 62
     3
100
AcDbLine
 10
3332.324341
 20
2020.02405
 30
0.0
 11
3529.324341
 21
2020.02405
 31
0.0
  0
LINE
  5
39C
330
1F
100
AcDbEntity
  8
dxfile
  6
Continuous
 62
     3
100
AcDbLine
 10
3198.154341
 20
1649.99405
 30
0.0
 11
3250.779341
 21
1649.99405
 31
0.0
  0
LINE
  5
39D
330
1F
100
AcDbEntity
  8
dxfile
  6
Continuous
 62
     3
100
AcDbLine
 10
3445.779341
 20
1649.99405
 30
0.0
 11
3495.544341
 21
1649.99405
 31
0.0
  0
LINE
  5
39E
330
1F
100
AcDbEntity
  8
dxfile
  6
Continuous
 62
     3
100
AcDbLine
 10
3495.544341
 20
1660.02405
 30
0.0
 11
3495.544341
 21
1649.99405
 31
0.0
  0
LINE
  5
39F
330
1F
100
AcDbEntity
  8
dxfile
  6
Continuous
 62
     3
100
AcDbLine
 10
2965.824341
 20
1661.63796
 30
0.0
 11
2965.824341
 21
1602.52405
 31
0.0
  0
LINE
  5
3A0
330
1F
100
AcDbEntity
  8
dxfile
  6
Continuous
 62
     3
100
AcDbLine
 10
3023.324341
 20
1595.02405
 30
0.0
 11
2957.324341
 21
1595.02405
 31
0.0
  0
ARC
  5
3A1
330
1F
100
AcDbEntity
  8
dxfile
  6
Continuous
 62
     3
100
AcDbCircle
 10
2957.324341
 20
1596.52405
 30
0.0
 40
1.5
100
AcDbArc
 50
180.0
 51
270.0
  0
LINE
  5
3A2
330
1F
100
AcDbEntity
  8
dxfile
  6
Continuous
 62
     3
100
AcDbLine
 10
2955.824341
 20
1596.52405
 30
0.0
 11
2955.824341
 21
1668.766137
 31
0.0
  0
ARC
  5
3A3
330
1F
100
AcDbEntity
  8
dxfile
  6
Continuous
 62
     3
100
AcDbCircle
 10
2957.324341
 20
1668.766137
 30
0.0
 40
1.5
100
AcDbArc
 50
100.033
 51
180.0
  0
LINE
  5
3A4
330
1F
100
AcDbEntity
  8
dxfile
  6
Continuous
 62
     3
100
AcDbLine
 10
2965.824341
 20
1602.52405
 30
0.0
 11
3029.324341
 21
1602.52405
 31
0.0
  0
ARC
  5
3A5
330
1F
100
AcDbEntity
  8
dxfile
  6
Continuous
 62
     3
100
AcDbCircle
 10
3029.324341
 20
1601.02405
 30
0.0
 40
1.5
100
AcDbArc
 50
0.0
 51
90.0
  0
LINE
  5
3A6
330
1F
100
AcDbEntity
  8
dxfile
  6
Continuous
 62
     3
100
AcDbLine
 10
3030.824341
 20
1601.02405
 30
0.0
 11
3030.824341
 21
1521.52405
 31
0.0
  0
ARC
  5
3A7
330
1F
100
AcDbEntity
  8
dxfile
  6
Continuous
 62
     3
100
AcDbCircle
 10
3029.324341
 20
1521.52405
 30
0.0
 40
1.5
100
AcDbArc
 50
270.0
 51
0.0
  0
LINE
  5
3A8
330
1F
100
AcDbEntity
  8
dxfile
  6
Continuous
 62
     3
100
AcDbLine
 10
3029.324341
 20
1520.02405
 30
0.0
 11
3024.824341
 21
1520.02405
 31
0.0
  0
LINE
  5
3A9
330
1F
100
AcDbEntity
  8
dxfile
  6
Continuous
 62
     3
100
AcDbLine
 10
3198.154341
 20
1649.99405
 30
0.0
 11
3198.154341
 21
1660.02405
 31
0.0
  0
LINE
  5
3AA
330
1F
100
AcDbEntity
  8
dxfile
  6
Continuous
 62
     3
100
AcDbLine
 10
3246.664341
 20
1660.02405
 30
0.0
 11
3254.164341
 21
1667.52405
 31
0.0
  0
LINE
  5
3AB
330
1F
100
AcDbEntity
  8
dxfile
  6
Continuous
 62
     3
100
AcDbLine
 10
3250.779341
 20
1649.99405
 30
0.0
 11
3268.309341
 21
1667.52405
 31
0.0
  0
LINE
  5
3AC
330
1F
100
AcDbEntity
  8
dxfile
  6
Continuous
 62
     3
100
AcDbLine
 10
3220.824341
 20
1660.02405
 30
0.0
 11
3220.824341
 21
1662.52405
 31
0.0
  0
ARC
  5
3AD
330
1F
100
AcDbEntity
  8
dxfile
  6
Continuous
 62
     3
100
AcDbCircle
 10
3215.824341
 20
1662.52405
 30
0.0
 40
5.0
100
AcDbArc
 50
0.0
 51
90.0
  0
LINE
  5
3AE
330
1F
100
AcDbEntity
  8
dxfile
  6
Continuous
 62
     3
100
AcDbLine
 10
3523.324341
 20
1667.52405
 30
0.0
 11
3523.324341
 21
1754.309107
 31
0.0
  0
LINE
  5
3AF
330
1F
100
AcDbEntity
  8
dxfile
  6
Continuous
 62
     3
100
AcDbLine
 10
3192.864341
 20
1677.17905
 30
0.0
 11
3500.584341
 21
1677.17905
 31
0.0
  0
LINE
  5
3B0
330
1F
100
AcDbEntity
  8
dxfile
  6
Continuous
 62
     3
100
AcDbLine
 10
3500.584341
 20
1667.52405
 30
0.0
 11
3500.584341
 21
1677.17905
 31
0.0
  0
LINE
  5
3B1
330
1F
100
AcDbEntity
  8
dxfile
  6
Continuous
 62
     3
100
AcDbLine
 10
3215.659341
 20
1667.52405
 30
0.0
 11
3475.644851
 21
1667.52405
 31
0.0
  0
LINE
  5
3B2
330
1F
100
AcDbEntity
  8
dxfile
  6
Continuous
 62
     3
100
AcDbLine
 10
3523.324341
 20
1667.52405
 30
0.0
 11
3475.824341
 21
1667.52405
 31
0.0
  0
ARC
  5
3B3
330
1F
100
AcDbEntity
  8
dxfile
  6
Continuous
 62
     3
100
AcDbCircle
 10
3475.824341
 20
1662.52405
 30
0.0
 40
5.0
100
AcDbArc
 50
90.0
 51
180.0
  0
LINE
  5
3B4
330
1F
100
AcDbEntity
  8
dxfile
  6
Continuous
 62
     3
100
AcDbLine
 10
3445.779341
 20
1649.99405
 30
0.0
 11
3428.249341
 21
1667.52405
 31
0.0
  0
LINE
  5
3B5
330
1F
100
AcDbEntity
  8
dxfile
  6
Continuous
 62
     3
100
AcDbLine
 10
3470.824341
 20
1660.02405
 30
0.0
 11
3470.824341
 21
1662.52405
 31
0.0
  0
LINE
  5
3B6
330
1F
100
AcDbEntity
  8
dxfile
  6
Continuous
 62
     3
100
AcDbLine
 10
3450.749362
 20
1660.02405
 30
0.0
 11
3443.25446
 21
1667.52405
 31
0.0
  0
LINE
  5
3B7
330
1F
100
AcDbEntity
  8
dxfile
  6
Continuous
 62
     3
100
AcDbLine
 10
3380.269341
 20
1571.72905
 30
0.0
 11
3380.269341
 21
1667.52405
 31
0.0
  0
LINE
  5
3B8
330
1F
100
AcDbEntity
  8
dxfile
  6
Continuous
 62
     3
100
AcDbLine
 10
3192.864341
 20
1667.52405
 30
0.0
 11
3192.864341
 21
1677.17905
 31
0.0
  0
LINE
  5
3B9
330
1F
100
AcDbEntity
  8
dxfile
  6
Continuous
 62
     3
100
AcDbLine
 10
3183.324341
 20
1667.52405
 30
0.0
 11
3215.659341
 21
1667.52405
 31
0.0
  0
LINE
  5
3BA
330
1F
100
AcDbEntity
  8
dxfile
  6
Continuous
 62
     3
100
AcDbLine
 10
3183.324341
 20
1667.52405
 30
0.0
 11
3183.324341
 21
1700.118256
 31
0.0
  0
LINE
  5
3BB
330
1F
100
AcDbEntity
  8
dxfile
  6
Continuous
 62
     3
100
AcDbLine
 10
3246.664341
 20
1660.02405
 30
0.0
 11
3177.324341
 21
1660.02405
 31
0.0
  0
LINE
  5
3BC
330
1F
100
AcDbEntity
  8
dxfile
  6
Continuous
 62
     3
100
AcDbLine
 10
3175.824341
 20
1698.791349
 30
0.0
 11
3175.824341
 21
1661.52405
 31
0.0
  0
ARC
  5
3BD
330
1F
100
AcDbEntity
  8
dxfile
  6
Continuous
 62
     3
100
AcDbCircle
 10
3177.324341
 20
1661.52405
 30
0.0
 40
1.5
100
AcDbArc
 50
180.0
 51
270.0
  0
LINE
  5
3BE
330
1F
100
AcDbEntity
  8
dxfile
  6
Continuous
 62
     3
100
AcDbLine
 10
3450.749362
 20
1660.02405
 30
0.0
 11
3529.324341
 21
1660.02405
 31
0.0
  0
LINE
  5
3BF
330
1F
100
AcDbEntity
  8
dxfile
  6
Continuous
 62
     3
100
AcDbLine
 10
3530.824341
 20
1770.02405
 30
0.0
 11
3530.824341
 21
1661.52405
 31
0.0
  0
ARC
  5
3C0
330
1F
100
AcDbEntity
  8
dxfile
  6
Continuous
 62
     3
100
AcDbCircle
 10
3529.324341
 20
1661.52405
 30
0.0
 40
1.5
100
AcDbArc
 50
270.0
 51
0.0
  0
LINE
  5
3C1
330
1F
100
AcDbEntity
  8
dxfile
  6
Continuous
 62
     3
100
AcDbLine
 10
2957.063018
 20
1670.243198
 30
0.0
 11
3520.824341
 21
1769.984358
 31
0.0
  0
LINE
  5
3C2
330
1F
100
AcDbEntity
  8
dxfile
  6
Continuous
 62
     3
100
AcDbLine
 10
3370.269341
 20
1571.72905
 30
0.0
 11
3380.254341
 21
1571.72905
 31
0.0
  0
LINE
  5
3C3
330
1F
100
AcDbEntity
  8
dxfile
  6
Continuous
 62
     3
100
AcDbLine
 10
3370.269341
 20
1571.72905
 30
0.0
 11
3370.269341
 21
1667.52405
 31
0.0
  0
LINE
  5
3C4
330
1F
100
AcDbEntity
  8
dxfile
  6
Continuous
 62
     3
100
AcDbLine
 10
2965.824341
 20
1661.63796
 30
0.0
 11
3175.824341
 21
1698.791349
 31
0.0
  0
LINE
  5
3C5
330
1F
100
AcDbEntity
  8
dxfile
  6
Continuous
 62
     3
100
AcDbLine
 10
3183.324341
 20
1700.118256
 30
0.0
 11
3517.453265
 21
1759.232645
 31
0.0
  0
LINE
  5
3C6
330
1F
100
AcDbEntity
  8
dxfile
  6
Continuous
 62
     3
100
AcDbLine
 10
3023.324341
 20
1595.02405
 30
0.0
 11
3023.324341
 21
1521.52405
 31
0.0
  0
ARC
  5
3C7
330
1F
100
AcDbEntity
  8
dxfile
  6
Continuous
 62
     3
100
AcDbCircle
 10
3024.824341
 20
1521.52405
 30
0.0
 40
1.5
100
AcDbArc
 50
180.0
 51
270.0
  0
ARC
  5
3C8
330
1F
100
AcDbEntity
  8
dxfile
  6
Continuous
 62
     3
100
AcDbCircle
 10
3518.324341
 20
1754.309107
 30
0.0
 40
5.0
100
AcDbArc
 50
0.0
 51
100.033
  0
LINE
  5
3C9
330
1F
100
AcDbEntity
  8
dxfile
  6
Continuous
 62
     4
100
AcDbLine
 10
3305.824341
 20
1209.508797
 30
0.0
 11
3305.824341
 21
1639.764788
 31
0.0
  0
LINE
  5
3CA
330
1F
100
AcDbEntity
  8
dxfile
  6
Continuous
 62
     4
100
AcDbLine
 10
3305.824341
 20
1639.764788
 30
0.0
 11
3355.824341
 21
1639.764788
 31
0.0
  0
LINE
  5
3CB
330
1F
100
AcDbEntity
  8
dxfile
  6
Continuous
 62
     4
100
AcDbLine
 10
3355.824341
 20
1639.764788
 30
0.0
 11
3355.824341
 21
1209.508797
 31
0.0
  0
LINE
  5
3CC
330
1F
100
AcDbEntity
  8
dxfile
  6
Continuous
 62
     6
100
AcDbLine
 10
3590.659341
 20
1834.86405
 30
0.0
 11
3968.495259
 21
1834.86405
 31
0.0
  0
LINE
  5
3CD
330
1F
100
AcDbEntity
  8
dxfile
  6
Continuous
 62
     6
100
AcDbLine
 10
3590.824341
 20
1868.86405
 30
0.0
 11
3968.495259
 21
1868.86405
 31
0.0
  0
LINE
  5
3CE
330
1F
100
AcDbEntity
  8
dxfile
  6
Continuous
 62
     6
100
AcDbLine
 10
2957.324341
 20
1595.02405
 30
0.0
 11
2950.616858
 21
1503.438517
 31
0.0
  0
LINE
  5
3CF
330
1F
100
AcDbEntity
  8
dxfile
  6
Continuous
 62
     6
100
AcDbLine
 10
2954.597061
 20
1557.785138
 30
0.0
 11
2990.956346
 21
1594.144423
 31
0.0
  0
LINE
  5
3D0
330
1F
100
AcDbEntity
  8
dxfile
  6
Continuous
 62
     6
100
AcDbLine
 10
2990.956346
 20
1566.111945
 30
0.0
 11
2962.044241
 21
1595.02405
 31
0.0
  0
LINE
  5
3D1
330
1F
100
AcDbEntity
  8
dxfile
  6
Continuous
 62
     6
100
AcDbLine
 10
2952.395304
 20
1527.721833
 30
0.0
 11
2990.956346
 21
1566.282875
 31
0.0
  0
LINE
  5
3D2
330
1F
100
AcDbEntity
  8
dxfile
  6
Continuous
 62
     6
100
AcDbLine
 10
2990.956346
 20
1540.814344
 30
0.0
 11
2955.920126
 21
1575.850564
 31
0.0
  0
LINE
  5
3D3
330
1F
100
AcDbEntity
  8
dxfile
  6
Continuous
 62
     6
100
AcDbLine
 10
2953.995534
 20
1549.571748
 30
0.0
 11
2990.956346
 21
1512.610937
 31
0.0
  0
LINE
  5
3D4
330
1F
100
AcDbEntity
  8
dxfile
  6
Continuous
 62
     6
100
AcDbLine
 10
2952.175921
 20
1524.726323
 30
0.0
 11
2970.039224
 21
1506.863019
 31
0.0
  0
LINE
  5
3D5
330
1F
100
AcDbEntity
  8
dxfile
  6
Continuous
 62
     6
100
AcDbLine
 10
2990.956346
 20
1535.173663
 30
0.0
 11
2961.063045
 21
1505.280362
 31
0.0
  0
LINE
  5
3D6
330
1F
100
AcDbEntity
  8
dxfile
  6
Continuous
 62
     6
100
AcDbLine
 10
3530.824341
 20
1520.27547
 30
0.0
 11
3530.824341
 21
1660.02405
 31
0.0
  0
TEXT
  5
3D7
330
1F
100
AcDbEntity
  8
dxfile
  6
Continuous
 62
     2
100
AcDbText
 10
3166.892715
 20
402.547998
 30
0.0
 40
33.64
  1
断面詳細図Ｓ１：２
 41
0.858268
  7
BIGFONT
100
AcDbText
  0
LINE
  5
3D8
330
1F
100
AcDbEntity
  8
dxfile
  6
Continuous
 62
     2
100
AcDbLine
 10
3146.707574
 20
388.862833
 30
0.0
 11
3146.707574
 21
451.971473
 31
0.0
  0
LINE
  5
3D9
330
1F
100
AcDbEntity
  8
dxfile
  6
Continuous
 62
     2
100
AcDbLine
 10
3436.749985
 20
388.862833
 30
0.0
 11
3146.707574
 21
388.862833
 31
0.0
  0
LINE
  5
3DA
330
1F
100
AcDbEntity
  8
dxfile
  6
Continuous
 62
     2
100
AcDbLine
 10
3436.749985
 20
451.971473
 30
0.0
 11
3436.749985
 21
388.862833
 31
0.0
  0
LINE
  5
3DB
330
1F
100
AcDbEntity
  8
dxfile
  6
Continuous
 62
     2
100
AcDbLine
 10
3436.749985
 20
451.971473
 30
0.0
 11
3146.707574
 21
451.971473
 31
0.0
  0
LINE
  5
3DC
330
1F
100
AcDbEntity
  8
dxfile
  6
PLine3
 62
     3
100
AcDbLine
 10
3330.824341
 20
1658.822873
 30
0.0
 11
3330.824341
 21
1141.130091
 31
0.0
  0
INSERT
  5
3E6
330
1F
100
AcDbEntity
  8
dxfile
  6
Continuous
 62
     3
100
AcDbBlockReference
  2
DIM_6
 10
3330.824341
 20
1127.360374
 30
0.0
  0
INSERT
  5
3F0
330
1F
100
AcDbEntity
  8
dxfile
  6
Continuous
 62
     3
100
AcDbBlockReference
  2
DIM_7
 10
3430.824341
 20
2158.542746
 30
0.0
  0
INSERT
  5
3FA
330
1F
100
AcDbEntity
  8
dxfile
  6
Continuous
 62
     3
100
AcDbBlockReference
  2
DIM_8
 10
3105.824341
 20
2083.241995
 30
0.0
  0
CIRCLE
  5
3FB
330
1F
100
AcDbEntity
  8
dxfile
  6
Continuous
 62
     3
100
AcDbCircle
 10
3605.824341
 20
2396.590283
 30
0.0
 40
5.0
  0
LINE
  5
3FC
330
1F
100
AcDbEntity
  8
dxfile
  6
Continuous
 62
     3
100
AcDbLine
 10
3605.824341
 20
2396.590283
 30
0.0
 11
4050.56875
 21
2396.590283
 31
0.0
  0
CIRCLE
  5
3FD
330
1F
100
AcDbEntity
  8
dxfile
  6
Continuous
 62
     3
100
AcDbCircle
 10
4025.063656
 20
2396.590283
 30
0.0
 40
21.21082400326069
  0
CIRCLE
  5
3FE
330
1F
100
AcDbEntity
  8
dxfile
  6
Continuous
 62
     3
100
AcDbCircle
 10
4044.496108
 20
2396.590283
 30
0.0
 40
23.36191733036581
  0
INSERT
  5
408
330
1F
100
AcDbEntity
  8
dxfile
  6
Continuous
 62
     3
100
AcDbBlockReference
  2
DIM_9
 10
3089.031606
 20
2070.02405
 30
0.0
  0
INSERT
  5
412
330
1F
100
AcDbEntity
  8
dxfile
  6
Continuous
 62
     3
100
AcDbBlockReference
  2
DIM_10
 10
3530.824341
 20
1915.609989
 30
0.0
  0
CIRCLE
  5
413
330
1F
100
AcDbEntity
  8
dxfile
  6
Continuous
 62
     3
100
AcDbCircle
 10
3590.824341
 20
1983.623542
 30
0.0
 40
5.0
  0
LINE
  5
414
330
1F
100
AcDbEntity
  8
dxfile
  6
Continuous
 62
     3
100
AcDbLine
 10
3590.824341
 20
1983.623542
 30
0.0
 11
4000.146126
 21
1983.623542
 31
0.0
  0
TEXT
  5
415
330
1F
100
AcDbEntity
  8
dxfile
  6
Continuous
 62
     3
100
AcDbText
 10
3761.42975
 20
1987.846245
 30
0.0
 40
30.0
  1
Ｇ　硝子寸法
 41
0.858268
  7
BIGFONT
 72
     1
 11
3825.799829
 21
2002.846245
 31
0.0
100
AcDbText
 73
     2
  0
CIRCLE
  5
416
330
1F
100
AcDbEntity
  8
dxfile
  6
Continuous
 62
     3
100
AcDbCircle
 10
3984.357265
 20
1983.623542
 30
0.0
 40
21.8614993673151
  0
INSERT
  5
420
330
1F
100
AcDbEntity
  8
dxfile
  6
Continuous
 62
     3
100
AcDbBlockReference
  2
DIM_11
 10
2780.824341
 20
626.936815
 30
0.0
  0
CIRCLE
  5
421
330
1F
100
AcDbEntity
  8
dxfile
  6
Continuous
 62
     3
100
AcDbCircle
 10
3030.824341
 20
805.883932
 30
0.0
 40
5.0
  0
LINE
  5
422
330
1F
100
AcDbEntity
  8
dxfile
  6
Continuous
 62
     3
100
AcDbLine
 10
3030.824341
 20
805.883932
 30
0.0
 11
4110.85435
 21
805.883932
 31
0.0
  0
LINE
  5
423
330
1F
100
AcDbEntity
  8
dxfile
  6
Continuous
 62
     3
100
AcDbLine
 10
3030.824341
 20
1474.822971
 30
0.0
 11
3030.824341
 21
795.883932
 31
0.0
  0
TEXT
  5
424
330
1F
100
AcDbEntity
  8
dxfile
  6
Continuous
 62
     3
100
AcDbText
 10
3765.002544
 20
813.312988
 30
0.0
 40
30.0
  1
Ｗ　フレーム寸法
 41
0.858268
  7
BIGFONT
 72
     1
 11
3851.442364
 21
828.312988
 31
0.0
100
AcDbText
 73
     2
  0
CIRCLE
  5
425
330
1F
100
AcDbEntity
  8
dxfile
  6
Continuous
 62
     3
100
AcDbCircle
 10
3530.824341
 20
936.350766
 30
0.0
 40
5.0
  0
LINE
  5
426
330
1F
100
AcDbEntity
  8
dxfile
  6
Continuous
 62
     3
100
AcDbLine
 10
3530.824341
 20
936.350766
 30
0.0
 11
4061.03974
 21
936.350766
 31
0.0
  0
TEXT
  5
427
330
1F
100
AcDbEntity
  8
dxfile
  6
Continuous
 62
     3
100
AcDbText
 10
3760.831289
 20
942.128065
 30
0.0
 40
30.0
  1
Ｊ　躯体開口寸法
 41
0.858268
  7
BIGFONT
 72
     1
 11
3847.271109
 21
957.128065
 31
0.0
100
AcDbText
 73
     2
  0
CIRCLE
  5
428
330
1F
100
AcDbEntity
  8
dxfile
  6
Continuous
 62
     3
100
AcDbCircle
 10
4010.527594
 20
936.350766
 30
0.0
 40
26.20096871765604
  0
CIRCLE
  5
429
330
1F
100
AcDbEntity
  8
dxfile
  6
Continuous
 62
     3
100
AcDbCircle
 10
4038.993085
 20
933.978642
 30
0.0
 40
33.03986759418706
  0
CIRCLE
  5
42A
330
1F
100
AcDbEntity
  8
dxfile
  6
Continuous
 62
     3
100
AcDbCircle
 10
4041.365209
 20
805.883932
 30
0.0
 40
35.26416217604137
  0
CIRCLE
  5
42B
330
1F
100
AcDbEntity
  8
dxfile
  6
Continuous
 62
     3
100
AcDbCircle
 10
4074.574948
 20
810.628181
 30
0.0
 40
33.96365054977908
  0
LINE
  5
42C
330
1F
100
AcDbEntity
  8
dxfile
  6
Continuous
 62
     3
100
AcDbLine
 10
3711.189683
 20
995.693407
 30
0.0
 11
3734.265706
 21
995.693407
 31
0.0
  0
LINE
  5
42D
330
1F
100
AcDbEntity
  8
dxfile
  6
Continuous
 62
     3
100
AcDbLine
 10
3734.265706
 20
995.693407
 30
0.0
 11
3734.265706
 21
971.402855
 31
0.0
  0
LINE
  5
42E
330
1F
100
AcDbEntity
  8
dxfile
  6
Continuous
 62
     3
100
AcDbLine
 10
3734.265706
 20
971.402855
 30
0.0
 11
3711.189683
 21
971.402855
 31
0.0
  0
LINE
  5
42F
330
1F
100
AcDbEntity
  8
dxfile
  6
Continuous
 62
     3
100
AcDbLine
 10
3711.189683
 20
971.402855
 30
0.0
 11
3711.189683
 21
995.693407
 31
0.0
  0
LINE
  5
430
330
1F
100
AcDbEntity
  8
dxfile
  6
Continuous
 62
     3
100
AcDbLine
 10
3713.754804
 20
871.692352
 30
0.0
 11
3736.830828
 21
871.692352
 31
0.0
  0
LINE
  5
431
330
1F
100
AcDbEntity
  8
dxfile
  6
Continuous
 62
     3
100
AcDbLine
 10
3736.830828
 20
871.692352
 30
0.0
 11
3736.830828
 21
847.4018
 31
0.0
  0
LINE
  5
432
330
1F
100
AcDbEntity
  8
dxfile
  6
Continuous
 62
     3
100
AcDbLine
 10
3736.830828
 20
847.4018
 30
0.0
 11
3713.754804
 21
847.4018
 31
0.0
  0
LINE
  5
433
330
1F
100
AcDbEntity
  8
dxfile
  6
Continuous
 62
     3
100
AcDbLine
 10
3713.754804
 20
847.4018
 30
0.0
 11
3713.754804
 21
871.692352
 31
0.0
  0
LINE
  5
434
330
1F
100
AcDbEntity
  8
dxfile
  6
Continuous
 62
     3
100
AcDbLine
 10
3712.242491
 20
2043.553122
 30
0.0
 11
3734.252767
 21
2043.553122
 31
0.0
  0
LINE
  5
435
330
1F
100
AcDbEntity
  8
dxfile
  6
Continuous
 62
     3
100
AcDbLine
 10
3734.252767
 20
2043.553122
 30
0.0
 11
3734.252767
 21
2022.410633
 31
0.0
  0
LINE
  5
436
330
1F
100
AcDbEntity
  8
dxfile
  6
Continuous
 62
     3
100
AcDbLine
 10
3734.252767
 20
2022.410633
 30
0.0
 11
3712.242491
 21
2022.410633
 31
0.0
  0
LINE
  5
437
330
1F
100
AcDbEntity
  8
dxfile
  6
Continuous
 62
     3
100
AcDbLine
 10
3712.242491
 20
2022.410633
 30
0.0
 11
3712.242491
 21
2043.553122
 31
0.0
  0
LINE
  5
438
330
1F
100
AcDbEntity
  8
dxfile
  6
Continuous
 62
     3
100
AcDbLine
 10
2817.974994
 20
1482.054146
 30
0.0
 11
2832.305121
 21
1467.233637
 31
0.0
  0
LINE
  5
439
330
1F
100
AcDbEntity
  8
dxfile
  6
Continuous
 62
     3
100
AcDbLine
 10
2832.305121
 20
1467.233637
 30
0.0
 11
2785.202266
 21
1548.818176
 31
0.0
  0
LINE
  5
43A
330
1F
100
AcDbEntity
  8
dxfile
  6
Continuous
 62
     3
100
AcDbLine
 10
2785.202266
 20
1548.818176
 30
0.0
 11
2527.721951
 21
1548.818176
 31
0.0
  0
TEXT
  5
43B
330
1F
100
AcDbEntity
  8
dxfile
  6
Continuous
 62
     3
100
AcDbText
 10
2568.183143
 20
1553.818176
 30
0.0
 40
30.0
  1
防水モルタル（別途）
 50
360.0
 41
0.858268
  7
BIGFONT
 72
     2
 11
2785.202266
 21
1553.818176
 31
0.0
100
AcDbText
  0
LINE
  5
43C
330
1F
100
AcDbEntity
  8
dxfile
  6
Continuous
 62
     3
100
AcDbLine
 10
3302.095677
 20
1301.633216
 30
0.0
 11
3307.76555
 21
1321.453724
 31
0.0
  0
LINE
  5
43D
330
1F
100
AcDbEntity
  8
dxfile
  6
Continuous
 62
     3
100
AcDbLine
 10
3307.76555
 20
1321.453724
 30
0.0
 11
3237.644781
 21
1200.00099
 31
0.0
  0
LINE
  5
43E
330
1F
100
AcDbEntity
  8
dxfile
  6
Continuous
 62
     3
100
AcDbLine
 10
3237.644781
 20
1200.00099
 30
0.0
 11
3083.156592
 21
1200.00099
 31
0.0
  0
TEXT
  5
43F
330
1F
100
AcDbEntity
  8
dxfile
  6
Continuous
 62
     3
100
AcDbText
 10
3108.904624
 20
1205.00099
 30
0.0
 40
30.0
  1
差筋（別途）
 50
360.0
 41
0.858268
  7
BIGFONT
 72
     2
 11
3237.644781
 21
1205.00099
 31
0.0
100
AcDbText
  0
LINE
  5
440
330
1F
100
AcDbEntity
  8
dxfile
  6
Continuous
 62
     3
100
AcDbLine
 10
3369.664305
 20
2118.384859
 30
0.0
 11
3391.159495
 21
2096.154097
 31
0.0
  0
LINE
  5
441
330
1F
100
AcDbEntity
  8
dxfile
  6
Continuous
 62
     3
100
AcDbLine
 10
3391.159495
 20
2096.154097
 30
0.0
 11
3132.444329
 21
2544.26191
 31
0.0
  0
LINE
  5
442
330
1F
100
AcDbEntity
  8
dxfile
  6
Continuous
 62
     3
100
AcDbLine
 10
3132.444329
 20
2544.26191
 30
0.0
 11
2797.71992
 21
2544.26191
 31
0.0
  0
TEXT
  5
443
330
1F
100
AcDbEntity
  8
dxfile
  6
Continuous
 62
     3
100
AcDbText
 10
2797.71992
 20
2549.26191
 30
0.0
 40
30.0
  1
Ｍ８×４０　Ｗ．Ｐ．Ｎ　ＳＵＳ
 50
360.0
 41
0.858268
  7
BIGFONT
100
AcDbText
  0
LINE
  5
444
330
1F
100
AcDbEntity
  8
dxfile
  6
Continuous
 62
     3
100
AcDbLine
 10
2938.467359
 20
1557.146253
 30
0.0
 11
2952.797486
 21
1542.325745
 31
0.0
  0
LINE
  5
445
330
1F
100
AcDbEntity
  8
dxfile
  6
Continuous
 62
     3
100
AcDbLine
 10
2952.797486
 20
1542.325745
 30
0.0
 11
2895.709248
 21
1641.205474
 31
0.0
  0
LINE
  5
446
330
1F
100
AcDbEntity
  8
dxfile
  6
Continuous
 62
     3
100
AcDbLine
 10
2895.709248
 20
1641.205474
 30
0.0
 11
2602.480901
 21
1641.205474
 31
0.0
  0
TEXT
  5
447
330
1F
100
AcDbEntity
  8
dxfile
  6
Continuous
 62
     3
100
AcDbText
 10
2602.480901
 20
1646.205474
 30
0.0
 40
30.0
  1
シーリング処理（別途）
 50
360.0
 41
0.858268
 51
0.0
  7
BIGFONT
100
AcDbText
  0
LINE
  5
448
330
1F
100
AcDbEntity
  8
dxfile
  6
Continuous
 62
     3
100
AcDbLine
 10
3088.610727
 20
1709.483366
 30
0.0
 11
3102.940854
 21
1694.662858
 31
0.0
  0
LINE
  5
449
330
1F
100
AcDbEntity
  8
dxfile
  6
Continuous
 62
     3
100
AcDbLine
 10
3102.940854
 20
1694.662858
 30
0.0
 11
3062.256907
 21
1765.129522
 31
0.0
  0
LINE
  5
44A
330
1F
100
AcDbEntity
  8
dxfile
  6
Continuous
 62
     3
100
AcDbLine
 10
3062.256907
 20
1765.129522
 30
0.0
 11
2701.784466
 21
1765.129522
 31
0.0
  0
TEXT
  5
44B
330
1F
100
AcDbEntity
  8
dxfile
  6
Continuous
 62
     3
100
AcDbText
 10
2701.784466
 20
1770.129522
 30
0.0
 40
30.0
  1
トップライトフレーム　アルミ
 50
360.0
 41
0.858268
  7
BIGFONT
100
AcDbText
  0
LINE
  5
44C
330
1F
100
AcDbEntity
  8
dxfile
  6
Continuous
 62
     3
100
AcDbLine
 10
3186.617662
 20
2085.134929
 30
0.0
 11
3200.947789
 21
2070.31442
 31
0.0
  0
LINE
  5
44D
330
1F
100
AcDbEntity
  8
dxfile
  6
Continuous
 62
     3
100
AcDbLine
 10
3200.947789
 20
2070.31442
 30
0.0
 11
3062.013578
 21
2310.955532
 31
0.0
  0
LINE
  5
44E
330
1F
100
AcDbEntity
  8
dxfile
  6
Continuous
 62
     3
100
AcDbLine
 10
3062.013578
 20
2310.955532
 30
0.0
 11
2907.525389
 21
2310.955532
 31
0.0
  0
TEXT
  5
44F
330
1F
100
AcDbEntity
  8
dxfile
  6
Continuous
 62
     3
100
AcDbText
 10
2907.525389
 20
2315.955532
 30
0.0
 40
30.0
  1
ＡＢ型ドーム
 50
360.0
 41
0.858268
  7
BIGFONT
100
AcDbText
  0
LINE
  5
450
330
1F
100
AcDbEntity
  8
dxfile
  6
Continuous
 62
     3
100
AcDbLine
 10
3730.347018
 20
1825.482001
 30
0.0
 11
3716.016891
 21
1840.302509
 31
0.0
  0
LINE
  5
451
330
1F
100
AcDbEntity
  8
dxfile
  6
Continuous
 62
     3
100
AcDbLine
 10
3716.016891
 20
1840.302509
 30
0.0
 11
3790.048518
 21
1712.075969
 31
0.0
  0
LINE
  5
452
330
1F
100
AcDbEntity
  8
dxfile
  6
Continuous
 62
     3
100
AcDbLine
 10
3790.048518
 20
1712.075969
 30
0.0
 11
4073.276865
 21
1712.075969
 31
0.0
  0
TEXT
  5
453
330
1F
100
AcDbEntity
  8
dxfile
  6
Continuous
 62
     3
100
AcDbText
 10
3790.048518
 20
1717.075969
 30
0.0
 40
30.0
  1
６．８網入り硝子（別途）
 41
0.858268
  7
BIGFONT
100
AcDbText
  0
LINE
  5
454
330
1F
100
AcDbEntity
  8
dxfile
  6
Continuous
 62
     3
100
AcDbLine
 10
3672.327164
 20
1133.546437
 30
0.0
 11
3657.997037
 21
1148.366945
 31
0.0
  0
LINE
  5
455
330
1F
100
AcDbEntity
  8
dxfile
  6
Continuous
 62
     3
100
AcDbLine
 10
3657.997037
 20
1148.366945
 30
0.0
 11
3711.205186
 21
1056.207728
 31
0.0
  0
LINE
  5
456
330
1F
100
AcDbEntity
  8
dxfile
  6
Continuous
 62
     3
100
AcDbLine
 10
3711.205186
 20
1056.207728
 30
0.0
 11
3875.693375
 21
1056.207728
 31
0.0
  0
TEXT
  5
457
330
1F
100
AcDbEntity
  8
dxfile
  6
Continuous
 62
     3
100
AcDbText
 10
3717.436886
 20
1065.414038
 30
0.0
 40
30.0
  1
内装仕上げ面
 41
0.858268
  7
BIGFONT
100
AcDbText
  0
INSERT
  5
461
330
1F
100
AcDbEntity
  8
dxfile
  6
Continuous
 62
     3
100
AcDbBlockReference
  2
DIM_12
 10
3530.824341
 20
1108.017395
 30
0.0
  0
LINE
  5
462
330
1F
100
AcDbEntity
  8
dxfile
  6
Continuous
 62
     3
100
AcDbLine
 10
3624.653857
 20
1805.394455
 30
0.0
 11
3610.32373
 21
1820.214963
 31
0.0
  0
LINE
  5
463
330
1F
100
AcDbEntity
  8
dxfile
  6
Continuous
 62
     3
100
AcDbLine
 10
3610.32373
 20
1820.214963
 30
0.0
 11
3712.371335
 21
1643.463327
 31
0.0
  0
LINE
  5
464
330
1F
100
AcDbEntity
  8
dxfile
  6
Continuous
 62
     3
100
AcDbLine
 10
3712.371335
 20
1643.463327
 30
0.0
 11
3878.44025
 21
1643.463327
 31
0.0
  0
TEXT
  5
465
330
1F
100
AcDbEntity
  8
dxfile
  6
Continuous
 62
     3
100
AcDbText
 10
3723.952061
 20
1648.463327
 30
0.0
 40
30.0
  1
硝子パッキン
 41
0.858268
  7
BIGFONT
100
AcDbText
  0
LINE
  5
466
330
1F
100
AcDbEntity
  8
dxfile
  6
Continuous
 62
     3
100
AcDbLine
 10
3366.932227
 20
2051.239353
 30
0.0
 11
3381.262354
 21
2036.418845
 31
0.0
  0
LINE
  5
467
330
1F
100
AcDbEntity
  8
dxfile
  6
Continuous
 62
     3
100
AcDbLine
 10
3381.262354
 20
2036.418845
 30
0.0
 11
3130.361515
 21
2470.991845
 31
0.0
  0
LINE
  5
468
330
1F
100
AcDbEntity
  8
dxfile
  6
Continuous
 62
     3
100
AcDbLine
 10
3130.361515
 20
2470.991845
 30
0.0
 11
2795.637106
 21
2470.991845
 31
0.0
  0
TEXT
  5
469
330
1F
100
AcDbEntity
  8
dxfile
  6
Continuous
 62
     3
100
AcDbText
 10
2847.133169
 20
2475.991845
 30
0.0
 40
30.0
  1
コンプリフォーム１０×２０
 50
360.0
 41
0.858268
  7
BIGFONT
 72
     2
 11
3130.361515
 21
2475.991845
 31
0.0
100
AcDbText
  0
LINE
  5
46A
330
1F
100
AcDbEntity
  8
dxfile
  6
Continuous
 62
     3
100
AcDbLine
 10
3538.049338
 20
1619.262349
 30
0.0
 11
3523.719211
 21
1634.082857
 31
0.0
  0
LINE
  5
46B
330
1F
100
AcDbEntity
  8
dxfile
  6
Continuous
 62
     3
100
AcDbLine
 10
3523.719211
 20
1634.082857
 30
0.0
 11
3722.107238
 21
1290.464714
 31
0.0
  0
LINE
  5
46C
330
1F
100
AcDbEntity
  8
dxfile
  6
Continuous
 62
     3
100
AcDbLine
 10
3722.107238
 20
1290.464714
 30
0.0
 11
3979.587553
 21
1290.464714
 31
0.0
  0
TEXT
  5
46D
330
1F
100
AcDbEntity
  8
dxfile
  6
Continuous
 62
     3
100
AcDbText
 10
3722.107238
 20
1295.464714
 30
0.0
 40
30.0
  1
モルタル充填（別途）
 41
0.858268
  7
BIGFONT
100
AcDbText
  0
LINE
  5
46E
330
1F
100
AcDbEntity
  8
dxfile
  6
Continuous
 62
     3
100
AcDbLine
 10
393.216176
 20
876.463143
 30
0.0
 11
378.886049
 21
891.283651
 31
0.0
  0
LINE
  5
46F
330
1F
100
AcDbEntity
  8
dxfile
  6
Continuous
 62
     3
100
AcDbLine
 10
378.886049
 20
891.283651
 30
0.0
 11
461.592716
 21
748.0315
 31
0.0
  0
LINE
  5
470
330
1F
100
AcDbEntity
  8
dxfile
  6
Continuous
 62
     3
100
AcDbLine
 10
461.592716
 20
748.0315
 30
0.0
 11
719.073031
 21
748.0315
 31
0.0
  0
TEXT
  5
471
330
1F
100
AcDbEntity
  8
dxfile
  6
Continuous
 62
     3
100
AcDbText
 10
461.592716
 20
753.0315
 30
0.0
 40
30.0
  1
モルタル充填（別途）
 41
0.858268
  7
BIGFONT
100
AcDbText
  0
INSERT
  5
47B
330
1F
100
AcDbEntity
  8
dxfile
  6
Continuous
 62
     3
100
AcDbBlockReference
  2
DIM_13
 10
788.194066
 20
1236.621719
 30
0.0
  0
INSERT
  5
485
330
1F
100
AcDbEntity
  8
dxfile
  6
Continuous
 62
     3
100
AcDbBlockReference
  2
DIM_14
 10
337.925124
 20
810.655418
 30
0.0
  0
LINE
  5
486
330
1F
100
AcDbEntity
  8
dxfile
  6
PLine2
 62
     3
100
AcDbLine
 10
337.925124
 20
903.167448
 30
0.0
 11
337.925124
 21
812.747092
 31
0.0
  0
LINE
  5
487
330
1F
100
AcDbEntity
  8
dxfile
  6
PLine2
 62
     3
100
AcDbLine
 10
1347.925124
 20
903.167448
 30
0.0
 11
1347.925124
 21
803.132972
 31
0.0
  0
LINE
  5
488
330
1F
100
AcDbEntity
  8
dxfile
  6
Continuous
 62
     3
100
AcDbLine
 10
1307.925124
 20
712.218778
 30
0.0
 11
1379.556684
 21
640.587218
 31
0.0
  0
LINE
  5
489
330
1F
100
AcDbEntity
  8
dxfile
  6
Continuous
 62
     3
100
AcDbLine
 10
1307.925124
 20
717.73917
 30
0.0
 11
1385.077076
 21
640.587218
 31
0.0
  0
LINE
  5
48A
330
1F
100
AcDbEntity
  8
dxfile
  6
Continuous
 62
     3
100
AcDbLine
 10
1307.925124
 20
722.410271
 30
0.0
 11
1389.748177
 21
640.587218
 31
0.0
  0
LINE
  5
48B
330
1F
100
AcDbEntity
  8
dxfile
  6
PLine2
 62
     3
100
AcDbLine
 10
419.329568
 20
2290.596338
 30
0.0
 11
419.329568
 21
1862.659889
 31
0.0
  0
LINE
  5
48C
330
1F
100
AcDbEntity
  8
dxfile
  6
PLine2
 62
     3
100
AcDbLine
 10
186.311781
 20
2072.855811
 30
0.0
 11
652.682801
 21
2072.855811
 31
0.0
  0
LINE
  5
48D
330
1F
100
AcDbEntity
  8
dxfile
  6
PLine3
 62
     2
100
AcDbLine
 10
241.829568
 20
2250.355811
 30
0.0
 11
596.829568
 21
2250.355811
 31
0.0
  0
LINE
  5
48E
330
1F
100
AcDbEntity
  8
dxfile
  6
PLine3
 62
     2
100
AcDbLine
 10
596.829568
 20
2250.355811
 30
0.0
 11
596.829568
 21
1895.355811
 31
0.0
  0
LINE
  5
48F
330
1F
100
AcDbEntity
  8
dxfile
  6
PLine3
 62
     2
100
AcDbLine
 10
596.829568
 20
1895.355811
 30
0.0
 11
241.829568
 21
1895.355811
 31
0.0
  0
LINE
  5
490
330
1F
100
AcDbEntity
  8
dxfile
  6
PLine3
 62
     2
100
AcDbLine
 10
241.829568
 20
1895.355811
 30
0.0
 11
241.829568
 21
2250.355811
 31
0.0
  0
LINE
  5
491
330
1F
100
AcDbEntity
  8
dxfile
  6
Continuous
 62
     2
100
AcDbLine
 10
299.329568
 20
2262.855811
 30
0.0
 11
314.329568
 21
2262.855811
 31
0.0
  0
LINE
  5
492
330
1F
100
AcDbEntity
  8
dxfile
  6
Continuous
 62
     2
100
AcDbLine
 10
314.329568
 20
2262.855811
 30
0.0
 11
314.329568
 21
2237.855811
 31
0.0
  0
LINE
  5
493
330
1F
100
AcDbEntity
  8
dxfile
  6
Continuous
 62
     2
100
AcDbLine
 10
314.329568
 20
2237.855811
 30
0.0
 11
299.329568
 21
2237.855811
 31
0.0
  0
LINE
  5
494
330
1F
100
AcDbEntity
  8
dxfile
  6
Continuous
 62
     2
100
AcDbLine
 10
299.329568
 20
2237.855811
 30
0.0
 11
299.329568
 21
2262.855811
 31
0.0
  0
LINE
  5
495
330
1F
100
AcDbEntity
  8
dxfile
  6
Continuous
 62
     2
100
AcDbLine
 10
539.329568
 20
2262.855811
 30
0.0
 11
524.329568
 21
2262.855811
 31
0.0
  0
LINE
  5
496
330
1F
100
AcDbEntity
  8
dxfile
  6
Continuous
 62
     2
100
AcDbLine
 10
524.329568
 20
2262.855811
 30
0.0
 11
524.329568
 21
2237.855811
 31
0.0
  0
LINE
  5
497
330
1F
100
AcDbEntity
  8
dxfile
  6
Continuous
 62
     2
100
AcDbLine
 10
524.329568
 20
2237.855811
 30
0.0
 11
539.329568
 21
2237.855811
 31
0.0
  0
LINE
  5
498
330
1F
100
AcDbEntity
  8
dxfile
  6
Continuous
 62
     2
100
AcDbLine
 10
539.329568
 20
2237.855811
 30
0.0
 11
539.329568
 21
2262.855811
 31
0.0
  0
LINE
  5
499
330
1F
100
AcDbEntity
  8
dxfile
  6
Continuous
 62
     2
100
AcDbLine
 10
229.329568
 20
2192.855811
 30
0.0
 11
229.329568
 21
2177.855811
 31
0.0
  0
LINE
  5
49A
330
1F
100
AcDbEntity
  8
dxfile
  6
Continuous
 62
     2
100
AcDbLine
 10
229.329568
 20
2177.855811
 30
0.0
 11
254.329568
 21
2177.855811
 31
0.0
  0
LINE
  5
49B
330
1F
100
AcDbEntity
  8
dxfile
  6
Continuous
 62
     2
100
AcDbLine
 10
254.329568
 20
2177.855811
 30
0.0
 11
254.329568
 21
2192.855811
 31
0.0
  0
LINE
  5
49C
330
1F
100
AcDbEntity
  8
dxfile
  6
Continuous
 62
     2
100
AcDbLine
 10
254.329568
 20
2192.855811
 30
0.0
 11
229.329568
 21
2192.855811
 31
0.0
  0
LINE
  5
49D
330
1F
100
AcDbEntity
  8
dxfile
  6
Continuous
 62
     2
100
AcDbLine
 10
229.329568
 20
1952.855811
 30
0.0
 11
229.329568
 21
1967.855811
 31
0.0
  0
LINE
  5
49E
330
1F
100
AcDbEntity
  8
dxfile
  6
Continuous
 62
     2
100
AcDbLine
 10
229.329568
 20
1967.855811
 30
0.0
 11
254.329568
 21
1967.855811
 31
0.0
  0
LINE
  5
49F
330
1F
100
AcDbEntity
  8
dxfile
  6
Continuous
 62
     2
100
AcDbLine
 10
254.329568
 20
1967.855811
 30
0.0
 11
254.329568
 21
1952.855811
 31
0.0
  0
LINE
  5
4A0
330
1F
100
AcDbEntity
  8
dxfile
  6
Continuous
 62
     2
100
AcDbLine
 10
254.329568
 20
1952.855811
 30
0.0
 11
229.329568
 21
1952.855811
 31
0.0
  0
INSERT
  5
4AA
330
1F
100
AcDbEntity
  8
dxfile
  6
Continuous
 62
     3
100
AcDbBlockReference
  2
DIM_15
 10
306.829568
 20
2270.335664
 30
0.0
  0
LINE
  5
4AB
330
1F
100
AcDbEntity
  8
dxfile
  6
PLine2
 62
     3
100
AcDbLine
 10
531.829568
 20
2270.731596
 30
0.0
 11
531.829568
 21
2217.875498
 31
0.0
  0
LINE
  5
4AC
330
1F
100
AcDbEntity
  8
dxfile
  6
PLine2
 62
     3
100
AcDbLine
 10
306.829568
 20
2271.975269
 30
0.0
 11
306.829568
 21
2223.472026
 31
0.0
  0
INSERT
  5
4B6
330
1F
100
AcDbEntity
  8
dxfile
  6
Continuous
 62
     3
100
AcDbBlockReference
  2
DIM_16
 10
221.849714
 20
2185.355811
 30
0.0
  0
INSERT
  5
4C0
330
1F
100
AcDbEntity
  8
dxfile
  6
Continuous
 62
     3
100
AcDbBlockReference
  2
DIM_17
 10
241.829568
 20
1881.955819
 30
0.0
  0
INSERT
  5
4CA
330
1F
100
AcDbEntity
  8
dxfile
  6
Continuous
 62
     3
100
AcDbBlockReference
  2
DIM_18
 10
620.036541
 20
2250.355811
 30
0.0
  0
LINE
  5
4CB
330
1F
100
AcDbEntity
  8
dxfile
  6
PLine2
 62
     3
100
AcDbLine
 10
1104.569289
 20
2365.596338
 30
0.0
 11
1104.569289
 21
1761.977812
 31
0.0
  0
LINE
  5
4CC
330
1F
100
AcDbEntity
  8
dxfile
  6
PLine2
 62
     3
100
AcDbLine
 10
796.551503
 20
2072.855811
 30
0.0
 11
1412.922523
 21
2072.855811
 31
0.0
  0
LINE
  5
4CD
330
1F
100
AcDbEntity
  8
dxfile
  6
PLine3
 62
     2
100
AcDbLine
 10
852.069289
 20
2325.355811
 30
0.0
 11
1357.069289
 21
2325.355811
 31
0.0
  0
LINE
  5
4CE
330
1F
100
AcDbEntity
  8
dxfile
  6
PLine3
 62
     2
100
AcDbLine
 10
1357.069289
 20
2325.355811
 30
0.0
 11
1357.069289
 21
1820.355811
 31
0.0
  0
LINE
  5
4CF
330
1F
100
AcDbEntity
  8
dxfile
  6
PLine3
 62
     2
100
AcDbLine
 10
1357.069289
 20
1820.355811
 30
0.0
 11
852.069289
 21
1820.355811
 31
0.0
  0
LINE
  5
4D0
330
1F
100
AcDbEntity
  8
dxfile
  6
PLine3
 62
     2
100
AcDbLine
 10
852.069289
 20
1820.355811
 30
0.0
 11
852.069289
 21
2325.355811
 31
0.0
  0
LINE
  5
4D1
330
1F
100
AcDbEntity
  8
dxfile
  6
Continuous
 62
     2
100
AcDbLine
 10
947.069289
 20
2337.855811
 30
0.0
 11
962.069289
 21
2337.855811
 31
0.0
  0
LINE
  5
4D2
330
1F
100
AcDbEntity
  8
dxfile
  6
Continuous
 62
     2
100
AcDbLine
 10
962.069289
 20
2337.855811
 30
0.0
 11
962.069289
 21
2312.855811
 31
0.0
  0
LINE
  5
4D3
330
1F
100
AcDbEntity
  8
dxfile
  6
Continuous
 62
     2
100
AcDbLine
 10
962.069289
 20
2312.855811
 30
0.0
 11
947.069289
 21
2312.855811
 31
0.0
  0
LINE
  5
4D4
330
1F
100
AcDbEntity
  8
dxfile
  6
Continuous
 62
     2
100
AcDbLine
 10
947.069289
 20
2312.855811
 30
0.0
 11
947.069289
 21
2337.855811
 31
0.0
  0
LINE
  5
4D5
330
1F
100
AcDbEntity
  8
dxfile
  6
Continuous
 62
     2
100
AcDbLine
 10
1262.069289
 20
2337.855811
 30
0.0
 11
1247.069289
 21
2337.855811
 31
0.0
  0
LINE
  5
4D6
330
1F
100
AcDbEntity
  8
dxfile
  6
Continuous
 62
     2
100
AcDbLine
 10
1247.069289
 20
2337.855811
 30
0.0
 11
1247.069289
 21
2312.855811
 31
0.0
  0
LINE
  5
4D7
330
1F
100
AcDbEntity
  8
dxfile
  6
Continuous
 62
     2
100
AcDbLine
 10
1247.069289
 20
2312.855811
 30
0.0
 11
1262.069289
 21
2312.855811
 31
0.0
  0
LINE
  5
4D8
330
1F
100
AcDbEntity
  8
dxfile
  6
Continuous
 62
     2
100
AcDbLine
 10
1262.069289
 20
2312.855811
 30
0.0
 11
1262.069289
 21
2337.855811
 31
0.0
  0
LINE
  5
4D9
330
1F
100
AcDbEntity
  8
dxfile
  6
Continuous
 62
     2
100
AcDbLine
 10
947.069289
 20
1807.855811
 30
0.0
 11
962.069289
 21
1807.855811
 31
0.0
  0
LINE
  5
4DA
330
1F
100
AcDbEntity
  8
dxfile
  6
Continuous
 62
     2
100
AcDbLine
 10
962.069289
 20
1807.855811
 30
0.0
 11
962.069289
 21
1832.855811
 31
0.0
  0
LINE
  5
4DB
330
1F
100
AcDbEntity
  8
dxfile
  6
Continuous
 62
     2
100
AcDbLine
 10
962.069289
 20
1832.855811
 30
0.0
 11
947.069289
 21
1832.855811
 31
0.0
  0
LINE
  5
4DC
330
1F
100
AcDbEntity
  8
dxfile
  6
Continuous
 62
     2
100
AcDbLine
 10
947.069289
 20
1832.855811
 30
0.0
 11
947.069289
 21
1807.855811
 31
0.0
  0
LINE
  5
4DD
330
1F
100
AcDbEntity
  8
dxfile
  6
Continuous
 62
     2
100
AcDbLine
 10
1262.069289
 20
1807.855811
 30
0.0
 11
1247.069289
 21
1807.855811
 31
0.0
  0
LINE
  5
4DE
330
1F
100
AcDbEntity
  8
dxfile
  6
Continuous
 62
     2
100
AcDbLine
 10
1247.069289
 20
1807.855811
 30
0.0
 11
1247.069289
 21
1832.855811
 31
0.0
  0
LINE
  5
4DF
330
1F
100
AcDbEntity
  8
dxfile
  6
Continuous
 62
     2
100
AcDbLine
 10
1247.069289
 20
1832.855811
 30
0.0
 11
1262.069289
 21
1832.855811
 31
0.0
  0
LINE
  5
4E0
330
1F
100
AcDbEntity
  8
dxfile
  6
Continuous
 62
     2
100
AcDbLine
 10
1262.069289
 20
1832.855811
 30
0.0
 11
1262.069289
 21
1807.855811
 31
0.0
  0
LINE
  5
4E1
330
1F
100
AcDbEntity
  8
dxfile
  6
Continuous
 62
     2
100
AcDbLine
 10
839.569289
 20
2230.355811
 30
0.0
 11
839.569289
 21
2215.355811
 31
0.0
  0
LINE
  5
4E2
330
1F
100
AcDbEntity
  8
dxfile
  6
Continuous
 62
     2
100
AcDbLine
 10
839.569289
 20
2215.355811
 30
0.0
 11
864.569289
 21
2215.355811
 31
0.0
  0
LINE
  5
4E3
330
1F
100
AcDbEntity
  8
dxfile
  6
Continuous
 62
     2
100
AcDbLine
 10
864.569289
 20
2215.355811
 30
0.0
 11
864.569289
 21
2230.355811
 31
0.0
  0
LINE
  5
4E4
330
1F
100
AcDbEntity
  8
dxfile
  6
Continuous
 62
     2
100
AcDbLine
 10
864.569289
 20
2230.355811
 30
0.0
 11
839.569289
 21
2230.355811
 31
0.0
  0
LINE
  5
4E5
330
1F
100
AcDbEntity
  8
dxfile
  6
Continuous
 62
     2
100
AcDbLine
 10
839.569289
 20
1915.355811
 30
0.0
 11
839.569289
 21
1930.355811
 31
0.0
  0
LINE
  5
4E6
330
1F
100
AcDbEntity
  8
dxfile
  6
Continuous
 62
     2
100
AcDbLine
 10
839.569289
 20
1930.355811
 30
0.0
 11
864.569289
 21
1930.355811
 31
0.0
  0
LINE
  5
4E7
330
1F
100
AcDbEntity
  8
dxfile
  6
Continuous
 62
     2
100
AcDbLine
 10
864.569289
 20
1930.355811
 30
0.0
 11
864.569289
 21
1915.355811
 31
0.0
  0
LINE
  5
4E8
330
1F
100
AcDbEntity
  8
dxfile
  6
Continuous
 62
     2
100
AcDbLine
 10
864.569289
 20
1915.355811
 30
0.0
 11
839.569289
 21
1915.355811
 31
0.0
  0
LINE
  5
4E9
330
1F
100
AcDbEntity
  8
dxfile
  6
Continuous
 62
     2
100
AcDbLine
 10
1369.569289
 20
2230.355811
 30
0.0
 11
1369.569289
 21
2215.355811
 31
0.0
  0
LINE
  5
4EA
330
1F
100
AcDbEntity
  8
dxfile
  6
Continuous
 62
     2
100
AcDbLine
 10
1369.569289
 20
2215.355811
 30
0.0
 11
1344.569289
 21
2215.355811
 31
0.0
  0
LINE
  5
4EB
330
1F
100
AcDbEntity
  8
dxfile
  6
Continuous
 62
     2
100
AcDbLine
 10
1344.569289
 20
2215.355811
 30
0.0
 11
1344.569289
 21
2230.355811
 31
0.0
  0
LINE
  5
4EC
330
1F
100
AcDbEntity
  8
dxfile
  6
Continuous
 62
     2
100
AcDbLine
 10
1344.569289
 20
2230.355811
 30
0.0
 11
1369.569289
 21
2230.355811
 31
0.0
  0
LINE
  5
4ED
330
1F
100
AcDbEntity
  8
dxfile
  6
Continuous
 62
     2
100
AcDbLine
 10
1369.569289
 20
1915.355811
 30
0.0
 11
1369.569289
 21
1930.355811
 31
0.0
  0
LINE
  5
4EE
330
1F
100
AcDbEntity
  8
dxfile
  6
Continuous
 62
     2
100
AcDbLine
 10
1369.569289
 20
1930.355811
 30
0.0
 11
1344.569289
 21
1930.355811
 31
0.0
  0
LINE
  5
4EF
330
1F
100
AcDbEntity
  8
dxfile
  6
Continuous
 62
     2
100
AcDbLine
 10
1344.569289
 20
1930.355811
 30
0.0
 11
1344.569289
 21
1915.355811
 31
0.0
  0
LINE
  5
4F0
330
1F
100
AcDbEntity
  8
dxfile
  6
Continuous
 62
     2
100
AcDbLine
 10
1344.569289
 20
1915.355811
 30
0.0
 11
1369.569289
 21
1915.355811
 31
0.0
  0
INSERT
  5
4FA
330
1F
100
AcDbEntity
  8
dxfile
  6
Continuous
 62
     3
100
AcDbBlockReference
  2
DIM_19
 10
954.569289
 20
2345.335664
 30
0.0
  0
LINE
  5
4FB
330
1F
100
AcDbEntity
  8
dxfile
  6
PLine2
 62
     3
100
AcDbLine
 10
1254.569289
 20
2345.731596
 30
0.0
 11
1254.569289
 21
2292.875498
 31
0.0
  0
LINE
  5
4FC
330
1F
100
AcDbEntity
  8
dxfile
  6
PLine2
 62
     3
100
AcDbLine
 10
954.569289
 20
2346.975269
 30
0.0
 11
954.569289
 21
2298.472026
 31
0.0
  0
INSERT
  5
506
330
1F
100
AcDbEntity
  8
dxfile
  6
Continuous
 62
     3
100
AcDbBlockReference
  2
DIM_20
 10
832.089436
 20
2222.855811
 30
0.0
  0
INSERT
  5
510
330
1F
100
AcDbEntity
  8
dxfile
  6
Continuous
 62
     3
100
AcDbBlockReference
  2
DIM_21
 10
852.069289
 20
1806.955819
 30
0.0
  0
INSERT
  5
51A
330
1F
100
AcDbEntity
  8
dxfile
  6
Continuous
 62
     3
100
AcDbBlockReference
  2
DIM_22
 10
1380.276263
 20
2325.355811
 30
0.0
  0
LINE
  5
51B
330
1F
100
AcDbEntity
  8
dxfile
  6
PLine2
 62
     3
100
AcDbLine
 10
1984.201872
 20
2465.596338
 30
0.0
 11
1984.201872
 21
1661.977812
 31
0.0
  0
LINE
  5
51C
330
1F
100
AcDbEntity
  8
dxfile
  6
PLine2
 62
     3
100
AcDbLine
 10
1576.184085
 20
2072.855811
 30
0.0
 11
2392.555105
 21
2072.855811
 31
0.0
  0
LINE
  5
51D
330
1F
100
AcDbEntity
  8
dxfile
  6
PLine3
 62
     2
100
AcDbLine
 10
1631.701872
 20
2425.355811
 30
0.0
 11
2336.701872
 21
2425.355811
 31
0.0
  0
LINE
  5
51E
330
1F
100
AcDbEntity
  8
dxfile
  6
PLine3
 62
     2
100
AcDbLine
 10
2336.701872
 20
2425.355811
 30
0.0
 11
2336.701872
 21
1720.355811
 31
0.0
  0
LINE
  5
51F
330
1F
100
AcDbEntity
  8
dxfile
  6
PLine3
 62
     2
100
AcDbLine
 10
2336.701872
 20
1720.355811
 30
0.0
 11
1631.701872
 21
1720.355811
 31
0.0
  0
LINE
  5
520
330
1F
100
AcDbEntity
  8
dxfile
  6
PLine3
 62
     2
100
AcDbLine
 10
1631.701872
 20
1720.355811
 30
0.0
 11
1631.701872
 21
2425.355811
 31
0.0
  0
LINE
  5
521
330
1F
100
AcDbEntity
  8
dxfile
  6
Continuous
 62
     2
100
AcDbLine
 10
1676.701872
 20
2437.855811
 30
0.0
 11
1691.701872
 21
2437.855811
 31
0.0
  0
LINE
  5
522
330
1F
100
AcDbEntity
  8
dxfile
  6
Continuous
 62
     2
100
AcDbLine
 10
1691.701872
 20
2437.855811
 30
0.0
 11
1691.701872
 21
2412.855811
 31
0.0
  0
LINE
  5
523
330
1F
100
AcDbEntity
  8
dxfile
  6
Continuous
 62
     2
100
AcDbLine
 10
1691.701872
 20
2412.855811
 30
0.0
 11
1676.701872
 21
2412.855811
 31
0.0
  0
LINE
  5
524
330
1F
100
AcDbEntity
  8
dxfile
  6
Continuous
 62
     2
100
AcDbLine
 10
1676.701872
 20
2412.855811
 30
0.0
 11
1676.701872
 21
2437.855811
 31
0.0
  0
LINE
  5
525
330
1F
100
AcDbEntity
  8
dxfile
  6
Continuous
 62
     2
100
AcDbLine
 10
1991.701872
 20
2437.855811
 30
0.0
 11
1976.701872
 21
2437.855811
 31
0.0
  0
LINE
  5
526
330
1F
100
AcDbEntity
  8
dxfile
  6
Continuous
 62
     2
100
AcDbLine
 10
1976.701872
 20
2437.855811
 30
0.0
 11
1976.701872
 21
2412.855811
 31
0.0
  0
LINE
  5
527
330
1F
100
AcDbEntity
  8
dxfile
  6
Continuous
 62
     2
100
AcDbLine
 10
1976.701872
 20
2412.855811
 30
0.0
 11
1991.701872
 21
2412.855811
 31
0.0
  0
LINE
  5
528
330
1F
100
AcDbEntity
  8
dxfile
  6
Continuous
 62
     2
100
AcDbLine
 10
1991.701872
 20
2412.855811
 30
0.0
 11
1991.701872
 21
2437.855811
 31
0.0
  0
LINE
  5
529
330
1F
100
AcDbEntity
  8
dxfile
  6
Continuous
 62
     2
100
AcDbLine
 10
1619.201872
 20
2380.355811
 30
0.0
 11
1619.201872
 21
2365.355811
 31
0.0
  0
LINE
  5
52A
330
1F
100
AcDbEntity
  8
dxfile
  6
Continuous
 62
     2
100
AcDbLine
 10
1619.201872
 20
2365.355811
 30
0.0
 11
1644.201872
 21
2365.355811
 31
0.0
  0
LINE
  5
52B
330
1F
100
AcDbEntity
  8
dxfile
  6
Continuous
 62
     2
100
AcDbLine
 10
1644.201872
 20
2365.355811
 30
0.0
 11
1644.201872
 21
2380.355811
 31
0.0
  0
LINE
  5
52C
330
1F
100
AcDbEntity
  8
dxfile
  6
Continuous
 62
     2
100
AcDbLine
 10
1644.201872
 20
2380.355811
 30
0.0
 11
1619.201872
 21
2380.355811
 31
0.0
  0
LINE
  5
52D
330
1F
100
AcDbEntity
  8
dxfile
  6
Continuous
 62
     2
100
AcDbLine
 10
1619.201872
 20
2065.355811
 30
0.0
 11
1619.201872
 21
2080.355811
 31
0.0
  0
LINE
  5
52E
330
1F
100
AcDbEntity
  8
dxfile
  6
Continuous
 62
     2
100
AcDbLine
 10
1619.201872
 20
2080.355811
 30
0.0
 11
1644.201872
 21
2080.355811
 31
0.0
  0
LINE
  5
52F
330
1F
100
AcDbEntity
  8
dxfile
  6
Continuous
 62
     2
100
AcDbLine
 10
1644.201872
 20
2080.355811
 30
0.0
 11
1644.201872
 21
2065.355811
 31
0.0
  0
LINE
  5
530
330
1F
100
AcDbEntity
  8
dxfile
  6
Continuous
 62
     2
100
AcDbLine
 10
1644.201872
 20
2065.355811
 30
0.0
 11
1619.201872
 21
2065.355811
 31
0.0
  0
INSERT
  5
53A
330
1F
100
AcDbEntity
  8
dxfile
  6
Continuous
 62
     3
100
AcDbBlockReference
  2
DIM_23
 10
1684.201872
 20
2445.335664
 30
0.0
  0
LINE
  5
53B
330
1F
100
AcDbEntity
  8
dxfile
  6
PLine2
 62
     3
100
AcDbLine
 10
1984.201872
 20
2445.731596
 30
0.0
 11
1984.201872
 21
2392.875498
 31
0.0
  0
LINE
  5
53C
330
1F
100
AcDbEntity
  8
dxfile
  6
PLine2
 62
     3
100
AcDbLine
 10
1684.201872
 20
2446.975269
 30
0.0
 11
1684.201872
 21
2398.472026
 31
0.0
  0
INSERT
  5
546
330
1F
100
AcDbEntity
  8
dxfile
  6
Continuous
 62
     3
100
AcDbBlockReference
  2
DIM_24
 10
1611.722018
 20
2372.855811
 30
0.0
  0
INSERT
  5
550
330
1F
100
AcDbEntity
  8
dxfile
  6
Continuous
 62
     3
100
AcDbBlockReference
  2
DIM_25
 10
1631.701872
 20
1706.955819
 30
0.0
  0
INSERT
  5
55A
330
1F
100
AcDbEntity
  8
dxfile
  6
Continuous
 62
     3
100
AcDbBlockReference
  2
DIM_26
 10
2359.908845
 20
2425.355811
 30
0.0
  0
LINE
  5
55B
330
1F
100
AcDbEntity
  8
dxfile
  6
Continuous
 62
     2
100
AcDbLine
 10
299.329568
 20
1882.855811
 30
0.0
 11
314.329568
 21
1882.855811
 31
0.0
  0
LINE
  5
55C
330
1F
100
AcDbEntity
  8
dxfile
  6
Continuous
 62
     2
100
AcDbLine
 10
314.329568
 20
1882.855811
 30
0.0
 11
314.329568
 21
1907.855811
 31
0.0
  0
LINE
  5
55D
330
1F
100
AcDbEntity
  8
dxfile
  6
Continuous
 62
     2
100
AcDbLine
 10
314.329568
 20
1907.855811
 30
0.0
 11
299.329568
 21
1907.855811
 31
0.0
  0
LINE
  5
55E
330
1F
100
AcDbEntity
  8
dxfile
  6
Continuous
 62
     2
100
AcDbLine
 10
299.329568
 20
1907.855811
 30
0.0
 11
299.329568
 21
1882.855811
 31
0.0
  0
LINE
  5
55F
330
1F
100
AcDbEntity
  8
dxfile
  6
Continuous
 62
     2
100
AcDbLine
 10
539.329568
 20
1882.855811
 30
0.0
 11
524.329568
 21
1882.855811
 31
0.0
  0
LINE
  5
560
330
1F
100
AcDbEntity
  8
dxfile
  6
Continuous
 62
     2
100
AcDbLine
 10
524.329568
 20
1882.855811
 30
0.0
 11
524.329568
 21
1907.855811
 31
0.0
  0
LINE
  5
561
330
1F
100
AcDbEntity
  8
dxfile
  6
Continuous
 62
     2
100
AcDbLine
 10
524.329568
 20
1907.855811
 30
0.0
 11
539.329568
 21
1907.855811
 31
0.0
  0
LINE
  5
562
330
1F
100
AcDbEntity
  8
dxfile
  6
Continuous
 62
     2
100
AcDbLine
 10
539.329568
 20
1907.855811
 30
0.0
 11
539.329568
 21
1882.855811
 31
0.0
  0
LINE
  5
563
330
1F
100
AcDbEntity
  8
dxfile
  6
PLine2
 62
     3
100
AcDbLine
 10
531.829568
 20
1874.980025
 30
0.0
 11
531.829568
 21
1927.836123
 31
0.0
  0
LINE
  5
564
330
1F
100
AcDbEntity
  8
dxfile
  6
Continuous
 62
     2
100
AcDbLine
 10
609.329568
 20
2192.855811
 30
0.0
 11
609.329568
 21
2177.855811
 31
0.0
  0
LINE
  5
565
330
1F
100
AcDbEntity
  8
dxfile
  6
Continuous
 62
     2
100
AcDbLine
 10
609.329568
 20
2177.855811
 30
0.0
 11
584.329568
 21
2177.855811
 31
0.0
  0
LINE
  5
566
330
1F
100
AcDbEntity
  8
dxfile
  6
Continuous
 62
     2
100
AcDbLine
 10
584.329568
 20
2177.855811
 30
0.0
 11
584.329568
 21
2192.855811
 31
0.0
  0
LINE
  5
567
330
1F
100
AcDbEntity
  8
dxfile
  6
Continuous
 62
     2
100
AcDbLine
 10
584.329568
 20
2192.855811
 30
0.0
 11
609.329568
 21
2192.855811
 31
0.0
  0
LINE
  5
568
330
1F
100
AcDbEntity
  8
dxfile
  6
Continuous
 62
     2
100
AcDbLine
 10
609.329568
 20
1952.855811
 30
0.0
 11
609.329568
 21
1967.855811
 31
0.0
  0
LINE
  5
569
330
1F
100
AcDbEntity
  8
dxfile
  6
Continuous
 62
     2
100
AcDbLine
 10
609.329568
 20
1967.855811
 30
0.0
 11
584.329568
 21
1967.855811
 31
0.0
  0
LINE
  5
56A
330
1F
100
AcDbEntity
  8
dxfile
  6
Continuous
 62
     2
100
AcDbLine
 10
584.329568
 20
1967.855811
 30
0.0
 11
584.329568
 21
1952.855811
 31
0.0
  0
LINE
  5
56B
330
1F
100
AcDbEntity
  8
dxfile
  6
Continuous
 62
     2
100
AcDbLine
 10
584.329568
 20
1952.855811
 30
0.0
 11
609.329568
 21
1952.855811
 31
0.0
  0
TEXT
  5
56C
330
1F
100
AcDbEntity
  8
dxfile
  6
Continuous
 62
     3
100
AcDbText
 10
276.06024
 20
1987.699407
 30
0.0
 40
30.0
  1
Ｂ－６００
 41
0.858268
  7
BIGFONT
100
AcDbText
  0
TEXT
  5
56D
330
1F
100
AcDbEntity
  8
dxfile
  6
Continuous
 62
     3
100
AcDbText
 10
934.44625
 20
1968.841018
 30
0.0
 40
30.0
  1
Ｂ－９００
 41
0.858268
  7
BIGFONT
100
AcDbText
  0
LINE
  5
56E
330
1F
100
AcDbEntity
  8
dxfile
  6
Continuous
 62
     2
100
AcDbLine
 10
2291.701872
 20
2437.855811
 30
0.0
 11
2276.701872
 21
2437.855811
 31
0.0
  0
LINE
  5
56F
330
1F
100
AcDbEntity
  8
dxfile
  6
Continuous
 62
     2
100
AcDbLine
 10
2276.701872
 20
2437.855811
 30
0.0
 11
2276.701872
 21
2412.855811
 31
0.0
  0
LINE
  5
570
330
1F
100
AcDbEntity
  8
dxfile
  6
Continuous
 62
     2
100
AcDbLine
 10
2276.701872
 20
2412.855811
 30
0.0
 11
2291.701872
 21
2412.855811
 31
0.0
  0
LINE
  5
571
330
1F
100
AcDbEntity
  8
dxfile
  6
Continuous
 62
     2
100
AcDbLine
 10
2291.701872
 20
2412.855811
 30
0.0
 11
2291.701872
 21
2437.855811
 31
0.0
  0
INSERT
  5
57B
330
1F
100
AcDbEntity
  8
dxfile
  6
Continuous
 62
     3
100
AcDbBlockReference
  2
DIM_27
 10
2284.201872
 20
2445.335664
 30
0.0
  0
LINE
  5
57C
330
1F
100
AcDbEntity
  8
dxfile
  6
PLine2
 62
     3
100
AcDbLine
 10
2284.201872
 20
2446.975269
 30
0.0
 11
2284.201872
 21
2398.472026
 31
0.0
  0
LINE
  5
57D
330
1F
100
AcDbEntity
  8
dxfile
  6
Continuous
 62
     2
100
AcDbLine
 10
1619.201872
 20
1765.355811
 30
0.0
 11
1619.201872
 21
1780.355811
 31
0.0
  0
LINE
  5
57E
330
1F
100
AcDbEntity
  8
dxfile
  6
Continuous
 62
     2
100
AcDbLine
 10
1619.201872
 20
1780.355811
 30
0.0
 11
1644.201872
 21
1780.355811
 31
0.0
  0
LINE
  5
57F
330
1F
100
AcDbEntity
  8
dxfile
  6
Continuous
 62
     2
100
AcDbLine
 10
1644.201872
 20
1780.355811
 30
0.0
 11
1644.201872
 21
1765.355811
 31
0.0
  0
LINE
  5
580
330
1F
100
AcDbEntity
  8
dxfile
  6
Continuous
 62
     2
100
AcDbLine
 10
1644.201872
 20
1765.355811
 30
0.0
 11
1619.201872
 21
1765.355811
 31
0.0
  0
INSERT
  5
58A
330
1F
100
AcDbEntity
  8
dxfile
  6
Continuous
 62
     3
100
AcDbBlockReference
  2
DIM_28
 10
1611.722018
 20
1772.855811
 30
0.0
  0
LINE
  5
58B
330
1F
100
AcDbEntity
  8
dxfile
  6
Continuous
 62
     2
100
AcDbLine
 10
1676.701872
 20
1707.855811
 30
0.0
 11
1691.701872
 21
1707.855811
 31
0.0
  0
LINE
  5
58C
330
1F
100
AcDbEntity
  8
dxfile
  6
Continuous
 62
     2
100
AcDbLine
 10
1691.701872
 20
1707.855811
 30
0.0
 11
1691.701872
 21
1732.855811
 31
0.0
  0
LINE
  5
58D
330
1F
100
AcDbEntity
  8
dxfile
  6
Continuous
 62
     2
100
AcDbLine
 10
1691.701872
 20
1732.855811
 30
0.0
 11
1676.701872
 21
1732.855811
 31
0.0
  0
LINE
  5
58E
330
1F
100
AcDbEntity
  8
dxfile
  6
Continuous
 62
     2
100
AcDbLine
 10
1676.701872
 20
1732.855811
 30
0.0
 11
1676.701872
 21
1707.855811
 31
0.0
  0
LINE
  5
58F
330
1F
100
AcDbEntity
  8
dxfile
  6
Continuous
 62
     2
100
AcDbLine
 10
1991.701872
 20
1707.855811
 30
0.0
 11
1976.701872
 21
1707.855811
 31
0.0
  0
LINE
  5
590
330
1F
100
AcDbEntity
  8
dxfile
  6
Continuous
 62
     2
100
AcDbLine
 10
1976.701872
 20
1707.855811
 30
0.0
 11
1976.701872
 21
1732.855811
 31
0.0
  0
LINE
  5
591
330
1F
100
AcDbEntity
  8
dxfile
  6
Continuous
 62
     2
100
AcDbLine
 10
1976.701872
 20
1732.855811
 30
0.0
 11
1991.701872
 21
1732.855811
 31
0.0
  0
LINE
  5
592
330
1F
100
AcDbEntity
  8
dxfile
  6
Continuous
 62
     2
100
AcDbLine
 10
1991.701872
 20
1732.855811
 30
0.0
 11
1991.701872
 21
1707.855811
 31
0.0
  0
LINE
  5
593
330
1F
100
AcDbEntity
  8
dxfile
  6
PLine2
 62
     3
100
AcDbLine
 10
1984.201872
 20
1699.980025
 30
0.0
 11
1984.201872
 21
1752.836123
 31
0.0
  0
LINE
  5
594
330
1F
100
AcDbEntity
  8
dxfile
  6
PLine2
 62
     3
100
AcDbLine
 10
1684.201872
 20
1698.736352
 30
0.0
 11
1684.201872
 21
1747.239595
 31
0.0
  0
LINE
  5
595
330
1F
100
AcDbEntity
  8
dxfile
  6
Continuous
 62
     2
100
AcDbLine
 10
2291.701872
 20
1707.855811
 30
0.0
 11
2276.701872
 21
1707.855811
 31
0.0
  0
LINE
  5
596
330
1F
100
AcDbEntity
  8
dxfile
  6
Continuous
 62
     2
100
AcDbLine
 10
2276.701872
 20
1707.855811
 30
0.0
 11
2276.701872
 21
1732.855811
 31
0.0
  0
LINE
  5
597
330
1F
100
AcDbEntity
  8
dxfile
  6
Continuous
 62
     2
100
AcDbLine
 10
2276.701872
 20
1732.855811
 30
0.0
 11
2291.701872
 21
1732.855811
 31
0.0
  0
LINE
  5
598
330
1F
100
AcDbEntity
  8
dxfile
  6
Continuous
 62
     2
100
AcDbLine
 10
2291.701872
 20
1732.855811
 30
0.0
 11
2291.701872
 21
1707.855811
 31
0.0
  0
LINE
  5
599
330
1F
100
AcDbEntity
  8
dxfile
  6
PLine2
 62
     3
100
AcDbLine
 10
2284.201872
 20
1698.736352
 30
0.0
 11
2284.201872
 21
1747.239595
 31
0.0
  0
LINE
  5
59A
330
1F
100
AcDbEntity
  8
dxfile
  6
Continuous
 62
     2
100
AcDbLine
 10
2349.201872
 20
2380.355811
 30
0.0
 11
2349.201872
 21
2365.355811
 31
0.0
  0
LINE
  5
59B
330
1F
100
AcDbEntity
  8
dxfile
  6
Continuous
 62
     2
100
AcDbLine
 10
2349.201872
 20
2365.355811
 30
0.0
 11
2324.201872
 21
2365.355811
 31
0.0
  0
LINE
  5
59C
330
1F
100
AcDbEntity
  8
dxfile
  6
Continuous
 62
     2
100
AcDbLine
 10
2324.201872
 20
2365.355811
 30
0.0
 11
2324.201872
 21
2380.355811
 31
0.0
  0
LINE
  5
59D
330
1F
100
AcDbEntity
  8
dxfile
  6
Continuous
 62
     2
100
AcDbLine
 10
2324.201872
 20
2380.355811
 30
0.0
 11
2349.201872
 21
2380.355811
 31
0.0
  0
LINE
  5
59E
330
1F
100
AcDbEntity
  8
dxfile
  6
Continuous
 62
     2
100
AcDbLine
 10
2349.201872
 20
2065.355811
 30
0.0
 11
2349.201872
 21
2080.355811
 31
0.0
  0
LINE
  5
59F
330
1F
100
AcDbEntity
  8
dxfile
  6
Continuous
 62
     2
100
AcDbLine
 10
2349.201872
 20
2080.355811
 30
0.0
 11
2324.201872
 21
2080.355811
 31
0.0
  0
LINE
  5
5A0
330
1F
100
AcDbEntity
  8
dxfile
  6
Continuous
 62
     2
100
AcDbLine
 10
2324.201872
 20
2080.355811
 30
0.0
 11
2324.201872
 21
2065.355811
 31
0.0
  0
LINE
  5
5A1
330
1F
100
AcDbEntity
  8
dxfile
  6
Continuous
 62
     2
100
AcDbLine
 10
2324.201872
 20
2065.355811
 30
0.0
 11
2349.201872
 21
2065.355811
 31
0.0
  0
LINE
  5
5A2
330
1F
100
AcDbEntity
  8
dxfile
  6
Continuous
 62
     2
100
AcDbLine
 10
2349.201872
 20
1765.355811
 30
0.0
 11
2349.201872
 21
1780.355811
 31
0.0
  0
LINE
  5
5A3
330
1F
100
AcDbEntity
  8
dxfile
  6
Continuous
 62
     2
100
AcDbLine
 10
2349.201872
 20
1780.355811
 30
0.0
 11
2324.201872
 21
1780.355811
 31
0.0
  0
LINE
  5
5A4
330
1F
100
AcDbEntity
  8
dxfile
  6
Continuous
 62
     2
100
AcDbLine
 10
2324.201872
 20
1780.355811
 30
0.0
 11
2324.201872
 21
1765.355811
 31
0.0
  0
LINE
  5
5A5
330
1F
100
AcDbEntity
  8
dxfile
  6
Continuous
 62
     2
100
AcDbLine
 10
2324.201872
 20
1765.355811
 30
0.0
 11
2349.201872
 21
1765.355811
 31
0.0
  0
TEXT
  5
5A6
330
1F
100
AcDbEntity
  8
dxfile
  6
Continuous
 62
     3
100
AcDbText
 10
1748.736638
 20
1950.623312
 30
0.0
 40
30.0
  1
Ｂ－１３００
 41
0.858268
  7
BIGFONT
100
AcDbText
  0
LINE
  5
5A7
330
1F
100
AcDbEntity
  8
dxfile
  6
Continuous
 62
     3
100
AcDbLine
 10
846.874348
 20
1895.899717
 30
0.0
 11
852.544221
 21
1915.720225
 31
0.0
  0
LINE
  5
5A8
330
1F
100
AcDbEntity
  8
dxfile
  6
Continuous
 62
     3
100
AcDbLine
 10
852.544221
 20
1915.720225
 30
0.0
 11
740.070458
 21
1720.909953
 31
0.0
  0
LINE
  5
5A9
330
1F
100
AcDbEntity
  8
dxfile
  6
Continuous
 62
     3
100
AcDbLine
 10
740.070458
 20
1720.909953
 30
0.0
 11
585.270458
 21
1720.909953
 31
0.0
  0
TEXT
  5
5AA
330
1F
100
AcDbEntity
  8
dxfile
  6
Continuous
 62
     3
100
AcDbText
 10
611.01849
 20
1725.909953
 30
0.0
 40
30.0
  1
差筋（別途）
 50
360.0
 41
0.858268
  7
BIGFONT
 72
     2
 11
739.758647
 21
1725.909953
 31
0.0
100
AcDbText
  0
INSERT
  5
5B4
330
1F
100
AcDbEntity
  8
dxfile
  6
Continuous
 62
     3
100
AcDbBlockReference
  2
DIM_29
 10
292.925124
 20
994.722557
 30
0.0
  0
INSERT
  5
5BE
330
1F
100
AcDbEntity
  8
dxfile
  6
Continuous
 62
     3
100
AcDbBlockReference
  2
DIM_30
 10
1392.925124
 20
994.722557
 30
0.0
  0
TEXT
  5
5BF
330
1F
100
AcDbEntity
  8
dxfile
  6
Continuous
 62
     3
100
AcDbText
 10
3231.927036
 20
2358.061554
 30
0.0
 40
30.0
  1
　（ＦＲＰ製は１２５）
 41
0.858268
  7
BIGFONT
 72
     1
 11
3351.471468
 21
2373.061554
 31
0.0
100
AcDbText
 73
     2
  0
TEXT
  5
5C0
330
1F
100
AcDbEntity
  8
dxfile
  6
Continuous
 62
     3
100
AcDbText
 10
1885.401583
 20
315.422261
 30
0.0
 40
30.0
  1
注、ＡＢ型はＦＲＰ製のみとなります。
 41
0.858268
  7
BIGFONT
100
AcDbText
  0
LINE
  5
5C1
330
1F
100
AcDbEntity
  8
dxfile
  6
PLine2
 62
     3
100
AcDbLine
 10
1850.682927
 20
658.827554
 30
0.0
 11
2331.450075
 21
658.827554
 31
0.0
  0
LINE
  5
5C2
330
1F
100
AcDbEntity
  8
dxfile
  6
PLine2
 62
     3
100
AcDbLine
 10
2088.580846
 20
893.185884
 30
0.0
 11
2088.580846
 21
416.204304
 31
0.0
  0
LINE
  5
5C3
330
1F
100
AcDbEntity
  8
dxfile
  6
Continuous
 62
     3
100
AcDbLine
 10
1881.080846
 20
871.327554
 30
0.0
 11
2296.080846
 21
871.327554
 31
0.0
  0
ARC
  5
5C4
330
1F
100
AcDbEntity
  8
dxfile
  6
Continuous
 62
     3
100
AcDbCircle
 10
2296.080846
 20
866.327554
 30
0.0
 40
5.000000000033678
100
AcDbArc
 50
0.0
 51
90.0
  0
LINE
  5
5C5
330
1F
100
AcDbEntity
  8
dxfile
  6
Continuous
 62
     3
100
AcDbLine
 10
2301.080846
 20
866.327554
 30
0.0
 11
2301.080846
 21
451.327554
 31
0.0
  0
ARC
  5
5C6
330
1F
100
AcDbEntity
  8
dxfile
  6
Continuous
 62
     3
100
AcDbCircle
 10
2296.080846
 20
451.327554
 30
0.0
 40
4.99999999980143
100
AcDbArc
 50
270.0
 51
0.0
  0
LINE
  5
5C7
330
1F
100
AcDbEntity
  8
dxfile
  6
Continuous
 62
     3
100
AcDbLine
 10
2296.080846
 20
446.327554
 30
0.0
 11
1881.080846
 21
446.327554
 31
0.0
  0
ARC
  5
5C8
330
1F
100
AcDbEntity
  8
dxfile
  6
Continuous
 62
     3
100
AcDbCircle
 10
1881.080846
 20
451.327554
 30
0.0
 40
4.999999999799872
100
AcDbArc
 50
180.0
 51
270.0
  0
LINE
  5
5C9
330
1F
100
AcDbEntity
  8
dxfile
  6
Continuous
 62
     3
100
AcDbLine
 10
1876.080846
 20
451.327554
 30
0.0
 11
1876.080846
 21
866.327554
 31
0.0
  0
ARC
  5
5CA
330
1F
100
AcDbEntity
  8
dxfile
  6
Continuous
 62
     3
100
AcDbCircle
 10
1881.080846
 20
866.327554
 30
0.0
 40
5.000000000032422
100
AcDbArc
 50
90.0
 51
180.0
  0
LINE
  5
5CB
330
1F
100
AcDbEntity
  8
dxfile
  6
Continuous
 62
     3
100
AcDbLine
 10
1866.080846
 20
876.327554
 30
0.0
 11
1866.080846
 21
441.327554
 31
0.0
  0
LINE
  5
5CC
330
1F
100
AcDbEntity
  8
dxfile
  6
Continuous
 62
     3
100
AcDbLine
 10
1871.080846
 20
881.327554
 30
0.0
 11
2306.080846
 21
881.327554
 31
0.0
  0
LINE
  5
5CD
330
1F
100
AcDbEntity
  8
dxfile
  6
Continuous
 62
     3
100
AcDbLine
 10
2311.080846
 20
876.327554
 30
0.0
 11
2311.080846
 21
441.327554
 31
0.0
  0
LINE
  5
5CE
330
1F
100
AcDbEntity
  8
dxfile
  6
Continuous
 62
     3
100
AcDbLine
 10
1871.080846
 20
436.327554
 30
0.0
 11
2306.080846
 21
436.327554
 31
0.0
  0
ARC
  5
5CF
330
1F
100
AcDbEntity
  8
dxfile
  6
Continuous
 62
     3
100
AcDbCircle
 10
1871.080846
 20
876.327554
 30
0.0
 40
4.999999999900509
100
AcDbArc
 50
90.0
 51
180.0
  0
ARC
  5
5D0
330
1F
100
AcDbEntity
  8
dxfile
  6
Continuous
 62
     3
100
AcDbCircle
 10
2306.080846
 20
876.327554
 30
0.0
 40
4.999999999901991
100
AcDbArc
 50
0.0
 51
90.0
  0
ARC
  5
5D1
330
1F
100
AcDbEntity
  8
dxfile
  6
Continuous
 62
     3
100
AcDbCircle
 10
1871.080846
 20
441.327554
 30
0.0
 40
4.999999999807208
100
AcDbArc
 50
180.0
 51
270.0
  0
ARC
  5
5D2
330
1F
100
AcDbEntity
  8
dxfile
  6
Continuous
 62
     3
100
AcDbCircle
 10
2306.080846
 20
441.327554
 30
0.0
 40
4.999999999808213
100
AcDbArc
 50
270.0
 51
0.0
  0
CIRCLE
  5
5D3
330
1F
100
AcDbEntity
  8
dxfile
  6
Continuous
 62
     3
100
AcDbCircle
 10
2088.580846
 20
658.827554
 30
0.0
 40
150.0
  0
INSERT
  5
5DB
330
1F
100
AcDbEntity
  8
dxfile
  6
Continuous
 62
     3
100
AcDbBlockReference
  2
DIM_31
 10
0.0
 20
0.0
 30
0.0
  0
INSERT
  5
5E5
330
1F
100
AcDbEntity
  8
dxfile
  6
Continuous
 62
     3
100
AcDbBlockReference
  2
DIM_32
 10
1938.580846
 20
720.533678
 30
0.0
  0
INSERT
  5
5EF
330
1F
100
AcDbEntity
  8
dxfile
  6
Continuous
 62
     3
100
AcDbBlockReference
  2
DIM_33
 10
1876.080846
 20
886.653894
 30
0.0
  0
INSERT
  5
5F9
330
1F
100
AcDbEntity
  8
dxfile
  6
Continuous
 62
     3
100
AcDbBlockReference
  2
DIM_34
 10
2301.080846
 20
886.653894
 30
0.0
  0
TEXT
  5
5FA
330
1F
100
AcDbEntity
  8
dxfile
  6
Continuous
 62
     3
100
AcDbText
 10
2035.801414
 20
365.51698
 30
0.0
 40
30.0
  1
ＡＢ型ドーム
 41
0.858268
  7
BIGFONT
100
AcDbText
  0
TEXT
  5
5FB
330
1F
100
AcDbEntity
  8
dxfile
  6
Continuous
 62
     3
100
AcDbText
 10
3710.00511
 20
2407.459806
 30
0.0
 40
30.0
  1
φＡ　ＡＢ型ドーム寸法
 41
0.858268
  7
BIGFONT
 72
     1
 11
3829.549542
 21
2407.459806
 31
0.0
100
AcDbText
  0
LINE
  5
5FC
330
1F
100
AcDbEntity
  8
dxfile
  6
Continuous
 62
     2
100
AcDbLine
 10
2042.211707
 20
235.794317
 30
0.0
 11
2043.971095
 21
235.794317
 31
0.0
  0
TEXT
  5
5FD
330
1F
100
AcDbEntity
  8
dxfile
  6
Continuous
 62
     2
100
AcDbText
 10
2055.171404
 20
193.55457
 30
0.0
 40
31.1506
  1
平面図
 41
0.858268
  7
BIGFONT
100
AcDbText
  0
LINE
  5
5FE
330
1F
100
AcDbEntity
  8
dxfile
  6
Continuous
 62
     2
100
AcDbLine
 10
2043.531248
 20
235.794317
 30
0.0
 11
2147.222568
 21
235.794317
 31
0.0
  0
LINE
  5
5FF
330
1F
100
AcDbEntity
  8
dxfile
  6
Continuous
 62
     2
100
AcDbLine
 10
2147.222568
 20
235.794317
 30
0.0
 11
2147.222568
 21
184.77206
 31
0.0
  0
LINE
  5
600
330
1F
100
AcDbEntity
  8
dxfile
  6
Continuous
 62
     2
100
AcDbLine
 10
2147.222568
 20
184.77206
 30
0.0
 11
2042.211707
 21
184.77206
 31
0.0
  0
LINE
  5
601
330
1F
100
AcDbEntity
  8
dxfile
  6
Continuous
 62
     2
100
AcDbLine
 10
2042.211707
 20
184.77206
 30
0.0
 11
2042.211707
 21
236.234164
 31
0.0
  0
TEXT
  5
602
330
1F
100
AcDbEntity
  8
dxfile
  6
Continuous
 62
     3
100
AcDbText
 10
2914.944895
 20
1927.101876
 30
0.0
 40
30.0
  1
（３０）
 50
90.0
 41
0.858268
  7
BIGFONT
 72
     1
 11
2914.944895
 21
1969.402214
 31
0.0
100
AcDbText
  0
ARC
  5
603
330
1F
100
AcDbEntity
  8
dxfile
  6
Continuous
 62
     4
100
AcDbCircle
 10
300.202347
 20
975.621719
 30
0.0
 40
11.0
100
AcDbArc
 50
90.0
 51
156.974508
  0
ARC
  5
604
330
1F
100
AcDbEntity
  8
dxfile
  6
Continuous
 62
     4
100
AcDbCircle
 10
298.879216
 20
977.621719
 30
0.0
 40
5.0
100
AcDbArc
 50
90.0
 51
156.974508
  0
ARC
  5
605
330
1F
100
AcDbEntity
  8
dxfile
  6
Continuous
 62
     4
100
AcDbCircle
 10
386.854954
 20
997.621719
 30
0.0
 40
15.0
100
AcDbArc
 50
270.0
 51
327.459693
  0
ARC
  5
606
330
1F
100
AcDbEntity
  8
dxfile
  6
Continuous
 62
     4
100
AcDbCircle
 10
386.854954
 20
997.621719
 30
0.0
 40
11.0
100
AcDbArc
 50
270.0
 51
327.459693
  0
ARC
  5
607
330
1F
100
AcDbEntity
  8
dxfile
  6
Continuous
 62
     4
100
AcDbCircle
 10
1385.647902
 20
975.621719
 30
0.0
 40
11.00000000004157
100
AcDbArc
 50
23.025492
 51
90.0
  0
ARC
  5
608
330
1F
100
AcDbEntity
  8
dxfile
  6
Continuous
 62
     4
100
AcDbCircle
 10
1386.971033
 20
977.621719
 30
0.0
 40
4.999999999908271
100
AcDbArc
 50
23.025492
 51
90.0
  0
ARC
  5
609
330
1F
100
AcDbEntity
  8
dxfile
  6
Continuous
 62
     4
100
AcDbCircle
 10
1298.995295
 20
997.621719
 30
0.0
 40
14.99999999999715
100
AcDbArc
 50
212.540307
 51
270.0
  0
ARC
  5
60A
330
1F
100
AcDbEntity
  8
dxfile
  6
Continuous
 62
     4
100
AcDbCircle
 10
1298.995295
 20
997.621719
 30
0.0
 40
11.00000000008306
100
AcDbArc
 50
212.540307
 51
270.0
  0
ARC
  5
60B
330
1F
100
AcDbEntity
  8
dxfile
  6
Continuous
 62
     4
100
AcDbCircle
 10
3142.210454
 20
2015.02405
 30
0.0
 40
55.0
100
AcDbArc
 50
90.0
 51
156.974508
  0
ARC
  5
60C
330
1F
100
AcDbEntity
  8
dxfile
  6
Continuous
 62
     4
100
AcDbCircle
 10
3135.594797
 20
2025.02405
 30
0.0
 40
25.0
100
AcDbArc
 50
90.0
 51
156.974508
  0
ARC
  5
60D
330
1F
100
AcDbEntity
  8
dxfile
  6
Continuous
 62
     4
100
AcDbCircle
 10
3575.473491
 20
2125.02405
 30
0.0
 40
75.0
100
AcDbArc
 50
270.0
 51
327.459693
  0
ARC
  5
60E
330
1F
100
AcDbEntity
  8
dxfile
  6
Continuous
 62
     4
100
AcDbCircle
 10
3575.473491
 20
2125.02405
 30
0.0
 40
55.0
100
AcDbArc
 50
270.0
 51
327.459693
  0
TEXT
  5
60F
330
1F
100
AcDbEntity
  8
dxfile
  6
Continuous
 62
     3
100
AcDbText
 10
764.313718
 20
2758.060369
 30
0.0
 40
31.25
  1
Ｗ
 41
0.858268
  7
BIGFONT
100
AcDbText
  0
TEXT
  5
610
330
1F
100
AcDbEntity
  8
dxfile
  6
Continuous
 62
     3
100
AcDbText
 10
437.273967
 20
2758.949776
 30
0.0
 40
31.25
  1
　Ａ
 41
0.858268
  7
BIGFONT
100
AcDbText
  0
TEXT
  5
611
330
1F
100
AcDbEntity
  8
dxfile
  6
Continuous
 62
     3
100
AcDbText
 10
1257.294135
 20
2801.261787
 30
0.0
 40
31.25
  1
単位
 41
0.858268
  7
BIGFONT
100
AcDbText
  0
TEXT
  5
612
330
1F
100
AcDbEntity
  8
dxfile
  6
Continuous
 62
     3
100
AcDbText
 10
1336.405615
 20
2801.353027
 30
0.0
 40
31.25
  1
ｍｍ
 41
0.858268
  7
BIGFONT
100
AcDbText
  0
TEXT
  5
613
330
1F
100
AcDbEntity
  8
dxfile
  6
Continuous
 62
     3
100
AcDbText
 10
328.440633
 20
2754.430126
 30
0.0
 40
31.25
  1
式
 41
0.858268
  7
BIGFONT
100
AcDbText
  0
TEXT
  5
614
330
1F
100
AcDbEntity
  8
dxfile
  6
Continuous
 62
     3
100
AcDbText
 10
889.317323
 20
2704.571726
 30
0.0
 40
31.25
  1
６３０
 41
0.858268
  7
BIGFONT
100
AcDbText
  0
TEXT
  5
615
330
1F
100
AcDbEntity
  8
dxfile
  6
Continuous
 62
     3
100
AcDbText
 10
722.53758
 20
2655.023086
 30
0.0
 40
31.25
  1
１１３０
 41
0.858268
  7
BIGFONT
100
AcDbText
  0
TEXT
  5
616
330
1F
100
AcDbEntity
  8
dxfile
  6
Continuous
 62
     3
100
AcDbText
 10
747.631054
 20
2710.548746
 30
0.0
 40
31.25
  1
８３０
 41
0.858268
  7
BIGFONT
100
AcDbText
  0
TEXT
  5
617
330
1F
100
AcDbEntity
  8
dxfile
  6
Continuous
 62
     3
100
AcDbText
 10
436.881766
 20
2657.747386
 30
0.0
 40
31.25
  1
９００
 41
0.858268
  7
BIGFONT
100
AcDbText
  0
TEXT
  5
618
330
1F
100
AcDbEntity
  8
dxfile
  6
Continuous
 62
     3
100
AcDbText
 10
436.496021
 20
2707.066451
 30
0.0
 40
31.25
  1
６００
 41
0.858268
  7
BIGFONT
100
AcDbText
  0
TEXT
  5
619
330
1F
100
AcDbEntity
  8
dxfile
  6
Continuous
 62
     3
100
AcDbText
 10
241.180423
 20
2756.447036
 30
0.0
 40
31.25
  1
型
 41
0.858268
  7
BIGFONT
100
AcDbText
  0
TEXT
  5
61A
330
1F
100
AcDbEntity
  8
dxfile
  6
Continuous
 62
     3
100
AcDbText
 10
219.924316
 20
2655.500674
 30
0.0
 40
31.25
  1
ＡＢ－９００
 41
0.858268
  7
BIGFONT
100
AcDbText
  0
TEXT
  5
61B
330
1F
100
AcDbEntity
  8
dxfile
  6
Continuous
 62
     3
100
AcDbText
 10
219.311683
 20
2705.98239
 30
0.0
 40
31.25
  1
ＡＢ－６００
 41
0.858268
  7
BIGFONT
100
AcDbText
  0
TEXT
  5
61C
330
1F
100
AcDbEntity
  8
dxfile
  6
Continuous
 62
     3
100
AcDbText
 10
890.380403
 20
2653.601576
 30
0.0
 40
31.25
  1
９３０
 41
0.858268
  7
BIGFONT
100
AcDbText
  0
TEXT
  5
61D
330
1F
100
AcDbEntity
  8
dxfile
  6
Continuous
 62
     3
100
AcDbText
 10
908.868713
 20
2759.051096
 30
0.0
 40
31.25
  1
Ｊ
 41
0.858268
  7
BIGFONT
100
AcDbText
  0
LINE
  5
61E
330
1F
100
AcDbEntity
  8
dxfile
  6
Continuous
 62
     2
100
AcDbLine
 10
193.747684
 20
2798.742911
 30
0.0
 11
193.747684
 21
2796.421751
 31
0.0
  0
LINE
  5
61F
330
1F
100
AcDbEntity
  8
dxfile
  6
Continuous
 62
     2
100
AcDbLine
 10
226.264108
 20
2748.565487
 30
0.0
 11
193.747684
 21
2748.565487
 31
0.0
  0
LINE
  5
620
330
1F
100
AcDbEntity
  8
dxfile
  6
Continuous
 62
     2
100
AcDbLine
 10
222.651172
 20
2695.824695
 30
0.0
 11
193.747684
 21
2695.824695
 31
0.0
  0
TEXT
  5
621
330
1F
100
AcDbEntity
  8
dxfile
  6
Continuous
 62
     3
100
AcDbText
 10
208.367374
 20
2808.780397
 30
0.0
 40
31.25
  1
ＡＢ型寸法表
 41
0.858268
  7
BIGFONT
100
AcDbText
  0
LINE
  5
622
330
1F
100
AcDbEntity
  8
dxfile
  6
Continuous
 62
     2
100
AcDbLine
 10
269.427592
 20
2798.742911
 30
0.0
 11
193.747684
 21
2798.742911
 31
0.0
  0
LINE
  5
623
330
1F
100
AcDbEntity
  8
dxfile
  6
Continuous
 62
     2
100
AcDbLine
 10
396.245601
 20
2798.742911
 30
0.0
 11
396.245601
 21
2647.645487
 31
0.0
  0
LINE
  5
624
330
1F
100
AcDbEntity
  8
dxfile
  6
Continuous
 62
     2
100
AcDbLine
 10
699.005601
 20
2798.742911
 30
0.0
 11
699.005601
 21
2647.645487
 31
0.0
  0
LINE
  5
625
330
1F
100
AcDbEntity
  8
dxfile
  6
Continuous
 62
     2
100
AcDbLine
 10
850.385601
 20
2798.742911
 30
0.0
 11
850.385601
 21
2647.645487
 31
0.0
  0
LINE
  5
626
330
1F
100
AcDbEntity
  8
dxfile
  6
Continuous
 62
     2
100
AcDbLine
 10
850.385601
 20
2798.742911
 30
0.0
 11
850.385601
 21
2647.645487
 31
0.0
  0
LINE
  5
627
330
1F
100
AcDbEntity
  8
dxfile
  6
Continuous
 62
     2
100
AcDbLine
 10
1153.145601
 20
2647.645487
 30
0.0
 11
1153.145601
 21
2798.742911
 31
0.0
  0
LINE
  5
628
330
1F
100
AcDbEntity
  8
dxfile
  6
Continuous
 62
     2
100
AcDbLine
 10
193.747684
 20
2647.645487
 30
0.0
 11
193.747684
 21
2798.742911
 31
0.0
  0
LINE
  5
629
330
1F
100
AcDbEntity
  8
dxfile
  6
Continuous
 62
     2
100
AcDbLine
 10
268.953268
 20
2798.742911
 30
0.0
 11
1400.036221
 21
2798.742911
 31
0.0
  0
LINE
  5
62A
330
1F
100
AcDbEntity
  8
dxfile
  6
Continuous
 62
     2
100
AcDbLine
 10
219.340996
 20
2748.565487
 30
0.0
 11
1400.036221
 21
2748.565487
 31
0.0
  0
LINE
  5
62B
330
1F
100
AcDbEntity
  8
dxfile
  6
Continuous
 62
     2
100
AcDbLine
 10
219.038236
 20
2695.824695
 30
0.0
 11
1400.036221
 21
2695.824695
 31
0.0
  0
LINE
  5
62C
330
1F
100
AcDbEntity
  8
dxfile
  6
Continuous
 62
     2
100
AcDbLine
 10
193.747684
 20
2647.645487
 30
0.0
 11
1400.036221
 21
2647.645487
 31
0.0
  0
TEXT
  5
62D
330
1F
100
AcDbEntity
  8
dxfile
  6
Continuous
 62
     3
100
AcDbText
 10
208.822398
 20
2604.983205
 30
0.0
 40
30.0
  1
標準：ＦＲＰ製ト゛ーム　乳半色
 41
0.858268
  7
BIGFONT
100
AcDbText
  0
TEXT
  5
62E
330
1F
100
AcDbEntity
  8
dxfile
  6
Continuous
 62
     3
100
AcDbText
 10
1217.625557
 20
2757.07263
 30
0.0
 40
31.25
  1
Ｇ
 41
0.858268
  7
BIGFONT
100
AcDbText
  0
TEXT
  5
62F
330
1F
100
AcDbEntity
  8
dxfile
  6
Continuous
 62
     3
100
AcDbText
 10
1193.320969
 20
2656.086166
 30
0.0
 40
31.25
  1
９０６
 41
0.858268
  7
BIGFONT
100
AcDbText
  0
TEXT
  5
630
330
1F
100
AcDbEntity
  8
dxfile
  6
Continuous
 62
     3
100
AcDbText
 10
1192.575213
 20
2709.448586
 30
0.0
 40
31.25
  1
６０６
 41
0.858268
  7
BIGFONT
100
AcDbText
  0
LINE
  5
631
330
1F
100
AcDbEntity
  8
dxfile
  6
Continuous
 62
     2
100
AcDbLine
 10
1153.145601
 20
2798.742911
 30
0.0
 11
1153.145601
 21
2647.645487
 31
0.0
  0
LINE
  5
632
330
1F
100
AcDbEntity
  8
dxfile
  6
Continuous
 62
     2
100
AcDbLine
 10
1304.525601
 20
2798.742911
 30
0.0
 11
1304.525601
 21
2647.645487
 31
0.0
  0
LINE
  5
633
330
1F
100
AcDbEntity
  8
dxfile
  6
Continuous
 62
     2
100
AcDbLine
 10
1001.765601
 20
2798.742911
 30
0.0
 11
1001.765601
 21
2647.645487
 31
0.0
  0
TEXT
  5
634
330
1F
100
AcDbEntity
  8
dxfile
  6
Continuous
 62
     3
100
AcDbText
 10
1041.760383
 20
2653.601764
 30
0.0
 40
30.0
  1
２５０
 41
0.858268
  7
BIGFONT
100
AcDbText
  0
TEXT
  5
635
330
1F
100
AcDbEntity
  8
dxfile
  6
Continuous
 62
     3
100
AcDbText
 10
1040.697303
 20
2704.571924
 30
0.0
 40
30.0
  1
１８０
 41
0.858268
  7
BIGFONT
100
AcDbText
  0
TEXT
  5
636
330
1F
100
AcDbEntity
  8
dxfile
  6
Continuous
 62
     3
100
AcDbText
 10
1067.787453
 20
2759.051294
 30
0.0
 40
30.0
  1
Ｈ
 41
0.858268
  7
BIGFONT
100
AcDbText
  0
LINE
  5
637
330
1F
100
AcDbEntity
  8
dxfile
  6
Continuous
 62
     2
100
AcDbLine
 10
547.625601
 20
2798.742911
 30
0.0
 11
547.625601
 21
2647.645487
 31
0.0
  0
TEXT
  5
638
330
1F
100
AcDbEntity
  8
dxfile
  6
Continuous
 62
     3
100
AcDbText
 10
612.53071
 20
2758.107
 30
0.0
 40
31.25
  1
Ｄ
 41
0.858268
  7
BIGFONT
100
AcDbText
  0
TEXT
  5
639
330
1F
100
AcDbEntity
  8
dxfile
  6
Continuous
 62
     3
100
AcDbText
 10
584.610358
 20
2705.859066
 30
0.0
 40
30.0
  1
１２５
 41
0.858268
  7
BIGFONT
100
AcDbText
  0
TEXT
  5
63A
330
1F
100
AcDbEntity
  8
dxfile
  6
Continuous
 62
     3
100
AcDbText
 10
585.581981
 20
2655.334676
 30
0.0
 40
30.0
  1
１２５
 41
0.858268
  7
BIGFONT
100
AcDbText
  0
LINE
  5
63B
330
1F
100
AcDbEntity
  8
dxfile
  6
Continuous
 62
     3
100
AcDbLine
 10
3412.041931
 20
1652.661903
 30
0.0
 11
3397.711804
 21
1667.482411
 31
0.0
  0
LINE
  5
63C
330
1F
100
AcDbEntity
  8
dxfile
  6
Continuous
 62
     3
100
AcDbLine
 10
3397.711804
 20
1667.482411
 30
0.0
 11
3691.182962
 21
1159.175454
 31
0.0
  0
LINE
  5
63D
330
1F
100
AcDbEntity
  8
dxfile
  6
Continuous
 62
     3
100
AcDbLine
 10
3691.182962
 20
1159.175454
 30
0.0
 11
3848.553865
 21
1159.175454
 31
0.0
  0
TEXT
  5
63E
330
1F
100
AcDbEntity
  8
dxfile
  6
Continuous
 62
     3
100
AcDbText
 10
3694.065676
 20
1164.175454
 30
0.0
 40
30.0
  1
アンカー金物
 41
0.858268
  7
BIGFONT
100
AcDbText
  0
LINE
  5
63F
330
1F
100
AcDbEntity
  8
dxfile
  6
Continuous
 62
     3
100
AcDbLine
 10
3375.621116
 20
1559.793972
 30
0.0
 11
3361.290989
 21
1574.61448
 31
0.0
  0
LINE
  5
640
330
1F
100
AcDbEntity
  8
dxfile
  6
Continuous
 62
     3
100
AcDbLine
 10
3361.290989
 20
1574.61448
 30
0.0
 11
3455.30344
 21
1411.780138
 31
0.0
  0
LINE
  5
641
330
1F
100
AcDbEntity
  8
dxfile
  6
Continuous
 62
     3
100
AcDbLine
 10
3455.30344
 20
1411.780138
 30
0.0
 11
3506.799503
 21
1411.780138
 31
0.0
  0
TEXT
  5
642
330
1F
100
AcDbEntity
  8
dxfile
  6
Continuous
 62
     3
100
AcDbText
 10
3455.30344
 20
1416.780138
 30
0.0
 40
30.0
  1
溶接
 41
0.858268
  7
BIGFONT
100
AcDbText
  0
LINE
  5
643
330
1F
100
AcDbEntity
  8
dxfile
  6
Continuous
 62
     2
100
AcDbLine
 10
1400.036221
 20
2647.645487
 30
0.0
 11
1400.036221
 21
2798.742911
 31
0.0
  0
TEXT
  5
644
330
1F
100
AcDbEntity
  8
dxfile
  6
Continuous
 62
     3
100
AcDbText
 10
1327.536241
 20
2757.715495
 30
0.0
 40
30.0
  1
板厚
 41
0.858268
  7
BIGFONT
100
AcDbText
  0
TEXT
  5
645
330
1F
100
AcDbEntity
  8
dxfile
  6
Continuous
 62
     3
100
AcDbText
 10
1339.856424
 20
2705.372207
 30
0.0
 40
30.0
  1
２
 41
0.858268
  7
BIGFONT
100
AcDbText
  0
TEXT
  5
646
330
1F
100
AcDbEntity
  8
dxfile
  6
Continuous
 62
     3
100
AcDbText
 10
1340.851366
 20
2656.62004
 30
0.0
 40
30.0
  1
２
 41
0.858268
  7
BIGFONT
100
AcDbText
  0
CIRCLE
  5
647
330
1F
100
AcDbEntity
  8
dxfile
  6
Continuous
 62
     3
100
AcDbCircle
 10
2879.525514
 20
2070.02405
 30
0.0
 40
5.0
  0
LINE
  5
648
330
1F
100
AcDbEntity
  8
dxfile
  6
Continuous
 62
     3
100
AcDbLine
 10
2879.525514
 20
2070.02405
 30
0.0
 11
2879.525514
 21
2266.263305
 31
0.0
  0
TEXT
  5
649
330
1F
100
AcDbEntity
  8
dxfile
  6
Continuous
 62
     3
100
AcDbText
 10
2874.525514
 20
2158.947952
 30
0.0
 40
30.0
  1
Ｈ
 50
90.0
 41
0.858268
  7
BIGFONT
 72
     1
 11
2874.525514
 21
2168.143677
 31
0.0
100
AcDbText
  0
LINE
  5
64A
330
1F
100
AcDbEntity
  8
dxfile
  6
Continuous
 62
     3
100
AcDbLine
 10
2879.525514
 20
2266.263305
 30
0.0
 11
2874.019892
 21
2245.716044
 31
0.0
  0
ENDSEC
  0
SECTION
  2
OBJECTS
  0
DICTIONARY
  5
C
330
0
100
AcDbDictionary
281
     1
  3
ACAD_GROUP
350
D
  3
ACAD_LAYOUT
350
1A
  3
ACAD_MLEADERSTYLE
350
64D
  3
ACAD_MLINESTYLE
350
17
  3
ACAD_PLOTSETTINGS
350
19
  3
ACAD_PLOTSTYLENAME
350
E
  3
ACAD_SCALELIST
350
50
  3
ACAD_VISUALSTYLE
350
2A
  3
AcDbVariableDictionary
350
64B
  0
DICTIONARY
  5
D
102
{ACAD_REACTORS
330
C
102
}
330
C
100
AcDbDictionary
281
     1
  0
DICTIONARY
  5
1A
102
{ACAD_REACTORS
330
C
102
}
330
C
100
AcDbDictionary
281
     1
  3
Layout1
350
1E
  3
Layout2
350
26
  3
Model
350
22
  0
DICTIONARY
  5
64D
102
{ACAD_REACTORS
330
C
102
}
330
C
100
AcDbDictionary
281
     1
  0
DICTIONARY
  5
17
102
{ACAD_REACTORS
330
C
102
}
330
C
100
AcDbDictionary
281
     1
  3
Standard
350
18
  0
DICTIONARY
  5
19
102
{ACAD_REACTORS
330
C
102
}
330
C
100
AcDbDictionary
281
     1
  0
ACDBDICTIONARYWDFLT
  5
E
102
{ACAD_REACTORS
330
C
102
}
330
C
100
AcDbDictionary
281
     1
  3
Normal
350
F
100
AcDbDictionaryWithDefault
340
F
  0
DICTIONARY
  5
50
102
{ACAD_REACTORS
330
C
102
}
330
C
100
AcDbDictionary
281
     1
  3
A0
350
51
  3
A1
350
52
  3
A2
350
53
  3
A3
350
54
  3
A4
350
55
  3
A5
350
56
  3
A6
350
57
  3
A7
350
58
  3
A8
350
59
  3
A9
350
5A
  3
B0
350
5B
  3
B1
350
5C
  3
B2
350
5D
  3
B3
350
5E
  3
B4
350
5F
  3
B5
350
60
  3
B6
350
61
  3
B7
350
62
  3
B8
350
63
  3
B9
350
64
  3
C0
350
65
  3
C1
350
66
  3
C2
350
67
  3
C3
350
68
  3
C4
350
69
  3
C5
350
6A
  3
C6
350
6B
  3
C7
350
6C
  3
C8
350
6D
  3
C9
350
6E
  3
D0
350
6F
  3
D1
350
70
  3
D2
350
71
  0
DICTIONARY
  5
2A
102
{ACAD_REACTORS
330
C
102
}
330
C
100
AcDbDictionary
281
     1
  3
2dWireframe
350
2F
  3
3D Hidden
350
31
  3
3dWireframe
350
30
  3
Basic
350
32
  3
Brighten
350
36
  3
ColorChange
350
3A
  3
Conceptual
350
34
  3
Dim
350
35
  3
Facepattern
350
39
  3
Flat
350
2B
  3
FlatWithEdges
350
2C
  3
Gouraud
350
2D
  3
GouraudWithEdges
350
2E
  3
Linepattern
350
38
  3
Realistic
350
33
  3
Thicken
350
37
  0
DICTIONARY
  5
64B
102
{ACAD_REACTORS
330
C
102
}
330
C
100
AcDbDictionary
281
     1
  3
CANNOSCALE
350
64E
  3
DIMASSOC
350
64F
  3
HIDETEXT
350
650
  0
LAYOUT
  5
1E
102
{ACAD_REACTORS
330
1A
102
}
330
1A
100
AcDbPlotSettings
  1

  2
none_device
  4

  6

 40
0.0
 41
0.0
 42
0.0
 43
0.0
 44
0.0
 45
0.0
 46
0.0
 47
0.0
 48
0.0
 49
0.0
140
0.0
141
0.0
142
1.0
143
1.0
 70
   688
 72
     0
 73
     0
 74
     5
  7

 75
    16
147
1.0
148
0.0
149
0.0
100
AcDbLayout
  1
Layout1
 70
     1
 71
     1
 10
0.0
 20
0.0
 11
12.0
 21
9.0
 12
0.0
 22
0.0
 32
0.0
 14
1.000000E+20
 24
1.000000E+20
 34
1.000000E+20
 15
-1.000000E+20
 25
-1.000000E+20
 35
-1.000000E+20
146
0.0
 13
0.0
 23
0.0
 33
0.0
 16
1.0
 26
0.0
 36
0.0
 17
0.0
 27
1.0
 37
0.0
 76
     0
330
1B
  0
LAYOUT
  5
26
102
{ACAD_REACTORS
330
1A
102
}
330
1A
100
AcDbPlotSettings
  1

  2
none_device
  4

  6

 40
0.0
 41
0.0
 42
0.0
 43
0.0
 44
0.0
 45
0.0
 46
0.0
 47
0.0
 48
0.0
 49
0.0
140
0.0
141
0.0
142
1.0
143
1.0
 70
   688
 72
     0
 73
     0
 74
     5
  7

 75
    16
147
1.0
148
0.0
149
0.0
100
AcDbLayout
  1
Layout2
 70
     1
 71
     2
 10
0.0
 20
0.0
 11
0.0
 21
0.0
 12
0.0
 22
0.0
 32
0.0
 14
0.0
 24
0.0
 34
0.0
 15
0.0
 25
0.0
 35
0.0
146
0.0
 13
0.0
 23
0.0
 33
0.0
 16
1.0
 26
0.0
 36
0.0
 17
0.0
 27
1.0
 37
0.0
 76
     0
330
23
  0
LAYOUT
  5
22
102
{ACAD_REACTORS
330
1A
102
}
330
1A
100
AcDbPlotSettings
  1

  2
none_device
  4

  6

 40
0.0
 41
0.0
 42
0.0
 43
0.0
 44
0.0
 45
0.0
 46
0.0
 47
0.0
 48
0.0
 49
0.0
140
0.0
141
0.0
142
1.0
143
1.0
 70
  1712
 72
     0
 73
     0
 74
     0
  7

 75
     0
147
1.0
148
0.0
149
0.0
100
AcDbLayout
  1
Model
 70
     1
 71
     0
 10
0.0
 20
0.0
 11
12.0
 21
9.0
 12
0.0
 22
0.0
 32
0.0
 14
0.0
 24
0.0
 34
0.0
 15
4200.0
 25
2970.0
 35
0.0
146
0.0
 13
0.0
 23
0.0
 33
0.0
 16
1.0
 26
0.0
 36
0.0
 17
0.0
 27
1.0
 37
0.0
 76
     0
330
1F
331
29
  0
MLINESTYLE
  5
18
102
{ACAD_REACTORS
330
17
102
}
330
17
100
AcDbMlineStyle
  2
Standard
 70
     0
  3

 62
   256
 51
90.0
 52
90.0
 71
     2
 49
0.5
 62
   256
  6
BYLAYER
 49
-0.5
 62
   256
  6
BYLAYER
  0
ACDBPLACEHOLDER
  5
F
102
{ACAD_REACTORS
330
E
102
}
330
E
  0
SCALE
  5
51
102
{ACAD_REACTORS
330
50
102
}
330
50
100
AcDbScale
 70
     0
300
1:1
140
1.0
141
1.0
290
     1
  0
SCALE
  5
52
102
{ACAD_REACTORS
330
50
102
}
330
50
100
AcDbScale
 70
     0
300
1:2
140
1.0
141
2.0
290
     0
  0
SCALE
  5
53
102
{ACAD_REACTORS
330
50
102
}
330
50
100
AcDbScale
 70
     0
300
1:4
140
1.0
141
4.0
290
     0
  0
SCALE
  5
54
102
{ACAD_REACTORS
330
50
102
}
330
50
100
AcDbScale
 70
     0
300
1:5
140
1.0
141
5.0
290
     0
  0
SCALE
  5
55
102
{ACAD_REACTORS
330
50
102
}
330
50
100
AcDbScale
 70
     0
300
1:8
140
1.0
141
8.0
290
     0
  0
SCALE
  5
56
102
{ACAD_REACTORS
330
50
102
}
330
50
100
AcDbScale
 70
     0
300
1:10
140
1.0
141
10.0
290
     0
  0
SCALE
  5
57
102
{ACAD_REACTORS
330
50
102
}
330
50
100
AcDbScale
 70
     0
300
1:16
140
1.0
141
16.0
290
     0
  0
SCALE
  5
58
102
{ACAD_REACTORS
330
50
102
}
330
50
100
AcDbScale
 70
     0
300
1:20
140
1.0
141
20.0
290
     0
  0
SCALE
  5
59
102
{ACAD_REACTORS
330
50
102
}
330
50
100
AcDbScale
 70
     0
300
1:30
140
1.0
141
30.0
290
     0
  0
SCALE
  5
5A
102
{ACAD_REACTORS
330
50
102
}
330
50
100
AcDbScale
 70
     0
300
1:40
140
1.0
141
40.0
290
     0
  0
SCALE
  5
5B
102
{ACAD_REACTORS
330
50
102
}
330
50
100
AcDbScale
 70
     0
300
1:50
140
1.0
141
50.0
290
     0
  0
SCALE
  5
5C
102
{ACAD_REACTORS
330
50
102
}
330
50
100
AcDbScale
 70
     0
300
1:100
140
1.0
141
100.0
290
     0
  0
SCALE
  5
5D
102
{ACAD_REACTORS
330
50
102
}
330
50
100
AcDbScale
 70
     0
300
2:1
140
2.0
141
1.0
290
     0
  0
SCALE
  5
5E
102
{ACAD_REACTORS
330
50
102
}
330
50
100
AcDbScale
 70
     0
300
4:1
140
4.0
141
1.0
290
     0
  0
SCALE
  5
5F
102
{ACAD_REACTORS
330
50
102
}
330
50
100
AcDbScale
 70
     0
300
8:1
140
8.0
141
1.0
290
     0
  0
SCALE
  5
60
102
{ACAD_REACTORS
330
50
102
}
330
50
100
AcDbScale
 70
     0
300
10:1
140
10.0
141
1.0
290
     0
  0
SCALE
  5
61
102
{ACAD_REACTORS
330
50
102
}
330
50
100
AcDbScale
 70
     0
300
100:1
140
100.0
141
1.0
290
     0
  0
SCALE
  5
62
102
{ACAD_REACTORS
330
50
102
}
330
50
100
AcDbScale
 70
     0
300
1/128" = 1'-0"
140
0.007812
141
12.0
290
     0
  0
SCALE
  5
63
102
{ACAD_REACTORS
330
50
102
}
330
50
100
AcDbScale
 70
     0
300
1/64" = 1'-0"
140
0.015625
141
12.0
290
     0
  0
SCALE
  5
64
102
{ACAD_REACTORS
330
50
102
}
330
50
100
AcDbScale
 70
     0
300
1/32" = 1'-0"
140
0.03125
141
12.0
290
     0
  0
SCALE
  5
65
102
{ACAD_REACTORS
330
50
102
}
330
50
100
AcDbScale
 70
     0
300
1/16" = 1'-0"
140
0.0625
141
12.0
290
     0
  0
SCALE
  5
66
102
{ACAD_REACTORS
330
50
102
}
330
50
100
AcDbScale
 70
     0
300
3/32" = 1'-0"
140
0.09375
141
12.0
290
     0
  0
SCALE
  5
67
102
{ACAD_REACTORS
330
50
102
}
330
50
100
AcDbScale
 70
     0
300
1/8" = 1'-0"
140
0.125
141
12.0
290
     0
  0
SCALE
  5
68
102
{ACAD_REACTORS
330
50
102
}
330
50
100
AcDbScale
 70
     0
300
3/16" = 1'-0"
140
0.1875
141
12.0
290
     0
  0
SCALE
  5
69
102
{ACAD_REACTORS
330
50
102
}
330
50
100
AcDbScale
 70
     0
300
1/4" = 1'-0"
140
0.25
141
12.0
290
     0
  0
SCALE
  5
6A
102
{ACAD_REACTORS
330
50
102
}
330
50
100
AcDbScale
 70
     0
300
3/8" = 1'-0"
140
0.375
141
12.0
290
     0
  0
SCALE
  5
6B
102
{ACAD_REACTORS
330
50
102
}
330
50
100
AcDbScale
 70
     0
300
1/2" = 1'-0"
140
0.5
141
12.0
290
     0
  0
SCALE
  5
6C
102
{ACAD_REACTORS
330
50
102
}
330
50
100
AcDbScale
 70
     0
300
3/4" = 1'-0"
140
0.75
141
12.0
290
     0
  0
SCALE
  5
6D
102
{ACAD_REACTORS
330
50
102
}
330
50
100
AcDbScale
 70
     0
300
1" = 1'-0"
140
1.0
141
12.0
290
     0
  0
SCALE
  5
6E
102
{ACAD_REACTORS
330
50
102
}
330
50
100
AcDbScale
 70
     0
300
1-1/2" = 1'-0"
140
1.5
141
12.0
290
     0
  0
SCALE
  5
6F
102
{ACAD_REACTORS
330
50
102
}
330
50
100
AcDbScale
 70
     0
300
3" = 1'-0"
140
3.0
141
12.0
290
     0
  0
SCALE
  5
70
102
{ACAD_REACTORS
330
50
102
}
330
50
100
AcDbScale
 70
     0
300
6" = 1'-0"
140
6.0
141
12.0
290
     0
  0
SCALE
  5
71
102
{ACAD_REACTORS
330
50
102
}
330
50
100
AcDbScale
 70
     0
300
1'-0" = 1'-0"
140
12.0
141
12.0
290
     0
  0
VISUALSTYLE
  5
2F
102
{ACAD_REACTORS
330
2A
102
}
102
{ACAD_XDICTIONARY
360
659
102
}
330
2A
100
AcDbVisualStyle
  2
2dWireframe
 70
     4
 71
     0
 72
     2
 73
     0
 90
        0
 40
-0.6
 41
-30.0
 62
     5
 63
     7
 74
     1
 91
        4
 64
     7
 65
   257
 75
     1
175
     1
 42
1.0
 92
        0
 66
   257
 43
1.0
 76
     1
 77
     6
 78
     2
 67
     7
 79
     5
170
     0
171
     0
290
     0
174
     0
 93
        1
 44
0.0
173
     0
291
     0
 45
0.0
1001
ACAD
1000
AcDbSavedByObjectVersion
1070
     0
  0
VISUALSTYLE
  5
31
102
{ACAD_REACTORS
330
2A
102
}
102
{ACAD_XDICTIONARY
360
65D
102
}
330
2A
100
AcDbVisualStyle
  2
3D Hidden
 70
     6
 71
     1
 72
     2
 73
     2
 90
        0
 40
-0.6
 41
-30.0
 62
     5
 63
     7
 74
     2
 91
        2
 64
     7
 65
   257
 75
     2
175
     1
 42
40.0
 92
        0
 66
   257
 43
1.0
 76
     1
 77
     6
 78
     2
 67
     7
 79
     3
170
     0
171
     0
290
     0
174
     0
 93
        1
 44
0.0
173
     0
291
     0
 45
0.0
1001
ACAD
1000
AcDbSavedByObjectVersion
1070
     0
  0
VISUALSTYLE
  5
30
102
{ACAD_REACTORS
330
2A
102
}
102
{ACAD_XDICTIONARY
360
65B
102
}
330
2A
100
AcDbVisualStyle
  2
3dWireframe
 70
     5
 71
     0
 72
     2
 73
     0
 90
        0
 40
-0.6
 41
-30.0
 62
     5
 63
     7
 74
     1
 91
        4
 64
     7
 65
   257
 75
     1
175
     1
 42
1.0
 92
        0
 66
   257
 43
1.0
 76
     1
 77
     6
 78
     2
 67
     7
 79
     5
170
     0
171
     0
290
     0
174
     0
 93
        1
 44
0.0
173
     0
291
     0
 45
0.0
1001
ACAD
1000
AcDbSavedByObjectVersion
1070
     0
  0
VISUALSTYLE
  5
32
102
{ACAD_REACTORS
330
2A
102
}
102
{ACAD_XDICTIONARY
360
65F
102
}
330
2A
100
AcDbVisualStyle
  2
Basic
 70
     7
 71
     1
 72
     0
 73
     1
 90
        0
 40
-0.6
 41
-30.0
 62
     5
 63
     7
 74
     0
 91
        4
 64
     7
 65
   257
 75
     1
175
     1
 42
1.0
 92
        8
 66
     7
 43
1.0
 76
     1
 77
     6
 78
     2
 67
     7
 79
     5
170
     0
171
     0
290
     0
174
     0
 93
        1
 44
0.0
173
     0
291
     1
 45
0.0
1001
ACAD
1000
AcDbSavedByObjectVersion
1070
     0
  0
VISUALSTYLE
  5
36
102
{ACAD_REACTORS
330
2A
102
}
102
{ACAD_XDICTIONARY
360
667
102
}
330
2A
100
AcDbVisualStyle
  2
Brighten
 70
    12
 71
     2
 72
     2
 73
     0
 90
        0
 40
-0.6
 41
-30.0
 62
     5
 63
     7
 74
     1
 91
        4
 64
     7
 65
   257
 75
     1
175
     1
 42
1.0
 92
        8
 66
     7
 43
1.0
 76
     1
 77
     6
 78
     2
 67
     7
 79
     5
170
     0
171
     0
290
     0
174
     0
 93
        1
 44
50.0
173
     0
291
     1
 45
0.0
1001
ACAD
1000
AcDbSavedByObjectVersion
1070
     0
  0
VISUALSTYLE
  5
3A
102
{ACAD_REACTORS
330
2A
102
}
102
{ACAD_XDICTIONARY
360
66F
102
}
330
2A
100
AcDbVisualStyle
  2
ColorChange
 70
    16
 71
     2
 72
     2
 73
     3
 90
        0
 40
-0.6
 41
-30.0
 62
     5
 63
     8
 74
     1
 91
        4
 64
     7
 65
   257
 75
     1
175
     1
 42
1.0
 92
        8
 66
     8
 43
1.0
 76
     1
 77
     6
 78
     2
 67
     7
 79
     5
170
     0
171
     0
290
     0
174
     0
 93
        1
 44
0.0
173
     0
291
     1
 45
0.0
1001
ACAD
1000
AcDbSavedByObjectVersion
1070
     0
  0
VISUALSTYLE
  5
34
102
{ACAD_REACTORS
330
2A
102
}
102
{ACAD_XDICTIONARY
360
663
102
}
330
2A
100
AcDbVisualStyle
  2
Conceptual
 70
     9
 71
     3
 72
     2
 73
     0
 90
        0
 40
-0.6
 41
-30.0
 62
     5
 63
     7
 74
     2
 91
        2
 64
     7
 65
   257
 75
     1
175
     1
 42
40.0
 92
        8
 66
     7
 43
1.0
 76
     1
 77
     6
 78
     2
 67
     7
 79
     3
170
     0
171
     0
290
     0
174
     0
 93
        1
 44
0.0
173
     0
291
     0
 45
0.0
1001
ACAD
1000
AcDbSavedByObjectVersion
1070
     0
  0
VISUALSTYLE
  5
35
102
{ACAD_REACTORS
330
2A
102
}
102
{ACAD_XDICTIONARY
360
665
102
}
330
2A
100
AcDbVisualStyle
  2
Dim
 70
    11
 71
     2
 72
     2
 73
     0
 90
        0
 40
-0.6
 41
-30.0
 62
     5
 63
     7
 74
     1
 91
        4
 64
     7
 65
   257
 75
     1
175
     1
 42
1.0
 92
        8
 66
     7
 43
1.0
 76
     1
 77
     6
 78
     2
 67
     7
 79
     5
170
     0
171
     0
290
     0
174
     0
 93
        1
 44
-50.0
173
     0
291
     1
 45
0.0
1001
ACAD
1000
AcDbSavedByObjectVersion
1070
     0
  0
VISUALSTYLE
  5
39
102
{ACAD_REACTORS
330
2A
102
}
102
{ACAD_XDICTIONARY
360
66D
102
}
330
2A
100
AcDbVisualStyle
  2
Facepattern
 70
    15
 71
     2
 72
     2
 73
     0
 90
        0
 40
-0.6
 41
-30.0
 62
     5
 63
     7
 74
     1
 91
        4
 64
     7
 65
   257
 75
     1
175
     1
 42
1.0
 92
        8
 66
     7
 43
1.0
 76
     1
 77
     6
 78
     2
 67
     7
 79
     5
170
     0
171
     0
290
     0
174
     0
 93
        1
 44
0.0
173
     0
291
     1
 45
0.0
1001
ACAD
1000
AcDbSavedByObjectVersion
1070
     0
  0
VISUALSTYLE
  5
2B
102
{ACAD_REACTORS
330
2A
102
}
102
{ACAD_XDICTIONARY
360
651
102
}
330
2A
100
AcDbVisualStyle
  2
Flat
 70
     0
 71
     2
 72
     1
 73
     1
 90
        2
 40
-0.6
 41
30.0
 62
     5
 63
     7
 74
     0
 91
        4
 64
     7
 65
   257
 75
     1
175
     1
 42
1.0
 92
        8
 66
     7
 43
1.0
 76
     1
 77
     6
 78
     2
 67
     7
 79
     5
170
     0
171
     0
290
     0
174
     0
 93
       13
 44
0.0
173
     0
291
     1
 45
0.0
1001
ACAD
1000
AcDbSavedByObjectVersion
1070
     0
  0
VISUALSTYLE
  5
2C
102
{ACAD_REACTORS
330
2A
102
}
102
{ACAD_XDICTIONARY
360
653
102
}
330
2A
100
AcDbVisualStyle
  2
FlatWithEdges
 70
     1
 71
     2
 72
     1
 73
     1
 90
        2
 40
-0.6
 41
30.0
 62
     5
 63
     7
 74
     1
 91
        4
 64
     7
 65
   257
 75
     1
175
     1
 42
1.0
 92
        0
 66
   257
 43
1.0
 76
     1
 77
     6
 78
     2
 67
     7
 79
     5
170
     0
171
     0
290
     0
174
     0
 93
       13
 44
0.0
173
     0
291
     1
 45
0.0
1001
ACAD
1000
AcDbSavedByObjectVersion
1070
     0
  0
VISUALSTYLE
  5
2D
102
{ACAD_REACTORS
330
2A
102
}
102
{ACAD_XDICTIONARY
360
655
102
}
330
2A
100
AcDbVisualStyle
  2
Gouraud
 70
     2
 71
     2
 72
     2
 73
     1
 90
        2
 40
-0.6
 41
30.0
 62
     5
 63
     7
 74
     0
 91
        4
 64
     7
 65
   257
 75
     1
175
     1
 42
1.0
 92
        0
 66
     7
 43
1.0
 76
     1
 77
     6
 78
     2
 67
     7
 79
     5
170
     0
171
     0
290
     0
174
     0
 93
       13
 44
0.0
173
     0
291
     1
 45
0.0
1001
ACAD
1000
AcDbSavedByObjectVersion
1070
     0
  0
VISUALSTYLE
  5
2E
102
{ACAD_REACTORS
330
2A
102
}
102
{ACAD_XDICTIONARY
360
657
102
}
330
2A
100
AcDbVisualStyle
  2
GouraudWithEdges
 70
     3
 71
     2
 72
     2
 73
     1
 90
        2
 40
-0.6
 41
30.0
 62
     5
 63
     7
 74
     1
 91
        4
 64
     7
 65
   257
 75
     1
175
     1
 42
1.0
 92
        0
 66
   257
 43
1.0
 76
     1
 77
     6
 78
     2
 67
     7
 79
     5
170
     0
171
     0
290
     0
174
     0
 93
       13
 44
0.0
173
     0
291
     1
 45
0.0
1001
ACAD
1000
AcDbSavedByObjectVersion
1070
     0
  0
VISUALSTYLE
  5
38
102
{ACAD_REACTORS
330
2A
102
}
102
{ACAD_XDICTIONARY
360
66B
102
}
330
2A
100
AcDbVisualStyle
  2
Linepattern
 70
    14
 71
     2
 72
     2
 73
     0
 90
        0
 40
-0.6
 41
-30.0
 62
     5
 63
     7
 74
     1
 91
        4
 64
     7
 65
   257
 75
     7
175
     7
 42
1.0
 92
        8
 66
     7
 43
1.0
 76
     1
 77
     6
 78
     2
 67
     7
 79
     5
170
     0
171
     0
290
     0
174
     0
 93
        1
 44
0.0
173
     0
291
     1
 45
0.0
1001
ACAD
1000
AcDbSavedByObjectVersion
1070
     0
  0
VISUALSTYLE
  5
33
102
{ACAD_REACTORS
330
2A
102
}
102
{ACAD_XDICTIONARY
360
661
102
}
330
2A
100
AcDbVisualStyle
  2
Realistic
 70
     8
 71
     2
 72
     2
 73
     0
 90
        0
 40
-0.6
 41
-30.0
 62
     5
 63
     7
 74
     1
 91
        0
 64
     7
 65
   257
 75
     1
175
     1
 42
1.0
 92
        8
 66
     8
 43
1.0
 76
     1
 77
     6
 78
     2
 67
     7
 79
     5
170
     0
171
     0
290
     0
174
     0
 93
       13
 44
0.0
173
     0
291
     0
 45
0.0
1001
ACAD
1000
AcDbSavedByObjectVersion
1070
     0
  0
VISUALSTYLE
  5
37
102
{ACAD_REACTORS
330
2A
102
}
102
{ACAD_XDICTIONARY
360
669
102
}
330
2A
100
AcDbVisualStyle
  2
Thicken
 70
    13
 71
     2
 72
     2
 73
     0
 90
        0
 40
-0.6
 41
-30.0
 62
     5
 63
     7
 74
     1
 91
        4
 64
     7
 65
   257
 75
     1
175
     1
 42
1.0
 92
       12
 66
     7
 43
1.0
 76
     1
 77
     6
 78
     2
 67
     7
 79
     5
170
     0
171
     0
290
     0
174
     0
 93
        1
 44
0.0
173
     0
291
     1
 45
0.0
1001
ACAD
1000
AcDbSavedByObjectVersion
1070
     0
  0
DICTIONARYVAR
  5
64E
102
{ACAD_REACTORS
330
64B
102
}
330
64B
100
DictionaryVariables
280
     0
  1
1:1
  0
DICTIONARYVAR
  5
64F
102
{ACAD_REACTORS
330
64B
102
}
330
64B
100
DictionaryVariables
280
     0
  1
2
  0
DICTIONARYVAR
  5
650
102
{ACAD_REACTORS
330
64B
102
}
330
64B
100
DictionaryVariables
280
     0
  1
1
  0
DICTIONARY
  5
659
330
2F
100
AcDbDictionary
280
     1
281
     1
  3
ACAD_XREC_ROUNDTRIP
360
65A
  0
DICTIONARY
  5
65D
330
31
100
AcDbDictionary
280
     1
281
     1
  3
ACAD_XREC_ROUNDTRIP
360
65E
  0
DICTIONARY
  5
65B
330
30
100
AcDbDictionary
280
     1
281
     1
  3
ACAD_XREC_ROUNDTRIP
360
65C
  0
DICTIONARY
  5
65F
330
32
100
AcDbDictionary
280
     1
281
     1
  3
ACAD_XREC_ROUNDTRIP
360
660
  0
DICTIONARY
  5
667
330
36
100
AcDbDictionary
280
     1
281
     1
  3
ACAD_XREC_ROUNDTRIP
360
668
  0
DICTIONARY
  5
66F
330
3A
100
AcDbDictionary
280
     1
281
     1
  3
ACAD_XREC_ROUNDTRIP
360
670
  0
DICTIONARY
  5
663
330
34
100
AcDbDictionary
280
     1
281
     1
  3
ACAD_XREC_ROUNDTRIP
360
664
  0
DICTIONARY
  5
665
330
35
100
AcDbDictionary
280
     1
281
     1
  3
ACAD_XREC_ROUNDTRIP
360
666
  0
DICTIONARY
  5
66D
330
39
100
AcDbDictionary
280
     1
281
     1
  3
ACAD_XREC_ROUNDTRIP
360
66E
  0
DICTIONARY
  5
651
330
2B
100
AcDbDictionary
280
     1
281
     1
  3
ACAD_XREC_ROUNDTRIP
360
652
  0
DICTIONARY
  5
653
330
2C
100
AcDbDictionary
280
     1
281
     1
  3
ACAD_XREC_ROUNDTRIP
360
654
  0
DICTIONARY
  5
655
330
2D
100
AcDbDictionary
280
     1
281
     1
  3
ACAD_XREC_ROUNDTRIP
360
656
  0
DICTIONARY
  5
657
330
2E
100
AcDbDictionary
280
     1
281
     1
  3
ACAD_XREC_ROUNDTRIP
360
658
  0
DICTIONARY
  5
66B
330
38
100
AcDbDictionary
280
     1
281
     1
  3
ACAD_XREC_ROUNDTRIP
360
66C
  0
DICTIONARY
  5
661
330
33
100
AcDbDictionary
280
     1
281
     1
  3
ACAD_XREC_ROUNDTRIP
360
662
  0
DICTIONARY
  5
669
330
37
100
AcDbDictionary
280
     1
281
     1
  3
ACAD_XREC_ROUNDTRIP
360
66A
  0
XRECORD
  5
65A
102
{ACAD_REACTORS
330
659
102
}
330
659
100
AcDbXrecord
280
     1
102
RTVSPropertyOp0
 70
     1
102
RTVSPropertyOp1
 70
     1
102
RTVSPropertyOp2
 70
     1
102
RTVSPropertyOp3
 70
     1
102
RTVSPropertyOp4
 70
     1
102
RTVSPropertyOp5
 70
     1
102
RTVSPropertyOp6
 70
     1
102
RTVSPropertyOp7
 70
     1
102
RTVSPropertyOp8
 70
     1
102
RTVSPropertyOp9
 70
     1
102
RTVSPropertyOp10
 70
     1
102
RTVSPropertyOp11
 70
     1
102
RTVSPropertyOp12
 70
     1
102
RTVSPropertyOp13
 70
     1
102
RTVSPropertyOp14
 70
     1
102
RTVSPropertyOp15
 70
     1
102
RTVSPropertyOp16
 70
     1
102
RTVSPropertyOp17
 70
     1
102
RTVSPropertyOp18
 70
     1
102
RTVSPropertyOp19
 70
     1
102
RTVSPropertyOp20
 70
     1
102
RTVSPropertyOp21
 70
     1
102
RTVSPropertyOp22
 70
     1
102
RTVSPropertyOp23
 70
     1
102
RTVSPropertyOp24
 70
     1
102
RTVSPropertyOp25
 70
     1
102
RTVSPropertyOp26
 70
     1
102
RTVSPropertyOp27
 70
     1
  0
XRECORD
  5
65E
102
{ACAD_REACTORS
330
65D
102
}
330
65D
100
AcDbXrecord
280
     1
102
RTVSPropertyOp0
 70
     1
102
RTVSPropertyOp1
 70
     1
102
RTVSPropertyOp2
 70
     1
102
RTVSPropertyOp3
 70
     1
102
RTVSPropertyOp4
 70
     1
102
RTVSPropertyOp5
 70
     1
102
RTVSPropertyOp6
 70
     1
102
RTVSPropertyOp7
 70
     1
102
RTVSPropertyOp8
 70
     1
102
RTVSPropertyOp9
 70
     1
102
RTVSPropertyOp10
 70
     1
102
RTVSPropertyOp11
 70
     1
102
RTVSPropertyOp12
 70
     1
102
RTVSPropertyOp13
 70
     1
102
RTVSPropertyOp14
 70
     1
102
RTVSPropertyOp15
 70
     1
102
RTVSPropertyOp16
 70
     1
102
RTVSPropertyOp17
 70
     1
102
RTVSPropertyOp18
 70
     1
102
RTVSPropertyOp19
 70
     1
102
RTVSPropertyOp20
 70
     1
102
RTVSPropertyOp21
 70
     1
102
RTVSPropertyOp22
 70
     1
102
RTVSPropertyOp23
 70
     1
102
RTVSPropertyOp24
 70
     1
102
RTVSPropertyOp25
 70
     1
102
RTVSPropertyOp26
 70
     1
102
RTVSPropertyOp27
 70
     1
  0
XRECORD
  5
65C
102
{ACAD_REACTORS
330
65B
102
}
330
65B
100
AcDbXrecord
280
     1
102
RTVSPropertyOp0
 70
     1
102
RTVSPropertyOp1
 70
     1
102
RTVSPropertyOp2
 70
     1
102
RTVSPropertyOp3
 70
     1
102
RTVSPropertyOp4
 70
     1
102
RTVSPropertyOp5
 70
     1
102
RTVSPropertyOp6
 70
     1
102
RTVSPropertyOp7
 70
     1
102
RTVSPropertyOp8
 70
     1
102
RTVSPropertyOp9
 70
     1
102
RTVSPropertyOp10
 70
     1
102
RTVSPropertyOp11
 70
     1
102
RTVSPropertyOp12
 70
     1
102
RTVSPropertyOp13
 70
     1
102
RTVSPropertyOp14
 70
     1
102
RTVSPropertyOp15
 70
     1
102
RTVSPropertyOp16
 70
     1
102
RTVSPropertyOp17
 70
     1
102
RTVSPropertyOp18
 70
     1
102
RTVSPropertyOp19
 70
     1
102
RTVSPropertyOp20
 70
     1
102
RTVSPropertyOp21
 70
     1
102
RTVSPropertyOp22
 70
     1
102
RTVSPropertyOp23
 70
     1
102
RTVSPropertyOp24
 70
     1
102
RTVSPropertyOp25
 70
     1
102
RTVSPropertyOp26
 70
     1
102
RTVSPropertyOp27
 70
     1
  0
XRECORD
  5
660
102
{ACAD_REACTORS
330
65F
102
}
330
65F
100
AcDbXrecord
280
     1
102
RTVSPropertyOp0
 70
     1
102
RTVSPropertyOp1
 70
     1
102
RTVSPropertyOp2
 70
     1
102
RTVSPropertyOp3
 70
     1
102
RTVSPropertyOp4
 70
     1
102
RTVSPropertyOp5
 70
     1
102
RTVSPropertyOp6
 70
     1
102
RTVSPropertyOp7
 70
     1
102
RTVSPropertyOp8
 70
     1
102
RTVSPropertyOp9
 70
     1
102
RTVSPropertyOp10
 70
     1
102
RTVSPropertyOp11
 70
     1
102
RTVSPropertyOp12
 70
     1
102
RTVSPropertyOp13
 70
     1
102
RTVSPropertyOp14
 70
     1
102
RTVSPropertyOp15
 70
     1
102
RTVSPropertyOp16
 70
     1
102
RTVSPropertyOp17
 70
     1
102
RTVSPropertyOp18
 70
     1
102
RTVSPropertyOp19
 70
     1
102
RTVSPropertyOp20
 70
     1
102
RTVSPropertyOp21
 70
     1
102
RTVSPropertyOp22
 70
     1
102
RTVSPropertyOp23
 70
     1
102
RTVSPropertyOp24
 70
     1
102
RTVSPropertyOp25
 70
     1
102
RTVSPropertyOp26
 70
     1
102
RTVSPropertyOp27
 70
     1
  0
XRECORD
  5
668
102
{ACAD_REACTORS
330
667
102
}
330
667
100
AcDbXrecord
280
     1
102
RTVSPropertyOp0
 70
     1
102
RTVSPropertyOp1
 70
     1
102
RTVSPropertyOp2
 70
     1
102
RTVSPropertyOp3
 70
     1
102
RTVSPropertyOp4
 70
     1
102
RTVSPropertyOp5
 70
     1
102
RTVSPropertyOp6
 70
     1
102
RTVSPropertyOp7
 70
     1
102
RTVSPropertyOp8
 70
     1
102
RTVSPropertyOp9
 70
     1
102
RTVSPropertyOp10
 70
     1
102
RTVSPropertyOp11
 70
     1
102
RTVSPropertyOp12
 70
     1
102
RTVSPropertyOp13
 70
     1
102
RTVSPropertyOp14
 70
     1
102
RTVSPropertyOp15
 70
     1
102
RTVSPropertyOp16
 70
     1
102
RTVSPropertyOp17
 70
     1
102
RTVSPropertyOp18
 70
     1
102
RTVSPropertyOp19
 70
     1
102
RTVSPropertyOp20
 70
     1
102
RTVSPropertyOp21
 70
     1
102
RTVSPropertyOp22
 70
     1
102
RTVSPropertyOp23
 70
     1
102
RTVSPropertyOp24
 70
     1
102
RTVSPropertyOp25
 70
     1
102
RTVSPropertyOp26
 70
     1
102
RTVSPropertyOp27
 70
     1
  0
XRECORD
  5
670
102
{ACAD_REACTORS
330
66F
102
}
330
66F
100
AcDbXrecord
280
     1
102
RTVSPropertyOp0
 70
     1
102
RTVSPropertyOp1
 70
     1
102
RTVSPropertyOp2
 70
     1
102
RTVSPropertyOp3
 70
     1
102
RTVSPropertyOp4
 70
     1
102
RTVSPropertyOp5
 70
     1
102
RTVSPropertyOp6
 70
     1
102
RTVSPropertyOp7
 70
     1
102
RTVSPropertyOp8
 70
     1
102
RTVSPropertyOp9
 70
     1
102
RTVSPropertyOp10
 70
     1
102
RTVSPropertyOp11
 70
     1
102
RTVSPropertyOp12
 70
     1
102
RTVSPropertyOp13
 70
     1
102
RTVSPropertyOp14
 70
     1
102
RTVSPropertyOp15
 70
     1
102
RTVSPropertyOp16
 70
     1
102
RTVSPropertyOp17
 70
     1
102
RTVSPropertyOp18
 70
     1
102
RTVSPropertyOp19
 70
     1
102
RTVSPropertyOp20
 70
     1
102
RTVSPropertyOp21
 70
     1
102
RTVSPropertyOp22
 70
     1
102
RTVSPropertyOp23
 70
     1
102
RTVSPropertyOp24
 70
     1
102
RTVSPropertyOp25
 70
     1
102
RTVSPropertyOp26
 70
     1
102
RTVSPropertyOp27
 70
     1
  0
XRECORD
  5
664
102
{ACAD_REACTORS
330
663
102
}
330
663
100
AcDbXrecord
280
     1
102
RTVSPropertyOp0
 70
     1
102
RTVSPropertyOp1
 70
     1
102
RTVSPropertyOp2
 70
     1
102
RTVSPropertyOp3
 70
     1
102
RTVSPropertyOp4
 70
     1
102
RTVSPropertyOp5
 70
     1
102
RTVSPropertyOp6
 70
     1
102
RTVSPropertyOp7
 70
     1
102
RTVSPropertyOp8
 70
     1
102
RTVSPropertyOp9
 70
     1
102
RTVSPropertyOp10
 70
     1
102
RTVSPropertyOp11
 70
     1
102
RTVSPropertyOp12
 70
     1
102
RTVSPropertyOp13
 70
     1
102
RTVSPropertyOp14
 70
     1
102
RTVSPropertyOp15
 70
     1
102
RTVSPropertyOp16
 70
     1
102
RTVSPropertyOp17
 70
     1
102
RTVSPropertyOp18
 70
     1
102
RTVSPropertyOp19
 70
     1
102
RTVSPropertyOp20
 70
     1
102
RTVSPropertyOp21
 70
     1
102
RTVSPropertyOp22
 70
     1
102
RTVSPropertyOp23
 70
     1
102
RTVSPropertyOp24
 70
     1
102
RTVSPropertyOp25
 70
     1
102
RTVSPropertyOp26
 70
     1
102
RTVSPropertyOp27
 70
     1
  0
XRECORD
  5
666
102
{ACAD_REACTORS
330
665
102
}
330
665
100
AcDbXrecord
280
     1
102
RTVSPropertyOp0
 70
     1
102
RTVSPropertyOp1
 70
     1
102
RTVSPropertyOp2
 70
     1
102
RTVSPropertyOp3
 70
     1
102
RTVSPropertyOp4
 70
     1
102
RTVSPropertyOp5
 70
     1
102
RTVSPropertyOp6
 70
     1
102
RTVSPropertyOp7
 70
     1
102
RTVSPropertyOp8
 70
     1
102
RTVSPropertyOp9
 70
     1
102
RTVSPropertyOp10
 70
     1
102
RTVSPropertyOp11
 70
     1
102
RTVSPropertyOp12
 70
     1
102
RTVSPropertyOp13
 70
     1
102
RTVSPropertyOp14
 70
     1
102
RTVSPropertyOp15
 70
     1
102
RTVSPropertyOp16
 70
     1
102
RTVSPropertyOp17
 70
     1
102
RTVSPropertyOp18
 70
     1
102
RTVSPropertyOp19
 70
     1
102
RTVSPropertyOp20
 70
     1
102
RTVSPropertyOp21
 70
     1
102
RTVSPropertyOp22
 70
     1
102
RTVSPropertyOp23
 70
     1
102
RTVSPropertyOp24
 70
     1
102
RTVSPropertyOp25
 70
     1
102
RTVSPropertyOp26
 70
     1
102
RTVSPropertyOp27
 70
     1
  0
XRECORD
  5
66E
102
{ACAD_REACTORS
330
66D
102
}
330
66D
100
AcDbXrecord
280
     1
102
RTVSPropertyOp0
 70
     1
102
RTVSPropertyOp1
 70
     1
102
RTVSPropertyOp2
 70
     1
102
RTVSPropertyOp3
 70
     1
102
RTVSPropertyOp4
 70
     1
102
RTVSPropertyOp5
 70
     1
102
RTVSPropertyOp6
 70
     1
102
RTVSPropertyOp7
 70
     1
102
RTVSPropertyOp8
 70
     1
102
RTVSPropertyOp9
 70
     1
102
RTVSPropertyOp10
 70
     1
102
RTVSPropertyOp11
 70
     1
102
RTVSPropertyOp12
 70
     1
102
RTVSPropertyOp13
 70
     1
102
RTVSPropertyOp14
 70
     1
102
RTVSPropertyOp15
 70
     1
102
RTVSPropertyOp16
 70
     1
102
RTVSPropertyOp17
 70
     1
102
RTVSPropertyOp18
 70
     1
102
RTVSPropertyOp19
 70
     1
102
RTVSPropertyOp20
 70
     1
102
RTVSPropertyOp21
 70
     1
102
RTVSPropertyOp22
 70
     1
102
RTVSPropertyOp23
 70
     1
102
RTVSPropertyOp24
 70
     1
102
RTVSPropertyOp25
 70
     1
102
RTVSPropertyOp26
 70
     1
102
RTVSPropertyOp27
 70
     1
  0
XRECORD
  5
652
102
{ACAD_REACTORS
330
651
102
}
330
651
100
AcDbXrecord
280
     1
102
RTVSPropertyOp0
 70
     1
102
RTVSPropertyOp1
 70
     1
102
RTVSPropertyOp2
 70
     1
102
RTVSPropertyOp3
 70
     1
102
RTVSPropertyOp4
 70
     1
102
RTVSPropertyOp5
 70
     1
102
RTVSPropertyOp6
 70
     1
102
RTVSPropertyOp7
 70
     1
102
RTVSPropertyOp8
 70
     1
102
RTVSPropertyOp9
 70
     1
102
RTVSPropertyOp10
 70
     1
102
RTVSPropertyOp11
 70
     1
102
RTVSPropertyOp12
 70
     1
102
RTVSPropertyOp13
 70
     1
102
RTVSPropertyOp14
 70
     1
102
RTVSPropertyOp15
 70
     1
102
RTVSPropertyOp16
 70
     1
102
RTVSPropertyOp17
 70
     1
102
RTVSPropertyOp18
 70
     1
102
RTVSPropertyOp19
 70
     1
102
RTVSPropertyOp20
 70
     1
102
RTVSPropertyOp21
 70
     1
102
RTVSPropertyOp22
 70
     1
102
RTVSPropertyOp23
 70
     1
102
RTVSPropertyOp24
 70
     1
102
RTVSPropertyOp25
 70
     1
102
RTVSPropertyOp26
 70
     1
102
RTVSPropertyOp27
 70
     1
  0
XRECORD
  5
654
102
{ACAD_REACTORS
330
653
102
}
330
653
100
AcDbXrecord
280
     1
102
RTVSPropertyOp0
 70
     1
102
RTVSPropertyOp1
 70
     1
102
RTVSPropertyOp2
 70
     1
102
RTVSPropertyOp3
 70
     1
102
RTVSPropertyOp4
 70
     1
102
RTVSPropertyOp5
 70
     1
102
RTVSPropertyOp6
 70
     1
102
RTVSPropertyOp7
 70
     1
102
RTVSPropertyOp8
 70
     1
102
RTVSPropertyOp9
 70
     1
102
RTVSPropertyOp10
 70
     1
102
RTVSPropertyOp11
 70
     1
102
RTVSPropertyOp12
 70
     1
102
RTVSPropertyOp13
 70
     1
102
RTVSPropertyOp14
 70
     1
102
RTVSPropertyOp15
 70
     1
102
RTVSPropertyOp16
 70
     1
102
RTVSPropertyOp17
 70
     1
102
RTVSPropertyOp18
 70
     1
102
RTVSPropertyOp19
 70
     1
102
RTVSPropertyOp20
 70
     1
102
RTVSPropertyOp21
 70
     1
102
RTVSPropertyOp22
 70
     1
102
RTVSPropertyOp23
 70
     1
102
RTVSPropertyOp24
 70
     1
102
RTVSPropertyOp25
 70
     1
102
RTVSPropertyOp26
 70
     1
102
RTVSPropertyOp27
 70
     1
  0
XRECORD
  5
656
102
{ACAD_REACTORS
330
655
102
}
330
655
100
AcDbXrecord
280
     1
102
RTVSPropertyOp0
 70
     1
102
RTVSPropertyOp1
 70
     1
102
RTVSPropertyOp2
 70
     1
102
RTVSPropertyOp3
 70
     1
102
RTVSPropertyOp4
 70
     1
102
RTVSPropertyOp5
 70
     1
102
RTVSPropertyOp6
 70
     1
102
RTVSPropertyOp7
 70
     1
102
RTVSPropertyOp8
 70
     1
102
RTVSPropertyOp9
 70
     1
102
RTVSPropertyOp10
 70
     1
102
RTVSPropertyOp11
 70
     1
102
RTVSPropertyOp12
 70
     1
102
RTVSPropertyOp13
 70
     1
102
RTVSPropertyOp14
 70
     1
102
RTVSPropertyOp15
 70
     1
102
RTVSPropertyOp16
 70
     1
102
RTVSPropertyOp17
 70
     1
102
RTVSPropertyOp18
 70
     1
102
RTVSPropertyOp19
 70
     1
102
RTVSPropertyOp20
 70
     1
102
RTVSPropertyOp21
 70
     1
102
RTVSPropertyOp22
 70
     1
102
RTVSPropertyOp23
 70
     1
102
RTVSPropertyOp24
 70
     1
102
RTVSPropertyOp25
 70
     1
102
RTVSPropertyOp26
 70
     1
102
RTVSPropertyOp27
 70
     1
  0
XRECORD
  5
658
102
{ACAD_REACTORS
330
657
102
}
330
657
100
AcDbXrecord
280
     1
102
RTVSPropertyOp0
 70
     1
102
RTVSPropertyOp1
 70
     1
102
RTVSPropertyOp2
 70
     1
102
RTVSPropertyOp3
 70
     1
102
RTVSPropertyOp4
 70
     1
102
RTVSPropertyOp5
 70
     1
102
RTVSPropertyOp6
 70
     1
102
RTVSPropertyOp7
 70
     1
102
RTVSPropertyOp8
 70
     1
102
RTVSPropertyOp9
 70
     1
102
RTVSPropertyOp10
 70
     1
102
RTVSPropertyOp11
 70
     1
102
RTVSPropertyOp12
 70
     1
102
RTVSPropertyOp13
 70
     1
102
RTVSPropertyOp14
 70
     1
102
RTVSPropertyOp15
 70
     1
102
RTVSPropertyOp16
 70
     1
102
RTVSPropertyOp17
 70
     1
102
RTVSPropertyOp18
 70
     1
102
RTVSPropertyOp19
 70
     1
102
RTVSPropertyOp20
 70
     1
102
RTVSPropertyOp21
 70
     1
102
RTVSPropertyOp22
 70
     1
102
RTVSPropertyOp23
 70
     1
102
RTVSPropertyOp24
 70
     1
102
RTVSPropertyOp25
 70
     1
102
RTVSPropertyOp26
 70
     1
102
RTVSPropertyOp27
 70
     1
  0
XRECORD
  5
66C
102
{ACAD_REACTORS
330
66B
102
}
330
66B
100
AcDbXrecord
280
     1
102
RTVSPropertyOp0
 70
     1
102
RTVSPropertyOp1
 70
     1
102
RTVSPropertyOp2
 70
     1
102
RTVSPropertyOp3
 70
     1
102
RTVSPropertyOp4
 70
     1
102
RTVSPropertyOp5
 70
     1
102
RTVSPropertyOp6
 70
     1
102
RTVSPropertyOp7
 70
     1
102
RTVSPropertyOp8
 70
     1
102
RTVSPropertyOp9
 70
     1
102
RTVSPropertyOp10
 70
     1
102
RTVSPropertyOp11
 70
     1
102
RTVSPropertyOp12
 70
     1
102
RTVSPropertyOp13
 70
     1
102
RTVSPropertyOp14
 70
     1
102
RTVSPropertyOp15
 70
     1
102
RTVSPropertyOp16
 70
     1
102
RTVSPropertyOp17
 70
     1
102
RTVSPropertyOp18
 70
     1
102
RTVSPropertyOp19
 70
     1
102
RTVSPropertyOp20
 70
     1
102
RTVSPropertyOp21
 70
     1
102
RTVSPropertyOp22
 70
     1
102
RTVSPropertyOp23
 70
     1
102
RTVSPropertyOp24
 70
     1
102
RTVSPropertyOp25
 70
     1
102
RTVSPropertyOp26
 70
     1
102
RTVSPropertyOp27
 70
     1
  0
XRECORD
  5
662
102
{ACAD_REACTORS
330
661
102
}
330
661
100
AcDbXrecord
280
     1
102
RTVSPropertyOp0
 70
     1
102
RTVSPropertyOp1
 70
     1
102
RTVSPropertyOp2
 70
     1
102
RTVSPropertyOp3
 70
     1
102
RTVSPropertyOp4
 70
     1
102
RTVSPropertyOp5
 70
     1
102
RTVSPropertyOp6
 70
     1
102
RTVSPropertyOp7
 70
     1
102
RTVSPropertyOp8
 70
     1
102
RTVSPropertyOp9
 70
     1
102
RTVSPropertyOp10
 70
     1
102
RTVSPropertyOp11
 70
     1
102
RTVSPropertyOp12
 70
     1
102
RTVSPropertyOp13
 70
     1
102
RTVSPropertyOp14
 70
     1
102
RTVSPropertyOp15
 70
     1
102
RTVSPropertyOp16
 70
     1
102
RTVSPropertyOp17
 70
     1
102
RTVSPropertyOp18
 70
     1
102
RTVSPropertyOp19
 70
     1
102
RTVSPropertyOp20
 70
     1
102
RTVSPropertyOp21
 70
     1
102
RTVSPropertyOp22
 70
     1
102
RTVSPropertyOp23
 70
     1
102
RTVSPropertyOp24
 70
     1
102
RTVSPropertyOp25
 70
     1
102
RTVSPropertyOp26
 70
     1
102
RTVSPropertyOp27
 70
     1
  0
XRECORD
  5
66A
102
{ACAD_REACTORS
330
669
102
}
330
669
100
AcDbXrecord
280
     1
102
RTVSPropertyOp0
 70
     1
102
RTVSPropertyOp1
 70
     1
102
RTVSPropertyOp2
 70
     1
102
RTVSPropertyOp3
 70
     1
102
RTVSPropertyOp4
 70
     1
102
RTVSPropertyOp5
 70
     1
102
RTVSPropertyOp6
 70
     1
102
RTVSPropertyOp7
 70
     1
102
RTVSPropertyOp8
 70
     1
102
RTVSPropertyOp9
 70
     1
102
RTVSPropertyOp10
 70
     1
102
RTVSPropertyOp11
 70
     1
102
RTVSPropertyOp12
 70
     1
102
RTVSPropertyOp13
 70
     1
102
RTVSPropertyOp14
 70
     1
102
RTVSPropertyOp15
 70
     1
102
RTVSPropertyOp16
 70
     1
102
RTVSPropertyOp17
 70
     1
102
RTVSPropertyOp18
 70
     1
102
RTVSPropertyOp19
 70
     1
102
RTVSPropertyOp20
 70
     1
102
RTVSPropertyOp21
 70
     1
102
RTVSPropertyOp22
 70
     1
102
RTVSPropertyOp23
 70
     1
102
RTVSPropertyOp24
 70
     1
102
RTVSPropertyOp25
 70
     1
102
RTVSPropertyOp26
 70
     1
102
RTVSPropertyOp27
 70
     1
  0
ENDSEC
  0
EOF
