  0
SECTION
  2
HEADER
  9
$ACADVER
  1
AC1009
  9
$INSBASE
 10
0
 20
0
 30
0
  9
$EXTMIN
 10
0
 20
0
  9
$EXTMAX
 10
420
 20
297
  9
$LIMMIN
 10
0
 20
0
  9
$LIMMAX
 10
420
 20
297
  9
$LTSCALE
 40
1
  0
ENDSEC
  0
SECTION
  2
TABLES
  0
TABLE
  2
LTYPE
 70
     9
  0
LTYPE
  2
CONTINUOUS
 70
    64
  3
実線
 72
    65
 73
     0
 40
0.0
  0
LTYPE
  2
DASHED1
 70
    64
  3
--  --  --  --  --  --  --  --  
 72
    65
 73
     2
 40
2.5
 49
1.25
 49
-1.25
  0
LTYPE
  2
DASHED2
 70
    64
  3
----    ----    ----    ----    
 72
    65
 73
     2
 40
5.0
 49
2.5
 49
-2.5
  0
LTYPE
  2
DASHED3
 70
    64
  3
------  ------  ------  ------  
 72
    65
 73
     2
 40
5.0
 49
3.75
 49
-1.25
  0
LTYPE
  2
CENTER1
 70
    64
  3
----- - ----- - ----- - ----- - 
 72
    65
 73
     4
 40
10.0
 49
6.25
 49
-1.25
 49
1.25
 49
-1.25
  0
LTYPE
  2
CENTER2
 70
    64
  3
----------  --  ----------  --  
 72
    65
 73
     4
 40
20.0
 49
12.5
 49
-2.5
 49
2.5
 49
-2.5
  0
LTYPE
  2
PHANTOM1
 70
    64
  3
--- - - --- - - --- - - --- - - 
 72
    65
 73
     6
 40
10.0
 49
3.25
 49
-1.25
 49
1.25
 49
-1.25
 49
1.25
 49
-1.25
  0
LTYPE
  2
PHANTOM2
 70
    64
  3
--------  -  -  --------  -  -  
 72
    65
 73
     6
 40
20.0
 49
10.0
 49
-2.5
 49
1.25
 49
-2.5
 49
1.25
 49
-2.5
  0
LTYPE
  2
DOT
 70
    64
  3
-   -   -   -   -   -   -   -   
 72
    65
 73
     2
 40
2.5
 49
0.625
 49
-1.875
  0
LTYPE
  2
DUMMY
 70
    64
  3
ダミー
 72
    65
 73
     0
 40
0.0
  0
LTYPE
  2
RAND1
 70
    64
  3
ランダム線1
 72
    65
 73
     4
 40
10.0
 49
1.0
 49
-2.0
 49
3.0
 49
-4.0
  0
LTYPE
  2
RAND2
 70
    64
  3
ランダム線2
 72
    65
 73
     4
 40
14.0
 49
2.0
 49
-3.0
 49
4.0
 49
-5.0
  0
LTYPE
  2
RAND3
 70
    64
  3
ランダム線3
 72
    65
 73
     4
 40
18.0
 49
3.0
 49
-4.0
 49
5.0
 49
-6.0
  0
LTYPE
  2
RAND4
 70
    64
  3
ランダム線4
 72
    65
 73
     4
 40
22.0
 49
4.0
 49
-5.0
 49
6.0
 49
-7.0
  0
LTYPE
  2
RAND5
 70
    64
  3
ランダム線5
 72
    65
 73
     4
 40
26.0
 49
5.0
 49
-6.0
 49
7.0
 49
-8.0
  0
LTYPE
  2
LONG1
 70
    64
  3
----------  --  ----------  --  
 72
    65
 73
     4
 40
40.0
 49
32.5
 49
-2.5
 49
2.5
 49
-2.5
  0
LTYPE
  2
LONG2
 70
    64
  3
--------  -  -  --------  -  -  
 72
    65
 73
     6
 40
40.0
 49
30.0
 49
-2.5
 49
1.25
 49
-2.5
 49
1.25
 49
-2.5
  0
LTYPE
  2
LONG3
 70
    64
  3
+++++++++++++++..+++++++++++++++
 72
    65
 73
     2
 40
40.0
 49
37.5
 49
-2.5
  0
LTYPE
  2
LONG4
 70
    64
  3
+++++++++++++++..+++++++++++++++
 72
    65
 73
     2
 40
80.0
 49
75.0
 49
-5.0
  0
LTYPE
  2
LONG5
 70
    64
  3
----------  --  ----------  --  
 72
    65
 73
     4
 40
60.0
 49
37.5
 49
-7.5
 49
7.5
 49
-7.5
  0
LTYPE
  2
dashed
 70
   64
  3
-------   -------------   ------
 72
   65
 73
    2
 40
7.5
 49
6
 49
-1.5
  0
LTYPE
  2
dashed_spaced
 70
   64
  3
----        --------        ----
 72
   65
 73
    2
 40
12
 49
6
 49
-6
  0
LTYPE
  2
long_dashed_dotted
 70
   64
  3
------------- --- --------------
 72
   65
 73
    4
 40
15.25
 49
12
 49
-1.5
 49
0.25
 49
-1.5
  0
LTYPE
  2
long_dashed_double-dotted
 70
   64
  3
----------- --- --- ------------
 72
   65
 73
    6
 40
17
 49
12
 49
-1.5
 49
0.25
 49
-1.5
 49
0.25
 49
-1.5
  0
LTYPE
  2
long_dashed_triplicate-dotted
 70
   64
  3
--------- --- --- --- ----------
 72
   65
 73
    8
 40
18.75
 49
12
 49
-1.5
 49
0.25
 49
-1.5
 49
0.25
 49
-1.5
 49
0.25
 49
-1.5
  0
LTYPE
  2
dotted
 70
   64
  3
   -       -       -       -    
 72
   65
 73
    2
 40
1.75
 49
0.25
 49
-1.5
  0
LTYPE
  2
chain
 70
   64
  3
-------------- -- --------------
 72
   65
 73
    4
 40
18.5
 49
12
 49
-1.5
 49
3.5
 49
-1.5
  0
LTYPE
  2
chain_double_dash
 70
   64
  3
------------ -- -- -------------
 72
   65
 73
    6
 40
23.5
 49
12
 49
-1.5
 49
3.5
 49
-1.5
 49
3.5
 49
-1.5
  0
LTYPE
  2
dashed_dotted
 70
   64
  3
-----------     -     ----------
 72
   65
 73
    4
 40
9.25
 49
6
 49
-1.5
 49
0.25
 49
-1.5
  0
LTYPE
  2
double-dashed_dotted
 70
   64
  3
------   -----------   -   -----
 72
   65
 73
    6
 40
16.75
 49
6
 49
-1.5
 49
6
 49
-1.5
 49
0.25
 49
-1.5
  0
LTYPE
  2
dashed_double-dotted
 70
   64
  3
---------    -    -    ---------
 72
   65
 73
    6
 40
11
 49
6
 49
-1.5
 49
0.25
 49
-1.5
 49
0.25
 49
-1.5
  0
LTYPE
  2
double-dashed_double-dotted
 70
   64
  3
-----   ---------   -   -   ----
 72
   65
 73
    8
 40
18.5
 49
6
 49
-1.5
 49
6
 49
-1.5
 49
0.25
 49
-1.5
 49
0.25
 49
-1.5
  0
LTYPE
  2
dashed_triplicate-dotted
 70
   64
  3
-------    -    -    -    ------
 72
   65
 73
    8
 40
12.75
 49
6
 49
-1.5
 49
0.25
 49
-1.5
 49
0.25
 49
-1.5
 49
0.25
 49
-1.5
  0
LTYPE
  2
double-dashed_triplicate-dotted
 70
   64
  3
-----  ---------  -  -  -  -----
 72
   65
 73
   10
 40
20.25
 49
6
 49
-1.5
 49
6
 49
-1.5
 49
0.25
 49
-1.5
 49
0.25
 49
-1.5
 49
0.25
 49
-1.5
  0
LTYPE
  2
undefined
 70
   64
  3
--------------------------------
 72
   65
 73
    0
 40
0
  0
LTYPE
  2
PLINE2
 70
   64
  3
------     -----------     -----
 72
   65
 73
    2
 40
3
 49
2.1000000000000001
 49
-0.9
  0
LTYPE
  2
PLINE3
 70
   64
  3
------------   ---   -----------
 72
   65
 73
    4
 40
10
 49
7
 49
-1
 49
1
 49
-1
  0
LTYPE
  2
PLINE4
 70
   64
  3
---------   ---   ---   --------
 72
   65
 73
    6
 40
10
 49
5
 49
-1
 49
1
 49
-1
 49
1
 49
-1
  0
LTYPE
  2
PLINE5
 70
   64
  3
------     -----------     -----
 72
   65
 73
    2
 40
5
 49
3.5
 49
-1.5
  0
LTYPE
  2
PLINE6
 70
   64
  3
------------   ---   -----------
 72
   65
 73
    4
 40
15
 49
10.5
 49
-1.5
 49
1.5
 49
-1.5
  0
LTYPE
  2
PLINE7
 70
   64
  3
---------   ---   ---   --------
 72
   65
 73
    6
 40
15
 49
7.5
 49
-1.5
 49
1.5
 49
-1.5
 49
1.5
 49
-1.5
  0
LTYPE
  2
PLINE8
 70
   64
  3
------     -----------     -----
 72
   65
 73
    2
 40
7
 49
4.9000000000000004
 49
-2.1000000000000001
  0
LTYPE
  2
PLINE9
 70
   64
  3
------------   ---   -----------
 72
   65
 73
    4
 40
20
 49
14
 49
-2
 49
2
 49
-2
  0
LTYPE
  2
PLINE10
 70
   64
  3
---------   ---   ---   --------
 72
   65
 73
    6
 40
20
 49
10
 49
-2
 49
2
 49
-2
 49
2
 49
-2
  0
LTYPE
  2
PLINE11
 70
   64
  3
------     -----------     -----
 72
   65
 73
    2
 40
9
 49
6.2999999999999989
 49
-2.7000000000000002
  0
LTYPE
  2
PLINE12
 70
   64
  3
------------   ---   -----------
 72
   65
 73
    4
 40
25
 49
17.5
 49
-2.5
 49
2.5
 49
-2.5
  0
LTYPE
  2
PLINE13
 70
   64
  3
---------   ---   ---   --------
 72
   65
 73
    6
 40
25
 49
12.5
 49
-2.5
 49
2.5
 49
-2.5
 49
2.5
 49
-2.5
  0
LTYPE
  2
PLINE14
 70
   64
  3
------     -----------     -----
 72
   65
 73
    2
 40
11
 49
7.7000000000000002
 49
-3.2999999999999989
  0
LTYPE
  2
PLINE15
 70
   64
  3
------------   ---   -----------
 72
   65
 73
    4
 40
30
 49
21
 49
-3
 49
3
 49
-3
  0
LTYPE
  2
PLINE16
 70
   64
  3
---------   ---   ---   --------
 72
   65
 73
    6
 40
30
 49
15
 49
-3
 49
3
 49
-3
 49
3
 49
-3
  0
ENDTAB
  0
TABLE
  2
STYLE
  5
3
100
AcDbSymbolTable
 70
     1
  0
STYLE
  5
10
100
AcDbSymbolTableRecord
100
AcDbTextStyleTableRecord
  2
STANDARD
 70
     0
 40
0.0
 41
1.0
 50
0.0
 71
     0
 42
0.2
  3
txt
  4
bigfont.shx
  0
STYLE
  5
26
100
AcDbSymbolTableRecord
100
AcDbTextStyleTableRecord
  2
TATEGAKI
 70
    68
 40
0.0
 41
1.0
 50
0.0
 71
     0
 42
1.0
  3
txt
  4
bigfont.shx
  0
ENDTAB
  0
TABLE
  2
LAYER
 70
    4
  0
LAYER
  2
_0-2_寸法
 70
   64
 62
    7
  6
CONTINUOUS
  0
LAYER
  2
_0-3_躯体と製品
 70
   64
 62
    7
  6
CONTINUOUS
  0
LAYER
  2
_0-4_図面枠
 70
   64
 62
    7
  6
CONTINUOUS
  0
LAYER
  2
ADD_LINE
 70
   64
 62
    7
  6
CONTINUOUS
  0
ENDTAB
  0
ENDSEC
  0
SECTION
  2
BLOCKS
  0
BLOCK
  2
-000-_Dot
 70
   64
 10
0
 20
0
 30
0
  0
CIRCLE
  8
_0-0_0
  6
CONTINUOUS
 62
    7
 10
0
 20
0
 40
0.05
  0
LINE
  8
_0-0_0
  6
CONTINUOUS
 62
    7
 10
0.05
 20
0
 11
-0.05
 21
0
  0
LINE
  8
_0-0_0
  6
CONTINUOUS
 62
    7
 10
-0.1
 20
0
 11
-0.2
 21
0
  0
ENDBLK
  0
BLOCK
  2
-001-_D4
 70
   64
 10
0
 20
0
 30
0
  0
LINE
  8
_0-2_寸法
  6
CONTINUOUS
 62
    4
 10
456.71090015556456
 20
165.45215872785721
 11
209.69919478810101
 21
165.45215872785727
  0
LINE
  8
_0-2_寸法
  6
CONTINUOUS
 62
    4
 10
230.71720678810101
 20
14.197109127857209
 11
209.69919478810101
 21
14.197109127857214
  0
LINE
  8
_0-2_寸法
  6
CONTINUOUS
 62
    4
 10
209.69919478810101
 20
165.25215872785728
 11
209.69919478810101
 21
14.397109127857215
  0
INSERT
  2
-000-_Dot
  8
_0-2_寸法
 10
209.69919478810101
 20
165.45215872785727
 41
1
 42
1
 50
90
  0
INSERT
  2
-000-_Dot
  8
_0-2_寸法
 10
209.69919478810101
 20
14.197109127857214
 41
1
 42
1
 50
270
  0
TEXT
  8
_0-2_寸法
 62
    7
 10
209.53919478810099
 20
85.824633927857278
 40
4
 41
1
 50
90
  1
高さ
  0
POINT
  8
_0-1_Defpoints
 62
    7
 10
456.71090015556456
 20
165.45215872785721
  0
POINT
  8
_0-1_Defpoints
 62
    7
 10
230.71720678810101
 20
14.197109127857209
  0
POINT
  8
_0-1_Defpoints
 62
    7
 10
209.69919478810101
 20
14.197109127857214
  0
ENDBLK
  0
BLOCK
  2
-002-_D5
 70
   64
 10
0
 20
0
 30
0
  0
LINE
  8
_0-2_寸法
  6
CONTINUOUS
 62
    4
 10
233.421353988101
 20
16.511130327857209
 11
233.421353988101
 21
56.419798527857196
  0
LINE
  8
_0-2_寸法
  6
CONTINUOUS
 62
    4
 10
241.421353988101
 20
15.197109127857209
 11
241.421353988101
 21
56.419798527857196
  0
LINE
  8
_0-2_寸法
  6
CONTINUOUS
 62
    4
 10
233.62135398810102
 20
56.419798527857196
 11
241.22135398810101
 21
56.419798527857196
  0
INSERT
  2
-000-_Dot
  8
_0-2_寸法
 10
233.421353988101
 20
56.419798527857196
 41
1
 42
1
 50
180
  0
INSERT
  2
-000-_Dot
  8
_0-2_寸法
 10
241.421353988101
 20
56.419798527857196
 41
1
 42
1
 50
0
  0
TEXT
  8
_0-2_寸法
 62
    7
 10
235.421353988101
 20
56.5797985278572
 40
4
 41
1
 50
0
  1
40
  0
POINT
  8
_0-1_Defpoints
 62
    7
 10
233.421353988101
 20
16.511130327857209
  0
POINT
  8
_0-1_Defpoints
 62
    7
 10
241.421353988101
 20
15.197109127857209
  0
POINT
  8
_0-1_Defpoints
 62
    7
 10
241.421353988101
 20
56.419798527857196
  0
ENDBLK
  0
BLOCK
  2
-003-_D6
 70
   64
 10
0
 20
0
 30
0
  0
LINE
  8
_0-2_寸法
  6
CONTINUOUS
 62
    4
 10
241.421353988101
 20
15.197109127857209
 11
241.421353988101
 21
56.419798527857196
  0
LINE
  8
_0-2_寸法
  6
CONTINUOUS
 62
    4
 10
269.42135398810103
 20
18.251850927857209
 11
269.42135398810103
 21
56.419798527857196
  0
LINE
  8
_0-2_寸法
  6
CONTINUOUS
 62
    4
 10
241.62135398810102
 20
56.419798527857196
 11
269.22135398810099
 21
56.419798527857196
  0
INSERT
  2
-000-_Dot
  8
_0-2_寸法
 10
241.421353988101
 20
56.419798527857196
 41
1
 42
1
 50
180
  0
INSERT
  2
-000-_Dot
  8
_0-2_寸法
 10
269.42135398810103
 20
56.419798527857196
 41
1
 42
1
 50
0
  0
TEXT
  8
_0-2_寸法
 62
    7
 10
252.421353988101
 20
56.5797985278572
 40
4
 41
1
 50
0
  1
140
  0
POINT
  8
_0-1_Defpoints
 62
    7
 10
241.421353988101
 20
15.197109127857209
  0
POINT
  8
_0-1_Defpoints
 62
    7
 10
269.42135398810103
 20
18.251850927857209
  0
POINT
  8
_0-1_Defpoints
 62
    7
 10
269.42135398810103
 20
56.419798527857196
  0
ENDBLK
  0
BLOCK
  2
-004-_D7
 70
   64
 10
0
 20
0
 30
0
  0
LINE
  8
_0-2_寸法
  6
CONTINUOUS
 62
    4
 10
241.421353988101
 20
47.10917782762408
 11
241.421353988101
 21
85.749703358150654
  0
LINE
  8
_0-2_寸法
  6
CONTINUOUS
 62
    4
 10
503.9159831810706
 20
85.895878097563738
 11
503.9159831810706
 21
85.749703358150654
  0
LINE
  8
_0-2_寸法
  6
CONTINUOUS
 62
    4
 10
241.62135398810102
 20
85.749703358150654
 11
503.71598318107061
 21
85.749703358150654
  0
INSERT
  2
-000-_Dot
  8
_0-2_寸法
 10
241.421353988101
 20
85.749703358150654
 41
1
 42
1
 50
180
  0
INSERT
  2
-000-_Dot
  8
_0-2_寸法
 10
503.9159831810706
 20
85.749703358150654
 41
1
 42
1
 50
0
  0
TEXT
  8
_0-2_寸法
 62
    7
 10
346.66866858458582
 20
85.909703358150665
 40
4
 41
1
 50
0
  1
基準巾　　９００～１５００
  0
POINT
  8
_0-1_Defpoints
 62
    7
 10
241.421353988101
 20
47.10917782762408
  0
POINT
  8
_0-1_Defpoints
 62
    7
 10
503.9159831810706
 20
85.895878097563738
  0
POINT
  8
_0-1_Defpoints
 62
    7
 10
503.9159831810706
 20
85.749703358150654
  0
ENDBLK
  0
ENDSEC
  0
SECTION
  2
ENTITIES
  0
LINE
  8
_0-4_図面枠
  6
CONTINUOUS
 62
    4
 10
-757.93120769629354
 20
732.65809345889397
 11
1177.902125303706
 21
732.65809345889397
  0
LINE
  8
_0-4_図面枠
  6
CONTINUOUS
 62
    4
 10
-757.93120769629354
 20
815.99142645889401
 11
1177.902125303706
 21
815.99142645889401
  0
LINE
  8
_0-4_図面枠
  6
CONTINUOUS
 62
    4
 10
1177.902125303706
 20
-519.00857354110576
 11
1177.902125303706
 21
815.99142645889401
  0
TEXT
  8
_0-4_図面枠
 62
    7
 10
22.943960303706035
 20
748.05639845889414
 40
40
 41
0.8
 50
0
  1
サニートップ　Ｖ型片流れ標準図
  0
LINE
  8
_0-4_図面枠
  6
CONTINUOUS
 62
    4
 10
-757.93120769629354
 20
815.99142645889401
 11
-757.93120769629354
 21
-519.00857354110576
  0
TEXT
  8
_0-4_図面枠
 62
    7
 10
-710.13650769629351
 20
743.80446045889414
 40
20
 41
0.8000000000000007
 50
0
  1
縮　　尺
  0
LINE
  8
_0-4_図面枠
  6
CONTINUOUS
 62
    2
 10
-424.59787469629396
 20
774.32475945889416
 11
-757.93120769629354
 21
774.32475945889416
  0
TEXT
  8
_0-4_図面枠
 62
    7
 10
-718.84405569629337
 20
783.204408458893
 40
20
 41
0.8
 50
0
  1
ファイル名
  0
TEXT
  8
_0-4_図面枠
 62
    7
 10
-540.63897469629387
 20
784.31601145889306
 40
20
 41
0.8000000000000007
 50
0
  1
ＳＴ１４
  0
LINE
  8
_0-4_図面枠
  6
CONTINUOUS
 62
    4
 10
-424.59787469629396
 20
815.99142645889401
 11
-424.59787469629396
 21
732.65809345889397
  0
LINE
  8
_0-4_図面枠
  6
CONTINUOUS
 62
    2
 10
-591.26454069629381
 20
815.99142645889401
 11
-591.26454069629381
 21
732.65809345889397
  0
TEXT
  8
_0-4_図面枠
 62
    7
 10
-559.30690169629383
 20
743.00253445889314
 40
20
 41
0.8
 50
0
  1
Ｓ　１：５
  0
LINE
  8
_0-4_図面枠
  6
CONTINUOUS
 62
    4
 10
-757.93120769629354
 20
-519.00857354110576
 11
1177.902125303706
 21
-519.00857354110576
  0
LINE
  8
_0-4_図面枠
  6
CONTINUOUS
 62
    3
 10
144.00201930370599
 20
-483.02313154110584
 11
144.00201930370599
 21
-452.24496654110578
  0
LINE
  8
_0-4_図面枠
  6
CONTINUOUS
 62
    3
 10
206.97145330370608
 20
-452.24496654110578
 11
206.97145330370608
 21
-483.02313154110584
  0
TEXT
  8
_0-4_図面枠
 62
    7
 10
149.22852130370597
 20
-477.79664854110581
 40
20
 41
0.8
 50
0
  1
正面図　
  0
LINE
  8
_0-4_図面枠
  6
CONTINUOUS
 62
    3
 10
206.97145330370608
 20
-483.02313154110584
 11
144.00201930370599
 21
-483.02313154110584
  0
LINE
  8
_0-4_図面枠
  6
CONTINUOUS
 62
    3
 10
144.00201930370599
 20
-452.24496654110578
 11
206.97145330370608
 21
-452.24496654110578
  0
LINE
  8
_0-3_躯体と製品
  6
CONTINUOUS
 62
    2
 10
-450.24656169629384
 20
-177.24456754110588
 11
748.88173830370602
 21
515.0684814588941
  0
LINE
  8
_0-3_躯体と製品
  6
CONTINUOUS
 62
    2
 10
866.42383930370602
 20
-186.98009854110592
 11
-313.53796269629402
 21
-186.98009854110592
  0
LINE
  8
_0-3_躯体と製品
  6
PLINE3
 62
    2
 10
690.71083930370628
 20
436.49561545889424
 11
-317.30374669629396
 21
-145.48009854110592
  0
LINE
  8
_0-3_躯体と製品
  6
CONTINUOUS
 62
    5
 10
774.98316630370596
 20
521.85948045889393
 11
-464.93077069629385
 21
-193.99311154110586
  0
LINE
  8
_0-3_躯体と製品
  6
CONTINUOUS
 62
    5
 10
778.38317030370604
 20
515.97050045889421
 11
-461.53068169629387
 21
-199.88204154110588
  0
LINE
  8
_0-3_躯体と製品
  6
CONTINUOUS
 62
    2
 10
785.02390330370622
 20
472.46841245889402
 11
-341.07263669629401
 21
-177.68653354110586
  0
LINE
  8
_0-3_躯体と製品
  6
CONTINUOUS
 62
    2
 10
-451.24655569629385
 20
-175.51251254110593
 11
747.88173830370602
 21
516.80053245889428
  0
LINE
  8
_0-3_躯体と製品
  6
CONTINUOUS
 62
    2
 10
864.42383930370602
 20
-203.98009854110586
 11
-316.57616069629398
 21
-203.98009854110586
  0
LINE
  8
_0-3_躯体と製品
  6
CONTINUOUS
 62
    2
 10
864.42383930370602
 20
-201.98009854110592
 11
-313.57616069629398
 21
-201.98009854110592
  0
LINE
  8
_0-3_躯体と製品
  6
CONTINUOUS
 62
    2
 10
767.75604530370606
 20
506.37722045889404
 11
-439.25041869629399
 21
-190.48263054110589
  0
LINE
  8
_0-3_躯体と製品
  6
CONTINUOUS
 62
    2
 10
-339.93514469629395
 20
-187.42175654110588
 11
789.5239043037061
 21
464.67418245889405
  0
LINE
  8
_0-3_躯体と製品
  6
CONTINUOUS
 62
    5
 10
-483.57615969629387
 20
-399.9256145411058
 11
-373.63064469629398
 21
-289.98009854110586
  0
LINE
  8
_0-3_躯体と製品
  6
CONTINUOUS
 62
    5
 10
-483.57615969629387
 20
-396.00843854110576
 11
-377.54782069629391
 21
-289.98009854110586
  0
LINE
  8
_0-3_躯体と製品
  6
CONTINUOUS
 62
    5
 10
-483.57615969629387
 20
-392.30888354110584
 11
-381.24737569629383
 21
-289.98009854110586
  0
LINE
  8
_0-3_躯体と製品
  6
CONTINUOUS
 62
    3
 10
-483.57615969629387
 20
-289.98009854110586
 11
-333.57615969629387
 21
-289.98009854110586
  0
LINE
  8
_0-3_躯体と製品
  6
PLINE3
 62
    2
 10
-398.96580269629385
 20
-244.98009854110586
 11
-375.85333969629392
 21
-244.98009854110586
  0
LINE
  8
_0-3_躯体と製品
  6
CONTINUOUS
 62
    7
 10
-370.07616069629398
 20
-192.9800985411058
 11
-429.88913369629381
 21
-192.9800985411058
  0
LINE
  8
_0-3_躯体と製品
  6
CONTINUOUS
 62
    2
 10
-315.57616069629398
 20
-199.98009854110586
 11
-397.57616069629398
 21
-199.98009854110586
  0
LINE
  8
_0-3_躯体と製品
  6
PLINE3
 62
    2
 10
-317.79128669629381
 20
-145.7615805411059
 11
-399.57615969629387
 21
-192.9800985411058
  0
ARC
  8
_0-3_躯体と製品
  6
CONTINUOUS
 62
    7
 10
-391.57616069629398
 20
-260.98009854110586
 40
4
 50
270
 51
0
  0
ARC
  8
_0-3_躯体と製品
  6
CONTINUOUS
 62
    7
 10
-390.57616069629398
 20
-280.98009854110586
 40
3
 50
270
 51
0
  0
LINE
  8
_0-3_躯体と製品
  6
CONTINUOUS
 62
    2
 10
-406.57615969629387
 20
-196.98009854110592
 11
-315.57616069629398
 21
-196.98009854110592
  0
LINE
  8
_0-3_躯体と製品
  6
CONTINUOUS
 62
    7
 10
-490.57615969629387
 20
-271.42844854110587
 11
-503.57615969629387
 21
-262.9800985411058
  0
LINE
  8
_0-3_躯体と製品
  6
CONTINUOUS
 62
    7
 10
-490.57615969629387
 20
-271.42844854110587
 11
-451.58707269629394
 21
-254.98227554110588
  0
LINE
  8
_0-3_躯体と製品
  6
CONTINUOUS
 62
    7
 10
-393.57616069629398
 20
-264.98009854110586
 11
-393.57616069629398
 21
-199.98009854110586
  0
LINE
  8
_0-3_躯体と製品
  6
CONTINUOUS
 62
    7
 10
-505.57615969629387
 20
-332.98009854110592
 11
-505.57615969629387
 21
-262.3302255411059
  0
LINE
  8
_0-3_躯体と製品
  6
CONTINUOUS
 62
    7
 10
-503.57615969629387
 20
-262.9800985411058
 11
-503.57615969629387
 21
-332.98009854110592
  0
LINE
  8
_0-3_躯体と製品
  6
CONTINUOUS
 62
    3
 10
-483.57615969629387
 20
-460.80105954110581
 11
-483.57615969629387
 21
-289.98009854110586
  0
LINE
  8
_0-3_躯体と製品
  6
CONTINUOUS
 62
    2
 10
-488.57615969629387
 20
-460.80105954110581
 11
-488.57615969629387
 21
-289.98009854110586
  0
LINE
  8
_0-3_躯体と製品
  6
CONTINUOUS
 62
    2
 10
-458.57615969629387
 20
-284.98009854110586
 11
-483.57615969629387
 21
-284.98009854110586
  0
LINE
  8
_0-3_躯体と製品
  6
CONTINUOUS
 62
    7
 10
-490.57615969629387
 20
-317.9800985411058
 11
-490.57615969629387
 21
-271.42844854110587
  0
LINE
  8
_0-3_躯体と製品
  6
CONTINUOUS
 62
    7
 10
-505.57615969629387
 20
-332.98009854110592
 11
-503.57615969629387
 21
-332.98009854110592
  0
ARC
  8
_0-3_躯体と製品
  6
CONTINUOUS
 62
    5
 10
-496.82133269629389
 20
-378.52744554110586
 40
46.024124
 50
79.718244999997196
 51
98.635438000000704
  0
LINE
  8
_0-3_躯体と製品
  6
CONTINUOUS
 62
    5
 10
-503.57615969629387
 20
-317.9800985411058
 11
-488.57615969629387
 21
-317.9800985411058
  0
ARC
  8
_0-3_躯体と製品
  6
CONTINUOUS
 62
    2
 10
-483.57615969629387
 20
-289.98009854110586
 40
5
 50
90
 51
180
  0
LINE
  8
_0-3_躯体と製品
  6
CONTINUOUS
 62
    7
 10
-443.57616069629398
 20
-283.98009854110586
 11
-390.57616069629398
 21
-283.98009854110586
  0
LINE
  8
_0-3_躯体と製品
  6
CONTINUOUS
 62
    2
 10
-458.57615969629387
 20
-289.98009854110586
 11
-458.57615969629387
 21
-284.98009854110586
  0
LINE
  8
_0-3_躯体と製品
  6
CONTINUOUS
 62
    7
 10
-446.57616069629398
 20
-286.98009854110592
 11
-446.57616069629398
 21
-289.98009854110586
  0
ARC
  8
_0-3_躯体と製品
  6
CONTINUOUS
 62
    7
 10
-443.57616069629398
 20
-286.98009854110592
 40
3
 50
90
 51
180
  0
LINE
  8
_0-3_躯体と製品
  6
CONTINUOUS
 62
    2
 10
-414.07616069629398
 20
-276.73351354110588
 11
-414.07616069629398
 21
-304.09304254110583
  0
LINE
  8
_0-3_躯体と製品
  6
CONTINUOUS
 62
    7
 10
-393.57616069629398
 20
-264.98009854110586
 11
-391.57616069629398
 21
-264.98009854110586
  0
LINE
  8
_0-3_躯体と製品
  6
CONTINUOUS
 62
    5
 10
-461.47493269629399
 20
-191.81419954110584
 11
-460.94587769629402
 21
-191.48441454110593
  0
LINE
  8
_0-3_躯体と製品
  6
CONTINUOUS
 62
    5
 10
-460.94587769629402
 20
-191.48441454110593
 11
-460.45936569629384
 21
-191.09725554110594
  0
LINE
  8
_0-3_躯体と製品
  6
CONTINUOUS
 62
    5
 10
-460.45936569629384
 20
-191.09725554110594
 11
-460.02306969629399
 21
-190.65882954110589
  0
LINE
  8
_0-3_躯体と製品
  6
CONTINUOUS
 62
    5
 10
-460.02306969629399
 20
-190.65882954110589
 11
-459.64386869629402
 21
-190.17605054110589
  0
LINE
  8
_0-3_躯体と製品
  6
CONTINUOUS
 62
    5
 10
-459.64386869629402
 20
-190.17605054110589
 11
-459.32774569629396
 21
-189.65653254110589
  0
LINE
  8
_0-3_躯体と製品
  6
CONTINUOUS
 62
    5
 10
-459.32774569629396
 20
-189.65653254110589
 11
-459.07968369629384
 21
-189.10846754110588
  0
LINE
  8
_0-3_躯体と製品
  6
CONTINUOUS
 62
    5
 10
-459.07968369629384
 20
-189.10846754110588
 11
-458.90359669629402
 21
-188.54050054110587
  0
LINE
  8
_0-3_躯体と製品
  6
CONTINUOUS
 62
    5
 10
-458.90359669629402
 20
-188.54050054110587
 11
-458.80225969629396
 21
-187.96158754110587
  0
LINE
  8
_0-3_躯体と製品
  6
CONTINUOUS
 62
    5
 10
-458.80225969629396
 20
-187.96158754110587
 11
-458.77727269629395
 21
-187.38085754110585
  0
LINE
  8
_0-3_躯体と製品
  6
CONTINUOUS
 62
    5
 10
-458.77727269629395
 20
-187.38085754110585
 11
-458.82902769629391
 21
-186.80747054110589
  0
LINE
  8
_0-3_躯体と製品
  6
CONTINUOUS
 62
    5
 10
-458.82902769629391
 20
-186.80747054110589
 11
-458.95671069629384
 21
-186.25046954110587
  0
LINE
  8
_0-3_躯体と製品
  6
CONTINUOUS
 62
    5
 10
-458.95671069629384
 20
-186.25046954110587
 11
-459.15830769629383
 21
-185.71863754110586
  0
LINE
  8
_0-3_躯体と製品
  6
CONTINUOUS
 62
    5
 10
-459.15830769629383
 20
-185.71863754110586
 11
-459.43063769629384
 21
-185.22036154110589
  0
LINE
  8
_0-3_躯体と製品
  6
CONTINUOUS
 62
    5
 10
-459.43063769629384
 20
-185.22036154110589
 11
-459.76940769629391
 21
-184.76350054110594
  0
LINE
  8
_0-3_躯体と製品
  6
CONTINUOUS
 62
    5
 10
-459.76940769629391
 20
-184.76350054110594
 11
-460.16927369629389
 21
-184.35525954110585
  0
LINE
  8
_0-3_躯体と製品
  6
CONTINUOUS
 62
    5
 10
-460.16927369629389
 20
-184.35525954110585
 11
-460.62393069629388
 21
-184.00207654110579
  0
LINE
  8
_0-3_躯体と製品
  6
CONTINUOUS
 62
    5
 10
-460.62393069629388
 20
-184.00207654110579
 11
-461.12620769629393
 21
-183.70952154110586
  0
LINE
  8
_0-3_躯体と製品
  6
CONTINUOUS
 62
    5
 10
-461.12620769629393
 20
-183.70952154110586
 11
-461.66818369629391
 21
-183.48220854110588
  0
LINE
  8
_0-3_躯体と製品
  6
CONTINUOUS
 62
    5
 10
-461.66818369629391
 20
-183.48220854110588
 11
-462.24131269629402
 21
-183.3237215411059
  0
LINE
  8
_0-3_躯体と製品
  6
CONTINUOUS
 62
    5
 10
-462.24131269629402
 20
-183.3237215411059
 11
-462.836553696294
 21
-183.23656054110586
  0
LINE
  8
_0-3_躯体と製品
  6
CONTINUOUS
 62
    5
 10
-462.836553696294
 20
-183.23656054110586
 11
-463.44452069629392
 21
-183.22209954110588
  0
LINE
  8
_0-3_躯体と製品
  6
CONTINUOUS
 62
    5
 10
-463.44452069629392
 20
-183.22209954110588
 11
-464.05562669629398
 21
-183.28056854110588
  0
LINE
  8
_0-3_躯体と製品
  6
CONTINUOUS
 62
    5
 10
-464.05562669629398
 20
-183.28056854110588
 11
-464.66023269629386
 21
-183.41104254110587
  0
LINE
  8
_0-3_躯体と製品
  6
CONTINUOUS
 62
    5
 10
-464.66023269629386
 20
-183.41104254110587
 11
-465.24880369629386
 21
-183.61146654110587
  0
LINE
  8
_0-3_躯体と製品
  6
CONTINUOUS
 62
    5
 10
-465.24880369629386
 20
-183.61146654110587
 11
-465.812057696294
 21
-183.8786775411059
  0
LINE
  8
_0-3_躯体と製品
  6
CONTINUOUS
 62
    5
 10
-465.812057696294
 20
-183.8786775411059
 11
-466.34111269629398
 21
-184.20846354110586
  0
LINE
  8
_0-3_躯体と製品
  6
CONTINUOUS
 62
    5
 10
-466.34111269629398
 20
-184.20846354110586
 11
-466.82762469629392
 21
-184.59562254110585
  0
LINE
  8
_0-3_躯体と製品
  6
CONTINUOUS
 62
    5
 10
-466.82762469629392
 20
-184.59562254110585
 11
-467.26392169629389
 21
-185.03404754110591
  0
LINE
  8
_0-3_躯体と製品
  6
CONTINUOUS
 62
    5
 10
-467.26392169629389
 20
-185.03404754110591
 11
-467.64312169629397
 21
-185.51682654110584
  0
LINE
  8
_0-3_躯体と製品
  6
CONTINUOUS
 62
    5
 10
-467.64312169629397
 20
-185.51682654110584
 11
-467.95924469629381
 21
-186.0363455411059
  0
LINE
  8
_0-3_躯体と製品
  6
CONTINUOUS
 62
    5
 10
-467.95924469629381
 20
-186.0363455411059
 11
-468.20730669629393
 21
-186.58440954110586
  0
LINE
  8
_0-3_躯体と製品
  6
CONTINUOUS
 62
    5
 10
-468.20730669629393
 20
-186.58440954110586
 11
-468.38339469629386
 21
-187.15237754110581
  0
LINE
  8
_0-3_躯体と製品
  6
CONTINUOUS
 62
    5
 10
-468.38339469629386
 20
-187.15237754110581
 11
-468.48473069629381
 21
-187.73129054110586
  0
LINE
  8
_0-3_躯体と製品
  6
CONTINUOUS
 62
    5
 10
-468.48473069629381
 20
-187.73129054110586
 11
-468.50971869629393
 21
-188.31202054110588
  0
LINE
  8
_0-3_躯体と製品
  6
CONTINUOUS
 62
    5
 10
-468.50971869629393
 20
-188.31202054110588
 11
-468.45796269629386
 21
-188.88540654110591
  0
LINE
  8
_0-3_躯体と製品
  6
CONTINUOUS
 62
    5
 10
-468.45796269629386
 20
-188.88540654110591
 11
-468.33027969629393
 21
-189.44240854110581
  0
LINE
  8
_0-3_躯体と製品
  6
CONTINUOUS
 62
    5
 10
-468.33027969629393
 20
-189.44240854110581
 11
-468.12868369629382
 21
-189.97424054110593
  0
LINE
  8
_0-3_躯体と製品
  6
CONTINUOUS
 62
    5
 10
-468.12868369629382
 20
-189.97424054110593
 11
-467.85635269629392
 21
-190.4725165411059
  0
LINE
  8
_0-3_躯体と製品
  6
CONTINUOUS
 62
    5
 10
-467.85635269629392
 20
-190.4725165411059
 11
-467.51758369629397
 21
-190.92937754110585
  0
LINE
  8
_0-3_躯体と製品
  6
CONTINUOUS
 62
    5
 10
-467.51758369629397
 20
-190.92937754110585
 11
-467.11771669629388
 21
-191.33761854110588
  0
LINE
  8
_0-3_躯体と製品
  6
CONTINUOUS
 62
    5
 10
-467.11771669629388
 20
-191.33761854110588
 11
-466.66305969629389
 21
-191.69080154110583
  0
LINE
  8
_0-3_躯体と製品
  6
CONTINUOUS
 62
    5
 10
-466.66305969629389
 20
-191.69080154110583
 11
-466.16078269629384
 21
-191.98335654110588
  0
LINE
  8
_0-3_躯体と製品
  6
CONTINUOUS
 62
    5
 10
-466.16078269629384
 20
-191.98335654110588
 11
-465.61880669629386
 21
-192.21066954110586
  0
LINE
  8
_0-3_躯体と製品
  6
CONTINUOUS
 62
    5
 10
-465.61880669629386
 20
-192.21066954110586
 11
-465.04567869629386
 21
-192.36915654110589
  0
LINE
  8
_0-3_躯体と製品
  6
CONTINUOUS
 62
    5
 10
-465.04567869629386
 20
-192.36915654110589
 11
-464.45043669629399
 21
-192.45631754110582
  0
LINE
  8
_0-3_躯体と製品
  6
CONTINUOUS
 62
    5
 10
-464.45043669629399
 20
-192.45631754110582
 11
-463.84246969629385
 21
-192.47077754110586
  0
LINE
  8
_0-3_躯体と製品
  6
CONTINUOUS
 62
    5
 10
-463.84246969629385
 20
-192.47077754110586
 11
-463.23136469629389
 21
-192.41230954110586
  0
LINE
  8
_0-3_躯体と製品
  6
CONTINUOUS
 62
    5
 10
-463.23136469629389
 20
-192.41230954110586
 11
-462.62675869629402
 21
-192.28183554110586
  0
LINE
  8
_0-3_躯体と製品
  6
CONTINUOUS
 62
    5
 10
-462.62675869629402
 20
-192.28183554110586
 11
-462.03818769629402
 21
-192.08141154110587
  0
LINE
  8
_0-3_躯体と製品
  6
CONTINUOUS
 62
    5
 10
-462.03818769629402
 20
-192.08141154110587
 11
-461.47493269629399
 21
-191.81419954110584
  0
LINE
  8
_0-3_躯体と製品
  6
CONTINUOUS
 62
    2
 10
-459.92547769629391
 20
-180.4800595411059
 11
-481.57642669629399
 21
-192.98024054110584
  0
LINE
  8
_0-3_躯体と製品
  6
CONTINUOUS
 62
    2
 10
-460.92554069629387
 20
-178.74789854110588
 11
-483.07615969629387
 21
-191.53656454110592
  0
LINE
  8
_0-3_躯体と製品
  6
CONTINUOUS
 62
    2
 10
-466.57615969629387
 20
-217.9800985411058
 11
-481.57615969629387
 21
-217.9800985411058
  0
LINE
  8
_0-3_躯体と製品
  6
CONTINUOUS
 62
    2
 10
-423.07615969629387
 20
-214.98009854110586
 11
-479.57615969629387
 21
-214.98009854110586
  0
LINE
  8
_0-3_躯体と製品
  6
PLINE3
 62
    2
 10
-466.86043069629386
 20
-203.98009854110586
 11
-492.07615969629387
 21
-203.98009854110586
  0
LINE
  8
_0-3_躯体と製品
  6
CONTINUOUS
 62
    7
 10
-458.57615969629387
 20
-241.68035254110589
 11
-504.98229869629381
 21
-261.41641354110584
  0
ARC
  8
_0-3_躯体と製品
  6
CONTINUOUS
 62
    5
 10
-510.72497169629401
 20
-230.78114854110589
 40
44.254747999999992
 50
339.91259399999916
 51
3.5594439999997398
  0
LINE
  8
_0-3_躯体と製品
  6
CONTINUOUS
 62
    7
 10
-456.57615969629387
 20
-242.9800985411058
 11
-503.57615969629387
 21
-262.9800985411058
  0
LINE
  8
_0-3_躯体と製品
  6
CONTINUOUS
 62
    5
 10
-473.57615969629387
 20
-214.98009854110586
 11
-443.57615969629387
 21
-199.98009854110586
  0
LINE
  8
_0-3_躯体と製品
  6
CONTINUOUS
 62
    5
 10
-443.57615969629387
 20
-214.98009854110586
 11
-473.57615969629387
 21
-199.98009854110586
  0
LINE
  8
_0-3_躯体と製品
  6
CONTINUOUS
 62
    5
 10
-473.57615969629387
 20
-199.98009854110586
 11
-443.57615969629387
 21
-199.98009854110586
  0
LINE
  8
_0-3_躯体と製品
  6
CONTINUOUS
 62
    2
 10
-483.57615969629387
 20
-226.98009854110592
 11
-483.57615969629387
 21
-192.4025895411059
  0
LINE
  8
_0-3_躯体と製品
  6
CONTINUOUS
 62
    2
 10
-481.57615969629387
 20
-205.98009854110586
 11
-481.57615969629387
 21
-226.98009854110592
  0
LINE
  8
_0-3_躯体と製品
  6
CONTINUOUS
 62
    2
 10
-479.57615969629387
 20
-214.98009854110586
 11
-479.57615969629387
 21
-205.98009854110586
  0
LINE
  8
_0-3_躯体と製品
  6
CONTINUOUS
 62
    5
 10
-473.57615969629387
 20
-214.98009854110586
 11
-473.57615969629387
 21
-199.98009854110586
  0
ARC
  8
_0-3_躯体と製品
  6
CONTINUOUS
 62
    7
 10
-504.57615969629387
 20
-262.3302255411059
 40
1
 50
113.96248899999742
 51
180
  0
LINE
  8
_0-3_躯体と製品
  6
CONTINUOUS
 62
    2
 10
-481.57615969629387
 20
-226.98009854110592
 11
-483.57615969629387
 21
-226.98009854110592
  0
LINE
  8
_0-3_躯体と製品
  6
CONTINUOUS
 62
    2
 10
-475.57615969629387
 20
-214.98009854110586
 11
-475.57615969629387
 21
-217.9800985411058
  0
LINE
  8
_0-3_躯体と製品
  6
CONTINUOUS
 62
    2
 10
-470.57615969629387
 20
-214.98009854110586
 11
-470.57615969629387
 21
-217.9800985411058
  0
LINE
  8
_0-3_躯体と製品
  6
CONTINUOUS
 62
    2
 10
-473.07615969629387
 20
-215.4800985411058
 11
-473.57615969629387
 21
-214.98009854110586
  0
LINE
  8
_0-3_躯体と製品
  6
CONTINUOUS
 62
    2
 10
-472.57615969629387
 20
-214.98009854110586
 11
-473.07615969629387
 21
-215.4800985411058
  0
ARC
  8
_0-3_躯体と製品
  6
CONTINUOUS
 62
    2
 10
-483.57615969629387
 20
-203.98009854110586
 40
3.5
 50
90
 51
270
  0
LINE
  8
_0-3_躯体と製品
  6
CONTINUOUS
 62
    2
 10
-479.57615969629387
 20
-201.98009854110592
 11
-479.57615969629387
 21
-193.98009854110586
  0
ARC
  8
_0-3_躯体と製品
  6
CONTINUOUS
 62
    2
 10
-480.57615969629387
 20
-193.98009854110586
 40
1
 50
0
 51
180
  0
ARC
  8
_0-3_躯体と製品
  6
CONTINUOUS
 62
    2
 10
-482.57615969629387
 20
-192.4025895411059
 40
1
 50
119.99999999999972
 51
180
  0
LINE
  8
_0-3_躯体と製品
  6
CONTINUOUS
 62
    2
 10
-473.57615969629387
 20
-205.98009854110586
 11
-483.57615969629387
 21
-205.98009854110586
  0
LINE
  8
_0-3_躯体と製品
  6
CONTINUOUS
 62
    2
 10
-473.57615969629387
 20
-201.98009854110592
 11
-473.57615969629387
 21
-205.98009854110586
  0
LINE
  8
_0-3_躯体と製品
  6
CONTINUOUS
 62
    2
 10
-483.57615969629387
 20
-201.98009854110592
 11
-473.57615969629387
 21
-201.98009854110592
  0
LINE
  8
_0-3_躯体と製品
  6
CONTINUOUS
 62
    2
 10
-481.57615969629387
 20
-192.97994454110585
 11
-481.57615969629387
 21
-201.98009854110592
  0
LINE
  8
_0-3_躯体と製品
  6
CONTINUOUS
 62
    2
 10
-410.57615969629387
 20
-207.9800985411058
 11
-410.57615969629387
 21
-214.98009854110586
  0
LINE
  8
_0-3_躯体と製品
  6
CONTINUOUS
 62
    2
 10
-412.57615969629387
 20
-214.98009854110586
 11
-412.57615969629387
 21
-207.9800985411058
  0
LINE
  8
_0-3_躯体と製品
  6
CONTINUOUS
 62
    2
 10
-423.07615969629387
 20
-214.98009854110586
 11
-423.07615969629387
 21
-199.98009854110586
  0
LINE
  8
_0-3_躯体と製品
  6
CONTINUOUS
 62
    2
 10
-400.07615969629387
 20
-205.98009854110586
 11
-400.07615969629387
 21
-217.9800985411058
  0
LINE
  8
_0-3_躯体と製品
  6
PLINE3
 62
    2
 10
-411.57615969629387
 20
-171.98009854110592
 11
-411.57615969629387
 21
-223.98009854110586
  0
LINE
  8
_0-3_躯体と製品
  6
CONTINUOUS
 62
    2
 10
-403.07615969629387
 20
-214.98009854110586
 11
-403.07615969629387
 21
-206.03203254110588
  0
LINE
  8
_0-3_躯体と製品
  6
CONTINUOUS
 62
    2
 10
-403.07615969629387
 20
-214.98009854110586
 11
-403.07615969629387
 21
-199.98009854110586
  0
LINE
  8
_0-3_躯体と製品
  6
CONTINUOUS
 62
    2
 10
-420.07615969629387
 20
-214.98009854110586
 11
-420.07615969629387
 21
-199.98009854110586
  0
LINE
  8
_0-3_躯体と製品
  6
CONTINUOUS
 62
    5
 10
-443.57615969629387
 20
-199.98009854110586
 11
-443.57615969629387
 21
-214.98009854110586
  0
LINE
  8
_0-3_躯体と製品
  6
CONTINUOUS
 62
    2
 10
-400.07615969629387
 20
-217.9800985411058
 11
-464.57615969629387
 21
-217.9800985411058
  0
LINE
  8
_0-3_躯体と製品
  6
CONTINUOUS
 62
    2
 10
-454.57615969629387
 20
-225.98009854110586
 11
-454.57615969629387
 21
-242.9800985411058
  0
LINE
  8
_0-3_躯体と製品
  6
CONTINUOUS
 62
    7
 10
-458.57615969629387
 20
-227.9800985411058
 11
-458.57615969629387
 21
-241.68035254110589
  0
LINE
  8
_0-3_躯体と製品
  6
CONTINUOUS
 62
    2
 10
-456.57615969629387
 20
-227.9800985411058
 11
-456.57615969629387
 21
-242.9800985411058
  0
LINE
  8
_0-3_躯体と製品
  6
CONTINUOUS
 62
    2
 10
-456.57615969629387
 20
-242.9800985411058
 11
-454.57615969629387
 21
-242.9800985411058
  0
LINE
  8
_0-3_躯体と製品
  6
CONTINUOUS
 62
    7
 10
-456.57615969629387
 20
-242.9800985411058
 11
-451.58707269629394
 21
-254.98227554110588
  0
LINE
  8
_0-3_躯体と製品
  6
CONTINUOUS
 62
    2
 10
-456.57615969629387
 20
-227.9800985411058
 11
-466.57615969629387
 21
-227.9800985411058
  0
LINE
  8
_0-3_躯体と製品
  6
CONTINUOUS
 62
    2
 10
-464.57615969629387
 20
-225.98009854110586
 11
-454.57615969629387
 21
-225.98009854110586
  0
LINE
  8
_0-3_躯体と製品
  6
CONTINUOUS
 62
    2
 10
-466.57615969629387
 20
-227.9800985411058
 11
-466.57615969629387
 21
-217.9800985411058
  0
LINE
  8
_0-3_躯体と製品
  6
CONTINUOUS
 62
    2
 10
-464.57615969629387
 20
-217.9800985411058
 11
-464.57615969629387
 21
-225.98009854110586
  0
LINE
  8
_0-3_躯体と製品
  6
CONTINUOUS
 62
    2
 10
-460.99239169629391
 20
-235.4800985411058
 11
-452.14933169629398
 21
-235.4800985411058
  0
LINE
  8
_0-3_躯体と製品
  6
CONTINUOUS
 62
    2
 10
-403.07615969629387
 20
-214.98009854110586
 11
-420.07615969629387
 21
-214.98009854110586
  0
LINE
  8
_0-3_躯体と製品
  6
CONTINUOUS
 62
    2
 10
-420.07615969629387
 20
-214.98009854110586
 11
-423.07615969629387
 21
-214.98009854110586
  0
LINE
  8
_0-3_躯体と製品
  6
CONTINUOUS
 62
    2
 10
-443.57615969629387
 20
-199.98009854110586
 11
-423.07615969629387
 21
-199.98009854110586
  0
LINE
  8
_0-3_躯体と製品
  6
CONTINUOUS
 62
    2
 10
-416.57615969629387
 20
-196.98009854110592
 11
-433.07615969629387
 21
-196.98009854110592
  0
LINE
  8
_0-3_躯体と製品
  6
CONTINUOUS
 62
    5
 10
-464.93077069629385
 20
-193.99311154110586
 11
-461.53068169629387
 21
-199.88204154110588
  0
LINE
  8
_0-3_躯体と製品
  6
CONTINUOUS
 62
    2
 10
-429.92492169629395
 20
-192.9800985411058
 11
-438.57615969629387
 21
-192.9800985411058
  0
LINE
  8
_0-3_躯体と製品
  6
CONTINUOUS
 62
    2
 10
-441.57615969629387
 20
-192.9800985411058
 11
-443.57615969629387
 21
-192.9800985411058
  0
ARC
  8
_0-3_躯体と製品
  6
CONTINUOUS
 62
    5
 10
-445.07615969629387
 20
-195.4800985411058
 40
1.5
 50
180
 51
0
  0
LINE
  8
_0-3_躯体と製品
  6
CONTINUOUS
 62
    5
 10
-438.57615969629387
 20
-191.98009854110592
 11
-438.57615969629387
 21
-195.4800985411058
  0
ARC
  8
_0-3_躯体と製品
  6
CONTINUOUS
 62
    5
 10
-440.57615969629387
 20
-191.98009854110592
 40
2
 50
0
 51
90
  0
ARC
  8
_0-3_躯体と製品
  6
CONTINUOUS
 62
    5
 10
-440.07615969629387
 20
-195.4800985411058
 40
1.5
 50
180
 51
0
  0
LINE
  8
_0-3_躯体と製品
  6
CONTINUOUS
 62
    2
 10
-443.57615969629387
 20
-199.98009854110586
 11
-441.57615969629387
 21
-199.98009854110586
  0
LINE
  8
_0-3_躯体と製品
  6
CONTINUOUS
 62
    7
 10
-429.93514369629384
 20
-192.9800985411058
 11
-429.93514369629384
 21
-196.98009854110592
  0
LINE
  8
_0-3_躯体と製品
  6
CONTINUOUS
 62
    2
 10
-443.57615969629387
 20
-192.9800985411058
 11
-443.57615969629387
 21
-199.98009854110586
  0
LINE
  8
_0-3_躯体と製品
  6
CONTINUOUS
 62
    2
 10
-434.07615969629387
 20
-196.98009854110592
 11
-441.57615969629387
 21
-196.98009854110592
  0
LINE
  8
_0-3_躯体と製品
  6
CONTINUOUS
 62
    5
 10
-446.57615969629387
 20
-191.98009854110592
 11
-446.57615969629387
 21
-195.4800985411058
  0
ARC
  8
_0-3_躯体と製品
  6
CONTINUOUS
 62
    5
 10
-444.57615969629387
 20
-191.98009854110592
 40
2
 50
90
 51
180
  0
LINE
  8
_0-3_躯体と製品
  6
CONTINUOUS
 62
    5
 10
-444.57615969629387
 20
-189.98009854110586
 11
-440.57615969629387
 21
-189.98009854110586
  0
LINE
  8
_0-3_躯体と製品
  6
CONTINUOUS
 62
    2
 10
-441.57615969629387
 20
-196.98009854110592
 11
-441.57615969629387
 21
-192.9800985411058
  0
LINE
  8
_0-3_躯体と製品
  6
CONTINUOUS
 62
    2
 10
-443.57615969629387
 20
-192.9800985411058
 11
-441.57615969629387
 21
-192.9800985411058
  0
LINE
  8
_0-3_躯体と製品
  6
CONTINUOUS
 62
    2
 10
-433.57615969629387
 20
-197.48009854110586
 11
-434.07615969629387
 21
-196.98009854110592
  0
LINE
  8
_0-3_躯体と製品
  6
CONTINUOUS
 62
    2
 10
-433.07615969629387
 20
-196.98009854110592
 11
-433.57615969629387
 21
-197.48009854110586
  0
ARC
  8
_0-3_躯体と製品
  6
CONTINUOUS
 62
    5
 10
-442.24801569629381
 20
-109.19435854110588
 40
72.017772999999991
 50
254.96873699999799
 51
269.56915099999969
  0
ARC
  8
_0-3_躯体と製品
  6
CONTINUOUS
 62
    5
 10
-462.9642056962939
 20
-156.12213954110592
 40
22.710053999999992
 50
275.20260500000006
 51
301.13922499999831
  0
LINE
  8
_0-3_躯体と製品
  6
CONTINUOUS
 62
    2
 10
-460.92554069629387
 20
-178.74789854110588
 11
-459.92547769629391
 21
-180.4800595411059
  0
LINE
  8
_0-3_躯体と製品
  6
CONTINUOUS
 62
    2
 10
-451.24655569629385
 20
-175.51251254110593
 11
-450.24655369629386
 21
-177.24456754110588
  0
LINE
  8
_0-3_躯体と製品
  6
CONTINUOUS
 62
    2
 10
-406.57615969629387
 20
-187.9800985411058
 11
-406.57615969629387
 21
-180.84098154110586
  0
LINE
  8
_0-3_躯体と製品
  6
CONTINUOUS
 62
    2
 10
-416.57615969629387
 20
-180.84098154110586
 11
-416.57615969629387
 21
-187.9800985411058
  0
LINE
  8
_0-3_躯体と製品
  6
CONTINUOUS
 62
    2
 10
-401.57615969629387
 20
-180.90243354110589
 11
-401.57615969629387
 21
-187.9800985411058
  0
LINE
  8
_0-3_躯体と製品
  6
CONTINUOUS
 62
    2
 10
-421.57615969629387
 20
-180.90243354110589
 11
-421.57615969629387
 21
-187.9800985411058
  0
LINE
  8
_0-3_躯体と製品
  6
CONTINUOUS
 62
    2
 10
-422.57615969629387
 20
-190.98009854110586
 11
-400.57615969629387
 21
-190.98009854110586
  0
LINE
  8
_0-3_躯体と製品
  6
CONTINUOUS
 62
    2
 10
-401.57615969629387
 20
-187.9800985411058
 11
-421.57615969629387
 21
-187.9800985411058
  0
LINE
  8
_0-3_躯体と製品
  6
CONTINUOUS
 62
    2
 10
-420.07615969629387
 20
-199.98009854110586
 11
-403.07615969629387
 21
-199.98009854110586
  0
LINE
  8
_0-3_躯体と製品
  6
CONTINUOUS
 62
    2
 10
-411.57615969629387
 20
-187.9800985411058
 11
-408.57615969629387
 21
-190.98009854110586
  0
LINE
  8
_0-3_躯体と製品
  6
CONTINUOUS
 62
    2
 10
-407.32615969629387
 20
-206.98009854110592
 11
-415.82615969629387
 21
-206.98009854110592
  0
ARC
  8
_0-3_躯体と製品
  6
CONTINUOUS
 62
    2
 10
-407.32615969629387
 20
-197.44884854110592
 40
9.53125
 50
243.51896000000028
 51
296.48103999999961
  0
LINE
  8
_0-3_躯体と製品
  6
CONTINUOUS
 62
    2
 10
-412.57615969629387
 20
-209.98009854110586
 11
-410.57615969629387
 21
-209.98009854110586
  0
LINE
  8
_0-3_躯体と製品
  6
CONTINUOUS
 62
    2
 10
-423.07615969629387
 20
-209.98009854110586
 11
-420.07615969629387
 21
-209.98009854110586
  0
LINE
  8
_0-3_躯体と製品
  6
CONTINUOUS
 62
    2
 10
-412.57615969629387
 20
-207.9800985411058
 11
-410.57615969629387
 21
-207.9800985411058
  0
ARC
  8
_0-3_躯体と製品
  6
CONTINUOUS
 62
    2
 10
-415.82615969629387
 20
-197.44884854110592
 40
9.53125
 50
243.51896000000028
 51
296.48103999999961
  0
LINE
  8
_0-3_躯体と製品
  6
CONTINUOUS
 62
    2
 10
-420.97615969629396
 20
-187.9800985411058
 11
-420.97615969629396
 21
-190.98009854110586
  0
LINE
  8
_0-3_躯体と製品
  6
CONTINUOUS
 62
    2
 10
-416.57615969629387
 20
-192.9800985411058
 11
-416.57615969629387
 21
-199.98009854110586
  0
LINE
  8
_0-3_躯体と製品
  6
CONTINUOUS
 62
    2
 10
-422.57615969629387
 20
-190.98009854110586
 11
-422.57615969629387
 21
-192.9800985411058
  0
LINE
  8
_0-3_躯体と製品
  6
CONTINUOUS
 62
    2
 10
-417.57615969629387
 20
-196.98009854110592
 11
-417.57615969629387
 21
-199.98009854110586
  0
LINE
  8
_0-3_躯体と製品
  6
CONTINUOUS
 62
    7
 10
-419.93514369629384
 20
-192.9800985411058
 11
-419.93514369629384
 21
-196.98009854110592
  0
LINE
  8
_0-3_躯体と製品
  6
CONTINUOUS
 62
    2
 10
-414.57615969629387
 20
-187.9800985411058
 11
-411.57615969629387
 21
-190.98009854110586
  0
LINE
  8
_0-3_躯体と製品
  6
CONTINUOUS
 62
    2
 10
-402.17615969629401
 20
-187.9800985411058
 11
-402.17615969629401
 21
-190.98009854110586
  0
LINE
  8
_0-3_躯体と製品
  6
CONTINUOUS
 62
    2
 10
-406.57615969629387
 20
-192.9800985411058
 11
-406.57615969629387
 21
-199.98009854110586
  0
LINE
  8
_0-3_躯体と製品
  6
CONTINUOUS
 62
    2
 10
-400.57615969629387
 20
-190.98009854110586
 11
-400.57615969629387
 21
-192.9800985411058
  0
LINE
  8
_0-3_躯体と製品
  6
CONTINUOUS
 62
    2
 10
-397.57616069629398
 20
-205.98009854110586
 11
-400.07615969629387
 21
-205.98009854110586
  0
LINE
  8
_0-3_躯体と製品
  6
CONTINUOUS
 62
    2
 10
-397.57616069629398
 20
-199.98009854110586
 11
-397.57616069629398
 21
-205.98009854110586
  0
LINE
  8
_0-3_躯体と製品
  6
CONTINUOUS
 62
    2
 10
-405.57615969629387
 20
-196.98009854110592
 11
-405.57615969629387
 21
-199.98009854110586
  0
LINE
  8
_0-3_躯体と製品
  6
CONTINUOUS
 62
    2
 10
-397.57616069629398
 20
-199.98009854110586
 11
-397.57616069629398
 21
-205.98009854110586
  0
LINE
  8
_0-3_躯体と製品
  6
CONTINUOUS
 62
    7
 10
-399.93514369629384
 20
-192.9800985411058
 11
-399.93514369629384
 21
-196.98009854110592
  0
LINE
  8
_0-3_躯体と製品
  6
CONTINUOUS
 62
    2
 10
-407.57615969629387
 20
-176.98009854110592
 11
-415.57615969629387
 21
-176.98009854110592
  0
LINE
  8
_0-3_躯体と製品
  6
CONTINUOUS
 62
    2
 10
-419.98385669629397
 20
-179.9831175411058
 11
-403.16846369629388
 21
-179.9831175411058
  0
ARC
  8
_0-3_躯体と製品
  6
CONTINUOUS
 62
    2
 10
-411.57615969629387
 20
-194.98311654110591
 40
15
 50
70.528778999998764
 51
109.47122100000119
  0
ARC
  8
_0-3_躯体と製品
  6
CONTINUOUS
 62
    2
 10
-418.889959696294
 20
-183.49991354110585
 40
3.524710999999999
 50
48.970251999999689
 51
86.159700000000271
  0
LINE
  8
_0-3_躯体と製品
  6
CONTINUOUS
 62
    2
 10
-419.98385669629397
 20
-179.9831175411058
 11
-421.57615969629387
 21
-180.90243354110589
  0
LINE
  8
_0-3_躯体と製品
  6
CONTINUOUS
 62
    2
 10
-415.57615969629387
 20
-176.98009854110592
 11
-416.57615969629387
 21
-177.9800985411058
  0
LINE
  8
_0-3_躯体と製品
  6
CONTINUOUS
 62
    2
 10
-416.57615969629387
 20
-177.9800985411058
 11
-416.57615969629387
 21
-179.9831175411058
  0
ARC
  8
_0-3_躯体と製品
  6
CONTINUOUS
 62
    2
 10
-404.26236069629385
 20
-183.49991354110585
 40
3.524710999999999
 50
93.840299999999729
 51
131.02974800000032
  0
LINE
  8
_0-3_躯体と製品
  6
CONTINUOUS
 62
    2
 10
-406.57615969629387
 20
-177.9800985411058
 11
-407.57615969629387
 21
-176.98009854110592
  0
LINE
  8
_0-3_躯体と製品
  6
CONTINUOUS
 62
    2
 10
-406.57615969629387
 20
-179.9831175411058
 11
-406.57615969629387
 21
-177.9800985411058
  0
LINE
  8
_0-3_躯体と製品
  6
CONTINUOUS
 62
    2
 10
-403.16846369629388
 20
-179.9831175411058
 11
-401.57615969629387
 21
-180.90243354110589
  0
LINE
  8
_0-3_躯体と製品
  6
CONTINUOUS
 62
    7
 10
-381.57616069629398
 20
-289.98009854110586
 11
-381.57616069629398
 21
-224.98009854110586
  0
LINE
  8
_0-3_躯体と製品
  6
CONTINUOUS
 62
    7
 10
-387.57616069629398
 20
-227.9800985411058
 11
-387.57616069629398
 21
-280.98009854110586
  0
LINE
  8
_0-3_躯体と製品
  6
CONTINUOUS
 62
    3
 10
-333.57616069629398
 20
-460.80105954110581
 11
-333.57615969629387
 21
-289.98009854110586
  0
LINE
  8
_0-3_躯体と製品
  6
CONTINUOUS
 62
    5
 10
-361.8114246962939
 20
-460.80105954110581
 11
-333.57616069629398
 21
-432.56579454110579
  0
LINE
  8
_0-3_躯体と製品
  6
CONTINUOUS
 62
    5
 10
-365.72860069629382
 20
-460.80105954110581
 11
-333.57616069629398
 21
-428.64861854110586
  0
LINE
  8
_0-3_躯体と製品
  6
CONTINUOUS
 62
    5
 10
-369.42815569629397
 20
-460.80105954110581
 11
-333.57616069629398
 21
-424.94906354110583
  0
LINE
  8
_0-3_躯体と製品
  6
CONTINUOUS
 62
    2
 10
-330.29412769629403
 20
-162.78009854110587
 11
-338.79412769629403
 21
-157.8726215411059
  0
LINE
  8
_0-3_躯体と製品
  6
CONTINUOUS
 62
    2
 10
-321.79412869629391
 20
-157.8726215411059
 11
-330.29412769629403
 21
-162.78009854110587
  0
CIRCLE
  8
_0-3_躯体と製品
  6
CONTINUOUS
 62
    2
 10
-330.30276169629383
 20
-152.98009854110592
 40
8.4913660000000011
  0
LINE
  8
_0-3_躯体と製品
  6
PLINE3
 62
    2
 10
-330.29412769629403
 20
-140.98009854110592
 11
-330.29412769629403
 21
-164.98009854110586
  0
LINE
  8
_0-3_躯体と製品
  6
CONTINUOUS
 62
    7
 10
-312.35287269629384
 20
-154.06004554110598
 11
-314.17726669629383
 21
-160.90248054110589
  0
LINE
  8
_0-3_躯体と製品
  6
CONTINUOUS
 62
    7
 10
-389.93514369629384
 20
-170.09334754110591
 11
-329.13073869629397
 21
-134.98790754110587
  0
LINE
  8
_0-3_躯体と製品
  6
CONTINUOUS
 62
    2
 10
-315.57616069629398
 20
-186.98009854110592
 11
-313.57616069629398
 21
-186.98009854110592
  0
LINE
  8
_0-3_躯体と製品
  6
CONTINUOUS
 62
    7
 10
-387.57616069629398
 20
-210.98009854110586
 11
-387.57616069629398
 21
-260.98009854110586
  0
LINE
  8
_0-3_躯体と製品
  6
CONTINUOUS
 62
    2
 10
-365.07616069629398
 20
-208.48009854110586
 11
-365.07616069629398
 21
-215.62223454110585
  0
LINE
  8
_0-3_躯体と製品
  6
CONTINUOUS
 62
    2
 10
-370.07616069629398
 20
-208.48009854110586
 11
-370.07616069629398
 21
-215.57688654110586
  0
LINE
  8
_0-3_躯体と製品
  6
CONTINUOUS
 62
    2
 10
-355.07616069629398
 20
-208.48009854110586
 11
-355.07616069629398
 21
-215.62223454110585
  0
LINE
  8
_0-3_躯体と製品
  6
CONTINUOUS
 62
    2
 10
-350.07616069629398
 20
-208.48009854110586
 11
-350.07616069629398
 21
-215.57688654110586
  0
LINE
  8
_0-3_躯体と製品
  6
PLINE3
 62
    2
 10
-360.07616069629398
 20
-178.19905954110584
 11
-360.07616069629398
 21
-223.98009854110586
  0
LINE
  8
_0-3_躯体と製品
  6
CONTINUOUS
 62
    2
 10
-351.64056969629382
 20
-216.48009854110586
 11
-360.07616069629398
 21
-216.48009854110586
  0
ARC
  8
_0-3_躯体と製品
  6
CONTINUOUS
 62
    7
 10
-384.57616069629398
 20
-227.9800985411058
 40
3
 50
90
 51
180
  0
LINE
  8
_0-3_躯体と製品
  6
CONTINUOUS
 62
    7
 10
-384.57616069629398
 20
-224.98009854110586
 11
-381.57616069629398
 21
-224.98009854110586
  0
LINE
  8
_0-3_躯体と製品
  6
CONTINUOUS
 62
    2
 10
-356.07616069629398
 20
-219.48009854110592
 11
-355.07616069629398
 21
-218.48009854110586
  0
LINE
  8
_0-3_躯体と製品
  6
CONTINUOUS
 62
    2
 10
-364.07616069629398
 20
-219.48009854110592
 11
-356.07616069629398
 21
-219.48009854110592
  0
LINE
  8
_0-3_躯体と製品
  6
CONTINUOUS
 62
    2
 10
-364.07616069629398
 20
-219.48009854110592
 11
-365.07616069629398
 21
-218.48009854110586
  0
LINE
  8
_0-3_躯体と製品
  6
CONTINUOUS
 62
    2
 10
-355.07616069629398
 20
-218.48009854110586
 11
-355.07616069629398
 21
-216.48009854110586
  0
LINE
  8
_0-3_躯体と製品
  6
CONTINUOUS
 62
    2
 10
-365.07616069629398
 20
-218.48009854110586
 11
-365.07616069629398
 21
-216.48009854110586
  0
ARC
  8
_0-3_躯体と製品
  6
CONTINUOUS
 62
    2
 10
-367.4882446962938
 20
-212.66009854110587
 40
3.819999999999999
 50
270
 51
309.1561320000028
  0
LINE
  8
_0-3_躯体と製品
  6
CONTINUOUS
 62
    2
 10
-368.51175069629403
 20
-216.48009854110586
 11
-360.07616069629398
 21
-216.48009854110586
  0
LINE
  8
_0-3_躯体と製品
  6
CONTINUOUS
 62
    2
 10
-370.07616069629398
 20
-215.57688654110586
 11
-368.51175069629403
 21
-216.48009854110586
  0
ARC
  8
_0-3_躯体と製品
  6
CONTINUOUS
 62
    2
 10
-352.66407569629382
 20
-212.66009854110587
 40
3.819999999999999
 50
230.84386799999723
 51
270
  0
ARC
  8
_0-3_躯体と製品
  6
CONTINUOUS
 62
    2
 10
-360.07616069629398
 20
-201.48009854110586
 40
15
 50
250.52877899999868
 51
289.47122100000121
  0
LINE
  8
_0-3_躯体と製品
  6
CONTINUOUS
 62
    2
 10
-350.07616069629398
 20
-215.57688654110586
 11
-351.64056969629382
 21
-216.48009854110586
  0
LINE
  8
_0-3_躯体と製品
  6
CONTINUOUS
 62
    2
 10
-371.07616069629398
 20
-195.98009854110586
 11
-349.07616069629398
 21
-195.98009854110586
  0
LINE
  8
_0-3_躯体と製品
  6
CONTINUOUS
 62
    7
 10
-382.57616069629398
 20
-205.98009854110586
 11
-332.57616069629398
 21
-205.98009854110586
  0
LINE
  8
_0-3_躯体と製品
  6
CONTINUOUS
 62
    2
 10
-351.66846369629388
 20
-186.48009854110586
 11
-368.48385669629397
 21
-186.48009854110586
  0
LINE
  8
_0-3_躯体と製品
  6
CONTINUOUS
 62
    2
 10
-371.07616069629398
 20
-194.48009854110592
 11
-349.07616069629398
 21
-194.48009854110592
  0
LINE
  8
_0-3_躯体と製品
  6
CONTINUOUS
 62
    2
 10
-370.07616069629398
 20
-208.48009854110586
 11
-350.07616069629398
 21
-208.48009854110586
  0
LINE
  8
_0-3_躯体と製品
  6
CONTINUOUS
 62
    7
 10
-389.93514369629384
 20
-170.09334754110591
 11
-389.93514369629384
 21
-192.9800985411058
  0
ARC
  8
_0-3_躯体と製品
  6
CONTINUOUS
 62
    7
 10
-382.57616069629398
 20
-210.98009854110586
 40
5
 50
90
 51
180
  0
ARC
  8
_0-3_躯体と製品
  6
CONTINUOUS
 62
    2
 10
-367.389959696294
 20
-189.99689554110591
 40
3.524710999999999
 50
48.970251999999689
 51
86.159700000000271
  0
LINE
  8
_0-3_躯体と製品
  6
CONTINUOUS
 62
    2
 10
-365.07616069629398
 20
-187.33796354110586
 11
-365.07616069629398
 21
-194.48009854110592
  0
ARC
  8
_0-3_躯体と製品
  6
CONTINUOUS
 62
    2
 10
-352.76236169629396
 20
-189.99689554110591
 40
3.524710999999999
 50
93.840299999999729
 51
131.02974800000032
  0
LINE
  8
_0-3_躯体と製品
  6
CONTINUOUS
 62
    2
 10
-363.07616069629398
 20
-205.98009854110586
 11
-360.57616069629398
 21
-208.48009854110586
  0
LINE
  8
_0-3_躯体と製品
  6
CONTINUOUS
 62
    2
 10
-357.57616069629398
 20
-208.48009854110586
 11
-360.07616069629398
 21
-205.98009854110586
  0
ARC
  8
_0-3_躯体と製品
  6
CONTINUOUS
 62
    2
 10
-360.07616069629398
 20
-201.48009854110586
 40
15
 50
70.528778999998764
 51
109.47122100000119
  0
LINE
  8
_0-3_躯体と製品
  6
CONTINUOUS
 62
    2
 10
-369.47616069629385
 20
-208.48009854110586
 11
-369.47616069629385
 21
-205.98009854110586
  0
LINE
  8
_0-3_躯体と製品
  6
CONTINUOUS
 62
    2
 10
-370.07616069629398
 20
-194.48009854110592
 11
-370.07616069629398
 21
-187.3994155411059
  0
LINE
  8
_0-3_躯体と製品
  6
CONTINUOUS
 62
    2
 10
-368.48385669629397
 20
-186.48009854110586
 11
-370.07616069629398
 21
-187.3994155411059
  0
LINE
  8
_0-3_躯体と製品
  6
CONTINUOUS
 62
    2
 10
-355.07616069629398
 20
-187.33796354110586
 11
-355.07616069629398
 21
-194.48009854110592
  0
LINE
  8
_0-3_躯体と製品
  6
CONTINUOUS
 62
    2
 10
-365.07616069629398
 20
-205.98009854110586
 11
-365.07616069629398
 21
-196.98009854110592
  0
LINE
  8
_0-3_躯体と製品
  6
CONTINUOUS
 62
    2
 10
-355.07616069629398
 20
-196.98009854110592
 11
-355.07616069629398
 21
-205.98009854110586
  0
LINE
  8
_0-3_躯体と製品
  6
CONTINUOUS
 62
    2
 10
-360.07616069629398
 20
-197.48009854110586
 11
-360.57616069629398
 21
-196.98009854110592
  0
LINE
  8
_0-3_躯体と製品
  6
CONTINUOUS
 62
    2
 10
-359.57616069629398
 20
-196.98009854110592
 11
-360.07616069629398
 21
-197.48009854110586
  0
LINE
  8
_0-3_躯体と製品
  6
CONTINUOUS
 62
    2
 10
-371.07616069629398
 20
-194.48009854110592
 11
-371.07616069629398
 21
-196.98009854110592
  0
LINE
  8
_0-3_躯体と製品
  6
CONTINUOUS
 62
    2
 10
-373.43514369629384
 20
-168.08757654110588
 11
-364.93514369629384
 21
-163.18009854110591
  0
LINE
  8
_0-3_躯体と製品
  6
CONTINUOUS
 62
    2
 10
-364.93514369629384
 20
-182.78009854110587
 11
-373.43514369629384
 21
-177.8726215411059
  0
CIRCLE
  8
_0-3_躯体と製品
  6
CONTINUOUS
 62
    2
 10
-364.94377869629398
 20
-172.9800985411058
 40
8.4913660000000011
  0
LINE
  8
_0-3_躯体と製品
  6
PLINE3
 62
    2
 10
-352.93514469629395
 20
-172.9800985411058
 11
-376.93514369629384
 21
-172.9800985411058
  0
LINE
  8
_0-3_躯体と製品
  6
CONTINUOUS
 62
    2
 10
-373.43514369629384
 20
-177.8726215411059
 11
-373.43514369629384
 21
-168.08757654110588
  0
LINE
  8
_0-3_躯体と製品
  6
CONTINUOUS
 62
    2
 10
-356.43514469629395
 20
-177.8726215411059
 11
-364.93514369629384
 21
-182.78009854110587
  0
LINE
  8
_0-3_躯体と製品
  6
CONTINUOUS
 62
    2
 10
-356.43514469629395
 20
-168.08757654110588
 11
-356.43514469629395
 21
-177.8726215411059
  0
LINE
  8
_0-3_躯体と製品
  6
CONTINUOUS
 62
    2
 10
-364.93514369629384
 20
-163.18009854110591
 11
-356.43514469629395
 21
-168.08757654110588
  0
LINE
  8
_0-3_躯体と製品
  6
PLINE3
 62
    2
 10
-364.93514369629384
 20
-160.98009854110592
 11
-364.93514369629384
 21
-184.98009854110586
  0
LINE
  8
_0-3_躯体と製品
  6
CONTINUOUS
 62
    7
 10
-339.93514469629395
 20
-192.9800985411058
 11
-339.93514469629395
 21
-175.8668505411058
  0
LINE
  8
_0-3_躯体と製品
  6
CONTINUOUS
 62
    2
 10
-351.66846369629388
 20
-186.48009854110586
 11
-350.07616069629398
 21
-187.3994155411059
  0
LINE
  8
_0-3_躯体と製品
  6
CONTINUOUS
 62
    2
 10
-350.67616069629389
 20
-205.98009854110586
 11
-350.67616069629389
 21
-208.48009854110586
  0
LINE
  8
_0-3_躯体と製品
  6
CONTINUOUS
 62
    2
 10
-350.07616069629398
 20
-187.3994155411059
 11
-350.07616069629398
 21
-194.48009854110592
  0
LINE
  8
_0-3_躯体と製品
  6
CONTINUOUS
 62
    7
 10
-350.07616069629398
 20
-192.9800985411058
 11
-339.93514469629395
 21
-192.9800985411058
  0
LINE
  8
_0-3_躯体と製品
  6
CONTINUOUS
 62
    7
 10
-339.93514469629395
 20
-192.9800985411058
 11
-339.93514469629395
 21
-196.98009854110592
  0
LINE
  8
_0-3_躯体と製品
  6
CONTINUOUS
 62
    2
 10
-349.07616069629398
 20
-194.48009854110592
 11
-349.07616069629398
 21
-196.98009854110592
  0
LINE
  8
_0-3_躯体と製品
  6
PLINE2
 62
    2
 10
-339.93514469629395
 20
-187.42175654110588
 11
-349.56243869629384
 21
-192.9800985411058
  0
LINE
  8
_0-3_躯体と製品
  6
CONTINUOUS
 62
    2
 10
-315.57616069629398
 20
-201.98009854110592
 11
-315.57616069629398
 21
-199.98009854110586
  0
LINE
  8
_0-3_躯体と製品
  6
CONTINUOUS
 62
    2
 10
-316.57616069629398
 20
-201.98009854110592
 11
-315.57616069629398
 21
-201.98009854110592
  0
ARC
  8
_0-3_躯体と製品
  6
CONTINUOUS
 62
    2
 10
-316.57616069629398
 20
-202.9800985411058
 40
1
 50
90
 51
270
  0
LINE
  8
_0-3_躯体と製品
  6
CONTINUOUS
 62
    7
 10
-328.57616069629398
 20
-201.98009854110592
 11
-328.57616069629398
 21
-199.98009854110586
  0
ARC
  8
_0-3_躯体と製品
  6
CONTINUOUS
 62
    7
 10
-332.57616069629398
 20
-201.98009854110592
 40
4
 50
270
 51
0
  0
LINE
  8
_0-3_躯体と製品
  6
CONTINUOUS
 62
    2
 10
-315.57616069629398
 20
-186.98009854110592
 11
-315.57616069629398
 21
-196.98009854110592
  0
LINE
  8
_0-3_躯体と製品
  6
CONTINUOUS
 62
    7
 10
-314.17726669629383
 20
-160.90248054110589
 11
-339.93514469629395
 21
-175.8668505411058
  0
LINE
  8
_0-3_躯体と製品
  6
CONTINUOUS
 62
    2
 10
-341.07263669629401
 20
-177.68653354110586
 11
-336.57324569629395
 21
-185.48111454110591
  0
LINE
  8
_0-3_躯体と製品
  6
CONTINUOUS
 62
    2
 10
-313.57616069629398
 20
-196.98009854110592
 11
-313.57616069629398
 21
-201.98009854110592
  0
LINE
  8
_0-3_躯体と製品
  6
CONTINUOUS
 62
    2
 10
-313.57616069629398
 20
-186.98009854110592
 11
-313.57616069629398
 21
-196.98009854110592
  0
LINE
  8
_0-3_躯体と製品
  6
CONTINUOUS
 62
    2
 10
-303.57616069629398
 20
-201.98009854110592
 11
-303.57616069629398
 21
-203.98009854110586
  0
LINE
  8
_0-3_躯体と製品
  6
CONTINUOUS
 62
    7
 10
-322.301656696294
 20
-136.81863854110588
 11
-312.35287269629384
 21
-154.06004554110598
  0
LINE
  8
_0-3_躯体と製品
  6
CONTINUOUS
 62
    2
 10
-338.79412769629403
 20
-148.08757654110593
 11
-330.29412769629403
 21
-143.18009854110591
  0
LINE
  8
_0-3_躯体と製品
  6
PLINE3
 62
    2
 10
-318.29412869629391
 20
-152.98009854110592
 11
-342.29412769629403
 21
-152.98009854110592
  0
LINE
  8
_0-3_躯体と製品
  6
CONTINUOUS
 62
    2
 10
-338.79412769629403
 20
-157.8726215411059
 11
-338.79412769629403
 21
-148.08757654110593
  0
LINE
  8
_0-3_躯体と製品
  6
CONTINUOUS
 62
    2
 10
-321.79412869629391
 20
-148.08757654110593
 11
-321.79412869629391
 21
-157.8726215411059
  0
LINE
  8
_0-3_躯体と製品
  6
CONTINUOUS
 62
    2
 10
-330.29412769629403
 20
-143.18009854110591
 11
-321.79412869629391
 21
-148.08757654110593
  0
LINE
  8
_0-3_躯体と製品
  6
CONTINUOUS
 62
    7
 10
-329.13073869629397
 20
-134.98790754110587
 11
-322.301656696294
 21
-136.81863854110588
  0
LINE
  8
_0-3_躯体と製品
  6
CONTINUOUS
 62
    2
 10
851.11423130370599
 20
-112.98009854110592
 11
851.11423130370599
 21
400.3308624588941
  0
LINE
  8
_0-3_躯体と製品
  6
CONTINUOUS
 62
    2
 10
849.11423130370599
 20
-112.98009854110592
 11
849.11423130370599
 21
400.3308624588941
  0
LINE
  8
_0-3_躯体と製品
  6
CONTINUOUS
 62
    2
 10
843.11423130370599
 20
484.03129645889408
 11
843.11423130370599
 21
-186.98009854110592
  0
LINE
  8
_0-3_躯体と製品
  6
CONTINUOUS
 62
    2
 10
839.11423130370599
 20
481.72244845889418
 11
839.11423130370599
 21
-186.98009854110592
  0
LINE
  8
_0-3_躯体と製品
  6
CONTINUOUS
 62
    2
 10
787.11423130370599
 20
451.70725645889422
 11
787.11423130370599
 21
-186.98009854110592
  0
LINE
  8
_0-3_躯体と製品
  6
CONTINUOUS
 62
    2
 10
777.11423130370599
 20
-113.58009854110594
 11
777.11423130370599
 21
400.3308624588941
  0
LINE
  8
_0-3_躯体と製品
  6
CONTINUOUS
 62
    2
 10
775.11423130370599
 20
-112.98009854110592
 11
775.11423130370599
 21
400.3308624588941
  0
LINE
  8
_0-3_躯体と製品
  6
PLINE3
 62
    2
 10
813.11423130370599
 20
490.40601945889409
 11
813.11423130370599
 21
-219.57498754110588
  0
LINE
  8
_0-3_躯体と製品
  6
CONTINUOUS
 62
    3
 10
866.42383930370602
 20
-460.80105954110581
 11
866.42383930370602
 21
567.15174945889407
  0
LINE
  8
_0-3_躯体と製品
  6
CONTINUOUS
 62
    2
 10
783.11423130370599
 20
-167.98009854110586
 11
843.11423130370599
 21
-167.98009854110586
  0
LINE
  8
_0-3_躯体と製品
  6
CONTINUOUS
 62
    2
 10
783.11423130370599
 20
-157.98009854110592
 11
843.11423130370599
 21
-157.98009854110592
  0
LINE
  8
_0-3_躯体と製品
  6
PLINE3
 62
    2
 10
868.78332530370631
 20
-162.98009854110592
 11
759.20430730370595
 21
-162.98009854110592
  0
LINE
  8
_0-3_躯体と製品
  6
CONTINUOUS
 62
    2
 10
783.11423130370599
 20
-127.98009854110592
 11
843.11423130370599
 21
-127.98009854110592
  0
LINE
  8
_0-3_躯体と製品
  6
CONTINUOUS
 62
    2
 10
783.11423130370599
 20
-117.98009854110592
 11
843.11423130370599
 21
-117.98009854110592
  0
LINE
  8
_0-3_躯体と製品
  6
PLINE3
 62
    2
 10
868.78332530370631
 20
-122.98009854110592
 11
759.20430730370595
 21
-122.98009854110592
  0
LINE
  8
_0-3_躯体と製品
  6
CONTINUOUS
 62
    2
 10
768.11724930370588
 20
-154.57240254110593
 11
768.11724930370588
 21
-171.53042454110584
  0
LINE
  8
_0-3_躯体と製品
  6
CONTINUOUS
 62
    2
 10
776.11423130370599
 20
-152.98009854110592
 11
776.11423130370599
 21
-172.9800985411058
  0
ARC
  8
_0-3_躯体と製品
  6
CONTINUOUS
 62
    2
 10
783.11724930370588
 20
-162.98009854110592
 40
15
 50
160.5287789999997
 51
180.00000000000003
  0
ARC
  8
_0-3_躯体と製品
  6
CONTINUOUS
 62
    2
 10
783.11724930370588
 20
-162.98009854110592
 40
15
 50
160.5287789999997
 51
180.00000000000003
  0
ARC
  8
_0-3_躯体と製品
  6
CONTINUOUS
 62
    2
 10
783.11724930370588
 20
-162.98009854110592
 40
15
 50
160.5287789999997
 51
180.00000000000003
  0
LINE
  8
_0-3_躯体と製品
  6
CONTINUOUS
 62
    2
 10
764.11423130370599
 20
-167.98009854110586
 11
764.11423130370599
 21
-157.98009854110592
  0
LINE
  8
_0-3_躯体と製品
  6
CONTINUOUS
 62
    2
 10
763.11423130370599
 20
-166.98009854110586
 11
763.11423130370599
 21
-158.98009854110592
  0
LINE
  8
_0-3_躯体と製品
  6
CONTINUOUS
 62
    7
 10
779.11423130370599
 20
-186.98009854110592
 11
779.11423130370599
 21
-107.98009854110592
  0
LINE
  8
_0-3_躯体と製品
  6
CONTINUOUS
 62
    2
 10
783.11423130370599
 20
-153.58009854110594
 11
783.11423130370599
 21
-186.98009854110592
  0
LINE
  8
_0-3_躯体と製品
  6
CONTINUOUS
 62
    2
 10
748.11423130370599
 20
-181.33796354110586
 11
748.11423130370599
 21
-186.98009854110592
  0
LINE
  8
_0-3_躯体と製品
  6
CONTINUOUS
 62
    2
 10
748.11423130370599
 20
-181.33796354110586
 11
748.11423130370599
 21
-186.98009854110592
  0
LINE
  8
_0-3_躯体と製品
  6
CONTINUOUS
 62
    2
 10
753.11423130370599
 20
-181.3994155411059
 11
753.11423130370599
 21
-186.98009854110592
  0
LINE
  8
_0-3_躯体と製品
  6
CONTINUOUS
 62
    2
 10
748.11423130370599
 20
-181.33796354110586
 11
748.11423130370599
 21
-186.98009854110592
  0
LINE
  8
_0-3_躯体と製品
  6
CONTINUOUS
 62
    2
 10
753.11423130370599
 20
-186.98009854110592
 11
753.11423130370599
 21
-181.3994155411059
  0
LINE
  8
_0-3_躯体と製品
  6
CONTINUOUS
 62
    2
 10
753.11423130370599
 20
-181.3994155411059
 11
753.11423130370599
 21
-186.98009854110592
  0
LINE
  8
_0-3_躯体と製品
  6
CONTINUOUS
 62
    2
 10
738.11423130370599
 20
-181.33796354110586
 11
738.11423130370599
 21
-186.98009854110592
  0
LINE
  8
_0-3_躯体と製品
  6
CONTINUOUS
 62
    2
 10
738.11423130370599
 20
-181.33796354110586
 11
738.11423130370599
 21
-186.98009854110592
  0
LINE
  8
_0-3_躯体と製品
  6
CONTINUOUS
 62
    2
 10
733.11423130370599
 20
-181.3994155411059
 11
733.11423130370599
 21
-186.98009854110592
  0
LINE
  8
_0-3_躯体と製品
  6
CONTINUOUS
 62
    2
 10
738.11423130370599
 20
-181.33796354110586
 11
738.11423130370599
 21
-186.98009854110592
  0
LINE
  8
_0-3_躯体と製品
  6
CONTINUOUS
 62
    2
 10
733.11423130370599
 20
-186.98009854110592
 11
733.11423130370599
 21
-181.3994155411059
  0
LINE
  8
_0-3_躯体と製品
  6
CONTINUOUS
 62
    2
 10
733.11423130370599
 20
-181.3994155411059
 11
733.11423130370599
 21
-186.98009854110592
  0
LINE
  8
_0-3_躯体と製品
  6
PLINE3
 62
    2
 10
743.11423130370599
 20
-171.45725554110584
 11
743.11423130370599
 21
-206.86781854110592
  0
ARC
  8
_0-3_躯体と製品
  6
CONTINUOUS
 62
    2
 10
743.11423130370599
 20
-195.4800985411058
 40
15
 50
90
 51
109.47122100000119
  0
LINE
  8
_0-3_躯体と製品
  6
CONTINUOUS
 62
    2
 10
743.11423130370599
 20
-180.4800985411058
 11
736.04423130370628
 21
-180.4800985411058
  0
ARC
  8
_0-3_躯体と製品
  6
CONTINUOUS
 62
    2
 10
743.11423130370599
 20
-195.4800985411058
 40
15
 50
90
 51
109.47122100000119
  0
ARC
  8
_0-3_躯体と製品
  6
CONTINUOUS
 62
    2
 10
743.11423130370599
 20
-195.4800985411058
 40
15
 50
90
 51
109.47122100000119
  0
LINE
  8
_0-3_躯体と製品
  6
CONTINUOUS
 62
    2
 10
743.11423130370599
 20
-180.4800985411058
 11
736.04423130370628
 21
-180.4800985411058
  0
LINE
  8
_0-3_躯体と製品
  6
CONTINUOUS
 62
    2
 10
743.11423130370599
 20
-177.48009854110586
 11
738.11423130370599
 21
-177.48009854110586
  0
LINE
  8
_0-3_躯体と製品
  6
CONTINUOUS
 62
    2
 10
739.11423130370599
 20
-176.48009854110586
 11
738.11423130370599
 21
-177.48009854110586
  0
ARC
  8
_0-3_躯体と製品
  6
CONTINUOUS
 62
    2
 10
735.80043230370597
 20
-183.99689554110591
 40
3.524710999999999
 50
48.970251999999689
 51
86.159700000000271
  0
LINE
  8
_0-3_躯体と製品
  6
CONTINUOUS
 62
    2
 10
735.36423130370599
 20
-180.47708054110586
 11
734.70653430370589
 21
-180.4800985411058
  0
LINE
  8
_0-3_躯体と製品
  6
CONTINUOUS
 62
    2
 10
734.70653430370589
 20
-180.4800985411058
 11
733.11423130370599
 21
-181.3994155411059
  0
LINE
  8
_0-3_躯体と製品
  6
CONTINUOUS
 62
    2
 10
735.36423130370599
 20
-180.47708054110586
 11
736.04316330370625
 21
-180.47708054110586
  0
ARC
  8
_0-3_躯体と製品
  6
CONTINUOUS
 62
    2
 10
735.80043230370597
 20
-183.99689554110591
 40
3.524710999999999
 50
48.970251999999689
 51
86.159700000000271
  0
LINE
  8
_0-3_躯体と製品
  6
CONTINUOUS
 62
    2
 10
735.36423130370599
 20
-180.47708054110586
 11
734.70653430370589
 21
-180.4800985411058
  0
LINE
  8
_0-3_躯体と製品
  6
CONTINUOUS
 62
    2
 10
734.70653430370589
 20
-180.4800985411058
 11
733.11423130370599
 21
-181.3994155411059
  0
LINE
  8
_0-3_躯体と製品
  6
CONTINUOUS
 62
    2
 10
735.36423130370599
 20
-180.47708054110586
 11
736.04316330370625
 21
-180.47708054110586
  0
ARC
  8
_0-3_躯体と製品
  6
CONTINUOUS
 62
    2
 10
735.80043230370597
 20
-183.99689554110591
 40
3.524710999999999
 50
48.970251999999689
 51
86.159700000000271
  0
LINE
  8
_0-3_躯体と製品
  6
CONTINUOUS
 62
    2
 10
735.36423130370599
 20
-180.47708054110586
 11
734.70653430370589
 21
-180.4800985411058
  0
LINE
  8
_0-3_躯体と製品
  6
CONTINUOUS
 62
    2
 10
734.70653430370589
 20
-180.4800985411058
 11
733.11423130370599
 21
-181.3994155411059
  0
LINE
  8
_0-3_躯体と製品
  6
CONTINUOUS
 62
    2
 10
735.36423130370599
 20
-180.47708054110586
 11
736.04316330370625
 21
-180.47708054110586
  0
LINE
  8
_0-3_躯体と製品
  6
CONTINUOUS
 62
    2
 10
738.11423130370599
 20
-177.48009854110586
 11
738.11423130370599
 21
-180.4800985411058
  0
ARC
  8
_0-3_躯体と製品
  6
CONTINUOUS
 62
    2
 10
743.11423130370599
 20
-195.4800985411058
 40
15
 50
70.528778999998764
 51
90
  0
ARC
  8
_0-3_躯体と製品
  6
CONTINUOUS
 62
    2
 10
750.42803030370601
 20
-183.99689554110591
 40
3.524710999999999
 50
93.840299999999729
 51
131.02974800000032
  0
LINE
  8
_0-3_躯体と製品
  6
CONTINUOUS
 62
    2
 10
750.86423130370599
 20
-180.47708054110586
 11
751.52192730370621
 21
-180.4800985411058
  0
LINE
  8
_0-3_躯体と製品
  6
CONTINUOUS
 62
    2
 10
751.52192730370621
 20
-180.4800985411058
 11
753.11423130370599
 21
-181.3994155411059
  0
LINE
  8
_0-3_躯体と製品
  6
CONTINUOUS
 62
    2
 10
743.11423130370599
 20
-180.4800985411058
 11
750.18423130370616
 21
-180.4800985411058
  0
LINE
  8
_0-3_躯体と製品
  6
CONTINUOUS
 62
    2
 10
750.86423130370599
 20
-180.47708054110586
 11
750.18529830370721
 21
-180.47708054110586
  0
ARC
  8
_0-3_躯体と製品
  6
CONTINUOUS
 62
    2
 10
743.11423130370599
 20
-195.4800985411058
 40
15
 50
70.528778999998764
 51
90
  0
ARC
  8
_0-3_躯体と製品
  6
CONTINUOUS
 62
    2
 10
750.42803030370601
 20
-183.99689554110591
 40
3.524710999999999
 50
93.840299999999729
 51
131.02974800000032
  0
LINE
  8
_0-3_躯体と製品
  6
CONTINUOUS
 62
    2
 10
750.86423130370599
 20
-180.47708054110586
 11
751.52192730370621
 21
-180.4800985411058
  0
LINE
  8
_0-3_躯体と製品
  6
CONTINUOUS
 62
    2
 10
751.52192730370621
 20
-180.4800985411058
 11
753.11423130370599
 21
-181.3994155411059
  0
LINE
  8
_0-3_躯体と製品
  6
CONTINUOUS
 62
    2
 10
750.86423130370599
 20
-180.47708054110586
 11
750.18529830370721
 21
-180.47708054110586
  0
ARC
  8
_0-3_躯体と製品
  6
CONTINUOUS
 62
    2
 10
743.11423130370599
 20
-195.4800985411058
 40
15
 50
70.528778999998764
 51
90
  0
ARC
  8
_0-3_躯体と製品
  6
CONTINUOUS
 62
    2
 10
750.42803030370601
 20
-183.99689554110591
 40
3.524710999999999
 50
93.840299999999729
 51
131.02974800000032
  0
LINE
  8
_0-3_躯体と製品
  6
CONTINUOUS
 62
    2
 10
750.86423130370599
 20
-180.47708054110586
 11
751.52192730370621
 21
-180.4800985411058
  0
LINE
  8
_0-3_躯体と製品
  6
CONTINUOUS
 62
    2
 10
751.52192730370621
 20
-180.4800985411058
 11
753.11423130370599
 21
-181.3994155411059
  0
LINE
  8
_0-3_躯体と製品
  6
CONTINUOUS
 62
    2
 10
743.11423130370599
 20
-180.4800985411058
 11
750.18423130370616
 21
-180.4800985411058
  0
LINE
  8
_0-3_躯体と製品
  6
CONTINUOUS
 62
    2
 10
750.86423130370599
 20
-180.47708054110586
 11
750.18529830370721
 21
-180.47708054110586
  0
LINE
  8
_0-3_躯体と製品
  6
CONTINUOUS
 62
    2
 10
743.11423130370599
 20
-177.48009854110586
 11
748.11423130370599
 21
-177.48009854110586
  0
LINE
  8
_0-3_躯体と製品
  6
CONTINUOUS
 62
    2
 10
747.11423130370599
 20
-176.48009854110586
 11
747.11423130370599
 21
-180.4800985411058
  0
LINE
  8
_0-3_躯体と製品
  6
CONTINUOUS
 62
    2
 10
748.11423130370599
 20
-177.48009854110586
 11
748.11423130370599
 21
-180.4800985411058
  0
LINE
  8
_0-3_躯体と製品
  6
CONTINUOUS
 62
    2
 10
747.11423130370599
 20
-176.48009854110586
 11
748.11423130370599
 21
-177.48009854110586
  0
LINE
  8
_0-3_躯体と製品
  6
CONTINUOUS
 62
    2
 10
743.11423130370599
 20
-176.48009854110586
 11
747.11423130370599
 21
-176.48009854110586
  0
LINE
  8
_0-3_躯体と製品
  6
CONTINUOUS
 62
    2
 10
739.11423130370599
 20
-176.48009854110586
 11
739.11423130370599
 21
-180.4800985411058
  0
LINE
  8
_0-3_躯体と製品
  6
CONTINUOUS
 62
    2
 10
743.11423130370599
 20
-176.48009854110586
 11
739.11423130370599
 21
-176.48009854110586
  0
LINE
  8
_0-3_躯体と製品
  6
CONTINUOUS
 62
    2
 10
777.11423130370599
 20
-172.38009854110589
 11
777.11423130370599
 21
-186.98009854110592
  0
LINE
  8
_0-3_躯体と製品
  6
CONTINUOUS
 62
    2
 10
775.11423130370599
 20
-186.98009854110592
 11
775.11423130370599
 21
-172.9800985411058
  0
LINE
  8
_0-3_躯体と製品
  6
CONTINUOUS
 62
    2
 10
779.11423130370599
 20
-172.38009854110589
 11
776.11423130370599
 21
-172.38009854110589
  0
LINE
  8
_0-3_躯体と製品
  6
CONTINUOUS
 62
    2
 10
776.11423130370599
 20
-159.98009854110592
 11
779.11423130370599
 21
-162.98009854110592
  0
LINE
  8
_0-3_躯体と製品
  6
CONTINUOUS
 62
    2
 10
779.11423130370599
 20
-165.98009854110586
 11
776.11423130370599
 21
-162.98009854110592
  0
LINE
  8
_0-3_躯体と製品
  6
CONTINUOUS
 62
    2
 10
779.11423130370599
 20
-172.38009854110589
 11
776.11423130370599
 21
-172.38009854110589
  0
LINE
  8
_0-3_躯体と製品
  6
CONTINUOUS
 62
    2
 10
776.11423130370599
 20
-159.98009854110592
 11
779.11423130370599
 21
-162.98009854110592
  0
LINE
  8
_0-3_躯体と製品
  6
CONTINUOUS
 62
    2
 10
779.11423130370599
 20
-165.98009854110586
 11
776.11423130370599
 21
-162.98009854110592
  0
LINE
  8
_0-3_躯体と製品
  6
CONTINUOUS
 62
    2
 10
779.11423130370599
 20
-172.38009854110589
 11
776.11423130370599
 21
-172.38009854110589
  0
LINE
  8
_0-3_躯体と製品
  6
CONTINUOUS
 62
    2
 10
776.11423130370599
 20
-159.98009854110592
 11
779.11423130370599
 21
-162.98009854110592
  0
LINE
  8
_0-3_躯体と製品
  6
CONTINUOUS
 62
    2
 10
779.11423130370599
 20
-165.98009854110586
 11
776.11423130370599
 21
-162.98009854110592
  0
LINE
  8
_0-3_躯体と製品
  6
CONTINUOUS
 62
    2
 10
769.03656630370619
 20
-172.9800985411058
 11
776.11423130370599
 21
-172.9800985411058
  0
LINE
  8
_0-3_躯体と製品
  6
CONTINUOUS
 62
    2
 10
768.11724930370588
 20
-171.3877955411059
 11
769.03656630370619
 21
-172.9800985411058
  0
ARC
  8
_0-3_躯体と製品
  6
CONTINUOUS
 62
    2
 10
771.63404530370622
 20
-170.29389754110588
 40
3.524710999999999
 50
138.97025199999959
 51
176.15970000000021
  0
LINE
  8
_0-3_躯体と製品
  6
CONTINUOUS
 62
    2
 10
768.9751133037073
 20
-167.98009854110586
 11
776.11423130370599
 21
-167.98009854110586
  0
ARC
  8
_0-3_躯体と製品
  6
CONTINUOUS
 62
    2
 10
783.11724930370588
 20
-162.98009854110592
 40
15
 50
180
 51
199.47122100000021
  0
LINE
  8
_0-3_躯体と製品
  6
CONTINUOUS
 62
    2
 10
768.11423130370599
 20
-170.08307654110587
 11
768.11423130370599
 21
-171.46695154110586
  0
LINE
  8
_0-3_躯体と製品
  6
CONTINUOUS
 62
    2
 10
769.03656630370619
 20
-172.9800985411058
 11
776.11423130370599
 21
-172.9800985411058
  0
LINE
  8
_0-3_躯体と製品
  6
CONTINUOUS
 62
    2
 10
768.11724930370588
 20
-171.3877955411059
 11
769.03656630370619
 21
-172.9800985411058
  0
ARC
  8
_0-3_躯体と製品
  6
CONTINUOUS
 62
    2
 10
771.63404530370622
 20
-170.29389754110588
 40
3.524710999999999
 50
138.97025199999959
 51
176.15970000000021
  0
LINE
  8
_0-3_躯体と製品
  6
CONTINUOUS
 62
    2
 10
768.9751133037073
 20
-167.98009854110586
 11
776.11423130370599
 21
-167.98009854110586
  0
ARC
  8
_0-3_躯体と製品
  6
CONTINUOUS
 62
    2
 10
783.11724930370588
 20
-162.98009854110592
 40
15
 50
180
 51
199.47122100000021
  0
LINE
  8
_0-3_躯体と製品
  6
CONTINUOUS
 62
    2
 10
768.11423130370599
 20
-170.08307654110587
 11
768.11423130370599
 21
-171.46695154110586
  0
LINE
  8
_0-3_躯体と製品
  6
CONTINUOUS
 62
    2
 10
769.03656630370619
 20
-172.9800985411058
 11
776.11423130370599
 21
-172.9800985411058
  0
LINE
  8
_0-3_躯体と製品
  6
CONTINUOUS
 62
    2
 10
768.11724930370588
 20
-171.3877955411059
 11
769.03656630370619
 21
-172.9800985411058
  0
ARC
  8
_0-3_躯体と製品
  6
CONTINUOUS
 62
    2
 10
771.63404530370622
 20
-170.29389754110588
 40
3.524710999999999
 50
138.97025199999959
 51
176.15970000000021
  0
LINE
  8
_0-3_躯体と製品
  6
CONTINUOUS
 62
    2
 10
768.9751133037073
 20
-167.98009854110586
 11
776.11423130370599
 21
-167.98009854110586
  0
ARC
  8
_0-3_躯体と製品
  6
CONTINUOUS
 62
    2
 10
783.11724930370588
 20
-162.98009854110592
 40
15
 50
180
 51
199.47122100000021
  0
LINE
  8
_0-3_躯体と製品
  6
CONTINUOUS
 62
    2
 10
768.11423130370599
 20
-170.08307654110587
 11
768.11423130370599
 21
-171.46695154110586
  0
LINE
  8
_0-3_躯体と製品
  6
CONTINUOUS
 62
    2
 10
768.11724930370588
 20
-166.98009854110586
 11
763.11423130370599
 21
-166.98009854110586
  0
LINE
  8
_0-3_躯体と製品
  6
CONTINUOUS
 62
    2
 10
764.11423130370599
 20
-167.98009854110586
 11
763.11423130370599
 21
-166.98009854110586
  0
LINE
  8
_0-3_躯体と製品
  6
CONTINUOUS
 62
    2
 10
764.11423130370599
 20
-167.98009854110586
 11
768.11724930370588
 21
-167.98009854110586
  0
LINE
  8
_0-3_躯体と製品
  6
CONTINUOUS
 62
    2
 10
776.11423130370599
 20
-112.98009854110592
 11
776.11423130370599
 21
-132.98009854110592
  0
LINE
  8
_0-3_躯体と製品
  6
CONTINUOUS
 62
    2
 10
768.11724930370588
 20
-131.3877955411059
 11
769.03656630370619
 21
-132.98009854110592
  0
LINE
  8
_0-3_躯体と製品
  6
CONTINUOUS
 62
    2
 10
768.11724930370588
 20
-131.3877955411059
 11
769.03656630370619
 21
-132.98009854110592
  0
LINE
  8
_0-3_躯体と製品
  6
CONTINUOUS
 62
    2
 10
768.11724930370588
 20
-131.3877955411059
 11
769.03656630370619
 21
-132.98009854110592
  0
LINE
  8
_0-3_躯体と製品
  6
CONTINUOUS
 62
    2
 10
777.11423130370599
 20
-153.58009854110594
 11
777.11423130370599
 21
-132.38009854110589
  0
LINE
  8
_0-3_躯体と製品
  6
CONTINUOUS
 62
    2
 10
779.11423130370599
 20
-153.58009854110594
 11
776.11423130370599
 21
-153.58009854110594
  0
LINE
  8
_0-3_躯体と製品
  6
CONTINUOUS
 62
    2
 10
768.11724930370588
 20
-154.57240254110593
 11
769.03656630370619
 21
-152.98009854110592
  0
LINE
  8
_0-3_躯体と製品
  6
CONTINUOUS
 62
    2
 10
768.9751133037073
 20
-157.98009854110592
 11
776.11423130370599
 21
-157.98009854110592
  0
LINE
  8
_0-3_躯体と製品
  6
CONTINUOUS
 62
    2
 10
768.9751133037073
 20
-157.98009854110592
 11
776.11423130370599
 21
-157.98009854110592
  0
ARC
  8
_0-3_躯体と製品
  6
CONTINUOUS
 62
    2
 10
771.63404530370622
 20
-155.6662995411059
 40
3.524710999999999
 50
186.5703749999997
 51
221.0297480000003
  0
LINE
  8
_0-3_躯体と製品
  6
CONTINUOUS
 62
    2
 10
768.9751133037073
 20
-157.98009854110592
 11
776.11423130370599
 21
-157.98009854110592
  0
ARC
  8
_0-3_躯体と製品
  6
CONTINUOUS
 62
    2
 10
771.63404530370622
 20
-155.6662995411059
 40
3.524710999999999
 50
183.8402999999997
 51
221.0297480000003
  0
LINE
  8
_0-3_躯体と製品
  6
CONTINUOUS
 62
    2
 10
768.11724930370588
 20
-158.98009854110592
 11
763.11423130370599
 21
-158.98009854110592
  0
LINE
  8
_0-3_躯体と製品
  6
CONTINUOUS
 62
    2
 10
763.11423130370599
 20
-158.98009854110592
 11
764.11423130370599
 21
-157.98009854110592
  0
LINE
  8
_0-3_躯体と製品
  6
CONTINUOUS
 62
    2
 10
769.03656630370619
 20
-152.98009854110592
 11
776.11423130370599
 21
-152.98009854110592
  0
LINE
  8
_0-3_躯体と製品
  6
CONTINUOUS
 62
    2
 10
764.11423130370599
 20
-157.98009854110592
 11
768.11724930370588
 21
-157.98009854110592
  0
LINE
  8
_0-3_躯体と製品
  6
CONTINUOUS
 62
    2
 10
769.03656630370619
 20
-132.98009854110592
 11
776.11423130370599
 21
-132.98009854110592
  0
LINE
  8
_0-3_躯体と製品
  6
CONTINUOUS
 62
    2
 10
769.03656630370619
 20
-132.98009854110592
 11
776.11423130370599
 21
-132.98009854110592
  0
LINE
  8
_0-3_躯体と製品
  6
CONTINUOUS
 62
    2
 10
769.03656630370619
 20
-132.98009854110592
 11
776.11423130370599
 21
-132.98009854110592
  0
LINE
  8
_0-3_躯体と製品
  6
CONTINUOUS
 62
    2
 10
775.11423130370599
 20
-152.98009854110592
 11
775.11423130370599
 21
-132.98009854110592
  0
LINE
  8
_0-3_躯体と製品
  6
CONTINUOUS
 62
    2
 10
779.11423130370599
 20
-113.58009854110594
 11
776.11423130370599
 21
-113.58009854110594
  0
LINE
  8
_0-3_躯体と製品
  6
CONTINUOUS
 62
    2
 10
779.11423130370599
 20
-132.38009854110589
 11
776.11423130370599
 21
-132.38009854110589
  0
LINE
  8
_0-3_躯体と製品
  6
CONTINUOUS
 62
    2
 10
776.11423130370599
 20
-119.98009854110592
 11
779.11423130370599
 21
-122.98009854110592
  0
LINE
  8
_0-3_躯体と製品
  6
CONTINUOUS
 62
    2
 10
779.11423130370599
 20
-125.98009854110592
 11
776.11423130370599
 21
-122.98009854110592
  0
LINE
  8
_0-3_躯体と製品
  6
CONTINUOUS
 62
    2
 10
779.11423130370599
 20
-132.38009854110589
 11
776.11423130370599
 21
-132.38009854110589
  0
LINE
  8
_0-3_躯体と製品
  6
CONTINUOUS
 62
    2
 10
776.11423130370599
 20
-119.98009854110592
 11
779.11423130370599
 21
-122.98009854110592
  0
LINE
  8
_0-3_躯体と製品
  6
CONTINUOUS
 62
    2
 10
779.11423130370599
 20
-125.98009854110592
 11
776.11423130370599
 21
-122.98009854110592
  0
LINE
  8
_0-3_躯体と製品
  6
CONTINUOUS
 62
    2
 10
779.11423130370599
 20
-132.38009854110589
 11
776.11423130370599
 21
-132.38009854110589
  0
LINE
  8
_0-3_躯体と製品
  6
CONTINUOUS
 62
    2
 10
776.11423130370599
 20
-119.98009854110592
 11
779.11423130370599
 21
-122.98009854110592
  0
LINE
  8
_0-3_躯体と製品
  6
CONTINUOUS
 62
    2
 10
779.11423130370599
 20
-125.98009854110592
 11
776.11423130370599
 21
-122.98009854110592
  0
LINE
  8
_0-3_躯体と製品
  6
CONTINUOUS
 62
    2
 10
768.11724930370588
 20
-114.57240254110593
 11
768.11724930370588
 21
-131.5304245411059
  0
LINE
  8
_0-3_躯体と製品
  6
CONTINUOUS
 62
    2
 10
768.11724930370588
 20
-114.57240254110593
 11
769.03656630370619
 21
-112.98009854110592
  0
ARC
  8
_0-3_躯体と製品
  6
CONTINUOUS
 62
    2
 10
771.63404530370622
 20
-130.29389754110593
 40
3.524710999999999
 50
138.97025199999959
 51
176.15970000000021
  0
LINE
  8
_0-3_躯体と製品
  6
CONTINUOUS
 62
    2
 10
768.9751133037073
 20
-127.98009854110592
 11
776.11423130370599
 21
-127.98009854110592
  0
LINE
  8
_0-3_躯体と製品
  6
CONTINUOUS
 62
    2
 10
768.9751133037073
 20
-117.98009854110592
 11
776.11423130370599
 21
-117.98009854110592
  0
ARC
  8
_0-3_躯体と製品
  6
CONTINUOUS
 62
    2
 10
783.11724930370588
 20
-122.98009854110592
 40
15
 50
180
 51
199.47122100000021
  0
ARC
  8
_0-3_躯体と製品
  6
CONTINUOUS
 62
    2
 10
783.11724930370588
 20
-122.98009854110592
 40
15
 50
160.5287789999997
 51
180.00000000000003
  0
LINE
  8
_0-3_躯体と製品
  6
CONTINUOUS
 62
    2
 10
768.11423130370599
 20
-130.08307654110592
 11
768.11423130370599
 21
-131.46695154110591
  0
ARC
  8
_0-3_躯体と製品
  6
CONTINUOUS
 62
    2
 10
771.63404530370622
 20
-130.29389754110593
 40
3.524710999999999
 50
138.97025199999959
 51
176.15970000000021
  0
LINE
  8
_0-3_躯体と製品
  6
CONTINUOUS
 62
    2
 10
768.9751133037073
 20
-127.98009854110592
 11
776.11423130370599
 21
-127.98009854110592
  0
LINE
  8
_0-3_躯体と製品
  6
CONTINUOUS
 62
    2
 10
768.9751133037073
 20
-117.98009854110592
 11
776.11423130370599
 21
-117.98009854110592
  0
ARC
  8
_0-3_躯体と製品
  6
CONTINUOUS
 62
    2
 10
783.11724930370588
 20
-122.98009854110592
 40
15
 50
180
 51
199.47122100000021
  0
ARC
  8
_0-3_躯体と製品
  6
CONTINUOUS
 62
    2
 10
783.11724930370588
 20
-122.98009854110592
 40
15
 50
160.5287789999997
 51
180.00000000000003
  0
ARC
  8
_0-3_躯体と製品
  6
CONTINUOUS
 62
    2
 10
771.63404530370622
 20
-115.6662995411059
 40
3.524710999999999
 50
186.5703749999997
 51
221.0297480000003
  0
LINE
  8
_0-3_躯体と製品
  6
CONTINUOUS
 62
    2
 10
768.11423130370599
 20
-130.08307654110592
 11
768.11423130370599
 21
-131.46695154110591
  0
ARC
  8
_0-3_躯体と製品
  6
CONTINUOUS
 62
    2
 10
771.63404530370622
 20
-130.29389754110593
 40
3.524710999999999
 50
138.97025199999959
 51
176.15970000000021
  0
LINE
  8
_0-3_躯体と製品
  6
CONTINUOUS
 62
    2
 10
768.9751133037073
 20
-127.98009854110592
 11
776.11423130370599
 21
-127.98009854110592
  0
LINE
  8
_0-3_躯体と製品
  6
CONTINUOUS
 62
    2
 10
768.9751133037073
 20
-117.98009854110592
 11
776.11423130370599
 21
-117.98009854110592
  0
ARC
  8
_0-3_躯体と製品
  6
CONTINUOUS
 62
    2
 10
783.11724930370588
 20
-122.98009854110592
 40
15
 50
180
 51
199.47122100000021
  0
ARC
  8
_0-3_躯体と製品
  6
CONTINUOUS
 62
    2
 10
783.11724930370588
 20
-122.98009854110592
 40
15
 50
160.5287789999997
 51
180.00000000000003
  0
ARC
  8
_0-3_躯体と製品
  6
CONTINUOUS
 62
    2
 10
771.63404530370622
 20
-115.6662995411059
 40
3.524710999999999
 50
183.8402999999997
 51
221.0297480000003
  0
LINE
  8
_0-3_躯体と製品
  6
CONTINUOUS
 62
    2
 10
768.11423130370599
 20
-130.08307654110592
 11
768.11423130370599
 21
-131.46695154110591
  0
LINE
  8
_0-3_躯体と製品
  6
CONTINUOUS
 62
    2
 10
768.11724930370588
 20
-126.98009854110592
 11
763.11423130370599
 21
-126.98009854110592
  0
LINE
  8
_0-3_躯体と製品
  6
CONTINUOUS
 62
    2
 10
768.11724930370588
 20
-118.98009854110592
 11
763.11423130370599
 21
-118.98009854110592
  0
LINE
  8
_0-3_躯体と製品
  6
CONTINUOUS
 62
    2
 10
764.11423130370599
 20
-127.98009854110592
 11
764.11423130370599
 21
-117.98009854110592
  0
LINE
  8
_0-3_躯体と製品
  6
CONTINUOUS
 62
    2
 10
763.11423130370599
 20
-118.98009854110592
 11
764.11423130370599
 21
-117.98009854110592
  0
LINE
  8
_0-3_躯体と製品
  6
CONTINUOUS
 62
    2
 10
763.11423130370599
 20
-126.98009854110592
 11
763.11423130370599
 21
-118.98009854110592
  0
LINE
  8
_0-3_躯体と製品
  6
CONTINUOUS
 62
    2
 10
764.11423130370599
 20
-127.98009854110592
 11
763.11423130370599
 21
-126.98009854110592
  0
LINE
  8
_0-3_躯体と製品
  6
CONTINUOUS
 62
    2
 10
769.03656630370619
 20
-112.98009854110592
 11
776.11423130370599
 21
-112.98009854110592
  0
LINE
  8
_0-3_躯体と製品
  6
CONTINUOUS
 62
    2
 10
764.11423130370599
 20
-127.98009854110592
 11
768.11724930370588
 21
-127.98009854110592
  0
LINE
  8
_0-3_躯体と製品
  6
CONTINUOUS
 62
    2
 10
764.11423130370599
 20
-117.98009854110592
 11
768.11724930370588
 21
-117.98009854110592
  0
LINE
  8
_0-3_躯体と製品
  6
CONTINUOUS
 62
    7
 10
779.11423130370599
 20
-107.98009854110592
 11
783.11423130370599
 21
-107.98009854110592
  0
ARC
  8
_0-3_躯体と製品
  6
CONTINUOUS
 62
    2
 10
837.61423130370599
 20
-162.98009854110592
 40
15
 50
0
 51
19.471221000000252
  0
LINE
  8
_0-3_躯体と製品
  6
CONTINUOUS
 62
    2
 10
852.61423130370599
 20
-154.54450754110587
 11
852.61423130370599
 21
-171.41568954110591
  0
LINE
  8
_0-3_躯体と製品
  6
CONTINUOUS
 62
    2
 10
844.61423130370599
 20
-151.98009854110592
 11
844.61423130370599
 21
-173.98009854110586
  0
LINE
  8
_0-3_躯体と製品
  6
CONTINUOUS
 62
    2
 10
864.42383930370602
 20
-186.98009854110592
 11
864.42383930370602
 21
-242.9800985411058
  0
LINE
  8
_0-3_躯体と製品
  6
CONTINUOUS
 62
    2
 10
864.42383930370602
 20
-242.9800985411058
 11
866.42383930370602
 21
-242.9800985411058
  0
LINE
  8
_0-3_躯体と製品
  6
CONTINUOUS
 62
    2
 10
851.11423130370599
 20
-186.98009854110592
 11
851.11423130370599
 21
-172.9800985411058
  0
LINE
  8
_0-3_躯体と製品
  6
CONTINUOUS
 62
    2
 10
849.11423130370599
 20
-186.98009854110592
 11
849.11423130370599
 21
-172.9800985411058
  0
ARC
  8
_0-3_躯体と製品
  6
CONTINUOUS
 62
    2
 10
848.79423130370628
 20
-170.39218354110591
 40
3.819999999999999
 50
0
 51
39.156132000000255
  0
ARC
  8
_0-3_躯体と製品
  6
CONTINUOUS
 62
    2
 10
837.61423130370599
 20
-162.98009854110592
 40
15
 50
340.5287789999997
 51
0.0000000000000159
  0
LINE
  8
_0-3_躯体と製品
  6
CONTINUOUS
 62
    2
 10
844.61423130370599
 20
-167.98009854110586
 11
851.75636630370605
 21
-167.98009854110586
  0
LINE
  8
_0-3_躯体と製品
  6
CONTINUOUS
 62
    2
 10
851.71101930370628
 20
-172.9800985411058
 11
844.61423130370599
 21
-172.9800985411058
  0
LINE
  8
_0-3_躯体と製品
  6
CONTINUOUS
 62
    2
 10
852.61423130370599
 20
-171.41568954110591
 11
851.71101930370628
 21
-172.9800985411058
  0
LINE
  8
_0-3_躯体と製品
  6
CONTINUOUS
 62
    2
 10
844.61423130370599
 20
-173.98009854110586
 11
843.11423130370599
 21
-173.98009854110586
  0
LINE
  8
_0-3_躯体と製品
  6
CONTINUOUS
 62
    2
 10
852.61423130370599
 20
-131.41568954110591
 11
851.71101930370628
 21
-132.98009854110592
  0
LINE
  8
_0-3_躯体と製品
  6
CONTINUOUS
 62
    2
 10
844.61423130370599
 20
-111.98009854110592
 11
844.61423130370599
 21
-133.98009854110592
  0
LINE
  8
_0-3_躯体と製品
  6
CONTINUOUS
 62
    2
 10
851.71101930370628
 20
-152.98009854110592
 11
844.61423130370599
 21
-152.98009854110592
  0
LINE
  8
_0-3_躯体と製品
  6
CONTINUOUS
 62
    2
 10
844.61423130370599
 20
-157.98009854110592
 11
851.75636630370605
 21
-157.98009854110592
  0
ARC
  8
_0-3_躯体と製品
  6
CONTINUOUS
 62
    2
 10
848.79423130370628
 20
-155.56801454110592
 40
3.819999999999999
 50
320.8438679999997
 51
0.0000000000000127
  0
LINE
  8
_0-3_躯体と製品
  6
CONTINUOUS
 62
    2
 10
851.71101930370628
 20
-152.98009854110592
 11
852.61423130370599
 21
-154.54450754110587
  0
LINE
  8
_0-3_躯体と製品
  6
CONTINUOUS
 62
    2
 10
843.11423130370599
 20
-151.98009854110592
 11
844.61423130370599
 21
-151.98009854110592
  0
LINE
  8
_0-3_躯体と製品
  6
CONTINUOUS
 62
    2
 10
851.71101930370628
 20
-132.98009854110592
 11
844.61423130370599
 21
-132.98009854110592
  0
LINE
  8
_0-3_躯体と製品
  6
CONTINUOUS
 62
    2
 10
851.11423130370599
 20
-152.98009854110592
 11
851.11423130370599
 21
-132.98009854110592
  0
LINE
  8
_0-3_躯体と製品
  6
CONTINUOUS
 62
    2
 10
849.11423130370599
 20
-152.98009854110592
 11
849.11423130370599
 21
-132.98009854110592
  0
LINE
  8
_0-3_躯体と製品
  6
CONTINUOUS
 62
    2
 10
844.61423130370599
 20
-133.98009854110592
 11
843.11423130370599
 21
-133.98009854110592
  0
LINE
  8
_0-3_躯体と製品
  6
CONTINUOUS
 62
    2
 10
851.71101930370628
 20
-112.98009854110592
 11
844.61423130370599
 21
-112.98009854110592
  0
LINE
  8
_0-3_躯体と製品
  6
CONTINUOUS
 62
    2
 10
844.61423130370599
 20
-117.98009854110592
 11
851.75636630370605
 21
-117.98009854110592
  0
ARC
  8
_0-3_躯体と製品
  6
CONTINUOUS
 62
    2
 10
848.79423130370628
 20
-115.56801454110587
 40
3.819999999999999
 50
320.8438679999997
 51
0.0000000000000127
  0
ARC
  8
_0-3_躯体と製品
  6
CONTINUOUS
 62
    2
 10
837.61423130370599
 20
-122.98009854110592
 40
15
 50
0
 51
19.471221000000252
  0
ARC
  8
_0-3_躯体と製品
  6
CONTINUOUS
 62
    2
 10
848.79423130370628
 20
-130.39218354110596
 40
3.819999999999999
 50
0
 51
39.156132000000255
  0
ARC
  8
_0-3_躯体と製品
  6
CONTINUOUS
 62
    2
 10
837.61423130370599
 20
-122.98009854110592
 40
15
 50
340.5287789999997
 51
0.0000000000000159
  0
LINE
  8
_0-3_躯体と製品
  6
CONTINUOUS
 62
    2
 10
844.61423130370599
 20
-127.98009854110592
 11
851.75636630370605
 21
-127.98009854110592
  0
LINE
  8
_0-3_躯体と製品
  6
CONTINUOUS
 62
    2
 10
852.61423130370599
 20
-114.54450854110587
 11
852.61423130370599
 21
-131.41568954110591
  0
LINE
  8
_0-3_躯体と製品
  6
CONTINUOUS
 62
    2
 10
851.71101930370628
 20
-112.98009854110592
 11
852.61423130370599
 21
-114.54450854110587
  0
LINE
  8
_0-3_躯体と製品
  6
CONTINUOUS
 62
    2
 10
843.11423130370599
 20
-111.98009854110592
 11
844.61423130370599
 21
-111.98009854110592
  0
LINE
  8
_0-3_躯体と製品
  6
CONTINUOUS
 62
    5
 10
866.42383930370602
 20
-17.750979541105892
 11
962.72013630370589
 21
78.545316458894092
  0
LINE
  8
_0-3_躯体と製品
  6
CONTINUOUS
 62
    5
 10
866.42383930370602
 20
-13.833803541105908
 11
962.72013630370589
 21
82.462492458894189
  0
LINE
  8
_0-3_躯体と製品
  6
CONTINUOUS
 62
    5
 10
866.42383930370602
 20
-10.134249541105902
 11
962.72013630370589
 21
86.162047458894108
  0
LINE
  8
_0-3_躯体と製品
  6
CONTINUOUS
 62
    2
 10
826.01892530370719
 20
545.02911345889413
 11
887.42383930370602
 21
582.2303604588941
  0
LINE
  8
_0-3_躯体と製品
  6
CONTINUOUS
 62
    2
 10
783.11423130370599
 20
415.33086245889399
 11
843.11423130370599
 21
415.33086245889399
  0
LINE
  8
_0-3_躯体と製品
  6
CONTINUOUS
 62
    2
 10
783.11423130370599
 20
405.3308624588941
 11
843.11423130370599
 21
405.3308624588941
  0
LINE
  8
_0-3_躯体と製品
  6
PLINE3
 62
    2
 10
868.78332530370631
 20
410.33086245889399
 11
759.20430730370595
 21
410.33086245889399
  0
LINE
  8
_0-3_躯体と製品
  6
CONTINUOUS
 62
    2
 10
840.28426030370588
 20
517.03290045889423
 11
834.10160330370604
 21
513.46334245889409
  0
LINE
  8
_0-3_躯体と製品
  6
CONTINUOUS
 62
    2
 10
834.97831830370592
 20
527.94482845889399
 11
834.28638030370598
 21
529.14329945889415
  0
LINE
  8
_0-3_躯体と製品
  6
CONTINUOUS
 62
    2
 10
834.97831830370592
 20
527.94482845889399
 11
834.28638030370598
 21
529.14329945889415
  0
LINE
  8
_0-3_躯体と製品
  6
CONTINUOUS
 62
    2
 10
835.28426030370588
 20
525.69315445889413
 11
829.10160330370604
 21
522.12359645889387
  0
LINE
  8
_0-3_躯体と製品
  6
CONTINUOUS
 62
    2
 10
834.28638030370598
 20
529.14329945889415
 11
842.73104130370598
 21
514.51671745889405
  0
LINE
  8
_0-3_躯体と製品
  6
PLINE3
 62
    2
 10
870.94454330370604
 20
540.50968145889431
 11
684.24880130370616
 21
432.74370945889405
  0
LINE
  8
_0-3_躯体と製品
  6
CONTINUOUS
 62
    2
 10
887.42383930370602
 20
597.40206645889418
 11
819.53670430370607
 21
556.25608145889419
  0
LINE
  8
_0-3_躯体と製品
  6
CONTINUOUS
 62
    2
 10
885.42383930370602
 20
598.55673745889396
 11
817.64347030370595
 21
557.49301745889409
  0
LINE
  8
_0-3_躯体と製品
  6
CONTINUOUS
 62
    7
 10
836.59893530370596
 20
509.13783645889418
 11
825.09869530370611
 21
529.05683745889405
  0
LINE
  8
_0-3_躯体と製品
  6
CONTINUOUS
 62
    2
 10
817.53942630370625
 20
528.14987545889414
 11
841.03699730370613
 21
487.45088845889404
  0
LINE
  8
_0-3_躯体と製品
  6
CONTINUOUS
 62
    2
 10
841.03699730370613
 20
487.45088845889404
 11
796.000982303706
 21
461.45555445889408
  0
LINE
  8
_0-3_躯体と製品
  6
CONTINUOUS
 62
    2
 10
817.98942330370596
 20
535.37045645889407
 11
845.50130630370609
 21
487.71847845889408
  0
LINE
  8
_0-3_躯体と製品
  6
CONTINUOUS
 62
    2
 10
783.11423130370599
 20
449.39653345889406
 11
853.41657130370618
 21
490.00883645889394
  0
LINE
  8
_0-3_躯体と製品
  6
CONTINUOUS
 62
    2
 10
775.67339130370624
 20
474.66397545889413
 11
778.271467303706
 21
476.16397545889413
  0
LINE
  8
_0-3_躯体と製品
  6
CONTINUOUS
 62
    2
 10
764.326990303706
 20
474.31651745889417
 11
760.326990303706
 21
481.24472045889411
  0
LINE
  8
_0-3_躯体と製品
  6
CONTINUOUS
 62
    2
 10
742.56207530370625
 20
466.41445645889405
 11
742.56207530370625
 21
476.19950245889413
  0
LINE
  8
_0-3_躯体と製品
  6
CONTINUOUS
 62
    2
 10
759.56207530370625
 20
476.19950245889413
 11
759.56207530370625
 21
466.41445645889405
  0
CIRCLE
  8
_0-3_躯体と製品
  6
CONTINUOUS
 62
    2
 10
751.05344130370599
 20
471.30697945889403
 40
8.4913660000000011
  0
LINE
  8
_0-3_躯体と製品
  6
CONTINUOUS
 62
    2
 10
767.29762730370589
 20
474.89298845889402
 11
773.48028430370618
 21
478.46254645889405
  0
ARC
  8
_0-3_躯体と製品
  6
CONTINUOUS
 62
    2
 10
777.04507630370631
 20
486.29418245889406
 40
15
 50
190.52877900000053
 51
229.47122100000072
  0
LINE
  8
_0-3_躯体と製品
  6
CONTINUOUS
 62
    2
 10
759.80865530370625
 20
486.14250445889411
 11
768.25331630370624
 21
471.51592245889424
  0
LINE
  8
_0-3_躯体と製品
  6
PLINE3
 62
    2
 10
779.02276530370614
 20
542.8626884588939
 11
820.16824230370617
 21
471.59663145889419
  0
LINE
  8
_0-3_躯体と製品
  6
CONTINUOUS
 62
    7
 10
766.07790130370608
 20
497.28385045889399
 11
781.07790130370608
 21
471.30308845889397
  0
LINE
  8
_0-3_躯体と製品
  6
CONTINUOUS
 62
    7
 10
708.91032430370592
 20
464.30099945889413
 11
769.542003303706
 21
499.28385045889411
  0
LINE
  8
_0-3_躯体と製品
  6
CONTINUOUS
 62
    2
 10
772.50610530370727
 20
502.14987545889414
 11
796.000982303706
 21
461.45555445889408
  0
LINE
  8
_0-3_躯体と製品
  6
CONTINUOUS
 62
    2
 10
766.02403730370611
 20
505.37714645889412
 11
793.5418763037062
 21
457.71485145889415
  0
LINE
  8
_0-3_躯体と製品
  6
CONTINUOUS
 62
    2
 10
765.98028430370618
 20
491.45292745889412
 11
775.98028430370618
 21
474.13241945889411
  0
LINE
  8
_0-3_躯体と製品
  6
PLINE3
 62
    2
 10
744.07566330370605
 20
483.39284545889404
 11
757.82414130370603
 21
459.57978245889421
  0
LINE
  8
_0-3_躯体と製品
  6
CONTINUOUS
 62
    2
 10
759.56207530370625
 20
466.41445645889405
 11
751.06207530370625
 21
461.50697945889397
  0
LINE
  8
_0-3_躯体と製品
  6
CONTINUOUS
 62
    7
 10
723.91032430370592
 20
438.3202374588941
 11
784.542003303706
 21
473.30308845889408
  0
LINE
  8
_0-3_躯体と製品
  6
CONTINUOUS
 62
    7
 10
725.35795630370626
 20
422.36755445889401
 11
776.11425430370605
 21
451.6707874588941
  0
LINE
  8
_0-3_躯体と製品
  6
CONTINUOUS
 62
    2
 10
738.19095930370599
 20
418.13986445889418
 11
734.65221130370605
 21
424.26935045889411
  0
LINE
  8
_0-3_躯体と製品
  6
CONTINUOUS
 62
    2
 10
742.55184630370627
 20
420.58658545889409
 11
738.98237230370592
 21
426.76929145889414
  0
ARC
  8
_0-3_躯体と製品
  6
CONTINUOUS
 62
    2
 10
739.81110830370631
 20
435.33407145889407
 40
15
 50
299.99921199999852
 51
319.47043299999922
  0
LINE
  8
_0-3_躯体と製品
  6
CONTINUOUS
 62
    2
 10
741.18808130370621
 20
418.80867145889408
 11
754.59226630370608
 21
426.54733545889394
  0
LINE
  8
_0-3_躯体と製品
  6
CONTINUOUS
 62
    2
 10
738.19095930370599
 20
418.13986445889418
 11
734.65221130370605
 21
424.26935045889411
  0
LINE
  8
_0-3_躯体と製品
  6
CONTINUOUS
 62
    2
 10
742.55184630370627
 20
420.58658545889409
 11
738.98237230370592
 21
426.76929145889414
  0
ARC
  8
_0-3_躯体と製品
  6
CONTINUOUS
 62
    2
 10
739.81110830370631
 20
435.33407145889407
 40
15
 50
299.99921199999852
 51
319.47043299999922
  0
LINE
  8
_0-3_躯体と製品
  6
CONTINUOUS
 62
    2
 10
741.18808130370621
 20
418.80867145889408
 11
753.43377730370617
 21
425.8785034588941
  0
LINE
  8
_0-3_躯体と製品
  6
CONTINUOUS
 62
    2
 10
738.19095930370599
 20
418.13986445889418
 11
734.65221130370605
 21
424.26935045889411
  0
LINE
  8
_0-3_躯体と製品
  6
CONTINUOUS
 62
    2
 10
742.55184630370627
 20
420.58658545889409
 11
738.98237230370592
 21
426.76929145889414
  0
ARC
  8
_0-3_躯体と製品
  6
CONTINUOUS
 62
    2
 10
739.81110830370631
 20
435.33407145889407
 40
15
 50
299.99921199999852
 51
319.47043299999922
  0
LINE
  8
_0-3_躯体と製品
  6
CONTINUOUS
 62
    2
 10
741.18808130370621
 20
418.80867145889408
 11
753.43377730370617
 21
425.8785034588941
  0
LINE
  8
_0-3_躯体と製品
  6
PLINE3
 62
    2
 10
738.20809130370594
 20
438.11066645889412
 11
749.14551630370602
 21
419.16588845889407
  0
LINE
  8
_0-3_躯体と製品
  6
CONTINUOUS
 62
    7
 10
723.35800430370614
 20
425.83168345889408
 11
725.35795630370626
 21
422.36755445889401
  0
LINE
  8
_0-3_躯体と製品
  6
CONTINUOUS
 62
    2
 10
740.02959330370618
 20
418.13983945889424
 11
738.19095930370599
 21
418.13986445889418
  0
LINE
  8
_0-3_躯体と製品
  6
CONTINUOUS
 62
    2
 10
740.02959330370618
 20
418.13983945889424
 11
738.19095930370599
 21
418.13986445889418
  0
LINE
  8
_0-3_躯体と製品
  6
CONTINUOUS
 62
    2
 10
740.02959330370618
 20
418.13983945889424
 11
738.19095930370599
 21
418.13986445889418
  0
ARC
  8
_0-3_躯体と製品
  6
CONTINUOUS
 62
    2
 10
739.21858730370627
 20
421.73243445889409
 40
3.524710999999999
 50
303.83951299999933
 51
341.02895999999856
  0
ARC
  8
_0-3_躯体と製品
  6
CONTINUOUS
 62
    2
 10
739.81110830370631
 20
435.33407145889407
 40
15
 50
280.52799199999947
 51
299.99921199999858
  0
LINE
  8
_0-3_躯体と製品
  6
CONTINUOUS
 62
    2
 10
741.16103030370618
 20
418.78956945889411
 11
739.96254930370628
 21
418.09764745889424
  0
ARC
  8
_0-3_躯体と製品
  6
CONTINUOUS
 62
    2
 10
739.21858730370627
 20
421.73243445889409
 40
3.524710999999999
 50
303.83951299999933
 51
341.02895999999856
  0
ARC
  8
_0-3_躯体と製品
  6
CONTINUOUS
 62
    2
 10
739.81110830370631
 20
435.33407145889407
 40
15
 50
280.52799199999947
 51
299.99921199999858
  0
LINE
  8
_0-3_躯体と製品
  6
CONTINUOUS
 62
    2
 10
741.16103030370618
 20
418.78956945889411
 11
739.96254930370628
 21
418.09764745889424
  0
ARC
  8
_0-3_躯体と製品
  6
CONTINUOUS
 62
    2
 10
739.21858730370627
 20
421.73243445889409
 40
3.524710999999999
 50
303.83951299999933
 51
341.02895999999856
  0
ARC
  8
_0-3_躯体と製品
  6
CONTINUOUS
 62
    2
 10
739.81110830370631
 20
435.33407145889407
 40
15
 50
280.52799199999947
 51
299.99921199999858
  0
LINE
  8
_0-3_躯体と製品
  6
CONTINUOUS
 62
    2
 10
741.16103030370618
 20
418.78956945889411
 11
739.96254930370628
 21
418.09764745889424
  0
LINE
  8
_0-3_躯体と製品
  6
CONTINUOUS
 62
    2
 10
724.91895830370618
 20
446.41809545889407
 11
716.41895830370618
 21
441.5106184588941
  0
LINE
  8
_0-3_躯体と製品
  6
CONTINUOUS
 62
    2
 10
716.41895830370618
 20
461.11061845889412
 11
724.91895830370618
 21
456.20314045889404
  0
CIRCLE
  8
_0-3_躯体と製品
  6
CONTINUOUS
 62
    2
 10
716.41032430370728
 20
451.31061845889417
 40
8.4913660000000011
  0
LINE
  8
_0-3_躯体と製品
  6
PLINE3
 62
    2
 10
708.91032430370592
 20
464.30099945889413
 11
723.91032430370592
 21
438.3202374588941
  0
ARC
  8
_0-3_躯体と製品
  6
CONTINUOUS
 62
    7
 10
716.41032430370728
 20
451.31061845889417
 40
15
 50
119.99999999999972
 51
299.99999999999972
  0
LINE
  8
_0-3_躯体と製品
  6
CONTINUOUS
 62
    2
 10
707.91895830370618
 20
446.41809545889407
 11
707.91895830370618
 21
456.20314045889404
  0
LINE
  8
_0-3_躯体と製品
  6
CONTINUOUS
 62
    2
 10
716.41895830370618
 20
441.5106184588941
 11
707.91895830370618
 21
446.41809545889407
  0
LINE
  8
_0-3_躯体と製品
  6
CONTINUOUS
 62
    2
 10
707.91895830370618
 20
456.20314045889404
 11
716.41895830370618
 21
461.11061845889412
  0
LINE
  8
_0-3_躯体と製品
  6
CONTINUOUS
 62
    2
 10
724.91895830370618
 20
456.20314045889404
 11
724.91895830370618
 21
446.41809545889407
  0
LINE
  8
_0-3_躯体と製品
  6
CONTINUOUS
 62
    2
 10
734.65221130370605
 20
424.26935045889411
 11
751.97285630370629
 21
434.26911245889403
  0
LINE
  8
_0-3_躯体と製品
  6
CONTINUOUS
 62
    2
 10
733.67186630370611
 20
427.16744045889413
 11
735.1718303037062
 21
424.56934345889408
  0
LINE
  8
_0-3_躯体と製品
  6
CONTINUOUS
 62
    2
 10
733.67186630370611
 20
427.16744045889413
 11
735.1718303037062
 21
424.56934345889408
  0
LINE
  8
_0-3_躯体と製品
  6
CONTINUOUS
 62
    2
 10
733.67186630370611
 20
427.16744045889413
 11
735.1718303037062
 21
424.56934345889408
  0
LINE
  8
_0-3_躯体と製品
  6
CONTINUOUS
 62
    2
 10
751.45323730370615
 20
433.96911945889394
 11
749.95327330370606
 21
436.56721645889399
  0
LINE
  8
_0-3_躯体と製品
  6
CONTINUOUS
 62
    2
 10
755.51160430370624
 20
428.1396264588941
 11
751.97285630370629
 21
434.26911245889403
  0
LINE
  8
_0-3_躯体と製品
  6
CONTINUOUS
 62
    2
 10
751.21216930370588
 20
425.58646645889417
 11
747.64269530370598
 21
431.76917245889422
  0
ARC
  8
_0-3_躯体と製品
  6
CONTINUOUS
 62
    2
 10
751.88655930370601
 20
429.04605945889409
 40
3.524710999999999
 50
258.96946400000058
 51
296.15891200000232
  0
LINE
  8
_0-3_躯体と製品
  6
CONTINUOUS
 62
    2
 10
754.59226630370608
 20
426.54733545889394
 11
755.51160430370624
 21
428.1396264588941
  0
LINE
  8
_0-3_躯体と製品
  6
CONTINUOUS
 62
    2
 10
745.91063030370628
 20
430.76919645889404
 11
741.81256930370614
 21
431.86732845889412
  0
LINE
  8
_0-3_躯体と製品
  6
CONTINUOUS
 62
    2
 10
739.21447230370609
 20
430.36736445889426
 11
743.31253330370623
 21
429.26923145889418
  0
LINE
  8
_0-3_躯体と製品
  6
CONTINUOUS
 62
    2
 10
751.45323730370615
 20
433.96911945889394
 11
749.95327330370606
 21
436.56721645889399
  0
LINE
  8
_0-3_躯体と製品
  6
CONTINUOUS
 62
    2
 10
755.51160430370624
 20
428.1396264588941
 11
751.97285630370629
 21
434.26911245889403
  0
LINE
  8
_0-3_躯体と製品
  6
CONTINUOUS
 62
    2
 10
751.21216930370588
 20
425.58646645889417
 11
747.64269530370598
 21
431.76917245889422
  0
ARC
  8
_0-3_躯体と製品
  6
CONTINUOUS
 62
    2
 10
751.88655930370601
 20
429.04605945889409
 40
3.524710999999999
 50
258.96946400000058
 51
296.15891200000232
  0
LINE
  8
_0-3_躯体と製品
  6
CONTINUOUS
 62
    2
 10
754.59226630370608
 20
426.54733545889394
 11
755.51160430370624
 21
428.1396264588941
  0
LINE
  8
_0-3_躯体と製品
  6
CONTINUOUS
 62
    2
 10
745.91063030370628
 20
430.76919645889404
 11
741.81256930370614
 21
431.86732845889412
  0
LINE
  8
_0-3_躯体と製品
  6
CONTINUOUS
 62
    2
 10
739.21447230370609
 20
430.36736445889426
 11
743.31253330370623
 21
429.26923145889418
  0
LINE
  8
_0-3_躯体と製品
  6
CONTINUOUS
 62
    2
 10
751.45323730370615
 20
433.96911945889394
 11
749.95327330370606
 21
436.56721645889399
  0
LINE
  8
_0-3_躯体と製品
  6
CONTINUOUS
 62
    2
 10
755.51160430370624
 20
428.1396264588941
 11
751.97285630370629
 21
434.26911245889403
  0
LINE
  8
_0-3_躯体と製品
  6
CONTINUOUS
 62
    2
 10
751.21216930370588
 20
425.58646645889417
 11
747.64269530370598
 21
431.76917245889422
  0
ARC
  8
_0-3_躯体と製品
  6
CONTINUOUS
 62
    2
 10
751.88655930370601
 20
429.04605945889409
 40
3.524710999999999
 50
258.96946400000058
 51
296.15891200000232
  0
LINE
  8
_0-3_躯体と製品
  6
CONTINUOUS
 62
    2
 10
754.59226630370608
 20
426.54733545889394
 11
755.51160430370624
 21
428.1396264588941
  0
LINE
  8
_0-3_躯体と製品
  6
CONTINUOUS
 62
    2
 10
745.91063030370628
 20
430.76919645889404
 11
741.81256930370614
 21
431.86732845889412
  0
LINE
  8
_0-3_躯体と製品
  6
CONTINUOUS
 62
    2
 10
739.21447230370609
 20
430.36736445889426
 11
743.31253330370623
 21
429.26923145889418
  0
LINE
  8
_0-3_躯体と製品
  6
CONTINUOUS
 62
    2
 10
751.06207530370625
 20
461.50697945889397
 11
742.56207530370625
 21
466.41445645889405
  0
LINE
  8
_0-3_躯体と製品
  6
CONTINUOUS
 62
    2
 10
777.11423130370599
 20
420.3308624588941
 11
777.11423130370599
 21
445.93529545889396
  0
LINE
  8
_0-3_躯体と製品
  6
CONTINUOUS
 62
    2
 10
775.11423130370599
 20
444.77508845889406
 11
775.11423130370599
 21
420.3308624588941
  0
LINE
  8
_0-3_躯体と製品
  6
CONTINUOUS
 62
    7
 10
779.11423130370599
 20
449.93872245889406
 11
779.11423130370599
 21
391.3308624588941
  0
LINE
  8
_0-3_躯体と製品
  6
CONTINUOUS
 62
    7
 10
779.11423130370599
 20
391.3308624588941
 11
783.11423130370599
 21
391.3308624588941
  0
LINE
  8
_0-3_躯体と製品
  6
CONTINUOUS
 62
    2
 10
779.11423130370599
 20
419.73086245889408
 11
776.11423130370599
 21
419.73086245889408
  0
LINE
  8
_0-3_躯体と製品
  6
CONTINUOUS
 62
    2
 10
779.11423130370599
 20
400.93086245889401
 11
776.11423130370599
 21
400.93086245889401
  0
LINE
  8
_0-3_躯体と製品
  6
CONTINUOUS
 62
    2
 10
776.11423130370599
 20
413.3308624588941
 11
779.11423130370599
 21
410.33086245889399
  0
LINE
  8
_0-3_躯体と製品
  6
CONTINUOUS
 62
    2
 10
779.11423130370599
 20
407.3308624588941
 11
776.11423130370599
 21
410.33086245889399
  0
LINE
  8
_0-3_躯体と製品
  6
CONTINUOUS
 62
    2
 10
779.11423130370599
 20
400.93086245889401
 11
776.11423130370599
 21
400.93086245889401
  0
LINE
  8
_0-3_躯体と製品
  6
CONTINUOUS
 62
    2
 10
776.11423130370599
 20
413.3308624588941
 11
779.11423130370599
 21
410.33086245889399
  0
LINE
  8
_0-3_躯体と製品
  6
CONTINUOUS
 62
    2
 10
779.11423130370599
 20
407.3308624588941
 11
776.11423130370599
 21
410.33086245889399
  0
LINE
  8
_0-3_躯体と製品
  6
CONTINUOUS
 62
    2
 10
779.11423130370599
 20
400.93086245889401
 11
776.11423130370599
 21
400.93086245889401
  0
LINE
  8
_0-3_躯体と製品
  6
CONTINUOUS
 62
    2
 10
776.11423130370599
 20
413.3308624588941
 11
779.11423130370599
 21
410.33086245889399
  0
LINE
  8
_0-3_躯体と製品
  6
CONTINUOUS
 62
    2
 10
779.11423130370599
 20
407.3308624588941
 11
776.11423130370599
 21
410.33086245889399
  0
LINE
  8
_0-3_躯体と製品
  6
CONTINUOUS
 62
    2
 10
768.11724930370588
 20
418.73855945889397
 11
768.11724930370588
 21
401.78053645889395
  0
LINE
  8
_0-3_躯体と製品
  6
CONTINUOUS
 62
    2
 10
776.11423130370599
 20
420.3308624588941
 11
776.11423130370599
 21
400.3308624588941
  0
LINE
  8
_0-3_躯体と製品
  6
CONTINUOUS
 62
    2
 10
768.11724930370588
 20
418.73855945889397
 11
769.03656630370619
 21
420.3308624588941
  0
LINE
  8
_0-3_躯体と製品
  6
CONTINUOUS
 62
    2
 10
769.03656630370619
 20
400.3308624588941
 11
776.11423130370599
 21
400.3308624588941
  0
LINE
  8
_0-3_躯体と製品
  6
CONTINUOUS
 62
    2
 10
768.11724930370588
 20
401.92316545889423
 11
769.03656630370619
 21
400.3308624588941
  0
ARC
  8
_0-3_躯体と製品
  6
CONTINUOUS
 62
    2
 10
771.63404530370622
 20
403.01706345889397
 40
3.524710999999999
 50
138.97025199999959
 51
176.15970000000021
  0
LINE
  8
_0-3_躯体と製品
  6
CONTINUOUS
 62
    2
 10
768.9751133037073
 20
405.3308624588941
 11
776.11423130370599
 21
405.3308624588941
  0
LINE
  8
_0-3_躯体と製品
  6
CONTINUOUS
 62
    2
 10
768.9751133037073
 20
415.33086245889399
 11
776.11423130370599
 21
415.33086245889399
  0
ARC
  8
_0-3_躯体と製品
  6
CONTINUOUS
 62
    2
 10
783.11724930370588
 20
410.33086245889399
 40
15
 50
180
 51
199.47122100000021
  0
ARC
  8
_0-3_躯体と製品
  6
CONTINUOUS
 62
    2
 10
783.11724930370588
 20
410.33086245889399
 40
15
 50
160.5287789999997
 51
180.00000000000003
  0
LINE
  8
_0-3_躯体と製品
  6
CONTINUOUS
 62
    2
 10
768.11423130370599
 20
403.2278844588941
 11
768.11423130370599
 21
401.84400945889411
  0
LINE
  8
_0-3_躯体と製品
  6
CONTINUOUS
 62
    2
 10
769.03656630370619
 20
400.3308624588941
 11
776.11423130370599
 21
400.3308624588941
  0
LINE
  8
_0-3_躯体と製品
  6
CONTINUOUS
 62
    2
 10
768.11724930370588
 20
401.92316545889423
 11
769.03656630370619
 21
400.3308624588941
  0
ARC
  8
_0-3_躯体と製品
  6
CONTINUOUS
 62
    2
 10
771.63404530370622
 20
403.01706345889397
 40
3.524710999999999
 50
138.97025199999959
 51
176.15970000000021
  0
LINE
  8
_0-3_躯体と製品
  6
CONTINUOUS
 62
    2
 10
768.9751133037073
 20
405.3308624588941
 11
776.11423130370599
 21
405.3308624588941
  0
LINE
  8
_0-3_躯体と製品
  6
CONTINUOUS
 62
    2
 10
768.9751133037073
 20
415.33086245889399
 11
776.11423130370599
 21
415.33086245889399
  0
ARC
  8
_0-3_躯体と製品
  6
CONTINUOUS
 62
    2
 10
783.11724930370588
 20
410.33086245889399
 40
15
 50
180
 51
199.47122100000021
  0
ARC
  8
_0-3_躯体と製品
  6
CONTINUOUS
 62
    2
 10
783.11724930370588
 20
410.33086245889399
 40
15
 50
160.5287789999997
 51
180.00000000000003
  0
ARC
  8
_0-3_躯体と製品
  6
CONTINUOUS
 62
    2
 10
771.63404530370622
 20
417.64466145889412
 40
3.524710999999999
 50
186.5703749999997
 51
221.0297480000003
  0
LINE
  8
_0-3_躯体と製品
  6
CONTINUOUS
 62
    2
 10
768.11423130370599
 20
403.2278844588941
 11
768.11423130370599
 21
401.84400945889411
  0
LINE
  8
_0-3_躯体と製品
  6
CONTINUOUS
 62
    2
 10
769.03656630370619
 20
400.3308624588941
 11
776.11423130370599
 21
400.3308624588941
  0
LINE
  8
_0-3_躯体と製品
  6
CONTINUOUS
 62
    2
 10
768.11724930370588
 20
401.92316545889423
 11
769.03656630370619
 21
400.3308624588941
  0
ARC
  8
_0-3_躯体と製品
  6
CONTINUOUS
 62
    2
 10
771.63404530370622
 20
403.01706345889397
 40
3.524710999999999
 50
138.97025199999959
 51
176.15970000000021
  0
LINE
  8
_0-3_躯体と製品
  6
CONTINUOUS
 62
    2
 10
768.9751133037073
 20
405.3308624588941
 11
776.11423130370599
 21
405.3308624588941
  0
LINE
  8
_0-3_躯体と製品
  6
CONTINUOUS
 62
    2
 10
768.9751133037073
 20
415.33086245889399
 11
776.11423130370599
 21
415.33086245889399
  0
ARC
  8
_0-3_躯体と製品
  6
CONTINUOUS
 62
    2
 10
783.11724930370588
 20
410.33086245889399
 40
15
 50
180
 51
199.47122100000021
  0
ARC
  8
_0-3_躯体と製品
  6
CONTINUOUS
 62
    2
 10
783.11724930370588
 20
410.33086245889399
 40
15
 50
160.5287789999997
 51
180.00000000000003
  0
ARC
  8
_0-3_躯体と製品
  6
CONTINUOUS
 62
    2
 10
771.63404530370622
 20
417.64466145889412
 40
3.524710999999999
 50
183.8402999999997
 51
221.0297480000003
  0
LINE
  8
_0-3_躯体と製品
  6
CONTINUOUS
 62
    2
 10
768.11423130370599
 20
403.2278844588941
 11
768.11423130370599
 21
401.84400945889411
  0
LINE
  8
_0-3_躯体と製品
  6
CONTINUOUS
 62
    2
 10
768.11724930370588
 20
406.33086245889399
 11
763.11423130370599
 21
406.33086245889399
  0
LINE
  8
_0-3_躯体と製品
  6
CONTINUOUS
 62
    2
 10
768.11724930370588
 20
414.3308624588941
 11
763.11423130370599
 21
414.3308624588941
  0
LINE
  8
_0-3_躯体と製品
  6
CONTINUOUS
 62
    2
 10
764.11423130370599
 20
405.3308624588941
 11
764.11423130370599
 21
415.33086245889399
  0
LINE
  8
_0-3_躯体と製品
  6
CONTINUOUS
 62
    2
 10
763.11423130370599
 20
414.3308624588941
 11
764.11423130370599
 21
415.33086245889399
  0
LINE
  8
_0-3_躯体と製品
  6
CONTINUOUS
 62
    2
 10
763.11423130370599
 20
406.33086245889399
 11
763.11423130370599
 21
414.3308624588941
  0
LINE
  8
_0-3_躯体と製品
  6
CONTINUOUS
 62
    2
 10
764.11423130370599
 20
405.3308624588941
 11
763.11423130370599
 21
406.33086245889399
  0
LINE
  8
_0-3_躯体と製品
  6
CONTINUOUS
 62
    2
 10
769.03656630370619
 20
420.3308624588941
 11
776.11423130370599
 21
420.3308624588941
  0
LINE
  8
_0-3_躯体と製品
  6
CONTINUOUS
 62
    2
 10
764.11423130370599
 20
405.3308624588941
 11
768.11724930370588
 21
405.3308624588941
  0
LINE
  8
_0-3_躯体と製品
  6
CONTINUOUS
 62
    2
 10
764.11423130370599
 20
415.33086245889399
 11
768.11724930370588
 21
415.33086245889399
  0
ARC
  8
_0-3_躯体と製品
  6
CONTINUOUS
 62
    7
 10
777.11423130370599
 20
449.93872245889406
 40
6.0790119999999987
 50
350.7521679999997
 51
129.2470450000009
  0
LINE
  8
_0-3_躯体と製品
  6
CONTINUOUS
 62
    2
 10
775.11423130370599
 20
444.77508845889406
 11
779.11423130370599
 21
447.08581145889411
  0
ARC
  8
_0-3_躯体と製品
  6
CONTINUOUS
 62
    7
 10
777.11423130370599
 20
449.93872245889406
 40
2
 50
0
 51
119.99921199999851
  0
LINE
  8
_0-3_躯体と製品
  6
CONTINUOUS
 62
    2
 10
765.69301530370626
 20
473.95049245889413
 11
764.326990303706
 21
474.31651745889417
  0
LINE
  8
_0-3_躯体と製品
  6
CONTINUOUS
 62
    2
 10
765.69301530370626
 20
473.95049245889413
 11
766.55904130370595
 21
474.45049245889413
  0
ARC
  8
_0-3_躯体と製品
  6
CONTINUOUS
 62
    2
 10
770.75723030370614
 20
474.21864545889412
 40
3.524710999999999
 50
168.97025199999973
 51
206.15970000000024
  0
LINE
  8
_0-3_躯体と製品
  6
CONTINUOUS
 62
    2
 10
768.25331630370624
 20
471.51592245889424
 11
769.85084730370613
 21
470.59358745889404
  0
LINE
  8
_0-3_躯体と製品
  6
CONTINUOUS
 62
    2
 10
775.98028430370618
 20
474.13241945889411
 11
769.85084730370613
 21
470.59358745889404
  0
LINE
  8
_0-3_躯体と製品
  6
CONTINUOUS
 62
    2
 10
784.8461423037063
 20
460.77630445889406
 11
783.11423130370599
 21
459.77606245889399
  0
LINE
  8
_0-3_躯体と製品
  6
CONTINUOUS
 62
    2
 10
784.8461423037063
 20
460.77630445889406
 11
788.34614230370721
 21
454.71412645889404
  0
LINE
  8
_0-3_躯体と製品
  6
CONTINUOUS
 62
    2
 10
793.5418763037062
 20
457.71485145889415
 11
788.34614230370721
 21
454.71412645889404
  0
LINE
  8
_0-3_躯体と製品
  6
CONTINUOUS
 62
    2
 10
783.11423130370599
 20
459.77606245889399
 11
787.61157830370598
 21
451.98642845889412
  0
LINE
  8
_0-3_躯体と製品
  6
CONTINUOUS
 62
    2
 10
757.54200430370588
 20
520.06846045889404
 11
761.87213130370606
 21
522.56846045889404
  0
LINE
  8
_0-3_躯体と製品
  6
CONTINUOUS
 62
    2
 10
777.32661330370615
 20
533.80051045889411
 11
756.54200430370588
 21
521.80051145889399
  0
LINE
  8
_0-3_躯体と製品
  6
CONTINUOUS
 62
    2
 10
751.06207530370625
 20
481.1069794588941
 11
759.56207530370625
 21
476.19950245889413
  0
LINE
  8
_0-3_躯体と製品
  6
CONTINUOUS
 62
    2
 10
742.56207530370625
 20
476.19950245889413
 11
751.06207530370625
 21
481.1069794588941
  0
ARC
  8
_0-3_躯体と製品
  6
CONTINUOUS
 62
    5
 10
701.19993930370606
 20
527.64337145889397
 40
55.649646999999987
 50
341.15495100000112
 51
353.97319900000002
  0
ARC
  8
_0-3_躯体と製品
  6
CONTINUOUS
 62
    5
 10
729.43253530370589
 20
558.75571645889431
 40
45.83241799999999
 50
293.73681800000134
 51
306.26289499999984
  0
LINE
  8
_0-3_躯体と製品
  6
CONTINUOUS
 62
    2
 10
757.54200430370588
 20
520.06846045889404
 11
756.54200430370588
 21
521.80051145889399
  0
LINE
  8
_0-3_躯体と製品
  6
CONTINUOUS
 62
    2
 10
747.88173830370602
 20
516.80053245889428
 11
748.88173830370602
 21
515.0684814588941
  0
LINE
  8
_0-3_躯体と製品
  6
CONTINUOUS
 62
    2
 10
773.99648630370598
 20
529.56845945889404
 11
775.99648630370598
 21
526.10435845889413
  0
LINE
  8
_0-3_躯体と製品
  6
CONTINUOUS
 62
    2
 10
782.03986430370628
 20
529.8509014588941
 11
782.55866430370611
 21
528.73833245889409
  0
LINE
  8
_0-3_躯体と製品
  6
CONTINUOUS
 62
    2
 10
791.21891730370612
 20
533.73833245889421
 11
780.82661330370615
 21
527.73833245889421
  0
LINE
  8
_0-3_躯体と製品
  6
CONTINUOUS
 62
    2
 10
776.5945623037062
 20
531.06845945889415
 11
781.5945623037062
 21
522.40820645889414
  0
LINE
  8
_0-3_躯体と製品
  6
CONTINUOUS
 62
    2
 10
792.21891730370612
 20
532.00628245889413
 11
781.82661330370615
 21
526.00628245889413
  0
LINE
  8
_0-3_躯体と製品
  6
CONTINUOUS
 62
    2
 10
777.32661330370615
 20
533.80051045889411
 11
780.82661330370615
 21
527.73833245889421
  0
LINE
  8
_0-3_躯体と製品
  6
CONTINUOUS
 62
    2
 10
806.90035530370619
 20
531.27728645889397
 11
812.84009730370622
 21
520.98935145889402
  0
LINE
  8
_0-3_躯体と製品
  6
CONTINUOUS
 62
    2
 10
809.7582033037063
 20
532.92734945889413
 11
815.69798130370714
 21
522.63935145889411
  0
LINE
  8
_0-3_躯体と製品
  6
CONTINUOUS
 62
    2
 10
784.59382330370613
 20
529.91333245889416
 11
790.53358330370588
 21
519.62536645889406
  0
LINE
  8
_0-3_躯体と製品
  6
CONTINUOUS
 62
    2
 10
787.45170730370614
 20
531.56333245889425
 11
793.39146730370589
 21
521.27536645889404
  0
LINE
  8
_0-3_躯体と製品
  6
CONTINUOUS
 62
    2
 10
826.60160330370604
 20
526.45372345889416
 11
832.73104130370598
 21
529.99255545889412
  0
LINE
  8
_0-3_躯体と製品
  6
CONTINUOUS
 62
    2
 10
817.27147630370587
 20
532.61397745889406
 11
806.8791723037059
 21
526.61397745889394
  0
LINE
  8
_0-3_躯体と製品
  6
CONTINUOUS
 62
    3
 10
781.82661330370615
 20
526.00628245889413
 11
792.218918303706
 21
532.00628245889413
  0
LINE
  8
_0-3_躯体と製品
  6
CONTINUOUS
 62
    2
 10
788.75481630370609
 20
530.00628245889413
 11
794.75481630370609
 21
519.61397745889394
  0
LINE
  8
_0-3_躯体と製品
  6
CONTINUOUS
 62
    2
 10
797.20507730370605
 20
523.37000145889397
 11
827.3278103037062
 21
540.76224945889408
  0
LINE
  8
_0-3_躯体と製品
  6
CONTINUOUS
 62
    2
 10
793.718918303706
 20
529.40820545889403
 11
792.85289230370586
 21
528.90820545889403
  0
LINE
  8
_0-3_躯体と製品
  6
CONTINUOUS
 62
    2
 10
805.90461330370613
 20
536.3019614588942
 11
815.56570730370618
 21
519.56845645889416
  0
LINE
  8
_0-3_躯体と製品
  6
CONTINUOUS
 62
    2
 10
825.46175730370601
 20
541.99425945889413
 11
796.20507730370605
 21
525.10205245889404
  0
LINE
  8
_0-3_躯体と製品
  6
CONTINUOUS
 62
    2
 10
831.50352730370628
 20
511.96334245889409
 11
779.542003303706
 21
481.96334245889398
  0
LINE
  8
_0-3_躯体と製品
  6
CONTINUOUS
 62
    2
 10
774.542003303706
 20
490.6235964588941
 11
826.50352730370628
 21
520.62359645889399
  0
LINE
  8
_0-3_躯体と製品
  6
CONTINUOUS
 62
    2
 10
792.85289230370586
 20
528.90820545889403
 11
797.35289230370586
 21
521.11397745889394
  0
LINE
  8
_0-3_躯体と製品
  6
CONTINUOUS
 62
    2
 10
772.50610530370727
 20
502.14987545889414
 11
817.53942630370625
 21
528.14987545889414
  0
LINE
  8
_0-3_躯体と製品
  6
CONTINUOUS
 62
    2
 10
796.20507730370605
 20
525.10205245889404
 11
797.20507730370605
 21
523.37000145889397
  0
LINE
  8
_0-3_躯体と製品
  6
CONTINUOUS
 62
    2
 10
775.07146730370619
 20
481.70653745889399
 11
770.97339130370597
 21
482.80461345889398
  0
LINE
  8
_0-3_躯体と製品
  6
CONTINUOUS
 62
    2
 10
769.47339130370597
 20
485.40269045889409
 11
773.57146730370619
 21
484.3046134588941
  0
LINE
  8
_0-3_躯体と製品
  6
CONTINUOUS
 62
    2
 10
775.07146730370619
 20
481.70653745889399
 11
770.97339130370597
 21
482.80461345889398
  0
LINE
  8
_0-3_躯体と製品
  6
CONTINUOUS
 62
    2
 10
769.47339130370597
 20
485.40269045889409
 11
773.57146730370619
 21
484.3046134588941
  0
LINE
  8
_0-3_躯体と製品
  6
CONTINUOUS
 62
    2
 10
775.07146730370619
 20
481.70653745889399
 11
770.97339130370597
 21
482.80461345889398
  0
LINE
  8
_0-3_躯体と製品
  6
CONTINUOUS
 62
    2
 10
769.47339130370597
 20
485.40269045889409
 11
773.57146730370619
 21
484.3046134588941
  0
LINE
  8
_0-3_躯体と製品
  6
CONTINUOUS
 62
    2
 10
766.27339130370615
 20
490.94525245889395
 11
768.87146730370591
 21
492.44525245889406
  0
LINE
  8
_0-3_躯体と製品
  6
CONTINUOUS
 62
    2
 10
760.326990303706
 20
481.24472045889411
 11
760.69301530370626
 21
482.61074645889403
  0
LINE
  8
_0-3_躯体と製品
  6
CONTINUOUS
 62
    2
 10
760.69301530370626
 20
482.61074645889403
 11
761.55904130370595
 21
483.11074645889403
  0
ARC
  8
_0-3_躯体と製品
  6
CONTINUOUS
 62
    2
 10
763.44343130370612
 20
486.88651645889411
 40
3.524710999999999
 50
213.8403000000003
 51
251.02974800000152
  0
LINE
  8
_0-3_躯体と製品
  6
CONTINUOUS
 62
    2
 10
759.85084730370613
 20
486.06942545889399
 11
759.85084730370613
 21
487.91409545889405
  0
LINE
  8
_0-3_躯体と製品
  6
CONTINUOUS
 62
    2
 10
760.50059230370721
 20
484.94403345889418
 11
759.80865530370625
 21
486.14250445889411
  0
LINE
  8
_0-3_躯体と製品
  6
CONTINUOUS
 62
    2
 10
760.50059230370721
 20
484.94403345889418
 11
759.80865530370625
 21
486.14250445889411
  0
LINE
  8
_0-3_躯体と製品
  6
CONTINUOUS
 62
    2
 10
765.98028430370618
 20
491.45292745889412
 11
759.85084730370613
 21
487.91409545889405
  0
LINE
  8
_0-3_躯体と製品
  6
CONTINUOUS
 62
    2
 10
762.29762730370589
 20
483.55324245889415
 11
768.48028430370618
 21
487.12280045889418
  0
LINE
  8
_0-3_躯体と製品
  6
CONTINUOUS
 62
    5
 10
776.65514130370616
 20
514.96353445889395
 11
779.16635930370626
 21
510.61397745889394
  0
LINE
  8
_0-3_躯体と製品
  6
CONTINUOUS
 62
    2
 10
779.16635930370626
 20
510.61397745889394
 11
768.77405430370595
 21
504.61397745889394
  0
LINE
  8
_0-3_躯体と製品
  6
CONTINUOUS
 62
    5
 10
778.38317030370604
 20
515.97050045889421
 11
774.98316630370596
 21
521.85948045889393
  0
LINE
  8
_0-3_躯体と製品
  6
CONTINUOUS
 62
    2
 10
763.62967530370611
 20
523.58317845889405
 11
763.62249230370594
 21
523.55637045889409
  0
LINE
  8
_0-3_躯体と製品
  6
CONTINUOUS
 62
    2
 10
764.85418230370601
 20
521.40339645889401
 11
766.15322030370612
 21
522.15339645889401
  0
LINE
  8
_0-3_躯体と製品
  6
CONTINUOUS
 62
    2
 10
763.60418230370601
 20
523.56846045889404
 11
764.85418230370601
 21
521.40339645889401
  0
LINE
  8
_0-3_躯体と製品
  6
CONTINUOUS
 62
    2
 10
772.26443630370591
 20
528.56845945889404
 11
763.60418230370601
 21
523.56846045889404
  0
LINE
  8
_0-3_躯体と製品
  6
CONTINUOUS
 62
    2
 10
761.87213130370606
 20
522.56846045889404
 11
763.87213130370606
 21
519.10435845889413
  0
LINE
  8
_0-3_躯体と製品
  6
CONTINUOUS
 62
    2
 10
773.51443530370602
 20
526.40339645889401
 11
772.26443630370591
 21
528.56845945889404
  0
LINE
  8
_0-3_躯体と製品
  6
CONTINUOUS
 62
    2
 10
766.15322030370612
 20
522.15339645889401
 11
766.90322030370612
 21
520.85435845889413
  0
LINE
  8
_0-3_躯体と製品
  6
CONTINUOUS
 62
    2
 10
763.87213130370606
 20
519.10435845889413
 11
766.90322030370612
 21
520.85435845889413
  0
LINE
  8
_0-3_躯体と製品
  6
CONTINUOUS
 62
    2
 10
775.99648630370598
 20
526.10435845889413
 11
772.96539730370591
 21
524.35435845889413
  0
LINE
  8
_0-3_躯体と製品
  6
CONTINUOUS
 62
    2
 10
772.21539730370591
 20
525.65339645889401
 11
772.96539730370591
 21
524.35435845889413
  0
LINE
  8
_0-3_躯体と製品
  6
CONTINUOUS
 62
    2
 10
773.51443530370602
 20
526.40339645889401
 11
772.21539730370591
 21
525.65339645889401
  0
ARC
  8
_0-3_躯体と製品
  6
CONTINUOUS
 62
    5
 10
769.93430930370619
 20
522.60435845889413
 40
4.5
 50
345.22417599999994
 51
30.000000000000551
  0
ARC
  8
_0-3_躯体と製品
  6
CONTINUOUS
 62
    5
 10
769.93430930370619
 20
522.60435845889413
 40
4.5
 50
210.00000000000054
 51
254.77498800000251
  0
LINE
  8
_0-3_躯体と製品
  6
CONTINUOUS
 62
    5
 10
766.26165030370589
 20
508.9655884588941
 11
768.77405430370595
 21
504.61397745889394
  0
LINE
  8
_0-3_躯体と製品
  6
CONTINUOUS
 62
    2
 10
783.32661330370615
 20
523.40820645889414
 11
781.5945623037062
 21
522.40820645889414
  0
LINE
  8
_0-3_躯体と製品
  6
CONTINUOUS
 62
    2
 10
781.82661330370615
 20
526.00628245889413
 11
783.32661330370615
 21
523.40820645889414
  0
LINE
  8
_0-3_躯体と製品
  6
CONTINUOUS
 62
    2
 10
790.53358330370588
 20
519.62536645889406
 11
793.39146730370589
 21
521.27536645889404
  0
LINE
  8
_0-3_躯体と製品
  6
CONTINUOUS
 62
    2
 10
780.89841030370621
 20
511.61397745889406
 11
788.69263830370596
 21
516.11397745889406
  0
LINE
  8
_0-3_躯体と製品
  6
CONTINUOUS
 62
    2
 10
779.89841030370621
 20
513.34602845889401
 11
780.89841030370621
 21
511.61397745889406
  0
LINE
  8
_0-3_躯体と製品
  6
CONTINUOUS
 62
    2
 10
778.16635930370626
 20
512.34602845889401
 11
779.89841030370621
 21
513.34602845889401
  0
LINE
  8
_0-3_躯体と製品
  6
CONTINUOUS
 62
    2
 10
784.19263830370687
 20
523.90820545889403
 11
788.69263830370596
 21
516.11397745889406
  0
LINE
  8
_0-3_躯体と製品
  6
CONTINUOUS
 62
    2
 10
791.29071430370618
 20
517.61397745889394
 11
794.75481630370609
 21
519.61397745889394
  0
LINE
  8
_0-3_躯体と製品
  6
CONTINUOUS
 62
    2
 10
785.29071430370618
 20
528.00628245889413
 11
791.29071430370618
 21
517.61397745889394
  0
LINE
  8
_0-3_躯体と製品
  6
CONTINUOUS
 62
    2
 10
783.32661330370615
 20
523.40820545889403
 11
784.19263830370687
 21
523.90820545889403
  0
LINE
  8
_0-3_躯体と製品
  6
CONTINUOUS
 62
    2
 10
781.82661330370615
 20
526.00628245889413
 11
783.32661330370615
 21
523.40820545889403
  0
LINE
  8
_0-3_躯体と製品
  6
CONTINUOUS
 62
    2
 10
812.84009730370622
 20
520.98935145889402
 11
815.69798130370714
 21
522.63935145889411
  0
LINE
  8
_0-3_躯体と製品
  6
CONTINUOUS
 62
    2
 10
805.8791723037059
 20
528.34602845889401
 11
806.8791723037059
 21
526.61397745889394
  0
LINE
  8
_0-3_躯体と製品
  6
CONTINUOUS
 62
    2
 10
805.14712130370594
 20
525.61397745889394
 11
797.35289230370586
 21
521.11397745889394
  0
LINE
  8
_0-3_躯体と製品
  6
CONTINUOUS
 62
    2
 10
804.14712130370594
 20
527.34602845889401
 11
805.14712130370594
 21
525.61397745889394
  0
LINE
  8
_0-3_躯体と製品
  6
CONTINUOUS
 62
    2
 10
805.8791723037059
 20
528.34602845889401
 11
804.14712130370594
 21
527.34602845889401
  0
LINE
  8
_0-3_躯体と製品
  6
CONTINUOUS
 62
    2
 10
794.78109530370625
 20
541.56845945889404
 11
803.44134930370615
 21
546.56845945889415
  0
LINE
  8
_0-3_躯体と製品
  6
CONTINUOUS
 62
    2
 10
796.03109530370625
 20
539.40339645889389
 11
797.33013330370591
 21
540.15339545889412
  0
LINE
  8
_0-3_躯体と製品
  6
CONTINUOUS
 62
    2
 10
798.08013330370591
 20
538.85435745889424
 11
795.0490443037063
 21
537.10435845889424
  0
LINE
  8
_0-3_躯体と製品
  6
CONTINUOUS
 62
    2
 10
787.718918303706
 20
539.800510458894
 11
808.50352630370594
 21
551.80050945889423
  0
LINE
  8
_0-3_躯体と製品
  6
CONTINUOUS
 62
    2
 10
773.99648630370598
 20
529.56845945889404
 11
776.5945623037062
 21
531.06845945889415
  0
ARC
  8
_0-3_躯体と製品
  6
CONTINUOUS
 62
    5
 10
761.61387130370599
 20
573.01577845889403
 40
42.246034999999992
 50
291.834949999998
 51
308.16504999999978
  0
LINE
  8
_0-3_躯体と製品
  6
CONTINUOUS
 62
    2
 10
796.03109530370625
 20
539.40339645889389
 11
794.78109530370625
 21
541.56845945889404
  0
ARC
  8
_0-3_躯体と製品
  6
CONTINUOUS
 62
    2
 10
790.07276530370586
 20
523.72352745889418
 40
11
 50
105.374709999998
 51
134.62529399999991
  0
LINE
  8
_0-3_躯体と製品
  6
CONTINUOUS
 62
    2
 10
788.78275330370593
 20
533.74391045889422
 11
789.48686730370605
 21
532.73833245889409
  0
ARC
  8
_0-3_躯体と製品
  6
CONTINUOUS
 62
    2
 10
787.55402530370725
 20
532.8835464588941
 40
1.5
 50
34.999999999998693
 51
105.3747069999982
  0
ARC
  8
_0-3_躯体と製品
  6
CONTINUOUS
 62
    2
 10
783.39932630370618
 20
530.48482945889396
 40
1.5
 50
134.62529300000119
 51
204.99999999999932
  0
LINE
  8
_0-3_躯体と製品
  6
CONTINUOUS
 62
    2
 10
790.45096830370608
 20
539.06845945889404
 11
795.45096830370608
 21
530.40820545889403
  0
LINE
  8
_0-3_躯体と製品
  6
CONTINUOUS
 62
    2
 10
793.04904430370721
 20
540.56845945889404
 11
790.45096830370608
 21
539.06845945889404
  0
LINE
  8
_0-3_躯体と製品
  6
CONTINUOUS
 62
    2
 10
793.04904430370721
 20
540.56845945889404
 11
795.0490443037063
 21
537.10435845889424
  0
LINE
  8
_0-3_躯体と製品
  6
CONTINUOUS
 62
    2
 10
791.21891730370612
 20
533.73833245889421
 11
787.718918303706
 21
539.800510458894
  0
LINE
  8
_0-3_躯体と製品
  6
CONTINUOUS
 62
    2
 10
793.71891730370612
 20
529.40820545889403
 11
795.45096830370608
 21
530.40820545889403
  0
LINE
  8
_0-3_躯体と製品
  6
CONTINUOUS
 62
    2
 10
792.21891730370612
 20
532.00628245889413
 11
793.71891730370612
 21
529.40820545889403
  0
LINE
  8
_0-3_躯体と製品
  6
CONTINUOUS
 62
    3
 10
792.218918303706
 20
532.00628245889413
 11
793.718918303706
 21
529.40820545889403
  0
ARC
  8
_0-3_躯体と製品
  6
CONTINUOUS
 62
    5
 10
796.31688030370628
 20
581.55134745889404
 40
32.150064999999998
 50
292.27516700000302
 51
311.55549600000279
  0
LINE
  8
_0-3_躯体と製品
  6
CONTINUOUS
 62
    2
 10
825.46175730370601
 20
541.99425945889413
 11
817.29561630370586
 21
556.13771545889415
  0
LINE
  8
_0-3_躯体と製品
  6
CONTINUOUS
 62
    2
 10
819.53670430370607
 20
556.25608145889419
 11
827.69380530370586
 21
542.12828245889409
  0
LINE
  8
_0-3_躯体と製品
  6
CONTINUOUS
 62
    5
 10
814.23663530370618
 20
535.93976045889394
 11
814.83599330370612
 21
536.32685745889398
  0
LINE
  8
_0-3_躯体と製品
  6
CONTINUOUS
 62
    5
 10
814.83599330370612
 20
536.32685745889398
 11
815.3893033037059
 21
536.77146845889422
  0
LINE
  8
_0-3_躯体と製品
  6
CONTINUOUS
 62
    5
 10
815.3893033037059
 20
536.77146845889422
 11
815.88784130370618
 21
537.26658145889394
  0
LINE
  8
_0-3_躯体と製品
  6
CONTINUOUS
 62
    5
 10
815.88784130370618
 20
537.26658145889394
 11
816.32374430370714
 21
537.80438745889387
  0
LINE
  8
_0-3_躯体と製品
  6
CONTINUOUS
 62
    5
 10
816.32374430370714
 20
537.80438745889387
 11
816.69013730370602
 21
538.37640645889417
  0
LINE
  8
_0-3_躯体と製品
  6
CONTINUOUS
 62
    5
 10
816.69013730370602
 20
538.37640645889417
 11
816.98124230370627
 21
538.97361545889419
  0
LINE
  8
_0-3_躯体と製品
  6
CONTINUOUS
 62
    5
 10
816.98124230370627
 20
538.97361545889419
 11
817.19246930370605
 21
539.58659745889418
  0
LINE
  8
_0-3_躯体と製品
  6
CONTINUOUS
 62
    5
 10
817.19246930370605
 20
539.58659745889418
 11
817.32048530370616
 21
540.20568545889421
  0
LINE
  8
_0-3_躯体と製品
  6
CONTINUOUS
 62
    5
 10
817.32048530370616
 20
540.20568545889421
 11
817.36327330370591
 21
540.82111545889427
  0
LINE
  8
_0-3_躯体と製品
  6
CONTINUOUS
 62
    5
 10
817.36327330370591
 20
540.82111545889427
 11
817.32015730370608
 21
541.42318145889419
  0
LINE
  8
_0-3_躯体と製品
  6
CONTINUOUS
 62
    5
 10
817.32015730370608
 20
541.42318145889419
 11
817.19181830370712
 21
542.0023894588943
  0
LINE
  8
_0-3_躯体と製品
  6
CONTINUOUS
 62
    5
 10
817.19181830370712
 20
542.0023894588943
 11
816.98027930370586
 21
542.54960445889401
  0
LINE
  8
_0-3_躯体と製品
  6
CONTINUOUS
 62
    5
 10
816.98027930370586
 20
542.54960445889401
 11
816.68887730370602
 21
543.05619645889396
  0
LINE
  8
_0-3_躯体と製品
  6
CONTINUOUS
 62
    5
 10
816.68887730370602
 20
543.05619645889396
 11
816.32220630370625
 21
543.51417645889421
  0
LINE
  8
_0-3_躯体と製品
  6
CONTINUOUS
 62
    5
 10
816.32220630370625
 20
543.51417645889421
 11
815.88605030370604
 21
543.916321458894
  0
LINE
  8
_0-3_躯体と製品
  6
CONTINUOUS
 62
    5
 10
815.88605030370604
 20
543.916321458894
 11
815.38728830370587
 21
544.256290458894
  0
LINE
  8
_0-3_躯体と製品
  6
CONTINUOUS
 62
    5
 10
815.38728830370587
 20
544.256290458894
 11
814.8337843037059
 21
544.5287204588941
  0
LINE
  8
_0-3_躯体と製品
  6
CONTINUOUS
 62
    5
 10
814.8337843037059
 20
544.5287204588941
 11
814.23426830370613
 21
544.72931645889423
  0
LINE
  8
_0-3_躯体と製品
  6
CONTINUOUS
 62
    5
 10
814.23426830370613
 20
544.72931645889423
 11
813.59819530370601
 21
544.85491345889398
  0
LINE
  8
_0-3_躯体と製品
  6
CONTINUOUS
 62
    5
 10
813.59819530370601
 20
544.85491345889398
 11
812.93559630370623
 21
544.90353145889424
  0
LINE
  8
_0-3_躯体と製品
  6
CONTINUOUS
 62
    5
 10
812.93559630370623
 20
544.90353145889424
 11
812.25692030370624
 21
544.87440445889388
  0
LINE
  8
_0-3_躯体と製品
  6
CONTINUOUS
 62
    5
 10
812.25692030370624
 20
544.87440445889388
 11
811.57287130370628
 21
544.76799145889424
  0
LINE
  8
_0-3_躯体と製品
  6
CONTINUOUS
 62
    5
 10
811.57287130370628
 20
544.76799145889424
 11
810.89423630370607
 21
544.58596945889394
  0
LINE
  8
_0-3_躯体と製品
  6
CONTINUOUS
 62
    5
 10
810.89423630370607
 20
544.58596945889394
 11
810.23171930370586
 21
544.33121045889413
  0
LINE
  8
_0-3_躯体と製品
  6
CONTINUOUS
 62
    5
 10
810.23171930370586
 20
544.33121045889413
 11
809.59576730370622
 21
544.00773145889434
  0
LINE
  8
_0-3_躯体と製品
  6
CONTINUOUS
 62
    5
 10
809.59576730370622
 20
544.00773145889434
 11
808.99640930370629
 21
543.62063345889408
  0
LINE
  8
_0-3_躯体と製品
  6
CONTINUOUS
 62
    5
 10
808.99640930370629
 20
543.62063345889408
 11
808.44309830370617
 21
543.17602245889407
  0
LINE
  8
_0-3_躯体と製品
  6
CONTINUOUS
 62
    5
 10
808.44309830370617
 20
543.17602245889407
 11
807.94456130370622
 21
542.68090945889423
  0
LINE
  8
_0-3_躯体と製品
  6
CONTINUOUS
 62
    5
 10
807.94456130370622
 20
542.68090945889423
 11
807.50865830370617
 21
542.14310345889419
  0
LINE
  8
_0-3_躯体と製品
  6
CONTINUOUS
 62
    5
 10
807.50865830370617
 20
542.14310345889419
 11
807.14226530370729
 21
541.57108445889423
  0
LINE
  8
_0-3_躯体と製品
  6
CONTINUOUS
 62
    5
 10
807.14226530370729
 20
541.57108445889423
 11
806.85116030370614
 21
540.97387545889421
  0
LINE
  8
_0-3_躯体と製品
  6
CONTINUOUS
 62
    5
 10
806.85116030370614
 20
540.97387545889421
 11
806.63993330370727
 21
540.360893458894
  0
LINE
  8
_0-3_躯体と製品
  6
CONTINUOUS
 62
    5
 10
806.63993330370727
 20
540.360893458894
 11
806.5119163037059
 21
539.74180545889385
  0
LINE
  8
_0-3_躯体と製品
  6
CONTINUOUS
 62
    5
 10
806.5119163037059
 20
539.74180545889385
 11
806.46912830370616
 21
539.12637545889424
  0
LINE
  8
_0-3_躯体と製品
  6
CONTINUOUS
 62
    5
 10
806.46912830370616
 20
539.12637545889424
 11
806.51224430370598
 21
538.52430945889432
  0
LINE
  8
_0-3_躯体と製品
  6
CONTINUOUS
 62
    5
 10
806.51224430370598
 20
538.52430945889432
 11
806.64058430370619
 21
537.94510145889399
  0
LINE
  8
_0-3_躯体と製品
  6
CONTINUOUS
 62
    5
 10
806.64058430370619
 20
537.94510145889399
 11
806.85212230370621
 21
537.39788645889405
  0
LINE
  8
_0-3_躯体と製品
  6
CONTINUOUS
 62
    5
 10
806.85212230370621
 20
537.39788645889405
 11
807.14352530370593
 21
536.89129445889409
  0
LINE
  8
_0-3_躯体と製品
  6
CONTINUOUS
 62
    5
 10
807.14352530370593
 20
536.89129445889409
 11
807.51019530370627
 21
536.43331445889407
  0
LINE
  8
_0-3_躯体と製品
  6
CONTINUOUS
 62
    5
 10
807.51019530370627
 20
536.43331445889407
 11
807.94635130370602
 21
536.03116945889406
  0
LINE
  8
_0-3_躯体と製品
  6
CONTINUOUS
 62
    5
 10
807.94635130370602
 20
536.03116945889406
 11
808.44511430370608
 21
535.69120045889395
  0
LINE
  8
_0-3_躯体と製品
  6
CONTINUOUS
 62
    5
 10
808.44511430370608
 20
535.69120045889395
 11
808.99861830370605
 21
535.41877045889396
  0
LINE
  8
_0-3_躯体と製品
  6
CONTINUOUS
 62
    5
 10
808.99861830370605
 20
535.41877045889396
 11
809.59813430370627
 21
535.21817545889394
  0
LINE
  8
_0-3_躯体と製品
  6
CONTINUOUS
 62
    5
 10
809.59813430370627
 20
535.21817545889394
 11
810.23420730370594
 21
535.09257745889408
  0
LINE
  8
_0-3_躯体と製品
  6
CONTINUOUS
 62
    5
 10
810.23420730370594
 20
535.09257745889408
 11
810.89680630370617
 21
535.04395945889405
  0
LINE
  8
_0-3_躯体と製品
  6
CONTINUOUS
 62
    5
 10
810.89680630370617
 20
535.04395945889405
 11
811.57548230370617
 21
535.07308645889418
  0
LINE
  8
_0-3_躯体と製品
  6
CONTINUOUS
 62
    5
 10
811.57548230370617
 20
535.07308645889418
 11
812.25953130370613
 21
535.17950045889404
  0
LINE
  8
_0-3_躯体と製品
  6
CONTINUOUS
 62
    5
 10
812.25953130370613
 20
535.17950045889404
 11
812.938165303706
 21
535.36152145889412
  0
LINE
  8
_0-3_躯体と製品
  6
CONTINUOUS
 62
    5
 10
812.938165303706
 20
535.36152145889412
 11
813.60068330370609
 21
535.61628145889415
  0
LINE
  8
_0-3_躯体と製品
  6
CONTINUOUS
 62
    5
 10
813.60068330370609
 20
535.61628145889415
 11
814.23663530370618
 21
535.93976045889394
  0
LINE
  8
_0-3_躯体と製品
  6
CONTINUOUS
 62
    2
 10
805.1734003037061
 20
547.56845945889415
 11
807.17339930370622
 21
544.10435745889424
  0
LINE
  8
_0-3_躯体と製品
  6
CONTINUOUS
 62
    2
 10
809.50352630370594
 20
550.06845945889415
 11
808.50352630370594
 21
551.80050945889423
  0
LINE
  8
_0-3_躯体と製品
  6
CONTINUOUS
 62
    2
 10
803.41585530370617
 20
546.55374045889414
 11
803.44266330370624
 21
546.5465574588942
  0
LINE
  8
_0-3_躯体と製品
  6
CONTINUOUS
 62
    2
 10
804.69134930370615
 20
544.40339545889412
 11
803.39231130370604
 21
543.65339545889412
  0
LINE
  8
_0-3_躯体と製品
  6
CONTINUOUS
 62
    2
 10
803.44134930370615
 20
546.56845945889415
 11
804.69134930370615
 21
544.40339545889412
  0
LINE
  8
_0-3_躯体と製品
  6
CONTINUOUS
 62
    2
 10
797.33013330370591
 20
540.15339545889412
 11
798.08013330370591
 21
538.85435745889424
  0
LINE
  8
_0-3_躯体と製品
  6
CONTINUOUS
 62
    2
 10
804.14231130370604
 20
542.35435745889424
 11
807.17339930370622
 21
544.10435745889424
  0
LINE
  8
_0-3_躯体と製品
  6
CONTINUOUS
 62
    2
 10
803.39231130370604
 20
543.65339545889412
 11
804.14231130370604
 21
542.35435745889424
  0
LINE
  8
_0-3_躯体と製品
  6
CONTINUOUS
 62
    2
 10
809.50352630370594
 20
550.06845945889415
 11
805.1734003037061
 21
547.56845945889415
  0
ARC
  8
_0-3_躯体と製品
  6
CONTINUOUS
 62
    2
 10
806.46277530370594
 20
533.88519845889425
 40
0.2249999999999999
 50
30.00000000000054
 51
124.7392550000006
  0
ARC
  8
_0-3_躯体と製品
  6
CONTINUOUS
 62
    2
 10
807.71851130370601
 20
534.61019845889416
 40
0.2249999999999999
 50
115.26077100000052
 51
210.00000000000051
  0
LINE
  8
_0-3_躯体と製品
  6
CONTINUOUS
 62
    2
 10
807.50867330370625
 20
534.52364845889406
 11
806.64264830370598
 21
534.02364845889406
  0
ARC
  8
_0-3_躯体と製品
  6
CONTINUOUS
 62
    2
 10
811.35084130370592
 20
526.86738645889386
 40
8.7766380000000002
 50
101.71223900000101
 51
138.6369170000016
  0
ARC
  8
_0-3_躯体と製品
  6
CONTINUOUS
 62
    2
 10
809.68478330370613
 20
534.15451645889414
 40
1.3
 50
30.00000000000054
 51
103.39845000000271
  0
ARC
  8
_0-3_躯体と製品
  6
CONTINUOUS
 62
    2
 10
805.87427130370611
 20
531.95451645889409
 40
1.3
 50
136.60154999999821
 51
210.00000000000051
  0
LINE
  8
_0-3_躯体と製品
  6
CONTINUOUS
 62
    2
 10
811.30012830370629
 20
533.95665645889414
 11
810.81061630370618
 21
534.80451645889423
  0
LINE
  8
_0-3_躯体と製品
  6
CONTINUOUS
 62
    2
 10
805.23795030370616
 20
530.45665645889414
 11
804.74843830370605
 21
531.30451645889423
  0
LINE
  8
_0-3_躯体と製品
  6
CONTINUOUS
 62
    2
 10
834.32857230370587
 20
529.07022045889414
 11
832.73104130370598
 21
529.99255545889412
  0
ARC
  8
_0-3_躯体と製品
  6
CONTINUOUS
 62
    2
 10
826.82779130370704
 20
541.62826345889414
 40
1
 50
300.00125600000001
 51
30.001256000000847
  0
ARC
  8
_0-3_躯体と製品
  6
CONTINUOUS
 62
    7
 10
823.36664430370615
 20
528.05683745889417
 40
2
 50
30.00000000000054
 51
120.001256
  0
LINE
  8
_0-3_躯体と製品
  6
CONTINUOUS
 62
    2
 10
821.50062930370609
 20
529.28886945889394
 11
822.36660630370602
 21
529.78886645889406
  0
LINE
  8
_0-3_躯体と製品
  6
CONTINUOUS
 62
    2
 10
816.25739430370618
 20
534.37041845889405
 11
817.27147630370587
 21
532.61397745889406
  0
ARC
  8
_0-3_躯体と製品
  6
CONTINUOUS
 62
    2
 10
818.16163130370592
 20
556.63773445889422
 40
1
 50
121.20894800000072
 51
210.00125600000092
  0
LINE
  8
_0-3_躯体と製品
  6
CONTINUOUS
 62
    3
 10
887.42383930370602
 20
622.40206645889418
 11
887.42383930370602
 21
567.15174945889407
  0
LINE
  8
_0-3_躯体と製品
  6
CONTINUOUS
 62
    5
 10
866.42383930370602
 20
226.69346445889408
 11
960.8682843037061
 21
321.13790945889411
  0
LINE
  8
_0-3_躯体と製品
  6
CONTINUOUS
 62
    5
 10
866.42383930370602
 20
230.61064045889407
 11
960.8682843037061
 21
325.05508445889404
  0
LINE
  8
_0-3_躯体と製品
  6
CONTINUOUS
 62
    5
 10
866.42383930370602
 20
234.31019545889421
 11
960.8682843037061
 21
328.75463945889419
  0
CIRCLE
  8
_0-3_躯体と製品
  6
CONTINUOUS
 62
    2
 10
866.42383930370602
 20
165.14830945889412
 40
2.5
  0
LINE
  8
_0-3_躯体と製品
  6
CONTINUOUS
 62
    5
 10
866.42383930370602
 20
428.54531645889415
 11
959.01643230370587
 21
521.13790945889411
  0
LINE
  8
_0-3_躯体と製品
  6
CONTINUOUS
 62
    5
 10
866.42383930370602
 20
432.46249245889408
 11
959.01643230370587
 21
525.05508445889404
  0
LINE
  8
_0-3_躯体と製品
  6
CONTINUOUS
 62
    5
 10
866.42383930370602
 20
436.16204745889411
 11
959.01643230370587
 21
528.75463945889419
  0
LINE
  8
_0-3_躯体と製品
  6
CONTINUOUS
 62
    2
 10
851.11423130370599
 20
420.3308624588941
 11
851.11423130370599
 21
488.64899345889398
  0
LINE
  8
_0-3_躯体と製品
  6
CONTINUOUS
 62
    2
 10
849.11423130370599
 20
420.3308624588941
 11
849.11423130370599
 21
487.49456945889415
  0
LINE
  8
_0-3_躯体と製品
  6
CONTINUOUS
 62
    2
 10
851.71101930370628
 20
420.3308624588941
 11
844.61423130370599
 21
420.3308624588941
  0
LINE
  8
_0-3_躯体と製品
  6
CONTINUOUS
 62
    2
 10
844.61423130370599
 20
415.33086245889399
 11
851.75636630370605
 21
415.33086245889399
  0
ARC
  8
_0-3_躯体と製品
  6
CONTINUOUS
 62
    2
 10
848.79423130370628
 20
417.74294745889415
 40
3.819999999999999
 50
320.8438679999997
 51
0.0000000000000127
  0
ARC
  8
_0-3_躯体と製品
  6
CONTINUOUS
 62
    2
 10
837.61423130370599
 20
410.33086245889399
 40
15
 50
0
 51
19.471221000000252
  0
ARC
  8
_0-3_躯体と製品
  6
CONTINUOUS
 62
    2
 10
848.79423130370628
 20
402.91877745889406
 40
3.819999999999999
 50
0
 51
39.156132000000255
  0
ARC
  8
_0-3_躯体と製品
  6
CONTINUOUS
 62
    2
 10
837.61423130370599
 20
410.33086245889399
 40
15
 50
340.5287789999997
 51
0.0000000000000159
  0
LINE
  8
_0-3_躯体と製品
  6
CONTINUOUS
 62
    2
 10
844.61423130370599
 20
405.3308624588941
 11
851.75636630370605
 21
405.3308624588941
  0
LINE
  8
_0-3_躯体と製品
  6
CONTINUOUS
 62
    2
 10
851.71101930370628
 20
400.3308624588941
 11
844.61423130370599
 21
400.3308624588941
  0
LINE
  8
_0-3_躯体と製品
  6
CONTINUOUS
 62
    2
 10
852.61423130370599
 20
418.76645345889403
 11
852.61423130370599
 21
401.89527145889394
  0
LINE
  8
_0-3_躯体と製品
  6
CONTINUOUS
 62
    2
 10
851.71101930370628
 20
420.3308624588941
 11
852.61423130370599
 21
418.76645345889403
  0
LINE
  8
_0-3_躯体と製品
  6
CONTINUOUS
 62
    2
 10
852.61423130370599
 20
401.89527145889394
 11
851.71101930370628
 21
400.3308624588941
  0
LINE
  8
_0-3_躯体と製品
  6
CONTINUOUS
 62
    2
 10
844.61423130370599
 20
399.3308624588941
 11
843.11423130370599
 21
399.3308624588941
  0
LINE
  8
_0-3_躯体と製品
  6
CONTINUOUS
 62
    2
 10
844.61423130370599
 20
421.3308624588941
 11
844.61423130370599
 21
399.3308624588941
  0
LINE
  8
_0-3_躯体と製品
  6
CONTINUOUS
 62
    2
 10
843.11423130370599
 20
421.3308624588941
 11
844.61423130370599
 21
421.3308624588941
  0
LINE
  8
_0-3_躯体と製品
  6
CONTINUOUS
 62
    7
 10
864.12383930370629
 20
559.25299245889403
 11
864.12383930370629
 21
519.25299245889403
  0
LINE
  8
_0-3_躯体と製品
  6
CONTINUOUS
 62
    7
 10
866.42383930370602
 20
559.25299245889403
 11
866.42383930370602
 21
517.92494545889394
  0
LINE
  8
_0-3_躯体と製品
  6
CONTINUOUS
 62
    2
 10
847.19745830370607
 20
496.78065645889421
 11
850.69745830370607
 21
490.71847845889397
  0
LINE
  8
_0-3_躯体と製品
  6
CONTINUOUS
 62
    2
 10
847.19745830370607
 20
496.78065645889421
 11
848.92950930370603
 21
497.78065645889421
  0
LINE
  8
_0-3_躯体と製品
  6
CONTINUOUS
 62
    2
 10
845.50130630370609
 20
487.71847845889408
 11
850.69745830370607
 21
490.71847845889397
  0
LINE
  8
_0-3_躯体と製品
  6
CONTINUOUS
 62
    2
 10
848.92950930370603
 20
497.78065645889421
 11
853.42950930370603
 21
489.98642845889412
  0
LINE
  8
_0-3_躯体と製品
  6
CONTINUOUS
 62
    7
 10
862.48276930370616
 20
518.30572045889414
 11
836.50062930370609
 21
503.30810745889414
  0
LINE
  8
_0-3_躯体と製品
  6
CONTINUOUS
 62
    7
 10
839.3308273037062
 20
508.405694458894
 11
859.25078630370604
 21
519.90404845889407
  0
LINE
  8
_0-3_躯体と製品
  6
CONTINUOUS
 62
    7
 10
866.42383930370602
 20
517.92494545889394
 11
840.44169930370595
 21
502.92733245889406
  0
ARC
  8
_0-3_躯体と製品
  6
CONTINUOUS
 62
    2
 10
839.13845730370599
 20
513.69962645889404
 40
3.524710999999999
 50
33.840300000000333
 51
71.029748000001547
  0
LINE
  8
_0-3_躯体と製品
  6
CONTINUOUS
 62
    2
 10
842.73104130370598
 20
514.51671745889405
 11
842.73104130370598
 21
512.67204745889433
  0
LINE
  8
_0-3_躯体と製品
  6
CONTINUOUS
 62
    2
 10
836.60160330370604
 20
509.13321545889414
 11
842.73104130370598
 21
512.67204745889433
  0
ARC
  8
_0-3_躯体と製品
  6
CONTINUOUS
 62
    2
 10
831.82465830370597
 20
526.36749745889426
 40
3.524710999999999
 50
348.97025199999962
 51
26.159700000000196
  0
ARC
  8
_0-3_躯体と製品
  6
CONTINUOUS
 62
    2
 10
825.53681230370626
 20
514.29196045889398
 40
15
 50
10.52877900000056
 51
49.471221000000732
  0
ARC
  8
_0-3_躯体と製品
  6
CONTINUOUS
 62
    7
 10
838.33098630370591
 20
510.13783645889407
 40
2
 50
210.00000000000054
 51
299.99473700000129
  0
LINE
  8
_0-3_躯体と製品
  6
CONTINUOUS
 62
    7
 10
839.29169930370722
 20
504.91919045889415
 11
840.44169930370595
 21
502.92733245889406
  0
ARC
  8
_0-3_躯体と製品
  6
CONTINUOUS
 62
    7
 10
860.25062730370587
 20
518.171905458894
 40
2
 50
30.00000000000054
 51
119.99473700000132
  0
LINE
  8
_0-3_躯体と製品
  6
CONTINUOUS
 62
    7
 10
864.12383930370629
 20
519.25299245889403
 11
860.94348330370599
 21
517.41720145889394
  0
LINE
  8
_0-3_躯体と製品
  6
CONTINUOUS
 62
    7
 10
861.98267830370628
 20
519.17190445889412
 11
862.48276930370616
 21
518.30572045889414
  0
LINE
  8
_0-3_躯体と製品
  6
CONTINUOUS
 62
    3
 10
887.42383930370602
 20
567.15174945889407
 11
866.42383930370602
 21
567.15174945889407
  0
LINE
  8
_0-3_躯体と製品
  6
CONTINUOUS
 62
    2
 10
857.93092430370621
 20
542.92494545889394
 11
873.72867330370605
 21
542.92494545889394
  0
LINE
  8
_0-3_躯体と製品
  6
CONTINUOUS
 62
    7
 10
866.42383930370602
 20
559.25299245889403
 11
864.12383930370629
 21
559.25299245889403
  0
LINE
  8
_0-3_躯体と製品
  6
CONTINUOUS
 62
    3
 10
866.42383930370602
 20
716.379625458894
 11
866.42383930370602
 21
622.40206645889418
  0
LINE
  8
_0-3_躯体と製品
  6
CONTINUOUS
 62
    3
 10
866.42383930370602
 20
622.40206645889418
 11
887.42383930370602
 21
622.40206645889418
  0
ARC
  8
_0-3_躯体と製品
  6
CONTINUOUS
 62
    5
 10
658.83745930370628
 20
621.56299545889397
 40
207.58807599999989
 50
349.88082800000097
 51
0.2315900000007558
  0
LINE
  8
_0-3_躯体と製品
  6
CONTINUOUS
 62
    2
 10
885.42383930370602
 20
598.55673745889396
 11
885.42383930370602
 21
617.40206645889407
  0
LINE
  8
_0-3_躯体と製品
  6
CONTINUOUS
 62
    2
 10
885.42383930370602
 20
617.40206645889407
 11
887.42383930370602
 21
617.40206645889407
  0
LINE
  8
_0-3_躯体と製品
  6
CONTINUOUS
 62
    2
 10
891.57413130370628
 20
609.90206645889418
 11
881.28041730370592
 21
609.90206645889418
  0
INSERT
  2
-001-_D4
  8
_0-2_寸法
 10
-1650.6829296367987
 20
-263.96564418039191
 41
5
 42
5
 50
0
  0
INSERT
  2
-002-_D5
  8
_0-2_寸法
 10
-1650.6829296367987
 20
-263.96564418039191
 41
5
 42
5
 50
0
  0
INSERT
  2
-003-_D6
  8
_0-2_寸法
 10
-1650.6829296367987
 20
-263.96564418039191
 41
5
 42
5
 50
0
  0
INSERT
  2
-004-_D7
  8
_0-2_寸法
 10
-1650.6829296367987
 20
-263.96564418039191
 41
5
 42
5
 50
0
  0
ENDSEC
  0
EOF
