  0
SECTION
  2
HEADER
  9
$ACADVER
  1
AC1009
  9
$INSBASE
 10
0
 20
0
 30
0
  9
$EXTMIN
 10
0
 20
0
  9
$EXTMAX
 10
420
 20
297
  9
$LIMMIN
 10
0
 20
0
  9
$LIMMAX
 10
420
 20
297
  9
$LTSCALE
 40
1
  0
ENDSEC
  0
SECTION
  2
TABLES
  0
TABLE
  2
LTYPE
 70
     9
  0
LTYPE
  2
CONTINUOUS
 70
    64
  3
実線
 72
    65
 73
     0
 40
0.0
  0
LTYPE
  2
DASHED1
 70
    64
  3
--  --  --  --  --  --  --  --  
 72
    65
 73
     2
 40
2.5
 49
1.25
 49
-1.25
  0
LTYPE
  2
DASHED2
 70
    64
  3
----    ----    ----    ----    
 72
    65
 73
     2
 40
5.0
 49
2.5
 49
-2.5
  0
LTYPE
  2
DASHED3
 70
    64
  3
------  ------  ------  ------  
 72
    65
 73
     2
 40
5.0
 49
3.75
 49
-1.25
  0
LTYPE
  2
CENTER1
 70
    64
  3
----- - ----- - ----- - ----- - 
 72
    65
 73
     4
 40
10.0
 49
6.25
 49
-1.25
 49
1.25
 49
-1.25
  0
LTYPE
  2
CENTER2
 70
    64
  3
----------  --  ----------  --  
 72
    65
 73
     4
 40
20.0
 49
12.5
 49
-2.5
 49
2.5
 49
-2.5
  0
LTYPE
  2
PHANTOM1
 70
    64
  3
--- - - --- - - --- - - --- - - 
 72
    65
 73
     6
 40
10.0
 49
3.25
 49
-1.25
 49
1.25
 49
-1.25
 49
1.25
 49
-1.25
  0
LTYPE
  2
PHANTOM2
 70
    64
  3
--------  -  -  --------  -  -  
 72
    65
 73
     6
 40
20.0
 49
10.0
 49
-2.5
 49
1.25
 49
-2.5
 49
1.25
 49
-2.5
  0
LTYPE
  2
DOT
 70
    64
  3
-   -   -   -   -   -   -   -   
 72
    65
 73
     2
 40
2.5
 49
0.625
 49
-1.875
  0
LTYPE
  2
DUMMY
 70
    64
  3
ダミー
 72
    65
 73
     0
 40
0.0
  0
LTYPE
  2
RAND1
 70
    64
  3
ランダム線1
 72
    65
 73
     4
 40
10.0
 49
1.0
 49
-2.0
 49
3.0
 49
-4.0
  0
LTYPE
  2
RAND2
 70
    64
  3
ランダム線2
 72
    65
 73
     4
 40
14.0
 49
2.0
 49
-3.0
 49
4.0
 49
-5.0
  0
LTYPE
  2
RAND3
 70
    64
  3
ランダム線3
 72
    65
 73
     4
 40
18.0
 49
3.0
 49
-4.0
 49
5.0
 49
-6.0
  0
LTYPE
  2
RAND4
 70
    64
  3
ランダム線4
 72
    65
 73
     4
 40
22.0
 49
4.0
 49
-5.0
 49
6.0
 49
-7.0
  0
LTYPE
  2
RAND5
 70
    64
  3
ランダム線5
 72
    65
 73
     4
 40
26.0
 49
5.0
 49
-6.0
 49
7.0
 49
-8.0
  0
LTYPE
  2
LONG1
 70
    64
  3
----------  --  ----------  --  
 72
    65
 73
     4
 40
40.0
 49
32.5
 49
-2.5
 49
2.5
 49
-2.5
  0
LTYPE
  2
LONG2
 70
    64
  3
--------  -  -  --------  -  -  
 72
    65
 73
     6
 40
40.0
 49
30.0
 49
-2.5
 49
1.25
 49
-2.5
 49
1.25
 49
-2.5
  0
LTYPE
  2
LONG3
 70
    64
  3
+++++++++++++++..+++++++++++++++
 72
    65
 73
     2
 40
40.0
 49
37.5
 49
-2.5
  0
LTYPE
  2
LONG4
 70
    64
  3
+++++++++++++++..+++++++++++++++
 72
    65
 73
     2
 40
80.0
 49
75.0
 49
-5.0
  0
LTYPE
  2
LONG5
 70
    64
  3
----------  --  ----------  --  
 72
    65
 73
     4
 40
60.0
 49
37.5
 49
-7.5
 49
7.5
 49
-7.5
  0
LTYPE
  2
dashed
 70
   64
  3
-------   -------------   ------
 72
   65
 73
    2
 40
7.5
 49
6
 49
-1.5
  0
LTYPE
  2
dashed_spaced
 70
   64
  3
----        --------        ----
 72
   65
 73
    2
 40
12
 49
6
 49
-6
  0
LTYPE
  2
long_dashed_dotted
 70
   64
  3
------------- --- --------------
 72
   65
 73
    4
 40
15.25
 49
12
 49
-1.5
 49
0.25
 49
-1.5
  0
LTYPE
  2
long_dashed_double-dotted
 70
   64
  3
----------- --- --- ------------
 72
   65
 73
    6
 40
17
 49
12
 49
-1.5
 49
0.25
 49
-1.5
 49
0.25
 49
-1.5
  0
LTYPE
  2
long_dashed_triplicate-dotted
 70
   64
  3
--------- --- --- --- ----------
 72
   65
 73
    8
 40
18.75
 49
12
 49
-1.5
 49
0.25
 49
-1.5
 49
0.25
 49
-1.5
 49
0.25
 49
-1.5
  0
LTYPE
  2
dotted
 70
   64
  3
   -       -       -       -    
 72
   65
 73
    2
 40
1.75
 49
0.25
 49
-1.5
  0
LTYPE
  2
chain
 70
   64
  3
-------------- -- --------------
 72
   65
 73
    4
 40
18.5
 49
12
 49
-1.5
 49
3.5
 49
-1.5
  0
LTYPE
  2
chain_double_dash
 70
   64
  3
------------ -- -- -------------
 72
   65
 73
    6
 40
23.5
 49
12
 49
-1.5
 49
3.5
 49
-1.5
 49
3.5
 49
-1.5
  0
LTYPE
  2
dashed_dotted
 70
   64
  3
-----------     -     ----------
 72
   65
 73
    4
 40
9.25
 49
6
 49
-1.5
 49
0.25
 49
-1.5
  0
LTYPE
  2
double-dashed_dotted
 70
   64
  3
------   -----------   -   -----
 72
   65
 73
    6
 40
16.75
 49
6
 49
-1.5
 49
6
 49
-1.5
 49
0.25
 49
-1.5
  0
LTYPE
  2
dashed_double-dotted
 70
   64
  3
---------    -    -    ---------
 72
   65
 73
    6
 40
11
 49
6
 49
-1.5
 49
0.25
 49
-1.5
 49
0.25
 49
-1.5
  0
LTYPE
  2
double-dashed_double-dotted
 70
   64
  3
-----   ---------   -   -   ----
 72
   65
 73
    8
 40
18.5
 49
6
 49
-1.5
 49
6
 49
-1.5
 49
0.25
 49
-1.5
 49
0.25
 49
-1.5
  0
LTYPE
  2
dashed_triplicate-dotted
 70
   64
  3
-------    -    -    -    ------
 72
   65
 73
    8
 40
12.75
 49
6
 49
-1.5
 49
0.25
 49
-1.5
 49
0.25
 49
-1.5
 49
0.25
 49
-1.5
  0
LTYPE
  2
double-dashed_triplicate-dotted
 70
   64
  3
-----  ---------  -  -  -  -----
 72
   65
 73
   10
 40
20.25
 49
6
 49
-1.5
 49
6
 49
-1.5
 49
0.25
 49
-1.5
 49
0.25
 49
-1.5
 49
0.25
 49
-1.5
  0
LTYPE
  2
undefined
 70
   64
  3
--------------------------------
 72
   65
 73
    0
 40
0
  0
LTYPE
  2
PLINE2
 70
   64
  3
------     -----------     -----
 72
   65
 73
    2
 40
3
 49
2.1000000000000001
 49
-0.9
  0
LTYPE
  2
PLINE3
 70
   64
  3
------------   ---   -----------
 72
   65
 73
    4
 40
10
 49
7
 49
-1
 49
1
 49
-1
  0
LTYPE
  2
PLINE4
 70
   64
  3
---------   ---   ---   --------
 72
   65
 73
    6
 40
10
 49
5
 49
-1
 49
1
 49
-1
 49
1
 49
-1
  0
LTYPE
  2
PLINE5
 70
   64
  3
------     -----------     -----
 72
   65
 73
    2
 40
5
 49
3.5
 49
-1.5
  0
LTYPE
  2
PLINE6
 70
   64
  3
------------   ---   -----------
 72
   65
 73
    4
 40
15
 49
10.5
 49
-1.5
 49
1.5
 49
-1.5
  0
LTYPE
  2
PLINE7
 70
   64
  3
---------   ---   ---   --------
 72
   65
 73
    6
 40
15
 49
7.5
 49
-1.5
 49
1.5
 49
-1.5
 49
1.5
 49
-1.5
  0
LTYPE
  2
PLINE8
 70
   64
  3
------     -----------     -----
 72
   65
 73
    2
 40
7
 49
4.9000000000000004
 49
-2.1000000000000001
  0
LTYPE
  2
PLINE9
 70
   64
  3
------------   ---   -----------
 72
   65
 73
    4
 40
20
 49
14
 49
-2
 49
2
 49
-2
  0
LTYPE
  2
PLINE10
 70
   64
  3
---------   ---   ---   --------
 72
   65
 73
    6
 40
20
 49
10
 49
-2
 49
2
 49
-2
 49
2
 49
-2
  0
LTYPE
  2
PLINE11
 70
   64
  3
------     -----------     -----
 72
   65
 73
    2
 40
9
 49
6.2999999999999989
 49
-2.7000000000000002
  0
LTYPE
  2
PLINE12
 70
   64
  3
------------   ---   -----------
 72
   65
 73
    4
 40
25
 49
17.5
 49
-2.5
 49
2.5
 49
-2.5
  0
LTYPE
  2
PLINE13
 70
   64
  3
---------   ---   ---   --------
 72
   65
 73
    6
 40
25
 49
12.5
 49
-2.5
 49
2.5
 49
-2.5
 49
2.5
 49
-2.5
  0
LTYPE
  2
PLINE14
 70
   64
  3
------     -----------     -----
 72
   65
 73
    2
 40
11
 49
7.7000000000000002
 49
-3.2999999999999989
  0
LTYPE
  2
PLINE15
 70
   64
  3
------------   ---   -----------
 72
   65
 73
    4
 40
30
 49
21
 49
-3
 49
3
 49
-3
  0
LTYPE
  2
PLINE16
 70
   64
  3
---------   ---   ---   --------
 72
   65
 73
    6
 40
30
 49
15
 49
-3
 49
3
 49
-3
 49
3
 49
-3
  0
ENDTAB
  0
TABLE
  2
STYLE
  5
3
100
AcDbSymbolTable
 70
     1
  0
STYLE
  5
10
100
AcDbSymbolTableRecord
100
AcDbTextStyleTableRecord
  2
STANDARD
 70
     0
 40
0.0
 41
1.0
 50
0.0
 71
     0
 42
0.2
  3
txt
  4
bigfont.shx
  0
STYLE
  5
26
100
AcDbSymbolTableRecord
100
AcDbTextStyleTableRecord
  2
TATEGAKI
 70
    68
 40
0.0
 41
1.0
 50
0.0
 71
     0
 42
1.0
  3
txt
  4
bigfont.shx
  0
ENDTAB
  0
TABLE
  2
LAYER
 70
    4
  0
LAYER
  2
_0-2_寸法
 70
   64
 62
    7
  6
CONTINUOUS
  0
LAYER
  2
_0-3_躯体と製品
 70
   64
 62
    7
  6
CONTINUOUS
  0
LAYER
  2
_0-4_図面枠
 70
   64
 62
    7
  6
CONTINUOUS
  0
LAYER
  2
ADD_LINE
 70
   64
 62
    7
  6
CONTINUOUS
  0
ENDTAB
  0
ENDSEC
  0
SECTION
  2
BLOCKS
  0
BLOCK
  2
-000-_Dot
 70
   64
 10
0
 20
0
 30
0
  0
CIRCLE
  8
_0-0_0
  6
CONTINUOUS
 62
    7
 10
0
 20
0
 40
0.05
  0
LINE
  8
_0-0_0
  6
CONTINUOUS
 62
    7
 10
0.05
 20
0
 11
-0.05
 21
0
  0
LINE
  8
_0-0_0
  6
CONTINUOUS
 62
    7
 10
-0.1
 20
0
 11
-0.2
 21
0
  0
ENDBLK
  0
BLOCK
  2
-001-_D4
 70
   64
 10
0
 20
0
 30
0
  0
LINE
  8
_0-2_寸法
  6
CONTINUOUS
 62
    4
 10
379.24579827915841
 20
43.820372778551061
 11
372.33189010511478
 21
50.734281007412001
  0
LINE
  8
_0-2_寸法
  6
CONTINUOUS
 62
    4
 10
356.7598024932858
 20
21.334377170960401
 11
349.84589431924218
 21
28.248285399821338
  0
LINE
  8
_0-2_寸法
  6
CONTINUOUS
 62
    4
 10
372.19046874831702
 20
50.592859651735317
 11
349.98731567604017
 21
28.389706755498018
  0
INSERT
  2
-000-_Dot
  8
_0-2_寸法
 10
372.33189010511478
 20
50.734281007412001
 41
1
 42
1
 50
44.999999772862971
  0
INSERT
  2
-000-_Dot
  8
_0-2_寸法
 10
349.84589431924218
 20
28.248285399821338
 41
1
 42
1
 50
224.99999977286288
  0
TEXT
  8
_0-2_寸法
 62
    7
 10
358.85443477566798
 20
37.483099953904883
 40
4
 41
1
 50
44.99999977286253
  1
159
  0
POINT
  8
_0-1_Defpoints
 62
    7
 10
379.24579827915841
 20
43.820372778551061
  0
POINT
  8
_0-1_Defpoints
 62
    7
 10
356.7598024932858
 20
21.334377170960401
  0
POINT
  8
_0-1_Defpoints
 62
    7
 10
349.84589431924218
 20
28.248285399821338
  0
ENDBLK
  0
BLOCK
  2
-002-_D5
 70
   64
 10
0
 20
0
 30
0
  0
LINE
  8
_0-2_寸法
  6
CONTINUOUS
 62
    4
 10
356.99451227915819
 20
21.099667578551042
 11
332.74901173111482
 21
45.444150593707782
  0
LINE
  8
_0-2_寸法
  6
CONTINUOUS
 62
    4
 10
241.54206827915817
 20
-93.883357221448961
 11
217.29656773111478
 21
-69.538874206292149
  0
LINE
  8
_0-2_寸法
  6
CONTINUOUS
 62
    4
 10
332.60730258001041
 20
45.303017619200617
 11
217.43827688221941
 21
-69.39774123178502
  0
INSERT
  2
-000-_Dot
  8
_0-2_寸法
 10
332.74901173111482
 20
45.444150593707782
 41
1
 42
1
 50
44.883283151161912
  0
INSERT
  2
-000-_Dot
  8
_0-2_寸法
 10
217.29656773111478
 20
-69.538874206292149
 41
1
 42
1
 50
224.88328315116178
  0
TEXT
  8
_0-2_寸法
 62
    7
 10
267.82442579628258
 20
-18.990643210765597
 40
4
 41
1
 50
44.883283151161351
  1
基準巾　Ｗ
  0
POINT
  8
_0-1_Defpoints
 62
    7
 10
356.99451227915819
 20
21.099667578551042
  0
POINT
  8
_0-1_Defpoints
 62
    7
 10
241.54206827915817
 20
-93.883357221448961
  0
POINT
  8
_0-1_Defpoints
 62
    7
 10
217.29656773111478
 20
-69.538874206292149
  0
ENDBLK
  0
BLOCK
  2
-003-_D6
 70
   64
 10
0
 20
0
 30
0
  0
LINE
  8
_0-2_寸法
  6
CONTINUOUS
 62
    4
 10
241.54206827915817
 20
-93.883357221448961
 11
234.98171357336099
 21
-87.323002398569486
  0
LINE
  8
_0-2_寸法
  6
CONTINUOUS
 62
    4
 10
225.98571887725979
 20
-109.43970634571417
 11
219.4253641714626
 21
-102.87935152283471
  0
LINE
  8
_0-2_寸法
  6
CONTINUOUS
 62
    4
 10
234.84029221586161
 20
-87.464423753544821
 11
219.56678552896179
 21
-102.73793016785935
  0
INSERT
  2
-000-_Dot
  8
_0-2_寸法
 10
234.98171357336099
 20
-87.323002398569486
 41
1
 42
1
 50
44.99999948872307
  0
INSERT
  2
-000-_Dot
  8
_0-2_寸法
 10
219.4253641714626
 20
-102.87935152283471
 41
1
 42
1
 50
224.99999948872301
  0
TEXT
  8
_0-2_寸法
 62
    7
 10
224.96908142594222
 20
-97.109360199332798
 40
4
 41
1
 50
44.999999488722771
  1
110
  0
POINT
  8
_0-1_Defpoints
 62
    7
 10
241.54206827915817
 20
-93.883357221448961
  0
POINT
  8
_0-1_Defpoints
 62
    7
 10
225.98571887725979
 20
-109.43970634571417
  0
POINT
  8
_0-1_Defpoints
 62
    7
 10
219.4253641714626
 20
-102.87935152283471
  0
ENDBLK
  0
BLOCK
  2
-004-_D7
 70
   64
 10
0
 20
0
 30
0
  0
LINE
  8
_0-2_寸法
  6
CONTINUOUS
 62
    4
 10
261.44830126705858
 20
-136.41700723586658
 11
277.97731417530622
 21
-152.94602014411416
  0
LINE
  8
_0-2_寸法
  6
CONTINUOUS
 62
    4
 10
385.1513169803174
 20
-12.713991522607991
 11
401.68032988856498
 21
-29.243004430855581
  0
LINE
  8
_0-2_寸法
  6
CONTINUOUS
 62
    4
 10
278.11873553154362
 20
-152.80459878787684
 11
401.53890853232758
 21
-29.384425787092859
  0
INSERT
  2
-000-_Dot
  8
_0-2_寸法
 10
277.97731417530622
 20
-152.94602014411416
 41
1
 42
1
 50
224.99999999999989
  0
INSERT
  2
-000-_Dot
  8
_0-2_寸法
 10
401.68032988856498
 20
-29.243004430855581
 41
1
 42
1
 50
44.999999999999957
  0
TEXT
  8
_0-2_寸法
 62
    7
 10
331.23040357270713
 20
-99.466656576733612
 40
4
 41
1
 50
44.999999999999979
  1
下地鉄骨寸法
  0
POINT
  8
_0-1_Defpoints
 62
    7
 10
261.44830126705858
 20
-136.41700723586658
  0
POINT
  8
_0-1_Defpoints
 62
    7
 10
385.1513169803174
 20
-12.713991522607991
  0
POINT
  8
_0-1_Defpoints
 62
    7
 10
401.68032988856498
 20
-29.243004430855581
  0
ENDBLK
  0
ENDSEC
  0
SECTION
  2
ENTITIES
  0
TEXT
  8
_0-4_図面枠
 62
    7
 10
22.950017808455868
 20
748.06496578323208
 40
40.000000000000114
 41
0.7999999999999977
 50
0
  1
サニートップ　Ｆ型短辺流れ標準図
  0
LINE
  8
_0-4_図面枠
  6
CONTINUOUS
 62
    4
 10
-757.92515019154371
 20
732.66666078323203
 11
1177.9081828084556
 21
732.66666078323203
  0
LINE
  8
_0-4_図面枠
  6
CONTINUOUS
 62
    4
 10
-757.92515019154371
 20
-519.00000621676782
 11
1177.9081828084556
 21
-519.00000621676782
  0
LINE
  8
_0-4_図面枠
  6
CONTINUOUS
 62
    4
 10
-757.92515019154371
 20
815.99999378323196
 11
1177.9081828084556
 21
815.99999378323196
  0
LINE
  8
_0-3_躯体と製品
  6
CONTINUOUS
 62
    7
 10
228.2158578084568
 20
519.70906678323195
 11
225.95311680845589
 21
517.44632578323206
  0
LINE
  8
_0-3_躯体と製品
  6
CONTINUOUS
 62
    2
 10
296.6637948084558
 20
446.73564678323203
 11
225.95311680845589
 21
517.44632578323206
  0
LINE
  8
_0-3_躯体と製品
  6
PLINE4
 62
    2
 10
225.95311680845589
 20
376.02496878323211
 11
1066.1249288084557
 21
-464.14684321676793
  0
LINE
  8
_0-3_躯体と製品
  6
CONTINUOUS
 62
    2
 10
332.37268680845591
 20
522.74962578323198
 11
225.95311680845589
 21
629.16919678323188
  0
LINE
  8
_0-3_躯体と製品
  6
CONTINUOUS
 62
    2
 10
329.89781380845693
 20
522.39607278323183
 11
225.95311680845589
 21
626.34076978323196
  0
LINE
  8
_0-3_躯体と製品
  6
CONTINUOUS
 62
    2
 10
225.95311680845589
 20
376.02496878323211
 11
296.6637948084558
 21
446.73564678323203
  0
LINE
  8
_0-3_躯体と製品
  6
CONTINUOUS
 62
    2
 10
292.1383108084558
 20
446.73564678323203
 11
225.95311680845589
 21
512.92084178323205
  0
LINE
  8
_0-3_躯体と製品
  6
CONTINUOUS
 62
    2
 10
225.95311680845589
 20
380.550452783232
 11
292.1383108084558
 21
446.73564678323203
  0
TEXT
  8
_0-4_図面枠
 62
    7
 10
195.37311380845586
 20
-221.45537421676795
 40
20
 41
0.8
 50
0
  1
正面図
  0
LINE
  8
_0-4_図面枠
  6
CONTINUOUS
 62
    2
 10
259.88294580845695
 20
-227.29996821676787
 11
189.69335280845576
 21
-227.29996821676787
  0
LINE
  8
_0-4_図面枠
  6
CONTINUOUS
 62
    2
 10
189.69335280845576
 20
-194.62550221676793
 11
259.88294580845695
 21
-194.62550221676793
  0
LINE
  8
_0-3_躯体と製品
  6
CONTINUOUS
 62
    2
 10
296.6637948084558
 20
446.73564678323203
 11
225.95311680845589
 21
376.02496878323211
  0
LINE
  8
_0-3_躯体と製品
  6
CONTINUOUS
 62
    2
 10
225.95311680845589
 20
517.44632578323206
 11
296.6637948084558
 21
446.73564678323203
  0
LINE
  8
_0-3_躯体と製品
  6
CONTINUOUS
 62
    2
 10
292.1383108084558
 20
446.73564678323203
 11
225.95311680845589
 21
380.550452783232
  0
LINE
  8
_0-3_躯体と製品
  6
CONTINUOUS
 62
    2
 10
225.95311680845589
 20
512.92084178323205
 11
292.1383108084558
 21
446.73564678323203
  0
LINE
  8
_0-4_図面枠
  6
CONTINUOUS
 62
    4
 10
-757.92515019154371
 20
815.99999378323196
 11
-757.92515019154371
 21
-519.00000621676782
  0
LINE
  8
_0-3_躯体と製品
  6
PLINE3
 62
    2
 10
-466.10106719154419
 20
-125.11038421676778
 11
180.27983880845591
 21
521.27052278323185
  0
LINE
  8
_0-3_躯体と製品
  6
CONTINUOUS
 62
    5
 10
-444.18075719154422
 20
-57.935240216767909
 11
112.10892480845678
 21
498.35444178323212
  0
LINE
  8
_0-3_躯体と製品
  6
CONTINUOUS
 62
    2
 10
-398.92592319154414
 20
-80.562657216767889
 11
134.73634180845579
 21
453.09960778323216
  0
LINE
  8
_0-3_躯体と製品
  6
CONTINUOUS
 62
    2
 10
-392.56196219154413
 20
-86.92661821676802
 11
141.10030280845581
 21
446.73564678323203
  0
LINE
  8
_0-3_躯体と製品
  6
CONTINUOUS
 62
    2
 10
-425.79598119154412
 20
-53.692599216767917
 11
107.86628380845582
 21
479.96966578323213
  0
LINE
  8
_0-3_躯体と製品
  6
CONTINUOUS
 62
    5
 10
-427.91730119154408
 20
-51.571279216767891
 11
117.05867180845576
 21
493.404694783232
  0
LINE
  8
_0-3_躯体と製品
  6
PLINE3
 62
    2
 10
225.95311680845589
 20
35.907400783232106
 11
225.95311680845589
 21
699.59089678323198
  0
LINE
  8
_0-3_躯体と製品
  6
PLINE4
 62
    2
 10
225.95311680845589
 20
376.02496878323211
 11
-321.85128419154421
 21
-171.77943121676788
  0
LINE
  8
_0-3_躯体と製品
  6
CONTINUOUS
 62
    2
 10
-470.34370819154424
 20
-178.85049921676784
 11
155.24243880845597
 21
446.73564678323203
  0
LINE
  8
_0-3_躯体と製品
  6
CONTINUOUS
 62
    2
 10
-392.56196219154413
 20
-242.49010921676791
 11
-321.85128419154421
 21
-171.77943121676788
  0
LINE
  8
_0-3_躯体と製品
  6
CONTINUOUS
 62
    2
 10
-392.56196219154413
 20
-105.59423721676797
 11
-326.3767671915441
 21
-171.77943121676788
  0
LINE
  8
_0-3_躯体と製品
  6
CONTINUOUS
 62
    2
 10
-321.85128419154421
 20
-171.77943121676788
 11
-392.56196219154413
 21
-101.06875321676796
  0
LINE
  8
_0-3_躯体と製品
  6
CONTINUOUS
 62
    2
 10
-382.09678219154421
 20
-54.965391216767784
 11
-391.57730019154315
 21
-57.505688216767908
  0
LINE
  8
_0-3_躯体と製品
  6
CONTINUOUS
 62
    2
 10
-386.47555619154423
 20
-38.565801216767966
 11
-379.55648419154409
 21
-45.48487321676788
  0
CIRCLE
  8
_0-3_躯体と製品
  6
CONTINUOUS
 62
    2
 10
-389.03253319154419
 20
-48.041850216767898
 40
8.4913660000000011
  0
LINE
  8
_0-3_躯体と製品
  6
PLINE3
 62
    2
 10
-398.2847291915441
 20
-38.777443216767892
 11
-379.68711019154421
 21
-57.375063216768012
  0
LINE
  8
_0-3_躯体と製品
  6
CONTINUOUS
 62
    7
 10
-350.1355551915442
 20
-30.358075216767872
 11
-399.63303019154409
 21
-79.855550216767881
  0
LINE
  8
_0-3_躯体と製品
  6
CONTINUOUS
 62
    7
 10
-371.3487591915441
 20
-9.144872216767908
 11
-420.84623319154412
 21
-58.642346216767919
  0
LINE
  8
_0-3_躯体と製品
  6
CONTINUOUS
 62
    2
 10
-379.83404019154409
 20
-88.340831216767867
 11
-400.69369019154419
 21
-109.20048121676791
  0
LINE
  8
_0-3_躯体と製品
  6
CONTINUOUS
 62
    2
 10
-386.19800119154411
 20
-81.976870216767793
 11
-379.83404019154409
 21
-88.340831216767867
  0
LINE
  8
_0-3_躯体と製品
  6
CONTINUOUS
 62
    2
 10
-382.66246719154424
 20
-88.340831216767867
 11
-387.61221519154424
 21
-83.391084216767922
  0
LINE
  8
_0-3_躯体と製品
  6
CONTINUOUS
 62
    2
 10
-386.90510819154406
 20
-92.583472216767916
 11
-382.66246719154424
 21
-88.340831216767867
  0
LINE
  8
_0-3_躯体と製品
  6
CONTINUOUS
 62
    2
 10
-392.56196219154413
 20
-237.9646262167679
 11
-326.3767671915441
 21
-171.77943121676788
  0
LINE
  8
_0-3_躯体と製品
  6
CONTINUOUS
 62
    2
 10
-437.10968919154425
 20
-226.22665321676777
 11
-529.74067819154425
 21
-318.85764221676789
  0
LINE
  8
_0-3_躯体と製品
  6
CONTINUOUS
 62
    7
 10
-528.32646419154412
 20
-318.85764221676789
 11
-421.55334019154407
 21
-240.36878921676794
  0
LINE
  8
_0-3_躯体と製品
  6
CONTINUOUS
 62
    7
 10
-435.69547619154423
 20
-226.22665321676777
 11
-528.32646419154412
 21
-318.85764221676789
  0
LINE
  8
_0-3_躯体と製品
  6
CONTINUOUS
 62
    7
 10
-514.18432819154418
 20
-332.99977721676794
 11
-435.69547619154423
 21
-226.22665321676777
  0
LINE
  8
_0-3_躯体と製品
  6
CONTINUOUS
 62
    7
 10
-629.51660619154404
 20
-448.33205521676803
 11
-408.11831119154408
 21
-226.93376021676795
  0
LINE
  8
_0-3_躯体と製品
  6
CONTINUOUS
 62
    7
 10
-622.44553819154407
 20
-455.40312321676788
 11
-401.0472431915432
 21
-234.00482821676803
  0
LINE
  8
_0-3_躯体と製品
  6
PLINE4
 62
    2
 10
-614.21869519154416
 20
-464.14684321676793
 11
-392.56196219154413
 21
-242.49010921676791
  0
LINE
  8
_0-3_躯体と製品
  6
CONTINUOUS
 62
    2
 10
-555.25685919154421
 20
-388.2144442167679
 11
-555.25685919154421
 21
-403.89183821676784
  0
LINE
  8
_0-3_躯体と製品
  6
CONTINUOUS
 62
    2
 10
-568.74207119154403
 20
-401.69965621676783
 11
-568.74207119154403
 21
-418.95032421676797
  0
LINE
  8
_0-3_躯体と製品
  6
CONTINUOUS
 62
    2
 10
-544.01918319154424
 20
-376.97676821676805
 11
-544.01918319154424
 21
-393.1036692167678
  0
LINE
  8
_0-3_躯体と製品
  6
CONTINUOUS
 62
    2
 10
-522.89235219154421
 20
-355.84993621676779
 11
-522.89235219154421
 21
-373.10060521676792
  0
LINE
  8
_0-3_躯体と製品
  6
CONTINUOUS
 62
    2
 10
-533.00626019154424
 20
-365.96384521676794
 11
-533.00626019154424
 21
-383.88877421676796
  0
LINE
  8
_0-3_躯体と製品
  6
CONTINUOUS
 62
    2
 10
-504.2378091915441
 20
-337.19539421676791
 11
-504.2378091915441
 21
-354.22130921676785
  0
LINE
  8
_0-3_躯体と製品
  6
CONTINUOUS
 62
    2
 10
-514.89143519154413
 20
-332.29267121676776
 11
-536.10463919154404
 21
-353.50587421676789
  0
LINE
  8
_0-3_躯体と製品
  6
CONTINUOUS
 62
    2
 10
-516.30564919154403
 20
-332.29267121676776
 11
-536.81174519154411
 21
-352.79876721676794
  0
ARC
  8
_0-3_躯体と製品
  6
CONTINUOUS
 62
    2
 10
-536.10463919154404
 20
-353.50587421676789
 40
1
 50
135
 51
315
  0
LINE
  8
_0-3_躯体と製品
  6
CONTINUOUS
 62
    2
 10
-528.32646419154412
 20
-347.14191321676788
 11
-529.03357119154407
 21
-346.43480621676792
  0
LINE
  8
_0-3_躯体と製品
  6
CONTINUOUS
 62
    2
 10
-514.12696419154418
 20
-347.08454921676787
 11
-514.12696419154418
 21
-364.11046421676792
  0
LINE
  8
_0-3_躯体と製品
  6
CONTINUOUS
 62
    2
 10
-529.74067819154425
 20
-318.85764221676789
 11
-516.30564919154403
 21
-332.29267121676776
  0
LINE
  8
_0-3_躯体と製品
  6
CONTINUOUS
 62
    7
 10
-514.18432819154418
 20
-332.99977721676794
 11
-528.32646419154412
 21
-318.85764221676789
  0
LINE
  8
_0-3_躯体と製品
  6
CONTINUOUS
 62
    2
 10
-494.79816119154407
 20
-327.75574621676799
 11
-494.79816119154407
 21
-343.88264721676785
  0
LINE
  8
_0-3_躯体と製品
  6
CONTINUOUS
 62
    2
 10
-449.83761119154406
 20
-53.692599216767917
 11
-442.7665441915442
 21
-46.621532216767775
  0
LINE
  8
_0-3_躯体と製品
  6
CONTINUOUS
 62
    2
 10
-456.20157219154407
 20
-57.228133216767787
 11
-439.2310101915441
 21
-40.257571216767872
  0
LINE
  8
_0-3_躯体と製品
  6
CONTINUOUS
 62
    2
 10
-404.6555941915442
 20
-53.619782216767874
 11
-405.63414119154413
 21
-52.641235216767882
  0
LINE
  8
_0-3_躯体と製品
  6
CONTINUOUS
 62
    2
 10
-404.6555941915442
 20
-53.619782216767874
 11
-405.63414119154413
 21
-52.641235216767882
  0
LINE
  8
_0-3_躯体と製品
  6
CONTINUOUS
 62
    2
 10
-404.6555941915442
 20
-53.619782216767874
 11
-405.63414119154413
 21
-52.641235216767882
  0
LINE
  8
_0-3_躯体と製品
  6
CONTINUOUS
 62
    2
 10
-412.36095219154413
 20
-57.228133216767787
 11
-407.3562871915442
 21
-52.223468216767913
  0
LINE
  8
_0-3_躯体と製品
  6
CONTINUOUS
 62
    2
 10
-391.57730019154315
 20
-57.505688216767908
 11
-398.4963721915442
 21
-50.586616216767879
  0
LINE
  8
_0-3_躯体と製品
  6
CONTINUOUS
 62
    5
 10
-427.23658319154424
 20
-55.080424216767767
 11
-429.33151519154421
 21
-52.985492216767909
  0
LINE
  8
_0-3_躯体と製品
  6
CONTINUOUS
 62
    5
 10
-427.91730119154408
 20
-51.571279216767891
 11
-439.2310101915441
 21
-62.884987216767911
  0
LINE
  8
_0-3_躯体と製品
  6
CONTINUOUS
 62
    7
 10
-444.32217819154403
 20
-148.30348621676785
 11
-465.53538219154416
 21
-169.51669021676787
  0
LINE
  8
_0-3_躯体と製品
  6
CONTINUOUS
 62
    2
 10
-523.37671719154423
 20
-151.27333521676792
 11
-480.95031019154408
 21
-193.69974221676785
  0
LINE
  8
_0-3_躯体と製品
  6
CONTINUOUS
 62
    2
 10
-481.65741619154414
 20
-195.82106221676793
 11
-525.4980371915442
 21
-151.98044121676776
  0
LINE
  8
_0-3_躯体と製品
  6
CONTINUOUS
 62
    2
 10
-458.74715719154415
 20
-171.77943121676788
 11
-392.56196219154413
 21
-105.59423721676797
  0
LINE
  8
_0-3_躯体と製品
  6
CONTINUOUS
 62
    2
 10
-449.83761119154406
 20
-186.62867421676799
 11
-463.27264019154404
 21
-173.19364521676789
  0
LINE
  8
_0-3_躯体と製品
  6
CONTINUOUS
 62
    2
 10
-392.56196219154413
 20
-242.49010921676791
 11
-463.27264019154404
 21
-171.77943121676788
  0
LINE
  8
_0-3_躯体と製品
  6
CONTINUOUS
 62
    2
 10
-463.27264019154404
 20
-200.06370321676786
 11
-437.10968919154425
 21
-226.22665321676777
  0
LINE
  8
_0-3_躯体と製品
  6
CONTINUOUS
 62
    2
 10
-461.85842719154425
 20
-174.60785821676791
 11
-480.95031019154408
 21
-193.69974221676785
  0
LINE
  8
_0-3_躯体と製品
  6
CONTINUOUS
 62
    2
 10
-461.85842719154425
 20
-177.43628621676783
 11
-480.24320319154413
 21
-195.82106221676793
  0
LINE
  8
_0-3_躯体と製品
  6
CONTINUOUS
 62
    2
 10
-463.27264019154404
 20
-200.06370321676786
 11
-449.83761119154406
 21
-186.62867421676799
  0
ARC
  8
_0-3_躯体と製品
  6
CONTINUOUS
 62
    2
 10
-480.95031019154408
 20
-195.11395521676786
 40
1
 50
225
 51
315
  0
ARC
  8
_0-3_躯体と製品
  6
CONTINUOUS
 62
    5
 10
-485.85525619154419
 20
-211.17570421676794
 40
24.805989
 50
26.118491999996944
 51
60.353110000000029
  0
LINE
  8
_0-3_躯体と製品
  6
CONTINUOUS
 62
    2
 10
-469.63660119154406
 20
-179.55760621676791
 11
-463.27264019154404
 21
-173.19364521676789
  0
LINE
  8
_0-3_躯体と製品
  6
CONTINUOUS
 62
    2
 10
-470.34370819154424
 20
-178.85049921676784
 11
-469.63660119154406
 21
-179.55760621676791
  0
LINE
  8
_0-3_躯体と製品
  6
CONTINUOUS
 62
    7
 10
-465.53538219154416
 20
-169.51669021676787
 11
-463.27264019154404
 21
-171.77943121676788
  0
LINE
  8
_0-3_躯体と製品
  6
CONTINUOUS
 62
    7
 10
-461.85842719154425
 20
-200.06370321676786
 11
-408.11831119154408
 21
-226.93376021676795
  0
LINE
  8
_0-3_躯体と製品
  6
CONTINUOUS
 62
    7
 10
-421.55334019154407
 20
-240.36878921676794
 11
-448.42339819154404
 21
-186.62867421676799
  0
LINE
  8
_0-3_躯体と製品
  6
CONTINUOUS
 62
    7
 10
-421.55334019154407
 20
-240.36878921676794
 11
-461.85842719154425
 21
-200.06370321676786
  0
LINE
  8
_0-3_躯体と製品
  6
CONTINUOUS
 62
    2
 10
-458.74715719154415
 20
-171.77943121676788
 11
-392.56196219154413
 21
-237.9646262167679
  0
LINE
  8
_0-3_躯体と製品
  6
CONTINUOUS
 62
    2
 10
-461.85842719154425
 20
-177.43628621676783
 11
-451.25182519154419
 21
-188.04288721676801
  0
LINE
  8
_0-3_躯体と製品
  6
CONTINUOUS
 62
    7
 10
-448.42339819154404
 20
-186.62867421676799
 11
-461.85842719154425
 21
-200.06370321676786
  0
LINE
  8
_0-3_躯体と製品
  6
CONTINUOUS
 62
    2
 10
-458.87615519154406
 20
-185.06061521676793
 11
-448.27729619154411
 21
-174.46175721676786
  0
LINE
  8
_0-3_躯体と製品
  6
CONTINUOUS
 62
    2
 10
-464.68685319154406
 20
-68.541841216767807
 11
-457.6157861915442
 21
-75.612909216767889
  0
LINE
  8
_0-3_躯体と製品
  6
CONTINUOUS
 62
    2
 10
-459.73710619154417
 20
-70.663162216767887
 11
-464.68685319154406
 21
-65.713414216767887
  0
ARC
  8
_0-3_躯体と製品
  6
CONTINUOUS
 62
    5
 10
-491.30039619154422
 20
-30.614591216767906
 40
44.047792999999999
 50
307.17107799999599
 51
322.8289220000039
  0
LINE
  8
_0-3_躯体と製品
  6
CONTINUOUS
 62
    2
 10
-451.95893219154414
 20
-77.027123216767905
 11
-525.4980371915442
 21
-150.56622821676785
  0
ARC
  8
_0-3_躯体と製品
  6
CONTINUOUS
 62
    2
 10
-449.9790331915442
 20
-108.98834921676792
 40
15
 50
205.52877900000061
 51
225
  0
LINE
  8
_0-3_躯体と製品
  6
CONTINUOUS
 62
    2
 10
-458.46431419154419
 20
-110.40256321676793
 11
-463.51456719154316
 21
-115.45281521676793
  0
LINE
  8
_0-3_躯体と製品
  6
CONTINUOUS
 62
    2
 10
-466.55049819154419
 20
-113.63008721676795
 11
-460.58563419154416
 21
-119.59495121676798
  0
LINE
  8
_0-3_躯体と製品
  6
CONTINUOUS
 62
    2
 10
-461.14573419154408
 20
-86.9322042167679
 11
-462.4715591915442
 21
-89.849019216767886
  0
LINE
  8
_0-3_躯体と製品
  6
CONTINUOUS
 62
    2
 10
-462.92467319154412
 20
-89.395905216767972
 11
-461.75547219154419
 21
-86.823663216768011
  0
LINE
  8
_0-3_躯体と製品
  6
CONTINUOUS
 62
    2
 10
-468.22238819154404
 20
-96.119006216767843
 11
-453.01959219154423
 21
-111.32180221676776
  0
LINE
  8
_0-3_躯体と製品
  6
CONTINUOUS
 62
    2
 10
-461.15132019154407
 20
-86.219511216767899
 11
-462.91908719154412
 21
-90.108598216767916
  0
LINE
  8
_0-3_躯体と製品
  6
CONTINUOUS
 62
    2
 10
-465.95964619154415
 20
-89.896466216767919
 11
-460.30279219154409
 21
-84.23961221676791
  0
LINE
  8
_0-3_躯体と製品
  6
CONTINUOUS
 62
    2
 10
-462.43295119154413
 20
-89.887627216767896
 11
-461.86401319154311
 21
-90.456565216767899
  0
ARC
  8
_0-3_躯体と製品
  6
CONTINUOUS
 62
    2
 10
-460.44421319154412
 20
-89.755045216767769
 40
6
 50
97.533782000001992
 51
135
  0
LINE
  8
_0-3_躯体と製品
  6
PLINE3
 62
    2
 10
-465.39396019154424
 20
-84.805297216767883
 11
-450.54471819154423
 21
-99.654540216767941
  0
LINE
  8
_0-3_躯体と製品
  6
CONTINUOUS
 62
    2
 10
-465.39396019154424
 20
-96.119006216767843
 11
-460.79776619154404
 21
-91.522812216767875
  0
LINE
  8
_0-3_躯体と製品
  6
CONTINUOUS
 62
    7
 10
-470.48512919154405
 20
-98.381747216767849
 11
-444.32217819154403
 21
-124.54469821676776
  0
LINE
  8
_0-3_躯体と製品
  6
PLINE3
 62
    2
 10
-466.16981919154409
 20
-55.745167216767868
 11
-405.84186319154423
 21
-116.07312321676784
  0
LINE
  8
_0-3_躯体と製品
  6
CONTINUOUS
 62
    2
 10
-450.54471819154423
 20
-78.441336216767922
 11
-523.37671719154423
 21
-151.27333521676792
  0
ARC
  8
_0-3_躯体と製品
  6
CONTINUOUS
 62
    2
 10
-524.79093019154425
 20
-151.27333521676792
 40
1
 50
135
 51
225
  0
ARC
  8
_0-3_躯体と製品
  6
CONTINUOUS
 62
    2
 10
-463.12562219154415
 20
-111.65266821676778
 40
3.819999999999999
 50
225
 51
264.1561320000028
  0
LINE
  8
_0-3_躯体と製品
  6
CONTINUOUS
 62
    2
 10
-467.01803519154419
 20
-111.88521621676796
 11
-466.55049819154419
 21
-113.63008721676795
  0
LINE
  8
_0-3_躯体と製品
  6
CONTINUOUS
 62
    2
 10
-461.99984819154315
 20
-106.86702921676795
 11
-467.01803519154419
 21
-111.88521621676796
  0
LINE
  8
_0-3_躯体と製品
  6
CONTINUOUS
 62
    2
 10
-475.29345519154413
 20
-79.148443216767873
 11
-473.52568819154408
 21
-80.916209216767868
  0
LINE
  8
_0-3_躯体と製品
  6
CONTINUOUS
 62
    2
 10
-464.68685319154406
 20
-65.713414216767887
 11
-481.65741519154403
 21
-82.683976216767974
  0
LINE
  8
_0-3_躯体と製品
  6
CONTINUOUS
 62
    2
 10
-480.24320219154424
 20
-84.098190216767875
 11
-481.65741519154403
 21
-82.683976216767974
  0
ARC
  8
_0-3_躯体と製品
  6
CONTINUOUS
 62
    5
 10
-528.61611419154406
 20
-108.92987421676787
 40
53.795599000000003
 50
8.965894000001585
 51
29.201457999998979
  0
LINE
  8
_0-3_躯体と製品
  6
CONTINUOUS
 62
    2
 10
-476.70766819154414
 20
-80.562656216767891
 11
-473.87924119154422
 21
-83.391083216767811
  0
LINE
  8
_0-3_躯体と製品
  6
CONTINUOUS
 62
    2
 10
-473.52568819154408
 20
-80.916209216767868
 11
-472.46502819154421
 21
-79.855549216767884
  0
LINE
  8
_0-3_躯体と製品
  6
CONTINUOUS
 62
    2
 10
-471.40436719154422
 20
-80.916209216767868
 11
-473.87924119154422
 21
-83.391083216767811
  0
LINE
  8
_0-3_躯体と製品
  6
CONTINUOUS
 62
    2
 10
-472.46502819154421
 20
-79.855549216767884
 11
-471.40436719154422
 21
-80.916209216767868
  0
LINE
  8
_0-3_躯体と製品
  6
CONTINUOUS
 62
    2
 10
-480.24320219154424
 20
-84.098190216767875
 11
-476.70766819154414
 21
-80.562656216767891
  0
LINE
  8
_0-3_躯体と製品
  6
CONTINUOUS
 62
    2
 10
-462.91908719154412
 20
-87.987278216767891
 11
-462.21198019154417
 21
-87.987278216767891
  0
LINE
  8
_0-3_躯体と製品
  6
CONTINUOUS
 62
    2
 10
-462.21198019154417
 20
-87.280171216767883
 11
-462.21198019154417
 21
-87.987278216767891
  0
LINE
  8
_0-3_躯体と製品
  6
CONTINUOUS
 62
    2
 10
-462.91908719154412
 20
-90.108598216767916
 11
-462.92467319154412
 21
-89.395905216767972
  0
LINE
  8
_0-3_躯体と製品
  6
CONTINUOUS
 62
    2
 10
-462.4715591915442
 20
-89.849019216767886
 11
-462.91908719154412
 21
-90.108598216767916
  0
LINE
  8
_0-3_躯体と製品
  6
CONTINUOUS
 62
    2
 10
-463.62619419154407
 20
-88.694385216767898
 11
-462.92467319154412
 21
-89.395905216767972
  0
LINE
  8
_0-3_躯体と製品
  6
CONTINUOUS
 62
    2
 10
-465.95964619154415
 20
-89.896466216767919
 11
-465.06736219154413
 21
-90.135553216767789
  0
LINE
  8
_0-3_躯体と製品
  6
CONTINUOUS
 62
    2
 10
-466.39241919154415
 20
-88.968380216767969
 11
-465.95964619154415
 21
-89.896466216767919
  0
ARC
  8
_0-3_躯体と製品
  6
CONTINUOUS
 62
    2
 10
-460.44421319154412
 20
-89.755045216767769
 40
6
 50
135
 51
172.46621799999801
  0
LINE
  8
_0-3_躯体と製品
  6
CONTINUOUS
 62
    2
 10
-465.39396019154424
 20
-96.119006216767843
 11
-466.80817419154414
 21
-94.704792216767942
  0
LINE
  8
_0-3_躯体と製品
  6
CONTINUOUS
 62
    2
 10
-466.80817419154414
 20
-94.704792216767942
 11
-468.22238819154404
 21
-96.119006216767843
  0
LINE
  8
_0-3_躯体と製品
  6
CONTINUOUS
 62
    2
 10
-475.27263919154416
 20
-79.127627216767792
 11
-475.27263919154416
 21
-79.155381216767921
  0
LINE
  8
_0-3_躯体と製品
  6
CONTINUOUS
 62
    2
 10
-468.22238719154416
 20
-72.077375216768019
 11
-475.29345519154413
 21
-79.148443216767873
  0
LINE
  8
_0-3_躯体と製品
  6
CONTINUOUS
 62
    2
 10
-466.45462019154411
 20
-73.845142216767897
 11
-468.22238719154416
 21
-72.077375216768019
  0
LINE
  8
_0-3_躯体と製品
  6
CONTINUOUS
 62
    2
 10
-466.45462019154411
 20
-73.845142216767897
 11
-467.51528019154421
 21
-74.905802216767881
  0
LINE
  8
_0-3_躯体と製品
  6
CONTINUOUS
 62
    2
 10
-466.80817419154414
 20
-70.663162216767887
 11
-464.68685319154406
 21
-68.541841216767807
  0
LINE
  8
_0-3_躯体と製品
  6
CONTINUOUS
 62
    2
 10
-466.45462019154411
 20
-75.966462216767809
 11
-463.97974719154422
 21
-73.49158921676792
  0
LINE
  8
_0-3_躯体と製品
  6
CONTINUOUS
 62
    2
 10
-467.51528019154421
 20
-74.905802216767881
 11
-466.45462019154411
 21
-75.966462216767809
  0
LINE
  8
_0-3_躯体と製品
  6
CONTINUOUS
 62
    2
 10
-466.80817419154414
 20
-70.663162216767887
 11
-463.97974719154422
 21
-73.49158921676792
  0
LINE
  8
_0-3_躯体と製品
  6
CONTINUOUS
 62
    2
 10
-410.94673819154423
 20
-62.884987216767911
 11
-458.46431419154419
 21
-110.40256321676793
  0
LINE
  8
_0-3_躯体と製品
  6
CONTINUOUS
 62
    2
 10
-451.39324619154422
 20
-117.4736312167679
 11
-403.87567119154414
 21
-69.956055216767879
  0
LINE
  8
_0-3_躯体と製品
  6
CONTINUOUS
 62
    2
 10
-409.53252519154421
 20
-112.38246221676786
 11
-391.14774819154422
 21
-93.997685216767877
  0
LINE
  8
_0-3_躯体と製品
  6
CONTINUOUS
 62
    2
 10
-461.85842719154425
 20
-96.826113216767908
 11
-427.91730119154408
 21
-130.76723821676785
  0
LINE
  8
_0-3_躯体と製品
  6
CONTINUOUS
 62
    2
 10
-452.10035319154417
 20
-116.76652421676795
 11
-404.58277719154421
 21
-69.248948216767872
  0
LINE
  8
_0-3_躯体と製品
  6
CONTINUOUS
 62
    2
 10
-457.75720719154424
 20
-111.10967021676788
 11
-410.23963219154416
 21
-63.592094216767919
  0
LINE
  8
_0-3_躯体と製品
  6
CONTINUOUS
 62
    2
 10
-433.57415519154415
 20
-142.08094721676775
 11
-412.71450519154405
 21
-121.22129621676788
  0
LINE
  8
_0-3_躯体と製品
  6
CONTINUOUS
 62
    2
 10
-409.53252519154421
 20
-112.38246221676786
 11
-427.91730119154408
 21
-130.76723821676785
  0
LINE
  8
_0-3_躯体と製品
  6
CONTINUOUS
 62
    2
 10
-445.24141719154409
 20
-119.09997621676791
 11
-429.33151519154421
 21
-135.0098792167679
  0
LINE
  8
_0-3_躯体と製品
  6
CONTINUOUS
 62
    7
 10
-441.12217819154421
 20
-149.62897021676793
 11
-441.12217819154421
 21
-123.21921521676791
  0
LINE
  8
_0-3_躯体と製品
  6
CONTINUOUS
 62
    7
 10
-444.32217819154403
 20
-124.54469821676776
 11
-444.32217819154403
 21
-148.30348621676785
  0
LINE
  8
_0-3_躯体と製品
  6
CONTINUOUS
 62
    2
 10
-439.93811619154417
 20
-135.71698521676785
 11
-433.57415519154415
 21
-142.08094721676775
  0
LINE
  8
_0-3_躯体と製品
  6
CONTINUOUS
 62
    2
 10
-438.52390319154415
 20
-134.30277221676795
 11
-439.93811619154417
 21
-135.71698521676785
  0
LINE
  8
_0-3_躯体と製品
  6
CONTINUOUS
 62
    2
 10
-433.57415519154415
 20
-139.25251921676784
 11
-438.52390319154415
 21
-134.30277221676795
  0
LINE
  8
_0-3_躯体と製品
  6
CONTINUOUS
 62
    2
 10
-429.33151519154421
 20
-135.0098792167679
 11
-433.57415519154415
 21
-139.25251921676784
  0
LINE
  8
_0-3_躯体と製品
  6
CONTINUOUS
 62
    2
 10
-451.39324619154422
 20
-117.4736312167679
 11
-456.44349919154411
 21
-122.52388321676801
  0
ARC
  8
_0-3_躯体と製品
  6
CONTINUOUS
 62
    2
 10
-452.64335119154407
 20
-122.13493821676775
 40
3.819999999999999
 50
185.843867999997
 51
225
  0
ARC
  8
_0-3_躯体と製品
  6
CONTINUOUS
 62
    2
 10
-449.9790331915442
 20
-108.98834921676792
 40
15
 50
225
 51
244.47122099999939
  0
LINE
  8
_0-3_躯体と製品
  6
CONTINUOUS
 62
    2
 10
-454.62077119154424
 20
-125.55981421676779
 11
-460.58563419154416
 21
-119.59495121676798
  0
LINE
  8
_0-3_躯体と製品
  6
CONTINUOUS
 62
    2
 10
-452.87589919154425
 20
-126.0273512167679
 11
-454.62077119154424
 21
-125.55981421676779
  0
LINE
  8
_0-3_躯体と製品
  6
CONTINUOUS
 62
    2
 10
-447.85771219154412
 20
-121.00916421676789
 11
-452.87589919154425
 21
-126.0273512167679
  0
LINE
  8
_0-3_躯体と製品
  6
CONTINUOUS
 62
    2
 10
-452.31248519154406
 20
-112.02890821676795
 11
-445.94852419154404
 21
-118.39286921676785
  0
LINE
  8
_0-3_躯体と製品
  6
CONTINUOUS
 62
    2
 10
-445.24141719154409
 20
-119.09997621676791
 11
-445.24141719154409
 21
-118.39286921676785
  0
LINE
  8
_0-3_躯体と製品
  6
CONTINUOUS
 62
    2
 10
-445.94852419154404
 20
-118.39286921676785
 11
-445.24141719154409
 21
-118.39286921676785
  0
LINE
  8
_0-3_躯体と製品
  6
CONTINUOUS
 62
    2
 10
-452.31248519154406
 20
-112.02890821676795
 11
-452.31248519154406
 21
-111.32180221676776
  0
LINE
  8
_0-3_躯体と製品
  6
CONTINUOUS
 62
    2
 10
-453.01959219154423
 20
-111.32180221676776
 11
-452.31248519154406
 21
-111.32180221676776
  0
LINE
  8
_0-3_躯体と製品
  6
CONTINUOUS
 62
    2
 10
-401.40079719154414
 20
-109.90758821676786
 11
-406.35054419154403
 21
-114.85733521676775
  0
LINE
  8
_0-3_躯体と製品
  6
CONTINUOUS
 62
    2
 10
-412.00739919154421
 20
-120.51419021676793
 11
-407.05765119154421
 21
-115.56444221676793
  0
LINE
  8
_0-3_躯体と製品
  6
CONTINUOUS
 62
    2
 10
-412.00739919154421
 20
-120.51419021676793
 11
-412.71450519154405
 21
-120.51419021676793
  0
LINE
  8
_0-3_躯体と製品
  6
CONTINUOUS
 62
    2
 10
-412.71450519154405
 20
-121.22129621676788
 11
-412.71450519154405
 21
-120.51419021676793
  0
LINE
  8
_0-3_躯体と製品
  6
CONTINUOUS
 62
    2
 10
-406.35054419154403
 20
-114.85733521676775
 11
-407.05765119154421
 21
-114.85733521676775
  0
LINE
  8
_0-3_躯体と製品
  6
CONTINUOUS
 62
    2
 10
-407.05765119154421
 20
-115.56444221676793
 11
-407.05765119154421
 21
-114.85733521676775
  0
LINE
  8
_0-3_躯体と製品
  6
CONTINUOUS
 62
    2
 10
-400.69369019154419
 20
-109.20048121676791
 11
-401.40079719154414
 21
-109.20048121676791
  0
LINE
  8
_0-3_躯体と製品
  6
CONTINUOUS
 62
    2
 10
-401.40079719154414
 20
-109.90758821676786
 11
-401.40079719154414
 21
-109.20048121676791
  0
LINE
  8
_0-3_躯体と製品
  6
CONTINUOUS
 62
    2
 10
-425.79598119154412
 20
-53.692599216767917
 11
-410.59318519154408
 21
-68.895395216767895
  0
LINE
  8
_0-3_躯体と製品
  6
CONTINUOUS
 62
    2
 10
-391.14774819154422
 20
-93.997685216767877
 11
-425.08887419154416
 21
-60.056560216767878
  0
LINE
  8
_0-3_躯体と製品
  6
CONTINUOUS
 62
    2
 10
-455.49446619154423
 20
-73.49158921676792
 11
-449.13050519154422
 21
-79.855550216767881
  0
LINE
  8
_0-3_躯体と製品
  6
CONTINUOUS
 62
    2
 10
-456.5551261915441
 20
-91.522812216767875
 11
-443.47365019154313
 21
-78.441336216767922
  0
LINE
  8
_0-3_躯体と製品
  6
CONTINUOUS
 62
    2
 10
-461.15132019154407
 20
-86.219511216767899
 11
-461.14573419154408
 21
-86.9322042167679
  0
LINE
  8
_0-3_躯体と製品
  6
CONTINUOUS
 62
    2
 10
-457.96933919154412
 20
-89.401491216767909
 11
-457.96375319154413
 21
-90.114184216767967
  0
LINE
  8
_0-3_躯体と製品
  6
CONTINUOUS
 62
    2
 10
-458.41686719154404
 20
-89.661070216767882
 11
-457.96933919154412
 21
-89.401491216767909
  0
LINE
  8
_0-3_躯体と製品
  6
CONTINUOUS
 62
    2
 10
-457.96933919154412
 20
-89.401491216767909
 11
-459.73710619154417
 21
-93.290579216767981
  0
LINE
  8
_0-3_躯体と製品
  6
CONTINUOUS
 62
    2
 10
-459.73710619154417
 20
-93.290579216767981
 11
-459.74269219154417
 21
-92.577886216767922
  0
LINE
  8
_0-3_躯体と製品
  6
CONTINUOUS
 62
    2
 10
-459.28957819154425
 20
-93.031000216767893
 11
-459.73710619154417
 21
-93.290579216767981
  0
LINE
  8
_0-3_躯体と製品
  6
CONTINUOUS
 62
    2
 10
-457.96375319154413
 20
-90.114184216767967
 11
-459.28957819154425
 21
-93.031000216767893
  0
LINE
  8
_0-3_躯体と製品
  6
CONTINUOUS
 62
    2
 10
-459.74269219154417
 20
-92.577886216767922
 11
-458.41686719154404
 21
-89.661070216767882
  0
LINE
  8
_0-3_躯体と製品
  6
CONTINUOUS
 62
    2
 10
-460.0906601915442
 20
-87.280171216767883
 11
-461.85842719154425
 21
-91.169258216767901
  0
LINE
  8
_0-3_躯体と製品
  6
CONTINUOUS
 62
    2
 10
-461.85842719154425
 20
-91.169258216767901
 11
-461.86401319154311
 21
-90.456565216767899
  0
LINE
  8
_0-3_躯体と製品
  6
CONTINUOUS
 62
    2
 10
-461.4108991915441
 20
-90.909679216767984
 11
-461.85842719154425
 21
-91.169258216767901
  0
LINE
  8
_0-3_躯体と製品
  6
CONTINUOUS
 62
    2
 10
-460.0850731915441
 20
-87.992864216767998
 11
-461.4108991915441
 21
-90.909679216767984
  0
LINE
  8
_0-3_躯体と製品
  6
CONTINUOUS
 62
    2
 10
-460.0906601915442
 20
-87.280171216767883
 11
-460.0850731915441
 21
-87.992864216767998
  0
LINE
  8
_0-3_躯体と製品
  6
CONTINUOUS
 62
    2
 10
-460.53818819154412
 20
-87.539750216767914
 11
-460.0906601915442
 21
-87.280171216767883
  0
LINE
  8
_0-3_躯体と製品
  6
CONTINUOUS
 62
    2
 10
-461.86401319154311
 20
-90.456565216767899
 11
-460.53818819154412
 21
-87.539750216767914
  0
LINE
  8
_0-3_躯体と製品
  6
CONTINUOUS
 62
    2
 10
-459.02441319154423
 20
-89.053524216767869
 11
-458.41686719154404
 21
-89.661070216767882
  0
LINE
  8
_0-3_躯体と製品
  6
CONTINUOUS
 62
    2
 10
-459.02999919154422
 20
-88.340831216767867
 11
-459.02441319154423
 21
-89.053524216767869
  0
LINE
  8
_0-3_躯体と製品
  6
CONTINUOUS
 62
    2
 10
-461.4108991915441
 20
-90.909679216767984
 11
-460.80335319154415
 21
-91.517225216767997
  0
LINE
  8
_0-3_躯体と製品
  6
CONTINUOUS
 62
    2
 10
-460.0850731915441
 20
-87.992864216767998
 11
-459.47752719154414
 21
-88.600410216767898
  0
LINE
  8
_0-3_躯体と製品
  6
CONTINUOUS
 62
    2
 10
-461.14573419154408
 20
-86.9322042167679
 11
-460.53818819154412
 21
-87.539750216767914
  0
LINE
  8
_0-3_躯体と製品
  6
CONTINUOUS
 62
    2
 10
-461.2308771915441
 20
-83.806838216767972
 11
-460.30279219154409
 21
-84.23961221676791
  0
LINE
  8
_0-3_躯体と製品
  6
CONTINUOUS
 62
    2
 10
-460.30279219154409
 20
-84.23961221676791
 11
-460.06370519154416
 21
-85.131896216767984
  0
LINE
  8
_0-3_躯体と製品
  6
CONTINUOUS
 62
    2
 10
-457.96375319154413
 20
-90.114184216767967
 11
-457.26223219154417
 21
-90.815705216767867
  0
LINE
  8
_0-3_躯体と製品
  6
CONTINUOUS
 62
    2
 10
-460.31163019154405
 20
-92.008948216767919
 11
-459.74269219154417
 21
-92.577886216767922
  0
LINE
  8
_0-3_躯体と製品
  6
CONTINUOUS
 62
    2
 10
-459.02999919154422
 20
-88.340831216767867
 11
-460.79776619154404
 21
-92.229918216767885
  0
LINE
  8
_0-3_躯体と製品
  6
CONTINUOUS
 62
    2
 10
-460.79776619154404
 20
-92.229918216767885
 11
-460.80335319154415
 21
-91.517225216767997
  0
LINE
  8
_0-3_躯体と製品
  6
CONTINUOUS
 62
    2
 10
-460.35023819154412
 20
-91.970340216767909
 11
-460.79776619154404
 21
-92.229918216767885
  0
LINE
  8
_0-3_躯体と製品
  6
CONTINUOUS
 62
    2
 10
-459.02441319154423
 20
-89.053524216767869
 11
-460.35023819154412
 21
-91.970340216767909
  0
LINE
  8
_0-3_躯体と製品
  6
CONTINUOUS
 62
    2
 10
-459.47752719154414
 20
-88.600410216767898
 11
-459.02999919154422
 21
-88.340831216767867
  0
LINE
  8
_0-3_躯体と製品
  6
CONTINUOUS
 62
    2
 10
-460.80335319154415
 20
-91.517225216767997
 11
-459.47752719154414
 21
-88.600410216767898
  0
LINE
  8
_0-3_躯体と製品
  6
CONTINUOUS
 62
    2
 10
-456.90867919154425
 20
-90.462151216767893
 11
-457.6213721915442
 21
-90.456565216767899
  0
LINE
  8
_0-3_躯体と製品
  6
CONTINUOUS
 62
    2
 10
-457.16825819154406
 20
-90.909679216767984
 11
-456.90867919154425
 21
-90.462151216767893
  0
LINE
  8
_0-3_躯体と製品
  6
CONTINUOUS
 62
    2
 10
-456.20157219154407
 20
-96.119006216767843
 11
-454.87574719154418
 21
-94.793181216767948
  0
LINE
  8
_0-3_躯体と製品
  6
CONTINUOUS
 62
    2
 10
-457.26223219154417
 20
-90.815705216767867
 11
-454.0802521915441
 21
-96.119006216767843
  0
LINE
  8
_0-3_躯体と製品
  6
CONTINUOUS
 62
    2
 10
-454.0802521915441
 20
-93.997685216767877
 11
-457.26223219154417
 21
-90.815705216767867
  0
LINE
  8
_0-3_躯体と製品
  6
CONTINUOUS
 62
    2
 10
-454.0802521915441
 20
-96.119006216767843
 11
-454.0802521915441
 21
-93.997685216767877
  0
LINE
  8
_0-3_躯体と製品
  6
CONTINUOUS
 62
    2
 10
-456.20157219154407
 20
-96.119006216767843
 11
-454.0802521915441
 21
-96.119006216767843
  0
LINE
  8
_0-3_躯体と製品
  6
CONTINUOUS
 62
    2
 10
-459.28957819154425
 20
-93.031000216767893
 11
-456.20157219154407
 21
-96.119006216767843
  0
LINE
  8
_0-3_躯体と製品
  6
CONTINUOUS
 62
    2
 10
-457.26223219154417
 20
-90.815705216767867
 11
-459.13295419154406
 21
-92.68642621676787
  0
LINE
  8
_0-3_躯体と製品
  6
CONTINUOUS
 62
    2
 10
-458.67644619154407
 20
-93.6441322167679
 11
-461.85842719154425
 21
-96.826113216767908
  0
LINE
  8
_0-3_躯体と製品
  6
CONTINUOUS
 62
    2
 10
-458.67644619154407
 20
-89.401491216767909
 11
-456.90867919154425
 21
-87.633724216767916
  0
LINE
  8
_0-3_躯体と製品
  6
CONTINUOUS
 62
    2
 10
-455.49446619154423
 20
-86.219511216767899
 11
-449.13050519154422
 21
-79.855550216767881
  0
LINE
  8
_0-3_躯体と製品
  6
CONTINUOUS
 62
    2
 10
-456.90867919154425
 20
-84.805297216767883
 11
-455.49446619154423
 21
-86.219511216767899
  0
LINE
  8
_0-3_躯体と製品
  6
CONTINUOUS
 62
    2
 10
-458.32289319154415
 20
-86.219511216767899
 11
-456.90867919154425
 21
-84.805297216767883
  0
LINE
  8
_0-3_躯体と製品
  6
CONTINUOUS
 62
    2
 10
-458.32289319154415
 20
-86.219511216767899
 11
-456.90867919154425
 21
-87.633724216767916
  0
LINE
  8
_0-3_躯体と製品
  6
CONTINUOUS
 62
    2
 10
-448.42339819154404
 20
-66.420521216767895
 11
-442.05943719154425
 21
-72.784482216767913
  0
LINE
  8
_0-3_躯体と製品
  6
CONTINUOUS
 62
    5
 10
-444.88786419154417
 20
-58.642346216767919
 11
-436.40258219154407
 21
-67.127628216767789
  0
LINE
  8
_0-3_躯体と製品
  6
CONTINUOUS
 62
    5
 10
-444.88786419154417
 20
-58.642346216767919
 11
-442.05943719154425
 21
-72.784482216767913
  0
LINE
  8
_0-3_躯体と製品
  6
CONTINUOUS
 62
    5
 10
-447.71629119154409
 20
-67.127628216767789
 11
-436.40258219154407
 21
-67.127628216767789
  0
LINE
  8
_0-3_躯体と製品
  6
CONTINUOUS
 62
    2
 10
-443.47365019154313
 20
-78.441336216767922
 11
-425.08887419154416
 21
-60.056560216767878
  0
LINE
  8
_0-3_躯体と製品
  6
CONTINUOUS
 62
    5
 10
-444.18075719154422
 20
-57.935240216767909
 11
-439.2310101915441
 21
-62.884987216767911
  0
LINE
  8
_0-3_躯体と製品
  6
CONTINUOUS
 62
    2
 10
-448.42339819154404
 20
-66.420521216767895
 11
-447.71629119154409
 21
-65.713414216767887
  0
LINE
  8
_0-3_躯体と製品
  6
CONTINUOUS
 62
    2
 10
-448.06984519154412
 20
-55.460366216767909
 11
-449.83761119154406
 21
-53.692599216767917
  0
LINE
  8
_0-3_躯体と製品
  6
CONTINUOUS
 62
    2
 10
-451.25182519154419
 20
-55.106813216767875
 11
-448.42339819154404
 21
-57.935240216767909
  0
ARC
  8
_0-3_躯体と製品
  6
CONTINUOUS
 62
    2
 10
-449.76690119154409
 20
-72.148086216767922
 40
11
 50
120.3747060000015
 51
149.62528999999961
  0
LINE
  8
_0-3_躯体と製品
  6
CONTINUOUS
 62
    2
 10
-459.11196819154407
 20
-68.308564216767877
 11
-458.32289219154404
 21
-69.248948216767872
  0
LINE
  8
_0-3_躯体と製品
  6
CONTINUOUS
 62
    2
 10
-453.6064221915442
 20
-62.803018216767896
 11
-452.6660381915442
 21
-63.592094216767919
  0
ARC
  8
_0-3_躯体と製品
  6
CONTINUOUS
 62
    2
 10
-457.96290219154412
 20
-67.344383216767881
 40
1.5
 50
149.62529299999949
 51
220.0000000000025
  0
ARC
  8
_0-3_躯体と製品
  6
CONTINUOUS
 62
    2
 10
-454.57060419154413
 20
-63.952085216768012
 40
1.5
 50
49.999999999997407
 51
120.37470700000038
  0
LINE
  8
_0-3_躯体と製品
  6
CONTINUOUS
 62
    2
 10
-459.73710619154417
 20
-70.663162216767887
 11
-451.25182519154419
 21
-62.177880216767903
  0
LINE
  8
_0-3_躯体と製品
  6
CONTINUOUS
 62
    2
 10
-453.37314519154415
 20
-57.228133216767787
 11
-446.30207819154407
 21
-64.299201216767869
  0
LINE
  8
_0-3_躯体と製品
  6
CONTINUOUS
 62
    2
 10
-451.25182519154419
 20
-55.106813216767875
 11
-453.37314519154415
 21
-57.228133216767787
  0
LINE
  8
_0-3_躯体と製品
  6
CONTINUOUS
 62
    2
 10
-448.42339819154404
 20
-57.935240216767909
 11
-445.94852419154404
 21
-55.460366216767909
  0
LINE
  8
_0-3_躯体と製品
  6
CONTINUOUS
 62
    2
 10
-447.00918419154414
 20
-54.399706216767868
 11
-445.94852419154404
 21
-55.460366216767909
  0
LINE
  8
_0-3_躯体と製品
  6
CONTINUOUS
 62
    2
 10
-448.06984519154412
 20
-55.460366216767909
 11
-447.00918419154414
 21
-54.399706216767868
  0
LINE
  8
_0-3_躯体と製品
  6
CONTINUOUS
 62
    2
 10
-458.32289219154404
 20
-72.077375216768019
 11
-449.83761119154406
 21
-63.592094216767919
  0
ARC
  8
_0-3_躯体と製品
  6
CONTINUOUS
 62
    5
 10
-443.47365119154415
 20
-52.985493216767907
 40
4.5
 50
225
 51
266.81031499999722
  0
LINE
  8
_0-3_躯体と製品
  6
CONTINUOUS
 62
    2
 10
-456.20157219154407
 20
-57.228133216767787
 11
-451.25182519154419
 21
-62.177880216767903
  0
LINE
  8
_0-3_躯体と製品
  6
CONTINUOUS
 62
    2
 10
-447.71629119154409
 20
-65.713414216767887
 11
-446.30207819154407
 21
-64.299201216767869
  0
LINE
  8
_0-3_躯体と製品
  6
CONTINUOUS
 62
    2
 10
-449.83761119154406
 20
-63.592094216767919
 11
-447.71629119154409
 21
-65.713414216767887
  0
LINE
  8
_0-3_躯体と製品
  6
CONTINUOUS
 62
    2
 10
-456.20157219154407
 20
-74.198695216767874
 11
-457.6157861915442
 21
-75.612909216767889
  0
LINE
  8
_0-3_躯体と製品
  6
CONTINUOUS
 62
    2
 10
-458.32289219154404
 20
-72.077375216768019
 11
-456.20157219154407
 21
-74.198695216767874
  0
LINE
  8
_0-3_躯体と製品
  6
CONTINUOUS
 62
    5
 10
-447.71629119154409
 20
-61.470773216767896
 11
-444.88786419154417
 21
-64.299201216767869
  0
LINE
  8
_0-3_躯体と製品
  6
CONTINUOUS
 62
    5
 10
-444.93379619154416
 20
-58.688278216767912
 11
-447.71629119154409
 21
-61.470773216767896
  0
LINE
  8
_0-3_躯体と製品
  6
CONTINUOUS
 62
    2
 10
-447.00918419154414
 20
-77.734229216767915
 11
-455.03484619154415
 21
-69.708567216767904
  0
LINE
  8
_0-3_躯体と製品
  6
CONTINUOUS
 62
    2
 10
-445.59497119154412
 20
-76.320016216767897
 11
-447.00918419154414
 21
-77.734229216767915
  0
LINE
  8
_0-3_躯体と製品
  6
CONTINUOUS
 62
    2
 10
-455.95408519154421
 20
-69.708567216767904
 11
-454.53987119154408
 21
-69.708567216767904
  0
LINE
  8
_0-3_躯体と製品
  6
CONTINUOUS
 62
    2
 10
-452.20641919154423
 20
-65.96090221676792
 11
-452.20641919154423
 21
-67.375115216767881
  0
ARC
  8
_0-3_躯体と製品
  6
CONTINUOUS
 62
    2
 10
-456.90867919154425
 20
-72.077375216768019
 40
1
 50
135
 51
225
  0
ARC
  8
_0-3_躯体と製品
  6
CONTINUOUS
 62
    2
 10
-449.83761119154406
 20
-65.006307216767766
 40
1
 50
45
 51
135
  0
LINE
  8
_0-3_躯体と製品
  6
CONTINUOUS
 62
    2
 10
-456.66119219154416
 20
-67.587247216767878
 11
-449.59012419154419
 21
-74.658315216767903
  0
LINE
  8
_0-3_躯体と製品
  6
CONTINUOUS
 62
    2
 10
-454.0802521915441
 20
-65.006307216767766
 11
-452.20641919154423
 21
-66.88014021676787
  0
LINE
  8
_0-3_躯体と製品
  6
CONTINUOUS
 62
    2
 10
-456.90867919154425
 20
-67.83473421676797
 11
-455.03484619154415
 21
-69.708567216767904
  0
LINE
  8
_0-3_躯体と製品
  6
CONTINUOUS
 62
    2
 10
-444.18075719154422
 20
-74.905802216767881
 11
-452.20641919154423
 21
-66.88014021676787
  0
LINE
  8
_0-3_躯体と製品
  6
CONTINUOUS
 62
    2
 10
-445.59497119154412
 20
-76.320016216767897
 11
-444.18075719154422
 21
-74.905802216767881
  0
LINE
  8
_0-3_躯体と製品
  6
CONTINUOUS
 62
    2
 10
-454.3277391915442
 20
-65.253795216767912
 11
-447.25667219154411
 21
-72.324863216767881
  0
LINE
  8
_0-3_躯体と製品
  6
CONTINUOUS
 62
    2
 10
-449.13050519154422
 20
-64.299201216767869
 11
-447.71629119154409
 21
-65.713414216767887
  0
LINE
  8
_0-3_躯体と製品
  6
CONTINUOUS
 62
    2
 10
-457.6157861915442
 20
-72.784482216767913
 11
-456.20157219154407
 21
-74.198696216767985
  0
LINE
  8
_0-3_躯体と製品
  6
CONTINUOUS
 62
    2
 10
-455.49446619154423
 20
-73.49158921676792
 11
-456.20157219154407
 21
-74.198696216767985
  0
LINE
  8
_0-3_躯体と製品
  6
CONTINUOUS
 62
    5
 10
-447.71629119154409
 20
-67.127628216767789
 11
-444.88786419154417
 21
-64.299201216767869
  0
LINE
  8
_0-3_躯体と製品
  6
CONTINUOUS
 62
    2
 10
-455.95408519154421
 20
-69.708567216767904
 11
-457.6157861915442
 21
-71.370268216767897
  0
LINE
  8
_0-3_躯体と製品
  6
CONTINUOUS
 62
    2
 10
-452.20641919154423
 20
-65.96090221676792
 11
-450.54471819154423
 21
-64.299201216767869
  0
LINE
  8
_0-3_躯体と製品
  6
CONTINUOUS
 62
    2
 10
-449.83761119154406
 20
-74.905802216767881
 11
-447.00918419154414
 21
-72.077375216768019
  0
LINE
  8
_0-3_躯体と製品
  6
CONTINUOUS
 62
    2
 10
-434.2812621915441
 20
-65.006307216767766
 11
-425.79598119154412
 21
-56.521026216767893
  0
LINE
  8
_0-3_躯体と製品
  6
CONTINUOUS
 62
    5
 10
-437.8167961915442
 20
-61.470773216767896
 11
-435.71418719154417
 21
-63.573383216767809
  0
LINE
  8
_0-3_躯体と製品
  6
CONTINUOUS
 62
    2
 10
-437.10968919154425
 20
-65.006307216767766
 11
-435.69547619154423
 21
-66.420521216767895
  0
LINE
  8
_0-3_躯体と製品
  6
CONTINUOUS
 62
    2
 10
-442.05943719154425
 20
-72.784482216767913
 11
-435.69547619154423
 21
-66.420521216767895
  0
LINE
  8
_0-3_躯体と製品
  6
CONTINUOUS
 62
    2
 10
-431.09928219154403
 20
-61.82432721676787
 11
-430.39217519154408
 21
-61.82432721676787
  0
LINE
  8
_0-3_躯体と製品
  6
CONTINUOUS
 62
    2
 10
-430.39217519154408
 20
-61.117220216767919
 11
-430.39217519154408
 21
-61.82432721676787
  0
LINE
  8
_0-3_躯体と製品
  6
CONTINUOUS
 62
    2
 10
-435.69547619154423
 20
-63.592094216767919
 11
-434.2812621915441
 21
-65.006307216767766
  0
LINE
  8
_0-3_躯体と製品
  6
CONTINUOUS
 62
    2
 10
-437.10968919154425
 20
-65.006307216767766
 11
-435.69547619154423
 21
-63.592094216767919
  0
LINE
  8
_0-3_躯体と製品
  6
CONTINUOUS
 62
    2
 10
-427.21019419154413
 20
-55.106812216767878
 11
-425.79598119154412
 21
-56.521026216767893
  0
LINE
  8
_0-3_躯体と製品
  6
CONTINUOUS
 62
    2
 10
-425.79598119154412
 20
-53.692599216767917
 11
-427.21019419154413
 21
-55.106812216767878
  0
LINE
  8
_0-3_躯体と製品
  6
CONTINUOUS
 62
    2
 10
-402.81501019154416
 20
-76.673569216767874
 11
-386.90510819154406
 21
-92.583472216767916
  0
LINE
  8
_0-3_躯体と製品
  6
CONTINUOUS
 62
    2
 10
-387.61221519154424
 20
-83.391084216767922
 11
-386.19800119154411
 21
-81.976870216767793
  0
ARC
  8
_0-3_躯体と製品
  6
CONTINUOUS
 62
    2
 10
-407.29355219154422
 20
-55.959594216767869
 40
3.524710999999999
 50
3.9702519999998662
 51
41.159700000000889
  0
LINE
  8
_0-3_躯体と製品
  6
CONTINUOUS
 62
    2
 10
-403.7773001915441
 20
-55.7155482167679
 11
-408.82541819154403
 21
-60.763667216767885
  0
LINE
  8
_0-3_躯体と製品
  6
CONTINUOUS
 62
    2
 10
-404.63440919154414
 20
-53.645236216767898
 11
-394.63591919154419
 21
-63.643726216767902
  0
LINE
  8
_0-3_躯体と製品
  6
CONTINUOUS
 62
    7
 10
-418.0178061915442
 20
-55.813919216767886
 11
-396.80460319154417
 21
-77.027123216767905
  0
LINE
  8
_0-3_躯体と製品
  6
CONTINUOUS
 62
    2
 10
-412.36095219154413
 20
-57.228133216767787
 11
-398.21881619154419
 21
-71.370268216767897
  0
LINE
  8
_0-3_躯体と製品
  6
CONTINUOUS
 62
    2
 10
-409.88607819154413
 20
-69.602501216767905
 11
-403.52211719154411
 21
-75.966462216767809
  0
LINE
  8
_0-3_躯体と製品
  6
CONTINUOUS
 62
    2
 10
-407.41120419154413
 20
-66.420521216767895
 11
-403.16856419154419
 21
-66.420521216767895
  0
LINE
  8
_0-3_躯体と製品
  6
CONTINUOUS
 62
    2
 10
-414.0580081915441
 20
-59.773717216767977
 11
-411.93668819154414
 21
-57.652397216768009
  0
LINE
  8
_0-3_躯体と製品
  6
CONTINUOUS
 62
    2
 10
-414.0580081915441
 20
-59.773717216767977
 11
-411.93668819154414
 21
-57.652397216768009
  0
LINE
  8
_0-3_躯体と製品
  6
CONTINUOUS
 62
    2
 10
-414.0580081915441
 20
-59.773717216767977
 11
-411.93668819154414
 21
-57.652397216768009
  0
LINE
  8
_0-3_躯体と製品
  6
CONTINUOUS
 62
    2
 10
-409.53252519154421
 20
-64.299201216767869
 11
-405.28988419154416
 21
-64.299201216767869
  0
LINE
  8
_0-3_躯体と製品
  6
CONTINUOUS
 62
    2
 10
-409.88607819154413
 20
-69.602501216767905
 11
-410.59318519154408
 21
-69.602501216767905
  0
LINE
  8
_0-3_躯体と製品
  6
CONTINUOUS
 62
    2
 10
-410.59318519154408
 20
-68.895395216767895
 11
-410.59318519154408
 21
-69.602501216767905
  0
LINE
  8
_0-3_躯体と製品
  6
CONTINUOUS
 62
    3
 10
-409.53252519154421
 20
-64.299201216767869
 11
-405.28988419154416
 21
-64.299201216767869
  0
LINE
  8
_0-3_躯体と製品
  6
CONTINUOUS
 62
    2
 10
-398.64308019154419
 20
-70.946004216767903
 11
-400.76440119154404
 21
-73.06732521676787
  0
LINE
  8
_0-3_躯体と製品
  6
CONTINUOUS
 62
    2
 10
-394.15295219154314
 20
-64.122424216767911
 11
-393.69002519154424
 21
-64.589620216767912
  0
LINE
  8
_0-3_躯体と製品
  6
CONTINUOUS
 62
    2
 10
-394.15295219154314
 20
-64.122424216767911
 11
-394.63303019154409
 21
-63.642346216767976
  0
LINE
  8
_0-3_躯体と製品
  6
CONTINUOUS
 62
    2
 10
-398.64308019154419
 20
-70.946004216767903
 11
-400.76440119154404
 21
-73.06732521676787
  0
LINE
  8
_0-3_躯体と製品
  6
CONTINUOUS
 62
    2
 10
-394.15295219154314
 20
-64.122424216767911
 11
-393.69002519154424
 21
-64.589620216767912
  0
LINE
  8
_0-3_躯体と製品
  6
CONTINUOUS
 62
    2
 10
-394.15295219154314
 20
-64.122424216767911
 11
-394.63303019154409
 21
-63.642346216767976
  0
LINE
  8
_0-3_躯体と製品
  6
CONTINUOUS
 62
    2
 10
-398.64308019154419
 20
-70.946004216767903
 11
-400.76440119154404
 21
-73.06732521676787
  0
LINE
  8
_0-3_躯体と製品
  6
CONTINUOUS
 62
    2
 10
-402.60287819154405
 20
-54.541127216767904
 11
-403.17069819154403
 21
-55.108947216767888
  0
ARC
  8
_0-3_躯体と製品
  6
CONTINUOUS
 62
    2
 10
-410.24176619154423
 20
-69.25108221676777
 40
15
 50
45
 51
64.471220999999403
  0
ARC
  8
_0-3_躯体と製品
  6
CONTINUOUS
 62
    2
 10
-410.24176619154423
 20
-69.25108221676777
 40
15
 50
25.528779000000586
 51
45
  0
ARC
  8
_0-3_躯体と製品
  6
CONTINUOUS
 62
    2
 10
-396.95027819154416
 20
-66.302868216767877
 40
3.524710999999999
 50
48.840299999999118
 51
86.02974800000014
  0
LINE
  8
_0-3_躯体と製品
  6
CONTINUOUS
 62
    2
 10
-394.15295219154314
 20
-64.122424216767911
 11
-393.69002519154424
 21
-64.589620216767912
  0
LINE
  8
_0-3_躯体と製品
  6
CONTINUOUS
 62
    2
 10
-393.69002519154424
 20
-64.589620216767912
 11
-393.21415119154403
 21
-66.36560421676802
  0
LINE
  8
_0-3_躯体と製品
  6
CONTINUOUS
 62
    2
 10
-394.15295219154314
 20
-64.122424216767911
 11
-394.63303019154409
 21
-63.642346216767976
  0
LINE
  8
_0-3_躯体と製品
  6
CONTINUOUS
 62
    2
 10
-393.21415119154403
 20
-66.36560421676802
 11
-398.21881619154419
 21
-71.370268216767897
  0
LINE
  8
_0-3_躯体と製品
  6
CONTINUOUS
 62
    2
 10
-395.53181119154419
 20
-61.612195216767873
 11
-396.09963019154407
 21
-62.180014216767916
  0
LINE
  8
_0-3_躯体と製品
  6
CONTINUOUS
 62
    2
 10
-396.70623219154413
 20
-62.786616216767811
 11
-401.75435019154406
 21
-67.83473421676797
  0
LINE
  8
_0-3_躯体と製品
  6
CONTINUOUS
 62
    2
 10
-402.81501019154416
 20
-76.673569216767874
 11
-403.52211719154411
 21
-76.673569216767874
  0
LINE
  8
_0-3_躯体と製品
  6
CONTINUOUS
 62
    2
 10
-403.52211719154411
 20
-75.966462216767809
 11
-403.52211719154411
 21
-76.673569216767874
  0
LINE
  8
_0-3_躯体と製品
  6
CONTINUOUS
 62
    2
 10
-396.80673719154424
 20
-61.472908216767905
 11
-395.53181119154419
 21
-60.197981216767914
  0
LINE
  8
_0-3_躯体と製品
  6
CONTINUOUS
 62
    2
 10
-402.46359119154408
 20
-55.816053216767898
 11
-401.18866519154403
 21
-54.541127216767904
  0
LINE
  8
_0-3_躯体と製品
  6
CONTINUOUS
 62
    2
 10
-395.53181119154419
 20
-61.612195216767873
 11
-402.60287819154405
 21
-54.541127216767904
  0
LINE
  8
_0-3_躯体と製品
  6
CONTINUOUS
 62
    2
 10
-395.53181119154419
 20
-60.197981216767914
 11
-395.53181119154419
 21
-61.612195216767873
  0
LINE
  8
_0-3_躯体と製品
  6
CONTINUOUS
 62
    2
 10
-401.18866519154403
 20
-54.541127216767904
 11
-395.53181119154419
 21
-60.197981216767914
  0
LINE
  8
_0-3_躯体と製品
  6
CONTINUOUS
 62
    2
 10
-402.60287819154405
 20
-54.541127216767904
 11
-401.18866519154403
 21
-54.541127216767904
  0
LINE
  8
_0-3_躯体と製品
  6
CONTINUOUS
 62
    2
 10
-442.78735919154406
 20
-46.642347216767917
 11
-442.75960619154421
 21
-46.642347216767917
  0
LINE
  8
_0-3_躯体と製品
  6
CONTINUOUS
 62
    2
 10
-437.81679719154408
 20
-41.671785216767887
 11
-441.35233019154407
 21
-45.207318216767874
  0
LINE
  8
_0-3_躯体と製品
  6
CONTINUOUS
 62
    2
 10
-440.99877719154415
 20
-48.389299216767881
 11
-442.05943719154425
 21
-49.449959216767979
  0
LINE
  8
_0-3_躯体と製品
  6
CONTINUOUS
 62
    2
 10
-442.7665441915442
 20
-46.621532216767775
 11
-440.99877719154415
 21
-48.389299216767881
  0
LINE
  8
_0-3_躯体と製品
  6
CONTINUOUS
 62
    2
 10
-441.35233019154407
 20
-45.207318216767874
 11
-438.52390319154415
 21
-48.035745216767907
  0
LINE
  8
_0-3_躯体と製品
  6
CONTINUOUS
 62
    2
 10
-442.05943719154425
 20
-49.449959216767979
 11
-440.99877719154415
 21
-50.510619216767907
  0
LINE
  8
_0-3_躯体と製品
  6
CONTINUOUS
 62
    2
 10
-438.52390319154415
 20
-48.035745216767907
 11
-440.99877719154415
 21
-50.510619216767907
  0
ARC
  8
_0-3_躯体と製品
  6
CONTINUOUS
 62
    5
 10
-443.47365119154415
 20
-52.985493216767907
 40
4.5
 50
3.1896850000028092
 51
45
  0
LINE
  8
_0-3_躯体と製品
  6
CONTINUOUS
 62
    2
 10
-437.81679719154408
 20
-41.671785216767887
 11
-439.2310101915441
 21
-40.257571216767872
  0
ARC
  8
_0-3_躯体と製品
  6
CONTINUOUS
 62
    5
 10
-442.97701619154418
 20
70.367590783232004
 40
110.713684
 50
271.979574999997
 51
279.26796999999999
  0
LINE
  8
_0-3_躯体と製品
  6
CONTINUOUS
 62
    5
 10
-429.26115719154404
 20
-42.931825216767891
 11
-429.1773431915442
 21
-42.931825216767891
  0
LINE
  8
_0-3_躯体と製品
  6
CONTINUOUS
 62
    2
 10
-405.58030319154318
 20
-52.699341216767891
 11
-407.3562871915442
 21
-52.223468216767913
  0
LINE
  8
_0-3_躯体と製品
  6
CONTINUOUS
 62
    2
 10
-398.4963721915442
 20
-50.586616216767879
 11
-395.95607519154419
 21
-41.106098216767919
  0
LINE
  8
_0-3_躯体と製品
  6
CONTINUOUS
 62
    2
 10
-395.95607519154419
 20
-41.106098216767919
 11
-386.47555619154423
 21
-38.565801216767966
  0
LINE
  8
_0-3_躯体と製品
  6
CONTINUOUS
 62
    2
 10
-379.55648419154409
 20
-45.48487321676788
 11
-382.09678219154421
 21
-54.965391216767784
  0
ARC
  8
_0-3_躯体と製品
  6
CONTINUOUS
 62
    7
 10
-360.74215719154404
 20
-19.751473216767806
 40
15
 50
315.00000000000006
 51
135.00000000000006
  0
LINE
  8
_0-3_躯体と製品
  6
CONTINUOUS
 62
    2
 10
-363.29302919154406
 20
-29.221417216767975
 11
-370.21210019154319
 21
-22.30234521676789
  0
LINE
  8
_0-3_躯体と製品
  6
CONTINUOUS
 62
    2
 10
-353.81251019154411
 20
-26.681120216767908
 11
-363.29302919154406
 21
-29.221417216767975
  0
CIRCLE
  8
_0-3_躯体と製品
  6
CONTINUOUS
 62
    2
 10
-360.7482621915442
 20
-19.757579216767908
 40
8.4913660000000011
  0
LINE
  8
_0-3_躯体と製品
  6
PLINE3
 62
    2
 10
-370.00045819154411
 20
-10.493172216767903
 11
-351.40283819154411
 21
-29.090792216767909
  0
LINE
  8
_0-3_躯体と製品
  6
CONTINUOUS
 62
    2
 10
-367.67180319154409
 20
-12.821827216767872
 11
-358.19128519154424
 21
-10.281530216767976
  0
LINE
  8
_0-3_躯体と製品
  6
CONTINUOUS
 62
    2
 10
-370.21210019154319
 20
-22.30234521676789
 11
-367.67180319154409
 21
-12.821827216767872
  0
LINE
  8
_0-3_躯体と製品
  6
CONTINUOUS
 62
    2
 10
-351.2722131915441
 20
-17.200602216767891
 11
-353.81251019154411
 21
-26.681120216767908
  0
LINE
  8
_0-3_躯体と製品
  6
CONTINUOUS
 62
    2
 10
-358.19128519154424
 20
-10.281530216767976
 11
-351.2722131915441
 21
-17.200602216767891
  0
LINE
  8
_0-4_図面枠
  6
CONTINUOUS
 62
    2
 10
189.69335280845576
 20
-227.29996821676787
 11
189.69335280845576
 21
-194.62550221676793
  0
TEXT
  8
_0-4_図面枠
 62
    7
 10
-710.13045019154345
 20
743.81302778323197
 40
20
 41
0.7999999999999992
 50
0
  1
縮　　尺
  0
LINE
  8
_0-4_図面枠
  6
CONTINUOUS
 62
    2
 10
-424.59181719154412
 20
774.333326783232
 11
-757.92515019154371
 21
774.333326783232
  0
TEXT
  8
_0-4_図面枠
 62
    7
 10
-718.83799819154342
 20
783.21297578323197
 40
20
 41
0.8
 50
0
  1
ファイル名
  0
TEXT
  8
_0-4_図面枠
 62
    7
 10
-540.63291719154404
 20
784.32457878323203
 40
20
 41
0.7999999999999992
 50
0
  1
ＳＴ１１
  0
LINE
  8
_0-4_図面枠
  6
CONTINUOUS
 62
    4
 10
-424.59181719154412
 20
815.99999378323196
 11
-424.59181719154412
 21
732.66666078323203
  0
LINE
  8
_0-4_図面枠
  6
CONTINUOUS
 62
    2
 10
-591.2584831915442
 20
815.99999378323196
 11
-591.2584831915442
 21
732.66666078323203
  0
TEXT
  8
_0-4_図面枠
 62
    7
 10
-559.30084419154423
 20
743.01110178323199
 40
20
 41
0.8
 50
0
  1
Ｓ　１：５
  0
LINE
  8
_0-3_躯体と製品
  6
CONTINUOUS
 62
    2
 10
119.53354580845576
 20
522.74962578323198
 11
225.95311680845589
 21
629.16919678323188
  0
LINE
  8
_0-3_躯体と製品
  6
CONTINUOUS
 62
    2
 10
122.00841980845576
 20
522.39607278323183
 11
225.95311680845589
 21
626.34076978323196
  0
LINE
  8
_0-3_躯体と製品
  6
CONTINUOUS
 62
    2
 10
76.476029808455905
 20
424.38578578323211
 11
66.995511808455831
 21
421.84548878323199
  0
LINE
  8
_0-3_躯体と製品
  6
CONTINUOUS
 62
    2
 10
71.374286808456873
 20
405.44589878323211
 11
80.85480480845581
 21
407.98619578323201
  0
CIRCLE
  8
_0-3_躯体と製品
  6
CONTINUOUS
 62
    2
 10
73.931263808455924
 20
414.92194678323199
 40
8.4913660000000011
  0
LINE
  8
_0-3_躯体と製品
  6
CONTINUOUS
 62
    7
 10
63.318556808455924
 20
425.52244378323212
 11
112.81603180845582
 21
475.01991878323201
  0
ARC
  8
_0-3_躯体と製品
  6
CONTINUOUS
 62
    7
 10
73.925158808455762
 20
414.91584178323217
 40
15
 50
135
 51
315
  0
LINE
  8
_0-3_躯体と製品
  6
PLINE3
 62
    2
 10
64.666857808455916
 20
424.17414378323213
 11
83.264476808455811
 21
405.57652378323212
  0
LINE
  8
_0-3_躯体と製品
  6
CONTINUOUS
 62
    2
 10
64.455214808455821
 20
412.36497078323202
 11
71.374286808456873
 21
405.44589878323211
  0
LINE
  8
_0-3_躯体と製品
  6
CONTINUOUS
 62
    2
 10
66.995511808455831
 20
421.84548878323199
 11
64.455214808455821
 21
412.36497078323202
  0
LINE
  8
_0-3_躯体と製品
  6
CONTINUOUS
 62
    2
 10
117.05867180845576
 20
465.12042378323213
 11
164.57624780845595
 21
512.63799878323209
  0
LINE
  8
_0-3_躯体と製品
  6
CONTINUOUS
 62
    2
 10
171.64731580845591
 20
505.56693178323223
 11
124.12973980845595
 21
458.04935578323204
  0
LINE
  8
_0-3_躯体と製品
  6
CONTINUOUS
 62
    2
 10
107.86628380845582
 20
479.96966578323213
 11
123.06907980845676
 21
464.7668697832321
  0
LINE
  8
_0-3_躯体と製品
  6
CONTINUOUS
 62
    2
 10
196.25463180845691
 20
487.74784078323216
 11
175.3949818084559
 21
466.88819078323218
  0
LINE
  8
_0-3_躯体と製品
  6
CONTINUOUS
 62
    2
 10
148.17137080845578
 20
445.32143378323212
 11
114.23024480845584
 21
479.26255878323207
  0
LINE
  8
_0-3_躯体と製品
  6
CONTINUOUS
 62
    2
 10
166.55614680845588
 20
463.70620978323211
 11
184.94092280845575
 21
482.0909857832321
  0
LINE
  8
_0-3_躯体と製品
  6
CONTINUOUS
 62
    2
 10
170.94020880845596
 20
506.27403778323207
 11
123.42263280845691
 21
458.756462783232
  0
LINE
  8
_0-3_躯体と製品
  6
CONTINUOUS
 62
    2
 10
165.2833548084559
 20
511.93089278323203
 11
117.76577880845593
 21
464.41331678323206
  0
LINE
  8
_0-3_躯体と製品
  6
PLINE3
 62
    2
 10
106.72677180845585
 20
523.53558578323202
 11
179.76914480845585
 21
450.49321278323202
  0
LINE
  8
_0-3_躯体と製品
  6
CONTINUOUS
 62
    2
 10
155.24243880845597
 20
446.73564678323203
 11
225.95311680845589
 21
517.44632578323206
  0
LINE
  8
_0-3_躯体と製品
  6
CONTINUOUS
 62
    2
 10
159.76792180845587
 20
446.73564678323203
 11
225.95311680845589
 21
512.92084178323205
  0
LINE
  8
_0-3_躯体と製品
  6
CONTINUOUS
 62
    2
 10
166.55614680845588
 20
463.70620978323211
 11
148.17137080845578
 21
445.32143378323212
  0
LINE
  8
_0-3_躯体と製品
  6
CONTINUOUS
 62
    2
 10
142.51451680845685
 20
434.00772478323211
 11
163.37416680845581
 21
454.86737478323209
  0
LINE
  8
_0-3_躯体と製品
  6
CONTINUOUS
 62
    2
 10
83.39510180845582
 20
417.46671378323197
 11
76.476029808455905
 21
424.38578578323211
  0
LINE
  8
_0-3_躯体と製品
  6
CONTINUOUS
 62
    7
 10
84.531760808455829
 20
404.3092407832321
 11
134.02923480845584
 21
453.80671478323211
  0
LINE
  8
_0-3_躯体と製品
  6
CONTINUOUS
 62
    2
 10
80.85480480845581
 20
407.98619578323201
 11
83.39510180845582
 21
417.46671378323197
  0
LINE
  8
_0-3_躯体と製品
  6
CONTINUOUS
 62
    2
 10
113.94740280845576
 20
468.23169378323212
 11
111.82608180845591
 21
466.11037278323204
  0
LINE
  8
_0-3_躯体と製品
  6
CONTINUOUS
 62
    2
 10
113.94740280845576
 20
468.23169378323212
 11
111.82608180845591
 21
466.11037278323204
  0
LINE
  8
_0-3_躯体と製品
  6
CONTINUOUS
 62
    2
 10
113.94740280845576
 20
468.23169378323212
 11
111.82608180845591
 21
466.11037278323204
  0
LINE
  8
_0-3_躯体と製品
  6
CONTINUOUS
 62
    2
 10
109.88923380845586
 20
457.95098478323212
 11
114.93735180845579
 21
462.99910278323205
  0
ARC
  8
_0-3_躯体と製品
  6
CONTINUOUS
 62
    2
 10
123.42476780845595
 20
464.41545078323213
 40
15
 50
205.52877900000061
 51
225
  0
LINE
  8
_0-3_躯体と製品
  6
CONTINUOUS
 62
    2
 10
107.81892080845591
 20
458.80809378323204
 11
117.81741080845586
 21
448.80960478323198
  0
LINE
  8
_0-3_躯体と製品
  6
CONTINUOUS
 62
    2
 10
111.40181780845592
 20
466.53463678323203
 11
125.54395380845585
 21
452.39250178323209
  0
LINE
  8
_0-3_躯体と製品
  6
CONTINUOUS
 62
    7
 10
109.9876048084559
 20
472.1914917832321
 11
131.20080780845592
 21
450.97828778323196
  0
LINE
  8
_0-3_躯体と製品
  6
CONTINUOUS
 62
    2
 10
115.78587980845577
 20
449.70549578323198
 11
108.71481180845581
 21
456.77656378323195
  0
LINE
  8
_0-3_躯体と製品
  6
CONTINUOUS
 62
    2
 10
108.71481180845581
 20
455.36234978323216
 11
114.37166680845576
 21
449.70549578323198
  0
LINE
  8
_0-3_躯体と製品
  6
CONTINUOUS
 62
    2
 10
111.67937380845592
 20
445.75098478323207
 11
104.76030180845578
 21
452.6700567832321
  0
LINE
  8
_0-3_躯体と製品
  6
CONTINUOUS
 62
    2
 10
95.279783808455932
 20
450.12975978323209
 11
92.739485808455811
 21
440.64924178323213
  0
CIRCLE
  8
_0-3_躯体と製品
  6
CONTINUOUS
 62
    2
 10
102.21553480845591
 20
443.20621878323209
 40
8.4913660000000011
  0
LINE
  8
_0-3_躯体と製品
  6
PLINE3
 62
    2
 10
92.951128808456815
 20
452.45841478323212
 11
111.54874880845591
 21
433.860794783232
  0
LINE
  8
_0-3_躯体と製品
  6
CONTINUOUS
 62
    2
 10
92.739485808455811
 20
440.64924178323213
 11
99.658557808456862
 21
433.7301697832321
  0
LINE
  8
_0-3_躯体と製品
  6
CONTINUOUS
 62
    2
 10
109.1390758084558
 20
436.27046678323211
 11
111.67937380845592
 21
445.75098478323207
  0
LINE
  8
_0-3_躯体と製品
  6
CONTINUOUS
 62
    2
 10
99.658557808456862
 20
433.7301697832321
 11
109.1390758084558
 21
436.27046678323211
  0
LINE
  8
_0-3_躯体と製品
  6
CONTINUOUS
 62
    2
 10
107.79346780845594
 20
458.82927878323198
 11
106.8149198084559
 21
459.80782678323203
  0
LINE
  8
_0-3_躯体と製品
  6
CONTINUOUS
 62
    2
 10
107.79346780845594
 20
458.82927878323198
 11
106.8149198084559
 21
459.80782678323203
  0
LINE
  8
_0-3_躯体と製品
  6
CONTINUOUS
 62
    2
 10
108.71481180845581
 20
456.77656378323195
 11
109.28263180845579
 21
457.34438278323216
  0
LINE
  8
_0-3_躯体と製品
  6
CONTINUOUS
 62
    2
 10
106.87302680845596
 20
459.75398878323199
 11
106.39715280845576
 21
461.52997178323199
  0
ARC
  8
_0-3_躯体と製品
  6
CONTINUOUS
 62
    2
 10
110.13327980845588
 20
461.46723678323201
 40
3.524710999999999
 50
228.8402999999991
 51
266.02974799999998
  0
LINE
  8
_0-3_躯体と製品
  6
CONTINUOUS
 62
    2
 10
107.79346780845594
 20
458.82927878323198
 11
106.8149198084559
 21
459.80782678323203
  0
LINE
  8
_0-3_躯体と製品
  6
CONTINUOUS
 62
    2
 10
111.40181780845592
 20
466.53463678323203
 11
106.39715280845576
 21
461.52997178323199
  0
LINE
  8
_0-3_躯体と製品
  6
CONTINUOUS
 62
    2
 10
104.76030180845578
 20
452.6700567832321
 11
95.279783808455932
 21
450.12975978323209
  0
LINE
  8
_0-3_躯体と製品
  6
CONTINUOUS
 62
    2
 10
109.98973880845597
 20
456.6372767832321
 11
108.71481180845581
 21
455.36234978323216
  0
LINE
  8
_0-3_躯体と製品
  6
CONTINUOUS
 62
    2
 10
108.71481180845581
 20
456.77656378323195
 11
108.71481180845581
 21
455.36234978323216
  0
ARC
  8
_0-3_躯体と製品
  6
CONTINUOUS
 62
    2
 10
120.47655380845595
 20
451.12396278323206
 40
3.524710999999999
 50
183.97025199999982
 51
221.15970000000092
  0
LINE
  8
_0-3_躯体と製品
  6
CONTINUOUS
 62
    2
 10
120.53928880845592
 20
447.38783678323205
 11
125.54395380845585
 21
452.39250178323209
  0
LINE
  8
_0-3_躯体と製品
  6
CONTINUOUS
 62
    2
 10
130.84725480845577
 20
456.98869578323206
 11
146.75715680845587
 21
441.07879278323207
  0
LINE
  8
_0-3_躯体と製品
  6
CONTINUOUS
 62
    2
 10
118.29610880845576
 20
448.32663778323206
 11
118.76330480845581
 21
447.86370978323214
  0
LINE
  8
_0-3_躯体と製品
  6
CONTINUOUS
 62
    2
 10
118.29610880845576
 20
448.32663778323206
 11
117.81603180845696
 21
448.80671478323211
  0
LINE
  8
_0-3_躯体と製品
  6
CONTINUOUS
 62
    2
 10
118.29610880845576
 20
448.32663778323206
 11
118.76330480845581
 21
447.86370978323214
  0
LINE
  8
_0-3_躯体と製品
  6
CONTINUOUS
 62
    2
 10
118.29610880845576
 20
448.32663778323206
 11
117.81603180845696
 21
448.80671478323211
  0
LINE
  8
_0-3_躯体と製品
  6
CONTINUOUS
 62
    2
 10
118.29610880845576
 20
448.32663778323206
 11
118.76330480845581
 21
447.86370978323214
  0
LINE
  8
_0-3_躯体と製品
  6
CONTINUOUS
 62
    2
 10
118.76330480845581
 20
447.86370978323214
 11
120.53928880845592
 21
447.38783678323205
  0
LINE
  8
_0-3_躯体と製品
  6
CONTINUOUS
 62
    2
 10
118.29610880845576
 20
448.32663778323206
 11
117.81603180845696
 21
448.80671478323211
  0
LINE
  8
_0-3_躯体と製品
  6
CONTINUOUS
 62
    2
 10
136.15055580845683
 20
440.37168578323201
 11
142.51451680845685
 21
434.00772478323211
  0
LINE
  8
_0-3_躯体と製品
  6
CONTINUOUS
 62
    2
 10
137.56476880845594
 20
441.78589978323214
 11
136.15055580845683
 21
440.37168578323201
  0
LINE
  8
_0-3_躯体と製品
  6
CONTINUOUS
 62
    2
 10
142.51451680845685
 20
436.83615178323203
 11
137.56476880845594
 21
441.78589978323214
  0
LINE
  8
_0-3_躯体と製品
  6
CONTINUOUS
 62
    2
 10
146.75715680845587
 20
441.07879278323207
 11
142.51451680845685
 21
436.83615178323203
  0
LINE
  8
_0-3_躯体と製品
  6
CONTINUOUS
 62
    2
 10
125.11968980845586
 20
452.81676578323209
 11
127.24100980845583
 21
454.93808578323205
  0
LINE
  8
_0-3_躯体と製品
  6
CONTINUOUS
 62
    2
 10
125.11968980845586
 20
452.81676578323209
 11
127.24100980845583
 21
454.93808578323205
  0
LINE
  8
_0-3_躯体と製品
  6
CONTINUOUS
 62
    2
 10
125.11968980845586
 20
452.81676578323209
 11
127.24100980845583
 21
454.93808578323205
  0
ARC
  8
_0-3_躯体と製品
  6
CONTINUOUS
 62
    2
 10
123.42476780845595
 20
464.41545078323213
 40
15
 50
225
 51
244.47122099999939
  0
LINE
  8
_0-3_躯体と製品
  6
CONTINUOUS
 62
    2
 10
115.78587980845577
 20
449.70549578323198
 11
116.35369980845689
 21
450.27331578323219
  0
LINE
  8
_0-3_躯体と製品
  6
CONTINUOUS
 62
    2
 10
116.96030180845582
 20
450.87991678323215
 11
122.00841980845576
 21
455.92803578323208
  0
LINE
  8
_0-3_躯体と製品
  6
CONTINUOUS
 62
    2
 10
120.59420580845585
 20
461.58488978323214
 11
120.59420580845585
 21
457.34224878323209
  0
LINE
  8
_0-3_躯体と製品
  6
CONTINUOUS
 62
    2
 10
118.47288580845589
 20
463.70620978323211
 11
118.47288580845589
 21
459.46356878323206
  0
LINE
  8
_0-3_躯体と製品
  6
CONTINUOUS
 62
    2
 10
123.7761868084558
 20
464.05976378323203
 11
130.14014780845582
 21
457.69580278323201
  0
LINE
  8
_0-3_躯体と製品
  6
CONTINUOUS
 62
    2
 10
130.84725480845577
 20
456.98869578323206
 11
130.84725480845577
 21
457.69580278323201
  0
LINE
  8
_0-3_躯体と製品
  6
CONTINUOUS
 62
    2
 10
130.14014780845582
 20
457.69580278323201
 11
130.84725480845577
 21
457.69580278323201
  0
LINE
  8
_0-3_躯体と製品
  6
CONTINUOUS
 62
    2
 10
123.7761868084558
 20
464.05976378323203
 11
123.7761868084558
 21
464.7668697832321
  0
LINE
  8
_0-3_躯体と製品
  6
CONTINUOUS
 62
    2
 10
123.06907980845676
 20
464.7668697832321
 11
123.7761868084558
 21
464.7668697832321
  0
LINE
  8
_0-3_躯体と製品
  6
CONTINUOUS
 62
    2
 10
115.64659280845581
 20
450.98042178323203
 11
114.37166680845576
 21
449.70549578323198
  0
LINE
  8
_0-3_躯体と製品
  6
CONTINUOUS
 62
    2
 10
114.37166680845576
 20
449.70549578323198
 11
115.78587980845577
 21
449.70549578323198
  0
LINE
  8
_0-3_躯体と製品
  6
CONTINUOUS
 62
    2
 10
225.95311680845589
 20
376.02496878323211
 11
155.24243880845597
 21
446.73564678323203
  0
LINE
  8
_0-3_躯体と製品
  6
CONTINUOUS
 62
    2
 10
225.95311680845589
 20
380.550452783232
 11
159.76792180845587
 21
446.73564678323203
  0
LINE
  8
_0-3_躯体と製品
  6
CONTINUOUS
 62
    2
 10
169.73812780845583
 20
461.23133578323211
 11
169.03102080845588
 21
461.23133578323211
  0
LINE
  8
_0-3_躯体と製品
  6
CONTINUOUS
 62
    2
 10
163.37416680845581
 20
454.86737478323209
 11
163.37416680845581
 21
455.57448178323216
  0
LINE
  8
_0-3_躯体と製品
  6
CONTINUOUS
 62
    2
 10
164.08127280845588
 20
455.57448178323216
 11
163.37416680845581
 21
455.57448178323216
  0
LINE
  8
_0-3_躯体と製品
  6
CONTINUOUS
 62
    2
 10
164.08127280845588
 20
455.57448178323216
 11
169.03102080845588
 21
460.52422978323204
  0
LINE
  8
_0-3_躯体と製品
  6
CONTINUOUS
 62
    2
 10
169.03102080845588
 20
460.52422978323204
 11
169.03102080845588
 21
461.23133578323211
  0
LINE
  8
_0-3_躯体と製品
  6
CONTINUOUS
 62
    2
 10
174.68787480845594
 20
466.18108378323211
 11
169.73812780845583
 21
461.23133578323211
  0
LINE
  8
_0-3_躯体と製品
  6
CONTINUOUS
 62
    2
 10
174.68787480845594
 20
466.18108378323211
 11
174.68787480845594
 21
466.88819078323218
  0
LINE
  8
_0-3_躯体と製品
  6
CONTINUOUS
 62
    2
 10
175.3949818084559
 20
466.88819078323218
 11
174.68787480845594
 21
466.88819078323218
  0
LINE
  8
_0-3_躯体と製品
  6
CONTINUOUS
 62
    2
 10
150.29269080845597
 20
522.39607278323183
 11
165.49548680845578
 21
507.19327678323214
  0
LINE
  8
_0-3_躯体と製品
  6
CONTINUOUS
 62
    2
 10
132.61502180845582
 20
497.64733578323205
 11
150.99979780845592
 21
516.03211178323215
  0
LINE
  8
_0-3_躯体と製品
  6
CONTINUOUS
 62
    7
 10
152.55543280845586
 20
524.65881478323206
 11
150.29269080845597
 21
522.39607278323183
  0
LINE
  8
_0-3_躯体と製品
  6
CONTINUOUS
 62
    2
 10
119.17999280845584
 20
488.454947783232
 11
110.69471080845597
 21
479.96966578323213
  0
LINE
  8
_0-3_躯体と製品
  6
CONTINUOUS
 62
    5
 10
112.10892480845678
 20
498.35444178323212
 11
117.05867180845576
 21
493.404694783232
  0
ARC
  8
_0-3_躯体と製品
  6
CONTINUOUS
 62
    5
 10
60.528028808455929
 20
569.52111178323185
 40
75.182160999999994
 50
309.16422499999891
 51
321.18836300000407
  0
LINE
  8
_0-3_躯体と製品
  6
CONTINUOUS
 62
    2
 10
108.92694380845592
 20
510.72881078323201
 11
114.93735180845579
 21
504.71840278323202
  0
LINE
  8
_0-3_躯体と製品
  6
CONTINUOUS
 62
    2
 10
108.57339080845577
 20
508.25393678323201
 11
114.58379880845587
 21
502.24352978323202
  0
LINE
  8
_0-3_躯体と製品
  6
CONTINUOUS
 62
    5
 10
109.21091180845588
 20
495.62602578323208
 11
109.79646880845576
 21
496.23128778323201
  0
LINE
  8
_0-3_躯体と製品
  6
CONTINUOUS
 62
    5
 10
109.79646880845576
 20
496.23128778323201
 11
110.31993580845597
 21
496.8830417832321
  0
LINE
  8
_0-3_躯体と製品
  6
CONTINUOUS
 62
    5
 10
110.31993580845597
 20
496.8830417832321
 11
110.77305580845677
 21
497.57100878323206
  0
LINE
  8
_0-3_躯体と製品
  6
CONTINUOUS
 62
    5
 10
110.77305580845677
 20
497.57100878323206
 11
111.14868480845576
 21
498.28433878323199
  0
LINE
  8
_0-3_躯体と製品
  6
CONTINUOUS
 62
    5
 10
111.14868480845576
 20
498.28433878323199
 11
111.44089780845593
 21
499.01178378323209
  0
LINE
  8
_0-3_躯体と製品
  6
CONTINUOUS
 62
    5
 10
111.44089780845593
 20
499.01178378323209
 11
111.64508680845597
 21
499.741869783232
  0
LINE
  8
_0-3_躯体と製品
  6
CONTINUOUS
 62
    5
 10
111.64508680845597
 20
499.741869783232
 11
111.75803080845594
 21
500.46308378323215
  0
LINE
  8
_0-3_躯体と製品
  6
CONTINUOUS
 62
    5
 10
111.75803080845594
 20
500.46308378323215
 11
111.77794980845579
 21
501.16405178323203
  0
LINE
  8
_0-3_躯体と製品
  6
CONTINUOUS
 62
    5
 10
111.77794980845579
 20
501.16405178323203
 11
111.70452980845585
 21
501.83371878323203
  0
LINE
  8
_0-3_躯体と製品
  6
CONTINUOUS
 62
    5
 10
111.70452980845585
 20
501.83371878323203
 11
111.53892680845593
 21
502.46152378323211
  0
LINE
  8
_0-3_躯体と製品
  6
CONTINUOUS
 62
    5
 10
111.53892680845593
 20
502.46152378323211
 11
111.28375380845682
 21
503.03756578323214
  0
LINE
  8
_0-3_躯体と製品
  6
CONTINUOUS
 62
    5
 10
111.28375380845682
 20
503.03756578323214
 11
110.94303580845576
 21
503.55276078323209
  0
LINE
  8
_0-3_躯体と製品
  6
CONTINUOUS
 62
    5
 10
110.94303580845576
 20
503.55276078323209
 11
110.52214480845578
 21
503.99898378323212
  0
LINE
  8
_0-3_躯体と製品
  6
CONTINUOUS
 62
    5
 10
110.52214480845578
 20
503.99898378323212
 11
110.0277188084558
 21
504.36919678323204
  0
LINE
  8
_0-3_躯体と製品
  6
CONTINUOUS
 62
    5
 10
110.0277188084558
 20
504.36919678323204
 11
109.46755480845582
 21
504.65756178323204
  0
LINE
  8
_0-3_躯体と製品
  6
CONTINUOUS
 62
    5
 10
109.46755480845582
 20
504.65756178323204
 11
108.85048780845591
 21
504.859530783232
  0
LINE
  8
_0-3_躯体と製品
  6
CONTINUOUS
 62
    5
 10
108.85048780845591
 20
504.859530783232
 11
108.18624880845596
 21
504.97191978323201
  0
LINE
  8
_0-3_躯体と製品
  6
CONTINUOUS
 62
    5
 10
108.18624880845596
 20
504.97191978323201
 11
107.48531380845589
 21
504.99295578323199
  0
LINE
  8
_0-3_躯体と製品
  6
CONTINUOUS
 62
    5
 10
107.48531380845589
 20
504.99295578323199
 11
106.75873680845575
 21
504.92230578323199
  0
LINE
  8
_0-3_躯体と製品
  6
CONTINUOUS
 62
    5
 10
106.75873680845575
 20
504.92230578323199
 11
106.01797580845687
 21
504.76108578323203
  0
LINE
  8
_0-3_躯体と製品
  6
CONTINUOUS
 62
    5
 10
106.01797580845687
 20
504.76108578323203
 11
105.27471280845589
 21
504.51183778323207
  0
LINE
  8
_0-3_躯体と製品
  6
CONTINUOUS
 62
    5
 10
105.27471280845589
 20
504.51183778323207
 11
104.54067080845675
 21
504.17849178323206
  0
LINE
  8
_0-3_躯体と製品
  6
CONTINUOUS
 62
    5
 10
104.54067080845675
 20
504.17849178323206
 11
103.82742480845582
 21
503.76630478323204
  0
LINE
  8
_0-3_躯体と製品
  6
CONTINUOUS
 62
    5
 10
103.82742480845582
 20
503.76630478323204
 11
103.14622380845594
 21
503.28177878323208
  0
LINE
  8
_0-3_躯体と製品
  6
CONTINUOUS
 62
    5
 10
103.14622380845594
 20
503.28177878323208
 11
102.50781080845582
 21
502.73255378323199
  0
LINE
  8
_0-3_躯体と製品
  6
CONTINUOUS
 62
    5
 10
102.50781080845582
 20
502.73255378323199
 11
101.92225380845593
 21
502.12729178323207
  0
LINE
  8
_0-3_躯体と製品
  6
CONTINUOUS
 62
    5
 10
101.92225380845593
 20
502.12729178323207
 11
101.39878680845595
 21
501.47553778323197
  0
LINE
  8
_0-3_躯体と製品
  6
CONTINUOUS
 62
    5
 10
101.39878680845595
 20
501.47553778323197
 11
100.94566680845583
 21
500.78757078323201
  0
LINE
  8
_0-3_躯体と製品
  6
CONTINUOUS
 62
    5
 10
100.94566680845583
 20
500.78757078323201
 11
100.57003780845594
 21
500.0742397832322
  0
LINE
  8
_0-3_躯体と製品
  6
CONTINUOUS
 62
    5
 10
100.57003780845594
 20
500.0742397832322
 11
100.27782480845576
 21
499.3467947832321
  0
LINE
  8
_0-3_躯体と製品
  6
CONTINUOUS
 62
    5
 10
100.27782480845576
 20
499.3467947832321
 11
100.07363580845686
 21
498.61670878323207
  0
LINE
  8
_0-3_躯体と製品
  6
CONTINUOUS
 62
    5
 10
100.07363580845686
 20
498.61670878323207
 11
99.960690808455865
 21
497.89549478323204
  0
LINE
  8
_0-3_躯体と製品
  6
CONTINUOUS
 62
    5
 10
99.960690808455865
 20
497.89549478323204
 11
99.940771808455793
 21
497.19452678323205
  0
LINE
  8
_0-3_躯体と製品
  6
CONTINUOUS
 62
    5
 10
99.940771808455793
 20
497.19452678323205
 11
100.01419280845585
 21
496.52485978323205
  0
LINE
  8
_0-3_躯体と製品
  6
CONTINUOUS
 62
    5
 10
100.01419280845585
 20
496.52485978323205
 11
100.17979580845576
 21
495.89705478323197
  0
LINE
  8
_0-3_躯体と製品
  6
CONTINUOUS
 62
    5
 10
100.17979580845576
 20
495.89705478323197
 11
100.43496780845589
 21
495.32101278323205
  0
LINE
  8
_0-3_躯体と製品
  6
CONTINUOUS
 62
    5
 10
100.43496780845589
 20
495.32101278323205
 11
100.77568680845593
 21
494.8058177832321
  0
LINE
  8
_0-3_躯体と製品
  6
CONTINUOUS
 62
    5
 10
100.77568680845593
 20
494.8058177832321
 11
101.19657780845591
 21
494.35959578323207
  0
LINE
  8
_0-3_躯体と製品
  6
CONTINUOUS
 62
    5
 10
101.19657780845591
 20
494.35959578323207
 11
101.69100380845589
 21
493.98938278323214
  0
LINE
  8
_0-3_躯体と製品
  6
CONTINUOUS
 62
    5
 10
101.69100380845589
 20
493.98938278323214
 11
102.25116780845588
 21
493.70101678323215
  0
LINE
  8
_0-3_躯体と製品
  6
CONTINUOUS
 62
    5
 10
102.25116780845588
 20
493.70101678323215
 11
102.86823480845578
 21
493.49904778323196
  0
LINE
  8
_0-3_躯体と製品
  6
CONTINUOUS
 62
    5
 10
102.86823480845578
 20
493.49904778323196
 11
103.53247380845596
 21
493.38665878323206
  0
LINE
  8
_0-3_躯体と製品
  6
CONTINUOUS
 62
    5
 10
103.53247380845596
 20
493.38665878323206
 11
104.23340880845581
 21
493.36562378323219
  0
LINE
  8
_0-3_躯体と製品
  6
CONTINUOUS
 62
    5
 10
104.23340880845581
 20
493.36562378323219
 11
104.95998580845594
 21
493.43627278323197
  0
LINE
  8
_0-3_躯体と製品
  6
CONTINUOUS
 62
    5
 10
104.95998580845594
 20
493.43627278323197
 11
105.70074680845596
 21
493.59749278323204
  0
LINE
  8
_0-3_躯体と製品
  6
CONTINUOUS
 62
    5
 10
105.70074680845596
 20
493.59749278323204
 11
106.4440098084558
 21
493.84674178323212
  0
LINE
  8
_0-3_躯体と製品
  6
CONTINUOUS
 62
    5
 10
106.4440098084558
 20
493.84674178323212
 11
107.17805180845585
 21
494.18008778323201
  0
LINE
  8
_0-3_躯体と製品
  6
CONTINUOUS
 62
    5
 10
107.17805180845585
 20
494.18008778323201
 11
107.89129780845587
 21
494.59227378323214
  0
LINE
  8
_0-3_躯体と製品
  6
CONTINUOUS
 62
    5
 10
107.89129780845587
 20
494.59227378323214
 11
108.57249880845575
 21
495.0768007832321
  0
LINE
  8
_0-3_躯体と製品
  6
CONTINUOUS
 62
    5
 10
108.57249880845575
 20
495.0768007832321
 11
109.21091180845588
 21
495.62602578323208
  0
LINE
  8
_0-3_躯体と製品
  6
CONTINUOUS
 62
    2
 10
87.006633808455945
 20
490.22271378323205
 11
107.5127308084559
 21
510.72881078323201
  0
LINE
  8
_0-3_躯体と製品
  6
CONTINUOUS
 62
    2
 10
88.420847808455846
 20
488.80850078323215
 11
107.86628380845582
 21
508.25393678323201
  0
ARC
  8
_0-3_躯体と製品
  6
CONTINUOUS
 62
    5
 10
71.85152980845578
 20
477.89903578323208
 40
19.815104999999988
 50
0.7002439999993379
 51
33.239378999999801
  0
LINE
  8
_0-3_躯体と製品
  6
CONTINUOUS
 62
    2
 10
87.006633808455945
 20
490.22271378323205
 11
88.420847808455846
 21
488.80850078323215
  0
LINE
  8
_0-3_躯体と製品
  6
CONTINUOUS
 62
    5
 10
109.25410880845584
 20
481.41026778323214
 11
107.15917780845575
 21
483.50519978323211
  0
LINE
  8
_0-3_躯体と製品
  6
CONTINUOUS
 62
    2
 10
109.28049780845686
 20
481.38387978323203
 11
110.69471080845597
 21
479.96966578323213
  0
LINE
  8
_0-3_躯体と製品
  6
CONTINUOUS
 62
    2
 10
107.86628380845582
 20
479.96966578323213
 11
109.28049780845686
 21
481.38387978323203
  0
ARC
  8
_0-3_躯体と製品
  6
CONTINUOUS
 62
    2
 10
108.21983780845585
 20
510.02170378323206
 40
1
 50
45
 51
135
  0
ARC
  8
_0-3_躯体と製品
  6
CONTINUOUS
 62
    2
 10
108.21983780845585
 20
507.90038378323209
 40
0.5
 50
45
 51
135
  0
LINE
  8
_0-3_躯体と製品
  6
CONTINUOUS
 62
    2
 10
131.90791480845678
 20
501.18286978323204
 11
123.88225280845586
 21
509.20853178323216
  0
LINE
  8
_0-3_躯体と製品
  6
CONTINUOUS
 62
    2
 10
120.59420580845585
 20
502.59708278323217
 11
126.95816680845587
 21
496.23312178323204
  0
LINE
  8
_0-3_躯体と製品
  6
CONTINUOUS
 62
    2
 10
129.07948780845686
 20
498.35444178323212
 11
121.05382580845594
 21
506.38010378323213
  0
LINE
  8
_0-3_躯体と製品
  6
CONTINUOUS
 62
    2
 10
119.42747980845593
 20
508.50142478323221
 11
126.4985478084559
 21
501.43035678323213
  0
LINE
  8
_0-3_躯体と製品
  6
CONTINUOUS
 62
    2
 10
126.2510608084558
 20
501.18286978323204
 11
129.07948780845686
 21
504.01129678323196
  0
LINE
  8
_0-3_躯体と製品
  6
CONTINUOUS
 62
    2
 10
118.47288580845589
 20
503.30418978323212
 11
119.88709980845579
 21
501.8899757832321
  0
LINE
  8
_0-3_躯体と製品
  6
CONTINUOUS
 62
    2
 10
119.88709980845579
 20
501.8899757832321
 11
120.59420580845585
 21
502.59708278323217
  0
LINE
  8
_0-3_躯体と製品
  6
CONTINUOUS
 62
    2
 10
115.99801180845679
 20
502.24352978323202
 11
128.01882780845585
 21
514.2643447832321
  0
LINE
  8
_0-3_躯体と製品
  6
CONTINUOUS
 62
    2
 10
130.49370080845597
 20
499.76865578323202
 11
131.90791480845678
 21
501.18286978323204
  0
LINE
  8
_0-3_躯体と製品
  6
CONTINUOUS
 62
    2
 10
132.61502180845582
 20
497.64733578323205
 11
114.23024480845584
 21
479.26255878323207
  0
LINE
  8
_0-3_躯体と製品
  6
CONTINUOUS
 62
    5
 10
115.64445880845597
 20
491.99048078323199
 11
117.74706780845577
 21
489.88787178323196
  0
LINE
  8
_0-3_躯体と製品
  6
CONTINUOUS
 62
    2
 10
119.17999280845584
 20
491.28337478323215
 11
120.59420580845585
 21
489.86916078323202
  0
LINE
  8
_0-3_躯体と製品
  6
CONTINUOUS
 62
    2
 10
130.49370080845597
 20
499.76865578323202
 11
129.07948780845686
 21
498.35444178323212
  0
LINE
  8
_0-3_躯体と製品
  6
CONTINUOUS
 62
    2
 10
126.95816680845587
 20
496.23312178323204
 11
120.59420580845585
 21
489.86916078323202
  0
LINE
  8
_0-3_躯体と製品
  6
CONTINUOUS
 62
    2
 10
115.99801180845679
 20
485.27296678323216
 11
115.99801180845679
 21
484.5658597832321
  0
LINE
  8
_0-3_躯体と製品
  6
CONTINUOUS
 62
    2
 10
115.29090480845593
 20
484.5658597832321
 11
115.99801180845679
 21
484.5658597832321
  0
LINE
  8
_0-3_躯体と製品
  6
CONTINUOUS
 62
    2
 10
117.76577880845593
 20
489.86916078323202
 11
119.17999280845584
 21
488.454947783232
  0
LINE
  8
_0-3_躯体と製品
  6
CONTINUOUS
 62
    2
 10
119.17999280845584
 20
491.28337478323215
 11
117.76577880845593
 21
489.86916078323202
  0
ARC
  8
_0-3_躯体と製品
  6
CONTINUOUS
 62
    2
 10
115.29090480845593
 20
502.95063678323208
 40
1
 50
225
 51
315
  0
LINE
  8
_0-3_躯体と製品
  6
CONTINUOUS
 62
    2
 10
127.66527380845582
 20
509.66815078323214
 11
134.02923480845584
 21
503.30418978323212
  0
ARC
  8
_0-3_躯体と製品
  6
CONTINUOUS
 62
    2
 10
119.4486938084558
 20
511.83896778323208
 40
0.2249999999999999
 50
130.26074499999933
 51
225
  0
ARC
  8
_0-3_躯体と製品
  6
CONTINUOUS
 62
    2
 10
118.42338880845591
 20
510.81366278323196
 40
0.2249999999999999
 50
45
 51
139.73922899999999
  0
LINE
  8
_0-3_躯体と製品
  6
CONTINUOUS
 62
    2
 10
118.56129980845594
 20
510.99395078323221
 11
119.26840580845692
 21
511.70105778323216
  0
ARC
  8
_0-3_躯体と製品
  6
CONTINUOUS
 62
    2
 10
125.13998980845577
 20
505.12236778323211
 40
9.0287089999999992
 50
119.1761969999996
 51
150.82380300000031
  0
LINE
  8
_0-3_躯体と製品
  6
CONTINUOUS
 62
    2
 10
118.11933280845597
 20
507.19327678323214
 11
117.3962868084559
 21
508.05496978323197
  0
LINE
  8
_0-3_躯体と製品
  6
CONTINUOUS
 62
    2
 10
123.06907980845676
 20
512.14302478323214
 11
122.20738680845579
 21
512.86607078323198
  0
ARC
  8
_0-3_躯体と製品
  6
CONTINUOUS
 62
    2
 10
118.39214380845578
 20
508.89059378323202
 40
1.3
 50
150.84923599999851
 51
220.0000000000025
  0
ARC
  8
_0-3_躯体と製品
  6
CONTINUOUS
 62
    2
 10
121.37176280845597
 20
511.87021278323198
 40
1.3
 50
49.999999999997407
 51
119.15076400000139
  0
ARC
  8
_0-3_躯体と製品
  6
CONTINUOUS
 62
    2
 10
126.2510608084558
 20
511.08236478323226
 40
1
 50
45
 51
135
  0
ARC
  8
_0-3_躯体と製品
  6
CONTINUOUS
 62
    2
 10
119.17999280845584
 20
504.01129678323196
 40
1
 50
135
 51
225
  0
LINE
  8
_0-3_躯体と製品
  6
CONTINUOUS
 62
    2
 10
121.76093280845589
 20
510.83487678323206
 11
128.83199980845575
 21
503.76380878323209
  0
LINE
  8
_0-3_躯体と製品
  6
CONTINUOUS
 62
    2
 10
119.17999280845584
 20
508.25393678323201
 11
121.05382580845594
 21
506.38010378323213
  0
LINE
  8
_0-3_躯体と製品
  6
CONTINUOUS
 62
    2
 10
122.00841980845576
 20
511.08236478323226
 11
123.88225280845586
 21
509.20853178323216
  0
LINE
  8
_0-3_躯体と製品
  6
CONTINUOUS
 62
    2
 10
123.88225280845586
 20
510.12776978323211
 11
125.54395380845585
 21
511.7894707832321
  0
LINE
  8
_0-3_躯体と製品
  6
CONTINUOUS
 62
    2
 10
123.88225280845586
 20
508.71355678323209
 11
123.88225280845586
 21
510.12776978323211
  0
LINE
  8
_0-3_躯体と製品
  6
CONTINUOUS
 62
    2
 10
120.13458680845588
 20
506.38010378323213
 11
118.47288580845589
 21
504.71840278323202
  0
LINE
  8
_0-3_躯体と製品
  6
CONTINUOUS
 62
    2
 10
121.54880080845578
 20
506.38010378323213
 11
120.13458680845588
 21
506.38010378323213
  0
LINE
  8
_0-3_躯体と製品
  6
CONTINUOUS
 62
    2
 10
126.95816780845576
 20
511.7894707832321
 11
128.37238080845577
 21
510.37525778323209
  0
LINE
  8
_0-3_躯体と製品
  6
CONTINUOUS
 62
    2
 10
128.37238080845577
 20
510.37525778323209
 11
127.66527380845582
 21
509.66815078323214
  0
ARC
  8
_0-3_躯体と製品
  6
CONTINUOUS
 62
    2
 10
120.24065280845593
 20
522.04251978323202
 40
1
 50
135
 51
225
  0
LINE
  8
_0-3_躯体と製品
  6
CONTINUOUS
 62
    2
 10
125.54395380845585
 20
515.32500478323198
 11
119.53354580845576
 21
521.33541278323196
  0
ARC
  8
_0-3_躯体と製品
  6
CONTINUOUS
 62
    2
 10
125.19039980845582
 20
514.97145178323206
 40
0.5
 50
315.00000000000006
 51
45.00000000000005
  0
LINE
  8
_0-3_躯体と製品
  6
CONTINUOUS
 62
    2
 10
115.64445880845597
 20
504.71840278323202
 11
125.54395380845585
 21
514.61789778323202
  0
ARC
  8
_0-3_躯体と製品
  6
CONTINUOUS
 62
    2
 10
115.29090480845593
 20
505.07195678323217
 40
0.5
 50
225
 51
315
  0
ARC
  8
_0-3_躯体と製品
  6
CONTINUOUS
 62
    2
 10
122.3619728084559
 20
522.04251978323202
 40
0.5
 50
135
 51
225
  0
LINE
  8
_0-3_躯体と製品
  6
CONTINUOUS
 62
    2
 10
128.01882780845585
 20
515.67855878323201
 11
122.00841980845576
 21
521.68896578323222
  0
ARC
  8
_0-3_躯体と製品
  6
CONTINUOUS
 62
    2
 10
127.3117208084559
 20
514.97145178323206
 40
1
 50
315.00000000000006
 51
45.00000000000005
  0
LINE
  8
_0-3_躯体と製品
  6
CONTINUOUS
 62
    2
 10
140.39319580845586
 20
509.66815078323214
 11
134.02923480845584
 21
503.30418978323212
  0
LINE
  8
_0-3_躯体と製品
  6
CONTINUOUS
 62
    2
 10
150.29269080845597
 20
519.56764578323202
 11
148.87847780845595
 21
520.98185878323193
  0
LINE
  8
_0-3_躯体と製品
  6
CONTINUOUS
 62
    2
 10
138.97898280845584
 20
511.08236478323226
 11
140.39319580845586
 21
509.66815078323214
  0
LINE
  8
_0-3_躯体と製品
  6
CONTINUOUS
 62
    2
 10
140.39319580845586
 20
512.49657778323206
 11
138.97898280845584
 21
511.08236478323226
  0
LINE
  8
_0-3_躯体と製品
  6
CONTINUOUS
 62
    2
 10
148.87847780845595
 20
520.98185878323193
 11
150.29269080845597
 21
522.39607278323183
  0
LINE
  8
_0-3_躯体と製品
  6
CONTINUOUS
 62
    2
 10
141.80740980845576
 20
511.08236478323226
 11
140.39319580845586
 21
512.49657778323206
  0
LINE
  8
_0-3_躯体と製品
  6
CONTINUOUS
 62
    2
 10
150.29269080845597
 20
519.56764578323202
 11
141.80740980845576
 21
511.08236478323226
  0
LINE
  8
_0-3_躯体と製品
  6
CONTINUOUS
 62
    7
 10
178.71838380845588
 20
498.49586378323204
 11
202.47717180845575
 21
498.49586378323204
  0
LINE
  8
_0-3_躯体と製品
  6
CONTINUOUS
 62
    7
 10
203.80265480845583
 20
495.29586378323199
 11
177.39289980845592
 21
495.29586378323199
  0
LINE
  8
_0-3_躯体と製品
  6
CONTINUOUS
 62
    2
 10
173.27366180845593
 20
499.4151027832321
 11
189.18356380845694
 21
483.50519978323211
  0
LINE
  8
_0-3_躯体と製品
  6
CONTINUOUS
 62
    2
 10
188.47645680845585
 20
492.69758778323205
 11
189.89067080845575
 21
494.11180178323207
  0
LINE
  8
_0-3_躯体と製品
  6
CONTINUOUS
 62
    2
 10
193.42620480845585
 20
487.74784078323216
 11
188.47645680845585
 21
492.69758778323205
  0
LINE
  8
_0-3_躯体と製品
  6
CONTINUOUS
 62
    7
 10
152.55543280845586
 20
524.65881478323206
 11
178.71838380845588
 21
498.49586378323204
  0
LINE
  8
_0-3_躯体と製品
  6
CONTINUOUS
 62
    2
 10
175.18284980845692
 20
502.03139778323202
 11
180.20103680845591
 21
507.04958478323204
  0
LINE
  8
_0-3_躯体と製品
  6
CONTINUOUS
 62
    2
 10
166.20259380845596
 20
506.48616978323196
 11
172.56655480845575
 21
500.12220878323205
  0
LINE
  8
_0-3_躯体と製品
  6
CONTINUOUS
 62
    2
 10
150.99979780845592
 20
516.03211178323215
 11
184.94092280845575
 21
482.0909857832321
  0
LINE
  8
_0-3_躯体と製品
  6
CONTINUOUS
 62
    2
 10
173.27366180845593
 20
499.4151027832321
 11
172.56655480845575
 21
499.4151027832321
  0
LINE
  8
_0-3_躯体と製品
  6
CONTINUOUS
 62
    2
 10
172.56655480845575
 20
500.12220878323205
 11
172.56655480845575
 21
499.4151027832321
  0
ARC
  8
_0-3_躯体と製品
  6
CONTINUOUS
 62
    2
 10
165.82635280845579
 20
517.29930678323205
 40
3.819999999999999
 50
5.8438679999970811
 51
45
  0
ARC
  8
_0-3_躯体と製品
  6
CONTINUOUS
 62
    2
 10
163.16203480845593
 20
504.15271778323211
 40
15
 50
45
 51
64.471220999999403
  0
LINE
  8
_0-3_躯体と製品
  6
CONTINUOUS
 62
    2
 10
167.80377280845596
 20
520.72418278323198
 11
173.76863580845588
 21
514.75931978323194
  0
LINE
  8
_0-3_躯体と製品
  6
CONTINUOUS
 62
    2
 10
164.57624780845595
 20
512.63799878323209
 11
169.62650080845583
 21
517.68825178323198
  0
LINE
  8
_0-3_躯体と製品
  6
CONTINUOUS
 62
    2
 10
166.05890080845597
 20
521.19171978323197
 11
167.80377280845596
 21
520.72418278323198
  0
LINE
  8
_0-3_躯体と製品
  6
CONTINUOUS
 62
    2
 10
161.04071380845585
 20
516.17353278323219
 11
166.05890080845597
 21
521.19171978323197
  0
LINE
  8
_0-3_躯体と製品
  6
CONTINUOUS
 62
    2
 10
166.20259380845596
 20
506.48616978323196
 11
165.49548680845578
 21
506.48616978323196
  0
LINE
  8
_0-3_躯体と製品
  6
CONTINUOUS
 62
    2
 10
165.49548680845578
 20
507.19327678323214
 11
165.49548680845578
 21
506.48616978323196
  0
LINE
  8
_0-3_躯体と製品
  6
CONTINUOUS
 62
    2
 10
171.64731580845591
 20
505.56693178323223
 11
176.69756780845591
 21
510.61718378323201
  0
ARC
  8
_0-3_躯体と製品
  6
CONTINUOUS
 62
    2
 10
176.30862380845588
 20
506.81703678323208
 40
3.819999999999999
 50
45
 51
84.156132000002927
  0
ARC
  8
_0-3_躯体と製品
  6
CONTINUOUS
 62
    2
 10
163.16203480845593
 20
504.15271778323211
 40
15
 50
25.528779000000586
 51
45
  0
LINE
  8
_0-3_躯体と製品
  6
CONTINUOUS
 62
    2
 10
179.73349980845592
 20
508.79445578323191
 11
173.76863580845588
 21
514.75931978323194
  0
LINE
  8
_0-3_躯体と製品
  6
CONTINUOUS
 62
    2
 10
180.20103680845591
 20
507.04958478323204
 11
179.73349980845592
 21
508.79445578323191
  0
LINE
  8
_0-3_躯体と製品
  6
CONTINUOUS
 62
    7
 10
202.47717180845575
 20
498.49586378323204
 11
223.69037480845577
 21
519.70906678323195
  0
LINE
  8
_0-3_躯体と製品
  6
CONTINUOUS
 62
    2
 10
189.89067080845575
 20
494.11180178323207
 11
196.25463180845691
 21
487.74784078323216
  0
LINE
  8
_0-3_躯体と製品
  6
CONTINUOUS
 62
    2
 10
189.18356380845694
 20
483.50519978323211
 11
193.42620480845585
 21
487.74784078323216
  0
LINE
  8
_0-3_躯体と製品
  6
CONTINUOUS
 62
    7
 10
223.69037480845577
 20
519.70906678323195
 11
225.95311680845589
 21
517.44632578323206
  0
LINE
  8
_0-4_図面枠
  6
CONTINUOUS
 62
    4
 10
1177.9081828084556
 20
-519.00000621676782
 11
1177.9081828084556
 21
815.99999378323196
  0
LINE
  8
_0-3_躯体と製品
  6
PLINE3
 62
    2
 10
862.14586480845605
 20
-69.248948216767872
 11
271.62639380845576
 21
521.27052278323185
  0
LINE
  8
_0-3_躯体と製品
  6
CONTINUOUS
 62
    5
 10
896.08699080845668
 20
-57.935240216767909
 11
339.79730880845591
 21
498.35444178323212
  0
LINE
  8
_0-3_躯体と製品
  6
CONTINUOUS
 62
    2
 10
844.4681958084559
 20
-86.92661821676802
 11
310.80592980845586
 21
446.73564678323203
  0
LINE
  8
_0-3_躯体と製品
  6
CONTINUOUS
 62
    2
 10
850.83215680845592
 20
-80.562657216767889
 11
317.16989180845576
 21
453.09960778323216
  0
LINE
  8
_0-3_躯体と製品
  6
CONTINUOUS
 62
    2
 10
877.70221380845601
 20
-53.692599216767917
 11
344.03994880845585
 21
479.96966578323213
  0
LINE
  8
_0-3_躯体と製品
  6
CONTINUOUS
 62
    5
 10
891.13724280845668
 20
-62.884987216767911
 11
334.84756080845591
 21
493.404694783232
  0
LINE
  8
_0-3_躯体と製品
  6
CONTINUOUS
 62
    2
 10
837.39712780845571
 20
-93.997685216767877
 11
296.6637948084558
 21
446.73564678323203
  0
LINE
  8
_0-3_躯体と製品
  6
CONTINUOUS
 62
    2
 10
844.4681958084559
 20
-242.49010921676791
 11
773.75751680845565
 21
-171.77943121676788
  0
LINE
  8
_0-3_躯体と製品
  6
CONTINUOUS
 62
    2
 10
844.4681958084559
 20
-105.59423721676797
 11
778.28300080845588
 21
-171.77943121676788
  0
LINE
  8
_0-3_躯体と製品
  6
CONTINUOUS
 62
    2
 10
773.75751680845565
 20
-171.77943121676788
 11
844.4681958084559
 21
-101.06875321676796
  0
LINE
  8
_0-3_躯体と製品
  6
CONTINUOUS
 62
    2
 10
834.00301480845678
 20
-54.965391216767784
 11
843.48353280845572
 21
-57.505688216767908
  0
LINE
  8
_0-3_躯体と製品
  6
CONTINUOUS
 62
    2
 10
847.86230780845585
 20
-41.106098216767919
 11
838.38178980845601
 21
-38.565801216767966
  0
CIRCLE
  8
_0-3_躯体と製品
  6
CONTINUOUS
 62
    2
 10
840.93876680845574
 20
-48.041850216767898
 40
8.4913660000000011
  0
LINE
  8
_0-3_躯体と製品
  6
PLINE3
 62
    2
 10
850.19096280845702
 20
-38.777443216767892
 11
831.59334280845565
 21
-57.375063216768012
  0
LINE
  8
_0-3_躯体と製品
  6
CONTINUOUS
 62
    7
 10
802.04178880845598
 20
-30.358075216767872
 11
851.53926280845667
 21
-79.855550216767881
  0
LINE
  8
_0-3_躯体と製品
  6
CONTINUOUS
 62
    7
 10
823.25499180845668
 20
-9.144872216767908
 11
872.7524668084568
 21
-58.642346216767919
  0
LINE
  8
_0-3_躯体と製品
  6
CONTINUOUS
 62
    2
 10
854.72124380845685
 20
-76.673569216767874
 11
838.81134080845572
 21
-92.583472216767916
  0
LINE
  8
_0-3_躯体と製品
  6
CONTINUOUS
 62
    2
 10
831.74027280845689
 20
-88.340831216767867
 11
852.59992280845586
 21
-109.20048121676791
  0
LINE
  8
_0-3_躯体と製品
  6
CONTINUOUS
 62
    2
 10
844.4681958084559
 20
-237.9646262167679
 11
778.28300080845588
 21
-171.77943121676788
  0
LINE
  8
_0-4_図面枠
  6
CONTINUOUS
 62
    2
 10
259.88294580845695
 20
-194.62550221676793
 11
259.88294580845695
 21
-227.29996821676787
  0
LINE
  8
_0-3_躯体と製品
  6
CONTINUOUS
 62
    2
 10
831.46271780845586
 20
-45.48487321676788
 11
834.00301480845678
 21
-54.965391216767784
  0
LINE
  8
_0-3_躯体と製品
  6
CONTINUOUS
 62
    2
 10
838.104233808456
 20
-81.976870216767793
 11
831.74027280845689
 21
-88.340831216767867
  0
LINE
  8
_0-3_躯体と製品
  6
CONTINUOUS
 62
    2
 10
839.5184478084559
 20
-83.391084216767922
 11
838.104233808456
 21
-81.976870216767793
  0
LINE
  8
_0-3_躯体と製品
  6
CONTINUOUS
 62
    2
 10
834.5687008084567
 20
-88.340831216767867
 11
839.5184478084559
 21
-83.391084216767922
  0
LINE
  8
_0-3_躯体と製品
  6
CONTINUOUS
 62
    2
 10
838.81134080845572
 20
-92.583472216767916
 11
834.5687008084567
 21
-88.340831216767867
  0
ARC
  8
_0-3_躯体と製品
  6
CONTINUOUS
 62
    7
 10
812.64838980845684
 20
-19.751473216767806
 40
15
 50
45
 51
225
  0
LINE
  8
_0-3_躯体と製品
  6
CONTINUOUS
 62
    2
 10
815.19926180845573
 20
-29.221417216767975
 11
822.11833380845587
 21
-22.30234521676789
  0
LINE
  8
_0-3_躯体と製品
  6
CONTINUOUS
 62
    2
 10
805.71874380845588
 20
-26.681120216767908
 11
815.19926180845573
 21
-29.221417216767975
  0
CIRCLE
  8
_0-3_躯体と製品
  6
CONTINUOUS
 62
    2
 10
812.65449580845666
 20
-19.757579216767908
 40
8.4913660000000011
  0
LINE
  8
_0-3_躯体と製品
  6
PLINE3
 62
    2
 10
821.90669180845703
 20
-10.493172216767903
 11
803.30907180845702
 21
-29.090792216767909
  0
LINE
  8
_0-3_躯体と製品
  6
CONTINUOUS
 62
    2
 10
838.38178980845601
 20
-38.565801216767966
 11
831.46271780845586
 21
-45.48487321676788
  0
LINE
  8
_0-3_躯体と製品
  6
CONTINUOUS
 62
    2
 10
822.11833380845587
 20
-22.30234521676789
 11
819.57803680845677
 21
-12.821827216767872
  0
LINE
  8
_0-3_躯体と製品
  6
CONTINUOUS
 62
    2
 10
803.17844680845678
 20
-17.200602216767891
 11
805.71874380845588
 21
-26.681120216767908
  0
LINE
  8
_0-3_躯体と製品
  6
CONTINUOUS
 62
    2
 10
810.09751880845602
 20
-10.281530216767976
 11
803.17844680845678
 21
-17.200602216767891
  0
LINE
  8
_0-3_躯体と製品
  6
CONTINUOUS
 62
    2
 10
819.57803680845677
 20
-12.821827216767872
 11
810.09751880845602
 21
-10.281530216767976
  0
LINE
  8
_0-3_躯体と製品
  6
CONTINUOUS
 62
    2
 10
889.01592280845603
 20
-226.22665321676777
 11
981.64691080845591
 21
-318.85764221676789
  0
LINE
  8
_0-3_躯体と製品
  6
CONTINUOUS
 62
    7
 10
980.23269680845601
 20
-318.85764221676789
 11
873.45957380845607
 21
-240.36878921676794
  0
LINE
  8
_0-3_躯体と製品
  6
CONTINUOUS
 62
    7
 10
887.60170880845567
 20
-226.22665321676777
 11
980.23269680845601
 21
-318.85764221676789
  0
LINE
  8
_0-3_躯体と製品
  6
CONTINUOUS
 62
    7
 10
966.09056180845687
 20
-332.99977721676794
 11
887.60170880845567
 21
-226.22665321676777
  0
LINE
  8
_0-3_躯体と製品
  6
CONTINUOUS
 62
    7
 10
1081.4228388084559
 20
-448.33205521676803
 11
860.02454480845677
 21
-226.93376021676795
  0
LINE
  8
_0-3_躯体と製品
  6
CONTINUOUS
 62
    7
 10
1074.3517718084561
 20
-455.40312321676788
 11
852.95347680845566
 21
-234.00482821676803
  0
LINE
  8
_0-3_躯体と製品
  6
CONTINUOUS
 62
    2
 10
974.79858480845701
 20
-355.84993621676779
 11
974.79858480845701
 21
-373.10060521676792
  0
LINE
  8
_0-3_躯体と製品
  6
CONTINUOUS
 62
    2
 10
984.91249380845579
 20
-365.96384521676794
 11
984.91249380845579
 21
-383.88877421676796
  0
LINE
  8
_0-3_躯体と製品
  6
CONTINUOUS
 62
    2
 10
946.70439380845687
 20
-327.75574621676799
 11
946.70439380845687
 21
-343.88264721676785
  0
LINE
  8
_0-3_躯体と製品
  6
CONTINUOUS
 62
    2
 10
956.14404280845588
 20
-337.19539421676791
 11
956.14404280845588
 21
-354.22130921676785
  0
LINE
  8
_0-3_躯体と製品
  6
CONTINUOUS
 62
    2
 10
966.79766880845568
 20
-332.29267121676776
 11
988.01087180845684
 21
-353.50587421676789
  0
LINE
  8
_0-3_躯体と製品
  6
CONTINUOUS
 62
    2
 10
968.21188180845706
 20
-332.29267121676776
 11
988.71797880845565
 21
-352.79876721676794
  0
LINE
  8
_0-3_躯体と製品
  6
CONTINUOUS
 62
    2
 10
966.03319780845572
 20
-347.08454921676787
 11
966.03319780845572
 21
-364.11046421676792
  0
ARC
  8
_0-3_躯体と製品
  6
CONTINUOUS
 62
    2
 10
988.01087180845684
 20
-353.50587421676789
 40
1
 50
225
 51
45
  0
LINE
  8
_0-3_躯体と製品
  6
CONTINUOUS
 62
    2
 10
980.23269680845601
 20
-347.14191321676788
 11
980.93980380845574
 21
-346.43480621676792
  0
LINE
  8
_0-3_躯体と製品
  6
CONTINUOUS
 62
    2
 10
981.64691080845591
 20
-318.85764221676789
 11
968.21188180845706
 21
-332.29267121676776
  0
LINE
  8
_0-3_躯体と製品
  6
CONTINUOUS
 62
    7
 10
966.09056180845687
 20
-332.99977721676794
 11
980.23269680845601
 21
-318.85764221676789
  0
LINE
  8
_0-3_躯体と製品
  6
CONTINUOUS
 62
    2
 10
1007.1630928084567
 20
-388.2144442167679
 11
1007.1630928084567
 21
-403.89183821676784
  0
LINE
  8
_0-3_躯体と製品
  6
CONTINUOUS
 62
    2
 10
1020.6483038084559
 20
-401.69965621676783
 11
1020.6483038084559
 21
-418.95032421676797
  0
LINE
  8
_0-3_躯体と製品
  6
CONTINUOUS
 62
    2
 10
995.92541680845693
 20
-376.97676821676805
 11
995.92541680845693
 21
-393.1036692167678
  0
LINE
  8
_0-3_躯体と製品
  6
CONTINUOUS
 62
    2
 10
901.74384480845697
 20
-53.692599216767917
 11
894.67277680845586
 21
-46.621532216767775
  0
LINE
  8
_0-3_躯体と製品
  6
CONTINUOUS
 62
    2
 10
908.10780580845699
 20
-57.228133216767787
 11
891.13724380845701
 21
-40.257571216767872
  0
LINE
  8
_0-3_躯体と製品
  6
CONTINUOUS
 62
    2
 10
856.56182680845563
 20
-53.619782216767874
 11
857.54037480845568
 21
-52.641235216767882
  0
LINE
  8
_0-3_躯体と製品
  6
CONTINUOUS
 62
    2
 10
856.56182680845563
 20
-53.619782216767874
 11
857.54037480845568
 21
-52.641235216767882
  0
LINE
  8
_0-3_躯体と製品
  6
CONTINUOUS
 62
    2
 10
856.56182680845563
 20
-53.619782216767874
 11
857.54037480845568
 21
-52.641235216767882
  0
LINE
  8
_0-3_躯体と製品
  6
CONTINUOUS
 62
    2
 10
864.2671848084558
 20
-57.228133216767787
 11
859.26252080845666
 21
-52.223468216767913
  0
LINE
  8
_0-3_躯体と製品
  6
CONTINUOUS
 62
    2
 10
843.48353280845572
 20
-57.505688216767908
 11
850.40260480845677
 21
-50.586616216767879
  0
LINE
  8
_0-3_躯体と製品
  6
CONTINUOUS
 62
    5
 10
879.14281680845602
 20
-55.080424216767767
 11
881.23774780845702
 21
-52.985492216767909
  0
LINE
  8
_0-3_躯体と製品
  6
CONTINUOUS
 62
    5
 10
879.82353480845609
 20
-51.571279216767891
 11
891.13724280845668
 21
-62.884987216767911
  0
LINE
  8
_0-3_躯体と製品
  6
CONTINUOUS
 62
    7
 10
896.22841180845603
 20
-148.30348621676785
 11
917.44161480845582
 21
-169.51669021676787
  0
LINE
  8
_0-3_躯体と製品
  6
CONTINUOUS
 62
    2
 10
975.2829498084559
 20
-151.27333521676792
 11
932.85654280845597
 21
-193.69974221676785
  0
LINE
  8
_0-3_躯体と製品
  6
CONTINUOUS
 62
    2
 10
933.56364980845569
 20
-195.82106221676793
 11
977.40426980845564
 21
-151.98044121676776
  0
LINE
  8
_0-3_躯体と製品
  6
CONTINUOUS
 62
    2
 10
910.65338980845695
 20
-171.77943121676788
 11
844.4681958084559
 21
-105.59423721676797
  0
LINE
  8
_0-3_躯体と製品
  6
CONTINUOUS
 62
    2
 10
921.54283480845675
 20
-179.55760621676791
 11
915.17887380845673
 21
-173.19364521676789
  0
LINE
  8
_0-3_躯体と製品
  6
CONTINUOUS
 62
    7
 10
917.44161480845582
 20
-169.51669021676787
 11
915.17887380845673
 21
-171.77943121676788
  0
LINE
  8
_0-3_躯体と製品
  6
CONTINUOUS
 62
    2
 10
913.76465980845592
 20
-174.60785821676791
 11
932.85654280845597
 21
-193.69974221676785
  0
LINE
  8
_0-3_躯体と製品
  6
CONTINUOUS
 62
    2
 10
913.76465980845592
 20
-177.43628621676783
 11
932.14943580845579
 21
-195.82106221676793
  0
ARC
  8
_0-3_躯体と製品
  6
CONTINUOUS
 62
    5
 10
937.76148880845608
 20
-211.17570421676794
 40
24.805989
 50
119.6468899999999
 51
153.88150800000301
  0
LINE
  8
_0-3_躯体と製品
  6
CONTINUOUS
 62
    7
 10
913.76465980845592
 20
-200.06370321676786
 11
860.02454480845677
 21
-226.93376021676795
  0
LINE
  8
_0-3_躯体と製品
  6
CONTINUOUS
 62
    7
 10
873.45957380845607
 20
-240.36878921676794
 11
900.3296308084557
 21
-186.62867421676799
  0
LINE
  8
_0-3_躯体と製品
  6
CONTINUOUS
 62
    7
 10
873.45957380845607
 20
-240.36878921676794
 11
913.76465980845592
 21
-200.06370321676786
  0
LINE
  8
_0-3_躯体と製品
  6
CONTINUOUS
 62
    2
 10
844.4681958084559
 20
-242.49010921676791
 11
915.17887380845673
 21
-171.77943121676788
  0
LINE
  8
_0-3_躯体と製品
  6
CONTINUOUS
 62
    2
 10
915.17887380845673
 20
-200.06370321676786
 11
889.01592280845603
 21
-226.22665321676777
  0
LINE
  8
_0-3_躯体と製品
  6
CONTINUOUS
 62
    2
 10
910.65338980845695
 20
-171.77943121676788
 11
844.4681958084559
 21
-237.9646262167679
  0
LINE
  8
_0-3_躯体と製品
  6
CONTINUOUS
 62
    2
 10
913.76465980845592
 20
-177.43628621676783
 11
903.15805780845699
 21
-188.04288721676801
  0
LINE
  8
_0-3_躯体と製品
  6
CONTINUOUS
 62
    2
 10
901.74384480845697
 20
-186.62867421676799
 11
915.17887380845673
 21
-173.19364521676789
  0
LINE
  8
_0-3_躯体と製品
  6
CONTINUOUS
 62
    7
 10
900.3296308084557
 20
-186.62867421676799
 11
913.76465980845592
 21
-200.06370321676786
  0
LINE
  8
_0-3_躯体と製品
  6
CONTINUOUS
 62
    2
 10
915.17887380845673
 20
-200.06370321676786
 11
901.74384480845697
 21
-186.62867421676799
  0
LINE
  8
_0-3_躯体と製品
  6
CONTINUOUS
 62
    2
 10
910.78238780845709
 20
-185.06061521676793
 11
900.183528808456
 21
-174.46175721676786
  0
ARC
  8
_0-3_躯体と製品
  6
CONTINUOUS
 62
    2
 10
932.85654280845597
 20
-195.11395521676786
 40
1
 50
225
 51
315
  0
LINE
  8
_0-3_躯体と製品
  6
CONTINUOUS
 62
    2
 10
922.24994080845704
 20
-178.85049921676784
 11
921.54283480845675
 21
-179.55760621676791
  0
LINE
  8
_0-3_躯体と製品
  6
CONTINUOUS
 62
    2
 10
916.59308680845675
 20
-68.541841216767807
 11
909.52201880845701
 21
-75.612909216767889
  0
LINE
  8
_0-3_躯体と製品
  6
CONTINUOUS
 62
    2
 10
918.36085380845566
 20
-75.966462216767809
 11
915.88597980845566
 21
-73.49158921676792
  0
LINE
  8
_0-3_躯体と製品
  6
CONTINUOUS
 62
    2
 10
918.71440680845603
 20
-70.663162216767887
 11
915.88597980845566
 21
-73.49158921676792
  0
LINE
  8
_0-3_躯体と製品
  6
CONTINUOUS
 62
    2
 10
911.64333880845675
 20
-70.663162216767887
 11
916.59308680845675
 21
-65.713414216767887
  0
ARC
  8
_0-3_躯体と製品
  6
CONTINUOUS
 62
    5
 10
943.20662880845589
 20
-30.614591216767906
 40
44.047792999999999
 50
217.17107799999599
 51
232.8289220000039
  0
LINE
  8
_0-3_躯体と製品
  6
CONTINUOUS
 62
    2
 10
903.86516480845671
 20
-77.027123216767905
 11
977.40426980845564
 21
-150.56622821676785
  0
ARC
  8
_0-3_躯体と製品
  6
CONTINUOUS
 62
    2
 10
915.03185480845673
 20
-111.65266821676778
 40
3.819999999999999
 50
275.84386799999697
 51
315
  0
LINE
  8
_0-3_躯体と製品
  6
CONTINUOUS
 62
    2
 10
918.45673080845677
 20
-113.63008721676795
 11
912.49186780845571
 21
-119.59495121676798
  0
LINE
  8
_0-3_躯体と製品
  6
CONTINUOUS
 62
    2
 10
913.90608080845664
 20
-106.86702921676795
 11
918.92426780845585
 21
-111.88521621676796
  0
LINE
  8
_0-3_躯体と製品
  6
CONTINUOUS
 62
    2
 10
920.12862080845593
 20
-96.119006216767843
 11
904.92582480845681
 21
-111.32180221676776
  0
LINE
  8
_0-3_躯体と製品
  6
CONTINUOUS
 62
    2
 10
917.86587880845696
 20
-89.896466216767919
 11
912.20902480845575
 21
-84.23961221676791
  0
ARC
  8
_0-3_躯体と製品
  6
CONTINUOUS
 62
    2
 10
912.35044580845693
 20
-89.755045216767769
 40
6
 50
45
 51
82.466217999997994
  0
LINE
  8
_0-3_躯体と製品
  6
PLINE3
 62
    2
 10
917.30019380845602
 20
-84.805297216767883
 11
902.45095180845669
 21
-99.654540216767941
  0
LINE
  8
_0-3_躯体と製品
  6
CONTINUOUS
 62
    2
 10
917.30019380845602
 20
-96.119006216767843
 11
912.70399980845582
 21
-91.522812216767875
  0
LINE
  8
_0-3_躯体と製品
  6
CONTINUOUS
 62
    7
 10
922.39136280845582
 20
-98.381747216767849
 11
896.22841180845603
 21
-124.54469821676776
  0
LINE
  8
_0-3_躯体と製品
  6
PLINE3
 62
    2
 10
918.07605280845587
 20
-55.745167216767868
 11
857.74809680845578
 21
-116.07312321676784
  0
LINE
  8
_0-3_躯体と製品
  6
CONTINUOUS
 62
    2
 10
902.45095180845669
 20
-78.441336216767922
 11
975.2829498084559
 21
-151.27333521676792
  0
LINE
  8
_0-3_躯体と製品
  6
CONTINUOUS
 62
    2
 10
862.85297180845669
 20
-62.884987216767911
 11
910.37054780845597
 21
-110.40256321676793
  0
LINE
  8
_0-3_躯体と製品
  6
CONTINUOUS
 62
    2
 10
903.29947980845668
 20
-117.4736312167679
 11
855.78190380845604
 21
-69.956055216767879
  0
LINE
  8
_0-3_躯体と製品
  6
CONTINUOUS
 62
    2
 10
861.43875780845678
 20
-112.38246221676786
 11
843.05398180845691
 21
-93.997685216767877
  0
LINE
  8
_0-3_躯体と製品
  6
CONTINUOUS
 62
    2
 10
913.76465980845592
 20
-96.826113216767908
 11
879.82353480845609
 21
-130.76723821676785
  0
LINE
  8
_0-3_躯体と製品
  6
CONTINUOUS
 62
    2
 10
904.00658580845607
 20
-116.76652421676795
 11
856.48901080845576
 21
-69.248948216767872
  0
LINE
  8
_0-3_躯体と製品
  6
CONTINUOUS
 62
    2
 10
909.66344080845579
 20
-111.10967021676788
 11
862.14586480845605
 21
-63.592094216767919
  0
LINE
  8
_0-3_躯体と製品
  6
CONTINUOUS
 62
    2
 10
885.48038880845684
 20
-142.08094721676775
 11
864.62073880845605
 21
-121.22129621676788
  0
LINE
  8
_0-3_躯体と製品
  6
CONTINUOUS
 62
    2
 10
861.43875780845678
 20
-112.38246221676786
 11
879.82353480845609
 21
-130.76723821676785
  0
LINE
  8
_0-3_躯体と製品
  6
CONTINUOUS
 62
    2
 10
858.25677780845604
 20
-114.85733521676775
 11
858.96388480845576
 21
-114.85733521676775
  0
LINE
  8
_0-3_躯体と製品
  6
CONTINUOUS
 62
    2
 10
852.59992280845586
 20
-109.20048121676791
 11
853.30702980845604
 21
-109.20048121676791
  0
LINE
  8
_0-3_躯体と製品
  6
CONTINUOUS
 62
    2
 10
853.30702980845604
 20
-109.90758821676786
 11
853.30702980845604
 21
-109.20048121676791
  0
LINE
  8
_0-3_躯体と製品
  6
CONTINUOUS
 62
    2
 10
853.30702980845604
 20
-109.90758821676786
 11
858.25677780845604
 21
-114.85733521676775
  0
LINE
  8
_0-3_躯体と製品
  6
CONTINUOUS
 62
    2
 10
863.91363180845588
 20
-120.51419021676793
 11
858.96388480845576
 21
-115.56444221676793
  0
LINE
  8
_0-3_躯体と製品
  6
CONTINUOUS
 62
    2
 10
863.91363180845588
 20
-120.51419021676793
 11
864.62073880845605
 21
-120.51419021676793
  0
LINE
  8
_0-3_躯体と製品
  6
CONTINUOUS
 62
    2
 10
864.62073880845605
 20
-121.22129621676788
 11
864.62073880845605
 21
-120.51419021676793
  0
LINE
  8
_0-3_躯体と製品
  6
CONTINUOUS
 62
    2
 10
858.96388480845576
 20
-115.56444221676793
 11
858.96388480845576
 21
-114.85733521676775
  0
LINE
  8
_0-3_躯体と製品
  6
CONTINUOUS
 62
    2
 10
897.14765080845677
 20
-119.09997621676791
 11
881.23774780845702
 21
-135.0098792167679
  0
LINE
  8
_0-3_躯体と製品
  6
CONTINUOUS
 62
    7
 10
893.02841180845576
 20
-149.62897021676793
 11
893.02841180845576
 21
-123.21921521676791
  0
LINE
  8
_0-3_躯体と製品
  6
CONTINUOUS
 62
    7
 10
896.22841180845603
 20
-124.54469821676776
 11
896.22841180845603
 21
-148.30348621676785
  0
LINE
  8
_0-3_躯体と製品
  6
CONTINUOUS
 62
    2
 10
891.84434980845685
 20
-135.71698521676785
 11
885.48038880845684
 21
-142.08094721676775
  0
LINE
  8
_0-3_躯体と製品
  6
CONTINUOUS
 62
    2
 10
890.43013580845604
 20
-134.30277221676795
 11
891.84434980845685
 21
-135.71698521676785
  0
LINE
  8
_0-3_躯体と製品
  6
CONTINUOUS
 62
    2
 10
885.48038880845684
 20
-139.25251921676784
 11
890.43013580845604
 21
-134.30277221676795
  0
LINE
  8
_0-3_躯体と製品
  6
CONTINUOUS
 62
    2
 10
881.23774780845702
 20
-135.0098792167679
 11
885.48038880845684
 21
-139.25251921676784
  0
LINE
  8
_0-3_躯体と製品
  6
CONTINUOUS
 62
    2
 10
903.29947980845668
 20
-117.4736312167679
 11
908.34973180845577
 21
-122.52388321676801
  0
ARC
  8
_0-3_躯体と製品
  6
CONTINUOUS
 62
    2
 10
904.54958480845585
 20
-122.13493821676775
 40
3.819999999999999
 50
315.00000000000006
 51
354.15613200000297
  0
ARC
  8
_0-3_躯体と製品
  6
CONTINUOUS
 62
    2
 10
901.88526580845678
 20
-108.98834921676792
 40
15
 50
295.52877900000055
 51
315.00000000000006
  0
LINE
  8
_0-3_躯体と製品
  6
CONTINUOUS
 62
    2
 10
906.52700380845567
 20
-125.55981421676779
 11
912.49186780845571
 21
-119.59495121676798
  0
LINE
  8
_0-3_躯体と製品
  6
CONTINUOUS
 62
    2
 10
904.7821328084558
 20
-126.0273512167679
 11
906.52700380845567
 21
-125.55981421676779
  0
LINE
  8
_0-3_躯体と製品
  6
CONTINUOUS
 62
    2
 10
899.76394580845704
 20
-121.00916421676789
 11
904.7821328084558
 21
-126.0273512167679
  0
ARC
  8
_0-3_躯体と製品
  6
CONTINUOUS
 62
    2
 10
901.88526580845678
 20
-108.98834921676792
 40
15
 50
315.00000000000006
 51
334.47122099999933
  0
LINE
  8
_0-3_躯体と製品
  6
CONTINUOUS
 62
    2
 10
910.37054780845597
 20
-110.40256321676793
 11
915.42079980845597
 21
-115.45281521676793
  0
LINE
  8
_0-3_躯体と製品
  6
CONTINUOUS
 62
    2
 10
904.21871880845697
 20
-112.02890821676795
 11
897.85475680845707
 21
-118.39286921676785
  0
LINE
  8
_0-3_躯体と製品
  6
CONTINUOUS
 62
    2
 10
897.14765080845677
 20
-119.09997621676791
 11
897.14765080845677
 21
-118.39286921676785
  0
LINE
  8
_0-3_躯体と製品
  6
CONTINUOUS
 62
    2
 10
897.85475680845707
 20
-118.39286921676785
 11
897.14765080845677
 21
-118.39286921676785
  0
LINE
  8
_0-3_躯体と製品
  6
CONTINUOUS
 62
    2
 10
904.21871880845697
 20
-112.02890821676795
 11
904.21871880845697
 21
-111.32180221676776
  0
LINE
  8
_0-3_躯体と製品
  6
CONTINUOUS
 62
    2
 10
904.92582480845681
 20
-111.32180221676776
 11
904.21871880845697
 21
-111.32180221676776
  0
LINE
  8
_0-3_躯体と製品
  6
CONTINUOUS
 62
    2
 10
886.18749580845565
 20
-65.006307216767766
 11
877.70221380845601
 21
-56.521026216767893
  0
LINE
  8
_0-3_躯体と製品
  6
CONTINUOUS
 62
    2
 10
895.37988380845604
 20
-78.441336216767922
 11
876.99510680845583
 21
-60.056560216767878
  0
LINE
  8
_0-3_躯体と製品
  6
CONTINUOUS
 62
    2
 10
879.11642780845591
 20
-55.106812216767878
 11
877.70221380845601
 21
-56.521026216767893
  0
LINE
  8
_0-3_躯体と製品
  6
CONTINUOUS
 62
    2
 10
877.70221380845601
 20
-53.692599216767917
 11
879.11642780845591
 21
-55.106812216767878
  0
LINE
  8
_0-3_躯体と製品
  6
CONTINUOUS
 62
    2
 10
843.05398180845691
 20
-93.997685216767877
 11
876.99510680845583
 21
-60.056560216767878
  0
LINE
  8
_0-3_躯体と製品
  6
CONTINUOUS
 62
    2
 10
855.68353280845599
 20
-55.7155482167679
 11
860.7316508084557
 21
-60.763667216767885
  0
LINE
  8
_0-3_躯体と製品
  6
CONTINUOUS
 62
    7
 10
869.92403980845597
 20
-55.813919216767886
 11
848.71083580845675
 21
-77.027123216767905
  0
LINE
  8
_0-3_躯体と製品
  6
CONTINUOUS
 62
    2
 10
864.2671848084558
 20
-57.228133216767787
 11
850.12504980845574
 21
-71.370268216767897
  0
LINE
  8
_0-3_躯体と製品
  6
CONTINUOUS
 62
    2
 10
861.43875780845678
 20
-64.299201216767869
 11
857.19611780845594
 21
-64.299201216767869
  0
LINE
  8
_0-3_躯体と製品
  6
CONTINUOUS
 62
    2
 10
861.79231180845568
 20
-69.602501216767905
 11
855.42835080845566
 21
-75.966462216767809
  0
LINE
  8
_0-3_躯体と製品
  6
CONTINUOUS
 62
    2
 10
859.31743780845568
 20
-66.420521216767895
 11
855.07479680845677
 21
-66.420521216767895
  0
LINE
  8
_0-3_躯体と製品
  6
CONTINUOUS
 62
    3
 10
861.43875780845678
 20
-64.299201216767869
 11
857.19611780845594
 21
-64.299201216767869
  0
LINE
  8
_0-3_躯体と製品
  6
CONTINUOUS
 62
    2
 10
850.54931380845687
 20
-70.946004216767903
 11
852.67063380845707
 21
-73.06732521676787
  0
LINE
  8
_0-3_躯体と製品
  6
CONTINUOUS
 62
    2
 10
846.05918580845605
 20
-64.122424216767911
 11
845.59625780845568
 21
-64.589620216767912
  0
LINE
  8
_0-3_躯体と製品
  6
CONTINUOUS
 62
    2
 10
846.05918580845605
 20
-64.122424216767911
 11
846.53926280845667
 21
-63.642346216767976
  0
LINE
  8
_0-3_躯体と製品
  6
CONTINUOUS
 62
    2
 10
850.54931380845687
 20
-70.946004216767903
 11
852.67063380845707
 21
-73.06732521676787
  0
LINE
  8
_0-3_躯体と製品
  6
CONTINUOUS
 62
    2
 10
846.05918580845605
 20
-64.122424216767911
 11
845.59625780845568
 21
-64.589620216767912
  0
LINE
  8
_0-3_躯体と製品
  6
CONTINUOUS
 62
    2
 10
846.05918580845605
 20
-64.122424216767911
 11
846.53926280845667
 21
-63.642346216767976
  0
LINE
  8
_0-3_躯体と製品
  6
CONTINUOUS
 62
    2
 10
850.54931380845687
 20
-70.946004216767903
 11
852.67063380845707
 21
-73.06732521676787
  0
LINE
  8
_0-3_躯体と製品
  6
CONTINUOUS
 62
    2
 10
854.50911180845583
 20
-54.541127216767904
 11
855.0769308084557
 21
-55.108947216767888
  0
ARC
  8
_0-3_躯体と製品
  6
CONTINUOUS
 62
    2
 10
859.19978480845589
 20
-55.959594216767869
 40
3.524710999999999
 50
138.8402999999991
 51
176.02974800000013
  0
ARC
  8
_0-3_躯体と製品
  6
CONTINUOUS
 62
    2
 10
862.1479988084559
 20
-69.25108221676777
 40
15
 50
115.52877900000051
 51
135
  0
ARC
  8
_0-3_躯体と製品
  6
CONTINUOUS
 62
    2
 10
862.1479988084559
 20
-69.25108221676777
 40
15
 50
135
 51
154.4712209999993
  0
ARC
  8
_0-3_躯体と製品
  6
CONTINUOUS
 62
    2
 10
848.85651080845605
 20
-66.302868216767877
 40
3.524710999999999
 50
93.97025199999986
 51
131.1597000000009
  0
LINE
  8
_0-3_躯体と製品
  6
CONTINUOUS
 62
    2
 10
846.05918580845605
 20
-64.122424216767911
 11
845.59625780845568
 21
-64.589620216767912
  0
LINE
  8
_0-3_躯体と製品
  6
CONTINUOUS
 62
    2
 10
845.59625780845568
 20
-64.589620216767912
 11
845.12038480845672
 21
-66.36560421676802
  0
LINE
  8
_0-3_躯体と製品
  6
CONTINUOUS
 62
    2
 10
856.54064180845603
 20
-53.645236216767898
 11
846.54215280845597
 21
-63.643726216767902
  0
LINE
  8
_0-3_躯体と製品
  6
CONTINUOUS
 62
    2
 10
846.05918580845605
 20
-64.122424216767911
 11
846.53926280845667
 21
-63.642346216767976
  0
LINE
  8
_0-3_躯体と製品
  6
CONTINUOUS
 62
    2
 10
845.12038480845672
 20
-66.36560421676802
 11
850.12504980845574
 21
-71.370268216767897
  0
LINE
  8
_0-3_躯体と製品
  6
CONTINUOUS
 62
    2
 10
847.43804380845609
 20
-61.612195216767873
 11
848.00586380845584
 21
-62.180014216767916
  0
LINE
  8
_0-3_躯体と製品
  6
CONTINUOUS
 62
    2
 10
848.61246480845671
 20
-62.786616216767811
 11
853.66058380845584
 21
-67.83473421676797
  0
LINE
  8
_0-3_躯体と製品
  6
CONTINUOUS
 62
    2
 10
854.72124380845685
 20
-76.673569216767874
 11
855.42835080845566
 21
-76.673569216767874
  0
LINE
  8
_0-3_躯体と製品
  6
CONTINUOUS
 62
    2
 10
855.42835080845566
 20
-75.966462216767809
 11
855.42835080845566
 21
-76.673569216767874
  0
LINE
  8
_0-3_躯体と製品
  6
CONTINUOUS
 62
    2
 10
848.71296980845568
 20
-61.472908216767905
 11
847.43804380845609
 21
-60.197981216767914
  0
LINE
  8
_0-3_躯体と製品
  6
CONTINUOUS
 62
    2
 10
854.36982480845586
 20
-55.816053216767898
 11
853.09489780845593
 21
-54.541127216767904
  0
LINE
  8
_0-3_躯体と製品
  6
CONTINUOUS
 62
    2
 10
847.43804380845609
 20
-61.612195216767873
 11
854.50911180845583
 21
-54.541127216767904
  0
LINE
  8
_0-3_躯体と製品
  6
CONTINUOUS
 62
    2
 10
847.43804380845609
 20
-60.197981216767914
 11
847.43804380845609
 21
-61.612195216767873
  0
LINE
  8
_0-3_躯体と製品
  6
CONTINUOUS
 62
    2
 10
853.09489780845593
 20
-54.541127216767904
 11
847.43804380845609
 21
-60.197981216767914
  0
LINE
  8
_0-3_躯体と製品
  6
CONTINUOUS
 62
    2
 10
854.50911180845583
 20
-54.541127216767904
 11
853.09489780845593
 21
-54.541127216767904
  0
LINE
  8
_0-3_躯体と製品
  6
CONTINUOUS
 62
    2
 10
865.96424180845702
 20
-59.773717216767977
 11
863.84292080845694
 21
-57.652397216768009
  0
LINE
  8
_0-3_躯体と製品
  6
CONTINUOUS
 62
    2
 10
865.96424180845702
 20
-59.773717216767977
 11
863.84292080845694
 21
-57.652397216768009
  0
LINE
  8
_0-3_躯体と製品
  6
CONTINUOUS
 62
    2
 10
865.96424180845702
 20
-59.773717216767977
 11
863.84292080845694
 21
-57.652397216768009
  0
LINE
  8
_0-3_躯体と製品
  6
CONTINUOUS
 62
    2
 10
877.70221380845601
 20
-53.692599216767917
 11
862.49941780845597
 21
-68.895395216767895
  0
LINE
  8
_0-3_躯体と製品
  6
CONTINUOUS
 62
    2
 10
861.79231180845568
 20
-69.602501216767905
 11
862.49941780845597
 21
-69.602501216767905
  0
LINE
  8
_0-3_躯体と製品
  6
CONTINUOUS
 62
    2
 10
862.49941780845597
 20
-68.895395216767895
 11
862.49941780845597
 21
-69.602501216767905
  0
LINE
  8
_0-3_躯体と製品
  6
CONTINUOUS
 62
    2
 10
907.4006988084559
 20
-73.49158921676792
 11
901.03673780845679
 21
-79.855550216767881
  0
LINE
  8
_0-3_躯体と製品
  6
CONTINUOUS
 62
    2
 10
908.461358808456
 20
-91.522812216767875
 11
895.37988380845604
 21
-78.441336216767922
  0
LINE
  8
_0-3_躯体と製品
  6
CONTINUOUS
 62
    2
 10
914.82531980845692
 20
-87.987278216767891
 11
914.11821280845584
 21
-87.987278216767891
  0
LINE
  8
_0-3_躯体と製品
  6
CONTINUOUS
 62
    2
 10
914.11821280845584
 20
-87.280171216767883
 11
914.11821280845584
 21
-87.987278216767891
  0
LINE
  8
_0-3_躯体と製品
  6
CONTINUOUS
 62
    2
 10
914.82531980845692
 20
-90.108598216767916
 11
914.83090580845578
 21
-89.395905216767972
  0
LINE
  8
_0-3_躯体と製品
  6
CONTINUOUS
 62
    2
 10
914.37779180845678
 20
-89.849019216767886
 11
914.82531980845692
 21
-90.108598216767916
  0
LINE
  8
_0-3_躯体と製品
  6
CONTINUOUS
 62
    2
 10
913.05196680845597
 20
-86.9322042167679
 11
914.37779180845678
 21
-89.849019216767886
  0
LINE
  8
_0-3_躯体と製品
  6
CONTINUOUS
 62
    2
 10
913.05755280845574
 20
-86.219511216767899
 11
913.05196680845597
 21
-86.9322042167679
  0
LINE
  8
_0-3_躯体と製品
  6
CONTINUOUS
 62
    2
 10
914.83090580845578
 20
-89.395905216767972
 11
913.66170580845596
 21
-86.823663216768011
  0
LINE
  8
_0-3_躯体と製品
  6
CONTINUOUS
 62
    2
 10
909.87557280845681
 20
-89.401491216767909
 11
909.86998680845704
 21
-90.114184216767967
  0
LINE
  8
_0-3_躯体と製品
  6
CONTINUOUS
 62
    2
 10
910.32310080845605
 20
-89.661070216767882
 11
909.87557280845681
 21
-89.401491216767909
  0
LINE
  8
_0-3_躯体と製品
  6
CONTINUOUS
 62
    2
 10
909.87557280845681
 20
-89.401491216767909
 11
911.64333980845572
 21
-93.290579216767981
  0
LINE
  8
_0-3_躯体と製品
  6
CONTINUOUS
 62
    2
 10
911.64333980845572
 20
-93.290579216767981
 11
911.64892580845594
 21
-92.577886216767922
  0
LINE
  8
_0-3_躯体と製品
  6
CONTINUOUS
 62
    2
 10
911.19581180845603
 20
-93.031000216767893
 11
911.64333980845572
 21
-93.290579216767981
  0
LINE
  8
_0-3_躯体と製品
  6
CONTINUOUS
 62
    2
 10
909.86998680845704
 20
-90.114184216767967
 11
911.19581180845603
 21
-93.031000216767893
  0
LINE
  8
_0-3_躯体と製品
  6
CONTINUOUS
 62
    2
 10
911.64892580845594
 20
-92.577886216767922
 11
910.32310080845605
 21
-89.661070216767882
  0
LINE
  8
_0-3_躯体と製品
  6
CONTINUOUS
 62
    2
 10
911.99689280845564
 20
-87.280171216767883
 11
913.76465980845592
 21
-91.169258216767901
  0
LINE
  8
_0-3_躯体と製品
  6
CONTINUOUS
 62
    2
 10
913.76465980845592
 20
-91.169258216767901
 11
913.77024580845705
 21
-90.456565216767899
  0
LINE
  8
_0-3_躯体と製品
  6
CONTINUOUS
 62
    2
 10
913.31713180845577
 20
-90.909679216767984
 11
913.76465980845592
 21
-91.169258216767901
  0
LINE
  8
_0-3_躯体と製品
  6
CONTINUOUS
 62
    2
 10
911.99130680845678
 20
-87.992864216767998
 11
913.31713180845577
 21
-90.909679216767984
  0
LINE
  8
_0-3_躯体と製品
  6
CONTINUOUS
 62
    2
 10
911.99689280845564
 20
-87.280171216767883
 11
911.99130680845678
 21
-87.992864216767998
  0
LINE
  8
_0-3_躯体と製品
  6
CONTINUOUS
 62
    2
 10
912.44442080845579
 20
-87.539750216767914
 11
911.99689280845564
 21
-87.280171216767883
  0
LINE
  8
_0-3_躯体と製品
  6
CONTINUOUS
 62
    2
 10
913.77024580845705
 20
-90.456565216767899
 11
912.44442080845579
 21
-87.539750216767914
  0
LINE
  8
_0-3_躯体と製品
  6
CONTINUOUS
 62
    2
 10
913.05755280845574
 20
-86.219511216767899
 11
914.82531980845692
 21
-90.108598216767916
  0
LINE
  8
_0-3_躯体と製品
  6
CONTINUOUS
 62
    2
 10
910.93064680845669
 20
-89.053524216767869
 11
910.32310080845605
 21
-89.661070216767882
  0
LINE
  8
_0-3_躯体と製品
  6
CONTINUOUS
 62
    2
 10
910.936232808456
 20
-88.340831216767867
 11
910.93064680845669
 21
-89.053524216767869
  0
LINE
  8
_0-3_躯体と製品
  6
CONTINUOUS
 62
    2
 10
913.31713180845577
 20
-90.909679216767984
 11
912.70958580845604
 21
-91.517225216767997
  0
LINE
  8
_0-3_躯体と製品
  6
CONTINUOUS
 62
    2
 10
911.99130680845678
 20
-87.992864216767998
 11
911.38376080845705
 21
-88.600410216767898
  0
LINE
  8
_0-3_躯体と製品
  6
CONTINUOUS
 62
    2
 10
914.33918380845603
 20
-89.887627216767896
 11
913.77024580845705
 21
-90.456565216767899
  0
LINE
  8
_0-3_躯体と製品
  6
CONTINUOUS
 62
    2
 10
913.05196680845597
 20
-86.9322042167679
 11
912.44442080845579
 21
-87.539750216767914
  0
LINE
  8
_0-3_躯体と製品
  6
CONTINUOUS
 62
    2
 10
915.53242680845665
 20
-88.694385216767898
 11
914.83090580845578
 21
-89.395905216767972
  0
LINE
  8
_0-3_躯体と製品
  6
CONTINUOUS
 62
    2
 10
913.13711080845565
 20
-83.806838216767972
 11
912.20902480845575
 21
-84.23961221676791
  0
LINE
  8
_0-3_躯体と製品
  6
CONTINUOUS
 62
    2
 10
912.20902480845575
 20
-84.23961221676791
 11
911.96993780845673
 21
-85.131896216767984
  0
LINE
  8
_0-3_躯体と製品
  6
CONTINUOUS
 62
    2
 10
909.86998680845704
 20
-90.114184216767967
 11
909.16846580845572
 21
-90.815705216767867
  0
LINE
  8
_0-3_躯体と製品
  6
CONTINUOUS
 62
    2
 10
912.21786380845674
 20
-92.008948216767919
 11
911.64892580845594
 21
-92.577886216767922
  0
LINE
  8
_0-3_躯体と製品
  6
CONTINUOUS
 62
    2
 10
910.936232808456
 20
-88.340831216767867
 11
912.70399980845582
 21
-92.229918216767885
  0
LINE
  8
_0-3_躯体と製品
  6
CONTINUOUS
 62
    2
 10
912.70399980845582
 20
-92.229918216767885
 11
912.70958580845604
 21
-91.517225216767997
  0
LINE
  8
_0-3_躯体と製品
  6
CONTINUOUS
 62
    2
 10
912.25647180845567
 20
-91.970340216767909
 11
912.70399980845582
 21
-92.229918216767885
  0
LINE
  8
_0-3_躯体と製品
  6
CONTINUOUS
 62
    2
 10
910.93064680845669
 20
-89.053524216767869
 11
912.25647180845567
 21
-91.970340216767909
  0
LINE
  8
_0-3_躯体と製品
  6
CONTINUOUS
 62
    2
 10
911.38376080845705
 20
-88.600410216767898
 11
910.936232808456
 21
-88.340831216767867
  0
LINE
  8
_0-3_躯体と製品
  6
CONTINUOUS
 62
    2
 10
912.70958580845604
 20
-91.517225216767997
 11
911.38376080845705
 21
-88.600410216767898
  0
LINE
  8
_0-3_躯体と製品
  6
CONTINUOUS
 62
    2
 10
908.81491280845671
 20
-90.462151216767893
 11
909.52760580845575
 21
-90.456565216767899
  0
LINE
  8
_0-3_躯体と製品
  6
CONTINUOUS
 62
    2
 10
909.07449080845595
 20
-90.909679216767984
 11
908.81491280845671
 21
-90.462151216767893
  0
LINE
  8
_0-3_躯体と製品
  6
CONTINUOUS
 62
    2
 10
908.10780580845699
 20
-96.119006216767843
 11
906.78198080845573
 21
-94.793181216767948
  0
LINE
  8
_0-3_躯体と製品
  6
CONTINUOUS
 62
    2
 10
909.16846580845572
 20
-90.815705216767867
 11
905.986484808456
 21
-96.119006216767843
  0
LINE
  8
_0-3_躯体と製品
  6
CONTINUOUS
 62
    2
 10
905.986484808456
 20
-93.997685216767877
 11
909.16846580845572
 21
-90.815705216767867
  0
LINE
  8
_0-3_躯体と製品
  6
CONTINUOUS
 62
    2
 10
905.986484808456
 20
-96.119006216767843
 11
905.986484808456
 21
-93.997685216767877
  0
LINE
  8
_0-3_躯体と製品
  6
CONTINUOUS
 62
    2
 10
908.10780580845699
 20
-96.119006216767843
 11
905.986484808456
 21
-96.119006216767843
  0
LINE
  8
_0-3_躯体と製品
  6
CONTINUOUS
 62
    2
 10
911.19581180845603
 20
-93.031000216767893
 11
908.10780580845699
 21
-96.119006216767843
  0
LINE
  8
_0-3_躯体と製品
  6
CONTINUOUS
 62
    2
 10
909.16846580845572
 20
-90.815705216767867
 11
911.03918680845595
 21
-92.68642621676787
  0
LINE
  8
_0-3_躯体と製品
  6
CONTINUOUS
 62
    2
 10
910.58267980845608
 20
-93.6441322167679
 11
913.76465980845592
 21
-96.826113216767908
  0
LINE
  8
_0-3_躯体と製品
  6
CONTINUOUS
 62
    2
 10
910.58267980845608
 20
-89.401491216767909
 11
908.81491280845671
 21
-87.633724216767916
  0
LINE
  8
_0-3_躯体と製品
  6
CONTINUOUS
 62
    2
 10
907.4006988084559
 20
-86.219511216767899
 11
901.03673780845679
 21
-79.855550216767881
  0
LINE
  8
_0-3_躯体と製品
  6
CONTINUOUS
 62
    2
 10
908.81491280845671
 20
-84.805297216767883
 11
907.4006988084559
 21
-86.219511216767899
  0
LINE
  8
_0-3_躯体と製品
  6
CONTINUOUS
 62
    2
 10
910.22912580845673
 20
-86.219511216767899
 11
908.81491280845671
 21
-84.805297216767883
  0
LINE
  8
_0-3_躯体と製品
  6
CONTINUOUS
 62
    2
 10
910.22912580845673
 20
-86.219511216767899
 11
908.81491280845671
 21
-87.633724216767916
  0
ARC
  8
_0-3_躯体と製品
  6
CONTINUOUS
 62
    5
 10
895.37988380845604
 20
-52.985493216767907
 40
4.5
 50
273.18968500000278
 51
315.00000000000006
  0
LINE
  8
_0-3_躯体と製品
  6
CONTINUOUS
 62
    5
 10
899.62252380845598
 20
-61.470773216767896
 11
896.79409680845606
 21
-64.299201216767869
  0
LINE
  8
_0-3_躯体と製品
  6
CONTINUOUS
 62
    5
 10
896.84002880845605
 20
-58.688278216767912
 11
899.62252380845598
 21
-61.470773216767896
  0
LINE
  8
_0-3_躯体と製品
  6
CONTINUOUS
 62
    2
 10
900.3296308084557
 20
-66.420521216767895
 11
893.96566980845569
 21
-72.784482216767913
  0
LINE
  8
_0-3_躯体と製品
  6
CONTINUOUS
 62
    2
 10
896.08699080845668
 20
-74.905802216767881
 11
904.1126518084568
 21
-66.88014021676787
  0
LINE
  8
_0-3_躯体と製品
  6
CONTINUOUS
 62
    2
 10
897.50120380845578
 20
-76.320016216767897
 11
896.08699080845668
 21
-74.905802216767881
  0
LINE
  8
_0-3_躯体と製品
  6
CONTINUOUS
 62
    5
 10
899.62252380845598
 20
-67.127628216767789
 11
896.79409680845606
 21
-64.299201216767869
  0
LINE
  8
_0-3_躯体と製品
  6
CONTINUOUS
 62
    5
 10
899.62252380845598
 20
-67.127628216767789
 11
888.30881580845585
 21
-67.127628216767789
  0
LINE
  8
_0-3_躯体と製品
  6
CONTINUOUS
 62
    5
 10
889.72302980845666
 20
-61.470773216767896
 11
887.62041980845675
 21
-63.573383216767809
  0
LINE
  8
_0-3_躯体と製品
  6
CONTINUOUS
 62
    5
 10
896.79409680845606
 20
-58.642346216767919
 11
888.30881580845585
 21
-67.127628216767789
  0
LINE
  8
_0-3_躯体と製品
  6
CONTINUOUS
 62
    5
 10
896.79409680845606
 20
-58.642346216767919
 11
893.96566980845569
 21
-72.784482216767913
  0
LINE
  8
_0-3_躯体と製品
  6
CONTINUOUS
 62
    2
 10
889.01592280845603
 20
-65.006307216767766
 11
887.60170880845567
 21
-66.420521216767895
  0
LINE
  8
_0-3_躯体と製品
  6
CONTINUOUS
 62
    2
 10
893.96566980845569
 20
-72.784482216767913
 11
887.60170880845567
 21
-66.420521216767895
  0
LINE
  8
_0-3_躯体と製品
  6
CONTINUOUS
 62
    2
 10
883.00551480845593
 20
-61.82432721676787
 11
882.29840780845575
 21
-61.82432721676787
  0
LINE
  8
_0-3_躯体と製品
  6
CONTINUOUS
 62
    2
 10
882.29840780845575
 20
-61.117220216767919
 11
882.29840780845575
 21
-61.82432721676787
  0
LINE
  8
_0-3_躯体と製品
  6
CONTINUOUS
 62
    2
 10
887.60170880845567
 20
-63.592094216767919
 11
886.18749580845565
 21
-65.006307216767766
  0
LINE
  8
_0-3_躯体と製品
  6
CONTINUOUS
 62
    2
 10
889.01592280845603
 20
-65.006307216767766
 11
887.60170880845567
 21
-63.592094216767919
  0
LINE
  8
_0-3_躯体と製品
  6
CONTINUOUS
 62
    5
 10
896.08699080845668
 20
-57.935240216767909
 11
891.13724280845668
 21
-62.884987216767911
  0
LINE
  8
_0-3_躯体と製品
  6
CONTINUOUS
 62
    2
 10
900.3296308084557
 20
-66.420521216767895
 11
899.62252380845598
 21
-65.713414216767887
  0
LINE
  8
_0-3_躯体と製品
  6
CONTINUOUS
 62
    2
 10
899.97607780845578
 20
-55.460366216767909
 11
901.74384480845697
 21
-53.692599216767917
  0
LINE
  8
_0-3_躯体と製品
  6
CONTINUOUS
 62
    2
 10
903.15805780845699
 20
-55.106813216767875
 11
900.3296308084557
 21
-57.935240216767909
  0
ARC
  8
_0-3_躯体と製品
  6
CONTINUOUS
 62
    2
 10
901.67313380845576
 20
-72.148086216767922
 40
11
 50
30.374710000000405
 51
59.625293999998462
  0
LINE
  8
_0-3_躯体と製品
  6
CONTINUOUS
 62
    2
 10
911.01820180845584
 20
-68.308564216767877
 11
910.22912580845673
 21
-69.248948216767872
  0
LINE
  8
_0-3_躯体と製品
  6
CONTINUOUS
 62
    2
 10
905.51265580845597
 20
-62.803018216767896
 11
904.57227180845689
 21
-63.592094216767919
  0
ARC
  8
_0-3_躯体と製品
  6
CONTINUOUS
 62
    2
 10
909.86913480845601
 20
-67.344383216767881
 40
1.5
 50
319.99999999999733
 51
30.374707000000477
  0
ARC
  8
_0-3_躯体と製品
  6
CONTINUOUS
 62
    2
 10
906.4768368084558
 20
-63.952085216768012
 40
1.5
 50
59.625292999999559
 51
130.0000000000025
  0
LINE
  8
_0-3_躯体と製品
  6
CONTINUOUS
 62
    2
 10
911.64333880845675
 20
-70.663162216767887
 11
903.15805780845699
 21
-62.177880216767903
  0
LINE
  8
_0-3_躯体と製品
  6
CONTINUOUS
 62
    2
 10
905.2793788084557
 20
-57.228133216767787
 11
898.20831080845596
 21
-64.299201216767869
  0
LINE
  8
_0-3_躯体と製品
  6
CONTINUOUS
 62
    2
 10
903.15805780845699
 20
-55.106813216767875
 11
905.2793788084557
 21
-57.228133216767787
  0
LINE
  8
_0-3_躯体と製品
  6
CONTINUOUS
 62
    2
 10
900.3296308084557
 20
-57.935240216767909
 11
897.85475780845604
 21
-55.460366216767909
  0
LINE
  8
_0-3_躯体と製品
  6
CONTINUOUS
 62
    2
 10
898.91541780845569
 20
-54.399706216767868
 11
897.85475780845604
 21
-55.460366216767909
  0
LINE
  8
_0-3_躯体と製品
  6
CONTINUOUS
 62
    2
 10
899.97607780845578
 20
-55.460366216767909
 11
898.91541780845569
 21
-54.399706216767868
  0
LINE
  8
_0-3_躯体と製品
  6
CONTINUOUS
 62
    2
 10
910.22912580845673
 20
-72.077375216768019
 11
901.74384480845697
 21
-63.592094216767919
  0
LINE
  8
_0-3_躯体と製品
  6
CONTINUOUS
 62
    2
 10
908.10780580845699
 20
-57.228133216767787
 11
903.15805780845699
 21
-62.177880216767903
  0
LINE
  8
_0-3_躯体と製品
  6
CONTINUOUS
 62
    2
 10
899.62252480845586
 20
-65.713414216767887
 11
898.20831080845596
 21
-64.299201216767869
  0
LINE
  8
_0-3_躯体と製品
  6
CONTINUOUS
 62
    2
 10
901.74384480845697
 20
-63.592094216767919
 11
899.62252480845586
 21
-65.713414216767887
  0
LINE
  8
_0-3_躯体と製品
  6
CONTINUOUS
 62
    2
 10
908.10780580845699
 20
-74.198695216767874
 11
909.52201880845701
 21
-75.612909216767889
  0
LINE
  8
_0-3_躯体と製品
  6
CONTINUOUS
 62
    2
 10
910.22912580845673
 20
-72.077375216768019
 11
908.10780580845699
 21
-74.198695216767874
  0
LINE
  8
_0-3_躯体と製品
  6
CONTINUOUS
 62
    2
 10
898.91541780845569
 20
-77.734229216767915
 11
906.94107980845706
 21
-69.708567216767904
  0
LINE
  8
_0-3_躯体と製品
  6
CONTINUOUS
 62
    2
 10
897.50120380845578
 20
-76.320016216767897
 11
898.91541780845569
 21
-77.734229216767915
  0
LINE
  8
_0-3_躯体と製品
  6
CONTINUOUS
 62
    2
 10
907.86031780845565
 20
-69.708567216767904
 11
906.44610480845608
 21
-69.708567216767904
  0
LINE
  8
_0-3_躯体と製品
  6
CONTINUOUS
 62
    2
 10
904.1126518084568
 20
-65.96090221676792
 11
904.1126518084568
 21
-67.375115216767881
  0
ARC
  8
_0-3_躯体と製品
  6
CONTINUOUS
 62
    2
 10
908.81491280845671
 20
-72.077375216768019
 40
1
 50
315.00000000000006
 51
45.00000000000005
  0
ARC
  8
_0-3_躯体と製品
  6
CONTINUOUS
 62
    2
 10
901.74384480845697
 20
-65.006307216767766
 40
1
 50
45
 51
135
  0
LINE
  8
_0-3_躯体と製品
  6
CONTINUOUS
 62
    2
 10
908.56742480845674
 20
-67.587247216767878
 11
901.49635680845608
 21
-74.658315216767903
  0
LINE
  8
_0-3_躯体と製品
  6
CONTINUOUS
 62
    2
 10
905.986484808456
 20
-65.006307216767766
 11
904.1126518084568
 21
-66.88014021676787
  0
LINE
  8
_0-3_躯体と製品
  6
CONTINUOUS
 62
    2
 10
908.81491280845671
 20
-67.83473421676797
 11
906.94107980845706
 21
-69.708567216767904
  0
LINE
  8
_0-3_躯体と製品
  6
CONTINUOUS
 62
    2
 10
906.23397280845688
 20
-65.253795216767912
 11
899.16290480845669
 21
-72.324863216767881
  0
LINE
  8
_0-3_躯体と製品
  6
CONTINUOUS
 62
    2
 10
901.03673780845679
 20
-64.299201216767869
 11
899.62252380845598
 21
-65.713414216767887
  0
LINE
  8
_0-3_躯体と製品
  6
CONTINUOUS
 62
    2
 10
909.52201880845701
 20
-72.784482216767913
 11
908.10780580845699
 21
-74.198696216767985
  0
LINE
  8
_0-3_躯体と製品
  6
CONTINUOUS
 62
    2
 10
907.4006988084559
 20
-73.49158921676792
 11
908.10780580845699
 21
-74.198696216767985
  0
LINE
  8
_0-3_躯体と製品
  6
CONTINUOUS
 62
    2
 10
907.86031780845565
 20
-69.708567216767904
 11
909.52201880845701
 21
-71.370268216767897
  0
LINE
  8
_0-3_躯体と製品
  6
CONTINUOUS
 62
    2
 10
904.1126518084568
 20
-65.96090221676792
 11
902.45095180845669
 21
-64.299201216767869
  0
LINE
  8
_0-3_躯体と製品
  6
CONTINUOUS
 62
    2
 10
901.74384480845697
 20
-74.905802216767881
 11
898.91541780845569
 21
-72.077375216768019
  0
LINE
  8
_0-3_躯体と製品
  6
CONTINUOUS
 62
    2
 10
918.92426780845585
 20
-111.88521621676796
 11
918.45673080845677
 21
-113.63008721676795
  0
ARC
  8
_0-3_躯体と製品
  6
CONTINUOUS
 62
    2
 10
976.69716380845671
 20
-151.27333521676792
 40
1
 50
315.00000000000006
 51
45.00000000000005
  0
LINE
  8
_0-3_躯体と製品
  6
CONTINUOUS
 62
    2
 10
927.19968780845579
 20
-79.148443216767873
 11
925.43192080845688
 21
-80.916209216767868
  0
LINE
  8
_0-3_躯体と製品
  6
CONTINUOUS
 62
    2
 10
916.59308680845675
 20
-65.713414216767887
 11
933.56364880845581
 21
-82.683976216767974
  0
LINE
  8
_0-3_躯体と製品
  6
CONTINUOUS
 62
    2
 10
928.61390180845706
 20
-80.562656216767891
 11
925.78547480845577
 21
-83.391083216767811
  0
LINE
  8
_0-3_躯体と製品
  6
CONTINUOUS
 62
    2
 10
932.14943480845682
 20
-84.098190216767875
 11
933.56364880845581
 21
-82.683976216767974
  0
LINE
  8
_0-3_躯体と製品
  6
CONTINUOUS
 62
    2
 10
925.43192080845688
 20
-80.916209216767868
 11
924.37126080845678
 21
-79.855549216767884
  0
LINE
  8
_0-3_躯体と製品
  6
CONTINUOUS
 62
    2
 10
923.31060080845668
 20
-80.916209216767868
 11
925.78547480845577
 21
-83.391083216767811
  0
LINE
  8
_0-3_躯体と製品
  6
CONTINUOUS
 62
    2
 10
924.37126080845678
 20
-79.855549216767884
 11
923.31060080845668
 21
-80.916209216767868
  0
LINE
  8
_0-3_躯体と製品
  6
CONTINUOUS
 62
    2
 10
932.14943480845682
 20
-84.098190216767875
 11
928.61390180845706
 21
-80.562656216767891
  0
ARC
  8
_0-3_躯体と製品
  6
CONTINUOUS
 62
    5
 10
980.52234680845709
 20
-108.92987421676787
 40
53.795599000000003
 50
150.79854200000102
 51
171.03410599999842
  0
LINE
  8
_0-3_躯体と製品
  6
CONTINUOUS
 62
    2
 10
917.86587880845696
 20
-89.896466216767919
 11
916.97359480845603
 21
-90.135553216767789
  0
LINE
  8
_0-3_躯体と製品
  6
CONTINUOUS
 62
    2
 10
918.29865280845593
 20
-88.968380216767969
 11
917.86587880845696
 21
-89.896466216767919
  0
ARC
  8
_0-3_躯体と製品
  6
CONTINUOUS
 62
    2
 10
912.35044580845693
 20
-89.755045216767769
 40
6
 50
7.5337820000019891
 51
45
  0
LINE
  8
_0-3_躯体と製品
  6
CONTINUOUS
 62
    2
 10
917.30019380845602
 20
-96.119006216767843
 11
918.71440780845592
 21
-94.704792216767942
  0
LINE
  8
_0-3_躯体と製品
  6
CONTINUOUS
 62
    2
 10
918.71440780845592
 20
-94.704792216767942
 11
920.12862080845593
 21
-96.119006216767843
  0
LINE
  8
_0-3_躯体と製品
  6
CONTINUOUS
 62
    2
 10
927.17887280845594
 20
-79.127627216767792
 11
927.17887280845594
 21
-79.155381216767921
  0
LINE
  8
_0-3_躯体と製品
  6
CONTINUOUS
 62
    2
 10
920.12862080845593
 20
-72.077375216768019
 11
927.19968780845579
 21
-79.148443216767873
  0
LINE
  8
_0-3_躯体と製品
  6
CONTINUOUS
 62
    2
 10
918.36085380845566
 20
-73.845142216767897
 11
920.12862080845593
 21
-72.077375216768019
  0
LINE
  8
_0-3_躯体と製品
  6
CONTINUOUS
 62
    2
 10
918.36085380845566
 20
-73.845142216767897
 11
919.42151380845576
 21
-74.905802216767881
  0
LINE
  8
_0-3_躯体と製品
  6
CONTINUOUS
 62
    2
 10
918.71440680845603
 20
-70.663162216767887
 11
916.59308680845675
 21
-68.541841216767807
  0
LINE
  8
_0-3_躯体と製品
  6
CONTINUOUS
 62
    2
 10
919.42151380845576
 20
-74.905802216767881
 11
918.36085380845566
 21
-75.966462216767809
  0
ARC
  8
_0-3_躯体と製品
  6
CONTINUOUS
 62
    5
 10
894.88324980845596
 20
70.367590783232004
 40
110.713684
 50
260.7320299999999
 51
268.02042500000277
  0
LINE
  8
_0-3_躯体と製品
  6
CONTINUOUS
 62
    2
 10
857.48653680845587
 20
-52.699341216767891
 11
859.26252080845666
 21
-52.223468216767913
  0
LINE
  8
_0-3_躯体と製品
  6
CONTINUOUS
 62
    2
 10
850.40260480845677
 20
-50.586616216767879
 11
847.86230780845585
 21
-41.106098216767919
  0
LINE
  8
_0-3_躯体と製品
  6
CONTINUOUS
 62
    2
 10
894.69359280845606
 20
-46.642347216767917
 11
894.66583880845678
 21
-46.642347216767917
  0
LINE
  8
_0-3_躯体と製品
  6
CONTINUOUS
 62
    2
 10
889.72302980845666
 20
-41.671785216767887
 11
893.25856380845585
 21
-45.207318216767874
  0
LINE
  8
_0-3_躯体と製品
  6
CONTINUOUS
 62
    2
 10
892.90501080845593
 20
-48.389299216767881
 11
893.96567080845603
 21
-49.449959216767979
  0
LINE
  8
_0-3_躯体と製品
  6
CONTINUOUS
 62
    2
 10
894.67277680845586
 20
-46.621532216767775
 11
892.90501080845593
 21
-48.389299216767881
  0
LINE
  8
_0-3_躯体と製品
  6
CONTINUOUS
 62
    2
 10
893.25856380845585
 20
-45.207318216767874
 11
890.43013680845593
 21
-48.035745216767907
  0
LINE
  8
_0-3_躯体と製品
  6
CONTINUOUS
 62
    2
 10
893.96567080845603
 20
-49.449959216767979
 11
892.90501080845593
 21
-50.510619216767907
  0
LINE
  8
_0-3_躯体と製品
  6
CONTINUOUS
 62
    2
 10
890.43013680845593
 20
-48.035745216767907
 11
892.90501080845593
 21
-50.510619216767907
  0
ARC
  8
_0-3_躯体と製品
  6
CONTINUOUS
 62
    5
 10
895.37988380845604
 20
-52.985493216767907
 40
4.5
 50
135
 51
176.8103149999971
  0
LINE
  8
_0-3_躯体と製品
  6
CONTINUOUS
 62
    2
 10
889.72302980845666
 20
-41.671785216767887
 11
891.13724380845701
 21
-40.257571216767872
  0
LINE
  8
_0-3_躯体と製品
  6
CONTINUOUS
 62
    5
 10
881.16738980845571
 20
-42.931825216767891
 11
881.08357580845563
 21
-42.931825216767891
  0
LINE
  8
_0-3_躯体と製品
  6
CONTINUOUS
 62
    2
 10
375.43020280845599
 20
424.38578578323211
 11
384.91072080845674
 21
421.84548878323199
  0
LINE
  8
_0-3_躯体と製品
  6
CONTINUOUS
 62
    2
 10
380.5319458084557
 20
405.44589878323211
 11
371.05142780845586
 21
407.98619578323201
  0
CIRCLE
  8
_0-3_躯体と製品
  6
CONTINUOUS
 62
    2
 10
377.97496980845585
 20
414.92194678323199
 40
8.4913660000000011
  0
LINE
  8
_0-3_躯体と製品
  6
CONTINUOUS
 62
    7
 10
388.58767580845574
 20
425.52244378323212
 11
339.09020180845596
 21
475.01991878323201
  0
ARC
  8
_0-3_躯体と製品
  6
CONTINUOUS
 62
    7
 10
377.98107480845579
 20
414.91584178323217
 40
15
 50
225
 51
45
  0
LINE
  8
_0-3_躯体と製品
  6
PLINE3
 62
    2
 10
387.23937580845563
 20
424.17414378323213
 11
368.64175580845586
 21
405.57652378323212
  0
LINE
  8
_0-3_躯体と製品
  6
CONTINUOUS
 62
    2
 10
334.84756080845591
 20
465.12042378323213
 11
287.32998480845595
 21
512.63799878323209
  0
LINE
  8
_0-3_躯体と製品
  6
CONTINUOUS
 62
    2
 10
280.25891780845586
 20
505.56693178323223
 11
327.77649280845594
 21
458.04935578323204
  0
LINE
  8
_0-3_躯体と製品
  6
CONTINUOUS
 62
    2
 10
344.03994880845585
 20
479.96966578323213
 11
328.83715280845581
 21
464.7668697832321
  0
LINE
  8
_0-3_躯体と製品
  6
CONTINUOUS
 62
    2
 10
255.65160180845578
 20
487.74784078323216
 11
276.51125180845588
 21
466.88819078323218
  0
LINE
  8
_0-3_躯体と製品
  6
CONTINUOUS
 62
    2
 10
303.73486280845577
 20
445.32143378323212
 11
337.67598780845583
 21
479.26255878323207
  0
LINE
  8
_0-3_躯体と製品
  6
CONTINUOUS
 62
    2
 10
285.35008580845579
 20
463.70620978323211
 11
266.96530980845591
 21
482.0909857832321
  0
LINE
  8
_0-3_躯体と製品
  6
CONTINUOUS
 62
    2
 10
280.96602380845593
 20
506.27403778323207
 11
328.48359980845589
 21
458.756462783232
  0
LINE
  8
_0-3_躯体と製品
  6
CONTINUOUS
 62
    2
 10
286.62287880845588
 20
511.93089278323203
 11
334.14045380845596
 21
464.41331678323206
  0
LINE
  8
_0-3_躯体と製品
  6
PLINE3
 62
    2
 10
334.26362280845592
 20
512.61974678323202
 11
272.13708880845593
 21
450.49321278323202
  0
LINE
  8
_0-3_躯体と製品
  6
CONTINUOUS
 62
    2
 10
285.35008580845579
 20
463.70620978323211
 11
303.73486280845577
 21
445.32143378323212
  0
LINE
  8
_0-3_躯体と製品
  6
CONTINUOUS
 62
    2
 10
309.39171680845584
 20
434.00772478323211
 11
288.53206680845597
 21
454.86737478323209
  0
LINE
  8
_0-3_躯体と製品
  6
CONTINUOUS
 62
    2
 10
287.82495980845579
 20
455.57448178323216
 11
282.8752128084559
 21
460.52422978323204
  0
LINE
  8
_0-3_躯体と製品
  6
CONTINUOUS
 62
    2
 10
277.21835780845595
 20
466.18108378323211
 11
282.16810580845595
 21
461.23133578323211
  0
LINE
  8
_0-3_躯体と製品
  6
CONTINUOUS
 62
    2
 10
277.21835780845595
 20
466.18108378323211
 11
277.21835780845595
 21
466.88819078323218
  0
LINE
  8
_0-3_躯体と製品
  6
CONTINUOUS
 62
    2
 10
276.51125180845588
 20
466.88819078323218
 11
277.21835780845595
 21
466.88819078323218
  0
LINE
  8
_0-3_躯体と製品
  6
CONTINUOUS
 62
    2
 10
282.8752128084559
 20
460.52422978323204
 11
282.8752128084559
 21
461.23133578323211
  0
LINE
  8
_0-3_躯体と製品
  6
CONTINUOUS
 62
    2
 10
282.16810580845595
 20
461.23133578323211
 11
282.8752128084559
 21
461.23133578323211
  0
LINE
  8
_0-3_躯体と製品
  6
CONTINUOUS
 62
    2
 10
288.53206680845597
 20
454.86737478323209
 11
288.53206680845597
 21
455.57448178323216
  0
LINE
  8
_0-3_躯体と製品
  6
CONTINUOUS
 62
    2
 10
287.82495980845579
 20
455.57448178323216
 11
288.53206680845597
 21
455.57448178323216
  0
LINE
  8
_0-3_躯体と製品
  6
CONTINUOUS
 62
    2
 10
368.51113080845585
 20
417.46671378323197
 11
375.43020280845599
 21
424.38578578323211
  0
LINE
  8
_0-3_躯体と製品
  6
CONTINUOUS
 62
    7
 10
367.37447280845595
 20
404.3092407832321
 11
317.87699780845583
 21
453.80671478323211
  0
LINE
  8
_0-3_躯体と製品
  6
CONTINUOUS
 62
    2
 10
371.05142780845586
 20
407.98619578323201
 11
368.51113080845585
 21
417.46671378323197
  0
LINE
  8
_0-3_躯体と製品
  6
CONTINUOUS
 62
    2
 10
342.01699980845592
 20
457.95098478323212
 11
336.96888080845679
 21
462.99910278323205
  0
ARC
  8
_0-3_躯体と製品
  6
CONTINUOUS
 62
    2
 10
328.48146580845582
 20
464.41545078323213
 40
15
 50
315.00000000000006
 51
334.47122099999933
  0
LINE
  8
_0-3_躯体と製品
  6
CONTINUOUS
 62
    2
 10
344.08731180845575
 20
458.80809378323204
 11
334.08882280845592
 21
448.80960478323198
  0
LINE
  8
_0-3_躯体と製品
  6
CONTINUOUS
 62
    2
 10
340.50441480845575
 20
466.53463678323203
 11
345.50907980845682
 21
461.52997178323199
  0
LINE
  8
_0-3_躯体と製品
  6
CONTINUOUS
 62
    2
 10
340.22685980845586
 20
445.75098478323207
 11
347.14593180845577
 21
452.6700567832321
  0
LINE
  8
_0-3_躯体と製品
  6
CONTINUOUS
 62
    2
 10
342.76715680845587
 20
436.27046678323211
 11
340.22685980845586
 21
445.75098478323207
  0
CIRCLE
  8
_0-3_躯体と製品
  6
CONTINUOUS
 62
    2
 10
349.69069780845575
 20
443.20621878323209
 40
8.4913660000000011
  0
LINE
  8
_0-3_躯体と製品
  6
PLINE3
 62
    2
 10
358.95510480845587
 20
452.45841478323212
 11
340.35748480845587
 21
433.860794783232
  0
LINE
  8
_0-3_躯体と製品
  6
CONTINUOUS
 62
    7
 10
341.91862880845588
 20
472.1914917832321
 11
320.70542480845597
 21
450.97828778323196
  0
LINE
  8
_0-3_躯体と製品
  6
CONTINUOUS
 62
    2
 10
341.91649480845581
 20
456.6372767832321
 11
343.19142080845586
 21
455.36234978323216
  0
LINE
  8
_0-3_躯体と製品
  6
CONTINUOUS
 62
    2
 10
336.12035280845589
 20
449.70549578323198
 11
343.19142080845586
 21
456.77656378323195
  0
LINE
  8
_0-3_躯体と製品
  6
CONTINUOUS
 62
    2
 10
343.19142080845586
 20
455.36234978323216
 11
337.53456680845579
 21
449.70549578323198
  0
ARC
  8
_0-3_躯体と製品
  6
CONTINUOUS
 62
    2
 10
331.42967980845583
 20
451.12396278323206
 40
3.524710999999999
 50
318.8402999999991
 51
356.02974799999998
  0
LINE
  8
_0-3_躯体と製品
  6
CONTINUOUS
 62
    2
 10
331.36694480845586
 20
447.38783678323205
 11
326.36227980845592
 21
452.39250178323209
  0
LINE
  8
_0-3_躯体と製品
  6
CONTINUOUS
 62
    2
 10
321.05897880845578
 20
456.98869578323206
 11
305.14907580845579
 21
441.07879278323207
  0
LINE
  8
_0-3_躯体と製品
  6
CONTINUOUS
 62
    2
 10
315.75567780845677
 20
440.37168578323201
 11
309.39171680845584
 21
434.00772478323211
  0
LINE
  8
_0-3_躯体と製品
  6
CONTINUOUS
 62
    2
 10
314.34146380845596
 20
441.78589978323214
 11
315.75567780845677
 21
440.37168578323201
  0
LINE
  8
_0-3_躯体と製品
  6
CONTINUOUS
 62
    2
 10
309.39171680845584
 20
436.83615178323203
 11
314.34146380845596
 21
441.78589978323214
  0
LINE
  8
_0-3_躯体と製品
  6
CONTINUOUS
 62
    2
 10
305.14907580845579
 20
441.07879278323207
 11
309.39171680845584
 21
436.83615178323203
  0
LINE
  8
_0-3_躯体と製品
  6
CONTINUOUS
 62
    2
 10
333.61012380845591
 20
448.32663778323206
 11
333.14292780845585
 21
447.86370978323214
  0
LINE
  8
_0-3_躯体と製品
  6
CONTINUOUS
 62
    2
 10
333.61012380845591
 20
448.32663778323206
 11
334.09020180845596
 21
448.80671478323211
  0
LINE
  8
_0-3_躯体と製品
  6
CONTINUOUS
 62
    2
 10
333.61012380845591
 20
448.32663778323206
 11
333.14292780845585
 21
447.86370978323214
  0
LINE
  8
_0-3_躯体と製品
  6
CONTINUOUS
 62
    2
 10
333.61012380845591
 20
448.32663778323206
 11
334.09020180845596
 21
448.80671478323211
  0
LINE
  8
_0-3_躯体と製品
  6
CONTINUOUS
 62
    2
 10
333.61012380845591
 20
448.32663778323206
 11
333.14292780845585
 21
447.86370978323214
  0
LINE
  8
_0-3_躯体と製品
  6
CONTINUOUS
 62
    2
 10
333.14292780845585
 20
447.86370978323214
 11
331.36694480845586
 21
447.38783678323205
  0
LINE
  8
_0-3_躯体と製品
  6
CONTINUOUS
 62
    2
 10
333.61012380845591
 20
448.32663778323206
 11
334.09020180845596
 21
448.80671478323211
  0
LINE
  8
_0-3_躯体と製品
  6
CONTINUOUS
 62
    2
 10
328.13004680845597
 20
464.05976378323203
 11
321.76608580845595
 21
457.69580278323201
  0
LINE
  8
_0-3_躯体と製品
  6
CONTINUOUS
 62
    2
 10
321.05897880845578
 20
456.98869578323206
 11
321.05897880845578
 21
457.69580278323201
  0
LINE
  8
_0-3_躯体と製品
  6
CONTINUOUS
 62
    2
 10
321.76608580845595
 20
457.69580278323201
 11
321.05897880845578
 21
457.69580278323201
  0
LINE
  8
_0-3_躯体と製品
  6
CONTINUOUS
 62
    2
 10
326.78654380845592
 20
452.81676578323209
 11
324.66522280845584
 21
454.93808578323205
  0
LINE
  8
_0-3_躯体と製品
  6
CONTINUOUS
 62
    2
 10
337.95883080845579
 20
468.23169378323212
 11
340.08015080845576
 21
466.11037278323204
  0
LINE
  8
_0-3_躯体と製品
  6
CONTINUOUS
 62
    2
 10
326.78654380845592
 20
452.81676578323209
 11
324.66522280845584
 21
454.93808578323205
  0
LINE
  8
_0-3_躯体と製品
  6
CONTINUOUS
 62
    2
 10
337.95883080845579
 20
468.23169378323212
 11
340.08015080845576
 21
466.11037278323204
  0
LINE
  8
_0-3_躯体と製品
  6
CONTINUOUS
 62
    2
 10
326.78654380845592
 20
452.81676578323209
 11
324.66522280845584
 21
454.93808578323205
  0
LINE
  8
_0-3_躯体と製品
  6
CONTINUOUS
 62
    2
 10
337.95883080845579
 20
468.23169378323212
 11
340.08015080845576
 21
466.11037278323204
  0
ARC
  8
_0-3_躯体と製品
  6
CONTINUOUS
 62
    2
 10
328.48146580845582
 20
464.41545078323213
 40
15
 50
295.52877900000055
 51
315.00000000000006
  0
LINE
  8
_0-3_躯体と製品
  6
CONTINUOUS
 62
    2
 10
336.12035280845589
 20
449.70549578323198
 11
335.55253380845579
 21
450.27331578323219
  0
LINE
  8
_0-3_躯体と製品
  6
CONTINUOUS
 62
    2
 10
334.94593180845595
 20
450.87991678323215
 11
329.89781380845693
 21
455.92803578323208
  0
LINE
  8
_0-3_躯体と製品
  6
CONTINUOUS
 62
    2
 10
340.50441480845575
 20
466.53463678323203
 11
326.36227980845592
 21
452.39250178323209
  0
LINE
  8
_0-3_躯体と製品
  6
CONTINUOUS
 62
    2
 10
331.31202680845581
 20
461.58488978323214
 11
331.31202680845581
 21
457.34224878323209
  0
LINE
  8
_0-3_躯体と製品
  6
CONTINUOUS
 62
    2
 10
333.43334680845578
 20
463.70620978323211
 11
333.43334680845578
 21
459.46356878323206
  0
LINE
  8
_0-3_躯体と製品
  6
CONTINUOUS
 62
    2
 10
328.13004680845597
 20
464.05976378323203
 11
328.13004680845597
 21
464.7668697832321
  0
LINE
  8
_0-3_躯体と製品
  6
CONTINUOUS
 62
    2
 10
328.83715280845581
 20
464.7668697832321
 11
328.13004680845597
 21
464.7668697832321
  0
LINE
  8
_0-3_躯体と製品
  6
CONTINUOUS
 62
    2
 10
336.25963980845586
 20
450.98042178323203
 11
337.53456680845579
 21
449.70549578323198
  0
LINE
  8
_0-3_躯体と製品
  6
CONTINUOUS
 62
    2
 10
337.53456680845579
 20
449.70549578323198
 11
336.12035280845589
 21
449.70549578323198
  0
LINE
  8
_0-3_躯体と製品
  6
CONTINUOUS
 62
    2
 10
356.62644980845585
 20
450.12975978323209
 11
359.16674680845585
 21
440.64924178323213
  0
LINE
  8
_0-3_躯体と製品
  6
CONTINUOUS
 62
    2
 10
352.24767480845594
 20
433.7301697832321
 11
342.76715680845587
 21
436.27046678323211
  0
LINE
  8
_0-3_躯体と製品
  6
CONTINUOUS
 62
    2
 10
359.16674680845585
 20
440.64924178323213
 11
352.24767480845594
 21
433.7301697832321
  0
LINE
  8
_0-3_躯体と製品
  6
CONTINUOUS
 62
    2
 10
344.11276580845583
 20
458.82927878323198
 11
345.09131280845691
 21
459.80782678323203
  0
LINE
  8
_0-3_躯体と製品
  6
CONTINUOUS
 62
    2
 10
344.11276580845583
 20
458.82927878323198
 11
345.09131280845691
 21
459.80782678323203
  0
LINE
  8
_0-3_躯体と製品
  6
CONTINUOUS
 62
    2
 10
343.19142080845586
 20
456.77656378323195
 11
342.62360080845588
 21
457.34438278323216
  0
LINE
  8
_0-3_躯体と製品
  6
CONTINUOUS
 62
    2
 10
345.03320680845582
 20
459.75398878323199
 11
345.50907980845682
 21
461.52997178323199
  0
ARC
  8
_0-3_躯体と製品
  6
CONTINUOUS
 62
    2
 10
341.7729538084559
 20
461.46723678323201
 40
3.524710999999999
 50
273.97025199999979
 51
311.1597000000009
  0
LINE
  8
_0-3_躯体と製品
  6
CONTINUOUS
 62
    2
 10
344.11276580845583
 20
458.82927878323198
 11
345.09131280845691
 21
459.80782678323203
  0
LINE
  8
_0-3_躯体と製品
  6
CONTINUOUS
 62
    2
 10
347.14593180845577
 20
452.6700567832321
 11
356.62644980845585
 21
450.12975978323209
  0
LINE
  8
_0-3_躯体と製品
  6
CONTINUOUS
 62
    2
 10
343.19142080845586
 20
456.77656378323195
 11
343.19142080845586
 21
455.36234978323216
  0
LINE
  8
_0-3_躯体と製品
  6
CONTINUOUS
 62
    2
 10
319.29121180845596
 20
497.64733578323205
 11
300.90643580845585
 21
516.03211178323215
  0
LINE
  8
_0-3_躯体と製品
  6
CONTINUOUS
 62
    2
 10
301.61354180845592
 20
519.56764578323202
 11
310.09882380845579
 21
511.08236478323226
  0
LINE
  8
_0-3_躯体と製品
  6
CONTINUOUS
 62
    7
 10
273.1878498084568
 20
498.49586378323204
 11
249.4290618084558
 21
498.49586378323204
  0
LINE
  8
_0-3_躯体と製品
  6
CONTINUOUS
 62
    7
 10
248.10357780845584
 20
495.29586378323199
 11
274.51333280845597
 21
495.29586378323199
  0
LINE
  8
_0-3_躯体と製品
  6
CONTINUOUS
 62
    2
 10
278.63257180845585
 20
499.4151027832321
 11
262.72266880845586
 21
483.50519978323211
  0
LINE
  8
_0-3_躯体と製品
  6
CONTINUOUS
 62
    7
 10
249.4290618084558
 20
498.49586378323204
 11
228.2158578084568
 21
519.70906678323195
  0
LINE
  8
_0-3_躯体と製品
  6
CONTINUOUS
 62
    2
 10
262.0155628084558
 20
494.11180178323207
 11
255.65160180845578
 21
487.74784078323216
  0
LINE
  8
_0-3_躯体と製品
  6
CONTINUOUS
 62
    2
 10
263.42977580845582
 20
492.69758778323205
 11
262.0155628084558
 21
494.11180178323207
  0
LINE
  8
_0-3_躯体と製品
  6
CONTINUOUS
 62
    2
 10
258.48002880845593
 20
487.74784078323216
 11
263.42977580845582
 21
492.69758778323205
  0
LINE
  8
_0-3_躯体と製品
  6
CONTINUOUS
 62
    2
 10
262.72266880845586
 20
483.50519978323211
 11
258.48002880845593
 21
487.74784078323216
  0
LINE
  8
_0-3_躯体と製品
  6
CONTINUOUS
 62
    7
 10
299.35080080845592
 20
524.65881478323206
 11
273.1878498084568
 21
498.49586378323204
  0
LINE
  8
_0-3_躯体と製品
  6
CONTINUOUS
 62
    2
 10
276.72338380845576
 20
502.03139778323202
 11
271.70519680845678
 21
507.04958478323204
  0
LINE
  8
_0-3_躯体と製品
  6
CONTINUOUS
 62
    2
 10
285.70363980845582
 20
506.48616978323196
 11
279.3396788084558
 21
500.12220878323205
  0
LINE
  8
_0-3_躯体と製品
  6
CONTINUOUS
 62
    2
 10
300.90643580845585
 20
516.03211178323215
 11
266.96530980845591
 21
482.0909857832321
  0
LINE
  8
_0-3_躯体と製品
  6
CONTINUOUS
 62
    2
 10
278.63257180845585
 20
499.4151027832321
 11
279.3396788084558
 21
499.4151027832321
  0
LINE
  8
_0-3_躯体と製品
  6
CONTINUOUS
 62
    2
 10
279.3396788084558
 20
500.12220878323205
 11
279.3396788084558
 21
499.4151027832321
  0
LINE
  8
_0-3_躯体と製品
  6
CONTINUOUS
 62
    2
 10
287.32998480845595
 20
512.63799878323209
 11
282.27973280845686
 21
517.68825178323198
  0
LINE
  8
_0-3_躯体と製品
  6
CONTINUOUS
 62
    2
 10
285.84733180845592
 20
521.19171978323197
 11
284.10246080845582
 21
520.72418278323198
  0
LINE
  8
_0-3_躯体と製品
  6
CONTINUOUS
 62
    2
 10
280.25891780845586
 20
505.56693178323223
 11
275.20866480845575
 21
510.61718378323201
  0
ARC
  8
_0-3_躯体と製品
  6
CONTINUOUS
 62
    2
 10
275.5976098084559
 20
506.81703678323208
 40
3.819999999999999
 50
95.843867999997087
 51
135
  0
ARC
  8
_0-3_躯体と製品
  6
CONTINUOUS
 62
    2
 10
288.74419880845585
 20
504.15271778323211
 40
15
 50
135
 51
154.4712209999993
  0
LINE
  8
_0-3_躯体と製品
  6
CONTINUOUS
 62
    2
 10
272.17273380845586
 20
508.79445578323191
 11
278.13759680845578
 21
514.75931978323194
  0
LINE
  8
_0-3_躯体と製品
  6
CONTINUOUS
 62
    2
 10
271.70519680845678
 20
507.04958478323204
 11
272.17273380845586
 21
508.79445578323191
  0
ARC
  8
_0-3_躯体と製品
  6
CONTINUOUS
 62
    2
 10
286.07987980845587
 20
517.29930678323205
 40
3.819999999999999
 50
135
 51
174.15613200000291
  0
ARC
  8
_0-3_躯体と製品
  6
CONTINUOUS
 62
    2
 10
288.74419880845585
 20
504.15271778323211
 40
15
 50
115.52877900000051
 51
135
  0
LINE
  8
_0-3_躯体と製品
  6
CONTINUOUS
 62
    2
 10
284.10246080845582
 20
520.72418278323198
 11
278.13759680845578
 21
514.75931978323194
  0
LINE
  8
_0-3_躯体と製品
  6
CONTINUOUS
 62
    2
 10
290.86551880845582
 20
516.17353278323219
 11
285.84733180845592
 21
521.19171978323197
  0
LINE
  8
_0-3_躯体と製品
  6
CONTINUOUS
 62
    2
 10
285.70363980845582
 20
506.48616978323196
 11
286.41074680845577
 21
506.48616978323196
  0
LINE
  8
_0-3_躯体と製品
  6
CONTINUOUS
 62
    2
 10
301.61354180845592
 20
519.56764578323202
 11
303.02775580845582
 21
520.98185878323193
  0
LINE
  8
_0-3_躯体と製品
  6
CONTINUOUS
 62
    2
 10
286.41074680845577
 20
507.19327678323214
 11
286.41074680845577
 21
506.48616978323196
  0
LINE
  8
_0-3_躯体と製品
  6
CONTINUOUS
 62
    2
 10
301.61354180845592
 20
522.39607278323183
 11
286.41074680845577
 21
507.19327678323214
  0
LINE
  8
_0-3_躯体と製品
  6
CONTINUOUS
 62
    2
 10
303.02775580845582
 20
520.98185878323193
 11
301.61354180845592
 21
522.39607278323183
  0
LINE
  8
_0-3_躯体と製品
  6
CONTINUOUS
 62
    7
 10
299.35080080845592
 20
524.65881478323206
 11
301.61354180845592
 21
522.39607278323183
  0
LINE
  8
_0-3_躯体と製品
  6
CONTINUOUS
 62
    5
 10
342.6953218084559
 20
495.62602578323208
 11
343.3337348084558
 21
495.0768007832321
  0
LINE
  8
_0-3_躯体と製品
  6
CONTINUOUS
 62
    5
 10
343.3337348084558
 20
495.0768007832321
 11
344.0149358084559
 21
494.59227378323214
  0
LINE
  8
_0-3_躯体と製品
  6
CONTINUOUS
 62
    5
 10
344.0149358084559
 20
494.59227378323214
 11
344.72818080845695
 21
494.18008778323201
  0
LINE
  8
_0-3_躯体と製品
  6
CONTINUOUS
 62
    5
 10
344.72818080845695
 20
494.18008778323201
 11
345.46222380845597
 21
493.84674178323212
  0
LINE
  8
_0-3_躯体と製品
  6
CONTINUOUS
 62
    5
 10
345.46222380845597
 20
493.84674178323212
 11
346.20548580845593
 21
493.59749278323204
  0
LINE
  8
_0-3_躯体と製品
  6
CONTINUOUS
 62
    5
 10
346.20548580845593
 20
493.59749278323204
 11
346.94624680845595
 21
493.43627278323197
  0
LINE
  8
_0-3_躯体と製品
  6
CONTINUOUS
 62
    5
 10
346.94624680845595
 20
493.43627278323197
 11
347.67282480845597
 21
493.36562378323219
  0
LINE
  8
_0-3_躯体と製品
  6
CONTINUOUS
 62
    5
 10
347.67282480845597
 20
493.36562378323219
 11
348.37375980845582
 21
493.38665878323206
  0
LINE
  8
_0-3_躯体と製品
  6
CONTINUOUS
 62
    5
 10
348.37375980845582
 20
493.38665878323206
 11
349.03799880845577
 21
493.49904778323196
  0
LINE
  8
_0-3_躯体と製品
  6
CONTINUOUS
 62
    5
 10
349.03799880845577
 20
493.49904778323196
 11
349.6550658084559
 21
493.70101678323215
  0
LINE
  8
_0-3_躯体と製品
  6
CONTINUOUS
 62
    5
 10
349.6550658084559
 20
493.70101678323215
 11
350.21522880845578
 21
493.98938278323214
  0
LINE
  8
_0-3_躯体と製品
  6
CONTINUOUS
 62
    5
 10
350.21522880845578
 20
493.98938278323214
 11
350.70965480845689
 21
494.35959578323207
  0
LINE
  8
_0-3_躯体と製品
  6
CONTINUOUS
 62
    5
 10
350.70965480845689
 20
494.35959578323207
 11
351.13054580845596
 21
494.8058177832321
  0
LINE
  8
_0-3_躯体と製品
  6
CONTINUOUS
 62
    5
 10
351.13054580845596
 20
494.8058177832321
 11
351.47126480845577
 21
495.32101278323205
  0
LINE
  8
_0-3_躯体と製品
  6
CONTINUOUS
 62
    5
 10
351.47126480845577
 20
495.32101278323205
 11
351.72643780845578
 21
495.89705478323197
  0
LINE
  8
_0-3_躯体と製品
  6
CONTINUOUS
 62
    5
 10
351.72643780845578
 20
495.89705478323197
 11
351.89203980845582
 21
496.52485978323205
  0
LINE
  8
_0-3_躯体と製品
  6
CONTINUOUS
 62
    5
 10
351.89203980845582
 20
496.52485978323205
 11
351.96546080845678
 21
497.19452678323205
  0
LINE
  8
_0-3_躯体と製品
  6
CONTINUOUS
 62
    5
 10
351.96546080845678
 20
497.19452678323205
 11
351.9455418084558
 21
497.89549478323204
  0
LINE
  8
_0-3_躯体と製品
  6
CONTINUOUS
 62
    5
 10
351.9455418084558
 20
497.89549478323204
 11
351.83259780845583
 21
498.61670878323207
  0
LINE
  8
_0-3_躯体と製品
  6
CONTINUOUS
 62
    5
 10
351.83259780845583
 20
498.61670878323207
 11
351.62840880845579
 21
499.3467947832321
  0
LINE
  8
_0-3_躯体と製品
  6
CONTINUOUS
 62
    5
 10
351.62840880845579
 20
499.3467947832321
 11
351.33619580845584
 21
500.0742397832322
  0
LINE
  8
_0-3_躯体と製品
  6
CONTINUOUS
 62
    5
 10
351.33619580845584
 20
500.0742397832322
 11
350.96056680845595
 21
500.78757078323201
  0
LINE
  8
_0-3_躯体と製品
  6
CONTINUOUS
 62
    5
 10
350.96056680845595
 20
500.78757078323201
 11
350.50744580845594
 21
501.47553778323197
  0
LINE
  8
_0-3_躯体と製品
  6
CONTINUOUS
 62
    5
 10
350.50744580845594
 20
501.47553778323197
 11
349.98397980845675
 21
502.12729178323207
  0
LINE
  8
_0-3_躯体と製品
  6
CONTINUOUS
 62
    5
 10
349.98397980845675
 20
502.12729178323207
 11
349.39842180845585
 21
502.73255378323199
  0
LINE
  8
_0-3_躯体と製品
  6
CONTINUOUS
 62
    5
 10
349.39842180845585
 20
502.73255378323199
 11
348.76000880845595
 21
503.28177878323208
  0
LINE
  8
_0-3_躯体と製品
  6
CONTINUOUS
 62
    5
 10
348.76000880845595
 20
503.28177878323208
 11
348.07880780845585
 21
503.76630478323204
  0
LINE
  8
_0-3_躯体と製品
  6
CONTINUOUS
 62
    5
 10
348.07880780845585
 20
503.76630478323204
 11
347.36556280845593
 21
504.17849178323206
  0
LINE
  8
_0-3_躯体と製品
  6
CONTINUOUS
 62
    5
 10
347.36556280845593
 20
504.17849178323206
 11
346.63151980845578
 21
504.51183778323207
  0
LINE
  8
_0-3_躯体と製品
  6
CONTINUOUS
 62
    5
 10
346.63151980845578
 20
504.51183778323207
 11
345.88825780845582
 21
504.76108578323203
  0
LINE
  8
_0-3_躯体と製品
  6
CONTINUOUS
 62
    5
 10
345.88825780845582
 20
504.76108578323203
 11
345.1474968084558
 21
504.92230578323199
  0
LINE
  8
_0-3_躯体と製品
  6
CONTINUOUS
 62
    5
 10
345.1474968084558
 20
504.92230578323199
 11
344.42091880845578
 21
504.99295578323199
  0
LINE
  8
_0-3_躯体と製品
  6
CONTINUOUS
 62
    5
 10
344.42091880845578
 20
504.99295578323199
 11
343.71998380845594
 21
504.97191978323201
  0
LINE
  8
_0-3_躯体と製品
  6
CONTINUOUS
 62
    5
 10
343.71998380845594
 20
504.97191978323201
 11
343.05574480845576
 21
504.859530783232
  0
LINE
  8
_0-3_躯体と製品
  6
CONTINUOUS
 62
    5
 10
343.05574480845576
 20
504.859530783232
 11
342.43867880845596
 21
504.65756178323204
  0
LINE
  8
_0-3_躯体と製品
  6
CONTINUOUS
 62
    5
 10
342.43867880845596
 20
504.65756178323204
 11
341.87851480845688
 21
504.36919678323204
  0
LINE
  8
_0-3_躯体と製品
  6
CONTINUOUS
 62
    5
 10
341.87851480845688
 20
504.36919678323204
 11
341.38408880845577
 21
503.99898378323212
  0
LINE
  8
_0-3_躯体と製品
  6
CONTINUOUS
 62
    5
 10
341.38408880845577
 20
503.99898378323212
 11
340.96319780845579
 21
503.55276078323209
  0
LINE
  8
_0-3_躯体と製品
  6
CONTINUOUS
 62
    5
 10
340.96319780845579
 20
503.55276078323209
 11
340.62247880845575
 21
503.03756578323214
  0
LINE
  8
_0-3_躯体と製品
  6
CONTINUOUS
 62
    5
 10
340.62247880845575
 20
503.03756578323214
 11
340.36730580845597
 21
502.46152378323211
  0
LINE
  8
_0-3_躯体と製品
  6
CONTINUOUS
 62
    5
 10
340.36730580845597
 20
502.46152378323211
 11
340.20170380845593
 21
501.83371878323203
  0
LINE
  8
_0-3_躯体と製品
  6
CONTINUOUS
 62
    5
 10
340.20170380845593
 20
501.83371878323203
 11
340.12828280845588
 21
501.16405178323203
  0
LINE
  8
_0-3_躯体と製品
  6
CONTINUOUS
 62
    5
 10
340.12828280845588
 20
501.16405178323203
 11
340.14820180845595
 21
500.46308378323215
  0
LINE
  8
_0-3_躯体と製品
  6
CONTINUOUS
 62
    5
 10
340.14820180845595
 20
500.46308378323215
 11
340.26114680845581
 21
499.741869783232
  0
LINE
  8
_0-3_躯体と製品
  6
CONTINUOUS
 62
    5
 10
340.26114680845581
 20
499.741869783232
 11
340.46533480845596
 21
499.01178378323209
  0
LINE
  8
_0-3_躯体と製品
  6
CONTINUOUS
 62
    5
 10
340.46533480845596
 20
499.01178378323209
 11
340.75754780845591
 21
498.28433878323199
  0
LINE
  8
_0-3_躯体と製品
  6
CONTINUOUS
 62
    5
 10
340.75754780845591
 20
498.28433878323199
 11
341.1331768084558
 21
497.57100878323206
  0
LINE
  8
_0-3_躯体と製品
  6
CONTINUOUS
 62
    5
 10
341.1331768084558
 20
497.57100878323206
 11
341.58629780845695
 21
496.8830417832321
  0
LINE
  8
_0-3_躯体と製品
  6
CONTINUOUS
 62
    5
 10
341.58629780845695
 20
496.8830417832321
 11
342.10976480845579
 21
496.23128778323201
  0
LINE
  8
_0-3_躯体と製品
  6
CONTINUOUS
 62
    5
 10
342.10976480845579
 20
496.23128778323201
 11
342.6953218084559
 21
495.62602578323208
  0
LINE
  8
_0-3_躯体と製品
  6
CONTINUOUS
 62
    2
 10
342.62573580845583
 20
481.38387978323203
 11
341.21152180845593
 21
479.96966578323213
  0
ARC
  8
_0-3_躯体と製品
  6
CONTINUOUS
 62
    5
 10
391.37820380845574
 20
569.52111178323185
 40
75.182160999999994
 50
218.81163699999593
 51
230.83577500000104
  0
LINE
  8
_0-3_躯体と製品
  6
CONTINUOUS
 62
    2
 10
342.97928880845575
 20
510.72881078323201
 11
336.96888080845679
 21
504.71840278323202
  0
LINE
  8
_0-3_躯体と製品
  6
CONTINUOUS
 62
    2
 10
343.3328418084559
 20
508.25393678323201
 11
337.32243480845682
 21
502.24352978323202
  0
LINE
  8
_0-3_躯体と製品
  6
CONTINUOUS
 62
    2
 10
319.99831880845591
 20
501.18286978323204
 11
328.02398080845683
 21
509.20853178323216
  0
LINE
  8
_0-3_躯体と製品
  6
CONTINUOUS
 62
    2
 10
331.31202680845581
 20
502.59708278323217
 11
324.94806580845579
 21
496.23312178323204
  0
LINE
  8
_0-3_躯体と製品
  6
CONTINUOUS
 62
    2
 10
322.82674580845583
 20
498.35444178323212
 11
330.85240780845584
 21
506.38010378323213
  0
LINE
  8
_0-3_躯体と製品
  6
CONTINUOUS
 62
    2
 10
332.47875280845597
 20
508.50142478323221
 11
325.40768580845588
 21
501.43035678323213
  0
LINE
  8
_0-3_躯体と製品
  6
CONTINUOUS
 62
    2
 10
325.65517280845688
 20
501.18286978323204
 11
322.82674580845583
 21
504.01129678323196
  0
LINE
  8
_0-3_躯体と製品
  6
CONTINUOUS
 62
    2
 10
333.43334680845578
 20
503.30418978323212
 11
332.01913380845576
 21
501.8899757832321
  0
LINE
  8
_0-3_躯体と製品
  6
CONTINUOUS
 62
    2
 10
332.01913380845576
 20
501.8899757832321
 11
331.31202680845581
 21
502.59708278323217
  0
LINE
  8
_0-3_躯体と製品
  6
CONTINUOUS
 62
    2
 10
335.90822080845578
 20
502.24352978323202
 11
323.88740580845683
 21
514.2643447832321
  0
LINE
  8
_0-3_躯体と製品
  6
CONTINUOUS
 62
    2
 10
321.41253180845592
 20
499.76865578323202
 11
322.82674580845583
 21
498.35444178323212
  0
LINE
  8
_0-3_躯体と製品
  6
CONTINUOUS
 62
    2
 10
319.29121180845596
 20
497.64733578323205
 11
337.67598780845583
 21
479.26255878323207
  0
LINE
  8
_0-3_躯体と製品
  6
CONTINUOUS
 62
    2
 10
321.41253180845592
 20
499.76865578323202
 11
319.99831880845591
 21
501.18286978323204
  0
LINE
  8
_0-3_躯体と製品
  6
CONTINUOUS
 62
    2
 10
332.72624080845594
 20
488.454947783232
 11
341.21152180845593
 21
479.96966578323213
  0
LINE
  8
_0-3_躯体と製品
  6
CONTINUOUS
 62
    5
 10
336.26177480845581
 20
491.99048078323199
 11
334.1591648084559
 21
489.88787178323196
  0
LINE
  8
_0-3_躯体と製品
  6
CONTINUOUS
 62
    2
 10
332.72624080845594
 20
491.28337478323215
 11
331.31202680845581
 21
489.86916078323202
  0
LINE
  8
_0-3_躯体と製品
  6
CONTINUOUS
 62
    2
 10
324.94806580845579
 20
496.23312178323204
 11
331.31202680845581
 21
489.86916078323202
  0
LINE
  8
_0-3_躯体と製品
  6
CONTINUOUS
 62
    2
 10
335.90822080845578
 20
485.27296678323216
 11
335.90822080845578
 21
484.5658597832321
  0
LINE
  8
_0-3_躯体と製品
  6
CONTINUOUS
 62
    2
 10
336.61532780845596
 20
484.5658597832321
 11
335.90822080845578
 21
484.5658597832321
  0
LINE
  8
_0-3_躯体と製品
  6
CONTINUOUS
 62
    2
 10
334.14045380845596
 20
489.86916078323202
 11
332.72624080845594
 21
488.454947783232
  0
LINE
  8
_0-3_躯体と製品
  6
CONTINUOUS
 62
    2
 10
332.72624080845594
 20
491.28337478323215
 11
334.14045380845596
 21
489.86916078323202
  0
LINE
  8
_0-3_躯体と製品
  6
CONTINUOUS
 62
    5
 10
339.79730880845591
 20
498.35444178323212
 11
334.84756080845591
 21
493.404694783232
  0
ARC
  8
_0-3_躯体と製品
  6
CONTINUOUS
 62
    2
 10
336.61532780845596
 20
502.95063678323208
 40
1
 50
225
 51
315
  0
LINE
  8
_0-3_躯体と製品
  6
CONTINUOUS
 62
    2
 10
324.24095880845584
 20
509.66815078323214
 11
317.87699780845583
 21
503.30418978323212
  0
LINE
  8
_0-3_躯体と製品
  6
CONTINUOUS
 62
    2
 10
311.51303680845581
 20
509.66815078323214
 11
317.87699780845583
 21
503.30418978323212
  0
LINE
  8
_0-3_躯体と製品
  6
CONTINUOUS
 62
    2
 10
312.92725080845594
 20
511.08236478323226
 11
311.51303680845581
 21
509.66815078323214
  0
LINE
  8
_0-3_躯体と製品
  6
CONTINUOUS
 62
    2
 10
311.51303680845581
 20
512.49657778323206
 11
312.92725080845594
 21
511.08236478323226
  0
LINE
  8
_0-3_躯体と製品
  6
CONTINUOUS
 62
    2
 10
310.09882380845579
 20
511.08236478323226
 11
311.51303680845581
 21
512.49657778323206
  0
ARC
  8
_0-3_躯体と製品
  6
CONTINUOUS
 62
    2
 10
332.45753880845587
 20
511.83896778323208
 40
0.2249999999999999
 50
315.00000000000006
 51
49.739255000000689
  0
ARC
  8
_0-3_躯体と製品
  6
CONTINUOUS
 62
    2
 10
333.48284380845575
 20
510.81366278323196
 40
0.2249999999999999
 50
40.260770999999956
 51
135
  0
LINE
  8
_0-3_躯体と製品
  6
CONTINUOUS
 62
    2
 10
333.34493380845583
 20
510.99395078323221
 11
332.63782680845588
 21
511.70105778323216
  0
ARC
  8
_0-3_躯体と製品
  6
CONTINUOUS
 62
    2
 10
326.76624380845578
 20
505.12236778323211
 40
9.0287089999999992
 50
29.176196999999668
 51
60.823803000000311
  0
LINE
  8
_0-3_躯体と製品
  6
CONTINUOUS
 62
    2
 10
333.78690080845581
 20
507.19327678323214
 11
334.50994680845588
 21
508.05496978323197
  0
LINE
  8
_0-3_躯体と製品
  6
CONTINUOUS
 62
    2
 10
328.83715280845581
 20
512.14302478323214
 11
329.69884580845587
 21
512.86607078323198
  0
ARC
  8
_0-3_躯体と製品
  6
CONTINUOUS
 62
    2
 10
333.51408880845588
 20
508.89059378323202
 40
1.3
 50
319.99999999999733
 51
29.150764000001487
  0
ARC
  8
_0-3_躯体と製品
  6
CONTINUOUS
 62
    2
 10
330.53446980845592
 20
511.87021278323198
 40
1.3
 50
60.849235999998534
 51
130.0000000000025
  0
ARC
  8
_0-3_躯体と製品
  6
CONTINUOUS
 62
    2
 10
325.65517280845688
 20
511.08236478323226
 40
1
 50
45
 51
135
  0
ARC
  8
_0-3_躯体と製品
  6
CONTINUOUS
 62
    2
 10
332.72624080845594
 20
504.01129678323196
 40
1
 50
315.00000000000006
 51
45.00000000000005
  0
LINE
  8
_0-3_躯体と製品
  6
CONTINUOUS
 62
    2
 10
330.14530080845589
 20
510.83487678323206
 11
323.07423280845592
 21
503.76380878323209
  0
LINE
  8
_0-3_躯体と製品
  6
CONTINUOUS
 62
    2
 10
332.72624080845594
 20
508.25393678323201
 11
330.85240780845584
 21
506.38010378323213
  0
LINE
  8
_0-3_躯体と製品
  6
CONTINUOUS
 62
    2
 10
329.89781380845693
 20
511.08236478323226
 11
328.02398080845683
 21
509.20853178323216
  0
LINE
  8
_0-3_躯体と製品
  6
CONTINUOUS
 62
    2
 10
328.02398080845683
 20
510.12776978323211
 11
326.36227980845592
 21
511.7894707832321
  0
LINE
  8
_0-3_躯体と製品
  6
CONTINUOUS
 62
    2
 10
328.02398080845683
 20
508.71355678323209
 11
328.02398080845683
 21
510.12776978323211
  0
LINE
  8
_0-3_躯体と製品
  6
CONTINUOUS
 62
    2
 10
331.7716468084559
 20
506.38010378323213
 11
333.43334780845589
 21
504.71840278323202
  0
LINE
  8
_0-3_躯体と製品
  6
CONTINUOUS
 62
    2
 10
330.35743280845577
 20
506.38010378323213
 11
331.7716468084559
 21
506.38010378323213
  0
LINE
  8
_0-3_躯体と製品
  6
CONTINUOUS
 62
    2
 10
324.94806580845579
 20
511.7894707832321
 11
323.53385280845578
 21
510.37525778323209
  0
LINE
  8
_0-3_躯体と製品
  6
CONTINUOUS
 62
    2
 10
323.53385280845578
 20
510.37525778323209
 11
324.24095880845584
 21
509.66815078323214
  0
ARC
  8
_0-3_躯体と製品
  6
CONTINUOUS
 62
    2
 10
331.66558080845675
 20
522.04251978323202
 40
1
 50
315.00000000000006
 51
45.00000000000005
  0
LINE
  8
_0-3_躯体と製品
  6
CONTINUOUS
 62
    2
 10
326.36227980845592
 20
515.32500478323198
 11
332.37268680845591
 21
521.33541278323196
  0
ARC
  8
_0-3_躯体と製品
  6
CONTINUOUS
 62
    2
 10
326.71583280845584
 20
514.97145178323206
 40
0.5
 50
135
 51
225
  0
LINE
  8
_0-3_躯体と製品
  6
CONTINUOUS
 62
    2
 10
336.26177480845581
 20
504.71840278323202
 11
326.36227980845592
 21
514.61789778323202
  0
ARC
  8
_0-3_躯体と製品
  6
CONTINUOUS
 62
    2
 10
336.61532780845596
 20
505.07195678323217
 40
0.5
 50
225
 51
315
  0
ARC
  8
_0-3_躯体と製品
  6
CONTINUOUS
 62
    2
 10
329.54425980845576
 20
522.04251978323202
 40
0.5
 50
315.00000000000006
 51
45.00000000000005
  0
LINE
  8
_0-3_躯体と製品
  6
CONTINUOUS
 62
    2
 10
323.88740580845683
 20
515.67855878323201
 11
329.89781380845693
 21
521.68896578323222
  0
ARC
  8
_0-3_躯体と製品
  6
CONTINUOUS
 62
    2
 10
324.59451280845587
 20
514.97145178323206
 40
1
 50
135
 51
225
  0
LINE
  8
_0-3_躯体と製品
  6
CONTINUOUS
 62
    2
 10
364.89959880845595
 20
490.22271378323205
 11
344.39350280845588
 21
510.72881078323201
  0
LINE
  8
_0-3_躯体と製品
  6
CONTINUOUS
 62
    2
 10
363.48538580845593
 20
488.80850078323215
 11
344.03994880845585
 21
508.25393678323201
  0
ARC
  8
_0-3_躯体と製品
  6
CONTINUOUS
 62
    5
 10
380.05470280845589
 20
477.89903578323208
 40
19.815104999999988
 50
146.76062100000013
 51
179.29975600000063
  0
LINE
  8
_0-3_躯体と製品
  6
CONTINUOUS
 62
    5
 10
342.65212380845696
 20
481.41026778323214
 11
344.7470558084558
 21
483.50519978323211
  0
LINE
  8
_0-3_躯体と製品
  6
CONTINUOUS
 62
    2
 10
344.03994880845585
 20
479.96966578323213
 11
342.62573580845583
 21
481.38387978323203
  0
LINE
  8
_0-3_躯体と製品
  6
CONTINUOUS
 62
    2
 10
364.89959880845595
 20
490.22271378323205
 11
363.48538580845593
 21
488.80850078323215
  0
ARC
  8
_0-3_躯体と製品
  6
CONTINUOUS
 62
    2
 10
343.68639580845684
 20
510.02170378323206
 40
1
 50
45
 51
135
  0
ARC
  8
_0-3_躯体と製品
  6
CONTINUOUS
 62
    2
 10
343.68639580845684
 20
507.90038378323209
 40
0.5
 50
45
 51
135
  0
LINE
  8
_0-3_躯体と製品
  6
CONTINUOUS
 62
    2
 10
387.45101780845584
 20
412.36497078323202
 11
380.5319458084557
 21
405.44589878323211
  0
LINE
  8
_0-3_躯体と製品
  6
CONTINUOUS
 62
    2
 10
384.91072080845674
 20
421.84548878323199
 11
387.45101780845584
 21
412.36497078323202
  0
INSERT
  2
-001-_D4
  8
_0-2_寸法
 10
-1678.2457895873354
 20
418.03724789047681
 41
5
 42
5
 50
0
  0
INSERT
  2
-002-_D5
  8
_0-2_寸法
 10
-1678.2457895873354
 20
418.03724789047681
 41
5
 42
5
 50
0
  0
INSERT
  2
-003-_D6
  8
_0-2_寸法
 10
-1678.2457895873354
 20
418.03724789047681
 41
5
 42
5
 50
0
  0
INSERT
  2
-004-_D7
  8
_0-2_寸法
 10
-1678.2457895873354
 20
418.03724789047681
 41
5
 42
5
 50
0
  0
ENDSEC
  0
EOF
