  0
SECTION
  2
HEADER
  9
$ACADVER
  1
AC1009
  9
$INSBASE
 10
0
 20
0
 30
0
  9
$EXTMIN
 10
0
 20
0
  9
$EXTMAX
 10
420
 20
297
  9
$LIMMIN
 10
0
 20
0
  9
$LIMMAX
 10
420
 20
297
  9
$LTSCALE
 40
1
  0
ENDSEC
  0
SECTION
  2
TABLES
  0
TABLE
  2
LTYPE
 70
     9
  0
LTYPE
  2
CONTINUOUS
 70
    64
  3
実線
 72
    65
 73
     0
 40
0.0
  0
LTYPE
  2
DASHED1
 70
    64
  3
--  --  --  --  --  --  --  --  
 72
    65
 73
     2
 40
2.5
 49
1.25
 49
-1.25
  0
LTYPE
  2
DASHED2
 70
    64
  3
----    ----    ----    ----    
 72
    65
 73
     2
 40
5.0
 49
2.5
 49
-2.5
  0
LTYPE
  2
DASHED3
 70
    64
  3
------  ------  ------  ------  
 72
    65
 73
     2
 40
5.0
 49
3.75
 49
-1.25
  0
LTYPE
  2
CENTER1
 70
    64
  3
----- - ----- - ----- - ----- - 
 72
    65
 73
     4
 40
10.0
 49
6.25
 49
-1.25
 49
1.25
 49
-1.25
  0
LTYPE
  2
CENTER2
 70
    64
  3
----------  --  ----------  --  
 72
    65
 73
     4
 40
20.0
 49
12.5
 49
-2.5
 49
2.5
 49
-2.5
  0
LTYPE
  2
PHANTOM1
 70
    64
  3
--- - - --- - - --- - - --- - - 
 72
    65
 73
     6
 40
10.0
 49
3.25
 49
-1.25
 49
1.25
 49
-1.25
 49
1.25
 49
-1.25
  0
LTYPE
  2
PHANTOM2
 70
    64
  3
--------  -  -  --------  -  -  
 72
    65
 73
     6
 40
20.0
 49
10.0
 49
-2.5
 49
1.25
 49
-2.5
 49
1.25
 49
-2.5
  0
LTYPE
  2
DOT
 70
    64
  3
-   -   -   -   -   -   -   -   
 72
    65
 73
     2
 40
2.5
 49
0.625
 49
-1.875
  0
LTYPE
  2
DUMMY
 70
    64
  3
ダミー
 72
    65
 73
     0
 40
0.0
  0
LTYPE
  2
RAND1
 70
    64
  3
ランダム線1
 72
    65
 73
     4
 40
10.0
 49
1.0
 49
-2.0
 49
3.0
 49
-4.0
  0
LTYPE
  2
RAND2
 70
    64
  3
ランダム線2
 72
    65
 73
     4
 40
14.0
 49
2.0
 49
-3.0
 49
4.0
 49
-5.0
  0
LTYPE
  2
RAND3
 70
    64
  3
ランダム線3
 72
    65
 73
     4
 40
18.0
 49
3.0
 49
-4.0
 49
5.0
 49
-6.0
  0
LTYPE
  2
RAND4
 70
    64
  3
ランダム線4
 72
    65
 73
     4
 40
22.0
 49
4.0
 49
-5.0
 49
6.0
 49
-7.0
  0
LTYPE
  2
RAND5
 70
    64
  3
ランダム線5
 72
    65
 73
     4
 40
26.0
 49
5.0
 49
-6.0
 49
7.0
 49
-8.0
  0
LTYPE
  2
LONG1
 70
    64
  3
----------  --  ----------  --  
 72
    65
 73
     4
 40
40.0
 49
32.5
 49
-2.5
 49
2.5
 49
-2.5
  0
LTYPE
  2
LONG2
 70
    64
  3
--------  -  -  --------  -  -  
 72
    65
 73
     6
 40
40.0
 49
30.0
 49
-2.5
 49
1.25
 49
-2.5
 49
1.25
 49
-2.5
  0
LTYPE
  2
LONG3
 70
    64
  3
+++++++++++++++..+++++++++++++++
 72
    65
 73
     2
 40
40.0
 49
37.5
 49
-2.5
  0
LTYPE
  2
LONG4
 70
    64
  3
+++++++++++++++..+++++++++++++++
 72
    65
 73
     2
 40
80.0
 49
75.0
 49
-5.0
  0
LTYPE
  2
LONG5
 70
    64
  3
----------  --  ----------  --  
 72
    65
 73
     4
 40
60.0
 49
37.5
 49
-7.5
 49
7.5
 49
-7.5
  0
LTYPE
  2
dashed
 70
   64
  3
-------   -------------   ------
 72
   65
 73
    2
 40
7.5
 49
6
 49
-1.5
  0
LTYPE
  2
dashed_spaced
 70
   64
  3
----        --------        ----
 72
   65
 73
    2
 40
12
 49
6
 49
-6
  0
LTYPE
  2
long_dashed_dotted
 70
   64
  3
------------- --- --------------
 72
   65
 73
    4
 40
15.25
 49
12
 49
-1.5
 49
0.25
 49
-1.5
  0
LTYPE
  2
long_dashed_double-dotted
 70
   64
  3
----------- --- --- ------------
 72
   65
 73
    6
 40
17
 49
12
 49
-1.5
 49
0.25
 49
-1.5
 49
0.25
 49
-1.5
  0
LTYPE
  2
long_dashed_triplicate-dotted
 70
   64
  3
--------- --- --- --- ----------
 72
   65
 73
    8
 40
18.75
 49
12
 49
-1.5
 49
0.25
 49
-1.5
 49
0.25
 49
-1.5
 49
0.25
 49
-1.5
  0
LTYPE
  2
dotted
 70
   64
  3
   -       -       -       -    
 72
   65
 73
    2
 40
1.75
 49
0.25
 49
-1.5
  0
LTYPE
  2
chain
 70
   64
  3
-------------- -- --------------
 72
   65
 73
    4
 40
18.5
 49
12
 49
-1.5
 49
3.5
 49
-1.5
  0
LTYPE
  2
chain_double_dash
 70
   64
  3
------------ -- -- -------------
 72
   65
 73
    6
 40
23.5
 49
12
 49
-1.5
 49
3.5
 49
-1.5
 49
3.5
 49
-1.5
  0
LTYPE
  2
dashed_dotted
 70
   64
  3
-----------     -     ----------
 72
   65
 73
    4
 40
9.25
 49
6
 49
-1.5
 49
0.25
 49
-1.5
  0
LTYPE
  2
double-dashed_dotted
 70
   64
  3
------   -----------   -   -----
 72
   65
 73
    6
 40
16.75
 49
6
 49
-1.5
 49
6
 49
-1.5
 49
0.25
 49
-1.5
  0
LTYPE
  2
dashed_double-dotted
 70
   64
  3
---------    -    -    ---------
 72
   65
 73
    6
 40
11
 49
6
 49
-1.5
 49
0.25
 49
-1.5
 49
0.25
 49
-1.5
  0
LTYPE
  2
double-dashed_double-dotted
 70
   64
  3
-----   ---------   -   -   ----
 72
   65
 73
    8
 40
18.5
 49
6
 49
-1.5
 49
6
 49
-1.5
 49
0.25
 49
-1.5
 49
0.25
 49
-1.5
  0
LTYPE
  2
dashed_triplicate-dotted
 70
   64
  3
-------    -    -    -    ------
 72
   65
 73
    8
 40
12.75
 49
6
 49
-1.5
 49
0.25
 49
-1.5
 49
0.25
 49
-1.5
 49
0.25
 49
-1.5
  0
LTYPE
  2
double-dashed_triplicate-dotted
 70
   64
  3
-----  ---------  -  -  -  -----
 72
   65
 73
   10
 40
20.25
 49
6
 49
-1.5
 49
6
 49
-1.5
 49
0.25
 49
-1.5
 49
0.25
 49
-1.5
 49
0.25
 49
-1.5
  0
LTYPE
  2
undefined
 70
   64
  3
--------------------------------
 72
   65
 73
    0
 40
0
  0
LTYPE
  2
PLINE2
 70
   64
  3
------     -----------     -----
 72
   65
 73
    2
 40
3
 49
2.1000000000000001
 49
-0.9
  0
LTYPE
  2
PLINE3
 70
   64
  3
------------   ---   -----------
 72
   65
 73
    4
 40
10
 49
7
 49
-1
 49
1
 49
-1
  0
LTYPE
  2
PLINE4
 70
   64
  3
---------   ---   ---   --------
 72
   65
 73
    6
 40
10
 49
5
 49
-1
 49
1
 49
-1
 49
1
 49
-1
  0
LTYPE
  2
PLINE5
 70
   64
  3
------     -----------     -----
 72
   65
 73
    2
 40
5
 49
3.5
 49
-1.5
  0
LTYPE
  2
PLINE6
 70
   64
  3
------------   ---   -----------
 72
   65
 73
    4
 40
15
 49
10.5
 49
-1.5
 49
1.5
 49
-1.5
  0
LTYPE
  2
PLINE7
 70
   64
  3
---------   ---   ---   --------
 72
   65
 73
    6
 40
15
 49
7.5
 49
-1.5
 49
1.5
 49
-1.5
 49
1.5
 49
-1.5
  0
LTYPE
  2
PLINE8
 70
   64
  3
------     -----------     -----
 72
   65
 73
    2
 40
7
 49
4.9000000000000004
 49
-2.1000000000000001
  0
LTYPE
  2
PLINE9
 70
   64
  3
------------   ---   -----------
 72
   65
 73
    4
 40
20
 49
14
 49
-2
 49
2
 49
-2
  0
LTYPE
  2
PLINE10
 70
   64
  3
---------   ---   ---   --------
 72
   65
 73
    6
 40
20
 49
10
 49
-2
 49
2
 49
-2
 49
2
 49
-2
  0
LTYPE
  2
PLINE11
 70
   64
  3
------     -----------     -----
 72
   65
 73
    2
 40
9
 49
6.2999999999999989
 49
-2.7000000000000002
  0
LTYPE
  2
PLINE12
 70
   64
  3
------------   ---   -----------
 72
   65
 73
    4
 40
25
 49
17.5
 49
-2.5
 49
2.5
 49
-2.5
  0
LTYPE
  2
PLINE13
 70
   64
  3
---------   ---   ---   --------
 72
   65
 73
    6
 40
25
 49
12.5
 49
-2.5
 49
2.5
 49
-2.5
 49
2.5
 49
-2.5
  0
LTYPE
  2
PLINE14
 70
   64
  3
------     -----------     -----
 72
   65
 73
    2
 40
11
 49
7.7000000000000002
 49
-3.2999999999999989
  0
LTYPE
  2
PLINE15
 70
   64
  3
------------   ---   -----------
 72
   65
 73
    4
 40
30
 49
21
 49
-3
 49
3
 49
-3
  0
LTYPE
  2
PLINE16
 70
   64
  3
---------   ---   ---   --------
 72
   65
 73
    6
 40
30
 49
15
 49
-3
 49
3
 49
-3
 49
3
 49
-3
  0
ENDTAB
  0
TABLE
  2
STYLE
  5
3
100
AcDbSymbolTable
 70
     1
  0
STYLE
  5
10
100
AcDbSymbolTableRecord
100
AcDbTextStyleTableRecord
  2
STANDARD
 70
     0
 40
0.0
 41
1.0
 50
0.0
 71
     0
 42
0.2
  3
txt
  4
bigfont.shx
  0
STYLE
  5
26
100
AcDbSymbolTableRecord
100
AcDbTextStyleTableRecord
  2
TATEGAKI
 70
    68
 40
0.0
 41
1.0
 50
0.0
 71
     0
 42
1.0
  3
txt
  4
bigfont.shx
  0
ENDTAB
  0
TABLE
  2
LAYER
 70
    4
  0
LAYER
  2
_0-2_寸法
 70
   64
 62
    7
  6
CONTINUOUS
  0
LAYER
  2
_0-3_躯体と製品
 70
   64
 62
    7
  6
CONTINUOUS
  0
LAYER
  2
_0-4_図面枠
 70
   64
 62
    7
  6
CONTINUOUS
  0
LAYER
  2
ADD_LINE
 70
   64
 62
    7
  6
CONTINUOUS
  0
ENDTAB
  0
ENDSEC
  0
SECTION
  2
BLOCKS
  0
BLOCK
  2
-000-_Dot
 70
   64
 10
0
 20
0
 30
0
  0
CIRCLE
  8
_0-0_0
  6
CONTINUOUS
 62
    7
 10
0
 20
0
 40
0.05
  0
LINE
  8
_0-0_0
  6
CONTINUOUS
 62
    7
 10
0.05
 20
0
 11
-0.05
 21
0
  0
LINE
  8
_0-0_0
  6
CONTINUOUS
 62
    7
 10
-0.1
 20
0
 11
-0.2
 21
0
  0
ENDBLK
  0
BLOCK
  2
-001-_D4
 70
   64
 10
0
 20
0
 30
0
  0
LINE
  8
_0-2_寸法
  6
CONTINUOUS
 62
    4
 10
526.15669914609282
 20
53.320527581609703
 11
526.15669914609282
 21
134.81315093297576
  0
LINE
  8
_0-2_寸法
  6
CONTINUOUS
 62
    4
 10
706.15669914609293
 20
53.320527581609703
 11
706.15669914609293
 21
134.81315093297576
  0
LINE
  8
_0-2_寸法
  6
CONTINUOUS
 62
    4
 10
526.35669914609275
 20
134.81315093297576
 11
705.956699146093
 21
134.81315093297576
  0
INSERT
  2
-000-_Dot
  8
_0-2_寸法
 10
526.15669914609282
 20
134.81315093297576
 41
1
 42
1
 50
180
  0
INSERT
  2
-000-_Dot
  8
_0-2_寸法
 10
706.15669914609293
 20
134.81315093297576
 41
1
 42
1
 50
0
  0
TEXT
  8
_0-2_寸法
 62
    7
 10
592.15669914609282
 20
134.97315093297576
 40
4
 41
1
 50
0
  1
基準巾　９００～２０００
  0
POINT
  8
_0-1_Defpoints
 62
    7
 10
526.15669914609282
 20
53.320527581609703
  0
POINT
  8
_0-1_Defpoints
 62
    7
 10
706.15669914609293
 20
53.320527581609703
  0
POINT
  8
_0-1_Defpoints
 62
    7
 10
706.15669914609293
 20
134.81315093297576
  0
ENDBLK
  0
BLOCK
  2
-002-_D5
 70
   64
 10
0
 20
0
 30
0
  0
LINE
  8
_0-2_寸法
  6
CONTINUOUS
 62
    4
 10
551.89412393582518
 20
107.4519019329758
 11
493.70182614609286
 21
107.4519019329758
  0
LINE
  8
_0-2_寸法
  6
CONTINUOUS
 62
    4
 10
516.12044494609279
 20
17.451903132975794
 11
493.70182614609286
 21
17.451903132975794
  0
LINE
  8
_0-2_寸法
  6
CONTINUOUS
 62
    4
 10
493.70182614609286
 20
107.25190193297581
 11
493.70182614609286
 21
17.651903132975796
  0
INSERT
  2
-000-_Dot
  8
_0-2_寸法
 10
493.70182614609286
 20
107.4519019329758
 41
1
 42
1
 50
90
  0
INSERT
  2
-000-_Dot
  8
_0-2_寸法
 10
493.70182614609286
 20
17.451903132975794
 41
1
 42
1
 50
270
  0
TEXT
  8
_0-2_寸法
 62
    7
 10
493.54182614609283
 20
58.451902532975886
 40
4
 41
1
 50
90
  1
高さ
  0
POINT
  8
_0-1_Defpoints
 62
    7
 10
551.89412393582518
 20
107.4519019329758
  0
POINT
  8
_0-1_Defpoints
 62
    7
 10
516.12044494609279
 20
17.451903132975794
  0
POINT
  8
_0-1_Defpoints
 62
    7
 10
493.70182614609286
 20
17.451903132975794
  0
ENDBLK
  0
BLOCK
  2
-003-_D6
 70
   64
 10
0
 20
0
 30
0
  0
LINE
  8
_0-2_寸法
  6
CONTINUOUS
 62
    4
 10
518.15669914609282
 20
20.60062673297578
 11
518.15669914609282
 21
88.518758532975781
  0
LINE
  8
_0-2_寸法
  6
CONTINUOUS
 62
    4
 10
526.15669914609282
 20
24.140739532975779
 11
526.15669914609282
 21
88.518758532975781
  0
LINE
  8
_0-2_寸法
  6
CONTINUOUS
 62
    4
 10
518.35669914609275
 20
88.518758532975781
 11
525.95669914609277
 21
88.518758532975781
  0
INSERT
  2
-000-_Dot
  8
_0-2_寸法
 10
518.15669914609282
 20
88.518758532975781
 41
1
 42
1
 50
180
  0
INSERT
  2
-000-_Dot
  8
_0-2_寸法
 10
526.15669914609282
 20
88.518758532975781
 41
1
 42
1
 50
0
  0
TEXT
  8
_0-2_寸法
 62
    7
 10
520.15669914609282
 20
88.678758532975777
 40
4
 41
1
 50
0
  1
40
  0
POINT
  8
_0-1_Defpoints
 62
    7
 10
518.15669914609282
 20
20.60062673297578
  0
POINT
  8
_0-1_Defpoints
 62
    7
 10
526.15669914609282
 20
24.140739532975779
  0
POINT
  8
_0-1_Defpoints
 62
    7
 10
526.15669914609282
 20
88.518758532975781
  0
ENDBLK
  0
BLOCK
  2
-004-_D7
 70
   64
 10
0
 20
0
 30
0
  0
LINE
  8
_0-2_寸法
  6
CONTINUOUS
 62
    4
 10
526.15669914609282
 20
24.140739532975779
 11
526.15669914609282
 21
88.518758532975781
  0
LINE
  8
_0-2_寸法
  6
CONTINUOUS
 62
    4
 10
548.15669914609282
 20
22.10481053297578
 11
548.15669914609282
 21
88.518758532975781
  0
LINE
  8
_0-2_寸法
  6
CONTINUOUS
 62
    4
 10
526.35669914609275
 20
88.518758532975781
 11
547.95669914609277
 21
88.518758532975781
  0
INSERT
  2
-000-_Dot
  8
_0-2_寸法
 10
526.15669914609282
 20
88.518758532975781
 41
1
 42
1
 50
180
  0
INSERT
  2
-000-_Dot
  8
_0-2_寸法
 10
548.15669914609282
 20
88.518758532975781
 41
1
 42
1
 50
0
  0
TEXT
  8
_0-2_寸法
 62
    7
 10
534.15669914609282
 20
88.678758532975777
 40
4
 41
1
 50
0
  1
110
  0
POINT
  8
_0-1_Defpoints
 62
    7
 10
526.15669914609282
 20
24.140739532975779
  0
POINT
  8
_0-1_Defpoints
 62
    7
 10
548.15669914609282
 20
22.10481053297578
  0
POINT
  8
_0-1_Defpoints
 62
    7
 10
548.15669914609282
 20
88.518758532975781
  0
ENDBLK
  0
BLOCK
  2
-005-_D8
 70
   64
 10
0
 20
0
 30
0
  0
LINE
  8
_0-2_寸法
  6
CONTINUOUS
 62
    4
 10
534.15669914609282
 20
-29.162254064227817
 11
534.15669914609282
 21
-41.1993100670242
  0
LINE
  8
_0-2_寸法
  6
CONTINUOUS
 62
    4
 10
698.15669914609282
 20
-29.162254064227817
 11
698.15669914609282
 21
-41.1993100670242
  0
LINE
  8
_0-2_寸法
  6
CONTINUOUS
 62
    4
 10
534.35669914609275
 20
-41.1993100670242
 11
697.95669914609277
 21
-41.1993100670242
  0
INSERT
  2
-000-_Dot
  8
_0-2_寸法
 10
534.15669914609282
 20
-41.1993100670242
 41
1
 42
1
 50
180
  0
INSERT
  2
-000-_Dot
  8
_0-2_寸法
 10
698.15669914609282
 20
-41.1993100670242
 41
1
 42
1
 50
0
  0
TEXT
  8
_0-2_寸法
 62
    7
 10
588.15669914609282
 20
-41.039310067024203
 40
4
 41
1
 50
0
  1
受枠外径（基準巾－８０ｍｍ）
  0
POINT
  8
_0-1_Defpoints
 62
    7
 10
534.15669914609282
 20
-29.162254064227817
  0
POINT
  8
_0-1_Defpoints
 62
    7
 10
698.15669914609282
 20
-29.162254064227817
  0
POINT
  8
_0-1_Defpoints
 62
    7
 10
698.15669914609282
 20
-41.1993100670242
  0
ENDBLK
  0
ENDSEC
  0
SECTION
  2
ENTITIES
  0
TEXT
  8
_0-4_図面枠
 62
    7
 10
22.937342894573703
 20
748.06496889171103
 40
40
 41
0.8
 50
0
  1
サニートップ　ＲＳ型標準図
  0
LINE
  8
_0-4_図面枠
  6
CONTINUOUS
 62
    4
 10
-757.93782510542633
 20
732.66666389171087
 11
1177.8955078945737
 21
732.66666389171087
  0
LINE
  8
_0-4_図面枠
  6
CONTINUOUS
 62
    4
 10
-757.93782510542633
 20
-519.00000310828909
 11
1177.8955078945737
 21
-519.00000310828909
  0
LINE
  8
_0-4_図面枠
  6
CONTINUOUS
 62
    4
 10
-757.93782510542633
 20
815.99999689171091
 11
1177.8955078945737
 21
815.99999689171091
  0
LINE
  8
_0-3_躯体と製品
  6
PLINE3
 62
    2
 10
253.6278168945737
 20
-19.388797108289225
 11
210.1278168945737
 21
-19.388797108289225
  0
LINE
  8
_0-3_躯体と製品
  6
CONTINUOUS
 62
    7
 10
198.6278168945737
 20
388.61120289171078
 11
223.49971489457357
 21
388.61120289171078
  0
LINE
  8
_0-3_躯体と製品
  6
CONTINUOUS
 62
    2
 10
253.6278168945737
 20
394.61120289171089
 11
220.6278168945737
 21
394.61120289171089
  0
LINE
  8
_0-3_躯体と製品
  6
CONTINUOUS
 62
    2
 10
253.6278168945737
 20
402.61120289171089
 11
220.6278168945737
 21
402.61120289171089
  0
LINE
  8
_0-3_躯体と製品
  6
CONTINUOUS
 62
    7
 10
223.6278168945737
 20
-9.388797108289225
 11
220.6278168945737
 21
-9.388797108289225
  0
ARC
  8
_0-3_躯体と製品
  6
CONTINUOUS
 62
    2
 10
253.6278168945737
 20
-34.388797108289168
 40
469
 50
93.707465999997439
 51
177.189057999998
  0
LINE
  8
_0-3_躯体と製品
  6
CONTINUOUS
 62
    7
 10
198.6278168945737
 20
408.61120289171089
 11
223.6278168945737
 21
408.61120289171089
  0
LINE
  8
_0-3_躯体と製品
  6
PLINE3
 62
    2
 10
183.96797389457379
 20
398.61120289171089
 11
253.6278168945737
 21
398.61120289171089
  0
ARC
  8
_0-3_躯体と製品
  6
CONTINUOUS
 62
    2
 10
253.6278168945737
 20
-34.388797108289168
 40
450
 50
93.822554000012417
 51
179.61799999999872
  0
ARC
  8
_0-3_躯体と製品
  6
CONTINUOUS
 62
    5
 10
253.6278168945737
 20
-34.388797108289168
 40
453
 50
91.64447600000905
 51
180
  0
ARC
  8
_0-3_躯体と製品
  6
CONTINUOUS
 62
    5
 10
253.6278168945737
 20
-34.388797108289168
 40
460
 50
91.619444000008343
 51
180
  0
ARC
  8
_0-3_躯体と製品
  6
CONTINUOUS
 62
    2
 10
253.6278168945737
 20
-34.388797108289168
 40
422
 50
90
 51
178.78860699999933
  0
ARC
  8
_0-3_躯体と製品
  6
CONTINUOUS
 62
    2
 10
253.6278168945737
 20
-34.388797108289168
 40
413
 50
90
 51
180
  0
ARC
  8
_0-3_躯体と製品
  6
CONTINUOUS
 62
    5
 10
208.2545368945739
 20
438.78777289171074
 40
15.936489
 50
291.22191000000248
 51
344.7221130000022
  0
LINE
  8
_0-4_図面枠
  6
CONTINUOUS
 62
    2
 10
270.83146589457374
 20
-383.01434510828915
 11
203.02874889457371
 21
-383.01434510828915
  0
LINE
  8
_0-4_図面枠
  6
CONTINUOUS
 62
    2
 10
203.02874889457371
 20
-414.90926010828912
 11
270.83146589457374
 21
-414.90926010828912
  0
TEXT
  8
_0-4_図面枠
 62
    7
 10
211.80185989457368
 20
-409.05787210828908
 40
20
 41
0.8
 50
0
  1
正面図　
  0
ARC
  8
_0-3_躯体と製品
  6
CONTINUOUS
 62
    2
 10
253.6278168945737
 20
-34.388797108289168
 40
467
 50
93.830415000012621
 51
177.17701000000031
  0
LINE
  8
_0-3_躯体と製品
  6
CONTINUOUS
 62
    2
 10
-86.372183105426302
 20
-44.388797108289168
 11
253.6278168945737
 21
-44.388797108289168
  0
LINE
  8
_0-3_躯体と製品
  6
CONTINUOUS
 62
    2
 10
-86.372183105426302
 20
-42.388797108289168
 11
253.6278168945737
 21
-42.388797108289168
  0
LINE
  8
_0-3_躯体と製品
  6
CONTINUOUS
 62
    2
 10
-96.372183105426302
 20
-27.388797108289168
 11
253.6278168945737
 21
-27.388797108289168
  0
LINE
  8
_0-4_図面枠
  6
CONTINUOUS
 62
    4
 10
-757.93782510542633
 20
815.99999689171091
 11
-757.93782510542633
 21
-519.00000310828909
  0
ARC
  8
_0-3_躯体と製品
  6
PLINE3
 62
    2
 10
253.6278168945737
 20
-34.388797108289168
 40
433
 50
98.474622999992363
 51
176.69150299999819
  0
LINE
  8
_0-3_躯体と製品
  6
CONTINUOUS
 62
    2
 10
-156.3721831054263
 20
-106.89745110828915
 11
-156.3721831054263
 21
-340.14486310828909
  0
LINE
  8
_0-4_図面枠
  6
CONTINUOUS
 62
    2
 10
203.02874889457371
 20
-383.01434510828915
 11
203.02874889457371
 21
-414.90926010828912
  0
LINE
  8
_0-3_躯体と製品
  6
CONTINUOUS
 62
    2
 10
-86.372184105425276
 20
-44.388797108289168
 11
-74.372182105426418
 21
-54.388797108289168
  0
LINE
  8
_0-3_躯体と製品
  6
CONTINUOUS
 62
    2
 10
-135.37218210542642
 20
-51.888797108289168
 11
-135.37218210542642
 21
-53.388797108289168
  0
LINE
  8
_0-3_躯体と製品
  6
CONTINUOUS
 62
    2
 10
-127.3721831054263
 20
-51.888797108289168
 11
-127.3721831054263
 21
-53.388797108289168
  0
LINE
  8
_0-3_躯体と製品
  6
CONTINUOUS
 62
    7
 10
-152.3721831054263
 20
-47.388797108289168
 11
-152.3721831054263
 21
-87.388797108289168
  0
LINE
  8
_0-3_躯体と製品
  6
CONTINUOUS
 62
    7
 10
-156.3721831054263
 20
-90.388797108289168
 11
-156.3721831054263
 21
-40.388797108289168
  0
LINE
  8
_0-3_躯体と製品
  6
CONTINUOUS
 62
    2
 10
-134.37218210542642
 20
-51.888797108289168
 11
-134.37218210542642
 21
-54.388797108289168
  0
LINE
  8
_0-3_躯体と製品
  6
CONTINUOUS
 62
    2
 10
-128.3721831054263
 20
-51.888797108289168
 11
-128.3721831054263
 21
-54.388797108289168
  0
LINE
  8
_0-3_躯体と製品
  6
CONTINUOUS
 62
    2
 10
-229.3721831054263
 20
-52.888797108289168
 11
-228.87218310542539
 21
-53.388797108289168
  0
LINE
  8
_0-3_躯体と製品
  6
CONTINUOUS
 62
    2
 10
-167.8721831054263
 20
-48.788797108289202
 11
-167.8721831054263
 21
-56.388797108289168
  0
LINE
  8
_0-3_躯体と製品
  6
CONTINUOUS
 62
    2
 10
-180.8721831054263
 20
-48.788797108289202
 11
-180.8721831054263
 21
-56.388797108289168
  0
LINE
  8
_0-3_躯体と製品
  6
CONTINUOUS
 62
    2
 10
-164.8721831054263
 20
-59.388797108289168
 11
-164.8721831054263
 21
-40.388797108289168
  0
LINE
  8
_0-3_躯体と製品
  6
CONTINUOUS
 62
    2
 10
-227.3721831054263
 20
-48.388797108289168
 11
-227.3721831054263
 21
-56.388797108289168
  0
LINE
  8
_0-3_躯体と製品
  6
CONTINUOUS
 62
    2
 10
-234.3721831054263
 20
-47.388797108289168
 11
-234.3721831054263
 21
-69.388797108289168
  0
LINE
  8
_0-3_躯体と製品
  6
CONTINUOUS
 62
    2
 10
-236.3721831054263
 20
-32.388797108289168
 11
-236.3721831054263
 21
-69.388797108289168
  0
LINE
  8
_0-3_躯体と製品
  6
CONTINUOUS
 62
    5
 10
-192.3721831054263
 20
-56.388797108289168
 11
-192.3721831054263
 21
-51.388797108289168
  0
LINE
  8
_0-3_躯体と製品
  6
CONTINUOUS
 62
    2
 10
-183.8721831054263
 20
-52.888797108289168
 11
-183.3721831054263
 21
-53.388797108289168
  0
LINE
  8
_0-3_躯体と製品
  6
PLINE3
 62
    2
 10
-174.3721831054263
 20
-20.191532108289209
 11
-174.3721831054263
 21
-62.388797108289168
  0
LINE
  8
_0-3_躯体と製品
  6
CONTINUOUS
 62
    5
 10
-227.3721831054263
 20
-51.388797108289168
 11
-192.3721831054263
 21
-56.388797108289168
  0
LINE
  8
_0-3_躯体と製品
  6
CONTINUOUS
 62
    5
 10
-192.3721831054263
 20
-51.388797108289168
 11
-227.3721831054263
 21
-56.388797108289168
  0
LINE
  8
_0-3_躯体と製品
  6
PLINE3
 62
    2
 10
-131.3721831054263
 20
-57.339614108289197
 11
-131.3721831054263
 21
-21.388797108289225
  0
LINE
  8
_0-3_躯体と製品
  6
CONTINUOUS
 62
    5
 10
-214.37218210542642
 20
-246.37963210828912
 11
-94.372182105426418
 21
-126.37963210828917
  0
LINE
  8
_0-3_躯体と製品
  6
CONTINUOUS
 62
    5
 10
-214.37218210542642
 20
-243.55120510828914
 11
-94.372182105426418
 21
-123.55120510828914
  0
LINE
  8
_0-3_躯体と製品
  6
CONTINUOUS
 62
    5
 10
-214.37218210542642
 20
-240.72277710828905
 11
-94.372182105426418
 21
-120.72277710828916
  0
LINE
  8
_0-3_躯体と製品
  6
CONTINUOUS
 62
    5
 10
-214.37218210542642
 20
-176.04565010828912
 11
-148.71532810542612
 21
-110.38879710828917
  0
LINE
  8
_0-3_躯体と製品
  6
CONTINUOUS
 62
    5
 10
-214.37218210542642
 20
-173.21722310828909
 11
-151.5437551054265
 21
-110.38879710828917
  0
LINE
  8
_0-3_躯体と製品
  6
CONTINUOUS
 62
    5
 10
-214.37218210542642
 20
-170.38879610828917
 11
-154.3721831054263
 21
-110.38879710828917
  0
LINE
  8
_0-3_躯体と製品
  6
CONTINUOUS
 62
    2
 10
-234.37218210542642
 20
-260.05140510828915
 11
-234.37218210542642
 21
-84.388795108289116
  0
LINE
  8
_0-3_躯体と製品
  6
CONTINUOUS
 62
    3
 10
-94.372182105426418
 20
-260.05140510828915
 11
-94.372182105426418
 21
-110.38879710828917
  0
LINE
  8
_0-3_躯体と製品
  6
CONTINUOUS
 62
    3
 10
-214.37218210542642
 20
-260.05140510828915
 11
-214.37218210542642
 21
-110.38879710828917
  0
LINE
  8
_0-3_躯体と製品
  6
PLINE3
 62
    2
 10
-163.3805641054264
 20
-75.388797108289168
 11
-140.68203510542617
 21
-75.388797108289168
  0
LINE
  8
_0-3_躯体と製品
  6
CONTINUOUS
 62
    3
 10
-214.37218210542642
 20
-110.38879710828917
 11
-94.372182105426418
 21
-110.38879710828917
  0
LINE
  8
_0-3_躯体と製品
  6
CONTINUOUS
 62
    2
 10
-164.8721831054263
 20
-59.388797108289168
 11
-227.3721831054263
 21
-59.388797108289168
  0
LINE
  8
_0-3_躯体と製品
  6
CONTINUOUS
 62
    2
 10
-227.3721831054263
 20
-56.388797108289168
 11
-183.8721831054263
 21
-56.388797108289168
  0
LINE
  8
_0-3_躯体と製品
  6
CONTINUOUS
 62
    2
 10
-219.3721831054263
 20
-84.388797108289168
 11
-219.3721831054263
 21
-69.388797108289168
  0
LINE
  8
_0-3_躯体と製品
  6
CONTINUOUS
 62
    2
 10
-217.3721831054263
 20
-67.388797108289168
 11
-217.3721831054263
 21
-84.388797108289168
  0
ARC
  8
_0-3_躯体と製品
  6
CONTINUOUS
 62
    5
 10
-253.31161510542643
 20
-70.325060108289165
 40
23.927559000000002
 50
324.19019999999517
 51
2.0669360000009744
  0
LINE
  8
_0-3_躯体と製品
  6
CONTINUOUS
 62
    2
 10
-217.37217910542631
 20
-84.388795108289116
 11
-219.37217910542631
 21
-84.388795108289116
  0
LINE
  8
_0-3_躯体と製品
  6
CONTINUOUS
 62
    2
 10
-217.3721831054263
 20
-84.388797108289168
 11
-219.3721831054263
 21
-84.388797108289168
  0
LINE
  8
_0-3_躯体と製品
  6
CONTINUOUS
 62
    2
 10
-219.37218210542642
 20
-84.388795108289116
 11
-234.37218210542642
 21
-84.388795108289116
  0
LINE
  8
_0-3_躯体と製品
  6
CONTINUOUS
 62
    2
 10
-227.3721831054263
 20
-67.388797108289168
 11
-217.3721831054263
 21
-67.388797108289168
  0
LINE
  8
_0-3_躯体と製品
  6
CONTINUOUS
 62
    2
 10
-229.3721831054263
 20
-53.888797108289168
 11
-228.87218310542539
 21
-53.388797108289168
  0
LINE
  8
_0-3_躯体と製品
  6
CONTINUOUS
 62
    2
 10
-229.3721831054263
 20
-69.388797108289168
 11
-219.3721831054263
 21
-69.388797108289168
  0
LINE
  8
_0-3_躯体と製品
  6
CONTINUOUS
 62
    2
 10
-229.3721831054263
 20
-53.888797108289168
 11
-229.3721831054263
 21
-69.388797108289168
  0
LINE
  8
_0-3_躯体と製品
  6
CONTINUOUS
 62
    2
 10
-227.3721831054263
 20
-59.388797108289168
 11
-227.3721831054263
 21
-67.388797108289168
  0
LINE
  8
_0-3_躯体と製品
  6
CONTINUOUS
 62
    2
 10
-234.3721831054263
 20
-69.388797108289168
 11
-236.3721831054263
 21
-69.388797108289168
  0
LINE
  8
_0-3_躯体と製品
  6
CONTINUOUS
 62
    2
 10
-227.3721831054263
 20
-55.888797108289168
 11
-229.3721831054263
 21
-55.888797108289168
  0
LINE
  8
_0-3_躯体と製品
  6
CONTINUOUS
 62
    2
 10
-167.8721831054263
 20
-56.388797108289168
 11
-180.8721831054263
 21
-56.388797108289168
  0
LINE
  8
_0-3_躯体と製品
  6
CONTINUOUS
 62
    2
 10
-183.8721831054263
 20
-53.888797108289168
 11
-183.3721831054263
 21
-53.388797108289168
  0
LINE
  8
_0-3_躯体と製品
  6
CONTINUOUS
 62
    2
 10
-183.8721831054263
 20
-53.888797108289168
 11
-183.8721831054263
 21
-56.388797108289168
  0
LINE
  8
_0-3_躯体と製品
  6
CONTINUOUS
 62
    2
 10
-180.8721831054263
 20
-55.888797108289168
 11
-183.8721831054263
 21
-55.888797108289168
  0
LINE
  8
_0-3_躯体と製品
  6
PLINE3
 62
    2
 10
-127.3721831054263
 20
-97.883020108289145
 11
-127.3721831054263
 21
-126.10705010828917
  0
LINE
  8
_0-3_躯体と製品
  6
CONTINUOUS
 62
    7
 10
-152.3721831054263
 20
-87.388797108289168
 11
-152.3721831054263
 21
-110.38879710828917
  0
ARC
  8
_0-3_躯体と製品
  6
CONTINUOUS
 62
    7
 10
-105.3721831054263
 20
-109.38879710828917
 40
3
 50
0
 51
90
  0
ARC
  8
_0-3_躯体と製品
  6
CONTINUOUS
 62
    7
 10
-145.3721831054263
 20
-103.38879710828917
 40
3
 50
180
 51
270
  0
LINE
  8
_0-3_躯体と製品
  6
CONTINUOUS
 62
    7
 10
-145.3721831054263
 20
-106.38879710828917
 11
-105.3721831054263
 21
-106.38879710828917
  0
LINE
  8
_0-3_躯体と製品
  6
CONTINUOUS
 62
    7
 10
-102.3721831054263
 20
-109.38879710828917
 11
-102.3721831054263
 21
-110.38879710828917
  0
LINE
  8
_0-3_躯体と製品
  6
CONTINUOUS
 62
    7
 10
-148.3721831054263
 20
-63.388797108289168
 11
-148.3721831054263
 21
-103.38879710828917
  0
ARC
  8
_0-3_躯体と製品
  6
CONTINUOUS
 62
    7
 10
-155.3721831054263
 20
-87.388797108289168
 40
3
 50
270
 51
0
  0
LINE
  8
_0-3_躯体と製品
  6
CONTINUOUS
 62
    7
 10
-155.3721831054263
 20
-90.388797108289168
 11
-156.3721831054263
 21
-90.388797108289168
  0
ARC
  8
_0-3_躯体と製品
  6
CONTINUOUS
 62
    7
 10
-151.3721831054263
 20
-63.388797108289168
 40
3
 50
0
 51
90
  0
LINE
  8
_0-3_躯体と製品
  6
CONTINUOUS
 62
    7
 10
-151.3721831054263
 20
-60.388797108289168
 11
-152.3721831054263
 21
-60.388797108289168
  0
LINE
  8
_0-3_躯体と製品
  6
CONTINUOUS
 62
    2
 10
-135.37218210542642
 20
-53.388797108289168
 11
-134.37218210542642
 21
-54.388797108289168
  0
LINE
  8
_0-3_躯体と製品
  6
CONTINUOUS
 62
    2
 10
-134.37218210542642
 20
-54.388797108289168
 11
-128.3721831054263
 21
-54.388797108289168
  0
LINE
  8
_0-3_躯体と製品
  6
CONTINUOUS
 62
    2
 10
-127.3721831054263
 20
-53.388797108289168
 11
-128.3721831054263
 21
-54.388797108289168
  0
LINE
  8
_0-3_躯体と製品
  6
CONTINUOUS
 62
    2
 10
-135.37218210542642
 20
-53.388797108289168
 11
-127.3721831054263
 21
-53.388797108289168
  0
LINE
  8
_0-3_躯体と製品
  6
PLINE3
 62
    2
 10
-223.3721831054263
 20
-45.388797108289168
 11
-243.3721831054263
 21
-45.388797108289168
  0
ARC
  8
_0-3_躯体と製品
  6
CONTINUOUS
 62
    2
 10
-233.3721831054263
 20
-45.388797108289168
 40
5
 50
126.86989799999539
 51
233.13010200000454
  0
LINE
  8
_0-3_躯体と製品
  6
CONTINUOUS
 62
    7
 10
-189.1122891054265
 20
-34.388797108289168
 11
-149.1122891054265
 21
-34.388797108289168
  0
LINE
  8
_0-3_躯体と製品
  6
CONTINUOUS
 62
    2
 10
-164.8721831054263
 20
-40.388797108289168
 11
-98.372183105426302
 21
-40.388797108289168
  0
LINE
  8
_0-3_躯体と製品
  6
CONTINUOUS
 62
    2
 10
-98.372183105426302
 20
-37.388797108289168
 11
-170.3721831054263
 21
-37.388797108289168
  0
LINE
  8
_0-3_躯体と製品
  6
CONTINUOUS
 62
    5
 10
-192.3721831054263
 20
-51.388797108289168
 11
-227.3721831054263
 21
-51.388797108289168
  0
ARC
  8
_0-3_躯体と製品
  6
CONTINUOUS
 62
    5
 10
-197.3721831054263
 20
-40.388797108289168
 40
2
 50
180
 51
270
  0
ARC
  8
_0-3_躯体と製品
  6
CONTINUOUS
 62
    5
 10
-197.3721831054263
 20
-33.388797108289168
 40
2
 50
90
 51
180
  0
LINE
  8
_0-3_躯体と製品
  6
CONTINUOUS
 62
    2
 10
-215.3721831054263
 20
-21.388797108289225
 11
-236.3721831054263
 21
-32.388797108289168
  0
LINE
  8
_0-3_躯体と製品
  6
CONTINUOUS
 62
    2
 10
-215.3721831054263
 20
-23.388797108289168
 11
-215.3721831054263
 21
-27.388797108289168
  0
ARC
  8
_0-3_躯体と製品
  6
CONTINUOUS
 62
    2
 10
-219.3721831054263
 20
-29.388797108289168
 40
3.25
 50
37.979871999991708
 51
322.02012800000824
  0
LINE
  8
_0-3_躯体と製品
  6
CONTINUOUS
 62
    2
 10
-219.3721831054263
 20
-34.388797108289168
 11
-215.3721831054263
 21
-34.388797108289168
  0
LINE
  8
_0-3_躯体と製品
  6
CONTINUOUS
 62
    2
 10
-229.8721831054263
 20
-31.241801108289167
 11
-225.80524310542523
 21
-29.111499108289138
  0
LINE
  8
_0-3_躯体と製品
  6
CONTINUOUS
 62
    2
 10
-229.8721831054263
 20
-31.241801108289167
 11
-229.8721831054263
 21
-37.388797108289168
  0
LINE
  8
_0-3_躯体と製品
  6
CONTINUOUS
 62
    2
 10
-231.8721831054263
 20
-34.388797108289168
 11
-231.8721831054263
 21
-37.388797108289168
  0
LINE
  8
_0-3_躯体と製品
  6
CONTINUOUS
 62
    2
 10
-234.3721831054263
 20
-34.388797108289168
 11
-231.8721831054263
 21
-34.388797108289168
  0
LINE
  8
_0-3_躯体と製品
  6
CONTINUOUS
 62
    2
 10
-229.3721831054263
 20
-50.388797108289168
 11
-229.3721831054263
 21
-52.888797108289168
  0
LINE
  8
_0-3_躯体と製品
  6
CONTINUOUS
 62
    2
 10
-234.3721831054263
 20
-50.388797108289168
 11
-229.3721831054263
 21
-50.388797108289168
  0
LINE
  8
_0-3_躯体と製品
  6
CONTINUOUS
 62
    2
 10
-232.3721831054263
 20
-48.388797108289168
 11
-227.3721831054263
 21
-48.388797108289168
  0
LINE
  8
_0-3_躯体と製品
  6
CONTINUOUS
 62
    2
 10
-232.3721831054263
 20
-47.388797108289168
 11
-232.3721831054263
 21
-48.388797108289168
  0
LINE
  8
_0-3_躯体と製品
  6
CONTINUOUS
 62
    2
 10
-232.3721831054263
 20
-43.388797108289168
 11
-232.3721831054263
 21
-35.388797108289168
  0
ARC
  8
_0-3_躯体と製品
  6
CONTINUOUS
 62
    2
 10
-219.37359710542614
 20
-29.388797108289168
 40
4.9985860000000004
 50
185.8224509999996
 51
270.01620999999773
  0
ARC
  8
_0-3_躯体と製品
  6
CONTINUOUS
 62
    2
 10
-225.34123610542611
 20
-29.997331108289188
 40
1
 50
5.8224539999993103
 51
117.64597500000379
  0
LINE
  8
_0-3_躯体と製品
  6
CONTINUOUS
 62
    2
 10
-227.3721831054263
 20
-50.888797108289168
 11
-229.3721831054263
 21
-50.888797108289168
  0
ARC
  8
_0-3_躯体と製品
  6
CONTINUOUS
 62
    2
 10
-230.8721831054263
 20
-37.388797108289168
 40
1
 50
180
 51
0
  0
LINE
  8
_0-3_躯体と製品
  6
CONTINUOUS
 62
    2
 10
-226.3721831054263
 20
-46.888797108289168
 11
-228.3721831054263
 21
-47.388797108289168
  0
LINE
  8
_0-3_躯体と製品
  6
CONTINUOUS
 62
    2
 10
-226.3721831054263
 20
-43.888797108289168
 11
-226.3721831054263
 21
-46.888797108289168
  0
LINE
  8
_0-3_躯体と製品
  6
CONTINUOUS
 62
    2
 10
-228.3721831054263
 20
-43.388797108289168
 11
-226.3721831054263
 21
-43.888797108289168
  0
LINE
  8
_0-3_躯体と製品
  6
CONTINUOUS
 62
    2
 10
-228.3721831054263
 20
-47.388797108289168
 11
-236.3721831054263
 21
-47.388797108289168
  0
LINE
  8
_0-3_躯体と製品
  6
CONTINUOUS
 62
    2
 10
-228.3721831054263
 20
-43.388797108289168
 11
-228.3721831054263
 21
-47.388797108289168
  0
LINE
  8
_0-3_躯体と製品
  6
CONTINUOUS
 62
    2
 10
-236.3721831054263
 20
-43.388797108289168
 11
-228.3721831054263
 21
-43.388797108289168
  0
ARC
  8
_0-3_躯体と製品
  6
CONTINUOUS
 62
    2
 10
-233.3721831054263
 20
-35.388797108289168
 40
1
 50
0
 51
180
  0
LINE
  8
_0-3_躯体と製品
  6
CONTINUOUS
 62
    2
 10
-234.3721831054263
 20
-43.388797108289168
 11
-234.3721831054263
 21
-34.388797108289168
  0
LINE
  8
_0-3_躯体と製品
  6
CONTINUOUS
 62
    2
 10
-215.3721831054263
 20
-34.388797108289168
 11
-215.3721831054263
 21
-31.388797108289168
  0
LINE
  8
_0-3_躯体と製品
  6
CONTINUOUS
 62
    2
 10
-216.81044510542642
 20
-31.388797108289168
 11
-215.3721831054263
 21
-31.388797108289168
  0
LINE
  8
_0-3_躯体と製品
  6
CONTINUOUS
 62
    5
 10
-210.3721831054263
 20
-34.388797108289168
 11
-215.3721831054263
 21
-34.388797108289168
  0
LINE
  8
_0-3_躯体と製品
  6
CONTINUOUS
 62
    2
 10
-215.3721831054263
 20
-27.388797108289168
 11
-216.81044510542642
 21
-27.388797108289168
  0
LINE
  8
_0-3_躯体と製品
  6
CONTINUOUS
 62
    5
 10
-206.3721831054263
 20
-34.388797108289168
 11
-206.3721831054263
 21
-51.388797108289168
  0
LINE
  8
_0-3_躯体と製品
  6
CONTINUOUS
 62
    5
 10
-199.3721831054263
 20
-33.388797108289168
 11
-199.3721831054263
 21
-51.388797108289168
  0
ARC
  8
_0-3_躯体と製品
  6
CONTINUOUS
 62
    5
 10
-210.3721831054263
 20
-29.388797108289168
 40
5
 50
270
 51
323.06077399999958
  0
ARC
  8
_0-3_躯体と製品
  6
CONTINUOUS
 62
    5
 10
-243.79573110542651
 20
-14.812063108289124
 40
29.189286000000003
 50
346.97870000000319
 51
6.7350449999994604
  0
LINE
  8
_0-3_躯体と製品
  6
CONTINUOUS
 62
    2
 10
-212.80545810542617
 20
-11.388797108289225
 11
-214.80787710542609
 21
-11.388797108289225
  0
ARC
  8
_0-3_躯体と製品
  6
CONTINUOUS
 62
    5
 10
-227.65630110542634
 20
6.1918788917108714
 40
30.198779999999999
 50
294.03394700001024
 51
315.9394890000076
  0
LINE
  8
_0-3_躯体と製品
  6
CONTINUOUS
 62
    2
 10
-211.3721831054263
 20
-21.388797108289225
 11
-215.3721831054263
 21
-21.388797108289225
  0
LINE
  8
_0-3_躯体と製品
  6
CONTINUOUS
 62
    2
 10
-211.3721831054263
 20
-23.388797108289168
 11
-215.3721831054263
 21
-23.388797108289168
  0
LINE
  8
_0-3_躯体と製品
  6
CONTINUOUS
 62
    5
 10
-210.3721831054263
 20
-24.388797108289168
 11
-215.3721831054263
 21
-24.388797108289168
  0
ARC
  8
_0-3_躯体と製品
  6
CONTINUOUS
 62
    5
 10
-210.3721831054263
 20
-29.388797108289168
 40
5
 50
34.603110000006389
 51
90
  0
LINE
  8
_0-3_躯体と製品
  6
CONTINUOUS
 62
    2
 10
-211.3721831054263
 20
-21.388797108289225
 11
-211.3721831054263
 21
-23.388797108289168
  0
LINE
  8
_0-3_躯体と製品
  6
CONTINUOUS
 62
    2
 10
-178.3721831054263
 20
-30.788797108289202
 11
-178.3721831054263
 21
-25.975088108289128
  0
LINE
  8
_0-3_躯体と製品
  6
CONTINUOUS
 62
    2
 10
-170.3721831054263
 20
-30.788797108289202
 11
-170.3721831054263
 21
-25.975088108289128
  0
LINE
  8
_0-3_躯体と製品
  6
CONTINUOUS
 62
    2
 10
-166.37218310542539
 20
-26.011367108289107
 11
-166.37218310542539
 21
-30.788797108289202
  0
LINE
  8
_0-3_躯体と製品
  6
CONTINUOUS
 62
    2
 10
-182.37218310542539
 20
-30.788797108289202
 11
-182.37218310542539
 21
-26.011367108289107
  0
LINE
  8
_0-3_躯体と製品
  6
PLINE2
 62
    7
 10
-168.16104810542629
 20
-21.041404108289129
 11
-164.1122891054265
 21
-34.388797108289168
  0
LINE
  8
_0-3_躯体と製品
  6
CONTINUOUS
 62
    7
 10
-189.1122891054265
 20
-19.388797108289225
 11
-189.1122891054265
 21
-37.388797108289168
  0
LINE
  8
_0-3_躯体と製品
  6
CONTINUOUS
 62
    2
 10
-165.8721831054263
 20
-32.788797108289202
 11
-182.8721831054263
 21
-32.788797108289202
  0
ARC
  8
_0-3_躯体と製品
  6
CONTINUOUS
 62
    2
 10
-177.6221831054263
 20
-37.850306108289203
 40
8.0384910000000005
 50
246.15243400000946
 51
293.84756599999042
  0
LINE
  8
_0-3_躯体と製品
  6
CONTINUOUS
 62
    2
 10
-166.37218310542539
 20
-30.788797108289202
 11
-182.37218310542539
 21
-30.788797108289202
  0
LINE
  8
_0-3_躯体と製品
  6
CONTINUOUS
 62
    2
 10
-178.8721831054263
 20
-48.788797108289202
 11
-180.8721831054263
 21
-48.788797108289202
  0
LINE
  8
_0-3_躯体と製品
  6
CONTINUOUS
 62
    2
 10
-167.8721831054263
 20
-40.388797108289168
 11
-180.8721831054263
 21
-40.388797108289168
  0
LINE
  8
_0-3_躯体と製品
  6
CONTINUOUS
 62
    2
 10
-178.3721831054263
 20
-37.388797108289168
 11
-194.3721831054263
 21
-37.388797108289168
  0
LINE
  8
_0-3_躯体と製品
  6
CONTINUOUS
 62
    2
 10
-180.8721831054263
 20
-47.288797108289202
 11
-178.8721831054263
 21
-47.288797108289202
  0
LINE
  8
_0-3_躯体と製品
  6
CONTINUOUS
 62
    2
 10
-191.36646810542607
 20
-34.388797108289168
 11
-189.1414021054261
 21
-34.388797108289168
  0
LINE
  8
_0-3_躯体と製品
  6
CONTINUOUS
 62
    2
 10
-182.8721831054263
 20
-32.788797108289202
 11
-182.8721831054263
 21
-34.388797108289168
  0
LINE
  8
_0-3_躯体と製品
  6
CONTINUOUS
 62
    2
 10
-182.17218310542648
 20
-30.788797108289202
 11
-182.17218310542648
 21
-32.788797108289202
  0
LINE
  8
_0-3_躯体と製品
  6
CONTINUOUS
 62
    2
 10
-183.8721831054263
 20
-40.388797108289168
 11
-196.3721831054263
 21
-40.388797108289168
  0
LINE
  8
_0-3_躯体と製品
  6
CONTINUOUS
 62
    2
 10
-183.8721831054263
 20
-52.888797108289168
 11
-183.8721831054263
 21
-40.388797108289168
  0
LINE
  8
_0-3_躯体と製品
  6
CONTINUOUS
 62
    2
 10
-180.8721831054263
 20
-40.388797108289168
 11
-180.8721831054263
 21
-47.288797108289202
  0
LINE
  8
_0-3_躯体と製品
  6
CONTINUOUS
 62
    2
 10
-196.3721831054263
 20
-40.388797108289168
 11
-196.3721831054263
 21
-34.388797108289168
  0
LINE
  8
_0-3_躯体と製品
  6
CONTINUOUS
 62
    5
 10
-191.3721831054263
 20
-33.388797108289168
 11
-191.3721831054263
 21
-37.388797108289168
  0
ARC
  8
_0-3_躯体と製品
  6
CONTINUOUS
 62
    5
 10
-193.3721831054263
 20
-33.388797108289168
 40
2
 50
0
 51
90
  0
LINE
  8
_0-3_躯体と製品
  6
CONTINUOUS
 62
    5
 10
-193.3721831054263
 20
-31.388797108289168
 11
-197.3721831054263
 21
-31.388797108289168
  0
LINE
  8
_0-3_躯体と製品
  6
CONTINUOUS
 62
    2
 10
-180.8721831054263
 20
-50.888797108289168
 11
-183.8721831054263
 21
-50.888797108289168
  0
LINE
  8
_0-3_躯体と製品
  6
CONTINUOUS
 62
    2
 10
-195.3721831054263
 20
-42.388797108289168
 11
-197.3721831054263
 21
-42.388797108289168
  0
ARC
  8
_0-3_躯体と製品
  6
CONTINUOUS
 62
    2
 10
-195.3721831054263
 20
-41.388797108289168
 40
1
 50
270
 51
90
  0
LINE
  8
_0-3_躯体と製品
  6
CONTINUOUS
 62
    2
 10
-194.3721831054263
 20
-34.388797108289168
 11
-194.3721831054263
 21
-37.388797108289168
  0
LINE
  8
_0-3_躯体と製品
  6
CONTINUOUS
 62
    2
 10
-196.3721831054263
 20
-34.388797108289168
 11
-194.3721831054263
 21
-34.388797108289168
  0
LINE
  8
_0-3_躯体と製品
  6
CONTINUOUS
 62
    2
 10
-165.8721831054263
 20
-34.388797108289168
 11
-165.8721831054263
 21
-32.788797108289202
  0
LINE
  8
_0-3_躯体と製品
  6
CONTINUOUS
 62
    2
 10
-171.1221831054263
 20
-45.888797108289168
 11
-177.6221831054263
 21
-45.888797108289168
  0
LINE
  8
_0-3_躯体と製品
  6
CONTINUOUS
 62
    2
 10
-166.57218310542612
 20
-30.788797108289202
 11
-166.57218310542612
 21
-32.788797108289202
  0
LINE
  8
_0-3_躯体と製品
  6
CONTINUOUS
 62
    2
 10
-174.3721831054263
 20
-30.788797108289202
 11
-176.3721831054263
 21
-32.788797108289202
  0
LINE
  8
_0-3_躯体と製品
  6
CONTINUOUS
 62
    2
 10
-172.3721831054263
 20
-30.788797108289202
 11
-174.3721831054263
 21
-32.788797108289202
  0
LINE
  8
_0-3_躯体と製品
  6
CONTINUOUS
 62
    2
 10
-169.8721831054263
 20
-48.788797108289202
 11
-167.8721831054263
 21
-48.788797108289202
  0
LINE
  8
_0-3_躯体と製品
  6
CONTINUOUS
 62
    2
 10
-167.8721831054263
 20
-40.388797108289168
 11
-167.8721831054263
 21
-47.288797108289202
  0
LINE
  8
_0-3_躯体と製品
  6
CONTINUOUS
 62
    2
 10
-170.1221831054263
 20
-37.388797108289168
 11
-170.1221831054263
 21
-40.388797108289168
  0
LINE
  8
_0-3_躯体と製品
  6
CONTINUOUS
 62
    2
 10
-178.6221831054263
 20
-37.388797108289168
 11
-178.6221831054263
 21
-40.388797108289168
  0
LINE
  8
_0-3_躯体と製品
  6
CONTINUOUS
 62
    2
 10
-169.8721831054263
 20
-47.288797108289202
 11
-169.8721831054263
 21
-48.788797108289202
  0
LINE
  8
_0-3_躯体と製品
  6
CONTINUOUS
 62
    2
 10
-167.8721831054263
 20
-47.288797108289202
 11
-169.8721831054263
 21
-47.288797108289202
  0
LINE
  8
_0-3_躯体と製品
  6
CONTINUOUS
 62
    2
 10
-178.8721831054263
 20
-47.288797108289202
 11
-178.8721831054263
 21
-48.788797108289202
  0
ARC
  8
_0-3_躯体と製品
  6
CONTINUOUS
 62
    2
 10
-171.1221831054263
 20
-37.850306108289203
 40
8.0384910000000005
 50
246.15243400000946
 51
293.84756599999042
  0
LINE
  8
_0-3_躯体と製品
  6
CONTINUOUS
 62
    2
 10
-178.3721831054263
 20
-34.388797108289168
 11
-178.3721831054263
 21
-40.388797108289168
  0
LINE
  8
_0-3_躯体と製品
  6
CONTINUOUS
 62
    2
 10
-170.3721831054263
 20
-34.388797108289168
 11
-170.3721831054263
 21
-40.388797108289168
  0
LINE
  8
_0-3_躯体と製品
  6
CONTINUOUS
 62
    2
 10
-185.91228910542623
 20
-15.474779108289113
 11
-179.1122891054265
 21
-11.54879710828925
  0
ARC
  8
_0-3_躯体と製品
  6
CONTINUOUS
 62
    2
 10
-179.11919710542634
 20
-19.388797108289225
 40
6.793092999999998
 50
342.87743600000078
 51
247.21824400000699
  0
LINE
  8
_0-3_躯体と製品
  6
PLINE3
 62
    2
 10
-167.1122891054265
 20
-19.388797108289225
 11
-191.11228910542513
 21
-19.388797108289225
  0
ARC
  8
_0-3_躯体と製品
  6
CONTINUOUS
 62
    2
 10
-180.30185010542618
 20
-28.344797108289185
 40
3.056
 50
50.843868000007319
 51
90
  0
LINE
  8
_0-3_躯体と製品
  6
CONTINUOUS
 62
    2
 10
-167.6237101054262
 20
-25.288797108289202
 11
-181.12065510542516
 21
-25.288797108289202
  0
ARC
  8
_0-3_躯体と製品
  6
CONTINUOUS
 62
    7
 10
-179.1122891054265
 20
-19.388797108289225
 40
10
 50
16.874482999998289
 51
179.99999999999997
  0
LINE
  8
_0-3_躯体と製品
  6
CONTINUOUS
 62
    2
 10
-185.91228910542623
 20
-23.302815108289167
 11
-185.91228910542623
 21
-15.474779108289113
  0
LINE
  8
_0-3_躯体と製品
  6
CONTINUOUS
 62
    2
 10
-181.79656210542635
 20
-25.679032108289164
 11
-185.91228910542623
 21
-23.302815108289167
  0
LINE
  8
_0-3_躯体と製品
  6
CONTINUOUS
 62
    2
 10
-181.12065510542516
 20
-25.288797108289202
 11
-182.37218310542539
 21
-26.011367108289107
  0
LINE
  8
_0-3_躯体と製品
  6
CONTINUOUS
 62
    2
 10
-172.31228910542632
 20
-15.474779108289113
 11
-172.31228910542632
 21
-21.388797108289225
  0
LINE
  8
_0-3_躯体と製品
  6
CONTINUOUS
 62
    2
 10
-179.1122891054265
 20
-11.54879710828925
 11
-172.31228910542632
 21
-15.474779108289113
  0
LINE
  8
_0-3_躯体と製品
  6
PLINE3
 62
    2
 10
-179.1122891054265
 20
-25.288797108289202
 11
-179.1122891054265
 21
-7.388797108289225
  0
LINE
  8
_0-3_躯体と製品
  6
CONTINUOUS
 62
    2
 10
-178.3721831054263
 20
-22.388797108289168
 11
-178.3721831054263
 21
-25.288797108289202
  0
LINE
  8
_0-3_躯体と製品
  6
CONTINUOUS
 62
    2
 10
-177.3721831054263
 20
-21.388797108289225
 11
-178.3721831054263
 21
-22.388797108289168
  0
LINE
  8
_0-3_躯体と製品
  6
CONTINUOUS
 62
    2
 10
-171.3721831054263
 20
-21.388797108289225
 11
-177.3721831054263
 21
-21.388797108289225
  0
LINE
  8
_0-3_躯体と製品
  6
CONTINUOUS
 62
    2
 10
-170.3721831054263
 20
-22.388797108289168
 11
-171.3721831054263
 21
-21.388797108289225
  0
LINE
  8
_0-3_躯体と製品
  6
CONTINUOUS
 62
    2
 10
-170.3721831054263
 20
-25.288797108289202
 11
-170.3721831054263
 21
-22.388797108289168
  0
ARC
  8
_0-3_躯体と製品
  6
CONTINUOUS
 62
    2
 10
-174.3721831054263
 20
-37.288797108289202
 40
12
 50
90
 51
109.4712210000079
  0
ARC
  8
_0-3_躯体と製品
  6
CONTINUOUS
 62
    2
 10
-168.44251510542608
 20
-28.344797108289185
 40
3.056
 50
90
 51
129.1561319999926
  0
ARC
  8
_0-3_躯体と製品
  6
CONTINUOUS
 62
    2
 10
-174.3721831054263
 20
-37.288797108289202
 40
12
 50
70.52877899999207
 51
90
  0
LINE
  8
_0-3_躯体と製品
  6
CONTINUOUS
 62
    2
 10
-166.37218310542539
 20
-26.011367108289107
 11
-167.6237101054262
 21
-25.288797108289202
  0
LINE
  8
_0-3_躯体と製品
  6
CONTINUOUS
 62
    7
 10
-169.54286110542625
 20
-16.486034108289118
 11
-168.16104810542629
 21
-21.041404108289129
  0
LINE
  8
_0-3_躯体と製品
  6
CONTINUOUS
 62
    7
 10
-109.3721831054263
 20
-44.388797108289168
 11
-149.3721831054263
 21
-44.388797108289168
  0
ARC
  8
_0-3_躯体と製品
  6
CONTINUOUS
 62
    7
 10
-149.3721831054263
 20
-47.388797108289168
 40
3
 50
90
 51
180
  0
LINE
  8
_0-3_躯体と製品
  6
CONTINUOUS
 62
    7
 10
-149.1122891054265
 20
-34.388797108289168
 11
-149.1122891054265
 21
-37.388797108289168
  0
LINE
  8
_0-3_躯体と製品
  6
CONTINUOUS
 62
    7
 10
-139.37218210542642
 20
-46.388797108289168
 11
-123.3721831054263
 21
-46.388797108289168
  0
LINE
  8
_0-3_躯体と製品
  6
CONTINUOUS
 62
    2
 10
-135.37218210542642
 20
-46.388797108289168
 11
-135.37218210542642
 21
-51.202505108289131
  0
ARC
  8
_0-3_躯体と製品
  6
CONTINUOUS
 62
    2
 10
-137.30185010542618
 20
-48.832797108289185
 40
3.056
 50
270
 51
309.15613199999262
  0
ARC
  8
_0-3_躯体と製品
  6
CONTINUOUS
 62
    2
 10
-131.3721831054263
 20
-39.888797108289168
 40
12
 50
250.52877899999214
 51
270
  0
LINE
  8
_0-3_躯体と製品
  6
CONTINUOUS
 62
    2
 10
-138.12065510542516
 20
-51.888797108289168
 11
-131.3721831054263
 21
-51.888797108289168
  0
LINE
  8
_0-3_躯体と製品
  6
CONTINUOUS
 62
    2
 10
-139.37218210542642
 20
-51.166227108289149
 11
-138.12065510542516
 21
-51.888797108289168
  0
LINE
  8
_0-3_躯体と製品
  6
CONTINUOUS
 62
    2
 10
-139.37218210542642
 20
-46.388797108289168
 11
-139.37218210542642
 21
-51.166227108289149
  0
ARC
  8
_0-3_躯体と製品
  6
CONTINUOUS
 62
    2
 10
-125.44251510542608
 20
-48.832797108289185
 40
3.056
 50
230.84386800000729
 51
270
  0
ARC
  8
_0-3_躯体と製品
  6
CONTINUOUS
 62
    2
 10
-131.3721831054263
 20
-39.888797108289168
 40
12
 50
270
 51
289.47122100000792
  0
LINE
  8
_0-3_躯体と製品
  6
CONTINUOUS
 62
    2
 10
-127.3721831054263
 20
-46.388797108289168
 11
-127.3721831054263
 21
-51.202505108289131
  0
LINE
  8
_0-3_躯体と製品
  6
CONTINUOUS
 62
    2
 10
-124.6237101054262
 20
-51.888797108289168
 11
-131.3721831054263
 21
-51.888797108289168
  0
LINE
  8
_0-3_躯体と製品
  6
CONTINUOUS
 62
    2
 10
-123.3721831054263
 20
-51.166227108289149
 11
-124.6237101054262
 21
-51.888797108289168
  0
LINE
  8
_0-3_躯体と製品
  6
CONTINUOUS
 62
    2
 10
-123.3721831054263
 20
-46.388797108289168
 11
-123.3721831054263
 21
-51.166227108289149
  0
LINE
  8
_0-3_躯体と製品
  6
CONTINUOUS
 62
    2
 10
-135.3721831054263
 20
-34.388797108289168
 11
-135.3721831054263
 21
-29.575088108289094
  0
ARC
  8
_0-3_躯体と製品
  6
CONTINUOUS
 62
    2
 10
-137.30185010542618
 20
-31.944797108289208
 40
3.056
 50
50.843868000007319
 51
90
  0
ARC
  8
_0-3_躯体と製品
  6
CONTINUOUS
 62
    2
 10
-131.3721831054263
 20
-40.888797108289168
 40
12
 50
90
 51
109.4712210000079
  0
LINE
  8
_0-3_躯体と製品
  6
CONTINUOUS
 62
    2
 10
-138.12065510542516
 20
-28.888797108289168
 11
-131.3721831054263
 21
-28.888797108289168
  0
LINE
  8
_0-3_躯体と製品
  6
CONTINUOUS
 62
    2
 10
-139.3721831054263
 20
-29.61136710828913
 11
-138.12065510542516
 21
-28.888797108289168
  0
ARC
  8
_0-3_躯体と製品
  6
CONTINUOUS
 62
    2
 10
-125.44251510542608
 20
-31.944797108289208
 40
3.056
 50
90
 51
129.1561319999926
  0
ARC
  8
_0-3_躯体と製品
  6
CONTINUOUS
 62
    2
 10
-131.3721831054263
 20
-40.888797108289168
 40
12
 50
70.52877899999207
 51
90
  0
LINE
  8
_0-3_躯体と製品
  6
CONTINUOUS
 62
    2
 10
-127.3721831054263
 20
-34.388797108289168
 11
-127.3721831054263
 21
-29.575088108289094
  0
LINE
  8
_0-3_躯体と製品
  6
CONTINUOUS
 62
    2
 10
-124.6237101054262
 20
-28.888797108289168
 11
-131.3721831054263
 21
-28.888797108289168
  0
LINE
  8
_0-3_躯体と製品
  6
CONTINUOUS
 62
    2
 10
-123.3721831054263
 20
-29.61136710828913
 11
-124.6237101054262
 21
-28.888797108289168
  0
LINE
  8
_0-3_躯体と製品
  6
CONTINUOUS
 62
    2
 10
-139.8721831054263
 20
-34.388797108289168
 11
-122.8721831054263
 21
-34.388797108289168
  0
LINE
  8
_0-3_躯体と製品
  6
CONTINUOUS
 62
    2
 10
-123.3721831054263
 20
-29.61136710828913
 11
-123.3721831054263
 21
-34.388797108289168
  0
LINE
  8
_0-3_躯体と製品
  6
CONTINUOUS
 62
    2
 10
-123.57218310542612
 20
-44.388797108289168
 11
-123.57218310542612
 21
-46.388797108289168
  0
LINE
  8
_0-3_躯体と製品
  6
CONTINUOUS
 62
    2
 10
-139.3721831054263
 20
-34.388797108289168
 11
-139.3721831054263
 21
-29.61136710828913
  0
LINE
  8
_0-3_躯体と製品
  6
CONTINUOUS
 62
    2
 10
-139.17218310542648
 20
-44.388797108289168
 11
-139.17218310542648
 21
-46.388797108289168
  0
LINE
  8
_0-3_躯体と製品
  6
CONTINUOUS
 62
    2
 10
-122.8721831054263
 20
-37.388797108289168
 11
-122.8721831054263
 21
-34.388797108289168
  0
LINE
  8
_0-3_躯体と製品
  6
CONTINUOUS
 62
    2
 10
-139.8721831054263
 20
-35.788797108289202
 11
-122.8721831054263
 21
-35.788797108289202
  0
LINE
  8
_0-3_躯体と製品
  6
CONTINUOUS
 62
    2
 10
-139.8721831054263
 20
-37.388797108289168
 11
-139.8721831054263
 21
-34.388797108289168
  0
LINE
  8
_0-3_躯体と製品
  6
CONTINUOUS
 62
    2
 10
-131.3721831054263
 20
-44.388797108289168
 11
-133.3721831054263
 21
-46.388797108289168
  0
LINE
  8
_0-3_躯体と製品
  6
CONTINUOUS
 62
    2
 10
-129.3721831054263
 20
-44.388797108289168
 11
-131.3721831054263
 21
-46.388797108289168
  0
LINE
  8
_0-3_躯体と製品
  6
CONTINUOUS
 62
    2
 10
-135.3721831054263
 20
-37.388797108289168
 11
-135.3721831054263
 21
-44.388797108289168
  0
LINE
  8
_0-3_躯体と製品
  6
CONTINUOUS
 62
    2
 10
-127.3721831054263
 20
-37.388797108289168
 11
-127.3721831054263
 21
-44.388797108289168
  0
ARC
  8
_0-3_躯体と製品
  6
CONTINUOUS
 62
    7
 10
-109.3721831054263
 20
-41.388797108289168
 40
3
 50
270
 51
0
  0
LINE
  8
_0-3_躯体と製品
  6
CONTINUOUS
 62
    7
 10
-106.3721831054263
 20
-41.388797108289168
 11
-106.3721831054263
 21
-40.388797108289168
  0
LINE
  8
_0-3_躯体と製品
  6
CONTINUOUS
 62
    2
 10
-98.372183105426302
 20
-40.388797108289168
 11
-98.372183105426302
 21
-42.388797108289168
  0
LINE
  8
_0-3_躯体と製品
  6
CONTINUOUS
 62
    2
 10
-98.372183105426302
 20
-27.388797108289168
 11
-98.372183105426302
 21
-37.388797108289168
  0
LINE
  8
_0-3_躯体と製品
  6
CONTINUOUS
 62
    2
 10
-96.372183105426302
 20
-42.388797108289168
 11
-86.372183105426302
 21
-42.388797108289168
  0
LINE
  8
_0-3_躯体と製品
  6
CONTINUOUS
 62
    2
 10
-96.372183105426302
 20
-27.388797108289168
 11
-96.372183105426302
 21
-42.388797108289168
  0
LINE
  8
_0-3_躯体と製品
  6
CONTINUOUS
 62
    2
 10
-98.372183105426302
 20
-27.388797108289168
 11
-96.372183105426302
 21
-27.388797108289168
  0
LINE
  8
_0-3_躯体と製品
  6
CONTINUOUS
 62
    2
 10
-86.372183105426302
 20
-44.388797108289168
 11
-100.3721831054263
 21
-44.388797108289168
  0
LINE
  8
_0-3_躯体と製品
  6
CONTINUOUS
 62
    2
 10
-86.372183105426302
 20
-42.388797108289168
 11
-86.372183105426302
 21
-44.388797108289168
  0
LINE
  8
_0-3_躯体と製品
  6
CONTINUOUS
 62
    2
 10
-98.372183105426302
 20
-42.388797108289168
 11
-100.3721831054263
 21
-42.388797108289168
  0
ARC
  8
_0-3_躯体と製品
  6
CONTINUOUS
 62
    2
 10
-100.3721831054263
 20
-43.388797108289168
 40
1
 50
90
 51
270
  0
LINE
  8
_0-3_躯体と製品
  6
CONTINUOUS
 62
    2
 10
-74.372182105426418
 20
-260.05140510828915
 11
-74.372182105426418
 21
-54.388797108289168
  0
LINE
  8
_0-3_躯体と製品
  6
CONTINUOUS
 62
    2
 10
189.6278168945737
 20
-27.388797108289168
 11
189.6278168945737
 21
-25.975088108289128
  0
LINE
  8
_0-3_躯体と製品
  6
CONTINUOUS
 62
    2
 10
197.6278168945737
 20
-27.388797108289168
 11
197.6278168945737
 21
-25.975088108289128
  0
LINE
  8
_0-3_躯体と製品
  6
CONTINUOUS
 62
    2
 10
201.6278168945737
 20
-26.011367108289107
 11
201.6278168945737
 21
-27.388797108289168
  0
LINE
  8
_0-3_躯体と製品
  6
CONTINUOUS
 62
    2
 10
185.6278168945737
 20
-27.388797108289168
 11
185.6278168945737
 21
-26.011367108289107
  0
LINE
  8
_0-3_躯体と製品
  6
CONTINUOUS
 62
    2
 10
193.6278168945737
 20
-18.388797108289225
 11
193.6278168945737
 21
-27.388797108289168
  0
LINE
  8
_0-3_躯体と製品
  6
CONTINUOUS
 62
    2
 10
215.8503868945736
 20
-27.388797108289168
 11
215.1278168945737
 21
-26.137270108289158
  0
LINE
  8
_0-3_躯体と製品
  6
CONTINUOUS
 62
    7
 10
220.6278168945737
 20
-9.388797108289225
 11
220.6278168945737
 21
-27.388797108289168
  0
LINE
  8
_0-3_躯体と製品
  6
CONTINUOUS
 62
    2
 10
220.6278168945737
 20
-27.388797108289168
 11
215.8503868945736
 21
-27.388797108289168
  0
ARC
  8
_0-3_躯体と製品
  6
CONTINUOUS
 62
    2
 10
187.69814989457382
 20
-28.344797108289185
 40
3.056
 50
50.843868000007319
 51
90
  0
ARC
  8
_0-3_躯体と製品
  6
CONTINUOUS
 62
    2
 10
193.6278168945737
 20
-37.288797108289202
 40
12
 50
90
 51
109.4712210000079
  0
LINE
  8
_0-3_躯体と製品
  6
CONTINUOUS
 62
    2
 10
186.87934489457393
 20
-25.288797108289202
 11
193.6278168945737
 21
-25.288797108289202
  0
LINE
  8
_0-3_躯体と製品
  6
CONTINUOUS
 62
    2
 10
185.6278168945737
 20
-26.011367108289107
 11
186.87934489457393
 21
-25.288797108289202
  0
ARC
  8
_0-3_躯体と製品
  6
CONTINUOUS
 62
    2
 10
199.55748489457392
 20
-28.344797108289185
 40
3.056
 50
90
 51
129.1561319999926
  0
ARC
  8
_0-3_躯体と製品
  6
CONTINUOUS
 62
    2
 10
193.6278168945737
 20
-37.288797108289202
 40
12
 50
70.52877899999207
 51
90
  0
LINE
  8
_0-3_躯体と製品
  6
CONTINUOUS
 62
    2
 10
200.3762898945738
 20
-25.288797108289202
 11
193.6278168945737
 21
-25.288797108289202
  0
LINE
  8
_0-3_躯体と製品
  6
CONTINUOUS
 62
    2
 10
201.6278168945737
 20
-26.011367108289107
 11
200.3762898945738
 21
-25.288797108289202
  0
LINE
  8
_0-3_躯体と製品
  6
CONTINUOUS
 62
    2
 10
189.6278168945737
 20
-21.388797108289225
 11
190.6278168945737
 21
-20.388797108289225
  0
LINE
  8
_0-3_躯体と製品
  6
CONTINUOUS
 62
    2
 10
190.6278168945737
 20
-20.388797108289225
 11
196.6278168945737
 21
-20.388797108289225
  0
LINE
  8
_0-3_躯体と製品
  6
CONTINUOUS
 62
    2
 10
189.6278168945737
 20
-25.288797108289202
 11
189.6278168945737
 21
-21.388797108289225
  0
LINE
  8
_0-3_躯体と製品
  6
CONTINUOUS
 62
    2
 10
197.6278168945737
 20
-21.388797108289225
 11
196.6278168945737
 21
-20.388797108289225
  0
LINE
  8
_0-3_躯体と製品
  6
CONTINUOUS
 62
    2
 10
197.6278168945737
 20
-25.288797108289202
 11
197.6278168945737
 21
-21.388797108289225
  0
LINE
  8
_0-3_躯体と製品
  6
CONTINUOUS
 62
    2
 10
220.6278168945737
 20
-15.388797108289225
 11
215.81410889457356
 21
-15.388797108289225
  0
LINE
  8
_0-3_躯体と製品
  6
CONTINUOUS
 62
    2
 10
220.6278168945737
 20
-23.388797108289168
 11
215.81410889457356
 21
-23.388797108289168
  0
ARC
  8
_0-3_躯体と製品
  6
CONTINUOUS
 62
    2
 10
218.18381689457374
 20
-13.459129108289119
 40
3.056
 50
180
 51
219.15613199999609
  0
ARC
  8
_0-3_躯体と製品
  6
CONTINUOUS
 62
    2
 10
227.1278168945737
 20
-19.388797108289225
 40
12
 50
160.52877900000249
 51
180
  0
LINE
  8
_0-3_躯体と製品
  6
CONTINUOUS
 62
    2
 10
215.1278168945737
 20
-12.640324108289121
 11
215.1278168945737
 21
-19.388797108289225
  0
LINE
  8
_0-3_躯体と製品
  6
CONTINUOUS
 62
    2
 10
215.8503868945736
 20
-11.388797108289225
 11
215.1278168945737
 21
-12.640324108289121
  0
LINE
  8
_0-3_躯体と製品
  6
CONTINUOUS
 62
    2
 10
220.6278168945737
 20
-11.388797108289225
 11
215.8503868945736
 21
-11.388797108289225
  0
ARC
  8
_0-3_躯体と製品
  6
CONTINUOUS
 62
    2
 10
218.18381689457374
 20
-25.318465108289161
 40
3.056
 50
140.84386800000382
 51
180.00000000000003
  0
ARC
  8
_0-3_躯体と製品
  6
CONTINUOUS
 62
    2
 10
227.1278168945737
 20
-19.388797108289225
 40
12
 50
180
 51
199.4712209999974
  0
LINE
  8
_0-3_躯体と製品
  6
CONTINUOUS
 62
    2
 10
215.1278168945737
 20
-26.137270108289158
 11
215.1278168945737
 21
-19.388797108289225
  0
TEXT
  8
_0-4_図面枠
 62
    7
 10
-710.14312510542641
 20
743.8130308917107
 40
20
 41
0.8000000000000007
 50
0
  1
縮　　尺
  0
LINE
  8
_0-4_図面枠
  6
CONTINUOUS
 62
    2
 10
-424.60449210542629
 20
774.33332989171095
 11
-757.93782510542633
 21
774.33332989171095
  0
TEXT
  8
_0-4_図面枠
 62
    7
 10
-718.85067310542627
 20
783.21297889171092
 40
20
 41
0.8
 50
0
  1
ファイル名
  0
TEXT
  8
_0-4_図面枠
 62
    7
 10
-540.6455921054262
 20
784.32458189171098
 40
20
 41
0.7999999999999992
 50
0
  1
ＳＴ　６
  0
LINE
  8
_0-4_図面枠
  6
CONTINUOUS
 62
    4
 10
-424.60449210542629
 20
815.99999689171091
 11
-424.60449210542629
 21
732.66666389171087
  0
LINE
  8
_0-4_図面枠
  6
CONTINUOUS
 62
    2
 10
-591.27115810542637
 20
815.99999689171091
 11
-591.27115810542637
 21
732.66666389171087
  0
TEXT
  8
_0-4_図面枠
 62
    7
 10
-559.31351910542617
 20
743.0111048917106
 40
20
 41
0.8
 50
0
  1
Ｓ　１：５
  0
CIRCLE
  8
_0-3_躯体と製品
  6
CONTINUOUS
 62
    2
 10
198.6278168945737
 20
398.61120289171089
 40
6.7896390000000011
  0
LINE
  8
_0-3_躯体と製品
  6
CONTINUOUS
 62
    2
 10
198.6278168945737
 20
406.61120289171089
 11
198.6278168945737
 21
390.61120289171089
  0
LINE
  8
_0-3_躯体と製品
  6
CONTINUOUS
 62
    2
 10
205.41745689457366
 20
402.53120289171073
 11
205.41745689457366
 21
394.69120289171082
  0
LINE
  8
_0-3_躯体と製品
  6
CONTINUOUS
 62
    2
 10
191.83817789457362
 20
394.69120289171082
 11
191.83817789457362
 21
402.53120289171073
  0
ARC
  8
_0-3_躯体と製品
  6
CONTINUOUS
 62
    2
 10
227.1278168945737
 20
398.61120289171089
 40
12
 50
180
 51
199.4712209999974
  0
LINE
  8
_0-3_躯体と製品
  6
CONTINUOUS
 62
    2
 10
215.1278168945737
 20
391.8627298917109
 11
215.1278168945737
 21
398.61120289171089
  0
ARC
  8
_0-3_躯体と製品
  6
CONTINUOUS
 62
    2
 10
227.1278168945737
 20
398.61120289171089
 40
12
 50
180
 51
199.4712209999974
  0
LINE
  8
_0-3_躯体と製品
  6
CONTINUOUS
 62
    2
 10
215.1278168945737
 20
391.8627298917109
 11
215.1278168945737
 21
398.61120289171089
  0
LINE
  8
_0-3_躯体と製品
  6
CONTINUOUS
 62
    7
 10
220.6278168945737
 20
408.61120289171089
 11
220.6278168945737
 21
388.61120289171078
  0
ARC
  8
_0-3_躯体と製品
  6
CONTINUOUS
 62
    7
 10
198.6278168945737
 20
398.61120289171089
 40
10
 50
90
 51
270
  0
LINE
  8
_0-3_躯体と製品
  6
CONTINUOUS
 62
    2
 10
205.41745689457366
 20
394.69120289171082
 11
198.6278168945737
 21
390.77120289171086
  0
LINE
  8
_0-3_躯体と製品
  6
CONTINUOUS
 62
    2
 10
198.6278168945737
 20
390.77120289171086
 11
191.83817789457362
 21
394.69120289171082
  0
LINE
  8
_0-3_躯体と製品
  6
CONTINUOUS
 62
    2
 10
220.6278168945737
 20
394.61120289171089
 11
215.81410889457356
 21
394.61120289171089
  0
ARC
  8
_0-3_躯体と製品
  6
CONTINUOUS
 62
    2
 10
218.18381689457374
 20
392.6815348917109
 40
3.056
 50
140.84386800000382
 51
180.00000000000003
  0
LINE
  8
_0-3_躯体と製品
  6
CONTINUOUS
 62
    2
 10
215.8503868945736
 20
390.61120289171089
 11
215.1278168945737
 21
391.8627298917109
  0
LINE
  8
_0-3_躯体と製品
  6
CONTINUOUS
 62
    2
 10
220.6278168945737
 20
390.61120289171089
 11
215.8503868945736
 21
390.61120289171089
  0
LINE
  8
_0-3_躯体と製品
  6
CONTINUOUS
 62
    2
 10
220.6278168945737
 20
394.61120289171089
 11
215.81410889457356
 21
394.61120289171089
  0
ARC
  8
_0-3_躯体と製品
  6
CONTINUOUS
 62
    2
 10
218.18381689457374
 20
392.6815348917109
 40
3.056
 50
140.84386800000382
 51
180.00000000000003
  0
LINE
  8
_0-3_躯体と製品
  6
CONTINUOUS
 62
    2
 10
215.8503868945736
 20
390.61120289171089
 11
215.1278168945737
 21
391.8627298917109
  0
LINE
  8
_0-3_躯体と製品
  6
CONTINUOUS
 62
    2
 10
220.6278168945737
 20
390.61120289171089
 11
215.8503868945736
 21
390.61120289171089
  0
LINE
  8
_0-3_躯体と製品
  6
CONTINUOUS
 62
    2
 10
198.6278168945737
 20
406.45120289171092
 11
205.41745689457366
 21
402.53120289171073
  0
LINE
  8
_0-3_躯体と製品
  6
CONTINUOUS
 62
    2
 10
191.83817789457362
 20
402.53120289171073
 11
198.6278168945737
 21
406.45120289171092
  0
ARC
  8
_0-3_躯体と製品
  6
CONTINUOUS
 62
    2
 10
218.18381689457374
 20
404.54087089171088
 40
3.056
 50
180
 51
219.15613199999609
  0
ARC
  8
_0-3_躯体と製品
  6
CONTINUOUS
 62
    2
 10
227.1278168945737
 20
398.61120289171089
 40
12
 50
160.52877900000249
 51
180
  0
LINE
  8
_0-3_躯体と製品
  6
CONTINUOUS
 62
    2
 10
220.6278168945737
 20
402.61120289171089
 11
215.81410889457356
 21
402.61120289171089
  0
LINE
  8
_0-3_躯体と製品
  6
CONTINUOUS
 62
    2
 10
215.1278168945737
 20
405.35967589171076
 11
215.1278168945737
 21
398.61120289171089
  0
LINE
  8
_0-3_躯体と製品
  6
CONTINUOUS
 62
    2
 10
215.8503868945736
 20
406.61120289171089
 11
215.1278168945737
 21
405.35967589171076
  0
LINE
  8
_0-3_躯体と製品
  6
CONTINUOUS
 62
    2
 10
220.6278168945737
 20
406.61120289171089
 11
215.8503868945736
 21
406.61120289171089
  0
ARC
  8
_0-3_躯体と製品
  6
CONTINUOUS
 62
    2
 10
218.18381689457374
 20
404.54087089171088
 40
3.056
 50
180
 51
219.15613199999609
  0
ARC
  8
_0-3_躯体と製品
  6
CONTINUOUS
 62
    2
 10
227.1278168945737
 20
398.61120289171089
 40
12
 50
160.52877900000249
 51
180
  0
LINE
  8
_0-3_躯体と製品
  6
CONTINUOUS
 62
    2
 10
220.6278168945737
 20
402.61120289171089
 11
215.81410889457356
 21
402.61120289171089
  0
LINE
  8
_0-3_躯体と製品
  6
CONTINUOUS
 62
    2
 10
215.1278168945737
 20
405.35967589171076
 11
215.1278168945737
 21
398.61120289171089
  0
LINE
  8
_0-3_躯体と製品
  6
CONTINUOUS
 62
    2
 10
215.8503868945736
 20
406.61120289171089
 11
215.1278168945737
 21
405.35967589171076
  0
LINE
  8
_0-3_躯体と製品
  6
CONTINUOUS
 62
    2
 10
220.6278168945737
 20
406.61120289171089
 11
215.8503868945736
 21
406.61120289171089
  0
LINE
  8
_0-4_図面枠
  6
CONTINUOUS
 62
    4
 10
1177.8955078945737
 20
-519.00000310828909
 11
1177.8955078945737
 21
815.99999689171091
  0
ARC
  8
_0-3_躯体と製品
  6
PLINE3
 62
    7
 10
253.6278168945737
 20
-34.388797108289168
 40
460
 50
0
 51
88.255945999988057
  0
LINE
  8
_0-3_躯体と製品
  6
CONTINUOUS
 62
    2
 10
223.6278168945737
 20
375.61120289171089
 11
223.6278168945737
 21
-27.388797108289168
  0
LINE
  8
_0-3_躯体と製品
  6
CONTINUOUS
 62
    2
 10
283.6278168945737
 20
-21.388797108289225
 11
283.6278168945737
 21
384.61120289171078
  0
LINE
  8
_0-3_躯体と製品
  6
CONTINUOUS
 62
    2
 10
259.6278168945737
 20
384.61120289171078
 11
259.6278168945737
 21
-11.388797108289225
  0
LINE
  8
_0-3_躯体と製品
  6
PLINE3
 62
    2
 10
253.6278168945737
 20
459.61120289171078
 11
253.6278168945737
 21
-109.38879710828917
  0
ARC
  8
_0-3_躯体と製品
  6
CONTINUOUS
 62
    2
 10
253.6278168945737
 20
-34.388797108289168
 40
469
 50
2.8109420000019978
 51
89.997414000004625
  0
ARC
  8
_0-3_躯体と製品
  6
CONTINUOUS
 62
    2
 10
253.6278168945737
 20
-34.388797108289168
 40
421
 50
1.803796999999238
 51
90
  0
ARC
  8
_0-3_躯体と製品
  6
CONTINUOUS
 62
    2
 10
253.6278168945737
 20
-34.388797108289168
 40
429
 50
3.0732750000006859
 51
90
  0
ARC
  8
_0-3_躯体と製品
  6
CONTINUOUS
 62
    2
 10
253.6278168945737
 20
-34.388797108289168
 40
413
 50
1.803796999999238
 51
85.834410000012156
  0
LINE
  8
_0-3_躯体と製品
  6
PLINE3
 62
    7
 10
267.6278168945737
 20
425.39810989171093
 11
267.6278168945737
 21
-51.388797108289168
  0
LINE
  8
_0-3_躯体と製品
  6
CONTINUOUS
 62
    2
 10
663.6278168945737
 20
-105.59983610828914
 11
663.6278168945737
 21
-340.14486310828909
  0
LINE
  8
_0-4_図面枠
  6
CONTINUOUS
 62
    2
 10
270.83146589457374
 20
-414.90926010828912
 11
270.83146589457374
 21
-383.01434510828915
  0
LINE
  8
_0-3_躯体と製品
  6
CONTINUOUS
 62
    7
 10
253.6278168945737
 20
-21.388797108289225
 11
722.6278168945737
 21
-21.388797108289225
  0
LINE
  8
_0-3_躯体と製品
  6
CONTINUOUS
 62
    7
 10
253.6278168945737
 20
-32.388797108289168
 11
743.62781689457461
 21
-32.388797108289168
  0
LINE
  8
_0-3_躯体と製品
  6
CONTINUOUS
 62
    7
 10
253.6278168945737
 20
-69.388797108289168
 11
743.62781689457461
 21
-69.388797108289168
  0
LINE
  8
_0-3_躯体と製品
  6
CONTINUOUS
 62
    7
 10
253.6278168945737
 20
-84.388797108289168
 11
726.6278168945737
 21
-84.388797108289168
  0
LINE
  8
_0-3_躯体と製品
  6
PLINE3
 62
    7
 10
267.6278168945737
 20
-51.388797108289168
 11
713.6278168945737
 21
-51.388797108289168
  0
LINE
  8
_0-3_躯体と製品
  6
PLINE3
 62
    2
 10
483.6278168945737
 20
-35.388797108289168
 11
483.6278168945737
 21
-55.388797108289168
  0
LINE
  8
_0-3_躯体と製品
  6
PLINE3
 62
    2
 10
305.6278168945737
 20
-19.388797108289225
 11
283.6278168945737
 21
-19.388797108289225
  0
LINE
  8
_0-3_躯体と製品
  6
CONTINUOUS
 62
    2
 10
294.1278168945737
 20
-15.388797108289225
 11
299.6278168945737
 21
-15.388797108289225
  0
LINE
  8
_0-3_躯体と製品
  6
PLINE3
 62
    2
 10
253.6278168945737
 20
-45.388797108289168
 11
263.2251168945736
 21
-45.388797108289168
  0
LINE
  8
_0-3_躯体と製品
  6
CONTINUOUS
 62
    2
 10
283.6278168945737
 20
-11.388797108289225
 11
253.6278168945737
 21
-11.388797108289225
  0
LINE
  8
_0-3_躯体と製品
  6
CONTINUOUS
 62
    2
 10
254.1278168945737
 20
-47.43879710828918
 11
253.6278168945737
 21
-47.43879710828918
  0
LINE
  8
_0-3_躯体と製品
  6
CONTINUOUS
 62
    2
 10
253.6278168945737
 20
-43.338797108289214
 11
254.1278168945737
 21
-43.338797108289214
  0
LINE
  8
_0-3_躯体と製品
  6
CONTINUOUS
 62
    2
 10
254.14272089457381
 20
-46.584982108289125
 11
254.1278168945737
 21
-47.43879710828918
  0
LINE
  8
_0-3_躯体と製品
  6
CONTINUOUS
 62
    2
 10
254.14272089457381
 20
-44.192612108289154
 11
254.1278168945737
 21
-43.338797108289214
  0
LINE
  8
_0-3_躯体と製品
  6
CONTINUOUS
 62
    2
 10
254.35260189457358
 20
-44.664013108289112
 11
254.14272089457381
 21
-44.192612108289154
  0
LINE
  8
_0-3_躯体と製品
  6
CONTINUOUS
 62
    2
 10
254.82400189457394
 20
-44.873894108289164
 11
254.35260189457358
 21
-44.664013108289112
  0
LINE
  8
_0-3_躯体と製品
  6
CONTINUOUS
 62
    2
 10
255.67781689457388
 20
-44.888797108289168
 11
254.82400189457394
 21
-44.873894108289164
  0
LINE
  8
_0-3_躯体と製品
  6
CONTINUOUS
 62
    2
 10
254.35260189457358
 20
-46.113581108289168
 11
254.14272089457381
 21
-46.584982108289125
  0
LINE
  8
_0-3_躯体と製品
  6
CONTINUOUS
 62
    2
 10
255.67781689457388
 20
-45.888797108289168
 11
254.82400189457394
 21
-45.903700108289115
  0
LINE
  8
_0-3_躯体と製品
  6
CONTINUOUS
 62
    2
 10
254.35260189457358
 20
-46.113581108289168
 11
254.82400189457394
 21
-45.903700108289115
  0
ARC
  8
_0-3_躯体と製品
  6
CONTINUOUS
 62
    2
 10
253.6278168945737
 20
-45.388797108289168
 40
3.5
 50
270
 51
90
  0
LINE
  8
_0-3_躯体と製品
  6
CONTINUOUS
 62
    2
 10
255.67781689457388
 20
-44.888797108289168
 11
255.67781689457388
 21
-45.888797108289168
  0
LINE
  8
_0-3_躯体と製品
  6
CONTINUOUS
 62
    2
 10
294.1278168945737
 20
-12.640324108289121
 11
294.1278168945737
 21
-21.388797108289225
  0
ARC
  8
_0-3_躯体と製品
  6
CONTINUOUS
 62
    2
 10
282.1278168945737
 20
-19.388797108289225
 40
12
 50
350.40593200000245
 51
19.471220999997492
  0
LINE
  8
_0-3_躯体と製品
  6
CONTINUOUS
 62
    2
 10
288.6278168945737
 20
-15.388797108289225
 11
293.44152589457372
 21
-15.388797108289225
  0
ARC
  8
_0-3_躯体と製品
  6
CONTINUOUS
 62
    2
 10
291.07181689457366
 20
-13.459129108289119
 40
3.056
 50
320.84386800000391
 51
0.0000000000000318
  0
LINE
  8
_0-3_躯体と製品
  6
CONTINUOUS
 62
    2
 10
293.40524789457368
 20
-11.388797108289225
 11
294.1278168945737
 21
-12.640324108289121
  0
LINE
  8
_0-3_躯体と製品
  6
CONTINUOUS
 62
    2
 10
288.6278168945737
 20
-21.388797108289225
 11
288.6278168945737
 21
-11.388797108289225
  0
LINE
  8
_0-3_躯体と製品
  6
CONTINUOUS
 62
    2
 10
288.6278168945737
 20
-11.388797108289225
 11
293.40524789457368
 21
-11.388797108289225
  0
LINE
  8
_0-3_躯体と製品
  6
CONTINUOUS
 62
    2
 10
288.6278168945737
 20
-11.588797108289214
 11
286.6278168945737
 21
-11.588797108289214
  0
LINE
  8
_0-3_躯体と製品
  6
CONTINUOUS
 62
    2
 10
288.6278168945737
 20
-19.388797108289225
 11
286.6278168945737
 21
-17.388797108289225
  0
LINE
  8
_0-3_躯体と製品
  6
CONTINUOUS
 62
    2
 10
288.6278168945737
 20
-21.388797108289225
 11
286.6278168945737
 21
-19.388797108289225
  0
LINE
  8
_0-3_躯体と製品
  6
CONTINUOUS
 62
    7
 10
286.6278168945737
 20
-9.388797108289225
 11
286.6278168945737
 21
-21.388797108289225
  0
LINE
  8
_0-3_躯体と製品
  6
CONTINUOUS
 62
    7
 10
283.6278168945737
 20
-9.388797108289225
 11
286.6278168945737
 21
-9.388797108289225
  0
LINE
  8
_0-3_躯体と製品
  6
CONTINUOUS
 62
    2
 10
253.6278168945737
 20
15.661202891710758
 11
254.1278168945737
 21
15.661202891710758
  0
LINE
  8
_0-3_躯体と製品
  6
CONTINUOUS
 62
    2
 10
254.1278168945737
 20
11.561202891710764
 11
253.6278168945737
 21
11.561202891710764
  0
LINE
  8
_0-3_躯体と製品
  6
CONTINUOUS
 62
    2
 10
254.14272089457381
 20
12.415017891710875
 11
254.1278168945737
 21
11.561202891710764
  0
LINE
  8
_0-3_躯体と製品
  6
CONTINUOUS
 62
    2
 10
254.14272089457381
 20
14.807387891710874
 11
254.1278168945737
 21
15.661202891710758
  0
LINE
  8
_0-3_躯体と製品
  6
CONTINUOUS
 62
    2
 10
254.35260189457358
 20
14.33598689171086
 11
254.14272089457381
 21
14.807387891710874
  0
LINE
  8
_0-3_躯体と製品
  6
CONTINUOUS
 62
    2
 10
254.82400189457394
 20
14.126105891710779
 11
254.35260189457358
 21
14.33598689171086
  0
LINE
  8
_0-3_躯体と製品
  6
CONTINUOUS
 62
    2
 10
255.67781689457388
 20
14.111202891710775
 11
254.82400189457394
 21
14.126105891710779
  0
LINE
  8
_0-3_躯体と製品
  6
CONTINUOUS
 62
    2
 10
254.35260189457358
 20
12.886418891710775
 11
254.14272089457381
 21
12.415017891710875
  0
LINE
  8
_0-3_躯体と製品
  6
CONTINUOUS
 62
    2
 10
255.67781689457388
 20
13.111202891710775
 11
254.82400189457394
 21
13.096299891710885
  0
LINE
  8
_0-3_躯体と製品
  6
CONTINUOUS
 62
    2
 10
254.35260189457358
 20
12.886418891710775
 11
254.82400189457394
 21
13.096299891710885
  0
ARC
  8
_0-3_躯体と製品
  6
CONTINUOUS
 62
    2
 10
253.6278168945737
 20
13.611202891710775
 40
3.5
 50
269.75418199998853
 51
89.955041000001614
  0
LINE
  8
_0-3_躯体と製品
  6
CONTINUOUS
 62
    2
 10
255.67781689457388
 20
14.111202891710775
 11
255.67781689457388
 21
13.111202891710775
  0
LINE
  8
_0-3_躯体と製品
  6
PLINE3
 62
    2
 10
259.6278168945737
 20
13.611202891710775
 11
248.13289189457373
 21
13.611202891710775
  0
LINE
  8
_0-3_躯体と製品
  6
CONTINUOUS
 62
    2
 10
300.6278168945737
 20
-16.388797108289225
 11
300.6278168945737
 21
-21.388797108289225
  0
LINE
  8
_0-3_躯体と製品
  6
CONTINUOUS
 62
    2
 10
299.6278168945737
 20
-15.388797108289225
 11
300.6278168945737
 21
-16.388797108289225
  0
LINE
  8
_0-3_躯体と製品
  6
PLINE3
 62
    2
 10
474.14323189457355
 20
-45.388797108289168
 11
493.89864789457488
 21
-45.388797108289168
  0
LINE
  8
_0-3_躯体と製品
  6
CONTINUOUS
 62
    2
 10
484.14272089457381
 20
-46.584982108289125
 11
484.1278168945737
 21
-47.43879710828918
  0
LINE
  8
_0-3_躯体と製品
  6
CONTINUOUS
 62
    2
 10
483.11291389457392
 20
-46.584982108289125
 11
483.1278168945737
 21
-47.43879710828918
  0
LINE
  8
_0-3_躯体と製品
  6
CONTINUOUS
 62
    2
 10
482.9030328945737
 20
-46.113581108289168
 11
483.11291389457392
 21
-46.584982108289125
  0
LINE
  8
_0-3_躯体と製品
  6
CONTINUOUS
 62
    2
 10
482.43163189457391
 20
-45.903700108289115
 11
482.9030328945737
 21
-46.113581108289168
  0
LINE
  8
_0-3_躯体と製品
  6
CONTINUOUS
 62
    2
 10
481.57781689457352
 20
-45.888797108289168
 11
482.43163189457391
 21
-45.903700108289115
  0
LINE
  8
_0-3_躯体と製品
  6
CONTINUOUS
 62
    2
 10
482.43163189457391
 20
-44.873894108289164
 11
481.57781689457352
 21
-44.888797108289168
  0
LINE
  8
_0-3_躯体と製品
  6
CONTINUOUS
 62
    2
 10
482.9030328945737
 20
-44.664013108289112
 11
482.43163189457391
 21
-44.873894108289164
  0
LINE
  8
_0-3_躯体と製品
  6
CONTINUOUS
 62
    2
 10
483.11291389457392
 20
-44.192612108289154
 11
482.9030328945737
 21
-44.664013108289112
  0
LINE
  8
_0-3_躯体と製品
  6
CONTINUOUS
 62
    2
 10
483.1278168945737
 20
-43.338797108289214
 11
483.11291389457392
 21
-44.192612108289154
  0
LINE
  8
_0-3_躯体と製品
  6
CONTINUOUS
 62
    2
 10
484.14272089457381
 20
-44.192612108289154
 11
484.1278168945737
 21
-43.338797108289214
  0
LINE
  8
_0-3_躯体と製品
  6
CONTINUOUS
 62
    2
 10
484.35260189457358
 20
-44.664013108289112
 11
484.14272089457381
 21
-44.192612108289154
  0
LINE
  8
_0-3_躯体と製品
  6
CONTINUOUS
 62
    2
 10
484.82400189457394
 20
-44.873894108289164
 11
484.35260189457358
 21
-44.664013108289112
  0
LINE
  8
_0-3_躯体と製品
  6
CONTINUOUS
 62
    2
 10
485.67781689457388
 20
-44.888797108289168
 11
484.82400189457394
 21
-44.873894108289164
  0
LINE
  8
_0-3_躯体と製品
  6
CONTINUOUS
 62
    2
 10
484.35260189457358
 20
-46.113581108289168
 11
484.14272089457381
 21
-46.584982108289125
  0
LINE
  8
_0-3_躯体と製品
  6
CONTINUOUS
 62
    2
 10
485.67781689457388
 20
-45.888797108289168
 11
484.82400189457394
 21
-45.903700108289115
  0
LINE
  8
_0-3_躯体と製品
  6
CONTINUOUS
 62
    2
 10
484.35260189457358
 20
-46.113581108289168
 11
484.82400189457394
 21
-45.903700108289115
  0
CIRCLE
  8
_0-3_躯体と製品
  6
CONTINUOUS
 62
    2
 10
483.6278168945737
 20
-45.388797108289168
 40
3.5
  0
LINE
  8
_0-3_躯体と製品
  6
CONTINUOUS
 62
    2
 10
481.57781689457352
 20
-45.888797108289168
 11
481.57781689457352
 21
-44.888797108289168
  0
LINE
  8
_0-3_躯体と製品
  6
CONTINUOUS
 62
    2
 10
484.1278168945737
 20
-47.43879710828918
 11
483.1278168945737
 21
-47.43879710828918
  0
LINE
  8
_0-3_躯体と製品
  6
CONTINUOUS
 62
    2
 10
485.67781689457388
 20
-44.888797108289168
 11
485.67781689457388
 21
-45.888797108289168
  0
LINE
  8
_0-3_躯体と製品
  6
CONTINUOUS
 62
    2
 10
483.1278168945737
 20
-43.338797108289214
 11
484.1278168945737
 21
-43.338797108289214
  0
LINE
  8
_0-3_躯体と製品
  6
PLINE2
 62
    7
 10
659.6278168945737
 20
-47.388797108289168
 11
659.6278168945737
 21
-87.388797108289168
  0
LINE
  8
_0-3_躯体と製品
  6
PLINE2
 62
    7
 10
663.6278168945737
 20
-90.388797108289168
 11
663.6278168945737
 21
-40.388797108289168
  0
LINE
  8
_0-3_躯体と製品
  6
PLINE2
 62
    2
 10
593.62781889457392
 20
-44.388797108289168
 11
581.62781589457381
 21
-54.388797108289168
  0
LINE
  8
_0-3_躯体と製品
  6
PLINE3
 62
    2
 10
713.6278168945737
 20
-35.388797108289168
 11
713.6278168945737
 21
-55.388797108289168
  0
LINE
  8
_0-3_躯体と製品
  6
CONTINUOUS
 62
    7
 10
743.62781689457461
 20
-32.388797108289168
 11
743.62781689457461
 21
-69.388797108289168
  0
LINE
  8
_0-3_躯体と製品
  6
PLINE2
 62
    3
 10
721.62781589457381
 20
-110.38879710828917
 11
601.62781589457381
 21
-110.38879710828917
  0
LINE
  8
_0-3_躯体と製品
  6
PLINE2
 62
    5
 10
601.62781589457381
 20
-126.37963210828917
 11
721.62781589457381
 21
-246.37963210828912
  0
LINE
  8
_0-3_躯体と製品
  6
PLINE2
 62
    5
 10
601.62781589457381
 20
-123.55120510828914
 11
721.62781589457381
 21
-243.55120510828914
  0
LINE
  8
_0-3_躯体と製品
  6
PLINE2
 62
    5
 10
601.62781589457381
 20
-120.72277710828916
 11
721.62781589457381
 21
-240.72277710828905
  0
LINE
  8
_0-3_躯体と製品
  6
PLINE2
 62
    5
 10
655.97096289457386
 20
-110.38879710828917
 11
719.62781589457381
 21
-174.04565010828918
  0
LINE
  8
_0-3_躯体と製品
  6
PLINE2
 62
    5
 10
658.79938989457469
 20
-110.38879710828917
 11
719.62781589457381
 21
-171.21722310828915
  0
LINE
  8
_0-3_躯体と製品
  6
PLINE2
 62
    5
 10
661.6278168945737
 20
-110.38879710828917
 11
719.62781589457381
 21
-168.38879610828917
  0
LINE
  8
_0-3_躯体と製品
  6
PLINE2
 62
    3
 10
601.62781589457381
 20
-260.05140510828915
 11
601.62781589457381
 21
-110.38879710828917
  0
LINE
  8
_0-3_躯体と製品
  6
PLINE2
 62
    2
 10
581.62781589457381
 20
-260.05140510828915
 11
581.62781589457381
 21
-54.388797108289168
  0
ARC
  8
_0-3_躯体と製品
  6
CONTINUOUS
 62
    7
 10
612.6278168945737
 20
-109.38879710828917
 40
3
 50
90
 51
180
  0
ARC
  8
_0-3_躯体と製品
  6
CONTINUOUS
 62
    7
 10
652.6278168945737
 20
-103.38879710828917
 40
3
 50
270
 51
0
  0
LINE
  8
_0-3_躯体と製品
  6
PLINE3
 62
    2
 10
634.6278168945737
 20
-97.883020108289145
 11
634.6278168945737
 21
-126.10705010828917
  0
LINE
  8
_0-3_躯体と製品
  6
PLINE2
 62
    7
 10
659.6278168945737
 20
-87.388797108289168
 11
659.6278168945737
 21
-110.38879710828917
  0
LINE
  8
_0-3_躯体と製品
  6
PLINE2
 62
    7
 10
652.6278168945737
 20
-106.38879710828917
 11
612.6278168945737
 21
-106.38879710828917
  0
LINE
  8
_0-3_躯体と製品
  6
CONTINUOUS
 62
    7
 10
609.6278168945737
 20
-109.38879710828917
 11
609.6278168945737
 21
-110.38879710828917
  0
LINE
  8
_0-3_躯体と製品
  6
PLINE2
 62
    7
 10
655.6278168945737
 20
-63.388797108289168
 11
655.6278168945737
 21
-103.38879710828917
  0
ARC
  8
_0-3_躯体と製品
  6
CONTINUOUS
 62
    7
 10
662.6278168945737
 20
-87.388797108289168
 40
3
 50
180
 51
270
  0
LINE
  8
_0-3_躯体と製品
  6
CONTINUOUS
 62
    7
 10
662.6278168945737
 20
-90.388797108289168
 11
663.6278168945737
 21
-90.388797108289168
  0
LINE
  8
_0-3_躯体と製品
  6
PLINE3
 62
    2
 10
670.6361978945738
 20
-75.388797108289168
 11
647.93766989457481
 21
-75.388797108289168
  0
ARC
  8
_0-3_躯体と製品
  6
CONTINUOUS
 62
    7
 10
658.6278168945737
 20
-63.388797108289168
 40
3
 50
90
 51
180
  0
LINE
  8
_0-3_躯体と製品
  6
CONTINUOUS
 62
    7
 10
658.6278168945737
 20
-60.388797108289168
 11
659.6278168945737
 21
-60.388797108289168
  0
LINE
  8
_0-3_躯体と製品
  6
PLINE2
 62
    3
 10
721.62781589457381
 20
-260.05140510828915
 11
721.62781589457381
 21
-110.38879710828917
  0
LINE
  8
_0-3_躯体と製品
  6
CONTINUOUS
 62
    2
 10
741.62781589457381
 20
-260.05140510828915
 11
741.62781589457381
 21
-84.388795108289116
  0
LINE
  8
_0-3_躯体と製品
  6
CONTINUOUS
 62
    7
 10
726.6278168945737
 20
-84.388797108289168
 11
726.6278168945737
 21
-69.388797108289168
  0
ARC
  8
_0-3_躯体と製品
  6
CONTINUOUS
 62
    5
 10
770.26503889457354
 20
-66.510645108289168
 40
33.751397999999988
 50
184.98994000000181
 51
211.95807100000451
  0
LINE
  8
_0-3_躯体と製品
  6
CONTINUOUS
 62
    2
 10
726.62781589457381
 20
-84.388795108289116
 11
741.62781589457381
 21
-84.388795108289116
  0
LINE
  8
_0-3_躯体と製品
  6
CONTINUOUS
 62
    3
 10
724.62781389457359
 20
-84.388795108289116
 11
726.6278138945745
 21
-84.388795108289116
  0
LINE
  8
_0-3_躯体と製品
  6
CONTINUOUS
 62
    3
 10
724.6278168945737
 20
-84.388797108289168
 11
726.6278168945737
 21
-84.388797108289168
  0
LINE
  8
_0-3_躯体と製品
  6
PLINE2
 62
    7
 10
616.6278168945737
 20
-44.388797108289168
 11
656.6278168945737
 21
-44.388797108289168
  0
LINE
  8
_0-3_躯体と製品
  6
PLINE2
 62
    7
 10
613.6278168945737
 20
-40.388797108289168
 11
663.6278168945737
 21
-40.388797108289168
  0
ARC
  8
_0-3_躯体と製品
  6
CONTINUOUS
 62
    7
 10
616.6278168945737
 20
-41.388797108289168
 40
3
 50
180
 51
270
  0
LINE
  8
_0-3_躯体と製品
  6
CONTINUOUS
 62
    7
 10
613.6278168945737
 20
-41.388797108289168
 11
613.6278168945737
 21
-40.388797108289168
  0
ARC
  8
_0-3_躯体と製品
  6
CONTINUOUS
 62
    7
 10
656.6278168945737
 20
-47.388797108289168
 40
3
 50
0
 51
90
  0
LINE
  8
_0-3_躯体と製品
  6
CONTINUOUS
 62
    2
 10
682.0108238945736
 20
-11.388797108289225
 11
722.06351189457382
 21
-11.388797108289225
  0
LINE
  8
_0-3_躯体と製品
  6
PLINE3
 62
    2
 10
704.96202389457494
 20
-45.388797108289168
 11
722.8290548945738
 21
-45.388797108289168
  0
LINE
  8
_0-3_躯体と製品
  6
CONTINUOUS
 62
    2
 10
714.14272089457381
 20
-46.584982108289125
 11
714.1278168945737
 21
-47.43879710828918
  0
LINE
  8
_0-3_躯体と製品
  6
CONTINUOUS
 62
    2
 10
713.11291389457392
 20
-46.584982108289125
 11
713.12781689457461
 21
-47.43879710828918
  0
LINE
  8
_0-3_躯体と製品
  6
CONTINUOUS
 62
    2
 10
712.9030328945737
 20
-46.113581108289168
 11
713.11291389457392
 21
-46.584982108289125
  0
LINE
  8
_0-3_躯体と製品
  6
CONTINUOUS
 62
    2
 10
712.43163189457391
 20
-45.903700108289115
 11
712.9030328945737
 21
-46.113581108289168
  0
LINE
  8
_0-3_躯体と製品
  6
CONTINUOUS
 62
    2
 10
711.57781689457352
 20
-45.888797108289168
 11
712.43163189457391
 21
-45.903700108289115
  0
LINE
  8
_0-3_躯体と製品
  6
CONTINUOUS
 62
    2
 10
712.43163189457391
 20
-44.873894108289164
 11
711.57781689457352
 21
-44.888797108289168
  0
LINE
  8
_0-3_躯体と製品
  6
CONTINUOUS
 62
    2
 10
712.9030328945737
 20
-44.664013108289112
 11
712.43163189457391
 21
-44.873894108289164
  0
LINE
  8
_0-3_躯体と製品
  6
CONTINUOUS
 62
    2
 10
713.11291389457392
 20
-44.192612108289154
 11
712.9030328945737
 21
-44.664013108289112
  0
LINE
  8
_0-3_躯体と製品
  6
CONTINUOUS
 62
    2
 10
713.12781689457461
 20
-43.338797108289214
 11
713.11291389457392
 21
-44.192612108289154
  0
LINE
  8
_0-3_躯体と製品
  6
CONTINUOUS
 62
    2
 10
714.14272089457381
 20
-44.192612108289154
 11
714.1278168945737
 21
-43.338797108289214
  0
LINE
  8
_0-3_躯体と製品
  6
CONTINUOUS
 62
    2
 10
714.35260189457358
 20
-44.664013108289112
 11
714.14272089457381
 21
-44.192612108289154
  0
LINE
  8
_0-3_躯体と製品
  6
CONTINUOUS
 62
    2
 10
714.82400189457485
 20
-44.873894108289164
 11
714.35260189457358
 21
-44.664013108289112
  0
LINE
  8
_0-3_躯体と製品
  6
CONTINUOUS
 62
    2
 10
715.67781689457388
 20
-44.888797108289168
 11
714.82400189457485
 21
-44.873894108289164
  0
LINE
  8
_0-3_躯体と製品
  6
CONTINUOUS
 62
    2
 10
714.35260189457358
 20
-46.113581108289168
 11
714.14272089457381
 21
-46.584982108289125
  0
LINE
  8
_0-3_躯体と製品
  6
CONTINUOUS
 62
    2
 10
715.67781689457388
 20
-45.888797108289168
 11
714.82400189457485
 21
-45.903700108289115
  0
LINE
  8
_0-3_躯体と製品
  6
CONTINUOUS
 62
    2
 10
714.35260189457358
 20
-46.113581108289168
 11
714.82400189457485
 21
-45.903700108289115
  0
CIRCLE
  8
_0-3_躯体と製品
  6
CONTINUOUS
 62
    2
 10
713.6278168945737
 20
-45.388797108289168
 40
3.5
  0
LINE
  8
_0-3_躯体と製品
  6
CONTINUOUS
 62
    2
 10
711.57781689457352
 20
-45.888797108289168
 11
711.57781689457352
 21
-44.888797108289168
  0
LINE
  8
_0-3_躯体と製品
  6
CONTINUOUS
 62
    2
 10
714.1278168945737
 20
-47.43879710828918
 11
713.12781689457461
 21
-47.43879710828918
  0
LINE
  8
_0-3_躯体と製品
  6
CONTINUOUS
 62
    2
 10
715.67781689457388
 20
-44.888797108289168
 11
715.67781689457388
 21
-45.888797108289168
  0
LINE
  8
_0-3_躯体と製品
  6
CONTINUOUS
 62
    2
 10
713.12781689457461
 20
-43.338797108289214
 11
714.1278168945737
 21
-43.338797108289214
  0
LINE
  8
_0-3_躯体と製品
  6
CONTINUOUS
 62
    7
 10
722.6278168945737
 20
-21.388797108289225
 11
743.62781689457461
 21
-32.388797108289168
  0
LINE
  8
_0-3_躯体と製品
  6
PLINE3
 62
    2
 10
739.38874089457386
 20
-45.388797108289168
 11
750.6278168945737
 21
-45.388797108289168
  0
ARC
  8
_0-3_躯体と製品
  6
CONTINUOUS
 62
    2
 10
740.62781689457461
 20
-45.388797108289168
 40
5
 50
306.86989799999543
 51
53.130102000004655
  0
ARC
  8
_0-3_躯体と製品
  6
CONTINUOUS
 62
    5
 10
748.84483889457488
 20
-14.893434108289114
 40
27.009664999999998
 50
172.54456900000241
 51
193.9150439999982
  0
LINE
  8
_0-3_躯体と製品
  6
CONTINUOUS
 62
    2
 10
249.6278168945737
 20
373.53371389171076
 11
249.6278168945737
 21
368.72000489171074
  0
LINE
  8
_0-3_躯体と製品
  6
CONTINUOUS
 62
    2
 10
245.6278168945737
 20
368.75628389171078
 11
245.6278168945737
 21
373.53371389171076
  0
LINE
  8
_0-3_躯体と製品
  6
CONTINUOUS
 62
    7
 10
243.6278168945737
 20
378.53371389171087
 11
243.6278168945737
 21
353.61120289171089
  0
LINE
  8
_0-3_躯体と製品
  6
CONTINUOUS
 62
    2
 10
254.35260189457358
 20
185.38641889171066
 11
254.14272089457381
 21
184.91501789171076
  0
ARC
  8
_0-3_躯体と製品
  6
CONTINUOUS
 62
    2
 10
253.6278168945737
 20
186.11120289171078
 40
3.5
 50
270.30308599998739
 51
89.687179999999813
  0
LINE
  8
_0-3_躯体と製品
  6
CONTINUOUS
 62
    2
 10
254.1278168945737
 20
184.06120289171076
 11
253.6278168945737
 21
184.06120289171076
  0
LINE
  8
_0-3_躯体と製品
  6
CONTINUOUS
 62
    2
 10
254.14272089457381
 20
184.91501789171076
 11
254.1278168945737
 21
184.06120289171076
  0
LINE
  8
_0-3_躯体と製品
  6
CONTINUOUS
 62
    2
 10
253.6278168945737
 20
188.16120289171079
 11
254.1278168945737
 21
188.16120289171079
  0
LINE
  8
_0-3_躯体と製品
  6
CONTINUOUS
 62
    2
 10
254.14272089457381
 20
187.30738789171085
 11
254.1278168945737
 21
188.16120289171079
  0
LINE
  8
_0-3_躯体と製品
  6
CONTINUOUS
 62
    2
 10
254.35260189457358
 20
186.83598689171089
 11
254.14272089457381
 21
187.30738789171085
  0
LINE
  8
_0-3_躯体と製品
  6
CONTINUOUS
 62
    2
 10
254.82400189457394
 20
186.62610589171078
 11
254.35260189457358
 21
186.83598689171089
  0
LINE
  8
_0-3_躯体と製品
  6
CONTINUOUS
 62
    2
 10
255.67781689457388
 20
186.61120289171078
 11
254.82400189457394
 21
186.62610589171078
  0
LINE
  8
_0-3_躯体と製品
  6
CONTINUOUS
 62
    2
 10
255.67781689457388
 20
185.61120289171078
 11
254.82400189457394
 21
185.59629989171088
  0
LINE
  8
_0-3_躯体と製品
  6
CONTINUOUS
 62
    2
 10
254.35260189457358
 20
185.38641889171066
 11
254.82400189457394
 21
185.59629989171088
  0
LINE
  8
_0-3_躯体と製品
  6
CONTINUOUS
 62
    2
 10
255.67781689457388
 20
186.61120289171078
 11
255.67781689457388
 21
185.61120289171078
  0
LINE
  8
_0-3_躯体と製品
  6
PLINE3
 62
    2
 10
259.6278168945737
 20
186.11120289171078
 11
247.6278168945737
 21
186.11120289171078
  0
ARC
  8
_0-3_躯体と製品
  6
CONTINUOUS
 62
    2
 10
253.62090989457374
 20
353.61120289171089
 40
6.793092999999998
 50
89.94174200000748
 51
270.05825799999252
  0
ARC
  8
_0-3_躯体と製品
  6
CONTINUOUS
 62
    7
 10
253.6278168945737
 20
353.61120289171089
 40
10
 50
180
 51
270
  0
ARC
  8
_0-3_躯体と製品
  6
CONTINUOUS
 62
    2
 10
247.69814989457382
 20
371.08971389171074
 40
3.056
 50
270
 51
309.15613199999262
  0
ARC
  8
_0-3_躯体と製品
  6
CONTINUOUS
 62
    2
 10
253.6278168945737
 20
380.03371389171087
 40
12
 50
250.52877899999214
 51
270
  0
LINE
  8
_0-3_躯体と製品
  6
CONTINUOUS
 62
    2
 10
246.87934489457393
 20
368.03371389171087
 11
253.6278168945737
 21
368.03371389171087
  0
LINE
  8
_0-3_躯体と製品
  6
CONTINUOUS
 62
    2
 10
245.6278168945737
 20
368.75628389171078
 11
246.87934489457393
 21
368.03371389171087
  0
LINE
  8
_0-3_躯体と製品
  6
CONTINUOUS
 62
    2
 10
253.6278168945737
 20
364.1337138917109
 11
250.6278168945737
 21
364.1337138917109
  0
LINE
  8
_0-3_躯体と製品
  6
CONTINUOUS
 62
    2
 10
249.6278168945737
 20
365.1337138917109
 11
250.6278168945737
 21
364.1337138917109
  0
LINE
  8
_0-3_躯体と製品
  6
CONTINUOUS
 62
    2
 10
249.6278168945737
 20
368.03371389171087
 11
249.6278168945737
 21
365.1337138917109
  0
LINE
  8
_0-3_躯体と製品
  6
CONTINUOUS
 62
    2
 10
246.82781689457352
 20
357.52522089171077
 11
253.6278168945737
 21
361.45120289171086
  0
LINE
  8
_0-3_躯体と製品
  6
CONTINUOUS
 62
    2
 10
246.82781689457352
 20
349.69718489171089
 11
246.82781689457352
 21
357.52522089171077
  0
LINE
  8
_0-3_躯体と製品
  6
CONTINUOUS
 62
    2
 10
253.6278168945737
 20
345.77120289171086
 11
246.82781689457352
 21
349.69718489171089
  0
LINE
  8
_0-3_躯体と製品
  6
CONTINUOUS
 62
    2
 10
254.14272089457381
 20
357.41501789171099
 11
254.1278168945737
 21
356.56120289171088
  0
LINE
  8
_0-3_躯体と製品
  6
CONTINUOUS
 62
    2
 10
254.14272089457381
 20
359.80738789171085
 11
254.1278168945737
 21
360.66120289171096
  0
LINE
  8
_0-3_躯体と製品
  6
CONTINUOUS
 62
    2
 10
254.35260189457358
 20
359.33598689171077
 11
254.14272089457381
 21
359.80738789171085
  0
LINE
  8
_0-3_躯体と製品
  6
CONTINUOUS
 62
    2
 10
254.82400189457394
 20
359.12610589171078
 11
254.35260189457358
 21
359.33598689171077
  0
LINE
  8
_0-3_躯体と製品
  6
CONTINUOUS
 62
    2
 10
255.67781689457388
 20
359.11120289171089
 11
254.82400189457394
 21
359.12610589171078
  0
LINE
  8
_0-3_躯体と製品
  6
CONTINUOUS
 62
    2
 10
254.35260189457358
 20
357.88641889171089
 11
254.14272089457381
 21
357.41501789171099
  0
LINE
  8
_0-3_躯体と製品
  6
CONTINUOUS
 62
    2
 10
255.67781689457388
 20
358.11120289171089
 11
254.82400189457394
 21
358.09629989171077
  0
LINE
  8
_0-3_躯体と製品
  6
CONTINUOUS
 62
    2
 10
254.35260189457358
 20
357.88641889171089
 11
254.82400189457394
 21
358.09629989171077
  0
LINE
  8
_0-3_躯体と製品
  6
CONTINUOUS
 62
    2
 10
255.67781689457388
 20
359.11120289171089
 11
255.67781689457388
 21
358.11120289171089
  0
LINE
  8
_0-3_躯体と製品
  6
PLINE3
 62
    2
 10
243.6278168945737
 20
353.61120289171089
 11
253.6278168945737
 21
353.61120289171089
  0
LINE
  8
_0-3_躯体と製品
  6
CONTINUOUS
 62
    2
 10
253.6278168945737
 20
356.56120289171088
 11
254.1278168945737
 21
356.56120289171088
  0
LINE
  8
_0-3_躯体と製品
  6
CONTINUOUS
 62
    2
 10
253.6278168945737
 20
360.66120289171096
 11
254.1278168945737
 21
360.66120289171096
  0
LINE
  8
_0-3_躯体と製品
  6
PLINE3
 62
    2
 10
253.6278168945737
 20
358.61120289171089
 11
259.6278168945737
 21
358.61120289171089
  0
ARC
  8
_0-3_躯体と製品
  6
CONTINUOUS
 62
    2
 10
253.6278168945737
 20
353.61120289171089
 40
4
 50
90
 51
270
  0
ARC
  8
_0-3_躯体と製品
  6
CONTINUOUS
 62
    2
 10
253.6278168945737
 20
358.61120289171089
 40
3.5
 50
270
 51
90
  0
LINE
  8
_0-3_躯体と製品
  6
CONTINUOUS
 62
    5
 10
240.6278168945737
 20
425.61120289171089
 11
240.6278168945737
 21
413.61120289171078
  0
LINE
  8
_0-3_躯体と製品
  6
CONTINUOUS
 62
    5
 10
240.6278168945737
 20
425.61120289171089
 11
248.6278168945737
 21
413.61120289171078
  0
LINE
  8
_0-3_躯体と製品
  6
CONTINUOUS
 62
    2
 10
245.6278168945737
 20
432.61120289171089
 11
245.6278168945737
 21
422.61120289171089
  0
LINE
  8
_0-3_躯体と製品
  6
CONTINUOUS
 62
    2
 10
251.6278168945737
 20
427.61120289171089
 11
251.6278168945737
 21
413.61120289171078
  0
LINE
  8
_0-3_躯体と製品
  6
CONTINUOUS
 62
    2
 10
247.6278168945737
 20
425.61120289171089
 11
247.6278168945737
 21
422.61120289171089
  0
LINE
  8
_0-3_躯体と製品
  6
CONTINUOUS
 62
    5
 10
244.6278168945737
 20
425.61120289171089
 11
244.6278168945737
 21
421.61120289171089
  0
LINE
  8
_0-3_躯体と製品
  6
CONTINUOUS
 62
    2
 10
253.6278168945737
 20
384.61120289171078
 11
283.6278168945737
 21
384.61120289171078
  0
LINE
  8
_0-3_躯体と製品
  6
CONTINUOUS
 62
    2
 10
241.6278168945737
 20
389.11120289171089
 11
241.1278168945737
 21
388.61120289171078
  0
LINE
  8
_0-3_躯体と製品
  6
CONTINUOUS
 62
    2
 10
227.6278168945737
 20
391.61120289171089
 11
253.6278168945737
 21
391.61120289171089
  0
LINE
  8
_0-3_躯体と製品
  6
CONTINUOUS
 62
    2
 10
253.6278168945737
 20
375.61120289171089
 11
223.6278168945737
 21
375.61120289171089
  0
LINE
  8
_0-3_躯体と製品
  6
CONTINUOUS
 62
    2
 10
223.66349289457366
 20
388.61120289171078
 11
241.1278168945737
 21
388.61120289171078
  0
LINE
  8
_0-3_躯体と製品
  6
CONTINUOUS
 62
    2
 10
223.6278168945737
 20
394.61120289171089
 11
223.6278168945737
 21
388.61120289171078
  0
LINE
  8
_0-3_躯体と製品
  6
CONTINUOUS
 62
    2
 10
227.6278168945737
 20
394.61120289171089
 11
227.6278168945737
 21
391.61120289171089
  0
LINE
  8
_0-3_躯体と製品
  6
CONTINUOUS
 62
    2
 10
253.1278168945737
 20
388.61120289171078
 11
242.1278168945737
 21
388.61120289171078
  0
LINE
  8
_0-3_躯体と製品
  6
CONTINUOUS
 62
    2
 10
242.1278168945737
 20
388.61120289171078
 11
241.6278168945737
 21
389.11120289171089
  0
LINE
  8
_0-3_躯体と製品
  6
CONTINUOUS
 62
    2
 10
253.6278168945737
 20
389.11120289171089
 11
253.1278168945737
 21
388.61120289171078
  0
LINE
  8
_0-3_躯体と製品
  6
CONTINUOUS
 62
    2
 10
245.82781689457352
 20
373.53371389171076
 11
245.82781689457352
 21
375.53371389171087
  0
LINE
  8
_0-3_躯体と製品
  6
CONTINUOUS
 62
    2
 10
251.6278168945737
 20
373.53371389171076
 11
253.6278168945737
 21
375.53371389171087
  0
LINE
  8
_0-3_躯体と製品
  6
CONTINUOUS
 62
    2
 10
245.6278168945737
 20
373.53371389171076
 11
253.6278168945737
 21
373.53371389171076
  0
LINE
  8
_0-3_躯体と製品
  6
CONTINUOUS
 62
    2
 10
253.6278168945737
 20
375.53371389171087
 11
245.6278168945737
 21
375.53371389171087
  0
LINE
  8
_0-3_躯体と製品
  6
CONTINUOUS
 62
    7
 10
253.6278168945737
 20
378.53371389171087
 11
243.6278168945737
 21
378.53371389171087
  0
LINE
  8
_0-3_躯体と製品
  6
CONTINUOUS
 62
    2
 10
248.6278168945737
 20
413.61120289171078
 11
237.6278168945737
 21
413.61120289171078
  0
LINE
  8
_0-3_躯体と製品
  6
CONTINUOUS
 62
    5
 10
248.6278168945737
 20
421.61120289171089
 11
240.6278168945737
 21
413.61120289171078
  0
LINE
  8
_0-3_躯体と製品
  6
CONTINUOUS
 62
    2
 10
242.6278168945737
 20
406.61120289171089
 11
227.6278168945737
 21
406.61120289171089
  0
LINE
  8
_0-3_躯体と製品
  6
CONTINUOUS
 62
    2
 10
228.1278168945737
 20
413.61120289171078
 11
228.1278168945737
 21
412.11120289171089
  0
LINE
  8
_0-3_躯体と製品
  6
CONTINUOUS
 62
    2
 10
233.1278168945737
 20
409.61834589171082
 11
233.6278168945737
 21
409.11834589171082
  0
LINE
  8
_0-3_躯体と製品
  6
CONTINUOUS
 62
    2
 10
234.1278168945737
 20
409.61834589171082
 11
233.6278168945737
 21
409.11834589171082
  0
LINE
  8
_0-3_躯体と製品
  6
CONTINUOUS
 62
    5
 10
239.1278168945737
 20
411.11120289171089
 11
239.1278168945737
 21
409.61120289171078
  0
LINE
  8
_0-3_躯体と製品
  6
CONTINUOUS
 62
    5
 10
237.6278168945737
 20
411.11120289171089
 11
239.1278168945737
 21
411.11120289171089
  0
LINE
  8
_0-3_躯体と製品
  6
CONTINUOUS
 62
    5
 10
237.6278168945737
 20
413.61120289171078
 11
237.6278168945737
 21
411.11120289171089
  0
LINE
  8
_0-3_躯体と製品
  6
CONTINUOUS
 62
    5
 10
227.1278168945737
 20
411.11120289171089
 11
227.1278168945737
 21
409.61120289171078
  0
LINE
  8
_0-3_躯体と製品
  6
CONTINUOUS
 62
    5
 10
228.6278168945737
 20
411.11120289171089
 11
227.1278168945737
 21
411.11120289171089
  0
LINE
  8
_0-3_躯体と製品
  6
CONTINUOUS
 62
    2
 10
228.6278168945737
 20
413.61120289171078
 11
225.6278168945737
 21
413.61120289171078
  0
LINE
  8
_0-3_躯体と製品
  6
CONTINUOUS
 62
    5
 10
228.6278168945737
 20
411.11120289171089
 11
228.6278168945737
 21
413.61120289171078
  0
LINE
  8
_0-3_躯体と製品
  6
CONTINUOUS
 62
    2
 10
226.6278168945737
 20
409.61120289171078
 11
239.6278168945737
 21
409.61120289171078
  0
LINE
  8
_0-3_躯体と製品
  6
CONTINUOUS
 62
    2
 10
226.6278168945737
 20
412.11120289171089
 11
226.6278168945737
 21
409.61120289171078
  0
LINE
  8
_0-3_躯体と製品
  6
CONTINUOUS
 62
    2
 10
228.1278168945737
 20
412.11120289171089
 11
226.6278168945737
 21
412.11120289171089
  0
LINE
  8
_0-3_躯体と製品
  6
CONTINUOUS
 62
    2
 10
238.1278168945737
 20
412.11120289171089
 11
239.6278168945737
 21
412.11120289171089
  0
LINE
  8
_0-3_躯体と製品
  6
CONTINUOUS
 62
    2
 10
238.1278168945737
 20
413.61120289171078
 11
238.1278168945737
 21
412.11120289171089
  0
LINE
  8
_0-3_躯体と製品
  6
CONTINUOUS
 62
    2
 10
239.6278168945737
 20
409.61120289171078
 11
239.6278168945737
 21
412.11120289171089
  0
LINE
  8
_0-3_躯体と製品
  6
CONTINUOUS
 62
    5
 10
227.1278168945737
 20
417.83542789171082
 11
227.1278168945737
 21
413.61120289171078
  0
LINE
  8
_0-3_躯体と製品
  6
CONTINUOUS
 62
    2
 10
223.6278168945737
 20
415.61120289171089
 11
223.6278168945737
 21
402.61120289171089
  0
LINE
  8
_0-3_躯体と製品
  6
CONTINUOUS
 62
    2
 10
227.6278168945737
 20
402.61120289171089
 11
227.6278168945737
 21
406.61120289171089
  0
LINE
  8
_0-3_躯体と製品
  6
CONTINUOUS
 62
    5
 10
239.1278168945737
 20
418.37907989171089
 11
239.1278168945737
 21
413.61120289171078
  0
LINE
  8
_0-3_躯体と製品
  6
CONTINUOUS
 62
    2
 10
225.6278168945737
 20
415.61120289171089
 11
225.6278168945737
 21
413.61120289171078
  0
LINE
  8
_0-3_躯体と製品
  6
CONTINUOUS
 62
    2
 10
223.6278168945737
 20
415.61120289171089
 11
225.6278168945737
 21
415.61120289171089
  0
LINE
  8
_0-3_躯体と製品
  6
CONTINUOUS
 62
    5
 10
248.6278168945737
 20
421.61120289171089
 11
244.6278168945737
 21
421.61120289171089
  0
LINE
  8
_0-3_躯体と製品
  6
CONTINUOUS
 62
    2
 10
248.6278168945737
 20
422.61120289171089
 11
248.6278168945737
 21
413.61120289171078
  0
LINE
  8
_0-3_躯体と製品
  6
CONTINUOUS
 62
    2
 10
242.6278168945737
 20
410.61120289171089
 11
242.6278168945737
 21
406.61120289171089
  0
LINE
  8
_0-3_躯体と製品
  6
CONTINUOUS
 62
    2
 10
253.6278168945737
 20
413.61120289171078
 11
251.6278168945737
 21
413.61120289171078
  0
LINE
  8
_0-3_躯体と製品
  6
CONTINUOUS
 62
    2
 10
248.6278168945737
 20
422.61120289171089
 11
245.6278168945737
 21
422.61120289171089
  0
LINE
  8
_0-3_躯体と製品
  6
CONTINUOUS
 62
    2
 10
253.6278168945737
 20
410.61120289171089
 11
242.6278168945737
 21
410.61120289171089
  0
LINE
  8
_0-3_躯体と製品
  6
CONTINUOUS
 62
    2
 10
242.6278168945737
 20
428.61120289171089
 11
239.1278168945737
 21
428.61120289171089
  0
LINE
  8
_0-3_躯体と製品
  6
CONTINUOUS
 62
    2
 10
247.6278168945737
 20
434.61120289171078
 11
223.6278168945737
 21
434.61120289171078
  0
LINE
  8
_0-3_躯体と製品
  6
CONTINUOUS
 62
    5
 10
244.6278168945737
 20
425.61120289171089
 11
240.6278168945737
 21
425.61120289171089
  0
LINE
  8
_0-3_躯体と製品
  6
CONTINUOUS
 62
    2
 10
230.65725489457373
 20
432.61120289171089
 11
230.63762989457382
 21
432.59157789171087
  0
LINE
  8
_0-3_躯体と製品
  6
CONTINUOUS
 62
    2
 10
223.6278168945737
 20
432.61120289171089
 11
228.6278168945737
 21
432.61120289171089
  0
LINE
  8
_0-3_躯体と製品
  6
CONTINUOUS
 62
    2
 10
230.6278168945737
 20
430.11120289171078
 11
232.1278168945737
 21
430.11120289171078
  0
LINE
  8
_0-3_躯体と製品
  6
CONTINUOUS
 62
    2
 10
230.6278168945737
 20
432.61120289171089
 11
230.6278168945737
 21
430.11120289171078
  0
LINE
  8
_0-3_躯体と製品
  6
CONTINUOUS
 62
    2
 10
240.6278168945737
 20
432.61120289171089
 11
230.6278168945737
 21
432.61120289171089
  0
LINE
  8
_0-3_躯体と製品
  6
CONTINUOUS
 62
    2
 10
228.6278168945737
 20
432.61120289171089
 11
228.6278168945737
 21
428.61120289171089
  0
LINE
  8
_0-3_躯体と製品
  6
CONTINUOUS
 62
    2
 10
240.6278168945737
 20
430.11120289171078
 11
240.6278168945737
 21
432.61120289171089
  0
LINE
  8
_0-3_躯体と製品
  6
CONTINUOUS
 62
    2
 10
232.1278168945737
 20
430.11120289171078
 11
232.1278168945737
 21
428.61120289171089
  0
LINE
  8
_0-3_躯体と製品
  6
CONTINUOUS
 62
    2
 10
228.6278168945737
 20
428.61120289171089
 11
232.1278168945737
 21
428.61120289171089
  0
LINE
  8
_0-3_躯体と製品
  6
CONTINUOUS
 62
    2
 10
239.1278168945737
 20
430.11120289171078
 11
239.1278168945737
 21
428.61120289171089
  0
LINE
  8
_0-3_躯体と製品
  6
CONTINUOUS
 62
    2
 10
240.6278168945737
 20
430.11120289171078
 11
239.1278168945737
 21
430.11120289171078
  0
ARC
  8
_0-3_躯体と製品
  6
CONTINUOUS
 62
    5
 10
235.6278168945737
 20
428.61120289171089
 40
4.5
 50
313.93341500000201
 51
0.0000000000000318
  0
ARC
  8
_0-3_躯体と製品
  6
CONTINUOUS
 62
    5
 10
235.6278168945737
 20
428.61120289171089
 40
4.5
 50
180
 51
230.51930599999341
  0
LINE
  8
_0-3_躯体と製品
  6
CONTINUOUS
 62
    2
 10
223.6278168945737
 20
432.61120289171089
 11
223.6278168945737
 21
434.61120289171078
  0
LINE
  8
_0-3_躯体と製品
  6
CONTINUOUS
 62
    2
 10
249.73480789457381
 20
428.83411589171084
 11
249.6278168945737
 21
427.61120289171089
  0
ARC
  8
_0-3_躯体と製品
  6
CONTINUOUS
 62
    2
 10
251.22909989457366
 20
428.70338189171065
 40
1.5
 50
104.6252929999885
 51
174.99999999999929
  0
LINE
  8
_0-3_躯体と製品
  6
CONTINUOUS
 62
    2
 10
242.6278168945737
 20
432.61120289171089
 11
242.6278168945737
 21
428.61120289171089
  0
ARC
  8
_0-3_躯体と製品
  6
CONTINUOUS
 62
    2
 10
253.6278168945737
 20
419.51120289171087
 40
11
 50
90
 51
104.6252939999988
  0
LINE
  8
_0-3_躯体と製品
  6
CONTINUOUS
 62
    2
 10
251.6278168945737
 20
425.61120289171089
 11
247.6278168945737
 21
425.61120289171089
  0
LINE
  8
_0-3_躯体と製品
  6
CONTINUOUS
 62
    2
 10
253.6278168945737
 20
427.61120289171089
 11
247.6278168945737
 21
427.61120289171089
  0
LINE
  8
_0-3_躯体と製品
  6
CONTINUOUS
 62
    2
 10
242.6278168945737
 20
432.61120289171089
 11
245.6278168945737
 21
432.61120289171089
  0
LINE
  8
_0-3_躯体と製品
  6
CONTINUOUS
 62
    2
 10
249.6278168945737
 20
425.61120289171089
 11
248.6278168945737
 21
425.61120289171089
  0
LINE
  8
_0-3_躯体と製品
  6
CONTINUOUS
 62
    2
 10
247.6278168945737
 20
434.61120289171078
 11
247.6278168945737
 21
427.61120289171089
  0
ARC
  8
_0-3_躯体と製品
  6
CONTINUOUS
 62
    5
 10
251.55187189457365
 20
451.93315589171067
 40
17.79545199999999
 50
257.43240599999621
 51
276.61419500001182
  0
INSERT
  2
-001-_D4
  8
_0-2_寸法
 10
-2827.1556788358903
 20
-121.64831277316813
 41
5
 42
5
 50
0
  0
INSERT
  2
-002-_D5
  8
_0-2_寸法
 10
-2827.1556788358903
 20
-121.64831277316813
 41
5
 42
5
 50
0
  0
INSERT
  2
-003-_D6
  8
_0-2_寸法
 10
-2827.1556788358903
 20
-121.64831277316813
 41
5
 42
5
 50
0
  0
INSERT
  2
-004-_D7
  8
_0-2_寸法
 10
-2827.1556788358903
 20
-121.64831277316813
 41
5
 42
5
 50
0
  0
INSERT
  2
-005-_D8
  8
_0-2_寸法
 10
-2827.1556788358903
 20
-121.64831277316813
 41
5
 42
5
 50
0
  0
ENDSEC
  0
EOF
