  0
SECTION
  2
HEADER
  9
$ACADVER
  1
AC1009
  9
$INSBASE
 10
0
 20
0
 30
0
  9
$EXTMIN
 10
0
 20
0
  9
$EXTMAX
 10
420
 20
297
  9
$LIMMIN
 10
0
 20
0
  9
$LIMMAX
 10
420
 20
297
  9
$LTSCALE
 40
1
  0
ENDSEC
  0
SECTION
  2
TABLES
  0
TABLE
  2
LTYPE
 70
     9
  0
LTYPE
  2
CONTINUOUS
 70
    64
  3
実線
 72
    65
 73
     0
 40
0.0
  0
LTYPE
  2
DASHED1
 70
    64
  3
--  --  --  --  --  --  --  --  
 72
    65
 73
     2
 40
2.5
 49
1.25
 49
-1.25
  0
LTYPE
  2
DASHED2
 70
    64
  3
----    ----    ----    ----    
 72
    65
 73
     2
 40
5.0
 49
2.5
 49
-2.5
  0
LTYPE
  2
DASHED3
 70
    64
  3
------  ------  ------  ------  
 72
    65
 73
     2
 40
5.0
 49
3.75
 49
-1.25
  0
LTYPE
  2
CENTER1
 70
    64
  3
----- - ----- - ----- - ----- - 
 72
    65
 73
     4
 40
10.0
 49
6.25
 49
-1.25
 49
1.25
 49
-1.25
  0
LTYPE
  2
CENTER2
 70
    64
  3
----------  --  ----------  --  
 72
    65
 73
     4
 40
20.0
 49
12.5
 49
-2.5
 49
2.5
 49
-2.5
  0
LTYPE
  2
PHANTOM1
 70
    64
  3
--- - - --- - - --- - - --- - - 
 72
    65
 73
     6
 40
10.0
 49
3.25
 49
-1.25
 49
1.25
 49
-1.25
 49
1.25
 49
-1.25
  0
LTYPE
  2
PHANTOM2
 70
    64
  3
--------  -  -  --------  -  -  
 72
    65
 73
     6
 40
20.0
 49
10.0
 49
-2.5
 49
1.25
 49
-2.5
 49
1.25
 49
-2.5
  0
LTYPE
  2
DOT
 70
    64
  3
-   -   -   -   -   -   -   -   
 72
    65
 73
     2
 40
2.5
 49
0.625
 49
-1.875
  0
LTYPE
  2
DUMMY
 70
    64
  3
ダミー
 72
    65
 73
     0
 40
0.0
  0
LTYPE
  2
RAND1
 70
    64
  3
ランダム線1
 72
    65
 73
     4
 40
10.0
 49
1.0
 49
-2.0
 49
3.0
 49
-4.0
  0
LTYPE
  2
RAND2
 70
    64
  3
ランダム線2
 72
    65
 73
     4
 40
14.0
 49
2.0
 49
-3.0
 49
4.0
 49
-5.0
  0
LTYPE
  2
RAND3
 70
    64
  3
ランダム線3
 72
    65
 73
     4
 40
18.0
 49
3.0
 49
-4.0
 49
5.0
 49
-6.0
  0
LTYPE
  2
RAND4
 70
    64
  3
ランダム線4
 72
    65
 73
     4
 40
22.0
 49
4.0
 49
-5.0
 49
6.0
 49
-7.0
  0
LTYPE
  2
RAND5
 70
    64
  3
ランダム線5
 72
    65
 73
     4
 40
26.0
 49
5.0
 49
-6.0
 49
7.0
 49
-8.0
  0
LTYPE
  2
LONG1
 70
    64
  3
----------  --  ----------  --  
 72
    65
 73
     4
 40
40.0
 49
32.5
 49
-2.5
 49
2.5
 49
-2.5
  0
LTYPE
  2
LONG2
 70
    64
  3
--------  -  -  --------  -  -  
 72
    65
 73
     6
 40
40.0
 49
30.0
 49
-2.5
 49
1.25
 49
-2.5
 49
1.25
 49
-2.5
  0
LTYPE
  2
LONG3
 70
    64
  3
+++++++++++++++..+++++++++++++++
 72
    65
 73
     2
 40
40.0
 49
37.5
 49
-2.5
  0
LTYPE
  2
LONG4
 70
    64
  3
+++++++++++++++..+++++++++++++++
 72
    65
 73
     2
 40
80.0
 49
75.0
 49
-5.0
  0
LTYPE
  2
LONG5
 70
    64
  3
----------  --  ----------  --  
 72
    65
 73
     4
 40
60.0
 49
37.5
 49
-7.5
 49
7.5
 49
-7.5
  0
LTYPE
  2
dashed
 70
   64
  3
-------   -------------   ------
 72
   65
 73
    2
 40
7.5
 49
6
 49
-1.5
  0
LTYPE
  2
dashed_spaced
 70
   64
  3
----        --------        ----
 72
   65
 73
    2
 40
12
 49
6
 49
-6
  0
LTYPE
  2
long_dashed_dotted
 70
   64
  3
------------- --- --------------
 72
   65
 73
    4
 40
15.25
 49
12
 49
-1.5
 49
0.25
 49
-1.5
  0
LTYPE
  2
long_dashed_double-dotted
 70
   64
  3
----------- --- --- ------------
 72
   65
 73
    6
 40
17
 49
12
 49
-1.5
 49
0.25
 49
-1.5
 49
0.25
 49
-1.5
  0
LTYPE
  2
long_dashed_triplicate-dotted
 70
   64
  3
--------- --- --- --- ----------
 72
   65
 73
    8
 40
18.75
 49
12
 49
-1.5
 49
0.25
 49
-1.5
 49
0.25
 49
-1.5
 49
0.25
 49
-1.5
  0
LTYPE
  2
dotted
 70
   64
  3
   -       -       -       -    
 72
   65
 73
    2
 40
1.75
 49
0.25
 49
-1.5
  0
LTYPE
  2
chain
 70
   64
  3
-------------- -- --------------
 72
   65
 73
    4
 40
18.5
 49
12
 49
-1.5
 49
3.5
 49
-1.5
  0
LTYPE
  2
chain_double_dash
 70
   64
  3
------------ -- -- -------------
 72
   65
 73
    6
 40
23.5
 49
12
 49
-1.5
 49
3.5
 49
-1.5
 49
3.5
 49
-1.5
  0
LTYPE
  2
dashed_dotted
 70
   64
  3
-----------     -     ----------
 72
   65
 73
    4
 40
9.25
 49
6
 49
-1.5
 49
0.25
 49
-1.5
  0
LTYPE
  2
double-dashed_dotted
 70
   64
  3
------   -----------   -   -----
 72
   65
 73
    6
 40
16.75
 49
6
 49
-1.5
 49
6
 49
-1.5
 49
0.25
 49
-1.5
  0
LTYPE
  2
dashed_double-dotted
 70
   64
  3
---------    -    -    ---------
 72
   65
 73
    6
 40
11
 49
6
 49
-1.5
 49
0.25
 49
-1.5
 49
0.25
 49
-1.5
  0
LTYPE
  2
double-dashed_double-dotted
 70
   64
  3
-----   ---------   -   -   ----
 72
   65
 73
    8
 40
18.5
 49
6
 49
-1.5
 49
6
 49
-1.5
 49
0.25
 49
-1.5
 49
0.25
 49
-1.5
  0
LTYPE
  2
dashed_triplicate-dotted
 70
   64
  3
-------    -    -    -    ------
 72
   65
 73
    8
 40
12.75
 49
6
 49
-1.5
 49
0.25
 49
-1.5
 49
0.25
 49
-1.5
 49
0.25
 49
-1.5
  0
LTYPE
  2
double-dashed_triplicate-dotted
 70
   64
  3
-----  ---------  -  -  -  -----
 72
   65
 73
   10
 40
20.25
 49
6
 49
-1.5
 49
6
 49
-1.5
 49
0.25
 49
-1.5
 49
0.25
 49
-1.5
 49
0.25
 49
-1.5
  0
LTYPE
  2
undefined
 70
   64
  3
--------------------------------
 72
   65
 73
    0
 40
0
  0
LTYPE
  2
PLINE2
 70
   64
  3
------     -----------     -----
 72
   65
 73
    2
 40
3
 49
2.1000000000000001
 49
-0.9
  0
LTYPE
  2
PLINE3
 70
   64
  3
------------   ---   -----------
 72
   65
 73
    4
 40
10
 49
7
 49
-1
 49
1
 49
-1
  0
LTYPE
  2
PLINE4
 70
   64
  3
---------   ---   ---   --------
 72
   65
 73
    6
 40
10
 49
5
 49
-1
 49
1
 49
-1
 49
1
 49
-1
  0
LTYPE
  2
PLINE5
 70
   64
  3
------     -----------     -----
 72
   65
 73
    2
 40
5
 49
3.5
 49
-1.5
  0
LTYPE
  2
PLINE6
 70
   64
  3
------------   ---   -----------
 72
   65
 73
    4
 40
15
 49
10.5
 49
-1.5
 49
1.5
 49
-1.5
  0
LTYPE
  2
PLINE7
 70
   64
  3
---------   ---   ---   --------
 72
   65
 73
    6
 40
15
 49
7.5
 49
-1.5
 49
1.5
 49
-1.5
 49
1.5
 49
-1.5
  0
LTYPE
  2
PLINE8
 70
   64
  3
------     -----------     -----
 72
   65
 73
    2
 40
7
 49
4.9000000000000004
 49
-2.1000000000000001
  0
LTYPE
  2
PLINE9
 70
   64
  3
------------   ---   -----------
 72
   65
 73
    4
 40
20
 49
14
 49
-2
 49
2
 49
-2
  0
LTYPE
  2
PLINE10
 70
   64
  3
---------   ---   ---   --------
 72
   65
 73
    6
 40
20
 49
10
 49
-2
 49
2
 49
-2
 49
2
 49
-2
  0
LTYPE
  2
PLINE11
 70
   64
  3
------     -----------     -----
 72
   65
 73
    2
 40
9
 49
6.2999999999999989
 49
-2.7000000000000002
  0
LTYPE
  2
PLINE12
 70
   64
  3
------------   ---   -----------
 72
   65
 73
    4
 40
25
 49
17.5
 49
-2.5
 49
2.5
 49
-2.5
  0
LTYPE
  2
PLINE13
 70
   64
  3
---------   ---   ---   --------
 72
   65
 73
    6
 40
25
 49
12.5
 49
-2.5
 49
2.5
 49
-2.5
 49
2.5
 49
-2.5
  0
LTYPE
  2
PLINE14
 70
   64
  3
------     -----------     -----
 72
   65
 73
    2
 40
11
 49
7.7000000000000002
 49
-3.2999999999999989
  0
LTYPE
  2
PLINE15
 70
   64
  3
------------   ---   -----------
 72
   65
 73
    4
 40
30
 49
21
 49
-3
 49
3
 49
-3
  0
LTYPE
  2
PLINE16
 70
   64
  3
---------   ---   ---   --------
 72
   65
 73
    6
 40
30
 49
15
 49
-3
 49
3
 49
-3
 49
3
 49
-3
  0
ENDTAB
  0
TABLE
  2
STYLE
  5
3
100
AcDbSymbolTable
 70
     1
  0
STYLE
  5
10
100
AcDbSymbolTableRecord
100
AcDbTextStyleTableRecord
  2
STANDARD
 70
     0
 40
0.0
 41
1.0
 50
0.0
 71
     0
 42
0.2
  3
txt
  4
bigfont.shx
  0
STYLE
  5
26
100
AcDbSymbolTableRecord
100
AcDbTextStyleTableRecord
  2
TATEGAKI
 70
    68
 40
0.0
 41
1.0
 50
0.0
 71
     0
 42
1.0
  3
txt
  4
bigfont.shx
  0
ENDTAB
  0
TABLE
  2
LAYER
 70
    4
  0
LAYER
  2
_0-2_寸法
 70
   64
 62
    7
  6
CONTINUOUS
  0
LAYER
  2
_0-3_躯体と製品
 70
   64
 62
    7
  6
CONTINUOUS
  0
LAYER
  2
_0-4_図面枠
 70
   64
 62
    7
  6
CONTINUOUS
  0
LAYER
  2
ADD_LINE
 70
   64
 62
    7
  6
CONTINUOUS
  0
ENDTAB
  0
ENDSEC
  0
SECTION
  2
BLOCKS
  0
BLOCK
  2
-000-_Dot
 70
   64
 10
0
 20
0
 30
0
  0
CIRCLE
  8
_0-0_0
  6
CONTINUOUS
 62
    7
 10
0
 20
0
 40
0.05
  0
LINE
  8
_0-0_0
  6
CONTINUOUS
 62
    7
 10
0.05
 20
0
 11
-0.05
 21
0
  0
LINE
  8
_0-0_0
  6
CONTINUOUS
 62
    7
 10
-0.1
 20
0
 11
-0.2
 21
0
  0
ENDBLK
  0
BLOCK
  2
-001-_D4
 70
   64
 10
0
 20
0
 30
0
  0
LINE
  8
_0-2_寸法
  6
CONTINUOUS
 62
    4
 10
293.820069029781
 20
-75.790938904187342
 11
293.820069029781
 21
30.208371887878258
  0
LINE
  8
_0-2_寸法
  6
CONTINUOUS
 62
    4
 10
509.82006902978083
 20
-72.283123579895985
 11
509.82006902978083
 21
30.208371887878258
  0
LINE
  8
_0-2_寸法
  6
CONTINUOUS
 62
    4
 10
294.02006902978076
 20
30.208371887878258
 11
509.62006902978084
 21
30.208371887878258
  0
INSERT
  2
-000-_Dot
  8
_0-2_寸法
 10
293.820069029781
 20
30.208371887878258
 41
1
 42
1
 50
180
  0
INSERT
  2
-000-_Dot
  8
_0-2_寸法
 10
509.82006902978083
 20
30.208371887878258
 41
1
 42
1
 50
0
  0
TEXT
  8
_0-2_寸法
 62
    7
 10
377.82006902978077
 20
30.368371887878261
 40
4
 41
1
 50
0
  1
基準巾　９００～２０００
  0
POINT
  8
_0-1_Defpoints
 62
    7
 10
293.820069029781
 20
-75.790938904187342
  0
POINT
  8
_0-1_Defpoints
 62
    7
 10
509.82006902978083
 20
-72.283123579895985
  0
POINT
  8
_0-1_Defpoints
 62
    7
 10
509.82006902978083
 20
30.208371887878258
  0
ENDBLK
  0
BLOCK
  2
-002-_D5
 70
   64
 10
0
 20
0
 30
0
  0
LINE
  8
_0-2_寸法
  6
CONTINUOUS
 62
    4
 10
301.82006902978077
 20
-146.98795531212176
 11
301.82006902978077
 21
-173.93582771212175
  0
LINE
  8
_0-2_寸法
  6
CONTINUOUS
 62
    4
 10
501.82006902978083
 20
-148.04923941212172
 11
501.82006902978083
 21
-173.93582771212175
  0
LINE
  8
_0-2_寸法
  6
CONTINUOUS
 62
    4
 10
302.02006902978076
 20
-173.93582771212175
 11
501.62006902978084
 21
-173.93582771212175
  0
INSERT
  2
-000-_Dot
  8
_0-2_寸法
 10
301.82006902978077
 20
-173.93582771212175
 41
1
 42
1
 50
180
  0
INSERT
  2
-000-_Dot
  8
_0-2_寸法
 10
501.82006902978083
 20
-173.93582771212175
 41
1
 42
1
 50
0
  0
TEXT
  8
_0-2_寸法
 62
    7
 10
373.82006902978077
 20
-173.77582771212175
 40
4
 41
1
 50
0
  1
受枠外径（基準巾－８０ｍｍ）
  0
POINT
  8
_0-1_Defpoints
 62
    7
 10
301.82006902978077
 20
-146.98795531212176
  0
POINT
  8
_0-1_Defpoints
 62
    7
 10
501.82006902978083
 20
-148.04923941212172
  0
POINT
  8
_0-1_Defpoints
 62
    7
 10
501.82006902978083
 20
-173.93582771212175
  0
ENDBLK
  0
BLOCK
  2
-003-_D6
 70
   64
 10
0
 20
0
 30
0
  0
LINE
  8
_0-2_寸法
  6
CONTINUOUS
 62
    4
 10
277.271495253338
 20
4.8706358878782563
 11
260.62704662978081
 21
4.8706358878782599
  0
LINE
  8
_0-2_寸法
  6
CONTINUOUS
 62
    4
 10
277.271495253338
 20
-103.12936411212175
 11
260.62704662978081
 21
-103.12936411212175
  0
LINE
  8
_0-2_寸法
  6
CONTINUOUS
 62
    4
 10
260.62704662978081
 20
4.6706358878782606
 11
260.62704662978081
 21
-102.92936411212176
  0
INSERT
  2
-000-_Dot
  8
_0-2_寸法
 10
260.62704662978081
 20
4.8706358878782599
 41
1
 42
1
 50
90
  0
INSERT
  2
-000-_Dot
  8
_0-2_寸法
 10
260.62704662978081
 20
-103.12936411212175
 41
1
 42
1
 50
270
  0
TEXT
  8
_0-2_寸法
 62
    7
 10
260.46704662978084
 20
-53.129364112121699
 40
4
 41
1
 50
90
  1
高さ
  0
POINT
  8
_0-1_Defpoints
 62
    7
 10
277.271495253338
 20
4.8706358878782563
  0
POINT
  8
_0-1_Defpoints
 62
    7
 10
277.271495253338
 20
-103.12936411212175
  0
POINT
  8
_0-1_Defpoints
 62
    7
 10
260.62704662978081
 20
-103.12936411212175
  0
ENDBLK
  0
ENDSEC
  0
SECTION
  2
ENTITIES
  0
TEXT
  8
_0-4_図面枠
 62
    7
 10
22.960825889408625
 20
748.04476685384566
 40
40
 41
0.7999999999999999
 50
0
  1
サニートップ　ＶＳ型天窓付き標準図
  0
LINE
  8
_0-4_図面枠
  6
CONTINUOUS
 62
    4
 10
-757.91434211059095
 20
732.64646185384549
 11
1177.9189908894086
 21
732.64646185384549
  0
LINE
  8
_0-4_図面枠
  6
CONTINUOUS
 62
    4
 10
-757.91434211059095
 20
-519.02020514615447
 11
1177.9189908894086
 21
-519.02020514615447
  0
LINE
  8
_0-4_図面枠
  6
CONTINUOUS
 62
    4
 10
-757.91434211059095
 20
815.97979485384553
 11
1177.9189908894086
 21
815.97979485384553
  0
LINE
  8
_0-3_躯体と製品
  6
CONTINUOUS
 62
    2
 10
220.81973588940855
 20
415.32230685384548
 11
227.6197358894085
 21
419.24828885384545
  0
LINE
  8
_0-3_躯体と製品
  6
CONTINUOUS
 62
    2
 10
227.6197358894085
 20
403.5682888538455
 11
220.81973588940855
 21
407.49427085384548
  0
CIRCLE
  8
_0-3_躯体と製品
  6
CONTINUOUS
 62
    2
 10
227.61282888940968
 20
411.40828885384553
 40
6.793092999999998
  0
LINE
  8
_0-3_躯体と製品
  6
CONTINUOUS
 62
    2
 10
224.72024088940861
 20
456.73419085384558
 11
221.18470788940863
 21
453.19865685384548
  0
LINE
  8
_0-3_躯体と製品
  6
CONTINUOUS
 62
    2
 10
219.7704938894085
 20
454.6128698538455
 11
236.74105688940858
 21
471.58343285384558
  0
LINE
  8
_0-3_躯体と製品
  6
CONTINUOUS
 62
    7
 10
238.1552698894086
 20
436.22809385384551
 11
220.47760088940868
 21
418.55042485384558
  0
LINE
  8
_0-3_躯体と製品
  6
PLINE3
 62
    2
 10
220.47760088940868
 20
418.55042485384558
 11
234.6197358894085
 21
404.40828885384553
  0
ARC
  8
_0-3_躯体と製品
  6
CONTINUOUS
 62
    7
 10
227.54866888940865
 20
411.4793568538455
 40
10
 50
134.99999300000101
 51
315
  0
LINE
  8
_0-3_躯体と製品
  6
PLINE3
 62
    2
 10
254.41872588940851
 20
438.34941385384548
 11
220.47760088940868
 21
404.40828885384553
  0
LINE
  8
_0-3_躯体と製品
  6
CONTINUOUS
 62
    7
 10
234.97329588940852
 20
447.18824285384562
 11
219.41694688940856
 21
431.63189385384555
  0
LINE
  8
_0-3_躯体と製品
  6
CONTINUOUS
 62
    7
 10
219.77049988940871
 20
427.74280685384542
 11
239.56948988940871
 21
447.54179585384554
  0
LINE
  8
_0-3_躯体と製品
  6
CONTINUOUS
 62
    2
 10
161.78773788940862
 20
317.43415485384554
 11
259.36847388940851
 21
415.0148908538456
  0
LINE
  8
_0-3_躯体と製品
  6
CONTINUOUS
 62
    2
 10
253.00451288940872
 20
421.37885185384562
 11
155.4237768894086
 21
323.79811585384562
  0
LINE
  8
_0-3_躯体と製品
  6
CONTINUOUS
 62
    2
 10
-10.390818110591454
 20
197.58149985384563
 11
234.6197358894085
 21
442.59205485384553
  0
LINE
  8
_0-3_躯体と製品
  6
CONTINUOUS
 62
    2
 10
-147.3802641105915
 20
-57.407945146154589
 11
282.6197358894085
 21
-57.407945146154589
  0
LINE
  8
_0-3_躯体と製品
  6
CONTINUOUS
 62
    2
 10
-147.3802641105915
 20
-59.407945146154589
 11
282.6197358894085
 21
-59.407945146154589
  0
ARC
  8
_0-3_躯体と製品
  6
CONTINUOUS
 62
    2
 10
221.69006888940862
 20
-43.363945146154435
 40
3.056
 50
50.843867999997215
 51
90
  0
LINE
  8
_0-3_躯体と製品
  6
CONTINUOUS
 62
    2
 10
220.87126388940851
 20
-40.307945146154452
 11
227.6197358894085
 21
-40.307945146154452
  0
LINE
  8
_0-3_躯体と製品
  6
CONTINUOUS
 62
    2
 10
-157.3802641105915
 20
-42.407945146154475
 11
282.6197358894085
 21
-42.407945146154475
  0
LINE
  8
_0-4_図面枠
  6
CONTINUOUS
 62
    4
 10
-757.91434211059095
 20
815.97979485384553
 11
-757.91434211059095
 21
-519.02020514615447
  0
LINE
  8
_0-3_躯体と製品
  6
CONTINUOUS
 62
    2
 10
55.05194088940857
 20
210.69835785384564
 11
-198.95436211059132
 21
-43.307945146154566
  0
LINE
  8
_0-3_躯体と製品
  6
CONTINUOUS
 62
    2
 10
-217.78228411059149
 20
-49.407945146154475
 11
23.939241889408549
 21
192.31358085384562
  0
LINE
  8
_0-3_躯体と製品
  6
PLINE3
 62
    2
 10
-211.26756511059148
 20
-27.33687714615445
 11
-14.087391110591398
 21
169.84329685384546
  0
LINE
  8
_0-3_躯体と製品
  6
CONTINUOUS
 62
    2
 10
164.3853708894087
 20
404.17762785384559
 11
-88.172893110591303
 21
151.61936385384564
  0
LINE
  8
_0-3_躯体と製品
  6
CONTINUOUS
 62
    2
 10
153.36676288940862
 20
415.07932985384548
 11
-141.85582211059136
 21
119.85674485384556
  0
LINE
  8
_0-3_躯体と製品
  6
CONTINUOUS
 62
    2
 10
158.95924388940853
 20
430.5713058538455
 11
-143.68245811059137
 21
127.92960385384555
  0
LINE
  8
_0-3_躯体と製品
  6
CONTINUOUS
 62
    5
 10
-280.71485411059143
 20
31.909401853845623
 11
151.18106988940872
 21
463.8053248538456
  0
LINE
  8
_0-3_躯体と製品
  6
CONTINUOUS
 62
    5
 10
146.37274388940864
 20
468.61365085384557
 11
-285.52318011059128
 21
36.717727853845531
  0
LINE
  8
_0-3_躯体と製品
  6
CONTINUOUS
 62
    2
 10
135.38805788940863
 20
258.16970085384554
 11
-119.77869911059133
 21
107.38934085384557
  0
LINE
  8
_0-3_躯体と製品
  6
CONTINUOUS
 62
    2
 10
-130.97074411059134
 20
126.32972385384556
 11
124.19601288940862
 21
277.11008485384565
  0
LINE
  8
_0-3_躯体と製品
  6
PLINE3
 62
    2
 10
-172.44082811059138
 20
89.047740853845539
 11
193.97670488940867
 21
305.56719885384553
  0
LINE
  8
_0-3_躯体と製品
  6
CONTINUOUS
 62
    3
 10
-272.3802641105915
 20
-334.48316814615441
 11
-272.3802641105915
 21
-125.40794514615436
  0
LINE
  8
_0-3_躯体と製品
  6
CONTINUOUS
 62
    3
 10
-122.3802641105915
 20
-334.48316814615441
 11
-122.3802641105915
 21
-125.40794514615436
  0
LINE
  8
_0-3_躯体と製品
  6
CONTINUOUS
 62
    2
 10
-292.3802641105915
 20
-334.48316814615441
 11
-292.3802641105915
 21
-99.407945146154475
  0
LINE
  8
_0-3_躯体と製品
  6
CONTINUOUS
 62
    2
 10
-217.3802641105915
 20
-133.96153914615434
 11
-217.3802641105915
 21
-403.44026314615451
  0
LINE
  8
_0-3_躯体と製品
  6
CONTINUOUS
 62
    5
 10
-197.34183911059131
 20
-334.48316814615441
 11
-122.3802641105915
 21
-259.52159314615437
  0
LINE
  8
_0-3_躯体と製品
  6
CONTINUOUS
 62
    5
 10
-183.22818711059131
 20
-334.48316814615441
 11
-122.3802641105915
 21
-273.63524514615449
  0
LINE
  8
_0-3_躯体と製品
  6
CONTINUOUS
 62
    5
 10
-189.76228511059139
 20
-334.48316814615441
 11
-122.3802641105915
 21
-267.1011471461544
  0
LINE
  8
_0-3_躯体と製品
  6
CONTINUOUS
 62
    2
 10
-257.3802641105915
 20
-49.407945146154475
 11
-75.085126110591318
 21
132.88719185384554
  0
LINE
  8
_0-3_躯体と製品
  6
PLINE3
 62
    2
 10
-192.3802641105915
 20
-40.35416014615447
 11
-192.3802641105915
 21
-70.622493146154511
  0
LINE
  8
_0-3_躯体と製品
  6
CONTINUOUS
 62
    2
 10
-297.3802641105915
 20
-47.407945146154589
 11
-297.3802641105915
 21
-84.407945146154589
  0
LINE
  8
_0-3_躯体と製品
  6
CONTINUOUS
 62
    2
 10
-293.3802641105915
 20
-58.407945146154589
 11
-293.3802641105915
 21
-50.407945146154589
  0
ARC
  8
_0-3_躯体と製品
  6
CONTINUOUS
 62
    2
 10
-291.8802641105915
 20
-52.407945146154589
 40
1
 50
180
 51
0
  0
LINE
  8
_0-3_躯体と製品
  6
CONTINUOUS
 62
    2
 10
-295.3802641105915
 20
-58.407945146154589
 11
-295.3802641105915
 21
-49.407945146154475
  0
LINE
  8
_0-3_躯体と製品
  6
CONTINUOUS
 62
    2
 10
-257.3802641105915
 20
-49.407945146154475
 11
-257.3802641105915
 21
-55.407945146154589
  0
LINE
  8
_0-3_躯体と製品
  6
CONTINUOUS
 62
    2
 10
-293.3802641105915
 20
-58.407945146154589
 11
-293.3802641105915
 21
-50.407945146154589
  0
LINE
  8
_0-3_躯体と製品
  6
CONTINUOUS
 62
    2
 10
-157.3802641105915
 20
-42.407945146154475
 11
-157.3802641105915
 21
-57.407945146154589
  0
LINE
  8
_0-3_躯体と製品
  6
CONTINUOUS
 62
    2
 10
-231.1302641105915
 20
-52.407945146154589
 11
-231.1302641105915
 21
-55.407945146154589
  0
LINE
  8
_0-3_躯体と製品
  6
CONTINUOUS
 62
    2
 10
-239.6302641105915
 20
-52.407945146154589
 11
-239.6302641105915
 21
-55.407945146154589
  0
LINE
  8
_0-3_躯体と製品
  6
PLINE3
 62
    2
 10
-235.3802641105915
 20
-35.210680146154459
 11
-235.3802641105915
 21
-77.407945146154589
  0
LINE
  8
_0-3_躯体と製品
  6
CONTINUOUS
 62
    2
 10
-196.3802641105915
 20
-52.407945146154589
 11
-196.3802641105915
 21
-59.407945146154589
  0
LINE
  8
_0-3_躯体と製品
  6
CONTINUOUS
 62
    2
 10
-188.3802641105915
 20
-52.407945146154589
 11
-188.3802641105915
 21
-59.407945146154589
  0
LINE
  8
_0-3_躯体と製品
  6
CONTINUOUS
 62
    2
 10
-239.3802641105915
 20
-49.407945146154475
 11
-239.3802641105915
 21
-55.407945146154589
  0
LINE
  8
_0-3_躯体と製品
  6
CONTINUOUS
 62
    2
 10
-231.3802641105915
 20
-49.407945146154475
 11
-231.3802641105915
 21
-55.407945146154589
  0
LINE
  8
_0-3_躯体と製品
  6
CONTINUOUS
 62
    7
 10
-271.87601911059141
 20
-59.660927146154449
 11
-264.80495111059145
 21
-52.589859146154481
  0
LINE
  8
_0-3_躯体と製品
  6
CONTINUOUS
 62
    7
 10
-244.6524081105913
 20
-36.679956146154382
 11
-264.4513981105913
 21
-56.478946146154499
  0
LINE
  8
_0-3_躯体と製品
  6
CONTINUOUS
 62
    5
 10
-265.33133111059146
 20
-52.218718146154401
 11
-264.78593911059147
 21
-51.627928146154431
  0
LINE
  8
_0-3_躯体と製品
  6
CONTINUOUS
 62
    5
 10
-264.78593911059147
 20
-51.627928146154431
 11
-264.3105061105914
 21
-50.983244146154448
  0
LINE
  8
_0-3_躯体と製品
  6
CONTINUOUS
 62
    5
 10
-264.3105061105914
 20
-50.983244146154448
 11
-263.91253111059132
 21
-50.294832146154477
  0
LINE
  8
_0-3_躯体と製品
  6
CONTINUOUS
 62
    5
 10
-263.91253111059132
 20
-50.294832146154477
 11
-263.59829111059139
 21
-49.573549146154505
  0
LINE
  8
_0-3_躯体と製品
  6
CONTINUOUS
 62
    5
 10
-263.59829111059139
 20
-49.573549146154505
 11
-263.37274011059139
 21
-48.830771146154348
  0
LINE
  8
_0-3_躯体と製品
  6
CONTINUOUS
 62
    5
 10
-263.37274011059139
 20
-48.830771146154348
 11
-263.23943511059133
 21
-48.078210146154333
  0
LINE
  8
_0-3_躯体と製品
  6
CONTINUOUS
 62
    5
 10
-263.23943511059133
 20
-48.078210146154333
 11
-263.20048011059134
 21
-47.327736146154393
  0
LINE
  8
_0-3_躯体と製品
  6
CONTINUOUS
 62
    5
 10
-263.20048011059134
 20
-47.327736146154393
 11
-263.25648911059147
 21
-46.591184146154546
  0
LINE
  8
_0-3_躯体と製品
  6
CONTINUOUS
 62
    5
 10
-263.25648911059147
 20
-46.591184146154546
 11
-263.40657711059134
 21
-45.880170146154569
  0
LINE
  8
_0-3_躯体と製品
  6
CONTINUOUS
 62
    5
 10
-263.40657711059134
 20
-45.880170146154569
 11
-263.64837911059135
 21
-45.205906146154348
  0
LINE
  8
_0-3_躯体と製品
  6
CONTINUOUS
 62
    5
 10
-263.64837911059135
 20
-45.205906146154348
 11
-263.97808111059135
 21
-44.579027146154374
  0
LINE
  8
_0-3_躯体と製品
  6
CONTINUOUS
 62
    5
 10
-263.97808111059135
 20
-44.579027146154374
 11
-264.39048211059139
 21
-44.009419146154357
  0
LINE
  8
_0-3_躯体と製品
  6
CONTINUOUS
 62
    5
 10
-264.39048211059139
 20
-44.009419146154357
 11
-264.87908111059141
 21
-43.506064146154472
  0
LINE
  8
_0-3_躯体と製品
  6
CONTINUOUS
 62
    5
 10
-264.87908111059141
 20
-43.506064146154472
 11
-265.43617011059132
 21
-43.076902146154339
  0
LINE
  8
_0-3_躯体と製品
  6
CONTINUOUS
 62
    5
 10
-265.43617011059132
 20
-43.076902146154339
 11
-266.05296411059135
 21
-42.72869914615444
  0
LINE
  8
_0-3_躯体と製品
  6
CONTINUOUS
 62
    5
 10
-266.05296411059135
 20
-42.72869914615444
 11
-266.7197371105915
 21
-42.46694814615438
  0
LINE
  8
_0-3_躯体と製品
  6
CONTINUOUS
 62
    5
 10
-266.7197371105915
 20
-42.46694814615438
 11
-267.42597211059137
 21
-42.295777146154478
  0
LINE
  8
_0-3_躯体と製品
  6
CONTINUOUS
 62
    5
 10
-267.42597211059137
 20
-42.295777146154478
 11
-268.16053211059148
 21
-42.217884146154347
  0
LINE
  8
_0-3_躯体と製品
  6
CONTINUOUS
 62
    5
 10
-268.16053211059148
 20
-42.217884146154347
 11
-268.91183311059149
 21
-42.234499146154462
  0
LINE
  8
_0-3_躯体と製品
  6
CONTINUOUS
 62
    5
 10
-268.91183311059149
 20
-42.234499146154462
 11
-269.66802611059143
 21
-42.345359146154465
  0
LINE
  8
_0-3_躯体と製品
  6
CONTINUOUS
 62
    5
 10
-269.66802611059143
 20
-42.345359146154465
 11
-270.41718511059139
 21
-42.548716146154447
  0
LINE
  8
_0-3_躯体と製品
  6
CONTINUOUS
 62
    5
 10
-270.41718511059139
 20
-42.548716146154447
 11
-271.14749611059142
 21
-42.841362146154438
  0
LINE
  8
_0-3_躯体と製品
  6
CONTINUOUS
 62
    5
 10
-271.14749611059142
 20
-42.841362146154438
 11
-271.84744111059149
 21
-43.218684146154374
  0
LINE
  8
_0-3_躯体と製品
  6
CONTINUOUS
 62
    5
 10
-271.84744111059149
 20
-43.218684146154374
 11
-272.5059821105915
 21
-43.674730146154445
  0
LINE
  8
_0-3_躯体と製品
  6
CONTINUOUS
 62
    5
 10
-272.5059821105915
 20
-43.674730146154445
 11
-273.11273311059131
 21
-44.20230714615434
  0
LINE
  8
_0-3_躯体と製品
  6
CONTINUOUS
 62
    5
 10
-273.11273311059131
 20
-44.20230714615434
 11
-273.6581251105913
 21
-44.79309714615448
  0
LINE
  8
_0-3_躯体と製品
  6
CONTINUOUS
 62
    5
 10
-273.6581251105913
 20
-44.79309714615448
 11
-274.13355711059148
 21
-45.437781146154464
  0
LINE
  8
_0-3_躯体と製品
  6
CONTINUOUS
 62
    5
 10
-274.13355711059148
 20
-45.437781146154464
 11
-274.53153211059134
 21
-46.126193146154492
  0
LINE
  8
_0-3_躯体と製品
  6
CONTINUOUS
 62
    5
 10
-274.53153211059134
 20
-46.126193146154492
 11
-274.84577311059138
 21
-46.847475146154466
  0
LINE
  8
_0-3_躯体と製品
  6
CONTINUOUS
 62
    5
 10
-274.84577311059138
 20
-46.847475146154466
 11
-275.07132411059138
 21
-47.590254146154507
  0
LINE
  8
_0-3_躯体と製品
  6
CONTINUOUS
 62
    5
 10
-275.07132411059138
 20
-47.590254146154507
 11
-275.20462811059133
 21
-48.342815146154408
  0
LINE
  8
_0-3_躯体と製品
  6
CONTINUOUS
 62
    5
 10
-275.20462811059133
 20
-48.342815146154408
 11
-275.24358311059132
 21
-49.093289146154348
  0
LINE
  8
_0-3_躯体と製品
  6
CONTINUOUS
 62
    5
 10
-275.24358311059132
 20
-49.093289146154348
 11
-275.1875751105913
 21
-49.829841146154308
  0
LINE
  8
_0-3_躯体と製品
  6
CONTINUOUS
 62
    5
 10
-275.1875751105913
 20
-49.829841146154308
 11
-275.03748611059132
 21
-50.540855146154399
  0
LINE
  8
_0-3_躯体と製品
  6
CONTINUOUS
 62
    5
 10
-275.03748611059132
 20
-50.540855146154399
 11
-274.79568511059142
 21
-51.215118146154509
  0
LINE
  8
_0-3_躯体と製品
  6
CONTINUOUS
 62
    5
 10
-274.79568511059142
 20
-51.215118146154509
 11
-274.46598311059142
 21
-51.841997146154426
  0
LINE
  8
_0-3_躯体と製品
  6
CONTINUOUS
 62
    5
 10
-274.46598311059142
 20
-51.841997146154426
 11
-274.05358111059149
 21
-52.411606146154327
  0
LINE
  8
_0-3_躯体と製品
  6
CONTINUOUS
 62
    5
 10
-274.05358111059149
 20
-52.411606146154327
 11
-273.56498311059136
 21
-52.914960146154499
  0
LINE
  8
_0-3_躯体と製品
  6
CONTINUOUS
 62
    5
 10
-273.56498311059136
 20
-52.914960146154499
 11
-273.00789411059145
 21
-53.344123146154516
  0
LINE
  8
_0-3_躯体と製品
  6
CONTINUOUS
 62
    5
 10
-273.00789411059145
 20
-53.344123146154516
 11
-272.39109911059131
 21
-53.692325146154417
  0
LINE
  8
_0-3_躯体と製品
  6
CONTINUOUS
 62
    5
 10
-272.39109911059131
 20
-53.692325146154417
 11
-271.7243271105915
 21
-53.954077146154305
  0
LINE
  8
_0-3_躯体と製品
  6
CONTINUOUS
 62
    5
 10
-271.7243271105915
 20
-53.954077146154305
 11
-271.0180921105914
 21
-54.12524814615449
  0
LINE
  8
_0-3_躯体と製品
  6
CONTINUOUS
 62
    5
 10
-271.0180921105914
 20
-54.12524814615449
 11
-270.28353111059141
 21
-54.203141146154508
  0
LINE
  8
_0-3_躯体と製品
  6
CONTINUOUS
 62
    5
 10
-270.28353111059141
 20
-54.203141146154508
 11
-269.53223111059128
 21
-54.186526146154392
  0
LINE
  8
_0-3_躯体と製品
  6
CONTINUOUS
 62
    5
 10
-269.53223111059128
 20
-54.186526146154392
 11
-268.77603811059134
 21
-54.075666146154504
  0
LINE
  8
_0-3_躯体と製品
  6
CONTINUOUS
 62
    5
 10
-268.77603811059134
 20
-54.075666146154504
 11
-268.02687911059138
 21
-53.872309146154407
  0
LINE
  8
_0-3_躯体と製品
  6
CONTINUOUS
 62
    5
 10
-268.02687911059138
 20
-53.872309146154407
 11
-267.29656811059135
 21
-53.579662146154533
  0
LINE
  8
_0-3_躯体と製品
  6
CONTINUOUS
 62
    5
 10
-267.29656811059135
 20
-53.579662146154533
 11
-266.59662311059151
 21
-53.202341146154481
  0
LINE
  8
_0-3_躯体と製品
  6
CONTINUOUS
 62
    5
 10
-266.59662311059151
 20
-53.202341146154481
 11
-265.93808211059149
 21
-52.74629514615458
  0
LINE
  8
_0-3_躯体と製品
  6
CONTINUOUS
 62
    5
 10
-265.93808211059149
 20
-52.74629514615458
 11
-265.33133111059146
 21
-52.218718146154401
  0
ARC
  8
_0-3_躯体と製品
  6
CONTINUOUS
 62
    2
 10
-238.6302641105915
 20
-52.869454146154453
 40
8.0384910000000005
 50
246.15243399999753
 51
293.8475660000023
  0
LINE
  8
_0-3_躯体と製品
  6
CONTINUOUS
 62
    2
 10
-232.1302641105915
 20
-60.907945146154589
 11
-238.6302641105915
 21
-60.907945146154589
  0
LINE
  8
_0-3_躯体と製品
  6
CONTINUOUS
 62
    2
 10
-225.8802641105915
 20
-74.407945146154475
 11
-288.3802641105915
 21
-74.407945146154475
  0
LINE
  8
_0-3_躯体と製品
  6
CONTINUOUS
 62
    2
 10
-228.8802641105915
 20
-55.407945146154589
 11
-241.8802641105915
 21
-55.407945146154589
  0
LINE
  8
_0-3_躯体と製品
  6
CONTINUOUS
 62
    2
 10
-228.8802641105915
 20
-71.407945146154589
 11
-241.8802641105915
 21
-71.407945146154589
  0
LINE
  8
_0-3_躯体と製品
  6
CONTINUOUS
 62
    5
 10
-272.3802641105915
 20
-219.89416714615436
 11
-177.89404111059139
 21
-125.40794514615436
  0
LINE
  8
_0-3_躯体と製品
  6
CONTINUOUS
 62
    5
 10
-272.3802641105915
 20
-210.74643014615447
 11
-187.04177811059139
 21
-125.40794514615436
  0
LINE
  8
_0-3_躯体と製品
  6
CONTINUOUS
 62
    5
 10
-272.3802641105915
 20
-201.86005714615453
 11
-195.92815211059133
 21
-125.40794514615436
  0
LINE
  8
_0-3_躯体と製品
  6
CONTINUOUS
 62
    3
 10
-122.3802641105915
 20
-125.40794514615436
 11
-272.3802641105915
 21
-125.40794514615436
  0
LINE
  8
_0-3_躯体と製品
  6
CONTINUOUS
 62
    2
 10
-288.3802641105915
 20
-71.407945146154589
 11
-244.8802641105915
 21
-71.407945146154589
  0
LINE
  8
_0-3_躯体と製品
  6
CONTINUOUS
 62
    7
 10
-288.3802641105915
 20
-69.10787114615448
 11
-274.25189811059136
 21
-69.10787114615448
  0
LINE
  8
_0-3_躯体と製品
  6
CONTINUOUS
 62
    2
 10
-295.3802641105915
 20
-62.407945146154589
 11
-295.3802641105915
 21
-84.407945146154589
  0
LINE
  8
_0-3_躯体と製品
  6
CONTINUOUS
 62
    2
 10
-290.3802641105915
 20
-68.907945146154589
 11
-290.3802641105915
 21
-84.407945146154589
  0
LINE
  8
_0-3_躯体と製品
  6
CONTINUOUS
 62
    2
 10
-288.3802641105915
 20
-74.407945146154475
 11
-288.3802641105915
 21
-82.407945146154589
  0
LINE
  8
_0-3_躯体と製品
  6
CONTINUOUS
 62
    2
 10
-295.3802641105915
 20
-84.407945146154589
 11
-297.3802641105915
 21
-84.407945146154589
  0
LINE
  8
_0-3_躯体と製品
  6
CONTINUOUS
 62
    2
 10
-295.3802641105915
 20
-84.407945146154589
 11
-297.3802641105915
 21
-84.407945146154589
  0
LINE
  8
_0-3_躯体と製品
  6
CONTINUOUS
 62
    2
 10
-280.3802641105915
 20
-99.407945146154475
 11
-292.3802641105915
 21
-99.407945146154475
  0
LINE
  8
_0-3_躯体と製品
  6
CONTINUOUS
 62
    2
 10
-290.3802641105915
 20
-84.407945146154589
 11
-280.3802641105915
 21
-84.407945146154589
  0
LINE
  8
_0-3_躯体と製品
  6
CONTINUOUS
 62
    2
 10
-280.3802641105915
 20
-99.407945146154475
 11
-280.3802641105915
 21
-84.407945146154589
  0
LINE
  8
_0-3_躯体と製品
  6
CONTINUOUS
 62
    2
 10
-278.3802641105915
 20
-99.407945146154475
 11
-280.3802641105915
 21
-99.407945146154475
  0
LINE
  8
_0-3_躯体と製品
  6
CONTINUOUS
 62
    2
 10
-278.3802641105915
 20
-82.407945146154589
 11
-278.3802641105915
 21
-99.407945146154475
  0
LINE
  8
_0-3_躯体と製品
  6
CONTINUOUS
 62
    2
 10
-288.3802641105915
 20
-82.407945146154589
 11
-278.3802641105915
 21
-82.407945146154589
  0
ARC
  8
_0-3_躯体と製品
  6
CONTINUOUS
 62
    5
 10
-328.55543311059137
 20
-86.961135146154334
 40
38.265940999999991
 50
342.060366999998
 51
3.8028980000011812
  0
LINE
  8
_0-3_躯体と製品
  6
CONTINUOUS
 62
    2
 10
-289.3802641105915
 20
-62.407945146154589
 11
-297.3802641105915
 21
-62.407945146154589
  0
LINE
  8
_0-3_躯体と製品
  6
CONTINUOUS
 62
    2
 10
-295.3802641105915
 20
-65.407945146154589
 11
-290.3802641105915
 21
-65.407945146154589
  0
LINE
  8
_0-3_躯体と製品
  6
PLINE3
 62
    2
 10
-284.3802641105915
 20
-60.407945146154589
 11
-304.3802641105915
 21
-60.407945146154589
  0
LINE
  8
_0-3_躯体と製品
  6
CONTINUOUS
 62
    2
 10
-297.3802641105915
 20
-58.407945146154589
 11
-289.3802641105915
 21
-58.407945146154589
  0
ARC
  8
_0-3_躯体と製品
  6
CONTINUOUS
 62
    2
 10
-294.3802641105915
 20
-60.407945146154589
 40
5
 50
126.86989800000062
 51
233.13010199999934
  0
LINE
  8
_0-3_躯体と製品
  6
CONTINUOUS
 62
    2
 10
-290.3802641105915
 20
-68.907945146154589
 11
-289.8802641105915
 21
-68.407945146154589
  0
LINE
  8
_0-3_躯体と製品
  6
CONTINUOUS
 62
    2
 10
-290.3802641105915
 20
-67.907945146154589
 11
-289.8802641105915
 21
-68.407945146154589
  0
LINE
  8
_0-3_躯体と製品
  6
CONTINUOUS
 62
    2
 10
-290.3802641105915
 20
-65.407945146154589
 11
-290.3802641105915
 21
-67.907945146154589
  0
LINE
  8
_0-3_躯体と製品
  6
CONTINUOUS
 62
    2
 10
-288.3802641105915
 20
-63.407945146154589
 11
-288.3802641105915
 21
-71.407945146154589
  0
LINE
  8
_0-3_躯体と製品
  6
CONTINUOUS
 62
    2
 10
-293.3802641105915
 20
-63.407945146154589
 11
-288.3802641105915
 21
-63.407945146154589
  0
LINE
  8
_0-3_躯体と製品
  6
CONTINUOUS
 62
    2
 10
-293.3802641105915
 20
-62.407945146154589
 11
-293.3802641105915
 21
-63.407945146154589
  0
LINE
  8
_0-3_躯体と製品
  6
CONTINUOUS
 62
    2
 10
-288.3802641105915
 20
-70.907945146154589
 11
-290.3802641105915
 21
-70.907945146154589
  0
LINE
  8
_0-3_躯体と製品
  6
CONTINUOUS
 62
    2
 10
-288.3802641105915
 20
-65.907945146154589
 11
-290.3802641105915
 21
-65.907945146154589
  0
LINE
  8
_0-3_躯体と製品
  6
CONTINUOUS
 62
    2
 10
-287.3802641105915
 20
-61.907945146154475
 11
-289.3802641105915
 21
-62.407945146154589
  0
LINE
  8
_0-3_躯体と製品
  6
CONTINUOUS
 62
    2
 10
-287.3802641105915
 20
-58.907945146154589
 11
-287.3802641105915
 21
-61.907945146154475
  0
LINE
  8
_0-3_躯体と製品
  6
CONTINUOUS
 62
    2
 10
-289.3802641105915
 20
-58.407945146154589
 11
-287.3802641105915
 21
-58.907945146154589
  0
LINE
  8
_0-3_躯体と製品
  6
CONTINUOUS
 62
    2
 10
-289.3802641105915
 20
-58.407945146154589
 11
-289.3802641105915
 21
-62.407945146154589
  0
LINE
  8
_0-3_躯体と製品
  6
CONTINUOUS
 62
    2
 10
-280.8802641105915
 20
-66.409140146154414
 11
-280.8802641105915
 21
-76.831645146154415
  0
LINE
  8
_0-3_躯体と製品
  6
CONTINUOUS
 62
    2
 10
-244.8802641105915
 20
-55.407945146154589
 11
-257.3802641105915
 21
-55.407945146154589
  0
LINE
  8
_0-3_躯体と製品
  6
CONTINUOUS
 62
    7
 10
-258.48341711059129
 20
-56.592081146154328
 11
-273.2992071105914
 21
-71.407871146154434
  0
LINE
  8
_0-3_躯体と製品
  6
CONTINUOUS
 62
    7
 10
-260.10976211059142
 20
-54.965736146154313
 11
-258.48341711059129
 21
-56.592081146154328
  0
LINE
  8
_0-3_躯体と製品
  6
CONTINUOUS
 62
    7
 10
-274.25189811059136
 20
-69.10787114615448
 11
-260.10976211059142
 21
-54.965736146154313
  0
LINE
  8
_0-3_躯体と製品
  6
PLINE3
 62
    2
 10
-274.38589811059137
 20
-57.858155146154445
 11
-263.61840611059142
 21
-68.625646146154509
  0
LINE
  8
_0-3_躯体と製品
  6
CONTINUOUS
 62
    7
 10
-271.16891211059146
 20
-66.024888146154467
 11
-271.87601911059141
 21
-66.731994146154307
  0
ARC
  8
_0-3_躯体と製品
  6
CONTINUOUS
 62
    7
 10
-271.52246611059149
 20
-65.67133414615455
 40
0.5
 50
315.00000000000006
 51
45.00000000000005
  0
LINE
  8
_0-3_躯体と製品
  6
CONTINUOUS
 62
    7
 10
-271.16891211059146
 20
-65.317781146154402
 11
-272.22957311059145
 21
-64.257121146154418
  0
ARC
  8
_0-3_躯体と製品
  6
CONTINUOUS
 62
    7
 10
-272.22957311059145
 20
-66.378441146154501
 40
0.5
 50
225
 51
315
  0
LINE
  8
_0-3_躯体と製品
  6
CONTINUOUS
 62
    7
 10
-272.58312611059137
 20
-66.731994146154307
 11
-275.41155311059129
 21
-63.903567146154501
  0
LINE
  8
_0-3_躯体と製品
  6
CONTINUOUS
 62
    7
 10
-275.41155311059129
 20
-63.19646114615432
 11
-272.58312611059137
 21
-60.368033146154403
  0
ARC
  8
_0-3_躯体と製品
  6
CONTINUOUS
 62
    7
 10
-275.05800011059137
 20
-63.550014146154467
 40
0.5
 50
135
 51
225
  0
LINE
  8
_0-3_躯体と製品
  6
CONTINUOUS
 62
    7
 10
-271.87601911059141
 20
-60.368033146154403
 11
-271.87601911059141
 21
-59.660927146154449
  0
LINE
  8
_0-3_躯体と製品
  6
CONTINUOUS
 62
    7
 10
-272.58312611059137
 20
-60.368033146154403
 11
-271.87601911059141
 21
-60.368033146154403
  0
LINE
  8
_0-3_躯体と製品
  6
CONTINUOUS
 62
    7
 10
-265.86561211059143
 20
-57.893160146154514
 11
-272.22957311059145
 21
-64.257121146154418
  0
LINE
  8
_0-3_躯体と製品
  6
CONTINUOUS
 62
    7
 10
-264.80495111059145
 20
-58.953820146154499
 11
-265.86561211059143
 21
-57.893160146154514
  0
ARC
  8
_0-3_躯体と製品
  6
CONTINUOUS
 62
    7
 10
-264.4513981105913
 20
-58.600266146154581
 40
0.5
 50
225
 51
315
  0
LINE
  8
_0-3_躯体と製品
  6
CONTINUOUS
 62
    7
 10
-263.39073811059143
 20
-58.24671314615432
 11
-264.09784511059138
 21
-58.953820146154499
  0
ARC
  8
_0-3_躯体と製品
  6
CONTINUOUS
 62
    7
 10
-263.74429111059135
 20
-57.893160146154514
 40
0.5
 50
315.00000000000006
 51
45.00000000000005
  0
LINE
  8
_0-3_躯体と製品
  6
CONTINUOUS
 62
    7
 10
-264.4513981105913
 20
-56.478946146154499
 11
-263.39073811059143
 21
-57.539606146154483
  0
LINE
  8
_0-3_躯体と製品
  6
CONTINUOUS
 62
    2
 10
-244.8802641105915
 20
-68.907945146154589
 11
-244.3802641105915
 21
-68.407945146154589
  0
LINE
  8
_0-3_躯体と製品
  6
CONTINUOUS
 62
    2
 10
-241.8802641105915
 20
-63.807945146154452
 11
-241.8802641105915
 21
-71.407945146154589
  0
LINE
  8
_0-3_躯体と製品
  6
CONTINUOUS
 62
    2
 10
-239.8802641105915
 20
-63.807945146154452
 11
-241.8802641105915
 21
-63.807945146154452
  0
LINE
  8
_0-3_躯体と製品
  6
CONTINUOUS
 62
    2
 10
-244.8802641105915
 20
-67.907945146154589
 11
-244.8802641105915
 21
-55.407945146154589
  0
LINE
  8
_0-3_躯体と製品
  6
CONTINUOUS
 62
    2
 10
-241.8802641105915
 20
-55.407945146154589
 11
-241.8802641105915
 21
-62.307945146154339
  0
LINE
  8
_0-3_躯体と製品
  6
CONTINUOUS
 62
    2
 10
-244.8802641105915
 20
-68.907945146154589
 11
-244.8802641105915
 21
-71.407945146154589
  0
LINE
  8
_0-3_躯体と製品
  6
CONTINUOUS
 62
    2
 10
-239.8802641105915
 20
-62.307945146154339
 11
-239.8802641105915
 21
-63.807945146154452
  0
LINE
  8
_0-3_躯体と製品
  6
CONTINUOUS
 62
    2
 10
-241.8802641105915
 20
-62.307945146154339
 11
-239.8802641105915
 21
-62.307945146154339
  0
LINE
  8
_0-3_躯体と製品
  6
CONTINUOUS
 62
    2
 10
-241.8802641105915
 20
-70.907945146154589
 11
-244.8802641105915
 21
-70.907945146154589
  0
LINE
  8
_0-3_躯体と製品
  6
CONTINUOUS
 62
    2
 10
-241.8802641105915
 20
-65.907945146154589
 11
-244.8802641105915
 21
-65.907945146154589
  0
LINE
  8
_0-3_躯体と製品
  6
CONTINUOUS
 62
    2
 10
-244.8802641105915
 20
-67.907945146154589
 11
-244.3802641105915
 21
-68.407945146154589
  0
LINE
  8
_0-3_躯体と製品
  6
CONTINUOUS
 62
    2
 10
-225.8802641105915
 20
-55.407945146154589
 11
-159.3802641105915
 21
-55.407945146154589
  0
LINE
  8
_0-3_躯体と製品
  6
CONTINUOUS
 62
    2
 10
-147.3802641105915
 20
-59.407945146154589
 11
-161.3802641105915
 21
-59.407945146154589
  0
LINE
  8
_0-3_躯体と製品
  6
CONTINUOUS
 62
    2
 10
-159.3802641105915
 20
-57.407945146154589
 11
-161.3802641105915
 21
-57.407945146154589
  0
LINE
  8
_0-3_躯体と製品
  6
CONTINUOUS
 62
    7
 10
-209.3802641105915
 20
-77.407945146154589
 11
-209.3802641105915
 21
-119.40794514615447
  0
LINE
  8
_0-3_躯体と製品
  6
CONTINUOUS
 62
    7
 10
-213.3802641105915
 20
-125.40794514615436
 11
-213.3802641105915
 21
-75.407945146154589
  0
LINE
  8
_0-3_躯体と製品
  6
CONTINUOUS
 62
    7
 10
-207.3802641105915
 20
-121.40794514615436
 11
-165.3802641105915
 21
-121.40794514615436
  0
ARC
  8
_0-3_躯体と製品
  6
CONTINUOUS
 62
    7
 10
-207.3802641105915
 20
-119.40794514615447
 40
2
 50
180
 51
270
  0
LINE
  8
_0-3_躯体と製品
  6
CONTINUOUS
 62
    7
 10
-188.3802641105915
 20
-116.33084514615439
 11
-188.3802641105915
 21
-137.41313614615444
  0
LINE
  8
_0-3_躯体と製品
  6
CONTINUOUS
 62
    7
 10
-163.3802641105915
 20
-123.40794514615447
 11
-163.3802641105915
 21
-125.40794514615436
  0
ARC
  8
_0-3_躯体と製品
  6
CONTINUOUS
 62
    7
 10
-165.3802641105915
 20
-123.40794514615447
 40
2
 50
0
 51
90
  0
LINE
  8
_0-3_躯体と製品
  6
CONTINUOUS
 62
    2
 10
-200.38026611059149
 20
-61.407945146154589
 11
-184.58026411059132
 21
-61.407945146154589
  0
LINE
  8
_0-3_躯体と製品
  6
CONTINUOUS
 62
    2
 10
-199.12873911059137
 20
-66.907945146154589
 11
-192.38026611059149
 21
-66.907945146154589
  0
LINE
  8
_0-3_躯体と製品
  6
CONTINUOUS
 62
    7
 10
-170.3802641105915
 20
-59.407945146154589
 11
-210.3802641105915
 21
-59.407945146154589
  0
LINE
  8
_0-3_躯体と製品
  6
CONTINUOUS
 62
    7
 10
-217.3802641105915
 20
-105.40794514615447
 11
-217.3802641105915
 21
-55.407945146154589
  0
LINE
  8
_0-3_躯体と製品
  6
CONTINUOUS
 62
    7
 10
-213.3802641105915
 20
-62.407945146154589
 11
-213.3802641105915
 21
-102.40794514615447
  0
LINE
  8
_0-3_躯体と製品
  6
CONTINUOUS
 62
    7
 10
-217.3802641105915
 20
-105.40794514615447
 11
-216.3802641105915
 21
-105.40794514615447
  0
ARC
  8
_0-3_躯体と製品
  6
CONTINUOUS
 62
    7
 10
-216.3802641105915
 20
-102.40794514615447
 40
3
 50
270
 51
0
  0
LINE
  8
_0-3_躯体と製品
  6
CONTINUOUS
 62
    2
 10
-228.8802641105915
 20
-63.807945146154452
 11
-228.8802641105915
 21
-71.407945146154589
  0
LINE
  8
_0-3_躯体と製品
  6
CONTINUOUS
 62
    2
 10
-230.8802641105915
 20
-63.807945146154452
 11
-228.8802641105915
 21
-63.807945146154452
  0
LINE
  8
_0-3_躯体と製品
  6
CONTINUOUS
 62
    2
 10
-225.8802641105915
 20
-74.407945146154475
 11
-225.8802641105915
 21
-55.407945146154589
  0
LINE
  8
_0-3_躯体と製品
  6
CONTINUOUS
 62
    2
 10
-228.8802641105915
 20
-55.407945146154589
 11
-228.8802641105915
 21
-62.307945146154339
  0
LINE
  8
_0-3_躯体と製品
  6
CONTINUOUS
 62
    2
 10
-230.8802641105915
 20
-62.307945146154339
 11
-230.8802641105915
 21
-63.807945146154452
  0
LINE
  8
_0-3_躯体と製品
  6
CONTINUOUS
 62
    2
 10
-228.8802641105915
 20
-62.307945146154339
 11
-230.8802641105915
 21
-62.307945146154339
  0
ARC
  8
_0-3_躯体と製品
  6
CONTINUOUS
 62
    2
 10
-232.1302641105915
 20
-52.869454146154453
 40
8.0384910000000005
 50
246.15243399999753
 51
293.8475660000023
  0
ARC
  8
_0-3_躯体と製品
  6
CONTINUOUS
 62
    7
 10
-211.3802641105915
 20
-77.407945146154589
 40
2
 50
0
 51
90
  0
LINE
  8
_0-3_躯体と製品
  6
CONTINUOUS
 62
    7
 10
-213.3802641105915
 20
-75.407945146154589
 11
-211.3802641105915
 21
-75.407945146154589
  0
LINE
  8
_0-3_躯体と製品
  6
CONTINUOUS
 62
    2
 10
-200.38026611059149
 20
-66.185375146154342
 11
-199.12873911059137
 21
-66.907945146154589
  0
LINE
  8
_0-3_躯体と製品
  6
CONTINUOUS
 62
    2
 10
-200.38026611059149
 20
-61.407945146154589
 11
-200.38026611059149
 21
-66.185375146154342
  0
ARC
  8
_0-3_躯体と製品
  6
CONTINUOUS
 62
    7
 10
-210.3802641105915
 20
-62.407945146154589
 40
3
 50
90
 51
180
  0
LINE
  8
_0-3_躯体と製品
  6
CONTINUOUS
 62
    2
 10
-200.18026411059145
 20
-59.407945146154589
 11
-200.18026411059145
 21
-61.407945146154589
  0
LINE
  8
_0-3_躯体と製品
  6
CONTINUOUS
 62
    2
 10
-196.38026611059149
 20
-61.407945146154589
 11
-196.38026611059149
 21
-66.221653146154495
  0
ARC
  8
_0-3_躯体と製品
  6
CONTINUOUS
 62
    2
 10
-198.30993411059148
 20
-63.851945146154549
 40
3.056
 50
270
 51
309.1561320000028
  0
ARC
  8
_0-3_躯体と製品
  6
CONTINUOUS
 62
    2
 10
-192.38026611059149
 20
-54.907945146154589
 40
12
 50
250.52877899999808
 51
270
  0
ARC
  8
_0-3_躯体と製品
  6
CONTINUOUS
 62
    2
 10
-186.45059911059138
 20
-63.851945146154549
 40
3.056
 50
230.84386799999723
 51
270
  0
ARC
  8
_0-3_躯体と製品
  6
CONTINUOUS
 62
    2
 10
-192.38026611059149
 20
-54.907945146154589
 40
12
 50
270
 51
289.47122100000178
  0
LINE
  8
_0-3_躯体と製品
  6
CONTINUOUS
 62
    2
 10
-188.38026611059149
 20
-61.407945146154589
 11
-188.38026611059149
 21
-66.221653146154495
  0
LINE
  8
_0-3_躯体と製品
  6
CONTINUOUS
 62
    2
 10
-185.6317941105915
 20
-66.907945146154589
 11
-192.38026611059149
 21
-66.907945146154589
  0
LINE
  8
_0-3_躯体と製品
  6
CONTINUOUS
 62
    2
 10
-184.38026711059138
 20
-66.185375146154342
 11
-185.6317941105915
 21
-66.907945146154589
  0
LINE
  8
_0-3_躯体と製品
  6
CONTINUOUS
 62
    2
 10
-184.38026711059138
 20
-61.407945146154589
 11
-184.38026711059138
 21
-66.185375146154342
  0
LINE
  8
_0-3_躯体と製品
  6
CONTINUOUS
 62
    2
 10
-196.38026611059149
 20
-66.907945146154589
 11
-196.38026611059149
 21
-67.807945146154452
  0
LINE
  8
_0-3_躯体と製品
  6
CONTINUOUS
 62
    2
 10
-196.38026611059149
 20
-67.807945146154452
 11
-195.38026611059149
 21
-68.807945146154452
  0
LINE
  8
_0-3_躯体と製品
  6
CONTINUOUS
 62
    2
 10
-195.38026611059149
 20
-68.807945146154452
 11
-189.38026611059149
 21
-68.807945146154452
  0
LINE
  8
_0-3_躯体と製品
  6
CONTINUOUS
 62
    2
 10
-188.38026611059149
 20
-66.907945146154589
 11
-188.38026611059149
 21
-67.807945146154452
  0
LINE
  8
_0-3_躯体と製品
  6
CONTINUOUS
 62
    2
 10
-188.38026611059149
 20
-67.807945146154452
 11
-189.38026611059149
 21
-68.807945146154452
  0
LINE
  8
_0-3_躯体と製品
  6
CONTINUOUS
 62
    2
 10
-196.38026611059149
 20
-67.807945146154452
 11
-188.38026611059149
 21
-67.807945146154452
  0
LINE
  8
_0-3_躯体と製品
  6
CONTINUOUS
 62
    2
 10
-195.38026611059149
 20
-66.907945146154589
 11
-195.38026611059149
 21
-68.807945146154452
  0
LINE
  8
_0-3_躯体と製品
  6
CONTINUOUS
 62
    2
 10
-189.38026611059149
 20
-66.907945146154589
 11
-189.38026611059149
 21
-68.807945146154452
  0
LINE
  8
_0-3_躯体と製品
  6
CONTINUOUS
 62
    2
 10
-184.58026411059132
 20
-59.407945146154589
 11
-184.58026411059132
 21
-61.407945146154589
  0
LINE
  8
_0-3_躯体と製品
  6
CONTINUOUS
 62
    2
 10
-192.3802641105915
 20
-59.407945146154589
 11
-194.3802641105915
 21
-61.407945146154589
  0
LINE
  8
_0-3_躯体と製品
  6
CONTINUOUS
 62
    2
 10
-190.3802641105915
 20
-59.407945146154589
 11
-192.3802641105915
 21
-61.407945146154589
  0
LINE
  8
_0-3_躯体と製品
  6
CONTINUOUS
 62
    7
 10
-167.3802641105915
 20
-56.407945146154589
 11
-167.3802641105915
 21
-55.407945146154589
  0
ARC
  8
_0-3_躯体と製品
  6
CONTINUOUS
 62
    7
 10
-170.3802641105915
 20
-56.407945146154589
 40
3
 50
270
 51
0
  0
ARC
  8
_0-3_躯体と製品
  6
CONTINUOUS
 62
    2
 10
-161.3802641105915
 20
-58.407945146154589
 40
1
 50
90
 51
270
  0
LINE
  8
_0-3_躯体と製品
  6
CONTINUOUS
 62
    2
 10
-147.3802641105915
 20
-59.407945146154589
 11
-122.3802641105915
 21
-59.407945146154589
  0
LINE
  8
_0-3_躯体と製品
  6
CONTINUOUS
 62
    2
 10
-159.3802641105915
 20
-55.407945146154589
 11
-159.3802641105915
 21
-57.407945146154589
  0
LINE
  8
_0-3_躯体と製品
  6
CONTINUOUS
 62
    2
 10
-157.3802641105915
 20
-57.407945146154589
 11
-147.3802641105915
 21
-57.407945146154589
  0
LINE
  8
_0-3_躯体と製品
  6
CONTINUOUS
 62
    2
 10
-147.3802641105915
 20
-57.407945146154589
 11
-147.3802641105915
 21
-59.407945146154589
  0
LINE
  8
_0-3_躯体と製品
  6
CONTINUOUS
 62
    2
 10
-174.79515711059139
 20
96.81690585384564
 11
-247.48083511059144
 21
24.131226853845533
  0
ARC
  8
_0-3_躯体と製品
  6
CONTINUOUS
 62
    2
 10
-235.3802641105915
 20
-52.307945146154452
 40
12
 50
90
 51
109.47122100000171
  0
LINE
  8
_0-3_躯体と製品
  6
CONTINUOUS
 62
    2
 10
-227.3802641105915
 20
-45.807945146154339
 11
-243.3802641105915
 21
-45.807945146154339
  0
LINE
  8
_0-3_躯体と製品
  6
CONTINUOUS
 62
    2
 10
-232.3802641105915
 20
-36.407945146154532
 11
-238.3802641105915
 21
-36.407945146154532
  0
LINE
  8
_0-3_躯体と製品
  6
CONTINUOUS
 62
    2
 10
-235.3802641105915
 20
-45.807945146154339
 11
-237.3802641105915
 21
-47.807945146154452
  0
LINE
  8
_0-3_躯体と製品
  6
CONTINUOUS
 62
    2
 10
-228.63179111059139
 20
-40.307945146154452
 11
-242.12873611059149
 21
-40.307945146154452
  0
LINE
  8
_0-3_躯体と製品
  6
CONTINUOUS
 62
    2
 10
-159.3802641105915
 20
-52.407945146154589
 11
-255.3802641105915
 21
-52.407945146154589
  0
LINE
  8
_0-3_躯体と製品
  6
CONTINUOUS
 62
    2
 10
-226.8802641105915
 20
-47.807945146154452
 11
-243.8802641105915
 21
-47.807945146154452
  0
LINE
  8
_0-3_躯体と製品
  6
CONTINUOUS
 62
    2
 10
-255.3802641105915
 20
-49.407945146154475
 11
-205.05436211059146
 21
-49.407945146154475
  0
LINE
  8
_0-3_躯体と製品
  6
CONTINUOUS
 62
    7
 10
-217.71164011059136
 20
-9.0320811461543826
 11
-244.72311911059137
 21
-36.043560146154334
  0
LINE
  8
_0-3_躯体と製品
  6
CONTINUOUS
 62
    7
 10
-233.69225311059131
 20
10.342644853845513
 11
-244.29885511059138
 21
20.949245853845468
  0
LINE
  8
_0-3_躯体と製品
  6
CONTINUOUS
 62
    7
 10
-244.29885511059138
 20
18.120818853845549
 11
-235.46002011059136
 21
9.281984853845529
  0
LINE
  8
_0-3_躯体と製品
  6
CONTINUOUS
 62
    7
 10
-235.46002011059136
 20
7.8677708538456272
 11
-261.83510311059149
 21
-18.507312146154447
  0
LINE
  8
_0-3_躯体と製品
  6
CONTINUOUS
 62
    7
 10
-259.50165111059141
 20
-19.002287146154458
 11
-234.75291311059141
 21
5.7464508538455448
  0
LINE
  8
_0-3_躯体と製品
  6
CONTINUOUS
 62
    7
 10
-245.35951511059147
 20
-33.144422146154341
 11
-220.61077811059135
 21
-8.3956851461543351
  0
LINE
  8
_0-3_躯体と製品
  6
CONTINUOUS
 62
    7
 10
-277.88642711059128
 20
54.536818853845659
 11
-281.42196111059138
 21
51.001284853845618
  0
LINE
  8
_0-3_躯体と製品
  6
CONTINUOUS
 62
    7
 10
-297.33186311059148
 20
37.919808853845666
 11
-279.3006401105913
 21
55.951031853845564
  0
LINE
  8
_0-3_躯体と製品
  6
CONTINUOUS
 62
    7
 10
-298.74607711059139
 20
-12.284772146154467
 11
-321.01994111059139
 21
9.9890908538455392
  0
LINE
  8
_0-3_躯体と製品
  6
CONTINUOUS
 62
    7
 10
-306.87780511059145
 20
25.545439853845551
 11
-318.89862011059131
 21
13.524624853845467
  0
LINE
  8
_0-3_躯体と製品
  6
CONTINUOUS
 62
    7
 10
-318.89862011059131
 20
10.696197853845661
 11
-301.80673711059148
 21
-6.3956851461543351
  0
LINE
  8
_0-3_躯体と製品
  6
CONTINUOUS
 62
    7
 10
-306.52425211059131
 20
28.727420853845558
 11
-321.01994111059139
 21
14.231731853845645
  0
LINE
  8
_0-3_躯体と製品
  6
CONTINUOUS
 62
    7
 10
-317.48440711059129
 20
12.110411853845619
 11
-318.89862011059131
 21
13.524624853845467
  0
LINE
  8
_0-3_躯体と製品
  6
CONTINUOUS
 62
    7
 10
-317.48440711059129
 20
12.110411853845619
 11
-318.89862011059131
 21
10.696197853845661
  0
LINE
  8
_0-3_躯体と製品
  6
CONTINUOUS
 62
    7
 10
-321.01994111059139
 20
14.231731853845645
 11
-321.01994111059139
 21
9.9890908538455392
  0
LINE
  8
_0-3_躯体と製品
  6
CONTINUOUS
 62
    7
 10
-269.04759211059149
 20
-0.2639571461543823
 11
-269.75469911059145
 21
-0.9710641461544469
  0
LINE
  8
_0-3_躯体と製品
  6
CONTINUOUS
 62
    7
 10
-270.4618061105914
 20
-0.9710641461544469
 11
-271.52246611059149
 21
0.0895958538455374
  0
LINE
  8
_0-3_躯体と製品
  6
CONTINUOUS
 62
    7
 10
-271.52246611059149
 20
0.0895958538455374
 11
-277.88642711059128
 21
-6.2743651461543664
  0
LINE
  8
_0-3_躯体と製品
  6
CONTINUOUS
 62
    7
 10
-281.42196111059138
 20
-2.738831146154439
 11
-286.01815511059135
 21
1.8573628538455296
  0
LINE
  8
_0-3_躯体と製品
  6
CONTINUOUS
 62
    7
 10
-260.27946811059132
 20
4.9686328538456337
 11
-254.9761671105914
 21
-0.3346681461543425
  0
LINE
  8
_0-3_躯体と製品
  6
CONTINUOUS
 62
    7
 10
-260.77444311059139
 20
3.0594448538455481
 11
-257.23890911059129
 21
-0.476089146154436
  0
LINE
  8
_0-3_躯体と製品
  6
CONTINUOUS
 62
    7
 10
-276.47221311059138
 20
-2.0317241461544313
 11
-251.72347611059149
 21
22.717012853845517
  0
LINE
  8
_0-3_躯体と製品
  6
CONTINUOUS
 62
    7
 10
-290.61434911059132
 20
12.110411853845619
 11
-276.47221311059138
 21
-2.0317241461544313
  0
LINE
  8
_0-3_躯体と製品
  6
CONTINUOUS
 62
    2
 10
-272.3802641105915
 20
-36.407945146154532
 11
-276.3802641105915
 21
-36.407945146154532
  0
LINE
  8
_0-3_躯体と製品
  6
CONTINUOUS
 62
    2
 10
-272.3802641105915
 20
-38.407945146154475
 11
-276.3802641105915
 21
-38.407945146154475
  0
LINE
  8
_0-3_躯体と製品
  6
PLINE3
 62
    2
 10
-274.3802641105915
 20
-44.407945146154532
 11
-286.3802641105915
 21
-44.407945146154532
  0
LINE
  8
_0-3_躯体と製品
  6
CONTINUOUS
 62
    5
 10
-275.97723911059143
 20
-5.7793901461544692
 11
-273.85591811059135
 21
-7.900710146154438
  0
ARC
  8
_0-3_躯体と製品
  6
CONTINUOUS
 62
    5
 10
-287.44973011059142
 20
-8.5050661461544337
 40
30.041373
 50
291.68234400000154
 51
330.98208000000022
  0
ARC
  8
_0-3_躯体と製品
  6
CONTINUOUS
 62
    7
 10
-284.2503881105913
 20
-23.95203414615446
 40
2
 50
135
 51
315
  0
LINE
  8
_0-3_躯体と製品
  6
CONTINUOUS
 62
    2
 10
-276.3802641105915
 20
-36.407945146154532
 11
-297.3802641105915
 21
-47.407945146154589
  0
LINE
  8
_0-3_躯体と製品
  6
CONTINUOUS
 62
    2
 10
-295.3802641105915
 20
-49.407945146154475
 11
-292.8802641105915
 21
-49.407945146154475
  0
ARC
  8
_0-3_躯体と製品
  6
CONTINUOUS
 62
    2
 10
-294.3802641105915
 20
-50.407945146154589
 40
1
 50
0
 51
180
  0
ARC
  8
_0-3_躯体と製品
  6
CONTINUOUS
 62
    2
 10
-294.3802641105915
 20
-50.407945146154589
 40
1
 50
0
 51
180
  0
LINE
  8
_0-3_躯体と製品
  6
CONTINUOUS
 62
    2
 10
-277.81852611059139
 20
-46.407945146154589
 11
-276.3802641105915
 21
-46.407945146154589
  0
LINE
  8
_0-3_躯体と製品
  6
CONTINUOUS
 62
    2
 10
-276.3802641105915
 20
-46.407945146154589
 11
-276.3802641105915
 21
-49.407945146154475
  0
LINE
  8
_0-3_躯体と製品
  6
CONTINUOUS
 62
    2
 10
-290.8802641105915
 20
-46.26094914615453
 11
-286.81332411059134
 21
-44.130647146154331
  0
LINE
  8
_0-3_躯体と製品
  6
CONTINUOUS
 62
    2
 10
-290.8802641105915
 20
-46.26094914615453
 11
-290.8802641105915
 21
-52.407945146154589
  0
LINE
  8
_0-3_躯体と製品
  6
CONTINUOUS
 62
    2
 10
-292.8802641105915
 20
-49.407945146154475
 11
-292.8802641105915
 21
-52.407945146154589
  0
LINE
  8
_0-3_躯体と製品
  6
CONTINUOUS
 62
    2
 10
-280.3802641105915
 20
-49.407945146154475
 11
-276.3802641105915
 21
-49.407945146154475
  0
ARC
  8
_0-3_躯体と製品
  6
CONTINUOUS
 62
    2
 10
-280.38167811059134
 20
-44.407945146154532
 40
4.9985860000000004
 50
185.82245100000219
 51
270.01620999999773
  0
ARC
  8
_0-3_躯体と製品
  6
CONTINUOUS
 62
    2
 10
-286.3493171105913
 20
-45.016478146154441
 40
1
 50
5.8224539999999712
 51
117.6459749999995
  0
LINE
  8
_0-3_躯体と製品
  6
PLINE3
 62
    2
 10
-280.3802641105915
 20
-38.407945146154475
 11
-280.3802641105915
 21
-50.407945146154589
  0
ARC
  8
_0-3_躯体と製品
  6
CONTINUOUS
 62
    2
 10
-280.3802641105915
 20
-44.407945146154532
 40
3.25
 50
37.979872000002288
 51
322.02012799999761
  0
LINE
  8
_0-3_躯体と製品
  6
CONTINUOUS
 62
    2
 10
-276.3802641105915
 20
-38.407945146154475
 11
-276.3802641105915
 21
-42.407945146154475
  0
LINE
  8
_0-3_躯体と製品
  6
CONTINUOUS
 62
    2
 10
-276.3802641105915
 20
-42.407945146154475
 11
-277.81852611059139
 21
-42.407945146154475
  0
LINE
  8
_0-3_躯体と製品
  6
CONTINUOUS
 62
    7
 10
-297.39252411059147
 20
-8.3956851461543351
 11
-294.14988311059142
 21
-8.3956851461543351
  0
LINE
  8
_0-3_躯体と製品
  6
CONTINUOUS
 62
    7
 10
-301.80673711059148
 20
-6.3956851461543351
 11
-293.3214561105915
 21
-6.3956851461543351
  0
ARC
  8
_0-3_躯体と製品
  6
CONTINUOUS
 62
    7
 10
-298.39252411059147
 20
-11.931219146154376
 40
0.5
 50
225
 51
315
  0
LINE
  8
_0-3_躯体と製品
  6
CONTINUOUS
 62
    7
 10
-298.03897011059144
 20
-12.284772146154467
 11
-296.97831011059134
 21
-11.224112146154482
  0
LINE
  8
_0-3_躯体と製品
  6
CONTINUOUS
 62
    7
 10
-298.09963011059131
 20
-10.102792146154343
 11
-296.97831011059134
 21
-11.224112146154482
  0
ARC
  8
_0-3_躯体と製品
  6
CONTINUOUS
 62
    7
 10
-297.39252411059147
 20
-9.3956851461543351
 40
1
 50
90
 51
225
  0
LINE
  8
_0-3_躯体と製品
  6
CONTINUOUS
 62
    7
 10
-289.55368911059145
 20
-13.698986146154368
 11
-287.7859221105914
 21
-11.931219146154376
  0
ARC
  8
_0-3_躯体と製品
  6
CONTINUOUS
 62
    7
 10
-288.49302911059135
 20
-14.759646146154353
 40
1.5
 50
135
 51
225
  0
LINE
  8
_0-3_躯体と製品
  6
CONTINUOUS
 62
    7
 10
-289.55368911059145
 20
-15.820306146154337
 11
-282.8361741105914
 21
-22.537821146154442
  0
LINE
  8
_0-3_躯体と製品
  6
CONTINUOUS
 62
    7
 10
-282.8361741105914
 20
-22.537821146154442
 11
-282.8361741105914
 21
-25.366248146154476
  0
LINE
  8
_0-3_躯体と製品
  6
CONTINUOUS
 62
    7
 10
-292.02856211059134
 20
-16.173860146154368
 11
-285.66460111059132
 21
-22.537821146154442
  0
LINE
  8
_0-3_躯体と製品
  6
CONTINUOUS
 62
    7
 10
-293.3214561105915
 20
-6.3956851461543351
 11
-291.3214561105915
 21
-8.3956851461543351
  0
LINE
  8
_0-3_躯体と製品
  6
CONTINUOUS
 62
    7
 10
-294.14988311059142
 20
-8.3956851461543351
 11
-292.02856211059134
 21
-10.517005146154361
  0
LINE
  8
_0-3_躯体と製品
  6
CONTINUOUS
 62
    7
 10
-292.02856211059134
 20
-16.173860146154368
 11
-292.02856211059134
 21
-10.517005146154361
  0
LINE
  8
_0-3_躯体と製品
  6
CONTINUOUS
 62
    7
 10
-290.96790211059147
 20
-8.7492381461544824
 11
-292.73566911059129
 21
-6.9814711461544334
  0
LINE
  8
_0-3_躯体と製品
  6
CONTINUOUS
 62
    7
 10
-289.55368911059145
 20
-10.163452146154441
 11
-287.7859221105914
 21
-11.931219146154376
  0
LINE
  8
_0-3_躯体と製品
  6
CONTINUOUS
 62
    7
 10
-281.7755141105913
 20
-2.3852771461543512
 11
-289.55368911059145
 21
-10.163452146154441
  0
LINE
  8
_0-3_躯体と製品
  6
CONTINUOUS
 62
    7
 10
-283.18972811059143
 20
-0.9710641461544469
 11
-281.7755141105913
 21
-2.3852771461543512
  0
LINE
  8
_0-3_躯体と製品
  6
CONTINUOUS
 62
    7
 10
-290.96790211059147
 20
-8.7492381461544824
 11
-283.18972811059143
 21
-0.9710641461544469
  0
LINE
  8
_0-3_躯体と製品
  6
CONTINUOUS
 62
    7
 10
-284.2503881105913
 20
-7.6885781461544411
 11
-283.54328111059135
 21
-7.6885781461544411
  0
LINE
  8
_0-3_躯体と製品
  6
CONTINUOUS
 62
    7
 10
-284.2503881105913
 20
-8.3956851461543351
 11
-284.2503881105913
 21
-7.6885781461544411
  0
LINE
  8
_0-3_躯体と製品
  6
CONTINUOUS
 62
    7
 10
-283.54328111059135
 20
-7.6885781461544411
 11
-280.00774711059148
 21
-4.1530441461543433
  0
LINE
  8
_0-3_躯体と製品
  6
CONTINUOUS
 62
    7
 10
-287.43236811059137
 20
-11.577666146154456
 11
-284.2503881105913
 21
-8.3956851461543351
  0
LINE
  8
_0-3_躯体と製品
  6
CONTINUOUS
 62
    7
 10
-288.8465821105915
 20
-10.163452146154441
 11
-287.43236811059137
 21
-11.577666146154456
  0
LINE
  8
_0-3_躯体と製品
  6
CONTINUOUS
 62
    7
 10
-277.88642711059128
 20
-6.2743651461543664
 11
-280.00774711059148
 21
-4.1530441461543433
  0
LINE
  8
_0-3_躯体と製品
  6
CONTINUOUS
 62
    7
 10
-288.8465821105915
 20
-10.163452146154441
 11
-281.42196111059138
 21
-2.738831146154439
  0
ARC
  8
_0-3_躯体と製品
  6
CONTINUOUS
 62
    5
 10
-275.27013211059148
 20
-5.0722831461544615
 40
1
 50
135
 51
225
  0
LINE
  8
_0-3_躯体と製品
  6
PLINE3
 62
    2
 10
-288.37358411059131
 20
-3.5653831461545451
 11
-282.47808211059146
 21
-9.4608841461544557
  0
LINE
  8
_0-3_躯体と製品
  6
CONTINUOUS
 62
    7
 10
-255.61256311059128
 20
-28.548228146154486
 11
-259.14809711059138
 21
-25.012694146154445
  0
LINE
  8
_0-3_躯体と製品
  6
CONTINUOUS
 62
    7
 10
-259.50165111059141
 20
-19.002287146154458
 11
-245.35951511059147
 21
-33.144422146154341
  0
LINE
  8
_0-3_躯体と製品
  6
CONTINUOUS
 62
    2
 10
-257.3802641105915
 20
-49.407945146154475
 11
-255.3802641105915
 21
-49.407945146154475
  0
LINE
  8
_0-3_躯体と製品
  6
CONTINUOUS
 62
    7
 10
-264.09784511059138
 20
-51.882752146154303
 11
-248.54149511059131
 21
-36.326403146154462
  0
LINE
  8
_0-3_躯体と製品
  6
CONTINUOUS
 62
    2
 10
-272.3802641105915
 20
-36.407945146154532
 11
-272.3802641105915
 21
-38.407945146154475
  0
LINE
  8
_0-3_躯体と製品
  6
CONTINUOUS
 62
    7
 10
-264.09784511059138
 20
-52.589859146154481
 11
-264.09784511059138
 21
-51.882752146154303
  0
LINE
  8
_0-3_躯体と製品
  6
CONTINUOUS
 62
    7
 10
-264.80495111059145
 20
-52.589859146154481
 11
-264.09784511059138
 21
-52.589859146154481
  0
LINE
  8
_0-3_躯体と製品
  6
CONTINUOUS
 62
    2
 10
-239.3802641105915
 20
-45.807945146154339
 11
-239.3802641105915
 21
-40.994236146154378
  0
ARC
  8
_0-3_躯体と製品
  6
CONTINUOUS
 62
    2
 10
-241.30993111059138
 20
-43.363945146154435
 40
3.056
 50
50.843867999997215
 51
90
  0
LINE
  8
_0-3_躯体と製品
  6
CONTINUOUS
 62
    2
 10
-243.3802641105915
 20
-45.807945146154339
 11
-243.3802641105915
 21
-41.030515146154357
  0
LINE
  8
_0-3_躯体と製品
  6
CONTINUOUS
 62
    2
 10
-243.18026411059145
 20
-45.807945146154339
 11
-243.18026411059145
 21
-47.807945146154452
  0
LINE
  8
_0-3_躯体と製品
  6
CONTINUOUS
 62
    2
 10
-239.3802641105915
 20
-37.407945146154475
 11
-239.3802641105915
 21
-40.307945146154452
  0
LINE
  8
_0-3_躯体と製品
  6
CONTINUOUS
 62
    2
 10
-238.3802641105915
 20
-36.407945146154532
 11
-239.3802641105915
 21
-37.407945146154475
  0
LINE
  8
_0-3_躯体と製品
  6
CONTINUOUS
 62
    2
 10
-255.3802641105915
 20
-49.407945146154475
 11
-255.3802641105915
 21
-52.407945146154589
  0
LINE
  8
_0-3_躯体と製品
  6
CONTINUOUS
 62
    2
 10
-242.12873611059149
 20
-40.307945146154452
 11
-243.3802641105915
 21
-41.030515146154357
  0
LINE
  8
_0-3_躯体と製品
  6
CONTINUOUS
 62
    7
 10
-248.33863311059145
 20
-49.407945146154475
 11
-248.33863311059145
 21
-52.407945146154589
  0
LINE
  8
_0-3_躯体と製品
  6
CONTINUOUS
 62
    7
 10
-243.33863311059145
 20
-49.407945146154475
 11
-243.33863311059145
 21
-52.407945146154589
  0
LINE
  8
_0-3_躯体と製品
  6
CONTINUOUS
 62
    2
 10
-243.8802641105915
 20
-47.807945146154452
 11
-243.8802641105915
 21
-49.407945146154475
  0
ARC
  8
_0-3_躯体と製品
  6
CONTINUOUS
 62
    7
 10
-244.44027611059141
 20
-36.326403146154462
 40
0.4
 50
135
 51
225
  0
LINE
  8
_0-3_躯体と製品
  6
CONTINUOUS
 62
    7
 10
-244.72311911059137
 20
-36.609246146154362
 11
-244.6524081105913
 21
-36.679956146154382
  0
ARC
  8
_0-3_躯体と製品
  6
CONTINUOUS
 62
    7
 10
-248.89504911059134
 20
-35.972849146154431
 40
0.5
 50
315.00000000000006
 51
45.00000000000005
  0
LINE
  8
_0-3_躯体と製品
  6
CONTINUOUS
 62
    7
 10
-248.54149511059131
 20
-35.619296146154454
 11
-254.90545611059133
 21
-29.25533514615438
  0
LINE
  8
_0-3_躯体と製品
  6
CONTINUOUS
 62
    7
 10
-254.90545611059133
 20
-28.548228146154486
 11
-254.90545611059133
 21
-29.25533514615438
  0
LINE
  8
_0-3_躯体と製品
  6
CONTINUOUS
 62
    7
 10
-255.61256311059128
 20
-28.548228146154486
 11
-254.90545611059133
 21
-28.548228146154486
  0
LINE
  8
_0-3_躯体と製品
  6
CONTINUOUS
 62
    7
 10
-254.9761671105914
 20
-1.7488811461543605
 11
-266.78485011059138
 21
-13.557565146154332
  0
ARC
  8
_0-3_躯体と製品
  6
CONTINUOUS
 62
    7
 10
-270.10825211059137
 20
-0.6175101461544727
 40
0.5
 50
225
 51
315
  0
LINE
  8
_0-3_躯体と製品
  6
CONTINUOUS
 62
    7
 10
-259.14809711059138
 20
-24.305588146154435
 11
-259.14809711059138
 21
-25.012694146154445
  0
LINE
  8
_0-3_躯体と製品
  6
CONTINUOUS
 62
    7
 10
-259.85520411059133
 20
-24.305588146154435
 11
-259.14809711059138
 21
-24.305588146154435
  0
LINE
  8
_0-3_躯体と製品
  6
CONTINUOUS
 62
    7
 10
-259.85520411059133
 20
-24.305588146154435
 11
-274.70444611059133
 21
-9.4563451461544332
  0
ARC
  8
_0-3_躯体と製品
  6
CONTINUOUS
 62
    7
 10
-274.35089311059141
 20
-9.1027921461544565
 40
0.5
 50
135
 51
225
  0
LINE
  8
_0-3_躯体と製品
  6
CONTINUOUS
 62
    7
 10
-274.70444611059133
 20
-8.7492381461544824
 11
-273.50236511059143
 21
-7.5471571461543476
  0
ARC
  8
_0-3_躯体と製品
  6
CONTINUOUS
 62
    7
 10
-262.54221011059144
 20
-17.800205146154383
 40
1
 50
225
 51
315
  0
LINE
  8
_0-3_躯体と製品
  6
CONTINUOUS
 62
    7
 10
-263.24931611059151
 20
-18.507312146154447
 11
-266.78485011059138
 21
-14.971778146154463
  0
ARC
  8
_0-3_躯体と製品
  6
CONTINUOUS
 62
    7
 10
-266.07774411059131
 20
-14.264671146154456
 40
1
 50
135
 51
225
  0
LINE
  8
_0-3_躯体と製品
  6
CONTINUOUS
 62
    7
 10
-272.44170511059133
 20
-8.6078171461544457
 11
-273.50236511059143
 21
-7.5471571461543476
  0
LINE
  8
_0-3_躯体と製品
  6
CONTINUOUS
 62
    7
 10
-272.79525811059148
 20
-8.9613701461544792
 11
-272.44170511059133
 21
-8.6078171461544457
  0
LINE
  8
_0-3_躯体と製品
  6
CONTINUOUS
 62
    7
 10
-269.25972411059138
 20
-12.49690414615435
 11
-272.79525811059148
 21
-8.9613701461544792
  0
ARC
  8
_0-3_躯体と製品
  6
CONTINUOUS
 62
    7
 10
-268.90617111059146
 20
-12.14335114615443
 40
0.5
 50
225
 51
315
  0
LINE
  8
_0-3_躯体と製品
  6
CONTINUOUS
 62
    7
 10
-257.23890911059129
 20
-1.1831961461544438
 11
-268.55261711059143
 21
-12.49690414615435
  0
ARC
  8
_0-3_躯体と製品
  6
CONTINUOUS
 62
    7
 10
-257.59246211059144
 20
-0.8296421461544696
 40
0.5
 50
315.00000000000006
 51
45.00000000000005
  0
ARC
  8
_0-3_躯体と製品
  6
CONTINUOUS
 62
    7
 10
-255.68327411059136
 20
-1.0417741461544665
 40
1
 50
315.00000000000006
 51
45.00000000000005
  0
ARC
  8
_0-3_躯体と製品
  6
CONTINUOUS
 62
    7
 10
-275.76510711059132
 20
31.909401853845623
 40
0.5
 50
45
 51
135
  0
LINE
  8
_0-3_躯体と製品
  6
CONTINUOUS
 62
    7
 10
-265.86561211059143
 20
36.859148853845625
 11
-290.61434911059132
 21
12.110411853845619
  0
LINE
  8
_0-3_躯体と製品
  6
CONTINUOUS
 62
    5
 10
-273.64378611059146
 20
31.909401853845623
 11
-277.17932011059133
 21
35.444934853845666
  0
LINE
  8
_0-3_躯体と製品
  6
CONTINUOUS
 62
    2
 10
-299.4532431105913
 20
25.898934853845617
 11
-300.1455171105913
 21
26.591209853845669
  0
LINE
  8
_0-3_躯体と製品
  6
CONTINUOUS
 62
    7
 10
-301.22095111059139
 20
24.131226853845533
 11
-297.33186311059148
 21
28.020313853845664
  0
LINE
  8
_0-3_躯体と製品
  6
CONTINUOUS
 62
    7
 10
-291.3214561105915
 20
31.202294853845558
 11
-299.80673711059148
 21
22.717012853845517
  0
LINE
  8
_0-3_躯体と製品
  6
CONTINUOUS
 62
    2
 10
-299.4532431105913
 20
25.898934853845617
 11
-300.1455171105913
 21
26.591209853845669
  0
LINE
  8
_0-3_躯体と製品
  6
CONTINUOUS
 62
    2
 10
-295.81158411059141
 20
29.540593853845564
 11
-292.31140511059129
 21
26.040414853845562
  0
LINE
  8
_0-3_躯体と製品
  6
CONTINUOUS
 62
    2
 10
-298.14503611059149
 20
27.207140853845544
 11
-294.64485811059149
 21
23.706962853845539
  0
LINE
  8
_0-3_躯体と製品
  6
CONTINUOUS
 62
    2
 10
-298.39252411059147
 20
26.959653853845623
 11
-295.13983211059144
 21
23.706962853845539
  0
LINE
  8
_0-3_躯体と製品
  6
CONTINUOUS
 62
    7
 10
-299.80673711059148
 20
22.717012853845517
 11
-305.81714511059135
 21
28.727420853845558
  0
LINE
  8
_0-3_躯体と製品
  6
CONTINUOUS
 62
    7
 10
-295.91765011059147
 20
26.606100853845533
 11
-299.80673711059148
 21
22.717012853845517
  0
LINE
  8
_0-3_躯体と製品
  6
CONTINUOUS
 62
    7
 10
-298.39252411059147
 20
21.302799853845556
 11
-290.2607961105914
 21
29.434527853845566
  0
LINE
  8
_0-3_躯体と製品
  6
CONTINUOUS
 62
    7
 10
-292.31140511059129
 20
25.969704853845542
 11
-292.31140511059129
 21
27.383917853845617
  0
LINE
  8
_0-3_躯体と製品
  6
CONTINUOUS
 62
    7
 10
-289.90724211059137
 20
28.373867853845525
 11
-283.54328111059135
 21
22.009906853845564
  0
LINE
  8
_0-3_躯体と製品
  6
CONTINUOUS
 62
    7
 10
-283.54328111059135
 20
22.009906853845564
 11
-275.76510711059132
 21
29.788080853845656
  0
LINE
  8
_0-3_躯体と製品
  6
CONTINUOUS
 62
    5
 10
-283.54328111059135
 20
22.009906853845564
 11
-286.3717081105915
 21
36.15204185384556
  0
LINE
  8
_0-3_躯体と製品
  6
PLINE3
 62
    2
 10
-306.06521111059146
 20
37.46076885384565
 11
-283.23899911059129
 21
14.634556853845652
  0
LINE
  8
_0-3_躯体と製品
  6
CONTINUOUS
 62
    7
 10
-295.98836011059143
 20
23.706962853845539
 11
-294.57414711059141
 21
23.706962853845539
  0
LINE
  8
_0-3_躯体と製品
  6
CONTINUOUS
 62
    7
 10
-295.56409611059144
 20
19.888585853845655
 11
-290.61434911059132
 21
14.938838853845652
  0
LINE
  8
_0-3_躯体と製品
  6
CONTINUOUS
 62
    7
 10
-294.85699011059137
 20
10.696197853845661
 11
-290.61434911059132
 21
14.938838853845652
  0
LINE
  8
_0-3_躯体と製品
  6
CONTINUOUS
 62
    7
 10
-286.7252621105913
 20
2.5644698538455373
 11
-294.85699011059137
 21
10.696197853845661
  0
LINE
  8
_0-3_躯体と製品
  6
CONTINUOUS
 62
    7
 10
-299.80673711059148
 20
22.717012853845517
 11
-301.22095111059139
 21
24.131226853845533
  0
LINE
  8
_0-3_躯体と製品
  6
CONTINUOUS
 62
    3
 10
-299.80673711059148
 20
22.717012853845517
 11
-301.22095111059139
 21
24.131226853845533
  0
LINE
  8
_0-3_躯体と製品
  6
CONTINUOUS
 62
    3
 10
-299.80673711059148
 20
22.717012853845517
 11
-301.22095111059139
 21
24.131226853845533
  0
LINE
  8
_0-3_躯体と製品
  6
CONTINUOUS
 62
    3
 10
-299.80673711059148
 20
22.717012853845517
 11
-301.22095111059139
 21
24.131226853845533
  0
LINE
  8
_0-3_躯体と製品
  6
CONTINUOUS
 62
    7
 10
-296.97831011059134
 20
19.888585853845655
 11
-298.39252411059147
 21
21.302799853845556
  0
ARC
  8
_0-3_躯体と製品
  6
CONTINUOUS
 62
    7
 10
-297.33186311059148
 20
19.535032853845621
 40
0.5
 50
315.00000000000006
 51
45.00000000000005
  0
LINE
  8
_0-3_躯体と製品
  6
CONTINUOUS
 62
    7
 10
-296.97831011059134
 20
19.181478853845533
 11
-298.03897011059144
 21
18.120818853845549
  0
LINE
  8
_0-3_躯体と製品
  6
CONTINUOUS
 62
    7
 10
-305.46359111059132
 20
25.545439853845551
 11
-298.03897011059144
 21
18.120818853845549
  0
ARC
  8
_0-3_躯体と製品
  6
CONTINUOUS
 62
    7
 10
-306.1706981105915
 20
24.83833385384554
 40
1
 50
45
 51
135
  0
LINE
  8
_0-3_躯体と製品
  6
CONTINUOUS
 62
    7
 10
-297.61470611059144
 20
22.080616853845527
 11
-295.98836011059143
 21
23.706962853845539
  0
ARC
  8
_0-3_躯体と製品
  6
CONTINUOUS
 62
    7
 10
-296.90759911059149
 20
21.373509853845633
 40
1
 50
135
 51
225
  0
LINE
  8
_0-3_躯体と製品
  6
CONTINUOUS
 62
    7
 10
-297.61470611059144
 20
20.666403853845566
 11
-296.20049211059131
 21
19.252189853845664
  0
LINE
  8
_0-3_躯体と製品
  6
CONTINUOUS
 62
    7
 10
-296.20049211059131
 20
19.252189853845664
 11
-295.56409611059144
 21
19.888585853845655
  0
LINE
  8
_0-3_躯体と製品
  6
CONTINUOUS
 62
    7
 10
-289.62439911059141
 20
18.757214853845653
 11
-287.36165811059141
 21
21.019956853845656
  0
LINE
  8
_0-3_躯体と製品
  6
CONTINUOUS
 62
    7
 10
-286.65455111059146
 20
20.312849853845535
 11
-292.31140511059129
 21
25.969704853845542
  0
LINE
  8
_0-3_躯体と製品
  6
CONTINUOUS
 62
    7
 10
-294.57414711059141
 20
23.706962853845539
 11
-288.91729311059134
 21
18.050108853845529
  0
LINE
  8
_0-3_躯体と製品
  6
CONTINUOUS
 62
    7
 10
-286.65455111059146
 20
18.89863685384563
 11
-287.50307911059144
 21
18.050108853845529
  0
ARC
  8
_0-3_躯体と製品
  6
CONTINUOUS
 62
    7
 10
-287.36165811059141
 20
19.605743853845524
 40
1
 50
315.00000000000006
 51
45.00000000000005
  0
ARC
  8
_0-3_躯体と製品
  6
CONTINUOUS
 62
    7
 10
-288.21018611059139
 20
18.757214853845653
 40
1
 50
225
 51
315
  0
LINE
  8
_0-3_躯体と製品
  6
CONTINUOUS
 62
    7
 10
-286.01815511059135
 20
2.5644698538455373
 11
-286.01815511059135
 21
1.8573628538455296
  0
LINE
  8
_0-3_躯体と製品
  6
CONTINUOUS
 62
    7
 10
-286.7252621105913
 20
2.5644698538455373
 11
-286.01815511059135
 21
2.5644698538455373
  0
LINE
  8
_0-3_躯体と製品
  6
CONTINUOUS
 62
    2
 10
-294.5034951105913
 20
30.848681853845562
 11
-295.19577011059141
 21
31.540956853845557
  0
LINE
  8
_0-3_躯体と製品
  6
CONTINUOUS
 62
    7
 10
-291.3214561105915
 20
41.10178985384556
 11
-294.85699011059137
 21
37.566255853845519
  0
LINE
  8
_0-3_躯体と製品
  6
CONTINUOUS
 62
    7
 10
-297.33186311059148
 20
37.212701853845658
 11
-293.08922311059132
 21
32.97006185384555
  0
LINE
  8
_0-3_躯体と製品
  6
CONTINUOUS
 62
    7
 10
-296.62475711059142
 20
28.727420853845558
 11
-293.08922311059132
 21
32.262954853845542
  0
LINE
  8
_0-3_躯体と製品
  6
CONTINUOUS
 62
    7
 10
-294.85699011059137
 20
37.566255853845519
 11
-289.20013511059142
 21
31.909401853845623
  0
LINE
  8
_0-3_躯体と製品
  6
CONTINUOUS
 62
    2
 10
-294.5034951105913
 20
30.848681853845562
 11
-295.19577011059141
 21
31.540956853845557
  0
LINE
  8
_0-3_躯体と製品
  6
CONTINUOUS
 62
    2
 10
-295.56409611059144
 20
29.788080853845656
 11
-292.31140511059129
 21
26.535389853845629
  0
LINE
  8
_0-3_躯体と製品
  6
CONTINUOUS
 62
    7
 10
-296.62475711059142
 20
28.020313853845664
 11
-296.62475711059142
 21
28.727420853845558
  0
LINE
  8
_0-3_躯体と製品
  6
CONTINUOUS
 62
    7
 10
-297.33186311059148
 20
28.020313853845664
 11
-296.62475711059142
 21
28.020313853845664
  0
ARC
  8
_0-3_躯体と製品
  6
CONTINUOUS
 62
    7
 10
-296.97831011059134
 20
37.566255853845519
 40
0.5
 50
135
 51
225
  0
ARC
  8
_0-3_躯体と製品
  6
CONTINUOUS
 62
    2
 10
-299.15746611059149
 20
29.527718853845556
 40
0.2249999999999999
 50
45
 51
139.73925500000061
  0
ARC
  8
_0-3_躯体と製品
  6
CONTINUOUS
 62
    2
 10
-298.13216211059148
 20
30.553023853845559
 40
0.2249999999999999
 50
130.26077099999992
 51
225.00000000000003
  0
LINE
  8
_0-3_躯体と製品
  6
CONTINUOUS
 62
    2
 10
-298.31244911059139
 20
30.415113853845639
 11
-299.01955611059134
 21
29.708006853845518
  0
ARC
  8
_0-3_躯体と製品
  6
CONTINUOUS
 62
    2
 10
-292.61961411059133
 20
24.014157853845518
 40
8.7766380000000002
 50
116.7122390000018
 51
153.63691699999711
  0
ARC
  8
_0-3_躯体と製品
  6
CONTINUOUS
 62
    2
 10
-296.11495011059151
 20
30.621776853845518
 40
1.3
 50
45
 51
118.3984499999994
  0
ARC
  8
_0-3_躯体と製品
  6
CONTINUOUS
 62
    2
 10
-299.22622011059138
 20
27.510506853845527
 40
1.3
 50
151.60155000000049
 51
225
  0
ARC
  8
_0-3_躯体と製品
  6
CONTINUOUS
 62
    2
 10
-299.15746611059149
 20
29.527718853845556
 40
0.2249999999999999
 50
45
 51
139.73925500000061
  0
ARC
  8
_0-3_躯体と製品
  6
CONTINUOUS
 62
    2
 10
-298.13216211059148
 20
30.553023853845559
 40
0.2249999999999999
 50
130.26077099999992
 51
225.00000000000003
  0
LINE
  8
_0-3_躯体と製品
  6
CONTINUOUS
 62
    2
 10
-298.31244911059139
 20
30.415113853845639
 11
-299.01955611059134
 21
29.708006853845518
  0
ARC
  8
_0-3_躯体と製品
  6
CONTINUOUS
 62
    2
 10
-292.61961411059133
 20
24.014157853845518
 40
8.7766380000000002
 50
116.7122390000018
 51
153.63691699999711
  0
ARC
  8
_0-3_躯体と製品
  6
CONTINUOUS
 62
    2
 10
-296.11495011059151
 20
30.621776853845518
 40
1.3
 50
45
 51
118.3984499999994
  0
ARC
  8
_0-3_躯体と製品
  6
CONTINUOUS
 62
    2
 10
-299.22622011059138
 20
27.510506853845527
 40
1.3
 50
151.60155000000049
 51
225
  0
LINE
  8
_0-3_躯体と製品
  6
CONTINUOUS
 62
    7
 10
-295.21054311059129
 20
26.606100853845533
 11
-295.21054311059129
 21
27.313206853845656
  0
LINE
  8
_0-3_躯体と製品
  6
CONTINUOUS
 62
    7
 10
-295.91765011059147
 20
26.606100853845533
 11
-295.21054311059129
 21
26.606100853845533
  0
ARC
  8
_0-3_躯体と製品
  6
CONTINUOUS
 62
    7
 10
-306.1706981105915
 20
28.373867853845525
 40
0.5
 50
45
 51
135
  0
ARC
  8
_0-3_躯体と製品
  6
CONTINUOUS
 62
    5
 10
-320.91349711059138
 20
52.644540853845569
 40
27.862221000000002
 50
301.72917599999909
 51
326.9367150000021
  0
LINE
  8
_0-3_躯体と製品
  6
CONTINUOUS
 62
    7
 10
-290.2607961105914
 20
30.848740853845641
 11
-289.20013511059142
 21
31.909401853845623
  0
ARC
  8
_0-3_躯体と製品
  6
CONTINUOUS
 62
    7
 10
-290.61434911059132
 20
31.202294853845558
 40
0.5
 50
225
 51
315
  0
LINE
  8
_0-3_躯体と製品
  6
CONTINUOUS
 62
    7
 10
-290.96790211059147
 20
30.848740853845641
 11
-291.3214561105915
 21
31.202294853845558
  0
ARC
  8
_0-3_躯体と製品
  6
CONTINUOUS
 62
    5
 10
-280.17950911059143
 20
43.81651885384565
 40
1.2657699999999998
 50
315.02058899999741
 51
26.713837000002634
  0
LINE
  8
_0-3_躯体と製品
  6
CONTINUOUS
 62
    7
 10
-282.8361741105914
 20
49.587070853845546
 11
-289.90724211059137
 21
42.516002853845521
  0
LINE
  8
_0-3_躯体と製品
  6
CONTINUOUS
 62
    7
 10
-278.59353411059146
 20
48.172856853845644
 11
-281.42196111059138
 21
51.001284853845618
  0
LINE
  8
_0-3_躯体と製品
  6
CONTINUOUS
 62
    7
 10
-281.06840711059135
 20
45.697983853845415
 11
-278.59353411059146
 21
48.172856853845644
  0
LINE
  8
_0-3_躯体と製品
  6
CONTINUOUS
 62
    7
 10
-282.12906811059133
 20
46.75864385384557
 11
-281.06840711059135
 21
45.697983853845415
  0
LINE
  8
_0-3_躯体と製品
  6
CONTINUOUS
 62
    7
 10
-281.06840711059135
 20
47.819303853845554
 11
-282.12906811059133
 21
46.75864385384557
  0
LINE
  8
_0-3_躯体と製品
  6
CONTINUOUS
 62
    7
 10
-282.8361741105914
 20
49.587070853845546
 11
-281.06840711059135
 21
47.819303853845554
  0
LINE
  8
_0-3_躯体と製品
  6
CONTINUOUS
 62
    7
 10
-288.49302911059135
 20
38.27336285384547
 11
-291.3214561105915
 21
41.10178985384556
  0
LINE
  8
_0-3_躯体と製品
  6
CONTINUOUS
 62
    7
 10
-286.01815511059135
 20
40.748235853845642
 11
-288.49302911059135
 21
38.27336285384547
  0
LINE
  8
_0-3_躯体と製品
  6
CONTINUOUS
 62
    7
 10
-287.07881511059145
 20
41.80889585384557
 11
-286.01815511059135
 21
40.748235853845642
  0
LINE
  8
_0-3_躯体と製品
  6
CONTINUOUS
 62
    7
 10
-288.13947511059132
 20
40.748235853845642
 11
-287.07881511059145
 21
41.80889585384557
  0
LINE
  8
_0-3_躯体と製品
  6
CONTINUOUS
 62
    7
 10
-289.90724211059137
 20
42.516002853845521
 11
-288.13947511059132
 21
40.748235853845642
  0
ARC
  8
_0-3_躯体と製品
  6
CONTINUOUS
 62
    7
 10
-293.44277611059147
 20
32.616507853845519
 40
0.5
 50
315.00000000000006
 51
45.00000000000005
  0
ARC
  8
_0-3_躯体と製品
  6
CONTINUOUS
 62
    5
 10
-284.13669011059142
 20
39.859337853845659
 40
1.2657699999999998
 50
243.28616299999732
 51
314.97941100000247
  0
LINE
  8
_0-3_躯体と製品
  6
CONTINUOUS
 62
    5
 10
-280.71485411059143
 20
46.051536853845562
 11
-279.04884411059129
 21
44.385526853845647
  0
LINE
  8
_0-3_躯体と製品
  6
CONTINUOUS
 62
    5
 10
-286.3717081105915
 20
40.394682853845552
 11
-284.70569811059136
 21
38.728672853845524
  0
LINE
  8
_0-3_躯体と製品
  6
CONTINUOUS
 62
    7
 10
-290.2607961105914
 20
29.434527853845566
 11
-291.67500911059142
 21
30.848740853845641
  0
LINE
  8
_0-3_躯体と製品
  6
CONTINUOUS
 62
    7
 10
-292.31140511059129
 20
27.383917853845617
 11
-290.61434911059132
 21
29.080973853845649
  0
LINE
  8
_0-3_躯体と製品
  6
CONTINUOUS
 62
    7
 10
-289.27084611059149
 20
29.010263853845629
 11
-289.90724211059137
 21
28.373867853845525
  0
LINE
  8
_0-3_躯体と製品
  6
CONTINUOUS
 62
    7
 10
-289.62439911059141
 20
29.363816853845549
 11
-289.27084611059149
 21
29.010263853845629
  0
ARC
  8
_0-3_躯体と製品
  6
CONTINUOUS
 62
    7
 10
-289.97795311059144
 20
29.010263853845629
 40
0.5
 50
45
 51
135
  0
LINE
  8
_0-3_躯体と製品
  6
CONTINUOUS
 62
    7
 10
-290.61434911059132
 20
29.080973853845649
 11
-290.33150611059136
 21
29.363816853845549
  0
LINE
  8
_0-3_躯体と製品
  6
CONTINUOUS
 62
    7
 10
-276.82576711059141
 20
31.555847853845535
 11
-276.11866011059146
 21
32.262954853845542
  0
ARC
  8
_0-3_躯体と製品
  6
CONTINUOUS
 62
    7
 10
-276.47221311059138
 20
31.202294853845558
 40
0.5
 50
135
 51
225
  0
LINE
  8
_0-3_躯体と製品
  6
CONTINUOUS
 62
    7
 10
-275.76510711059132
 20
29.788080853845656
 11
-276.82576711059141
 21
30.848740853845641
  0
LINE
  8
_0-3_躯体と製品
  6
CONTINUOUS
 62
    5
 10
-289.20013511059142
 20
27.666760853845517
 11
-277.88642711059128
 21
27.666760853845517
  0
LINE
  8
_0-3_躯体と製品
  6
CONTINUOUS
 62
    5
 10
-286.3717081105915
 20
36.15204185384556
 11
-277.88642711059128
 21
27.666760853845517
  0
LINE
  8
_0-3_躯体と製品
  6
CONTINUOUS
 62
    5
 10
-289.20013511059142
 20
33.32361485384564
 11
-286.3717081105915
 21
36.15204185384556
  0
LINE
  8
_0-3_躯体と製品
  6
CONTINUOUS
 62
    5
 10
-286.3717081105915
 20
30.49518785384555
 11
-289.20013511059142
 21
33.32361485384564
  0
LINE
  8
_0-3_躯体と製品
  6
CONTINUOUS
 62
    5
 10
-289.20013511059142
 20
27.666760853845517
 11
-286.3717081105915
 21
30.49518785384555
  0
LINE
  8
_0-3_躯体と製品
  6
CONTINUOUS
 62
    5
 10
-285.52318011059128
 20
36.717727853845531
 11
-280.71485411059143
 21
31.909401853845623
  0
LINE
  8
_0-3_躯体と製品
  6
CONTINUOUS
 62
    7
 10
-264.4513981105913
 20
41.10178985384556
 11
-247.48083511059144
 21
24.131226853845533
  0
LINE
  8
_0-3_躯体と製品
  6
CONTINUOUS
 62
    7
 10
-265.86561211059143
 20
36.859148853845625
 11
-251.72347611059149
 21
22.717012853845517
  0
LINE
  8
_0-3_躯体と製品
  6
CONTINUOUS
 62
    7
 10
-247.48083511059144
 20
24.131226853845533
 11
-270.10825211059137
 21
1.5038098538456666
  0
ARC
  8
_0-3_躯体と製品
  6
CONTINUOUS
 62
    7
 10
-269.40114511059141
 20
0.0895958538455374
 40
0.5
 50
315.00000000000006
 51
45.00000000000005
  0
LINE
  8
_0-3_躯体と製品
  6
CONTINUOUS
 62
    7
 10
-269.04759211059149
 20
0.4431498538455684
 11
-270.10825211059137
 21
1.5038098538456666
  0
LINE
  8
_0-3_躯体と製品
  6
CONTINUOUS
 62
    7
 10
-260.9865751105915
 20
4.9686328538456337
 11
-262.18865611059141
 21
3.7665518538456695
  0
ARC
  8
_0-3_躯体と製品
  6
CONTINUOUS
 62
    7
 10
-260.63302111059147
 20
4.6150798538455433
 40
0.5
 50
45
 51
135
  0
LINE
  8
_0-3_躯体と製品
  6
CONTINUOUS
 62
    7
 10
-261.12799611059131
 20
2.7058908538456308
 11
-260.77444311059139
 21
3.0594448538455481
  0
LINE
  8
_0-3_躯体と製品
  6
CONTINUOUS
 62
    7
 10
-262.18865611059141
 20
3.7665518538456695
 11
-261.12799611059131
 21
2.7058908538456308
  0
LINE
  8
_0-3_躯体と製品
  6
CONTINUOUS
 62
    7
 10
-261.87201011059142
 20
4.1570118538456313
 11
-261.87201011059142
 21
4.083197853845661
  0
LINE
  8
_0-3_躯体と製品
  6
CONTINUOUS
 62
    5
 10
-263.95642311059146
 20
6.2414248538455581
 11
-261.83510311059149
 21
4.1201048538455325
  0
ARC
  8
_0-3_躯体と製品
  6
CONTINUOUS
 62
    5
 10
-264.66353011059141
 20
5.5343188538456616
 40
1
 50
45
 51
135
  0
LINE
  8
_0-3_躯体と製品
  6
CONTINUOUS
 62
    7
 10
-246.77372811059149
 20
17.060158853845451
 11
-245.71306811059139
 21
18.120818853845549
  0
ARC
  8
_0-3_躯体と製品
  6
CONTINUOUS
 62
    7
 10
-247.1272821105913
 20
17.413712853845539
 40
0.5
 50
225
 51
315
  0
LINE
  8
_0-3_躯体と製品
  6
CONTINUOUS
 62
    7
 10
-247.48083511059144
 20
17.060158853845451
 11
-247.83438911059147
 21
17.413712853845539
  0
ARC
  8
_0-3_躯体と製品
  6
CONTINUOUS
 62
    7
 10
-245.00596211059133
 20
17.413712853845539
 40
1
 50
45
 51
135
  0
ARC
  8
_0-3_躯体と製品
  6
CONTINUOUS
 62
    7
 10
-244.6524081105913
 20
20.595692853845662
 40
0.5
 50
45
 51
135
  0
LINE
  8
_0-3_躯体と製品
  6
CONTINUOUS
 62
    7
 10
-247.83438911059147
 20
18.120818853845549
 11
-245.00596211059133
 21
20.949245853845468
  0
ARC
  8
_0-3_躯体と製品
  6
CONTINUOUS
 62
    7
 10
-247.48083511059144
 20
17.767265853845515
 40
0.5
 50
135
 51
225
  0
LINE
  8
_0-3_躯体と製品
  6
CONTINUOUS
 62
    7
 10
-266.21916511059135
 20
42.162449853845544
 11
-266.9262721105913
 21
41.455342853845536
  0
ARC
  8
_0-3_躯体と製品
  6
CONTINUOUS
 62
    7
 10
-265.86561211059143
 20
41.80889585384557
 40
0.5
 50
45
 51
135
  0
LINE
  8
_0-3_躯体と製品
  6
CONTINUOUS
 62
    7
 10
-265.5120581105914
 20
42.162449853845544
 11
-264.4513981105913
 21
41.10178985384556
  0
ARC
  8
_0-3_躯体と製品
  6
CONTINUOUS
 62
    7
 10
-266.5727181105915
 20
41.10178985384556
 40
0.5
 50
135
 51
225
  0
LINE
  8
_0-3_躯体と製品
  6
CONTINUOUS
 62
    7
 10
-266.9262721105913
 20
40.748235853845642
 11
-265.86561211059143
 21
39.687575853845544
  0
LINE
  8
_0-3_躯体と製品
  6
CONTINUOUS
 62
    7
 10
-265.86561211059143
 20
39.687575853845544
 11
-274.35089311059141
 21
31.202294853845558
  0
LINE
  8
_0-3_躯体と製品
  6
CONTINUOUS
 62
    7
 10
-275.41155311059129
 20
32.262954853845542
 11
-274.35089311059141
 21
31.202294853845558
  0
LINE
  8
_0-3_躯体と製品
  6
CONTINUOUS
 62
    5
 10
-269.40114511059141
 20
43.223109853845642
 11
-265.86561211059143
 21
39.687575853845544
  0
ARC
  8
_0-3_躯体と製品
  6
CONTINUOUS
 62
    5
 10
-283.82315711059141
 20
187.41899885384566
 40
131.54573199999999
 50
271.97020600000258
 51
278.21963600000117
  0
LINE
  8
_0-3_躯体と製品
  6
CONTINUOUS
 62
    7
 10
-279.3006401105913
 20
55.951031853845564
 11
-277.88642711059128
 21
54.536818853845659
  0
LINE
  8
_0-3_躯体と製品
  6
CONTINUOUS
 62
    2
 10
-144.91078611059129
 20
94.881470853845542
 11
-220.9643311105915
 21
18.827925853845557
  0
LINE
  8
_0-3_躯体と製品
  6
CONTINUOUS
 62
    2
 10
-166.72017011059143
 20
94.992397853845546
 11
-231.92448611059149
 21
29.788080853845656
  0
LINE
  8
_0-3_躯体と製品
  6
CONTINUOUS
 62
    7
 10
-231.57093311059134
 20
8.2213238538455471
 11
-216.01458411059139
 21
-7.3350251461543508
  0
LINE
  8
_0-3_躯体と製品
  6
CONTINUOUS
 62
    7
 10
-234.75291311059141
 20
5.7464508538455448
 11
-220.61077811059135
 21
-8.3956851461543351
  0
LINE
  8
_0-3_躯体と製品
  6
CONTINUOUS
 62
    2
 10
-199.12873611059149
 20
-43.307945146154566
 11
-192.3802641105915
 21
-43.307945146154566
  0
LINE
  8
_0-3_躯体と製品
  6
CONTINUOUS
 62
    2
 10
-200.8802641105915
 20
-48.807945146154339
 11
-183.8802641105915
 21
-48.807945146154339
  0
LINE
  8
_0-3_躯体と製品
  6
CONTINUOUS
 62
    2
 10
-200.8802641105915
 20
-50.807945146154452
 11
-183.8802641105915
 21
-50.807945146154452
  0
LINE
  8
_0-3_躯体と製品
  6
CONTINUOUS
 62
    2
 10
-225.1386331105914
 20
-30.493927146154363
 11
-218.33863311059145
 21
-26.567945146154443
  0
LINE
  8
_0-3_躯体と製品
  6
CONTINUOUS
 62
    2
 10
-218.33863311059145
 20
-26.567945146154443
 11
-211.53863311059149
 21
-30.493927146154363
  0
LINE
  8
_0-3_躯体と製品
  6
PLINE3
 62
    2
 10
-218.33863311059145
 20
-22.407945146154475
 11
-218.33863311059145
 21
-46.407945146154589
  0
ARC
  8
_0-3_躯体と製品
  6
CONTINUOUS
 62
    7
 10
-218.33863311059145
 20
-34.407945146154475
 40
10
 50
0
 51
163.12551100000061
  0
LINE
  8
_0-3_躯体と製品
  6
CONTINUOUS
 62
    2
 10
-211.53863311059149
 20
-38.321963146154474
 11
-218.33863311059145
 21
-42.24794514615445
  0
CIRCLE
  8
_0-3_躯体と製品
  6
CONTINUOUS
 62
    2
 10
-218.3455401105914
 20
-34.407945146154475
 40
6.793092999999998
  0
LINE
  8
_0-3_躯体と製品
  6
PLINE3
 62
    2
 10
-206.33863311059145
 20
-34.407945146154475
 11
-230.33863311059145
 21
-34.407945146154475
  0
LINE
  8
_0-3_躯体と製品
  6
PLINE3
 62
    2
 10
-211.26756511059148
 20
-27.33687714615445
 11
-226.82391411059143
 21
-42.893226146154348
  0
LINE
  8
_0-3_躯体と製品
  6
CONTINUOUS
 62
    2
 10
-225.1386331105914
 20
-38.321963146154474
 11
-225.1386331105914
 21
-30.493927146154363
  0
LINE
  8
_0-3_躯体と製品
  6
CONTINUOUS
 62
    2
 10
-218.33863311059145
 20
-42.24794514615445
 11
-225.1386331105914
 21
-38.321963146154474
  0
ARC
  8
_0-3_躯体と製品
  6
CONTINUOUS
 62
    2
 10
-229.4505961105915
 20
-43.363945146154435
 40
3.056
 50
90
 51
129.15613200000271
  0
ARC
  8
_0-3_躯体と製品
  6
CONTINUOUS
 62
    2
 10
-235.3802641105915
 20
-52.307945146154452
 40
12
 50
70.528778999998195
 51
90
  0
LINE
  8
_0-3_躯体と製品
  6
CONTINUOUS
 62
    2
 10
-231.3802641105915
 20
-45.807945146154339
 11
-231.3802641105915
 21
-40.994236146154378
  0
LINE
  8
_0-3_躯体と製品
  6
CONTINUOUS
 62
    2
 10
-227.3802641105915
 20
-41.030515146154357
 11
-228.63179111059139
 21
-40.307945146154452
  0
LINE
  8
_0-3_躯体と製品
  6
CONTINUOUS
 62
    2
 10
-227.3802641105915
 20
-41.030515146154357
 11
-227.3802641105915
 21
-45.807945146154339
  0
LINE
  8
_0-3_躯体と製品
  6
CONTINUOUS
 62
    2
 10
-227.58026411059132
 20
-45.807945146154339
 11
-227.58026411059132
 21
-47.807945146154452
  0
LINE
  8
_0-3_躯体と製品
  6
CONTINUOUS
 62
    2
 10
-231.3802641105915
 20
-37.407945146154475
 11
-232.3802641105915
 21
-36.407945146154532
  0
LINE
  8
_0-3_躯体と製品
  6
CONTINUOUS
 62
    2
 10
-231.3802641105915
 20
-40.307945146154452
 11
-231.3802641105915
 21
-37.407945146154475
  0
LINE
  8
_0-3_躯体と製品
  6
CONTINUOUS
 62
    2
 10
-233.3802641105915
 20
-45.807945146154339
 11
-235.3802641105915
 21
-47.807945146154452
  0
LINE
  8
_0-3_躯体と製品
  6
CONTINUOUS
 62
    7
 10
-227.90806211059135
 20
-31.505183146154479
 11
-230.57826611059136
 21
-40.307945146154452
  0
LINE
  8
_0-3_躯体と製品
  6
CONTINUOUS
 62
    2
 10
-226.8802641105915
 20
-49.407945146154475
 11
-226.8802641105915
 21
-47.807945146154452
  0
LINE
  8
_0-3_躯体と製品
  6
CONTINUOUS
 62
    2
 10
-205.05436211059146
 20
-49.407945146154475
 11
-200.3802641105915
 21
-44.73384714615446
  0
LINE
  8
_0-3_躯体と製品
  6
CONTINUOUS
 62
    2
 10
-211.53863311059149
 20
-30.493927146154363
 11
-211.53863311059149
 21
-38.321963146154474
  0
LINE
  8
_0-3_躯体と製品
  6
CONTINUOUS
 62
    2
 10
-200.3802641105915
 20
-44.030515146154357
 11
-199.12873611059149
 21
-43.307945146154566
  0
LINE
  8
_0-3_躯体と製品
  6
CONTINUOUS
 62
    7
 10
-208.33863311059145
 20
-49.407945146154475
 11
-208.33863311059145
 21
-52.407945146154589
  0
LINE
  8
_0-3_躯体と製品
  6
CONTINUOUS
 62
    7
 10
-208.33863311059145
 20
-34.407945146154475
 11
-208.33863311059145
 21
-39.964294146154373
  0
LINE
  8
_0-3_躯体と製品
  6
CONTINUOUS
 62
    2
 10
-200.3802641105915
 20
-48.807945146154339
 11
-200.3802641105915
 21
-44.030515146154357
  0
LINE
  8
_0-3_躯体と製品
  6
CONTINUOUS
 62
    2
 10
-200.8802641105915
 20
-52.407945146154589
 11
-200.8802641105915
 21
-48.807945146154339
  0
LINE
  8
_0-3_躯体と製品
  6
PLINE2
 62
    7
 10
-208.33863311059145
 20
-39.964294146154373
 11
-208.33863311059145
 21
-49.407945146154475
  0
LINE
  8
_0-3_躯体と製品
  6
CONTINUOUS
 62
    7
 10
-217.14595411059145
 20
-9.0320811461543826
 11
-217.07524411059148
 21
-9.1027921461544565
  0
ARC
  8
_0-3_躯体と製品
  6
CONTINUOUS
 62
    7
 10
-217.4287971105914
 20
-9.3149241461544534
 40
0.4
 50
45
 51
135
  0
LINE
  8
_0-3_躯体と製品
  6
CONTINUOUS
 62
    7
 10
-216.01458411059139
 20
-8.0421321461543585
 11
-217.07524411059148
 21
-9.1027921461544565
  0
ARC
  8
_0-3_躯体と製品
  6
CONTINUOUS
 62
    7
 10
-216.36813711059131
 20
-7.6885781461544411
 40
0.5
 50
315.00000000000006
 51
45.00000000000005
  0
LINE
  8
_0-3_躯体と製品
  6
CONTINUOUS
 62
    2
 10
-196.3802641105915
 20
-48.807945146154339
 11
-196.3802641105915
 21
-43.994236146154378
  0
ARC
  8
_0-3_躯体と製品
  6
CONTINUOUS
 62
    2
 10
-198.30993111059138
 20
-46.363945146154492
 40
3.056
 50
50.843867999997215
 51
90
  0
ARC
  8
_0-3_躯体と製品
  6
CONTINUOUS
 62
    2
 10
-192.3802641105915
 20
-55.307945146154452
 40
12
 50
90
 51
109.47122100000171
  0
ARC
  8
_0-3_躯体と製品
  6
CONTINUOUS
 62
    2
 10
-186.4505961105915
 20
-46.363945146154492
 40
3.056
 50
90
 51
129.15613200000271
  0
ARC
  8
_0-3_躯体と製品
  6
CONTINUOUS
 62
    2
 10
-192.3802641105915
 20
-55.307945146154452
 40
12
 50
70.528778999998195
 51
90
  0
LINE
  8
_0-3_躯体と製品
  6
CONTINUOUS
 62
    2
 10
-188.3802641105915
 20
-48.807945146154339
 11
-188.3802641105915
 21
-43.994236146154378
  0
LINE
  8
_0-3_躯体と製品
  6
CONTINUOUS
 62
    2
 10
-185.63179111059139
 20
-43.307945146154566
 11
-192.3802641105915
 21
-43.307945146154566
  0
LINE
  8
_0-3_躯体と製品
  6
CONTINUOUS
 62
    2
 10
-184.3802641105915
 20
-44.030515146154357
 11
-185.63179111059139
 21
-43.307945146154566
  0
LINE
  8
_0-3_躯体と製品
  6
CONTINUOUS
 62
    2
 10
-184.3802641105915
 20
-44.030515146154357
 11
-184.3802641105915
 21
-48.807945146154339
  0
LINE
  8
_0-3_躯体と製品
  6
CONTINUOUS
 62
    2
 10
-183.8802641105915
 20
-52.407945146154589
 11
-183.8802641105915
 21
-48.807945146154339
  0
LINE
  8
_0-3_躯体と製品
  6
CONTINUOUS
 62
    7
 10
-224.49986511059137
 20
19.535032853845621
 11
-232.98514611059136
 21
28.020313853845664
  0
LINE
  8
_0-3_躯体と製品
  6
CONTINUOUS
 62
    7
 10
-231.57093311059134
 20
29.434527853845566
 11
-221.31788411059142
 21
19.181478853845533
  0
LINE
  8
_0-3_躯体と製品
  6
CONTINUOUS
 62
    7
 10
-222.44925511059137
 20
17.484422853845558
 11
-222.3785451105914
 21
17.413712853845539
  0
ARC
  8
_0-3_躯体と製品
  6
CONTINUOUS
 62
    7
 10
-222.73209811059132
 20
17.201579853845544
 40
0.4
 50
45
 51
135
  0
LINE
  8
_0-3_躯体と製品
  6
CONTINUOUS
 62
    7
 10
-223.01494111059151
 20
17.484422853845558
 11
-231.57093311059134
 21
8.9284308538456685
  0
LINE
  8
_0-3_躯体と製品
  6
CONTINUOUS
 62
    7
 10
-224.49986511059137
 20
18.827925853845557
 11
-232.98514611059136
 21
10.342644853845513
  0
ARC
  8
_0-3_躯体と製品
  6
CONTINUOUS
 62
    7
 10
-224.85341811059129
 20
19.181478853845533
 40
0.5
 50
315.00000000000006
 51
45.00000000000005
  0
LINE
  8
_0-3_躯体と製品
  6
CONTINUOUS
 62
    7
 10
-221.31788411059142
 20
18.474372853845637
 11
-222.3785451105914
 21
17.413712853845539
  0
ARC
  8
_0-3_躯体と製品
  6
CONTINUOUS
 62
    7
 10
-221.67143811059145
 20
18.827925853845557
 40
0.5
 50
315.00000000000006
 51
45.00000000000005
  0
ARC
  8
_0-3_躯体と製品
  6
CONTINUOUS
 62
    7
 10
-231.21737911059131
 20
8.5748778538456349
 40
0.5
 50
135
 51
225
  0
ARC
  8
_0-3_躯体と製品
  6
CONTINUOUS
 62
    7
 10
-233.33870011059139
 20
10.696197853845661
 40
0.5
 50
225
 51
315
  0
ARC
  8
_0-3_躯体と製品
  6
CONTINUOUS
 62
    7
 10
-236.16712711059131
 20
8.5748778538456349
 40
1
 50
315.00000000000006
 51
45.00000000000005
  0
ARC
  8
_0-3_躯体と製品
  6
CONTINUOUS
 62
    7
 10
-232.63159311059144
 20
28.373867853845525
 40
0.5
 50
135
 51
225
  0
LINE
  8
_0-3_躯体と製品
  6
CONTINUOUS
 62
    7
 10
-232.98514611059136
 20
28.727420853845558
 11
-232.27803911059141
 21
29.434527853845566
  0
ARC
  8
_0-3_躯体と製品
  6
CONTINUOUS
 62
    7
 10
-231.92448611059149
 20
29.080973853845649
 40
0.5
 50
45
 51
135
  0
LINE
  8
_0-3_躯体と製品
  6
CONTINUOUS
 62
    2
 10
-159.3802641105915
 20
-42.407945146154475
 11
-159.3802641105915
 21
-52.407945146154589
  0
LINE
  8
_0-3_躯体と製品
  6
CONTINUOUS
 62
    2
 10
-159.3802641105915
 20
-42.407945146154475
 11
-157.3802641105915
 21
-42.407945146154475
  0
LINE
  8
_0-3_躯体と製品
  6
CONTINUOUS
 62
    2
 10
-173.52229811059146
 20
95.544046853845657
 11
-150.60158311059149
 21
93.685187853845548
  0
LINE
  8
_0-3_躯体と製品
  6
PLINE2
 62
    2
 10
-177.05783211059133
 20
99.079580853845528
 11
-145.94513311059131
 21
130.19227885384555
  0
LINE
  8
_0-3_躯体と製品
  6
CONTINUOUS
 62
    2
 10
-148.06645411059139
 20
132.31359985384552
 11
-179.1791521105913
 21
101.20090085384555
  0
LINE
  8
_0-3_躯体と製品
  6
CONTINUOUS
 62
    2
 10
-191.19996711059139
 20
113.22171585384564
 11
-160.08726911059148
 21
144.33441485384566
  0
LINE
  8
_0-3_躯体と製品
  6
CONTINUOUS
 62
    2
 10
-179.1791521105913
 20
101.20090085384555
 11
-191.19996711059139
 21
113.22171585384564
  0
LINE
  8
_0-3_躯体と製品
  6
CONTINUOUS
 62
    2
 10
-179.1791521105913
 20
101.20090085384555
 11
-173.52229811059146
 21
95.544046853845657
  0
LINE
  8
_0-3_躯体と製品
  6
CONTINUOUS
 62
    2
 10
-181.0431781105915
 20
112.96442185384547
 11
-177.44125311059133
 21
109.36249685384553
  0
LINE
  8
_0-3_躯体と製品
  6
CONTINUOUS
 62
    2
 10
-181.13651211059141
 20
109.14303585384556
 11
-176.86668111059134
 21
113.41286785384563
  0
LINE
  8
_0-3_躯体と製品
  6
PLINE3
 62
    2
 10
-156.24695211059134
 20
114.06575185384554
 11
-142.7067151105914
 21
91.151505853845663
  0
LINE
  8
_0-3_躯体と製品
  6
CONTINUOUS
 62
    2
 10
-128.85756011059129
 20
108.99379485384554
 11
-142.95476811059143
 21
96.413084853845646
  0
CIRCLE
  8
_0-3_躯体と製品
  6
CONTINUOUS
 62
    2
 10
-149.48066411059131
 20
102.61511085384552
 40
7
  0
ARC
  8
_0-3_躯体と製品
  6
CONTINUOUS
 62
    2
 10
-149.48066411059131
 20
102.61511085384552
 40
9
 50
106.44560000000182
 51
315.74544800000052
  0
ARC
  8
_0-3_躯体と製品
  6
CONTINUOUS
 62
    2
 10
-121.81361611059128
 20
110.83304685384553
 40
4
 50
210.57922799999781
 51
300.5792279999979
  0
LINE
  8
_0-3_躯体と製品
  6
CONTINUOUS
 62
    2
 10
-159.52496311059144
 20
130.75458485384564
 11
-156.3046991105914
 21
133.97484885384551
  0
LINE
  8
_0-3_躯体と製品
  6
CONTINUOUS
 62
    2
 10
-159.68685111059131
 20
134.03450185384554
 11
-156.1087801105914
 21
130.45643085384552
  0
LINE
  8
_0-3_躯体と製品
  6
CONTINUOUS
 62
    2
 10
-148.06645411059139
 20
132.31359985384552
 11
-142.40959911059144
 21
126.65674485384562
  0
LINE
  8
_0-3_躯体と製品
  6
CONTINUOUS
 62
    2
 10
-142.40959911059144
 20
126.65674485384562
 11
-141.45752911059139
 21
114.96597685384552
  0
LINE
  8
_0-3_躯体と製品
  6
CONTINUOUS
 62
    2
 10
-133.94485411059145
 20
117.60305985384565
 11
-152.22205211059145
 21
111.18743785384555
  0
ARC
  8
_0-3_躯体と製品
  6
CONTINUOUS
 62
    2
 10
-128.93582711059139
 20
122.88601785384566
 40
4
 50
120.57922800000121
 51
210.57922799999781
  0
LINE
  8
_0-3_躯体と製品
  6
CONTINUOUS
 62
    2
 10
-125.2573221105913
 20
108.79812985384552
 11
-132.37953311059141
 21
120.85110085384565
  0
LINE
  8
_0-3_躯体と製品
  6
CONTINUOUS
 62
    2
 10
-128.85756011059129
 20
108.99379485384554
 11
-126.27758911059141
 21
110.52473485384553
  0
LINE
  8
_0-3_躯体と製品
  6
CONTINUOUS
 62
    2
 10
-133.94485411059145
 20
117.60305985384565
 11
-128.85756011059129
 21
108.99379485384554
  0
LINE
  8
_0-3_躯体と製品
  6
CONTINUOUS
 62
    2
 10
-131.36207411059149
 20
119.12924785384553
 11
-133.94485411059145
 21
117.60305985384565
  0
LINE
  8
_0-3_躯体と製品
  6
CONTINUOUS
 62
    2
 10
-160.08726911059148
 20
144.33441485384566
 11
-148.06645411059139
 21
132.31359985384552
  0
LINE
  8
_0-3_躯体と製品
  6
CONTINUOUS
 62
    2
 10
219.6197358894085
 20
-41.030515146154357
 11
220.87126388940851
 21
-40.307945146154452
  0
LINE
  8
_0-3_躯体と製品
  6
CONTINUOUS
 62
    2
 10
219.6197358894085
 20
-42.407945146154475
 11
219.6197358894085
 21
-41.030515146154357
  0
TEXT
  8
_0-4_図面枠
 62
    7
 10
-710.11964211059137
 20
743.79282885384555
 40
20
 41
0.8000000000000007
 50
0
  1
縮　　尺
  0
LINE
  8
_0-4_図面枠
  6
CONTINUOUS
 62
    2
 10
-424.58100911059137
 20
774.31312785384557
 11
-757.91434211059095
 21
774.31312785384557
  0
TEXT
  8
_0-4_図面枠
 62
    7
 10
-718.82719011059135
 20
783.19277685384554
 40
20
 41
0.8
 50
0
  1
ファイル名
  0
TEXT
  8
_0-4_図面枠
 62
    7
 10
-540.62210911059128
 20
784.3043798538456
 40
20
 41
0.8000000000000007
 50
0
  1
ＳＴ　４
  0
LINE
  8
_0-4_図面枠
  6
CONTINUOUS
 62
    4
 10
-424.58100911059137
 20
815.97979485384553
 11
-424.58100911059137
 21
732.64646185384549
  0
LINE
  8
_0-4_図面枠
  6
CONTINUOUS
 62
    2
 10
-591.24767511059144
 20
815.97979485384553
 11
-591.24767511059144
 21
732.64646185384549
  0
TEXT
  8
_0-4_図面枠
 62
    7
 10
-559.29003611059147
 20
742.99090285384545
 40
20
 41
0.8
 50
0
  1
Ｓ　１：５
  0
LINE
  8
_0-3_躯体と製品
  6
PLINE4
 62
    7
 10
117.25394088940857
 20
511.21214585384541
 11
-317.3802641105915
 21
511.21214585384541
  0
LINE
  8
_0-3_躯体と製品
  6
PLINE4
 62
    7
 10
109.67644288940869
 20
502.00405185384557
 11
-317.3802641105915
 21
502.00405185384557
  0
LINE
  8
_0-3_躯体と製品
  6
PLINE4
 62
    7
 10
110.36530688940866
 20
456.21214585384553
 11
-317.3802641105915
 21
456.21214585384553
  0
LINE
  8
_0-3_躯体と製品
  6
PLINE3
 62
    2
 10
48.377613889408622
 20
232.30830185384565
 11
220.47760088940868
 21
404.40828885384553
  0
LINE
  8
_0-3_躯体と製品
  6
PLINE3
 62
    2
 10
81.740988889408527
 20
366.36820485384544
 11
192.51610788940866
 21
255.59308585384565
  0
LINE
  8
_0-3_躯体と製品
  6
CONTINUOUS
 62
    2
 10
136.7968468894087
 20
263.64832485384568
 11
129.67463588940859
 21
275.70129585384552
  0
LINE
  8
_0-3_躯体と製品
  6
CONTINUOUS
 62
    2
 10
124.31107888940869
 20
292.68541785384565
 11
86.404246889408569
 21
254.77858585384564
  0
ARC
  8
_0-3_躯体と製品
  6
CONTINUOUS
 62
    2
 10
133.35314088940868
 20
261.6134068538455
 40
4
 50
300.5792279999979
 51
30.579228000001191
  0
LINE
  8
_0-3_躯体と製品
  6
PLINE2
 62
    2
 10
162.27939788940853
 20
302.65230785384551
 11
145.23201388940856
 21
285.60492485384566
  0
LINE
  8
_0-3_躯体と製品
  6
CONTINUOUS
 62
    2
 10
142.55443288940864
 20
287.16998485384568
 11
146.45345788940858
 21
284.90964385384552
  0
LINE
  8
_0-3_躯体と製品
  6
CONTINUOUS
 62
    2
 10
141.02321288940857
 20
280.08419485384564
 11
156.54628588940864
 21
293.87838085384567
  0
LINE
  8
_0-3_躯体と製品
  6
CONTINUOUS
 62
    2
 10
120.63412288940867
 20
358.58776985384554
 11
165.88895688940852
 21
313.33293585384564
  0
LINE
  8
_0-3_躯体と製品
  6
CONTINUOUS
 62
    2
 10
146.11050588940861
 20
271.47492885384554
 11
135.77938788940855
 21
265.37017785384563
  0
LINE
  8
_0-3_躯体と製品
  6
CONTINUOUS
 62
    2
 10
141.02321288940857
 20
280.08419485384564
 11
146.11050588940861
 21
271.47492885384554
  0
LINE
  8
_0-3_躯体と製品
  6
CONTINUOUS
 62
    2
 10
137.60468588940853
 20
282.22023685384568
 11
165.88895688940852
 21
310.50450785384567
  0
LINE
  8
_0-3_躯体と製品
  6
CONTINUOUS
 62
    2
 10
89.521424889408536
 20
327.47507085384552
 11
134.77625888940861
 21
282.22023685384568
  0
LINE
  8
_0-3_躯体と製品
  6
PLINE2
 62
    2
 10
105.92630188940871
 20
311.07019385384564
 11
137.0390008894085
 21
342.18289185384566
  0
LINE
  8
_0-3_躯体と製品
  6
CONTINUOUS
 62
    2
 10
117.5169468894087
 20
273.16336385384568
 11
130.67503988940871
 21
286.32145585384563
  0
ARC
  8
_0-3_躯体と製品
  6
CONTINUOUS
 62
    2
 10
126.23092988940857
 20
273.66637885384563
 40
4
 50
30.579228000001208
 51
120.57922800000121
  0
LINE
  8
_0-3_躯体と製品
  6
CONTINUOUS
 62
    2
 10
145.18703388940867
 20
285.55994485384554
 11
141.84732688940858
 21
282.22023685384568
  0
LINE
  8
_0-3_躯体と製品
  6
CONTINUOUS
 62
    2
 10
138.44043288940861
 20
278.55800685384554
 11
143.52772688940854
 21
269.94874085384555
  0
LINE
  8
_0-3_躯体と製品
  6
CONTINUOUS
 62
    2
 10
134.77625888940861
 20
282.22023685384568
 11
141.84732688940858
 21
282.22023685384568
  0
LINE
  8
_0-3_躯体と製品
  6
CONTINUOUS
 62
    2
 10
130.69209488940851
 20
273.97944285384563
 11
141.02321288940857
 21
280.08419485384564
  0
LINE
  8
_0-3_躯体と製品
  6
CONTINUOUS
 62
    2
 10
89.521424889408536
 20
327.47507085384552
 11
120.63412288940867
 21
358.58776985384554
  0
LINE
  8
_0-3_躯体と製品
  6
CONTINUOUS
 62
    2
 10
97.732128889408614
 20
329.16386185384567
 11
101.22259988940868
 21
325.6733908538456
  0
LINE
  8
_0-3_躯体と製品
  6
CONTINUOUS
 62
    2
 10
97.924924889408658
 20
325.97907685384553
 11
101.60718088940871
 21
329.66133185384558
  0
LINE
  8
_0-3_躯体と製品
  6
CONTINUOUS
 62
    2
 10
118.94533188940864
 20
350.37706585384564
 11
122.43580388940859
 21
346.88659385384551
  0
LINE
  8
_0-3_躯体と製品
  6
CONTINUOUS
 62
    2
 10
122.13011788940867
 20
350.18426885384554
 11
118.44786188940861
 21
346.50201385384554
  0
LINE
  8
_0-3_躯体と製品
  6
PLINE3
 62
    2
 10
156.28907588940865
 20
295.52897685384551
 11
168.04741188940852
 21
275.63025485384554
  0
CIRCLE
  8
_0-3_躯体と製品
  6
CONTINUOUS
 62
    2
 10
161.64631688940858
 20
286.46287785384555
 40
7
  0
LINE
  8
_0-3_躯体と製品
  6
CONTINUOUS
 62
    2
 10
160.93920988940863
 20
305.55476085384566
 11
169.89688288940852
 21
290.05845285384567
  0
ARC
  8
_0-3_躯体と製品
  6
CONTINUOUS
 62
    2
 10
161.64631688940858
 20
286.46287785384555
 40
9
 50
297.307107999999
 51
138.73181900000094
  0
LINE
  8
_0-3_躯体と製品
  6
CONTINUOUS
 62
    2
 10
146.11050588940861
 20
271.47492885384554
 11
165.77515488940867
 21
278.46583485384554
  0
LINE
  8
_0-3_躯体と製品
  6
CONTINUOUS
 62
    2
 10
165.88895688940852
 20
306.26186785384562
 11
162.41433788940867
 21
302.78724785384566
  0
LINE
  8
_0-3_躯体と製品
  6
CONTINUOUS
 62
    2
 10
165.88895688940852
 20
313.33293585384564
 11
165.88895688940852
 21
306.26186785384562
  0
LINE
  8
_0-3_躯体と製品
  6
CONTINUOUS
 62
    7
 10
145.51579788940853
 20
477.93904385384553
 11
150.46561788940858
 21
472.98922285384549
  0
LINE
  8
_0-3_躯体と製品
  6
CONTINUOUS
 62
    7
 10
150.46561788940858
 20
472.98922285384549
 11
155.7773358894085
 21
478.30094085384565
  0
LINE
  8
_0-3_躯体と製品
  6
CONTINUOUS
 62
    7
 10
178.05119988940851
 20
476.53317385384548
 11
190.28686788940854
 21
464.29750585384545
  0
LINE
  8
_0-3_躯体と製品
  6
CONTINUOUS
 62
    7
 10
175.92987988940854
 20
474.41185385384551
 11
178.05119988940851
 21
476.53317385384548
  0
LINE
  8
_0-3_躯体と製品
  6
CONTINUOUS
 62
    7
 10
172.39434588940867
 20
477.9473878538455
 11
168.15170488940862
 21
473.70474685384545
  0
LINE
  8
_0-3_躯体と製品
  6
CONTINUOUS
 62
    7
 10
180.52607388940851
 20
469.81565985384555
 11
172.39434588940867
 21
477.9473878538455
  0
LINE
  8
_0-3_躯体と製品
  6
CONTINUOUS
 62
    2
 10
153.54994988940871
 20
478.90198185384543
 11
157.05012888940951
 21
475.40180385384554
  0
LINE
  8
_0-3_躯体と製品
  6
CONTINUOUS
 62
    2
 10
153.30246288940862
 20
478.65449485384556
 11
156.55515388940853
 21
475.40180385384554
  0
LINE
  8
_0-3_躯体と製品
  6
CONTINUOUS
 62
    7
 10
191.48622888940849
 20
477.24028085384543
 11
193.60754888940869
 21
475.11896085384558
  0
LINE
  8
_0-3_躯体と製品
  6
CONTINUOUS
 62
    7
 10
161.7877438894086
 20
481.48292185384548
 11
153.65601588940854
 21
473.35119385384553
  0
LINE
  8
_0-3_躯体と製品
  6
CONTINUOUS
 62
    7
 10
159.38358088940868
 20
477.66454485384554
 11
165.04043488940852
 21
472.00769085384559
  0
LINE
  8
_0-3_躯体と製品
  6
CONTINUOUS
 62
    7
 10
163.2019578894085
 20
478.65449485384556
 11
168.15170488940862
 21
473.70474685384545
  0
LINE
  8
_0-3_躯体と製品
  6
CONTINUOUS
 62
    7
 10
189.48622888940849
 20
476.41185385384551
 11
195.02176288940859
 21
470.87631985384553
  0
LINE
  8
_0-3_躯体と製品
  6
PLINE3
 62
    2
 10
148.47809388940868
 20
486.30728985384542
 11
169.82690888940851
 21
464.95847585384558
  0
LINE
  8
_0-3_躯体と製品
  6
CONTINUOUS
 62
    7
 10
141.98026388940866
 20
474.40350985384555
 11
145.51579788940853
 21
477.93904385384553
  0
LINE
  8
_0-3_躯体と製品
  6
CONTINUOUS
 62
    7
 10
145.16224488940861
 20
480.41391685384565
 11
127.13102188940866
 21
462.38269385384558
  0
ARC
  8
_0-3_躯体と製品
  6
CONTINUOUS
 62
    7
 10
150.46554588940853
 20
476.52482985384552
 40
0.5
 50
225
 51
315
  0
LINE
  8
_0-3_躯体と製品
  6
CONTINUOUS
 62
    7
 10
141.9887538894086
 20
447.54179585384554
 11
158.95931688940868
 21
430.57123385384557
  0
LINE
  8
_0-3_躯体と製品
  6
CONTINUOUS
 62
    7
 10
143.4029678894085
 20
448.95600985384556
 11
151.88824888940871
 21
457.44129085384566
  0
ARC
  8
_0-3_躯体と製品
  6
CONTINUOUS
 62
    5
 10
108.01417288940866
 20
456.13692785384558
 40
20.017077
 50
338.84607200000158
 51
17.778724000000103
  0
LINE
  8
_0-3_躯体と製品
  6
CONTINUOUS
 62
    7
 10
140.9280938894085
 20
449.30956285384548
 11
141.63520088940868
 21
450.01666985384554
  0
LINE
  8
_0-3_躯体と製品
  6
CONTINUOUS
 62
    7
 10
142.34230788940863
 20
450.01666985384554
 11
143.4029678894085
 21
448.95600985384556
  0
LINE
  8
_0-3_躯体と製品
  6
CONTINUOUS
 62
    5
 10
139.86743388940863
 20
452.49154385384554
 11
143.4029678894085
 21
448.95600985384556
  0
ARC
  8
_0-3_躯体と製品
  6
CONTINUOUS
 62
    7
 10
141.28164688940865
 20
448.95600985384556
 40
0.5
 50
135
 51
225
  0
LINE
  8
_0-3_躯体と製品
  6
CONTINUOUS
 62
    7
 10
140.9280938894085
 20
448.60245685384541
 11
141.9887538894086
 21
447.54179585384554
  0
ARC
  8
_0-3_躯体と製品
  6
CONTINUOUS
 62
    7
 10
141.9887538894086
 20
449.66311685384562
 40
0.5
 50
45
 51
135
  0
ARC
  8
_0-3_躯体と製品
  6
CONTINUOUS
 62
    5
 10
139.26553488940863
 20
463.26156285384548
 40
1.2657699999999998
 50
243.28616299999732
 51
314.97941100000247
  0
LINE
  8
_0-3_躯体と製品
  6
CONTINUOUS
 62
    7
 10
133.49498288940867
 20
465.91822785384556
 11
140.56605088940864
 21
472.98929585384553
  0
LINE
  8
_0-3_躯体と製品
  6
CONTINUOUS
 62
    7
 10
128.54523488940868
 20
460.96848085384545
 11
132.08076888940855
 21
464.50401485384543
  0
LINE
  8
_0-3_躯体と製品
  6
CONTINUOUS
 62
    7
 10
127.13102188940866
 20
462.38269385384558
 11
128.54523488940868
 21
460.96848085384545
  0
LINE
  8
_0-3_躯体と製品
  6
CONTINUOUS
 62
    7
 10
134.90919688940858
 20
461.67558785384551
 11
132.08076888940855
 21
464.50401485384543
  0
LINE
  8
_0-3_躯体と製品
  6
CONTINUOUS
 62
    7
 10
137.38406988940869
 20
464.15046085384552
 11
134.90919688940858
 21
461.67558785384551
  0
LINE
  8
_0-3_躯体と製品
  6
CONTINUOUS
 62
    7
 10
136.32340988940859
 20
465.2111218538455
 11
137.38406988940869
 21
464.15046085384552
  0
LINE
  8
_0-3_躯体と製品
  6
CONTINUOUS
 62
    7
 10
135.2627498894085
 20
464.15046085384552
 11
136.32340988940859
 21
465.2111218538455
  0
LINE
  8
_0-3_躯体と製品
  6
CONTINUOUS
 62
    7
 10
133.49498288940867
 20
465.91822785384556
 11
135.2627498894085
 21
464.15046085384552
  0
LINE
  8
_0-3_躯体と製品
  6
CONTINUOUS
 62
    7
 10
144.80869088940858
 20
471.57508285384563
 11
141.98026388940866
 21
474.40350985384555
  0
LINE
  8
_0-3_躯体と製品
  6
CONTINUOUS
 62
    7
 10
142.33381788940869
 20
469.10020885384563
 11
144.80869088940858
 21
471.57508285384563
  0
LINE
  8
_0-3_躯体と製品
  6
CONTINUOUS
 62
    7
 10
141.27315788940859
 20
470.1608688538455
 11
142.33381788940869
 21
469.10020885384563
  0
LINE
  8
_0-3_躯体と製品
  6
CONTINUOUS
 62
    7
 10
142.33381788940869
 20
471.22152885384548
 11
141.27315788940859
 21
470.1608688538455
  0
LINE
  8
_0-3_躯体と製品
  6
CONTINUOUS
 62
    7
 10
140.56605088940864
 20
472.98929585384553
 11
142.33381788940869
 21
471.22152885384548
  0
ARC
  8
_0-3_躯体と製品
  6
CONTINUOUS
 62
    5
 10
143.22271588940862
 20
467.21874385384558
 40
1.2657699999999998
 50
315.02058899999741
 51
26.713837000002634
  0
LINE
  8
_0-3_躯体と製品
  6
CONTINUOUS
 62
    5
 10
137.03051688940855
 20
463.7969078538456
 11
138.69652688940869
 21
462.13089785384545
  0
LINE
  8
_0-3_躯体と製品
  6
CONTINUOUS
 62
    5
 10
142.68737088940861
 20
469.45376185384555
 11
144.35338088940853
 21
467.78775185384552
  0
LINE
  8
_0-3_躯体と製品
  6
CONTINUOUS
 62
    7
 10
175.22277288940859
 20
418.5504178538456
 11
201.59785588940849
 21
444.92550085384562
  0
LINE
  8
_0-3_躯体と製品
  6
CONTINUOUS
 62
    7
 10
202.09283088940856
 20
442.59204885384543
 11
177.34409288940856
 21
417.84331185384553
  0
LINE
  8
_0-3_躯体と製品
  6
CONTINUOUS
 62
    7
 10
192.1226248894086
 20
400.80203785384549
 11
219.13410388940861
 21
427.81351685384561
  0
LINE
  8
_0-3_躯体と製品
  6
CONTINUOUS
 62
    7
 10
172.74789888940859
 20
416.78265085384555
 11
162.14129788940863
 21
427.38925285384551
  0
LINE
  8
_0-3_躯体と製品
  6
CONTINUOUS
 62
    7
 10
164.96972488940855
 20
427.38925285384551
 11
173.80855888940869
 21
418.5504178538456
  0
LINE
  8
_0-3_躯体と製品
  6
CONTINUOUS
 62
    7
 10
216.23496588940861
 20
428.44991285384549
 11
191.48622888940849
 21
403.7011758538456
  0
LINE
  8
_0-3_躯体と製品
  6
CONTINUOUS
 62
    7
 10
174.86921988940867
 20
414.66133085384547
 11
190.42556888940862
 21
399.1049818538454
  0
LINE
  8
_0-3_躯体と製品
  6
CONTINUOUS
 62
    7
 10
177.34409288940856
 20
417.84331185384553
 11
191.48622888940849
 21
403.7011758538456
  0
LINE
  8
_0-3_躯体と製品
  6
CONTINUOUS
 62
    7
 10
164.2626178894086
 20
407.5902628538455
 11
172.74789888940859
 21
416.07554485384549
  0
LINE
  8
_0-3_躯体と製品
  6
CONTINUOUS
 62
    7
 10
164.61617088940852
 20
404.40828285384566
 11
165.67683088940862
 21
405.46894285384553
  0
ARC
  8
_0-3_躯体と製品
  6
CONTINUOUS
 62
    7
 10
163.90906388940857
 20
407.94381685384565
 40
0.5
 50
225
 51
315
  0
LINE
  8
_0-3_躯体と製品
  6
CONTINUOUS
 62
    7
 10
163.55551088940865
 20
407.5902628538455
 11
155.07022988940867
 21
416.07554485384549
  0
ARC
  8
_0-3_躯体と製品
  6
CONTINUOUS
 62
    7
 10
154.71667588940863
 20
415.72199085384557
 40
0.5
 50
45
 51
135
  0
LINE
  8
_0-3_躯体と製品
  6
CONTINUOUS
 62
    7
 10
154.36312288940871
 20
416.07554485384549
 11
153.65601588940854
 21
415.36843785384553
  0
ARC
  8
_0-3_躯体と製品
  6
CONTINUOUS
 62
    7
 10
154.00956988940857
 20
415.01488385384562
 40
0.5
 50
135
 51
225
  0
LINE
  8
_0-3_躯体と製品
  6
CONTINUOUS
 62
    7
 10
153.65601588940854
 20
414.66133085384547
 11
163.90906388940857
 21
404.40828285384566
  0
ARC
  8
_0-3_躯体と製品
  6
CONTINUOUS
 62
    7
 10
164.2626178894086
 20
404.76183585384558
 40
0.5
 50
225
 51
315
  0
LINE
  8
_0-3_躯体と製品
  6
CONTINUOUS
 62
    7
 10
165.60612088940866
 20
405.53965385384549
 11
165.67683088940862
 21
405.46894285384553
  0
ARC
  8
_0-3_躯体と製品
  6
CONTINUOUS
 62
    7
 10
165.8889628894085
 20
405.82249585384557
 40
0.4
 50
135
 51
225
  0
LINE
  8
_0-3_躯体と製品
  6
CONTINUOUS
 62
    7
 10
165.60612088940866
 20
406.10533885384552
 11
174.16211288940872
 21
414.66133085384547
  0
ARC
  8
_0-3_躯体と製品
  6
CONTINUOUS
 62
    7
 10
174.51566588940864
 20
414.30777785384555
 40
0.5
 50
45
 51
135
  0
ARC
  8
_0-3_躯体と製品
  6
CONTINUOUS
 62
    7
 10
172.39434588940867
 20
416.42909785384552
 40
0.5
 50
315.00000000000006
 51
45.00000000000005
  0
ARC
  8
_0-3_躯体と製品
  6
CONTINUOUS
 62
    7
 10
174.51566588940864
 20
419.25752485384555
 40
1
 50
225
 51
315
  0
LINE
  8
_0-3_躯体と製品
  6
CONTINUOUS
 62
    7
 10
192.1226248894086
 20
400.23635285384557
 11
192.19333588940867
 21
400.16564185384561
  0
ARC
  8
_0-3_躯体と製品
  6
CONTINUOUS
 62
    7
 10
192.40546788940856
 20
400.51919485384553
 40
0.4
 50
135
 51
225
  0
LINE
  8
_0-3_躯体と製品
  6
CONTINUOUS
 62
    7
 10
191.13267588940857
 20
399.1049818538454
 11
192.19333588940867
 21
400.16564185384561
  0
ARC
  8
_0-3_躯体と製品
  6
CONTINUOUS
 62
    7
 10
190.77912188940854
 20
399.45853485384555
 40
0.5
 50
225
 51
315
  0
LINE
  8
_0-3_躯体と製品
  6
CONTINUOUS
 62
    2
 10
220.81973588940855
 20
407.49427085384548
 11
220.81973588940855
 21
415.32230685384548
  0
LINE
  8
_0-3_躯体と製品
  6
CONTINUOUS
 62
    7
 10
183.00094788940851
 20
454.61286385384551
 11
189.36490888940853
 21
460.97682485384564
  0
LINE
  8
_0-3_躯体と製品
  6
CONTINUOUS
 62
    7
 10
185.1222678894087
 20
459.56261185384551
 11
160.37353088940858
 21
434.81387385384539
  0
LINE
  8
_0-3_躯体と製品
  6
PLINE3
 62
    2
 10
175.38924588940949
 20
463.97172585384556
 11
185.35534388940869
 21
473.93782285384543
  0
LINE
  8
_0-3_躯体と製品
  6
CONTINUOUS
 62
    7
 10
183.35450088940865
 20
452.13798985384551
 11
184.06160788940861
 21
452.84509685384546
  0
LINE
  8
_0-3_躯体と製品
  6
CONTINUOUS
 62
    7
 10
184.06160788940861
 20
453.55220385384553
 11
183.00094788940851
 21
454.61286385384551
  0
ARC
  8
_0-3_躯体と製品
  6
CONTINUOUS
 62
    7
 10
184.13231788940857
 20
438.77367185384549
 40
1
 50
225
 51
315
  0
ARC
  8
_0-3_躯体と製品
  6
CONTINUOUS
 62
    7
 10
183.92018588940869
 20
440.68286085384557
 40
0.5
 50
225
 51
315
  0
LINE
  8
_0-3_躯体と製品
  6
CONTINUOUS
 62
    7
 10
170.98013188940854
 20
473.70474685384545
 11
185.1222678894087
 21
459.56261185384551
  0
LINE
  8
_0-3_躯体と製品
  6
CONTINUOUS
 62
    7
 10
181.23318088940869
 20
469.10855285384559
 11
189.36490888940853
 21
460.97682485384564
  0
LINE
  8
_0-3_躯体と製品
  6
CONTINUOUS
 62
    7
 10
158.95931688940868
 20
430.57123385384557
 11
181.58673388940861
 21
453.19865085384561
  0
LINE
  8
_0-3_躯体と製品
  6
CONTINUOUS
 62
    7
 10
146.23139488940865
 20
448.95600985384556
 11
170.98013188940854
 21
473.70474685384545
  0
LINE
  8
_0-3_躯体と製品
  6
CONTINUOUS
 62
    7
 10
164.96972488940855
 20
430.92478685384549
 11
162.14129788940863
 21
428.09635985384557
  0
LINE
  8
_0-3_躯体と製品
  6
CONTINUOUS
 62
    7
 10
146.23139488940865
 20
448.95600985384556
 11
160.37353088940858
 21
434.81387385384539
  0
ARC
  8
_0-3_躯体と製品
  6
CONTINUOUS
 62
    7
 10
162.49485088940855
 20
427.74280685384542
 40
0.5
 50
135
 51
225
  0
LINE
  8
_0-3_躯体と製品
  6
CONTINUOUS
 62
    7
 10
166.03038488940865
 20
429.86412685384562
 11
164.96972488940855
 21
428.80346685384563
  0
ARC
  8
_0-3_躯体と製品
  6
CONTINUOUS
 62
    7
 10
165.67683088940862
 20
430.21767985384554
 40
0.5
 50
315.00000000000006
 51
45.00000000000005
  0
LINE
  8
_0-3_躯体と製品
  6
CONTINUOUS
 62
    7
 10
166.03038488940865
 20
430.57123385384557
 11
165.67683088940862
 21
430.92478685384549
  0
ARC
  8
_0-3_躯体と製品
  6
CONTINUOUS
 62
    7
 10
165.67683088940862
 20
428.09635985384557
 40
1
 50
135
 51
225
  0
ARC
  8
_0-3_躯体と製品
  6
CONTINUOUS
 62
    7
 10
165.3232778894087
 20
430.57123385384557
 40
0.5
 50
45
 51
135
  0
LINE
  8
_0-3_躯体と製品
  6
CONTINUOUS
 62
    7
 10
178.12191088940858
 20
444.07697285384552
 11
179.32399188940872
 21
445.27905485384554
  0
ARC
  8
_0-3_躯体と製品
  6
CONTINUOUS
 62
    7
 10
178.4754638894085
 20
443.72341985384548
 40
0.5
 50
135
 51
225
  0
LINE
  8
_0-3_躯体と製品
  6
CONTINUOUS
 62
    7
 10
178.12191088940858
 20
443.36986585384557
 11
183.4252118894085
 21
438.06656585384565
  0
LINE
  8
_0-3_躯体と製品
  6
CONTINUOUS
 62
    7
 10
180.03109888940867
 20
443.86484085384564
 11
183.56663288940854
 21
440.32930685384542
  0
LINE
  8
_0-3_躯体と製品
  6
CONTINUOUS
 62
    7
 10
180.38465188940859
 20
444.21839485384555
 11
180.03109888940867
 21
443.86484085384564
  0
LINE
  8
_0-3_躯体と製品
  6
CONTINUOUS
 62
    7
 10
179.32399188940872
 20
445.27905485384554
 11
180.38465188940859
 21
444.21839485384555
  0
LINE
  8
_0-3_躯体と製品
  6
CONTINUOUS
 62
    7
 10
178.93353188940864
 20
444.96240785384566
 11
179.0073458894085
 21
444.96240785384566
  0
LINE
  8
_0-3_躯体と製品
  6
CONTINUOUS
 62
    5
 10
176.8491188894086
 20
447.04682185384547
 11
178.97043888940857
 21
444.92550085384562
  0
ARC
  8
_0-3_躯体と製品
  6
CONTINUOUS
 62
    5
 10
177.55622488940867
 20
447.75392785384554
 40
1
 50
135
 51
225
  0
LINE
  8
_0-3_躯体と製品
  6
CONTINUOUS
 62
    7
 10
164.19190688940853
 20
469.74494885384547
 11
165.04043488940852
 21
470.59347685384557
  0
LINE
  8
_0-3_躯体と製品
  6
CONTINUOUS
 62
    7
 10
161.08063688940865
 20
466.63367885384548
 11
153.30246288940862
 21
458.85550485384545
  0
LINE
  8
_0-3_躯体と製品
  6
CONTINUOUS
 62
    7
 10
164.33332888940868
 20
472.71479785384543
 11
162.07058688940856
 21
470.45205585384542
  0
LINE
  8
_0-3_躯体と製品
  6
CONTINUOUS
 62
    7
 10
153.65601588940854
 20
473.35119385384553
 11
152.24180288940852
 21
474.76540685384543
  0
LINE
  8
_0-3_躯体と製品
  6
CONTINUOUS
 62
    7
 10
157.12083888940856
 20
475.40180385384554
 11
155.70662588940854
 21
475.40180385384554
  0
LINE
  8
_0-3_躯体と製品
  6
CONTINUOUS
 62
    7
 10
155.70662588940854
 20
475.40180385384554
 11
154.00956988940857
 21
473.70474685384545
  0
LINE
  8
_0-3_躯体と製品
  6
CONTINUOUS
 62
    7
 10
162.77769388940851
 20
469.74494885384547
 11
157.12083888940856
 21
475.40180385384554
  0
ARC
  8
_0-3_躯体と製品
  6
CONTINUOUS
 62
    7
 10
163.48479988940858
 20
470.45205585384542
 40
1
 50
225
 51
315
  0
LINE
  8
_0-3_躯体と製品
  6
CONTINUOUS
 62
    7
 10
154.71667588940863
 20
472.99764085384561
 11
161.08063688940865
 21
466.63367885384548
  0
LINE
  8
_0-3_躯体と製品
  6
CONTINUOUS
 62
    7
 10
154.08027988940853
 20
472.36124385384551
 11
154.71667588940863
 21
472.99764085384561
  0
LINE
  8
_0-3_躯体と製品
  6
CONTINUOUS
 62
    7
 10
153.72672688940861
 20
472.71479785384543
 11
154.08027988940853
 21
472.36124385384551
  0
ARC
  8
_0-3_躯体と製品
  6
CONTINUOUS
 62
    7
 10
154.08027988940853
 20
473.06835085384557
 40
0.5
 50
135
 51
225
  0
LINE
  8
_0-3_躯体と製品
  6
CONTINUOUS
 62
    7
 10
154.00956988940857
 20
473.70474685384545
 11
153.72672688940861
 21
473.42190485384549
  0
LINE
  8
_0-3_躯体と製品
  6
CONTINUOUS
 62
    7
 10
150.82758888940862
 20
458.50195085384553
 11
151.88824888940871
 21
457.44129085384566
  0
ARC
  8
_0-3_躯体と製品
  6
CONTINUOUS
 62
    7
 10
151.18114188940854
 20
458.85550485384545
 40
0.5
 50
135
 51
225
  0
LINE
  8
_0-3_躯体と製品
  6
CONTINUOUS
 62
    7
 10
151.53469588940857
 20
459.91616485384543
 11
150.82758888940862
 21
459.20905785384559
  0
ARC
  8
_0-3_躯体と製品
  6
CONTINUOUS
 62
    7
 10
151.88824888940871
 20
459.56261185384551
 40
0.5
 50
45
 51
135
  0
LINE
  8
_0-3_躯体と製品
  6
CONTINUOUS
 62
    7
 10
153.30246288940862
 20
458.85550485384545
 11
152.24180288940852
 21
459.91616485384543
  0
LINE
  8
_0-3_躯体と製品
  6
CONTINUOUS
 62
    5
 10
151.18114188940854
 20
456.73418485384559
 11
147.64560788940867
 21
460.26971785384558
  0
LINE
  8
_0-3_躯体と製品
  6
CONTINUOUS
 62
    5
 10
146.36432588940852
 20
468.60523385384556
 11
151.1726518894086
 21
463.7969078538456
  0
ARC
  8
_0-3_躯体と製品
  6
CONTINUOUS
 62
    7
 10
183.00094788940851
 20
452.49154385384554
 40
0.5
 50
225
 51
315
  0
LINE
  8
_0-3_躯体と製品
  6
CONTINUOUS
 62
    7
 10
182.6473938894087
 20
452.13798985384551
 11
181.58673388940861
 21
453.19865085384561
  0
ARC
  8
_0-3_躯体と製品
  6
CONTINUOUS
 62
    7
 10
164.33332888940868
 20
471.30058385384564
 40
1
 50
315.00000000000006
 51
45.00000000000005
  0
LINE
  8
_0-3_躯体と製品
  6
CONTINUOUS
 62
    7
 10
180.52607388940851
 20
469.10855285384559
 11
181.23318088940869
 21
469.10855285384559
  0
LINE
  8
_0-3_躯体と製品
  6
CONTINUOUS
 62
    7
 10
180.52607388940851
 20
469.81565985384555
 11
180.52607388940851
 21
469.10855285384559
  0
ARC
  8
_0-3_躯体と製品
  6
CONTINUOUS
 62
    5
 10
164.89369588940872
 20
553.4634568538454
 40
113.06149399999998
 50
289.82524400000312
 51
299.03679799999588
  0
LINE
  8
_0-3_躯体と製品
  6
CONTINUOUS
 62
    7
 10
193.96110288940849
 20
460.62327185384549
 11
217.29562588940871
 21
437.28874785384551
  0
LINE
  8
_0-3_躯体と製品
  6
CONTINUOUS
 62
    7
 10
207.39613188940871
 20
442.94560185384557
 11
192.54688888940859
 21
457.79484485384558
  0
LINE
  8
_0-3_躯体と製品
  6
CONTINUOUS
 62
    7
 10
201.59785588940849
 20
446.33971485384541
 11
198.06232188940862
 21
449.87524885384539
  0
LINE
  8
_0-3_躯体と製品
  6
CONTINUOUS
 62
    7
 10
184.83942488940852
 20
438.06656585384565
 11
196.64810788940849
 21
449.87524885384539
  0
LINE
  8
_0-3_躯体と製品
  6
CONTINUOUS
 62
    7
 10
184.27373988940872
 20
440.32930685384542
 11
195.58744788940862
 21
451.64301585384567
  0
LINE
  8
_0-3_躯体と製品
  6
CONTINUOUS
 62
    7
 10
202.09283088940856
 20
442.59204885384543
 11
216.23496588940861
 21
428.44991285384549
  0
LINE
  8
_0-3_躯体と製品
  6
PLINE3
 62
    2
 10
202.05774188940859
 20
436.9001058538455
 11
213.23320888940862
 21
448.07557285384542
  0
ARC
  8
_0-3_躯体と製品
  6
CONTINUOUS
 62
    7
 10
200.89074888940854
 20
445.63260785384557
 40
1
 50
315.00000000000006
 51
45.00000000000005
  0
LINE
  8
_0-3_躯体と製品
  6
CONTINUOUS
 62
    7
 10
217.29562588940871
 20
437.28874785384551
 11
215.17430588940852
 21
435.16742785384554
  0
LINE
  8
_0-3_躯体と製品
  6
CONTINUOUS
 62
    7
 10
211.63877188940864
 20
438.70296185384552
 11
208.10323788940855
 21
442.23849585384551
  0
LINE
  8
_0-3_躯体と製品
  6
CONTINUOUS
 62
    7
 10
218.70983988940861
 20
431.63189385384555
 11
212.3458788894086
 21
437.99585485384546
  0
ARC
  8
_0-3_躯体と製品
  6
CONTINUOUS
 62
    7
 10
219.41694688940856
 20
427.53067385384543
 40
0.4
 50
45
 51
135
  0
LINE
  8
_0-3_躯体と製品
  6
CONTINUOUS
 62
    7
 10
219.69978988940852
 20
427.81351685384561
 11
219.77049988940871
 21
427.74280685384542
  0
ARC
  8
_0-3_躯体と製品
  6
CONTINUOUS
 62
    7
 10
219.06339288940853
 20
431.98544685384547
 40
0.5
 50
225
 51
315
  0
LINE
  8
_0-3_躯体と製品
  6
CONTINUOUS
 62
    7
 10
207.39613188940871
 20
442.23849585384551
 11
208.10323788940855
 21
442.23849585384551
  0
LINE
  8
_0-3_躯体と製品
  6
CONTINUOUS
 62
    7
 10
207.39613188940871
 20
442.94560185384557
 11
207.39613188940871
 21
442.23849585384551
  0
LINE
  8
_0-3_躯体と製品
  6
CONTINUOUS
 62
    7
 10
211.63877188940864
 20
437.99585485384546
 11
212.3458788894086
 21
437.99585485384546
  0
LINE
  8
_0-3_躯体と製品
  6
CONTINUOUS
 62
    7
 10
211.63877188940864
 20
438.70296185384552
 11
211.63877188940864
 21
437.99585485384546
  0
LINE
  8
_0-3_躯体と製品
  6
CONTINUOUS
 62
    7
 10
198.91084988940861
 20
472.64408685384558
 11
205.62836488940866
 21
465.92657285384541
  0
LINE
  8
_0-3_躯体と製品
  6
CONTINUOUS
 62
    7
 10
199.26440388940864
 20
475.11896085384558
 11
205.62836488940866
 21
468.75499985384556
  0
LINE
  8
_0-3_躯体と製品
  6
PLINE3
 62
    2
 10
190.49891788940863
 20
468.32809685384552
 11
201.70243088940856
 21
457.12458385384559
  0
LINE
  8
_0-3_躯体と製品
  6
PLINE3
 62
    2
 10
190.83276388940862
 20
457.49493285384563
 11
201.42536388940857
 21
468.08753385384557
  0
LINE
  8
_0-3_躯体と製品
  6
CONTINUOUS
 62
    7
 10
197.63533688940856
 20
456.94903685384554
 11
196.56707388940868
 21
459.76104985384563
  0
CIRCLE
  8
_0-3_躯体と製品
  6
CONTINUOUS
 62
    7
 10
196.08242288940869
 20
462.74459185384558
 40
3
  0
ARC
  8
_0-3_躯体と製品
  6
CONTINUOUS
 62
    7
 10
196.08242288940869
 20
462.74459185384558
 40
6
 50
285.00000000000068
 51
225
  0
LINE
  8
_0-3_躯体と製品
  6
CONTINUOUS
 62
    7
 10
196.78952988940864
 20
472.64408685384558
 11
195.02176288940859
 21
470.87631985384553
  0
ARC
  8
_0-3_躯体と製品
  6
CONTINUOUS
 62
    7
 10
197.85018988940851
 20
471.58342685384559
 40
1.5
 50
45
 51
135
  0
LINE
  8
_0-3_躯体と製品
  6
CONTINUOUS
 62
    7
 10
199.26440388940864
 20
475.11896085384558
 11
193.60754888940869
 21
475.11896085384558
  0
ARC
  8
_0-3_躯体と製品
  6
CONTINUOUS
 62
    7
 10
183.70805388940857
 20
453.19865085384561
 40
0.5
 50
315.00000000000006
 51
45.00000000000005
  0
ARC
  8
_0-3_躯体と製品
  6
CONTINUOUS
 62
    7
 10
192.19333588940867
 20
457.44129085384566
 40
0.5
 50
45
 51
135
  0
LINE
  8
_0-3_躯体と製品
  6
CONTINUOUS
 62
    7
 10
191.83978188940864
 20
457.79484485384558
 11
190.63770088940851
 21
456.59276285384556
  0
ARC
  8
_0-3_躯体と製品
  6
CONTINUOUS
 62
    7
 10
197.35521488940867
 20
449.16814185384555
 40
1
 50
45
 51
135
  0
LINE
  8
_0-3_躯体と製品
  6
CONTINUOUS
 62
    7
 10
191.6983608894086
 20
455.53210285384557
 11
190.63770088940851
 21
456.59276285384556
  0
LINE
  8
_0-3_躯体と製品
  6
CONTINUOUS
 62
    7
 10
192.05191388940852
 20
455.88565585384549
 11
191.6983608894086
 21
455.53210285384557
  0
LINE
  8
_0-3_躯体と製品
  6
CONTINUOUS
 62
    7
 10
195.58744788940862
 20
452.35012285384551
 11
192.05191388940852
 21
455.88565585384549
  0
ARC
  8
_0-3_躯体と製品
  6
CONTINUOUS
 62
    7
 10
195.2338948894087
 20
451.99656885384559
 40
0.5
 50
315.00000000000006
 51
45.00000000000005
  0
LINE
  8
_0-3_躯体と製品
  6
CONTINUOUS
 62
    5
 10
188.86993388940868
 20
459.06763685384556
 11
190.99125388940865
 21
456.94631685384559
  0
ARC
  8
_0-3_躯体と製品
  6
CONTINUOUS
 62
    7
 10
188.16282688940851
 20
458.36052985384549
 40
1
 50
45
 51
135
  0
LINE
  8
_0-3_躯体と製品
  6
CONTINUOUS
 62
    2
 10
221.18470788940863
 20
453.19865685384548
 11
219.7704938894085
 21
454.6128698538455
  0
LINE
  8
_0-3_躯体と製品
  6
CONTINUOUS
 62
    7
 10
205.62836488940866
 20
465.92657285384541
 11
208.45679188940858
 21
465.92657285384541
  0
ARC
  8
_0-3_躯体と製品
  6
CONTINUOUS
 62
    7
 10
207.04257788940868
 20
467.34078585384555
 40
2
 50
315.00000000000006
 51
135.00000000000006
  0
ARC
  8
_0-3_躯体と製品
  6
CONTINUOUS
 62
    5
 10
130.44600288940865
 20
504.00389585384551
 40
27.862221000000002
 50
302.4684659999993
 51
328.27082400000091
  0
ARC
  8
_0-3_躯体と製品
  6
CONTINUOUS
 62
    7
 10
145.51579788940853
 20
480.0603638538455
 40
0.5
 50
45
 51
135
  0
LINE
  8
_0-3_躯体と製品
  6
CONTINUOUS
 62
    7
 10
195.37531588940851
 20
481.83647485384563
 11
173.10145288940862
 21
504.11033885384552
  0
LINE
  8
_0-3_躯体と製品
  6
CONTINUOUS
 62
    7
 10
172.39434588940867
 20
501.98901885384555
 11
189.48622888940849
 21
484.89713485384561
  0
LINE
  8
_0-3_躯体と製品
  6
CONTINUOUS
 62
    7
 10
154.36312288940871
 20
489.61464985384566
 11
168.85881188940857
 21
504.11033885384552
  0
LINE
  8
_0-3_躯体と製品
  6
CONTINUOUS
 62
    7
 10
163.90906388940857
 20
480.06870785384558
 11
164.96972488940855
 21
481.12936785384557
  0
LINE
  8
_0-3_躯体と製品
  6
CONTINUOUS
 62
    7
 10
157.54510288940855
 20
488.55398985384545
 11
164.96972488940855
 21
481.12936785384557
  0
LINE
  8
_0-3_躯体と製品
  6
CONTINUOUS
 62
    7
 10
157.54510288940855
 20
489.96820285384558
 11
169.56591888940852
 21
501.98901885384555
  0
LINE
  8
_0-3_躯体と製品
  6
CONTINUOUS
 62
    2
 10
152.24186188940871
 20
477.59389385384554
 11
151.5495868894086
 21
478.28616785384554
  0
LINE
  8
_0-3_躯体と製品
  6
CONTINUOUS
 62
    2
 10
157.1916088894086
 20
482.54364085384566
 11
156.49933388940872
 21
483.23591585384565
  0
ARC
  8
_0-3_躯体と製品
  6
CONTINUOUS
 62
    2
 10
153.5628248894086
 20
482.2478648538455
 40
0.2249999999999999
 50
130.26074499999933
 51
225
  0
ARC
  8
_0-3_躯体と製品
  6
CONTINUOUS
 62
    2
 10
152.53751988940871
 20
481.22255985384561
 40
0.2249999999999999
 50
45
 51
139.73922899999999
  0
LINE
  8
_0-3_躯体と製品
  6
CONTINUOUS
 62
    2
 10
152.67542988940863
 20
481.40284685384552
 11
153.38253688940858
 21
482.10995385384547
  0
ARC
  8
_0-3_躯体と製品
  6
CONTINUOUS
 62
    2
 10
159.07638588940858
 20
475.71001185384557
 40
8.7766380000000002
 50
116.36308300000282
 51
153.28776099999811
  0
ARC
  8
_0-3_躯体と製品
  6
CONTINUOUS
 62
    2
 10
152.4687668894087
 20
479.20534785384541
 40
1.3
 50
151.60155000000049
 51
225
  0
ARC
  8
_0-3_躯体と製品
  6
CONTINUOUS
 62
    2
 10
155.58003588940869
 20
482.31661785384563
 40
1.3
 50
45
 51
118.3984499999994
  0
LINE
  8
_0-3_躯体と製品
  6
CONTINUOUS
 62
    2
 10
155.88340188940856
 20
481.23543485384562
 11
159.38358088940868
 21
477.7352558538455
  0
LINE
  8
_0-3_躯体と製品
  6
CONTINUOUS
 62
    2
 10
156.13088988940854
 20
481.48292185384548
 11
159.38358088940868
 21
478.23023085384546
  0
LINE
  8
_0-3_躯体と製品
  6
CONTINUOUS
 62
    7
 10
163.2019578894085
 20
480.06870785384558
 11
161.7877438894086
 21
481.48292185384548
  0
ARC
  8
_0-3_躯体と製品
  6
CONTINUOUS
 62
    7
 10
163.55551088940865
 20
480.4222618538455
 40
0.5
 50
225
 51
315
  0
ARC
  8
_0-3_躯体と製品
  6
CONTINUOUS
 62
    7
 10
158.2522098894085
 20
489.26109585384552
 40
1
 50
135
 51
225
  0
LINE
  8
_0-3_躯体と製品
  6
CONTINUOUS
 62
    7
 10
156.48444288940868
 20
478.30094085384565
 11
155.7773358894085
 21
478.30094085384565
  0
LINE
  8
_0-3_躯体と製品
  6
CONTINUOUS
 62
    7
 10
156.48444288940868
 20
479.00804785384548
 11
156.48444288940868
 21
478.30094085384565
  0
ARC
  8
_0-3_躯体と製品
  6
CONTINUOUS
 62
    7
 10
154.71667588940863
 20
489.26109585384552
 40
0.5
 50
135
 51
225
  0
LINE
  8
_0-3_躯体と製品
  6
CONTINUOUS
 62
    7
 10
160.37353088940858
 20
482.89713485384561
 11
154.36312288940871
 21
488.9075428538456
  0
LINE
  8
_0-3_躯体と製品
  6
CONTINUOUS
 62
    7
 10
156.48444288940868
 20
479.00804785384548
 11
160.37353088940858
 21
482.89713485384561
  0
LINE
  8
_0-3_躯体と製品
  6
CONTINUOUS
 62
    7
 10
161.00992688940869
 20
480.70510385384557
 11
159.38358088940868
 21
479.07875885384556
  0
ARC
  8
_0-3_躯体と製品
  6
CONTINUOUS
 62
    7
 10
161.71703288940853
 20
479.9979978538455
 40
1
 50
45
 51
135
  0
LINE
  8
_0-3_躯体と製品
  6
CONTINUOUS
 62
    7
 10
162.42413988940871
 20
480.70510385384557
 11
163.83835388940861
 21
479.29089085384567
  0
LINE
  8
_0-3_躯体と製品
  6
CONTINUOUS
 62
    7
 10
159.38358088940868
 20
479.07875885384556
 11
159.38358088940868
 21
477.66454485384554
  0
LINE
  8
_0-3_躯体と製品
  6
CONTINUOUS
 62
    7
 10
163.83835388940861
 20
479.29089085384567
 11
163.2019578894085
 21
478.65449485384556
  0
LINE
  8
_0-3_躯体と製品
  6
CONTINUOUS
 62
    7
 10
150.81917188940861
 20
476.17120385384555
 11
158.95931688940868
 21
484.3113488538454
  0
LINE
  8
_0-3_躯体と製品
  6
CONTINUOUS
 62
    7
 10
145.86935188940856
 20
480.41391685384565
 11
150.1119918894085
 21
476.1712768538456
  0
LINE
  8
_0-3_躯体と製品
  6
CONTINUOUS
 62
    7
 10
170.98013188940854
 20
500.57480485384554
 11
169.56591888940852
 21
501.98901885384555
  0
LINE
  8
_0-3_躯体と製品
  6
CONTINUOUS
 62
    7
 10
170.98013188940854
 20
500.57480485384554
 11
172.39434588940867
 21
501.98901885384555
  0
LINE
  8
_0-3_躯体と製品
  6
CONTINUOUS
 62
    7
 10
168.85881188940857
 20
504.11033885384552
 11
173.10145288940862
 21
504.11033885384552
  0
ARC
  8
_0-3_躯体と製品
  6
CONTINUOUS
 62
    7
 10
195.02176288940859
 20
481.48292185384548
 40
0.5
 50
315.00000000000006
 51
45.00000000000005
  0
LINE
  8
_0-3_躯体と製品
  6
CONTINUOUS
 62
    7
 10
195.37531588940851
 20
481.12936785384557
 11
194.31465588940864
 21
480.06870785384558
  0
LINE
  8
_0-3_躯体と製品
  6
CONTINUOUS
 62
    7
 10
193.19333588940867
 20
481.19002885384555
 11
194.31465588940864
 21
480.06870785384558
  0
ARC
  8
_0-3_躯体と製品
  6
CONTINUOUS
 62
    7
 10
192.48622888940849
 20
480.48292185384548
 40
1
 50
45
 51
180
  0
LINE
  8
_0-3_躯体と製品
  6
CONTINUOUS
 62
    7
 10
191.48622888940849
 20
480.48292185384548
 11
191.48622888940849
 21
477.24028085384543
  0
LINE
  8
_0-3_躯体と製品
  6
CONTINUOUS
 62
    7
 10
189.48622888940849
 20
484.89713485384561
 11
189.48622888940849
 21
476.41185385384551
  0
LINE
  8
_0-4_図面枠
  6
CONTINUOUS
 62
    4
 10
1177.9189908894086
 20
-519.02020514615447
 11
1177.9189908894086
 21
815.97979485384553
  0
LINE
  8
_0-3_躯体と製品
  6
CONTINUOUS
 62
    2
 10
282.6197358894085
 20
453.82250185384555
 11
763.82936788940879
 21
-27.387130146154334
  0
LINE
  8
_0-3_躯体と製品
  6
CONTINUOUS
 62
    2
 10
282.6197358894085
 20
517.46211285384561
 11
827.46897888940839
 21
-27.387130146154334
  0
LINE
  8
_0-3_躯体と製品
  6
PLINE3
 62
    7
 10
296.6197358894085
 20
490.73419085384558
 11
853.76187188940867
 21
-66.407945146154589
  0
LINE
  8
_0-3_躯体と製品
  6
PLINE3
 62
    7
 10
296.6197358894085
 20
490.73419085384558
 11
296.6197358894085
 21
-66.407945146154589
  0
LINE
  8
_0-3_躯体と製品
  6
CONTINUOUS
 62
    2
 10
312.23495988940863
 20
421.37885185384562
 11
771.00094088940841
 21
-37.387130146154448
  0
LINE
  8
_0-3_躯体と製品
  6
CONTINUOUS
 62
    2
 10
758.27301888940883
 20
-37.387130146154448
 11
312.6197358894085
 21
408.2661528538456
  0
LINE
  8
_0-3_躯体と製品
  6
CONTINUOUS
 62
    2
 10
244.6197358894085
 20
-26.793447146154449
 11
244.6197358894085
 21
400.2661528538456
  0
LINE
  8
_0-3_躯体と製品
  6
CONTINUOUS
 62
    2
 10
246.6197358894085
 20
-26.407945146154475
 11
246.6197358894085
 21
398.76362785384549
  0
LINE
  8
_0-3_躯体と製品
  6
CONTINUOUS
 62
    2
 10
252.6197358894085
 20
-30.407945146154475
 11
252.6197358894085
 21
398.76362785384549
  0
LINE
  8
_0-3_躯体と製品
  6
CONTINUOUS
 62
    2
 10
256.6197358894085
 20
-30.407945146154475
 11
256.6197358894085
 21
344.59493385384565
  0
LINE
  8
_0-3_躯体と製品
  6
CONTINUOUS
 62
    2
 10
312.6197358894085
 20
-37.387130146154448
 11
312.6197358894085
 21
409.68036685384561
  0
LINE
  8
_0-3_躯体と製品
  6
CONTINUOUS
 62
    2
 10
320.6197358894085
 20
400.2661528538456
 11
320.6197358894085
 21
-26.407945146154475
  0
LINE
  8
_0-3_躯体と製品
  6
CONTINUOUS
 62
    2
 10
318.6197358894085
 20
398.76362785384549
 11
318.6197358894085
 21
-26.407945146154475
  0
LINE
  8
_0-3_躯体と製品
  6
CONTINUOUS
 62
    2
 10
288.6197358894085
 20
433.68036685384561
 11
288.6197358894085
 21
-31.407945146154532
  0
LINE
  8
_0-3_躯体と製品
  6
CONTINUOUS
 62
    2
 10
356.78268088940877
 20
465.92657285384541
 11
848.07564688940874
 21
-25.366393146154451
  0
LINE
  8
_0-3_躯体と製品
  6
CONTINUOUS
 62
    2
 10
359.61110788940869
 20
468.75499985384556
 11
850.90400088940851
 21
-22.537893146154374
  0
LINE
  8
_0-3_躯体と製品
  6
CONTINUOUS
 62
    2
 10
365.9750688894087
 20
475.11896085384558
 11
857.26796188940853
 21
-16.173932146154357
  0
LINE
  8
_0-3_躯体と製品
  6
CONTINUOUS
 62
    2
 10
369.8641568894086
 20
481.12936785384557
 11
863.63192288940854
 21
-12.638398146154373
  0
LINE
  8
_0-3_躯体と製品
  6
CONTINUOUS
 62
    2
 10
886.2594128894084
 20
14.231585853845615
 11
396.38066088940877
 21
504.11033885384552
  0
LINE
  8
_0-3_躯体と製品
  6
PLINE3
 62
    2
 10
282.6197358894085
 20
-251.69261914615447
 11
282.6197358894085
 21
561.78700485384547
  0
LINE
  8
_0-3_躯体と製品
  6
CONTINUOUS
 62
    5
 10
837.61973588940873
 20
-219.89416714615436
 11
743.13351388940873
 21
-125.40794514615436
  0
LINE
  8
_0-3_躯体と製品
  6
CONTINUOUS
 62
    5
 10
837.61973588940873
 20
-210.74643014615447
 11
752.28125088940851
 21
-125.40794514615436
  0
LINE
  8
_0-3_躯体と製品
  6
CONTINUOUS
 62
    5
 10
837.61973588940873
 20
-201.86005714615453
 11
761.16762388940879
 21
-125.40794514615436
  0
LINE
  8
_0-3_躯体と製品
  6
PLINE2
 62
    3
 10
687.61973588940873
 20
-125.40794514615436
 11
837.61973588940873
 21
-125.40794514615436
  0
ARC
  8
_0-3_躯体と製品
  6
CONTINUOUS
 62
    5
 10
848.56987488940968
 20
-11.415458146154435
 40
26.463977999999997
 50
217.1227750000001
 51
258.93113199999738
  0
LINE
  8
_0-3_躯体と製品
  6
CONTINUOUS
 62
    3
 10
282.6197358894085
 20
-47.407945146154589
 11
862.61973588940873
 21
-47.407945146154589
  0
LINE
  8
_0-3_躯体と製品
  6
CONTINUOUS
 62
    3
 10
282.6197358894085
 20
-84.407945146154589
 11
862.61973588940873
 21
-84.407945146154589
  0
LINE
  8
_0-3_躯体と製品
  6
PLINE3
 62
    2
 10
823.94641788940862
 20
-60.407945146154589
 11
841.98363388940879
 21
-60.407945146154589
  0
LINE
  8
_0-3_躯体と製品
  6
CONTINUOUS
 62
    3
 10
282.6197358894085
 20
-99.407945146154475
 11
857.61973588940873
 21
-99.407945146154475
  0
LINE
  8
_0-3_躯体と製品
  6
CONTINUOUS
 62
    3
 10
282.6197358894085
 20
-37.387130146154448
 11
843.48908888940878
 21
-37.387130146154448
  0
LINE
  8
_0-3_躯体と製品
  6
PLINE3
 62
    7
 10
296.6197358894085
 20
-66.407945146154589
 11
853.76187188940867
 21
-66.407945146154589
  0
LINE
  8
_0-3_躯体と製品
  6
CONTINUOUS
 62
    2
 10
834.66973588940846
 20
-59.907945146154589
 11
833.81592088940943
 21
-59.893041146154474
  0
LINE
  8
_0-3_躯体と製品
  6
CONTINUOUS
 62
    2
 10
834.66973588940846
 20
-60.907945146154589
 11
833.81592088940943
 21
-60.922848146154251
  0
CIRCLE
  8
_0-3_躯体と製品
  6
CONTINUOUS
 62
    2
 10
832.61973588940873
 20
-60.407945146154589
 40
3.5
  0
LINE
  8
_0-3_躯体と製品
  6
CONTINUOUS
 62
    2
 10
824.74105688940881
 20
-24.659208146154469
 11
836.05475888940873
 21
-13.345505146154437
  0
LINE
  8
_0-3_躯体と製品
  6
PLINE2
 62
    3
 10
687.61973588940873
 20
-334.48316814615441
 11
687.61973588940873
 21
-125.40794514615436
  0
LINE
  8
_0-3_躯体と製品
  6
CONTINUOUS
 62
    5
 10
762.58131088940854
 20
-334.48316814615441
 11
687.61973588940873
 21
-259.52159314615437
  0
LINE
  8
_0-3_躯体と製品
  6
CONTINUOUS
 62
    2
 10
782.61973588940873
 20
-144.57438014615434
 11
782.61973588940873
 21
-403.44026314615451
  0
LINE
  8
_0-4_図面枠
  6
CONTINUOUS
 62
    2
 10
313.00299188940858
 20
-466.73261614615444
 11
248.3927138894087
 21
-466.73261614615444
  0
LINE
  8
_0-4_図面枠
  6
CONTINUOUS
 62
    2
 10
248.3927138894087
 20
-438.81383414615448
 11
313.00299188940858
 21
-438.81383414615448
  0
TEXT
  8
_0-4_図面枠
 62
    7
 10
254.1940408894086
 20
-462.38163514615451
 40
20
 41
0.8000000000000001
 50
0
  1
正面図
  0
LINE
  8
_0-4_図面枠
  6
CONTINUOUS
 62
    2
 10
248.3927138894087
 20
-466.73261614615444
 11
248.3927138894087
 21
-438.81383414615448
  0
LINE
  8
_0-4_図面枠
  6
CONTINUOUS
 62
    2
 10
313.00299188940858
 20
-438.81383414615448
 11
313.00299188940858
 21
-466.73261614615444
  0
LINE
  8
_0-3_躯体と製品
  6
CONTINUOUS
 62
    5
 10
748.46765988940979
 20
-334.48316814615441
 11
687.61973588940873
 21
-273.63524514615449
  0
LINE
  8
_0-3_躯体と製品
  6
CONTINUOUS
 62
    5
 10
755.00175788940851
 20
-334.48316814615441
 11
687.61973588940873
 21
-267.1011471461544
  0
LINE
  8
_0-3_躯体と製品
  6
PLINE3
 62
    2
 10
282.6197358894085
 20
-60.407945146154589
 11
291.15670288940851
 21
-60.407945146154589
  0
LINE
  8
_0-3_躯体と製品
  6
CONTINUOUS
 62
    2
 10
283.1197358894085
 20
-62.457945146154429
 11
282.6197358894085
 21
-62.457945146154429
  0
LINE
  8
_0-3_躯体と製品
  6
CONTINUOUS
 62
    2
 10
282.6197358894085
 20
-58.35794514615452
 11
283.1197358894085
 21
-58.35794514615452
  0
LINE
  8
_0-3_躯体と製品
  6
CONTINUOUS
 62
    2
 10
283.13463988940862
 20
-61.604130146154489
 11
283.1197358894085
 21
-62.457945146154429
  0
LINE
  8
_0-3_躯体と製品
  6
CONTINUOUS
 62
    2
 10
283.13463988940862
 20
-59.211760146154347
 11
283.1197358894085
 21
-58.35794514615452
  0
LINE
  8
_0-3_躯体と製品
  6
CONTINUOUS
 62
    2
 10
283.34452088940861
 20
-59.683160146154478
 11
283.13463988940862
 21
-59.211760146154347
  0
LINE
  8
_0-3_躯体と製品
  6
CONTINUOUS
 62
    2
 10
283.81592088940852
 20
-59.893041146154474
 11
283.34452088940861
 21
-59.683160146154478
  0
LINE
  8
_0-3_躯体と製品
  6
CONTINUOUS
 62
    2
 10
284.66973588940868
 20
-59.907945146154589
 11
283.81592088940852
 21
-59.893041146154474
  0
LINE
  8
_0-3_躯体と製品
  6
CONTINUOUS
 62
    2
 10
283.34452088940861
 20
-61.132729146154475
 11
283.13463988940862
 21
-61.604130146154489
  0
LINE
  8
_0-3_躯体と製品
  6
CONTINUOUS
 62
    2
 10
284.66973588940868
 20
-60.907945146154589
 11
283.81592088940852
 21
-60.922848146154251
  0
LINE
  8
_0-3_躯体と製品
  6
CONTINUOUS
 62
    2
 10
283.34452088940861
 20
-61.132729146154475
 11
283.81592088940852
 21
-60.922848146154251
  0
ARC
  8
_0-3_躯体と製品
  6
CONTINUOUS
 62
    2
 10
282.6197358894085
 20
-60.407945146154589
 40
3.5
 50
270
 51
90
  0
LINE
  8
_0-3_躯体と製品
  6
CONTINUOUS
 62
    2
 10
284.66973588940868
 20
-59.907945146154589
 11
284.66973588940868
 21
-60.907945146154589
  0
LINE
  8
_0-3_躯体と製品
  6
CONTINUOUS
 62
    2
 10
312.6197358894085
 20
-31.407945146154532
 11
282.6197358894085
 21
-31.407945146154532
  0
LINE
  8
_0-3_躯体と製品
  6
PLINE3
 62
    2
 10
284.6197358894085
 20
-34.407945146154475
 11
239.1197358894085
 21
-34.407945146154475
  0
LINE
  8
_0-3_躯体と製品
  6
CONTINUOUS
 62
    2
 10
282.6197358894085
 20
-38.407945146154475
 11
249.6197358894085
 21
-38.407945146154475
  0
LINE
  8
_0-3_躯体と製品
  6
CONTINUOUS
 62
    2
 10
282.6197358894085
 20
-30.407945146154475
 11
249.6197358894085
 21
-30.407945146154475
  0
LINE
  8
_0-3_躯体と製品
  6
CONTINUOUS
 62
    2
 10
244.84230588940864
 20
-26.407945146154475
 11
244.1197358894085
 21
-27.659472146154485
  0
LINE
  8
_0-3_躯体と製品
  6
CONTINUOUS
 62
    7
 10
249.6197358894085
 20
-24.407945146154475
 11
249.6197358894085
 21
-42.407945146154475
  0
LINE
  8
_0-3_躯体と製品
  6
CONTINUOUS
 62
    2
 10
223.6197358894085
 20
-42.407945146154475
 11
223.6197358894085
 21
-40.994236146154378
  0
ARC
  8
_0-3_躯体と製品
  6
CONTINUOUS
 62
    2
 10
227.6197358894085
 20
-52.307945146154452
 40
12
 50
90
 51
109.47122100000171
  0
ARC
  8
_0-3_躯体と製品
  6
CONTINUOUS
 62
    2
 10
233.5494038894085
 20
-43.363945146154435
 40
3.056
 50
90
 51
129.15613200000271
  0
ARC
  8
_0-3_躯体と製品
  6
CONTINUOUS
 62
    2
 10
227.6197358894085
 20
-52.307945146154452
 40
12
 50
70.528778999998195
 51
90
  0
LINE
  8
_0-3_躯体と製品
  6
CONTINUOUS
 62
    2
 10
231.6197358894085
 20
-42.407945146154475
 11
231.6197358894085
 21
-40.994236146154378
  0
LINE
  8
_0-3_躯体と製品
  6
CONTINUOUS
 62
    2
 10
234.36820888940861
 20
-40.307945146154452
 11
227.6197358894085
 21
-40.307945146154452
  0
LINE
  8
_0-3_躯体と製品
  6
CONTINUOUS
 62
    2
 10
235.6197358894085
 20
-41.030515146154357
 11
234.36820888940861
 21
-40.307945146154452
  0
LINE
  8
_0-3_躯体と製品
  6
CONTINUOUS
 62
    2
 10
223.6197358894085
 20
-36.407945146154532
 11
224.6197358894085
 21
-35.407945146154475
  0
LINE
  8
_0-3_躯体と製品
  6
CONTINUOUS
 62
    2
 10
224.6197358894085
 20
-35.407945146154475
 11
230.6197358894085
 21
-35.407945146154475
  0
LINE
  8
_0-3_躯体と製品
  6
CONTINUOUS
 62
    2
 10
223.6197358894085
 20
-40.307945146154452
 11
223.6197358894085
 21
-36.407945146154532
  0
LINE
  8
_0-3_躯体と製品
  6
CONTINUOUS
 62
    2
 10
231.6197358894085
 20
-36.407945146154532
 11
230.6197358894085
 21
-35.407945146154475
  0
LINE
  8
_0-3_躯体と製品
  6
CONTINUOUS
 62
    2
 10
231.6197358894085
 20
-40.307945146154452
 11
231.6197358894085
 21
-36.407945146154532
  0
LINE
  8
_0-3_躯体と製品
  6
CONTINUOUS
 62
    2
 10
235.6197358894085
 20
-41.030515146154357
 11
235.6197358894085
 21
-42.407945146154475
  0
LINE
  8
_0-3_躯体と製品
  6
PLINE3
 62
    2
 10
227.6197358894085
 20
-33.407945146154475
 11
227.6197358894085
 21
-42.407945146154475
  0
LINE
  8
_0-3_躯体と製品
  6
CONTINUOUS
 62
    2
 10
249.6197358894085
 20
-38.407945146154475
 11
244.8060278894086
 21
-38.407945146154475
  0
LINE
  8
_0-3_躯体と製品
  6
CONTINUOUS
 62
    2
 10
249.6197358894085
 20
-30.407945146154475
 11
244.8060278894086
 21
-30.407945146154475
  0
ARC
  8
_0-3_躯体と製品
  6
CONTINUOUS
 62
    2
 10
247.17573588940854
 20
-28.478277146154369
 40
3.056
 50
180
 51
219.15613200000271
  0
ARC
  8
_0-3_躯体と製品
  6
CONTINUOUS
 62
    2
 10
256.1197358894085
 20
-34.407945146154475
 40
12
 50
160.52877899999822
 51
180.00000000000003
  0
LINE
  8
_0-3_躯体と製品
  6
CONTINUOUS
 62
    2
 10
244.1197358894085
 20
-27.659472146154485
 11
244.1197358894085
 21
-34.407945146154475
  0
ARC
  8
_0-3_躯体と製品
  6
CONTINUOUS
 62
    2
 10
247.17573588940854
 20
-40.337613146154354
 40
3.056
 50
140.8438679999972
 51
180
  0
ARC
  8
_0-3_躯体と製品
  6
CONTINUOUS
 62
    2
 10
256.1197358894085
 20
-34.407945146154475
 40
12
 50
180
 51
199.47122100000169
  0
LINE
  8
_0-3_躯体と製品
  6
CONTINUOUS
 62
    2
 10
244.1197358894085
 20
-41.156417146154467
 11
244.1197358894085
 21
-34.407945146154475
  0
LINE
  8
_0-3_躯体と製品
  6
CONTINUOUS
 62
    2
 10
244.84230588940864
 20
-42.407945146154475
 11
244.1197358894085
 21
-41.156417146154467
  0
LINE
  8
_0-3_躯体と製品
  6
CONTINUOUS
 62
    2
 10
249.6197358894085
 20
-42.407945146154475
 11
244.84230588940864
 21
-42.407945146154475
  0
LINE
  8
_0-3_躯体と製品
  6
CONTINUOUS
 62
    2
 10
252.6197358894085
 20
-42.407945146154475
 11
252.6197358894085
 21
-38.407945146154475
  0
LINE
  8
_0-3_躯体と製品
  6
CONTINUOUS
 62
    2
 10
256.6197358894085
 20
-42.407945146154475
 11
256.6197358894085
 21
-38.407945146154475
  0
LINE
  8
_0-3_躯体と製品
  6
CONTINUOUS
 62
    2
 10
256.6197358894085
 20
-29.907945146154475
 11
249.6197358894085
 21
-29.907945146154475
  0
LINE
  8
_0-3_躯体と製品
  6
CONTINUOUS
 62
    2
 10
256.6197358894085
 20
-38.907945146154475
 11
249.6197358894085
 21
-38.907945146154475
  0
LINE
  8
_0-3_躯体と製品
  6
CONTINUOUS
 62
    2
 10
249.6197358894085
 20
-26.407945146154475
 11
244.84230588940864
 21
-26.407945146154475
  0
LINE
  8
_0-3_躯体と製品
  6
CONTINUOUS
 62
    7
 10
252.6197358894085
 20
-24.407945146154475
 11
249.6197358894085
 21
-24.407945146154475
  0
LINE
  8
_0-3_躯体と製品
  6
PLINE3
 62
    2
 10
288.6197358894085
 20
-6.407945146154475
 11
277.12481088940854
 21
-6.407945146154475
  0
LINE
  8
_0-3_躯体と製品
  6
CONTINUOUS
 62
    2
 10
283.1197358894085
 20
-8.4579451461544863
 11
282.6197358894085
 21
-8.4579451461544863
  0
LINE
  8
_0-3_躯体と製品
  6
CONTINUOUS
 62
    2
 10
282.6197358894085
 20
-4.3579451461545773
 11
283.1197358894085
 21
-4.3579451461545773
  0
LINE
  8
_0-3_躯体と製品
  6
CONTINUOUS
 62
    2
 10
283.13463988940862
 20
-7.6041301461543753
 11
283.1197358894085
 21
-8.4579451461544863
  0
LINE
  8
_0-3_躯体と製品
  6
CONTINUOUS
 62
    2
 10
283.13463988940862
 20
-5.2117601461543472
 11
283.1197358894085
 21
-4.3579451461545773
  0
LINE
  8
_0-3_躯体と製品
  6
CONTINUOUS
 62
    2
 10
283.34452088940861
 20
-5.6831601461544778
 11
283.13463988940862
 21
-5.2117601461543472
  0
LINE
  8
_0-3_躯体と製品
  6
CONTINUOUS
 62
    2
 10
283.81592088940852
 20
-5.8930421461544711
 11
283.34452088940861
 21
-5.6831601461544778
  0
LINE
  8
_0-3_躯体と製品
  6
CONTINUOUS
 62
    2
 10
284.66973588940868
 20
-5.907945146154475
 11
283.81592088940852
 21
-5.8930421461544711
  0
LINE
  8
_0-3_躯体と製品
  6
CONTINUOUS
 62
    2
 10
283.34452088940861
 20
-7.1327291461544746
 11
283.13463988940862
 21
-7.6041301461543753
  0
LINE
  8
_0-3_躯体と製品
  6
CONTINUOUS
 62
    2
 10
284.66973588940868
 20
-6.907945146154475
 11
283.81592088940852
 21
-6.9228481461544789
  0
LINE
  8
_0-3_躯体と製品
  6
CONTINUOUS
 62
    2
 10
283.34452088940861
 20
-7.1327291461544746
 11
283.81592088940852
 21
-6.9228481461544789
  0
ARC
  8
_0-3_躯体と製品
  6
CONTINUOUS
 62
    2
 10
282.6197358894085
 20
-6.407945146154475
 40
3.5
 50
270.39569999999748
 51
89.838961999999313
  0
LINE
  8
_0-3_躯体と製品
  6
CONTINUOUS
 62
    2
 10
284.66973588940868
 20
-5.907945146154475
 11
284.66973588940868
 21
-6.907945146154475
  0
LINE
  8
_0-3_躯体と製品
  6
CONTINUOUS
 62
    2
 10
322.39716688940871
 20
-26.407945146154475
 11
323.11973588940873
 21
-27.659472146154485
  0
LINE
  8
_0-3_躯体と製品
  6
CONTINUOUS
 62
    2
 10
317.6197358894085
 20
-37.387130146154448
 11
317.6197358894085
 21
-26.407945146154475
  0
LINE
  8
_0-3_躯体と製品
  6
CONTINUOUS
 62
    7
 10
315.6197358894085
 20
-37.387130146154448
 11
315.6197358894085
 21
-24.407945146154475
  0
LINE
  8
_0-3_躯体と製品
  6
CONTINUOUS
 62
    2
 10
317.6197358894085
 20
-30.407945146154475
 11
322.43344488940875
 21
-30.407945146154475
  0
LINE
  8
_0-3_躯体と製品
  6
CONTINUOUS
 62
    2
 10
317.6197358894085
 20
-34.407945146154475
 11
315.6197358894085
 21
-32.407945146154532
  0
LINE
  8
_0-3_躯体と製品
  6
CONTINUOUS
 62
    2
 10
317.6197358894085
 20
-36.407945146154532
 11
315.6197358894085
 21
-34.407945146154475
  0
LINE
  8
_0-3_躯体と製品
  6
CONTINUOUS
 62
    2
 10
323.11973588940873
 20
-30.407945146154475
 11
328.61973588940873
 21
-30.407945146154475
  0
LINE
  8
_0-3_躯体と製品
  6
CONTINUOUS
 62
    2
 10
323.11973588940873
 20
-37.387130146154448
 11
323.11973588940873
 21
-27.659472146154485
  0
ARC
  8
_0-3_躯体と製品
  6
CONTINUOUS
 62
    2
 10
311.1197358894085
 20
-34.407945146154475
 40
12
 50
345.62510900000228
 51
19.471221000001783
  0
ARC
  8
_0-3_躯体と製品
  6
CONTINUOUS
 62
    2
 10
320.06373588940869
 20
-28.478277146154369
 40
3.056
 50
320.8438679999972
 51
0.0000000000000254
  0
LINE
  8
_0-3_躯体と製品
  6
CONTINUOUS
 62
    2
 10
329.61973588940873
 20
-37.387130146154448
 11
329.61973588940873
 21
-31.407945146154532
  0
LINE
  8
_0-3_躯体と製品
  6
CONTINUOUS
 62
    2
 10
328.61973588940873
 20
-30.407945146154475
 11
329.61973588940873
 21
-31.407945146154532
  0
LINE
  8
_0-3_躯体と製品
  6
CONTINUOUS
 62
    2
 10
317.6197358894085
 20
-26.407945146154475
 11
322.39716688940871
 21
-26.407945146154475
  0
LINE
  8
_0-3_躯体と製品
  6
CONTINUOUS
 62
    2
 10
317.6197358894085
 20
-26.607945146154464
 11
315.6197358894085
 21
-26.607945146154464
  0
LINE
  8
_0-3_躯体と製品
  6
CONTINUOUS
 62
    7
 10
312.6197358894085
 20
-24.407945146154475
 11
315.6197358894085
 21
-24.407945146154475
  0
LINE
  8
_0-3_躯体と製品
  6
PLINE3
 62
    2
 10
832.61973588940873
 20
-50.407945146154589
 11
832.61973588940873
 21
-70.407945146154589
  0
LINE
  8
_0-3_躯体と製品
  6
PLINE2
 62
    7
 10
822.61973588940873
 20
-55.407945146154589
 11
822.61973588940873
 21
-49.407945146154475
  0
LINE
  8
_0-3_躯体と製品
  6
PLINE3
 62
    2
 10
602.61973588940873
 20
-50.407945146154589
 11
602.61973588940873
 21
-70.407945146154589
  0
LINE
  8
_0-3_躯体と製品
  6
PLINE3
 62
    2
 10
593.13389888940856
 20
-60.407945146154589
 11
613.24619288940858
 21
-60.407945146154589
  0
CIRCLE
  8
_0-3_躯体と製品
  6
CONTINUOUS
 62
    2
 10
602.61973588940873
 20
-60.407945146154589
 40
3.5
  0
LINE
  8
_0-3_躯体と製品
  6
CONTINUOUS
 62
    2
 10
603.13463988940839
 20
-61.604130146154489
 11
603.11973588940873
 21
-62.457945146154429
  0
LINE
  8
_0-3_躯体と製品
  6
CONTINUOUS
 62
    2
 10
602.1048328894085
 20
-61.604130146154489
 11
602.11973588940873
 21
-62.457945146154429
  0
LINE
  8
_0-3_躯体と製品
  6
CONTINUOUS
 62
    2
 10
601.89495188940873
 20
-61.132729146154475
 11
602.1048328894085
 21
-61.604130146154489
  0
LINE
  8
_0-3_躯体と製品
  6
CONTINUOUS
 62
    2
 10
601.42355088940849
 20
-60.922848146154251
 11
601.89495188940873
 21
-61.132729146154475
  0
LINE
  8
_0-3_躯体と製品
  6
CONTINUOUS
 62
    2
 10
600.56973588940855
 20
-60.907945146154589
 11
601.42355088940849
 21
-60.922848146154251
  0
LINE
  8
_0-3_躯体と製品
  6
CONTINUOUS
 62
    2
 10
601.42355088940849
 20
-59.893041146154474
 11
600.56973588940855
 21
-59.907945146154589
  0
LINE
  8
_0-3_躯体と製品
  6
CONTINUOUS
 62
    2
 10
601.89495188940873
 20
-59.683160146154478
 11
601.42355088940849
 21
-59.893041146154474
  0
LINE
  8
_0-3_躯体と製品
  6
CONTINUOUS
 62
    2
 10
602.1048328894085
 20
-59.211760146154347
 11
601.89495188940873
 21
-59.683160146154478
  0
LINE
  8
_0-3_躯体と製品
  6
CONTINUOUS
 62
    2
 10
602.11973588940873
 20
-58.35794514615452
 11
602.1048328894085
 21
-59.211760146154347
  0
LINE
  8
_0-3_躯体と製品
  6
CONTINUOUS
 62
    2
 10
603.13463988940839
 20
-59.211760146154347
 11
603.11973588940873
 21
-58.35794514615452
  0
LINE
  8
_0-3_躯体と製品
  6
CONTINUOUS
 62
    2
 10
603.34452088940861
 20
-59.683160146154478
 11
603.13463988940839
 21
-59.211760146154347
  0
LINE
  8
_0-3_躯体と製品
  6
CONTINUOUS
 62
    2
 10
603.81592088940852
 20
-59.893041146154474
 11
603.34452088940861
 21
-59.683160146154478
  0
LINE
  8
_0-3_躯体と製品
  6
CONTINUOUS
 62
    2
 10
604.66973588940846
 20
-59.907945146154589
 11
603.81592088940852
 21
-59.893041146154474
  0
LINE
  8
_0-3_躯体と製品
  6
CONTINUOUS
 62
    2
 10
603.34452088940861
 20
-61.132729146154475
 11
603.13463988940839
 21
-61.604130146154489
  0
LINE
  8
_0-3_躯体と製品
  6
CONTINUOUS
 62
    2
 10
604.66973588940846
 20
-60.907945146154589
 11
603.81592088940852
 21
-60.922848146154251
  0
LINE
  8
_0-3_躯体と製品
  6
CONTINUOUS
 62
    2
 10
603.34452088940861
 20
-61.132729146154475
 11
603.81592088940852
 21
-60.922848146154251
  0
LINE
  8
_0-3_躯体と製品
  6
CONTINUOUS
 62
    2
 10
600.56973588940855
 20
-60.907945146154589
 11
600.56973588940855
 21
-59.907945146154589
  0
LINE
  8
_0-3_躯体と製品
  6
CONTINUOUS
 62
    2
 10
603.11973588940873
 20
-62.457945146154429
 11
602.11973588940873
 21
-62.457945146154429
  0
LINE
  8
_0-3_躯体と製品
  6
CONTINUOUS
 62
    2
 10
604.66973588940846
 20
-59.907945146154589
 11
604.66973588940846
 21
-60.907945146154589
  0
LINE
  8
_0-3_躯体と製品
  6
CONTINUOUS
 62
    2
 10
602.11973588940873
 20
-58.35794514615452
 11
603.11973588940873
 21
-58.35794514615452
  0
LINE
  8
_0-3_躯体と製品
  6
PLINE2
 62
    7
 10
772.61973588940873
 20
-121.40794514615436
 11
730.61973588940873
 21
-121.40794514615436
  0
LINE
  8
_0-3_躯体と製品
  6
PLINE2
 62
    7
 10
735.61973588940873
 20
-59.407945146154589
 11
775.61973588940873
 21
-59.407945146154589
  0
LINE
  8
_0-3_躯体と製品
  6
PLINE2
 62
    7
 10
732.61973588940873
 20
-55.407945146154589
 11
782.61973588940873
 21
-55.407945146154589
  0
LINE
  8
_0-3_躯体と製品
  6
CONTINUOUS
 62
    7
 10
753.61973588940873
 20
-116.33084514615439
 11
753.61973588940873
 21
-137.41313614615444
  0
LINE
  8
_0-3_躯体と製品
  6
CONTINUOUS
 62
    7
 10
728.61973588940873
 20
-123.40794514615447
 11
728.61973588940873
 21
-125.40794514615436
  0
ARC
  8
_0-3_躯体と製品
  6
CONTINUOUS
 62
    7
 10
730.61973588940873
 20
-123.40794514615447
 40
2
 50
90
 51
180
  0
ARC
  8
_0-3_躯体と製品
  6
PLINE2
 62
    7
 10
735.61973588940873
 20
-56.407945146154589
 40
3
 50
180
 51
270
  0
LINE
  8
_0-3_躯体と製品
  6
PLINE2
 62
    7
 10
732.61973588940873
 20
-56.407945146154589
 11
732.61973588940873
 21
-55.407945146154589
  0
LINE
  8
_0-3_躯体と製品
  6
PLINE2
 62
    7
 10
774.61973588940873
 20
-77.407945146154589
 11
774.61973588940873
 21
-119.40794514615447
  0
LINE
  8
_0-3_躯体と製品
  6
PLINE2
 62
    7
 10
778.61973588940873
 20
-125.40794514615436
 11
778.61973588940873
 21
-75.407945146154589
  0
ARC
  8
_0-3_躯体と製品
  6
CONTINUOUS
 62
    7
 10
772.61973588940873
 20
-119.40794514615447
 40
2
 50
270
 51
0
  0
LINE
  8
_0-3_躯体と製品
  6
PLINE2
 62
    7
 10
782.61973588940873
 20
-55.407945146154589
 11
782.61973588940873
 21
-105.40794514615447
  0
LINE
  8
_0-3_躯体と製品
  6
CONTINUOUS
 62
    7
 10
782.61973588940873
 20
-105.40794514615447
 11
781.61973588940873
 21
-105.40794514615447
  0
ARC
  8
_0-3_躯体と製品
  6
CONTINUOUS
 62
    7
 10
781.61973588940873
 20
-102.40794514615447
 40
3
 50
180
 51
270
  0
LINE
  8
_0-3_躯体と製品
  6
CONTINUOUS
 62
    7
 10
778.61973588940873
 20
-75.407945146154589
 11
776.61973588940873
 21
-75.407945146154589
  0
ARC
  8
_0-3_躯体と製品
  6
PLINE2
 62
    7
 10
775.61973588940873
 20
-62.407945146154589
 40
3
 50
0
 51
90
  0
ARC
  8
_0-3_躯体と製品
  6
CONTINUOUS
 62
    7
 10
776.61973588940873
 20
-77.407945146154589
 40
2
 50
90
 51
180
  0
LINE
  8
_0-3_躯体と製品
  6
PLINE2
 62
    7
 10
778.61973588940873
 20
-62.407945146154589
 11
778.61973588940873
 21
-77.407945146154589
  0
LINE
  8
_0-3_躯体と製品
  6
PLINE2
 62
    7
 10
810.11973588940873
 20
-55.407945146154589
 11
822.61973588940873
 21
-55.407945146154589
  0
LINE
  8
_0-3_躯体と製品
  6
PLINE2
 62
    7
 10
810.11973588940873
 20
-67.907945146154589
 11
810.11973588940873
 21
-55.407945146154589
  0
LINE
  8
_0-3_躯体と製品
  6
PLINE2
 62
    7
 10
807.11973588940873
 20
-55.407945146154589
 11
807.11973588940873
 21
-62.307945146154339
  0
LINE
  8
_0-3_躯体と製品
  6
CONTINUOUS
 62
    2
 10
833.13463988940975
 20
-61.604130146154489
 11
833.11973588940873
 21
-62.457945146154429
  0
LINE
  8
_0-3_躯体と製品
  6
CONTINUOUS
 62
    2
 10
832.1048328894085
 20
-61.604130146154489
 11
832.11973588940873
 21
-62.457945146154429
  0
LINE
  8
_0-3_躯体と製品
  6
CONTINUOUS
 62
    2
 10
831.89495188940873
 20
-61.132729146154475
 11
832.1048328894085
 21
-61.604130146154489
  0
LINE
  8
_0-3_躯体と製品
  6
CONTINUOUS
 62
    2
 10
831.42355088940849
 20
-60.922848146154251
 11
831.89495188940873
 21
-61.132729146154475
  0
LINE
  8
_0-3_躯体と製品
  6
CONTINUOUS
 62
    2
 10
830.56973588940855
 20
-60.907945146154589
 11
831.42355088940849
 21
-60.922848146154251
  0
LINE
  8
_0-3_躯体と製品
  6
CONTINUOUS
 62
    2
 10
831.42355088940849
 20
-59.893041146154474
 11
830.56973588940855
 21
-59.907945146154589
  0
LINE
  8
_0-3_躯体と製品
  6
CONTINUOUS
 62
    2
 10
831.89495188940873
 20
-59.683160146154478
 11
831.42355088940849
 21
-59.893041146154474
  0
LINE
  8
_0-3_躯体と製品
  6
CONTINUOUS
 62
    2
 10
832.1048328894085
 20
-59.211760146154347
 11
831.89495188940873
 21
-59.683160146154478
  0
LINE
  8
_0-3_躯体と製品
  6
CONTINUOUS
 62
    2
 10
832.11973588940873
 20
-58.35794514615452
 11
832.1048328894085
 21
-59.211760146154347
  0
LINE
  8
_0-3_躯体と製品
  6
CONTINUOUS
 62
    2
 10
833.13463988940975
 20
-59.211760146154347
 11
833.11973588940873
 21
-58.35794514615452
  0
LINE
  8
_0-3_躯体と製品
  6
CONTINUOUS
 62
    2
 10
833.34452088940952
 20
-59.683160146154478
 11
833.13463988940975
 21
-59.211760146154347
  0
LINE
  8
_0-3_躯体と製品
  6
CONTINUOUS
 62
    2
 10
833.81592088940943
 20
-59.893041146154474
 11
833.34452088940952
 21
-59.683160146154478
  0
LINE
  8
_0-3_躯体と製品
  6
CONTINUOUS
 62
    2
 10
833.34452088940952
 20
-61.132729146154475
 11
833.13463988940975
 21
-61.604130146154489
  0
LINE
  8
_0-3_躯体と製品
  6
CONTINUOUS
 62
    2
 10
833.34452088940952
 20
-61.132729146154475
 11
833.81592088940943
 21
-60.922848146154251
  0
LINE
  8
_0-3_躯体と製品
  6
CONTINUOUS
 62
    2
 10
830.56973588940855
 20
-60.907945146154589
 11
830.56973588940855
 21
-59.907945146154589
  0
LINE
  8
_0-3_躯体と製品
  6
CONTINUOUS
 62
    2
 10
833.11973588940873
 20
-62.457945146154429
 11
832.11973588940873
 21
-62.457945146154429
  0
LINE
  8
_0-3_躯体と製品
  6
CONTINUOUS
 62
    2
 10
832.11973588940873
 20
-58.35794514615452
 11
833.11973588940873
 21
-58.35794514615452
  0
LINE
  8
_0-3_躯体と製品
  6
CONTINUOUS
 62
    2
 10
763.82936788940879
 20
-27.387130146154334
 11
827.46897888940839
 21
-27.387130146154334
  0
LINE
  8
_0-3_躯体と製品
  6
PLINE2
 62
    7
 10
820.61973588940873
 20
-52.407945146154589
 11
796.66964788940868
 21
-52.407945146154589
  0
LINE
  8
_0-3_躯体と製品
  6
PLINE2
 62
    7
 10
820.61973588940873
 20
-52.407945146154589
 11
820.61973588940873
 21
-49.407945146154475
  0
LINE
  8
_0-3_躯体と製品
  6
PLINE2
 62
    7
 10
822.61973588940873
 20
-49.407945146154475
 11
820.61973588940873
 21
-49.407945146154475
  0
LINE
  8
_0-3_躯体と製品
  6
PLINE2
 62
    3
 10
837.61973588940873
 20
-334.48316814615441
 11
837.61973588940873
 21
-125.40794514615436
  0
LINE
  8
_0-3_躯体と製品
  6
CONTINUOUS
 62
    2
 10
857.61973588940873
 20
-334.48316814615441
 11
857.61973588940873
 21
-99.407945146154475
  0
LINE
  8
_0-3_躯体と製品
  6
CONTINUOUS
 62
    3
 10
862.61973588940873
 20
-47.407945146154589
 11
862.61973588940873
 21
-84.407945146154589
  0
LINE
  8
_0-3_躯体と製品
  6
CONTINUOUS
 62
    3
 10
847.61973588940873
 20
-84.407945146154589
 11
847.61973588940873
 21
-99.407945146154475
  0
ARC
  8
_0-3_躯体と製品
  6
CONTINUOUS
 62
    5
 10
893.79490588940871
 20
-86.961135146154334
 40
38.265940999999991
 50
176.19710199999884
 51
197.93963300000203
  0
LINE
  8
_0-3_躯体と製品
  6
CONTINUOUS
 62
    2
 10
834.66973588940846
 20
-59.907945146154589
 11
834.66973588940846
 21
-60.907945146154589
  0
LINE
  8
_0-3_躯体と製品
  6
PLINE3
 62
    2
 10
856.9880438894088
 20
-60.407945146154589
 11
869.61973588940873
 21
-60.407945146154589
  0
ARC
  8
_0-3_躯体と製品
  6
CONTINUOUS
 62
    2
 10
859.61973588940873
 20
-60.407945146154589
 40
5
 50
306.86989800000049
 51
53.130101999999425
  0
LINE
  8
_0-3_躯体と製品
  6
CONTINUOUS
 62
    2
 10
863.63192288940854
 20
-12.638398146154373
 11
886.2594128894084
 21
9.9890908538455392
  0
ARC
  8
_0-3_躯体と製品
  6
CONTINUOUS
 62
    2
 10
849.48986088940865
 20
-23.95203414615446
 40
2
 50
225
 51
45
  0
LINE
  8
_0-3_躯体と製品
  6
CONTINUOUS
 62
    3
 10
862.61973588940873
 20
-47.407945146154589
 11
843.48908888940878
 21
-37.387130146154448
  0
LINE
  8
_0-3_躯体と製品
  6
CONTINUOUS
 62
    2
 10
857.26803488940868
 20
-16.173860146154368
 11
850.90407388940866
 21
-22.537821146154442
  0
LINE
  8
_0-3_躯体と製品
  6
CONTINUOUS
 62
    2
 10
859.38935588940876
 20
-8.3956851461543351
 11
857.26803488940868
 21
-10.517005146154361
  0
LINE
  8
_0-3_躯体と製品
  6
CONTINUOUS
 62
    2
 10
857.26803488940868
 20
-16.173860146154368
 11
857.26803488940868
 21
-10.517005146154361
  0
LINE
  8
_0-3_躯体と製品
  6
CONTINUOUS
 62
    2
 10
886.2594128894084
 20
14.231731853845645
 11
886.2594128894084
 21
9.9890908538455392
  0
LINE
  8
_0-3_躯体と製品
  6
PLINE4
 62
    7
 10
882.61973588940873
 20
456.21214585384553
 11
477.44717288940865
 21
456.21214585384553
  0
LINE
  8
_0-3_躯体と製品
  6
PLINE4
 62
    7
 10
882.61973588940873
 20
502.00405185384557
 11
477.44717288940865
 21
502.00405185384557
  0
LINE
  8
_0-3_躯体と製品
  6
PLINE4
 62
    7
 10
882.61973588940873
 20
511.21214585384541
 11
477.44717288940865
 21
511.21214585384541
  0
ARC
  8
_0-3_躯体と製品
  6
CONTINUOUS
 62
    2
 10
282.6197358894085
 20
373.59205485384553
 40
3.5
 50
270
 51
90
  0
LINE
  8
_0-3_躯体と製品
  6
PLINE2
 62
    2
 10
275.81973588940855
 20
369.84960985384555
 11
275.81973588940855
 21
377.67764585384555
  0
ARC
  8
_0-3_躯体と製品
  6
PLINE2
 62
    2
 10
282.61282888940855
 20
373.76362785384549
 40
6.793092999999998
 50
89.941742000000929
 51
270.058257999999
  0
LINE
  8
_0-3_躯体と製品
  6
CONTINUOUS
 62
    2
 10
256.6197358894085
 20
344.59493385384565
 11
256.6197358894085
 21
398.76362785384549
  0
ARC
  8
_0-3_躯体と製品
  6
PLINE2
 62
    7
 10
282.6197358894085
 20
373.59205485384553
 40
10.001472
 50
179.01691200000243
 51
270
  0
LINE
  8
_0-3_躯体と製品
  6
PLINE3
 62
    2
 10
288.6197358894085
 20
228.59205485384555
 11
276.6197358894085
 21
228.59205485384555
  0
LINE
  8
_0-3_躯体と製品
  6
CONTINUOUS
 62
    2
 10
283.1197358894085
 20
226.54205485384554
 11
282.6197358894085
 21
226.54205485384554
  0
LINE
  8
_0-3_躯体と製品
  6
CONTINUOUS
 62
    2
 10
282.6197358894085
 20
230.64205485384554
 11
283.1197358894085
 21
230.64205485384554
  0
LINE
  8
_0-3_躯体と製品
  6
CONTINUOUS
 62
    2
 10
283.13463988940862
 20
227.39586985384554
 11
283.1197358894085
 21
226.54205485384554
  0
LINE
  8
_0-3_躯体と製品
  6
CONTINUOUS
 62
    2
 10
283.13463988940862
 20
229.78823985384554
 11
283.1197358894085
 21
230.64205485384554
  0
LINE
  8
_0-3_躯体と製品
  6
CONTINUOUS
 62
    2
 10
283.34452088940861
 20
229.31683985384555
 11
283.13463988940862
 21
229.78823985384554
  0
LINE
  8
_0-3_躯体と製品
  6
CONTINUOUS
 62
    2
 10
283.81592088940852
 20
229.10695885384555
 11
283.34452088940861
 21
229.31683985384555
  0
LINE
  8
_0-3_躯体と製品
  6
CONTINUOUS
 62
    2
 10
284.66973588940868
 20
229.09205485384555
 11
283.81592088940852
 21
229.10695885384555
  0
LINE
  8
_0-3_躯体と製品
  6
CONTINUOUS
 62
    2
 10
283.34452088940861
 20
227.86727085384555
 11
283.13463988940862
 21
227.39586985384554
  0
LINE
  8
_0-3_躯体と製品
  6
CONTINUOUS
 62
    2
 10
284.66973588940868
 20
228.09205485384555
 11
283.81592088940852
 21
228.07715185384555
  0
LINE
  8
_0-3_躯体と製品
  6
CONTINUOUS
 62
    2
 10
283.34452088940861
 20
227.86727085384555
 11
283.81592088940852
 21
228.07715185384555
  0
ARC
  8
_0-3_躯体と製品
  6
CONTINUOUS
 62
    2
 10
282.6197358894085
 20
228.59205485384555
 40
3.5
 50
269.98810299999775
 51
89.61344699999897
  0
LINE
  8
_0-3_躯体と製品
  6
CONTINUOUS
 62
    2
 10
284.66973588940868
 20
229.09205485384555
 11
284.66973588940868
 21
228.09205485384555
  0
LINE
  8
_0-3_躯体と製品
  6
PLINE2
 62
    2
 10
282.6197358894085
 20
365.92362785384563
 11
275.81973588940855
 21
369.84960985384555
  0
LINE
  8
_0-3_躯体と製品
  6
CONTINUOUS
 62
    2
 10
369.8641568894086
 20
481.83647485384563
 11
392.1380198894085
 21
504.11033885384552
  0
ARC
  8
_0-3_躯体と製品
  6
CONTINUOUS
 62
    5
 10
227.01390588940853
 20
489.7958648538455
 40
20.647279000000005
 50
298.10640699999851
 51
331.89359300000137
  0
LINE
  8
_0-3_躯体と製品
  6
CONTINUOUS
 62
    2
 10
250.88319188940864
 20
477.24028685384553
 11
255.12583288940868
 21
472.99764685384548
  0
LINE
  8
_0-3_躯体と製品
  6
CONTINUOUS
 62
    2
 10
245.22633788940857
 20
480.06871485384545
 11
250.17608588940857
 21
475.11896685384556
  0
LINE
  8
_0-3_躯体と製品
  6
CONTINUOUS
 62
    2
 10
373.75324388940862
 20
477.24028085384543
 11
371.63192288940854
 21
475.11896085384558
  0
LINE
  8
_0-3_躯体と製品
  6
CONTINUOUS
 62
    2
 10
282.6197358894085
 20
439.68036685384561
 11
312.6197358894085
 21
409.68036685384561
  0
LINE
  8
_0-3_躯体と製品
  6
PLINE2
 62
    2
 10
312.6197358894085
 20
398.76362785384549
 11
282.6197358894085
 21
398.76362785384549
  0
LINE
  8
_0-3_躯体と製品
  6
CONTINUOUS
 62
    2
 10
233.02982588940858
 20
426.50429585384552
 11
237.80171688940868
 21
421.73240485384554
  0
ARC
  8
_0-3_躯体と製品
  6
CONTINUOUS
 62
    2
 10
246.28699788940867
 20
430.21768585384552
 40
12
 50
205.52877900000061
 51
225
  0
LINE
  8
_0-3_躯体と製品
  6
CONTINUOUS
 62
    2
 10
234.97328988940853
 20
424.56083185384546
 11
232.92267988940853
 21
422.51022285384545
  0
LINE
  8
_0-3_躯体と製品
  6
CONTINUOUS
 62
    2
 10
254.06517288940859
 20
424.56083185384546
 11
262.1197358894085
 21
416.50626885384554
  0
LINE
  8
_0-3_躯体と製品
  6
CONTINUOUS
 62
    7
 10
236.03394988940863
 20
434.10677385384543
 11
250.17608588940857
 21
419.96463785384549
  0
LINE
  8
_0-3_躯体と製品
  6
CONTINUOUS
 62
    2
 10
236.03394988940863
 20
431.27834685384551
 11
247.34765788940854
 21
419.96463785384549
  0
LINE
  8
_0-3_躯体と製品
  6
CONTINUOUS
 62
    2
 10
259.36847388940851
 20
415.0148908538456
 11
233.20552288940871
 21
441.17784185384562
  0
ARC
  8
_0-3_躯体と製品
  6
CONTINUOUS
 62
    2
 10
262.6197358894085
 20
403.76362785384549
 40
3.25
 50
123.05572600000069
 51
193.60896299999868
  0
LINE
  8
_0-3_躯体と製品
  6
CONTINUOUS
 62
    2
 10
262.1197358894085
 20
413.52351285384555
 11
250.35985188940867
 21
401.76362785384549
  0
LINE
  8
_0-3_躯体と製品
  6
CONTINUOUS
 62
    2
 10
282.6197358894085
 20
398.76362785384549
 11
244.6197358894085
 21
398.76362785384549
  0
LINE
  8
_0-3_躯体と製品
  6
CONTINUOUS
 62
    2
 10
242.57360788940855
 20
416.96051385384544
 11
237.80171688940868
 21
421.73240485384554
  0
LINE
  8
_0-3_躯体と製品
  6
CONTINUOUS
 62
    2
 10
244.51923088940862
 20
422.79306485384541
 11
241.11542488940859
 21
419.3892588538456
  0
ARC
  8
_0-3_躯体と製品
  6
CONTINUOUS
 62
    2
 10
244.15554388940859
 20
419.70041485384547
 40
3.056
 50
185.843867999997
 51
225
  0
LINE
  8
_0-3_躯体と製品
  6
CONTINUOUS
 62
    7
 10
234.6197358894085
 20
404.40828885384553
 11
252.29740588940854
 21
422.08595785384557
  0
ARC
  8
_0-3_躯体と製品
  6
CONTINUOUS
 62
    2
 10
246.28699788940867
 20
430.21768585384552
 40
12
 50
225
 51
244.47122099999939
  0
LINE
  8
_0-3_躯体と製品
  6
CONTINUOUS
 62
    2
 10
238.57953388940859
 20
416.85336785384561
 11
237.16532088940858
 21
416.85336785384561
  0
LINE
  8
_0-3_躯体と製品
  6
CONTINUOUS
 62
    2
 10
237.16532088940858
 20
416.85336785384561
 11
232.92267988940853
 21
421.09600885384555
  0
LINE
  8
_0-3_躯体と製品
  6
CONTINUOUS
 62
    2
 10
240.6301438894086
 20
418.9039778538455
 11
238.57953388940859
 21
416.85336785384561
  0
LINE
  8
_0-3_躯体と製品
  6
CONTINUOUS
 62
    2
 10
232.92267988940853
 20
422.51022285384545
 11
232.92267988940853
 21
421.09600885384555
  0
LINE
  8
_0-3_躯体と製品
  6
CONTINUOUS
 62
    2
 10
234.41973588940868
 20
407.49427085384548
 11
227.6197358894085
 21
403.5682888538455
  0
LINE
  8
_0-3_躯体と製品
  6
CONTINUOUS
 62
    2
 10
234.41973588940868
 20
415.32230685384548
 11
234.41973588940868
 21
407.49427085384548
  0
LINE
  8
_0-3_躯体と製品
  6
CONTINUOUS
 62
    2
 10
227.6197358894085
 20
419.24828885384545
 11
234.41973588940868
 21
415.32230685384548
  0
LINE
  8
_0-3_躯体と製品
  6
CONTINUOUS
 62
    2
 10
243.96950488940865
 20
416.5864848538456
 11
242.57360788940855
 21
416.96051385384544
  0
LINE
  8
_0-3_躯体と製品
  6
CONTINUOUS
 62
    2
 10
247.34765788940854
 20
419.96463785384549
 11
243.96950488940865
 21
416.5864848538456
  0
LINE
  8
_0-3_躯体と製品
  6
CONTINUOUS
 62
    2
 10
247.2062368894085
 20
420.10605885384564
 11
248.62045088940863
 21
421.52027285384543
  0
ARC
  8
_0-3_躯体と製品
  6
CONTINUOUS
 62
    2
 10
258.48905788940851
 20
402.76362785384549
 40
1
 50
270
 51
13.608960999999676
  0
LINE
  8
_0-3_躯体と製品
  6
CONTINUOUS
 62
    2
 10
258.48905788940851
 20
401.76362785384549
 11
250.35985188940867
 21
401.76362785384549
  0
LINE
  8
_0-3_躯体と製品
  6
PLINE2
 62
    7
 10
272.6197358894085
 20
398.76362785384549
 11
272.6197358894085
 21
373.76362785384549
  0
ARC
  8
_0-3_躯体と製品
  6
PLINE2
 62
    2
 10
282.6197358894085
 20
400.26362785384549
 40
12
 50
250.52877899999808
 51
270
  0
LINE
  8
_0-3_躯体と製品
  6
PLINE2
 62
    2
 10
275.87126388940851
 20
388.26362785384549
 11
282.6197358894085
 21
388.26362785384549
  0
LINE
  8
_0-3_躯体と製品
  6
PLINE2
 62
    2
 10
278.6197358894085
 20
385.36362785384551
 11
279.6197358894085
 21
384.36362785384551
  0
LINE
  8
_0-3_躯体と製品
  6
PLINE2
 62
    2
 10
274.6197358894085
 20
393.76362785384549
 11
282.6197358894085
 21
393.76362785384549
  0
LINE
  8
_0-3_躯体と製品
  6
PLINE2
 62
    2
 10
275.81973588940855
 20
377.67764585384555
 11
282.6197358894085
 21
381.60362785384552
  0
LINE
  8
_0-3_躯体と製品
  6
PLINE2
 62
    7
 10
282.6197358894085
 20
395.76362785384549
 11
272.6197358894085
 21
395.76362785384549
  0
LINE
  8
_0-3_躯体と製品
  6
PLINE3
 62
    2
 10
282.6197358894085
 20
373.76362785384549
 11
272.6197358894085
 21
373.76362785384549
  0
ARC
  8
_0-3_躯体と製品
  6
PLINE2
 62
    2
 10
276.69006888940862
 20
391.31962785384553
 40
3.056
 50
270
 51
309.1561320000028
  0
LINE
  8
_0-3_躯体と製品
  6
PLINE2
 62
    2
 10
278.6197358894085
 20
393.76362785384549
 11
278.6197358894085
 21
388.94991985384559
  0
LINE
  8
_0-3_躯体と製品
  6
PLINE2
 62
    2
 10
274.6197358894085
 20
388.98619785384551
 11
275.87126388940851
 21
388.26362785384549
  0
LINE
  8
_0-3_躯体と製品
  6
PLINE2
 62
    2
 10
278.6197358894085
 20
388.26362785384549
 11
278.6197358894085
 21
385.36362785384551
  0
LINE
  8
_0-3_躯体と製品
  6
PLINE2
 62
    2
 10
274.6197358894085
 20
388.98619785384551
 11
274.6197358894085
 21
393.76362785384549
  0
LINE
  8
_0-3_躯体と製品
  6
PLINE2
 62
    2
 10
274.81973588940855
 20
393.76362785384549
 11
274.81973588940855
 21
395.76362785384549
  0
LINE
  8
_0-3_躯体と製品
  6
CONTINUOUS
 62
    2
 10
283.1197358894085
 20
371.54205485384546
 11
282.6197358894085
 21
371.54205485384546
  0
LINE
  8
_0-3_躯体と製品
  6
CONTINUOUS
 62
    2
 10
282.6197358894085
 20
375.64205485384548
 11
283.1197358894085
 21
375.64205485384548
  0
LINE
  8
_0-3_躯体と製品
  6
CONTINUOUS
 62
    2
 10
283.13463988940862
 20
372.39586985384551
 11
283.1197358894085
 21
371.54205485384546
  0
LINE
  8
_0-3_躯体と製品
  6
CONTINUOUS
 62
    2
 10
283.13463988940862
 20
374.78823985384543
 11
283.1197358894085
 21
375.64205485384548
  0
LINE
  8
_0-3_躯体と製品
  6
CONTINUOUS
 62
    2
 10
283.34452088940861
 20
374.31683985384541
 11
283.13463988940862
 21
374.78823985384543
  0
LINE
  8
_0-3_躯体と製品
  6
CONTINUOUS
 62
    2
 10
283.81592088940852
 20
374.10695885384564
 11
283.34452088940861
 21
374.31683985384541
  0
LINE
  8
_0-3_躯体と製品
  6
CONTINUOUS
 62
    2
 10
284.66973588940868
 20
374.09205485384553
 11
283.81592088940852
 21
374.10695885384564
  0
LINE
  8
_0-3_躯体と製品
  6
CONTINUOUS
 62
    2
 10
283.34452088940861
 20
372.86727085384553
 11
283.13463988940862
 21
372.39586985384551
  0
LINE
  8
_0-3_躯体と製品
  6
CONTINUOUS
 62
    2
 10
284.66973588940868
 20
373.09205485384553
 11
283.81592088940852
 21
373.07715185384552
  0
LINE
  8
_0-3_躯体と製品
  6
CONTINUOUS
 62
    2
 10
283.34452088940861
 20
372.86727085384553
 11
283.81592088940852
 21
373.07715185384552
  0
LINE
  8
_0-3_躯体と製品
  6
CONTINUOUS
 62
    2
 10
284.66973588940868
 20
374.09205485384553
 11
284.66973588940868
 21
373.09205485384553
  0
LINE
  8
_0-3_躯体と製品
  6
PLINE2
 62
    2
 10
282.6197358894085
 20
384.36362785384551
 11
279.6197358894085
 21
384.36362785384551
  0
LINE
  8
_0-3_躯体と製品
  6
PLINE2
 62
    2
 10
280.6197358894085
 20
393.76362785384549
 11
282.6197358894085
 21
395.76362785384549
  0
LINE
  8
_0-3_躯体と製品
  6
PLINE3
 62
    2
 10
282.6197358894085
 20
373.59205485384553
 11
288.6197358894085
 21
373.59205485384553
  0
ARC
  8
_0-3_躯体と製品
  6
CONTINUOUS
 62
    2
 10
279.3697358894085
 20
399.22513685384547
 40
8.0384910000000005
 50
66.152433999997612
 51
113.8475660000024
  0
LINE
  8
_0-3_躯体と製品
  6
CONTINUOUS
 62
    2
 10
276.1197358894085
 20
401.76362785384549
 11
282.6197358894085
 21
401.76362785384549
  0
LINE
  8
_0-3_躯体と製品
  6
CONTINUOUS
 62
    2
 10
275.1197358894085
 20
411.76362785384549
 11
282.6197358894085
 21
411.76362785384549
  0
LINE
  8
_0-3_躯体と製品
  6
CONTINUOUS
 62
    2
 10
282.1197358894085
 20
408.76362785384549
 11
276.1197358894085
 21
408.76362785384549
  0
LINE
  8
_0-3_躯体と製品
  6
CONTINUOUS
 62
    2
 10
263.68672388940854
 20
405.41555185384561
 11
264.6404618894087
 21
403.76362785384549
  0
ARC
  8
_0-3_躯体と製品
  6
CONTINUOUS
 62
    2
 10
264.1197358894085
 20
405.66555185384561
 40
0.5
 50
180
 51
210.00000000000051
  0
LINE
  8
_0-3_躯体と製品
  6
CONTINUOUS
 62
    2
 10
263.6197358894085
 20
405.66555185384561
 11
263.6197358894085
 21
406.0685138538455
  0
ARC
  8
_0-3_躯体と製品
  6
CONTINUOUS
 62
    2
 10
264.1197358894085
 20
406.0685138538455
 40
0.5
 50
56.944268999998663
 51
180
  0
LINE
  8
_0-3_躯体と製品
  6
CONTINUOUS
 62
    2
 10
261.55274888940858
 20
405.41555185384561
 11
260.59900988940853
 21
403.76362785384549
  0
ARC
  8
_0-3_躯体と製品
  6
CONTINUOUS
 62
    2
 10
261.1197358894085
 20
405.66555185384561
 40
0.5
 50
329.99999999999943
 51
0.0000000000000508
  0
LINE
  8
_0-3_躯体と製品
  6
CONTINUOUS
 62
    2
 10
261.6197358894085
 20
405.66555185384561
 11
261.6197358894085
 21
406.0685138538455
  0
LINE
  8
_0-3_躯体と製品
  6
CONTINUOUS
 62
    2
 10
260.59900988940853
 20
403.76362785384549
 11
261.60937288940863
 21
402.01362785384549
  0
LINE
  8
_0-3_躯体と製品
  6
CONTINUOUS
 62
    2
 10
263.6300988894086
 20
402.01362785384549
 11
264.6404618894087
 21
403.76362785384549
  0
LINE
  8
_0-3_躯体と製品
  6
CONTINUOUS
 62
    2
 10
261.60937288940863
 20
402.01362785384549
 11
263.6300988894086
 21
402.01362785384549
  0
ARC
  8
_0-3_躯体と製品
  6
CONTINUOUS
 62
    2
 10
262.6197358894085
 20
403.76362785384549
 40
3.25
 50
346.39103900000038
 51
56.944272999997708
  0
ARC
  8
_0-3_躯体と製品
  6
CONTINUOUS
 62
    2
 10
261.1197358894085
 20
406.0685138538455
 40
0.5
 50
0
 51
123.05573100000132
  0
ARC
  8
_0-3_躯体と製品
  6
CONTINUOUS
 62
    2
 10
266.75041388940849
 20
402.76362785384549
 40
1
 50
166.39103900000021
 51
270
  0
LINE
  8
_0-3_躯体と製品
  6
CONTINUOUS
 62
    2
 10
278.3697358894085
 20
401.76362785384549
 11
278.3697358894085
 21
398.76362785384549
  0
LINE
  8
_0-3_躯体と製品
  6
CONTINUOUS
 62
    2
 10
273.1197358894085
 20
412.76362785384549
 11
273.1197358894085
 21
401.76362785384549
  0
LINE
  8
_0-3_躯体と製品
  6
CONTINUOUS
 62
    2
 10
275.1197358894085
 20
412.76362785384549
 11
273.1197358894085
 21
412.76362785384549
  0
LINE
  8
_0-3_躯体と製品
  6
CONTINUOUS
 62
    2
 10
275.1197358894085
 20
412.76362785384549
 11
275.1197358894085
 21
411.76362785384549
  0
LINE
  8
_0-3_躯体と製品
  6
CONTINUOUS
 62
    2
 10
262.1197358894085
 20
416.50626885384554
 11
262.1197358894085
 21
413.52351285384555
  0
LINE
  8
_0-3_躯体と製品
  6
CONTINUOUS
 62
    2
 10
273.1197358894085
 20
401.76362785384549
 11
266.75041388940849
 21
401.76362785384549
  0
LINE
  8
_0-3_躯体と製品
  6
CONTINUOUS
 62
    2
 10
276.1197358894085
 20
408.76362785384549
 11
276.1197358894085
 21
401.76362785384549
  0
LINE
  8
_0-3_躯体と製品
  6
CONTINUOUS
 62
    2
 10
278.6197358894085
 20
401.76362785384549
 11
278.6197358894085
 21
398.76362785384549
  0
LINE
  8
_0-3_躯体と製品
  6
CONTINUOUS
 62
    2
 10
282.1197358894085
 20
408.76362785384549
 11
282.6197358894085
 21
409.26362785384549
  0
ARC
  8
_0-3_躯体と製品
  6
CONTINUOUS
 62
    2
 10
261.1197358894085
 20
451.76362785384549
 40
1
 50
180
 51
0
  0
LINE
  8
_0-3_躯体と製品
  6
CONTINUOUS
 62
    2
 10
253.6085748894086
 20
439.15956585384561
 11
261.13624088940855
 21
431.63189985384565
  0
LINE
  8
_0-3_躯体と製品
  6
CONTINUOUS
 62
    2
 10
255.86237688940855
 20
456.76362785384549
 11
282.1197358894085
 21
456.76362785384549
  0
LINE
  8
_0-3_躯体と製品
  6
CONTINUOUS
 62
    2
 10
261.4897938894087
 20
462.39104485384553
 11
255.86237688940855
 21
456.76362785384549
  0
LINE
  8
_0-3_躯体と製品
  6
CONTINUOUS
 62
    2
 10
261.13624088940855
 20
431.63189985384565
 11
254.06517288940859
 21
424.56083185384546
  0
LINE
  8
_0-3_躯体と製品
  6
CONTINUOUS
 62
    2
 10
253.00451288940872
 20
470.87632585384563
 11
261.4897938894087
 21
462.39104485384553
  0
LINE
  8
_0-3_躯体と製品
  6
CONTINUOUS
 62
    2
 10
244.87278488940865
 20
450.01667585384564
 11
245.93344488940852
 21
448.95601585384566
  0
LINE
  8
_0-3_躯体と製品
  6
CONTINUOUS
 62
    2
 10
249.64991388940871
 20
450.89640085384553
 11
253.72719388940868
 21
446.81912085384556
  0
LINE
  8
_0-3_躯体と製品
  6
CONTINUOUS
 62
    2
 10
246.99410488940862
 20
450.01667585384564
 11
248.76187188940867
 21
448.24890885384559
  0
LINE
  8
_0-3_躯体と製品
  6
CONTINUOUS
 62
    2
 10
245.93344488940852
 20
448.95601585384566
 11
246.99410488940862
 21
450.01667585384564
  0
LINE
  8
_0-3_躯体と製品
  6
CONTINUOUS
 62
    5
 10
227.70672588940852
 20
453.54588385384557
 11
227.30264188940851
 21
453.07915885384557
  0
LINE
  8
_0-3_躯体と製品
  6
CONTINUOUS
 62
    5
 10
227.30264188940851
 20
453.07915885384557
 11
226.95889988940871
 21
452.56695785384557
  0
LINE
  8
_0-3_躯体と製品
  6
CONTINUOUS
 62
    5
 10
226.95889988940871
 20
452.56695785384557
 11
226.68092088940853
 21
452.0173568538454
  0
LINE
  8
_0-3_躯体と製品
  6
CONTINUOUS
 62
    5
 10
226.68092088940853
 20
452.0173568538454
 11
226.4730888894087
 21
451.43902485384558
  0
LINE
  8
_0-3_躯体と製品
  6
CONTINUOUS
 62
    5
 10
226.4730888894087
 20
451.43902485384558
 11
226.33868188940869
 21
450.84108185384548
  0
LINE
  8
_0-3_躯体と製品
  6
CONTINUOUS
 62
    5
 10
226.33868188940869
 20
450.84108185384548
 11
226.27981888940872
 21
450.23295885384562
  0
LINE
  8
_0-3_躯体と製品
  6
CONTINUOUS
 62
    5
 10
226.27981888940872
 20
450.23295885384562
 11
226.29742888940859
 21
449.62424385384554
  0
LINE
  8
_0-3_躯体と製品
  6
CONTINUOUS
 62
    5
 10
226.29742888940859
 20
449.62424385384554
 11
226.39123388940857
 21
449.02453885384546
  0
LINE
  8
_0-3_躯体と製品
  6
CONTINUOUS
 62
    5
 10
226.39123388940857
 20
449.02453885384546
 11
226.55975488940862
 21
448.44330085384559
  0
LINE
  8
_0-3_躯体と製品
  6
CONTINUOUS
 62
    5
 10
226.55975488940862
 20
448.44330085384559
 11
226.80033288940854
 21
447.88969685384552
  0
LINE
  8
_0-3_躯体と製品
  6
CONTINUOUS
 62
    5
 10
226.80033288940854
 20
447.88969685384552
 11
227.10917588940856
 21
447.37245685384551
  0
LINE
  8
_0-3_躯体と製品
  6
CONTINUOUS
 62
    5
 10
227.10917588940856
 20
447.37245685384551
 11
227.48141088940861
 21
446.89973785384552
  0
LINE
  8
_0-3_躯体と製品
  6
CONTINUOUS
 62
    5
 10
227.48141088940861
 20
446.89973785384552
 11
227.9111688894086
 21
446.4789958538455
  0
LINE
  8
_0-3_躯体と製品
  6
CONTINUOUS
 62
    5
 10
227.9111688894086
 20
446.4789958538455
 11
228.39167288940871
 21
446.11686485384541
  0
LINE
  8
_0-3_躯体と製品
  6
CONTINUOUS
 62
    5
 10
228.39167288940871
 20
446.11686485384541
 11
228.91534388940863
 21
445.8190568538455
  0
LINE
  8
_0-3_躯体と製品
  6
CONTINUOUS
 62
    5
 10
228.91534388940863
 20
445.8190568538455
 11
229.47392388940852
 21
445.5902678538456
  0
LINE
  8
_0-3_躯体と製品
  6
CONTINUOUS
 62
    5
 10
229.47392388940852
 20
445.5902678538456
 11
230.05860388940869
 21
445.4341078538456
  0
LINE
  8
_0-3_躯体と製品
  6
CONTINUOUS
 62
    5
 10
230.05860388940869
 20
445.4341078538456
 11
230.66016288940864
 21
445.35303685384554
  0
LINE
  8
_0-3_躯体と製品
  6
CONTINUOUS
 62
    5
 10
230.66016288940864
 20
445.35303685384554
 11
231.26911388940857
 21
445.34833485384559
  0
LINE
  8
_0-3_躯体と製品
  6
CONTINUOUS
 62
    5
 10
231.26911388940857
 20
445.34833485384559
 11
231.87585288940863
 21
445.42007585384556
  0
LINE
  8
_0-3_躯体と製品
  6
CONTINUOUS
 62
    5
 10
231.87585288940863
 20
445.42007585384556
 11
232.47081188940865
 21
445.56712885384547
  0
LINE
  8
_0-3_躯体と製品
  6
CONTINUOUS
 62
    5
 10
232.47081188940865
 20
445.56712885384547
 11
233.04460788940855
 21
445.78717385384539
  0
LINE
  8
_0-3_躯体と製品
  6
CONTINUOUS
 62
    5
 10
233.04460788940855
 20
445.78717385384539
 11
233.58819188940856
 21
446.07674085384565
  0
LINE
  8
_0-3_躯体と製品
  6
CONTINUOUS
 62
    5
 10
233.58819188940856
 20
446.07674085384565
 11
234.09299188940849
 21
446.43126385384551
  0
LINE
  8
_0-3_躯体と製品
  6
CONTINUOUS
 62
    5
 10
234.09299188940849
 20
446.43126385384551
 11
234.55104488940856
 21
446.84515185384555
  0
LINE
  8
_0-3_躯体と製品
  6
CONTINUOUS
 62
    5
 10
234.55104488940856
 20
446.84515185384555
 11
234.95512988940868
 21
447.31187685384555
  0
LINE
  8
_0-3_躯体と製品
  6
CONTINUOUS
 62
    5
 10
234.95512988940868
 20
447.31187685384555
 11
235.2988718894087
 21
447.82407785384555
  0
LINE
  8
_0-3_躯体と製品
  6
CONTINUOUS
 62
    5
 10
235.2988718894087
 20
447.82407785384555
 11
235.57685088940866
 21
448.37367885384549
  0
LINE
  8
_0-3_躯体と製品
  6
CONTINUOUS
 62
    5
 10
235.57685088940866
 20
448.37367885384549
 11
235.7846818894086
 21
448.95201085384554
  0
LINE
  8
_0-3_躯体と製品
  6
CONTINUOUS
 62
    5
 10
235.7846818894086
 20
448.95201085384554
 11
235.91908888940861
 21
449.54995285384553
  0
LINE
  8
_0-3_躯体と製品
  6
CONTINUOUS
 62
    5
 10
235.91908888940861
 20
449.54995285384553
 11
235.97795188940859
 21
450.15807685384561
  0
LINE
  8
_0-3_躯体と製品
  6
CONTINUOUS
 62
    5
 10
235.97795188940859
 20
450.15807685384561
 11
235.96034188940871
 21
450.76679185384558
  0
LINE
  8
_0-3_躯体と製品
  6
CONTINUOUS
 62
    5
 10
235.96034188940871
 20
450.76679185384558
 11
235.86653688940851
 21
451.36649585384555
  0
LINE
  8
_0-3_躯体と製品
  6
CONTINUOUS
 62
    5
 10
235.86653688940851
 20
451.36649585384555
 11
235.69801688940856
 21
451.94773385384565
  0
LINE
  8
_0-3_躯体と製品
  6
CONTINUOUS
 62
    5
 10
235.69801688940856
 20
451.94773385384565
 11
235.45743788940854
 21
452.50133885384548
  0
LINE
  8
_0-3_躯体と製品
  6
CONTINUOUS
 62
    5
 10
235.45743788940854
 20
452.50133885384548
 11
235.14859588940863
 21
453.0185788538455
  0
LINE
  8
_0-3_躯体と製品
  6
CONTINUOUS
 62
    5
 10
235.14859588940863
 20
453.0185788538455
 11
234.77636088940858
 21
453.49129785384548
  0
LINE
  8
_0-3_躯体と製品
  6
CONTINUOUS
 62
    5
 10
234.77636088940858
 20
453.49129785384548
 11
234.3466018894087
 21
453.9120398538455
  0
LINE
  8
_0-3_躯体と製品
  6
CONTINUOUS
 62
    5
 10
234.3466018894087
 20
453.9120398538455
 11
233.8660988894087
 21
454.27417085384548
  0
LINE
  8
_0-3_躯体と製品
  6
CONTINUOUS
 62
    5
 10
233.8660988894087
 20
454.27417085384548
 11
233.34242688940867
 21
454.57197885384551
  0
LINE
  8
_0-3_躯体と製品
  6
CONTINUOUS
 62
    5
 10
233.34242688940867
 20
454.57197885384551
 11
232.78384688940855
 21
454.80076685384563
  0
LINE
  8
_0-3_躯体と製品
  6
CONTINUOUS
 62
    5
 10
232.78384688940855
 20
454.80076685384563
 11
232.1991678894085
 21
454.95692785384551
  0
LINE
  8
_0-3_躯体と製品
  6
CONTINUOUS
 62
    5
 10
232.1991678894085
 20
454.95692785384551
 11
231.59760888940855
 21
455.03799885384547
  0
LINE
  8
_0-3_躯体と製品
  6
CONTINUOUS
 62
    5
 10
231.59760888940855
 20
455.03799885384547
 11
230.98865788940861
 21
455.04270085384553
  0
LINE
  8
_0-3_躯体と製品
  6
CONTINUOUS
 62
    5
 10
230.98865788940861
 20
455.04270085384553
 11
230.38191888940855
 21
454.97095985384556
  0
LINE
  8
_0-3_躯体と製品
  6
CONTINUOUS
 62
    5
 10
230.38191888940855
 20
454.97095985384556
 11
229.78695988940854
 21
454.82390685384541
  0
LINE
  8
_0-3_躯体と製品
  6
CONTINUOUS
 62
    5
 10
229.78695988940854
 20
454.82390685384541
 11
229.21316288940852
 21
454.6038618538455
  0
LINE
  8
_0-3_躯体と製品
  6
CONTINUOUS
 62
    5
 10
229.21316288940852
 20
454.6038618538455
 11
228.66957888940851
 21
454.31429385384558
  0
LINE
  8
_0-3_躯体と製品
  6
CONTINUOUS
 62
    5
 10
228.66957888940851
 20
454.31429385384558
 11
228.16477988940869
 21
453.9597718538455
  0
LINE
  8
_0-3_躯体と製品
  6
CONTINUOUS
 62
    5
 10
228.16477988940869
 20
453.9597718538455
 11
227.70672588940852
 21
453.54588385384557
  0
LINE
  8
_0-3_躯体と製品
  6
CONTINUOUS
 62
    7
 10
242.75147088940867
 20
454.96641785384554
 11
235.6804028894087
 21
447.89534985384557
  0
LINE
  8
_0-3_躯体と製品
  6
CONTINUOUS
 62
    7
 10
240.98370388940862
 20
448.95600985384556
 11
247.34766488940863
 21
455.31997085384546
  0
LINE
  8
_0-3_躯体と製品
  6
CONTINUOUS
 62
    2
 10
240.27659088940868
 20
427.03570585384546
 11
243.1050178894086
 21
427.03570585384546
  0
LINE
  8
_0-3_躯体と製品
  6
CONTINUOUS
 62
    2
 10
248.76187188940867
 20
448.24890885384559
 11
239.5694838894085
 21
439.05652085384554
  0
LINE
  8
_0-3_躯体と製品
  6
CONTINUOUS
 62
    7
 10
242.04436388940871
 20
447.89534985384557
 11
240.98370388940862
 21
448.95600985384556
  0
ARC
  8
_0-3_躯体と製品
  6
CONTINUOUS
 62
    7
 10
240.98370388940862
 20
446.83468985384548
 40
0.5
 50
225
 51
315
  0
LINE
  8
_0-3_躯体と製品
  6
CONTINUOUS
 62
    2
 10
238.86237688940855
 20
441.88494785384546
 11
237.80171688940868
 21
442.94560885384556
  0
LINE
  8
_0-3_躯体と製品
  6
CONTINUOUS
 62
    2
 10
237.80171688940868
 20
442.94560885384556
 11
236.03394988940863
 21
441.17784185384562
  0
LINE
  8
_0-3_躯体と製品
  6
CONTINUOUS
 62
    2
 10
232.65579688940852
 20
427.90019285384562
 11
233.02982588940858
 21
426.50429585384552
  0
ARC
  8
_0-3_躯体と製品
  6
CONTINUOUS
 62
    2
 10
235.7697268894085
 20
428.08623185384545
 40
3.056
 50
225
 51
264.1561320000028
  0
LINE
  8
_0-3_躯体と製品
  6
CONTINUOUS
 62
    2
 10
238.86237688940855
 20
428.44991985384559
 11
235.45857088940852
 21
425.04611385384544
  0
LINE
  8
_0-3_躯体と製品
  6
CONTINUOUS
 62
    2
 10
232.65579688940852
 20
427.90019285384562
 11
236.03394988940863
 21
431.27834685384551
  0
LINE
  8
_0-3_躯体と製品
  6
CONTINUOUS
 62
    2
 10
236.17537088940867
 20
431.13692485384558
 11
237.58958488940857
 21
432.55113885384549
  0
LINE
  8
_0-3_躯体と製品
  6
CONTINUOUS
 62
    2
 10
237.80171688940868
 20
440.82428785384548
 11
239.5694838894085
 21
439.05652085384554
  0
LINE
  8
_0-3_躯体と製品
  6
CONTINUOUS
 62
    2
 10
238.86237688940855
 20
441.88494785384546
 11
237.80171688940868
 21
440.82428785384548
  0
LINE
  8
_0-3_躯体と製品
  6
CONTINUOUS
 62
    2
 10
236.03394988940863
 20
441.17784185384562
 11
234.6197358894085
 21
442.59205485384553
  0
LINE
  8
_0-3_躯体と製品
  6
CONTINUOUS
 62
    7
 10
235.6804028894087
 20
447.18824285384562
 11
234.97329588940852
 21
447.18824285384562
  0
LINE
  8
_0-3_躯体と製品
  6
CONTINUOUS
 62
    7
 10
235.6804028894087
 20
447.89534985384557
 11
235.6804028894087
 21
447.18824285384562
  0
LINE
  8
_0-3_躯体と製品
  6
CONTINUOUS
 62
    7
 10
239.56948988940871
 20
447.54179585384554
 11
240.63014988940859
 21
446.48113585384556
  0
ARC
  8
_0-3_躯体と製品
  6
CONTINUOUS
 62
    2
 10
243.25457688940855
 20
431.7814598538456
 40
8.0384910000000005
 50
21.152433999998969
 51
68.847566000001024
  0
LINE
  8
_0-3_躯体と製品
  6
CONTINUOUS
 62
    2
 10
253.53484288940854
 20
432.86933685384554
 11
248.93864888940857
 21
437.46553085384551
  0
LINE
  8
_0-3_躯体と製品
  6
CONTINUOUS
 62
    2
 10
241.6908038894087
 20
425.62149185384555
 11
244.51923088940862
 21
425.62149185384555
  0
LINE
  8
_0-3_躯体と製品
  6
CONTINUOUS
 62
    2
 10
254.27165988940851
 20
442.69664085384568
 11
252.6197358894085
 21
441.74290185384552
  0
ARC
  8
_0-3_躯体と製品
  6
CONTINUOUS
 62
    2
 10
254.52165988940851
 20
442.26362785384549
 40
0.5
 50
90
 51
120.0000000000005
  0
LINE
  8
_0-3_躯体と製品
  6
CONTINUOUS
 62
    2
 10
254.52165988940851
 20
442.76362785384549
 11
254.92462188940863
 21
442.76362785384549
  0
ARC
  8
_0-3_躯体と製品
  6
CONTINUOUS
 62
    2
 10
254.92462188940863
 20
442.26362785384549
 40
0.5
 50
326.9442689999986
 51
90
  0
LINE
  8
_0-3_躯体と製品
  6
CONTINUOUS
 62
    2
 10
254.27165988940851
 20
444.83061485384542
 11
252.6197358894085
 21
445.78435385384557
  0
ARC
  8
_0-3_躯体と製品
  6
CONTINUOUS
 62
    2
 10
254.52165988940851
 20
445.26362785384549
 40
0.5
 50
239.99999999999943
 51
270
  0
LINE
  8
_0-3_躯体と製品
  6
CONTINUOUS
 62
    2
 10
254.52165988940851
 20
444.76362785384549
 11
254.92462188940863
 21
444.76362785384549
  0
LINE
  8
_0-3_躯体と製品
  6
CONTINUOUS
 62
    2
 10
252.6197358894085
 20
445.78435385384557
 11
250.8697358894085
 21
444.77399085384559
  0
LINE
  8
_0-3_躯体と製品
  6
CONTINUOUS
 62
    2
 10
250.8697358894085
 20
442.75326485384551
 11
252.6197358894085
 21
441.74290185384552
  0
LINE
  8
_0-3_躯体と製品
  6
CONTINUOUS
 62
    2
 10
250.8697358894085
 20
444.77399085384559
 11
250.8697358894085
 21
442.75326485384551
  0
ARC
  8
_0-3_躯体と製品
  6
CONTINUOUS
 62
    2
 10
254.92462188940863
 20
445.26362785384549
 40
0.5
 50
270
 51
33.055731000001344
  0
ARC
  8
_0-3_躯体と製品
  6
CONTINUOUS
 62
    2
 10
252.6197358894085
 20
443.76362785384549
 40
3.25
 50
33.055731000001337
 51
70.0770399999993
  0
ARC
  8
_0-3_躯体と製品
  6
CONTINUOUS
 62
    2
 10
254.31568188940855
 20
439.86667185384545
 40
1
 50
113.518559999999
 51
225
  0
ARC
  8
_0-3_躯体と製品
  6
CONTINUOUS
 62
    2
 10
252.6197358894085
 20
443.76362785384549
 40
3.25
 50
293.51855999999918
 51
326.94442400000048
  0
LINE
  8
_0-3_躯体と製品
  6
CONTINUOUS
 62
    2
 10
256.89359988940851
 20
431.63189985384565
 11
247.70121188940857
 21
440.82428785384548
  0
LINE
  8
_0-3_躯体と製品
  6
CONTINUOUS
 62
    2
 10
256.89359988940851
 20
431.63189985384565
 11
251.94385288940862
 21
426.68215285384554
  0
LINE
  8
_0-3_躯体と製品
  6
CONTINUOUS
 62
    2
 10
250.35286188940859
 20
428.27314285384557
 11
248.23154188940862
 21
426.15182185384549
  0
LINE
  8
_0-3_躯体と製品
  6
CONTINUOUS
 62
    2
 10
244.3424548894086
 20
434.28354985384556
 11
242.22113388940852
 21
432.16222985384547
  0
LINE
  8
_0-3_躯体と製品
  6
CONTINUOUS
 62
    2
 10
242.75146388940857
 20
435.87454085384559
 11
247.70121188940857
 21
440.82428785384548
  0
LINE
  8
_0-3_躯体と製品
  6
CONTINUOUS
 62
    2
 10
251.94385288940862
 20
426.68215285384554
 11
242.75146388940857
 21
435.87454085384559
  0
ARC
  8
_0-3_躯体と製品
  6
CONTINUOUS
 62
    2
 10
247.85077088940852
 20
427.18526485384541
 40
8.0384910000000005
 50
21.152433999998969
 51
68.847566000001024
  0
LINE
  8
_0-3_躯体と製品
  6
CONTINUOUS
 62
    2
 10
250.17608588940857
 20
428.44991985384559
 11
248.05476488940872
 21
426.32859885384539
  0
LINE
  8
_0-3_躯体と製品
  6
CONTINUOUS
 62
    2
 10
244.51923088940862
 20
434.10677385384543
 11
242.39791088940865
 21
431.98545285384557
  0
ARC
  8
_0-3_躯体と製品
  6
CONTINUOUS
 62
    7
 10
241.69080988940868
 20
447.54179585384554
 40
0.5
 50
315.00000000000006
 51
45.00000000000005
  0
LINE
  8
_0-3_躯体と製品
  6
CONTINUOUS
 62
    7
 10
241.33725688940854
 20
446.48113585384556
 11
242.04436388940871
 21
447.18824285384562
  0
LINE
  8
_0-3_躯体と製品
  6
CONTINUOUS
 62
    2
 10
236.74105688940858
 20
471.58343285384558
 11
241.6908038894087
 21
466.63368585384558
  0
LINE
  8
_0-3_躯体と製品
  6
CONTINUOUS
 62
    2
 10
241.6908038894087
 20
463.80525885384554
 11
236.74105688940858
 21
468.75500585384543
  0
LINE
  8
_0-3_躯体と製品
  6
PLINE3
 62
    2
 10
255.83293988940864
 20
460.97683085384551
 11
240.98369688940852
 21
475.8260738538454
  0
LINE
  8
_0-3_躯体と製品
  6
CONTINUOUS
 62
    2
 10
233.91262988940866
 20
462.39104485384553
 11
234.97328988940853
 21
461.33038485384554
  0
LINE
  8
_0-3_躯体と製品
  6
CONTINUOUS
 62
    2
 10
234.97328988940853
 20
461.33038485384554
 11
237.44816388940853
 21
463.80525885384554
  0
LINE
  8
_0-3_躯体と製品
  6
CONTINUOUS
 62
    2
 10
228.96288188940866
 20
457.44129785384541
 11
230.02354188940853
 21
456.38063685384554
  0
LINE
  8
_0-3_躯体と製品
  6
CONTINUOUS
 62
    2
 10
230.02354188940853
 20
456.38063685384554
 11
227.54866888940865
 21
453.90576385384543
  0
LINE
  8
_0-3_躯体と製品
  6
CONTINUOUS
 62
    2
 10
226.13445488940852
 20
458.14840385384548
 11
227.90222188940857
 21
456.38063685384554
  0
LINE
  8
_0-3_躯体と製品
  6
CONTINUOUS
 62
    2
 10
233.91262988940866
 20
462.39104485384553
 11
234.97328988940853
 21
463.45170485384551
  0
LINE
  8
_0-3_躯体と製品
  6
CONTINUOUS
 62
    2
 10
228.96288188940866
 20
457.44129785384541
 11
227.90222188940857
 21
456.38063685384554
  0
LINE
  8
_0-3_躯体と製品
  6
CONTINUOUS
 62
    2
 10
227.54866888940865
 20
453.90576385384543
 11
224.72024088940861
 21
456.73419085384558
  0
LINE
  8
_0-3_躯体と製品
  6
CONTINUOUS
 62
    2
 10
234.6197358894085
 20
466.63368585384558
 11
237.44816388940853
 21
463.80525885384554
  0
LINE
  8
_0-3_躯体と製品
  6
CONTINUOUS
 62
    2
 10
236.74105688940858
 20
468.75500585384543
 11
234.6197358894085
 21
466.63368585384558
  0
LINE
  8
_0-3_躯体と製品
  6
CONTINUOUS
 62
    2
 10
233.20552288940871
 20
465.21947185384545
 11
226.13445488940852
 21
458.14840385384548
  0
LINE
  8
_0-3_躯体と製品
  6
CONTINUOUS
 62
    2
 10
234.97328988940853
 20
463.45170485384551
 11
233.20552288940871
 21
465.21947185384545
  0
LINE
  8
_0-3_躯体と製品
  6
CONTINUOUS
 62
    2
 10
243.81212488940855
 20
464.5123648538455
 11
245.22633788940857
 21
463.09815185384559
  0
LINE
  8
_0-3_躯体と製品
  6
CONTINUOUS
 62
    2
 10
252.29740588940854
 20
457.44129785384541
 11
244.87278488940865
 21
450.01667585384564
  0
LINE
  8
_0-3_躯体と製品
  6
CONTINUOUS
 62
    2
 10
253.71161888940856
 20
471.58343285384558
 11
253.00451288940872
 21
470.87632585384563
  0
ARC
  8
_0-3_躯体と製品
  6
CONTINUOUS
 62
    2
 10
251.59029888940859
 20
472.29053985384542
 40
1
 50
45
 51
135
  0
LINE
  8
_0-3_躯体と製品
  6
CONTINUOUS
 62
    2
 10
260.1197358894085
 20
453.76362785384549
 11
260.1197358894085
 21
451.76362785384549
  0
ARC
  8
_0-3_躯体と製品
  6
CONTINUOUS
 62
    2
 10
244.51923088940862
 20
465.21947185384545
 40
1
 50
135
 51
225
  0
LINE
  8
_0-3_躯体と製品
  6
CONTINUOUS
 62
    2
 10
255.12583288940868
 20
472.99764685384548
 11
253.71161888940856
 21
471.58343285384558
  0
LINE
  8
_0-3_躯体と製品
  6
CONTINUOUS
 62
    2
 10
246.28699788940867
 20
471.22987985384555
 11
250.17608588940857
 21
475.11896685384556
  0
LINE
  8
_0-3_躯体と製品
  6
CONTINUOUS
 62
    2
 10
241.6908038894087
 20
466.63368585384558
 11
245.57989088940872
 21
470.52277285384548
  0
LINE
  8
_0-3_躯体と製品
  6
CONTINUOUS
 62
    2
 10
246.28699788940867
 20
470.52277285384548
 11
245.57989088940872
 21
470.52277285384548
  0
LINE
  8
_0-3_躯体と製品
  6
CONTINUOUS
 62
    2
 10
246.28699788940867
 20
471.22987985384555
 11
246.28699788940867
 21
470.52277285384548
  0
LINE
  8
_0-3_躯体と製品
  6
CONTINUOUS
 62
    2
 10
245.47382488940866
 20
467.58827985384551
 11
246.88803888940856
 21
467.58827985384551
  0
LINE
  8
_0-3_躯体と製品
  6
CONTINUOUS
 62
    2
 10
249.22149088940864
 20
471.33594585384549
 11
249.22149088940864
 21
469.92173185384547
  0
LINE
  8
_0-3_躯体と製品
  6
CONTINUOUS
 62
    2
 10
251.59029888940859
 20
473.70475285384555
 11
253.71161888940856
 21
471.58343285384558
  0
LINE
  8
_0-3_躯体と製品
  6
CONTINUOUS
 62
    2
 10
241.6908038894087
 20
463.80525885384554
 11
251.59029888940859
 21
473.70475285384555
  0
LINE
  8
_0-3_躯体と製品
  6
CONTINUOUS
 62
    2
 10
256.99966588940856
 20
462.14355785384566
 11
254.66621388940871
 21
459.81010485384547
  0
LINE
  8
_0-3_躯体と製品
  6
CONTINUOUS
 62
    2
 10
249.22149088940864
 20
469.92173185384547
 11
256.99966588940856
 21
462.14355785384566
  0
LINE
  8
_0-3_躯体と製品
  6
CONTINUOUS
 62
    2
 10
252.77677688940867
 20
453.76362785384549
 11
249.64991388940871
 21
450.89640085384553
  0
LINE
  8
_0-3_躯体と製品
  6
CONTINUOUS
 62
    2
 10
260.1197358894085
 20
453.76362785384549
 11
252.77677688940867
 21
453.76362785384549
  0
LINE
  8
_0-3_躯体と製品
  6
CONTINUOUS
 62
    2
 10
245.93344488940852
 20
463.80525885384554
 11
252.29740588940854
 21
457.44129785384541
  0
LINE
  8
_0-3_躯体と製品
  6
CONTINUOUS
 62
    2
 10
245.22633788940857
 20
463.09815185384559
 11
245.93344488940852
 21
463.80525885384554
  0
LINE
  8
_0-3_躯体と製品
  6
CONTINUOUS
 62
    2
 10
254.66621388940871
 20
459.81010485384547
 11
246.88803888940856
 21
467.58827985384551
  0
LINE
  8
_0-3_躯体と製品
  6
CONTINUOUS
 62
    3
 10
255.83293988940864
 20
460.97683085384551
 11
254.66621388940871
 21
459.81010485384547
  0
LINE
  8
_0-3_躯体と製品
  6
CONTINUOUS
 62
    7
 10
246.28700388940865
 20
458.50195085384553
 11
243.4585768894085
 21
455.6735238538455
  0
LINE
  8
_0-3_躯体と製品
  6
CONTINUOUS
 62
    7
 10
249.11543188940868
 20
454.25931085384559
 11
249.82253788940852
 21
454.96641785384554
  0
ARC
  8
_0-3_躯体と製品
  6
CONTINUOUS
 62
    7
 10
248.76187788940865
 20
454.61286385384551
 40
0.5
 50
225
 51
315
  0
LINE
  8
_0-3_躯体と製品
  6
CONTINUOUS
 62
    7
 10
248.4083248894085
 20
454.25931085384559
 11
247.34766488940863
 21
455.31997085384546
  0
ARC
  8
_0-3_躯体と製品
  6
CONTINUOUS
 62
    7
 10
249.4689848894086
 20
455.31997085384546
 40
0.5
 50
315.00000000000006
 51
45.00000000000005
  0
LINE
  8
_0-3_躯体と製品
  6
CONTINUOUS
 62
    7
 10
249.82253788940852
 20
455.6735238538455
 11
246.9941108894086
 21
458.50195085384553
  0
ARC
  8
_0-3_躯体と製品
  6
CONTINUOUS
 62
    7
 10
246.64055788940868
 20
458.14839785384549
 40
0.5
 50
45
 51
135
  0
LINE
  8
_0-3_躯体と製品
  6
CONTINUOUS
 62
    7
 10
243.4585768894085
 20
454.96641785384554
 11
242.75147088940867
 21
454.96641785384554
  0
LINE
  8
_0-3_躯体と製品
  6
CONTINUOUS
 62
    7
 10
243.4585768894085
 20
455.6735238538455
 11
243.4585768894085
 21
454.96641785384554
  0
LINE
  8
_0-3_躯体と製品
  6
CONTINUOUS
 62
    2
 10
262.1197358894085
 20
453.76362785384549
 11
282.6197358894085
 21
453.76362785384549
  0
LINE
  8
_0-3_躯体と製品
  6
CONTINUOUS
 62
    2
 10
262.1197358894085
 20
453.76362785384549
 11
262.1197358894085
 21
451.76362785384549
  0
LINE
  8
_0-3_躯体と製品
  6
CONTINUOUS
 62
    2
 10
282.6197358894085
 20
456.26362785384549
 11
282.1197358894085
 21
456.76362785384549
  0
LINE
  8
_0-3_躯体と製品
  6
CONTINUOUS
 62
    2
 10
320.6197358894085
 20
398.76362785384549
 11
312.6197358894085
 21
398.76362785384549
  0
LINE
  8
_0-3_躯体と製品
  6
CONTINUOUS
 62
    2
 10
306.57810588940856
 20
415.72199685384544
 11
313.64917388940853
 21
422.79306485384541
  0
LINE
  8
_0-3_躯体と製品
  6
CONTINUOUS
 62
    2
 10
357.4897938894087
 20
442.59205485384553
 11
368.80349588940862
 21
453.90575685384545
  0
ARC
  8
_0-3_躯体と製品
  6
CONTINUOUS
 62
    2
 10
358.19689488940867
 20
467.34078585384555
 40
2
 50
45
 51
225
  0
LINE
  8
_0-3_躯体と製品
  6
CONTINUOUS
 62
    2
 10
365.9750688894087
 20
475.11896085384558
 11
359.61110788940869
 21
468.75499985384556
  0
LINE
  8
_0-3_躯体と製品
  6
CONTINUOUS
 62
    2
 10
365.9750688894087
 20
475.11896085384558
 11
371.63192288940854
 21
475.11896085384558
  0
LINE
  8
_0-3_躯体と製品
  6
CONTINUOUS
 62
    2
 10
280.49841688940865
 20
515.34079285384564
 11
245.22633788940857
 21
480.06871485384545
  0
LINE
  8
_0-3_躯体と製品
  6
CONTINUOUS
 62
    2
 10
281.20552288940871
 20
513.21947185384556
 11
248.05476488940872
 21
480.06871485384545
  0
LINE
  8
_0-3_躯体と製品
  6
CONTINUOUS
 62
    2
 10
248.05476488940872
 20
480.06871485384545
 11
249.46897888940862
 21
478.65450085384555
  0
LINE
  8
_0-3_躯体と製品
  6
CONTINUOUS
 62
    2
 10
252.29740588940854
 20
478.65450085384555
 11
250.88319188940864
 21
477.24028685384553
  0
LINE
  8
_0-3_躯体と製品
  6
CONTINUOUS
 62
    2
 10
250.88319188940864
 20
480.06871485384545
 11
249.46897888940862
 21
478.65450085384555
  0
ARC
  8
_0-3_躯体と製品
  6
CONTINUOUS
 62
    2
 10
251.59029888940859
 20
479.36160785384561
 40
1
 50
315.00000000000006
 51
135.00000000000006
  0
ARC
  8
_0-3_躯体と製品
  6
CONTINUOUS
 62
    2
 10
282.6197358894085
 20
513.21947185384556
 40
3
 50
90
 51
135
  0
ARC
  8
_0-3_躯体と製品
  6
CONTINUOUS
 62
    2
 10
282.6197358894085
 20
511.80525885384554
 40
2
 50
90
 51
135
  0
ARC
  8
_0-3_躯体と製品
  6
CONTINUOUS
 62
    2
 10
370.21770988940852
 20
481.48292185384548
 40
0.5
 50
135
 51
225
  0
LINE
  8
_0-3_躯体と製品
  6
CONTINUOUS
 62
    2
 10
396.38066088940877
 20
504.11033885384552
 11
392.1380198894085
 21
504.11033885384552
  0
INSERT
  2
-001-_D4
  8
_0-2_寸法
 10
-1726.4806092594954
 20
466.23887541445424
 41
5
 42
5
 50
0
  0
INSERT
  2
-002-_D5
  8
_0-2_寸法
 10
-1726.4806092594954
 20
466.23887541445424
 41
5
 42
5
 50
0
  0
INSERT
  2
-003-_D6
  8
_0-2_寸法
 10
-1726.4806092594954
 20
466.23887541445424
 41
5
 42
5
 50
0
  0
ENDSEC
  0
EOF
