  0
SECTION
  2
HEADER
  9
$ACADVER
  1
AC1009
  9
$INSBASE
 10
0
 20
0
 30
0
  9
$EXTMIN
 10
0
 20
0
  9
$EXTMAX
 10
420
 20
297
  9
$LIMMIN
 10
0
 20
0
  9
$LIMMAX
 10
420
 20
297
  9
$LTSCALE
 40
1
  0
ENDSEC
  0
SECTION
  2
TABLES
  0
TABLE
  2
LTYPE
 70
     9
  0
LTYPE
  2
CONTINUOUS
 70
    64
  3
実線
 72
    65
 73
     0
 40
0.0
  0
LTYPE
  2
DASHED1
 70
    64
  3
--  --  --  --  --  --  --  --  
 72
    65
 73
     2
 40
2.5
 49
1.25
 49
-1.25
  0
LTYPE
  2
DASHED2
 70
    64
  3
----    ----    ----    ----    
 72
    65
 73
     2
 40
5.0
 49
2.5
 49
-2.5
  0
LTYPE
  2
DASHED3
 70
    64
  3
------  ------  ------  ------  
 72
    65
 73
     2
 40
5.0
 49
3.75
 49
-1.25
  0
LTYPE
  2
CENTER1
 70
    64
  3
----- - ----- - ----- - ----- - 
 72
    65
 73
     4
 40
10.0
 49
6.25
 49
-1.25
 49
1.25
 49
-1.25
  0
LTYPE
  2
CENTER2
 70
    64
  3
----------  --  ----------  --  
 72
    65
 73
     4
 40
20.0
 49
12.5
 49
-2.5
 49
2.5
 49
-2.5
  0
LTYPE
  2
PHANTOM1
 70
    64
  3
--- - - --- - - --- - - --- - - 
 72
    65
 73
     6
 40
10.0
 49
3.25
 49
-1.25
 49
1.25
 49
-1.25
 49
1.25
 49
-1.25
  0
LTYPE
  2
PHANTOM2
 70
    64
  3
--------  -  -  --------  -  -  
 72
    65
 73
     6
 40
20.0
 49
10.0
 49
-2.5
 49
1.25
 49
-2.5
 49
1.25
 49
-2.5
  0
LTYPE
  2
DOT
 70
    64
  3
-   -   -   -   -   -   -   -   
 72
    65
 73
     2
 40
2.5
 49
0.625
 49
-1.875
  0
LTYPE
  2
DUMMY
 70
    64
  3
ダミー
 72
    65
 73
     0
 40
0.0
  0
LTYPE
  2
RAND1
 70
    64
  3
ランダム線1
 72
    65
 73
     4
 40
10.0
 49
1.0
 49
-2.0
 49
3.0
 49
-4.0
  0
LTYPE
  2
RAND2
 70
    64
  3
ランダム線2
 72
    65
 73
     4
 40
14.0
 49
2.0
 49
-3.0
 49
4.0
 49
-5.0
  0
LTYPE
  2
RAND3
 70
    64
  3
ランダム線3
 72
    65
 73
     4
 40
18.0
 49
3.0
 49
-4.0
 49
5.0
 49
-6.0
  0
LTYPE
  2
RAND4
 70
    64
  3
ランダム線4
 72
    65
 73
     4
 40
22.0
 49
4.0
 49
-5.0
 49
6.0
 49
-7.0
  0
LTYPE
  2
RAND5
 70
    64
  3
ランダム線5
 72
    65
 73
     4
 40
26.0
 49
5.0
 49
-6.0
 49
7.0
 49
-8.0
  0
LTYPE
  2
LONG1
 70
    64
  3
----------  --  ----------  --  
 72
    65
 73
     4
 40
40.0
 49
32.5
 49
-2.5
 49
2.5
 49
-2.5
  0
LTYPE
  2
LONG2
 70
    64
  3
--------  -  -  --------  -  -  
 72
    65
 73
     6
 40
40.0
 49
30.0
 49
-2.5
 49
1.25
 49
-2.5
 49
1.25
 49
-2.5
  0
LTYPE
  2
LONG3
 70
    64
  3
+++++++++++++++..+++++++++++++++
 72
    65
 73
     2
 40
40.0
 49
37.5
 49
-2.5
  0
LTYPE
  2
LONG4
 70
    64
  3
+++++++++++++++..+++++++++++++++
 72
    65
 73
     2
 40
80.0
 49
75.0
 49
-5.0
  0
LTYPE
  2
LONG5
 70
    64
  3
----------  --  ----------  --  
 72
    65
 73
     4
 40
60.0
 49
37.5
 49
-7.5
 49
7.5
 49
-7.5
  0
LTYPE
  2
dashed
 70
   64
  3
-------   -------------   ------
 72
   65
 73
    2
 40
7.5
 49
6
 49
-1.5
  0
LTYPE
  2
dashed_spaced
 70
   64
  3
----        --------        ----
 72
   65
 73
    2
 40
12
 49
6
 49
-6
  0
LTYPE
  2
long_dashed_dotted
 70
   64
  3
------------- --- --------------
 72
   65
 73
    4
 40
15.25
 49
12
 49
-1.5
 49
0.25
 49
-1.5
  0
LTYPE
  2
long_dashed_double-dotted
 70
   64
  3
----------- --- --- ------------
 72
   65
 73
    6
 40
17
 49
12
 49
-1.5
 49
0.25
 49
-1.5
 49
0.25
 49
-1.5
  0
LTYPE
  2
long_dashed_triplicate-dotted
 70
   64
  3
--------- --- --- --- ----------
 72
   65
 73
    8
 40
18.75
 49
12
 49
-1.5
 49
0.25
 49
-1.5
 49
0.25
 49
-1.5
 49
0.25
 49
-1.5
  0
LTYPE
  2
dotted
 70
   64
  3
   -       -       -       -    
 72
   65
 73
    2
 40
1.75
 49
0.25
 49
-1.5
  0
LTYPE
  2
chain
 70
   64
  3
-------------- -- --------------
 72
   65
 73
    4
 40
18.5
 49
12
 49
-1.5
 49
3.5
 49
-1.5
  0
LTYPE
  2
chain_double_dash
 70
   64
  3
------------ -- -- -------------
 72
   65
 73
    6
 40
23.5
 49
12
 49
-1.5
 49
3.5
 49
-1.5
 49
3.5
 49
-1.5
  0
LTYPE
  2
dashed_dotted
 70
   64
  3
-----------     -     ----------
 72
   65
 73
    4
 40
9.25
 49
6
 49
-1.5
 49
0.25
 49
-1.5
  0
LTYPE
  2
double-dashed_dotted
 70
   64
  3
------   -----------   -   -----
 72
   65
 73
    6
 40
16.75
 49
6
 49
-1.5
 49
6
 49
-1.5
 49
0.25
 49
-1.5
  0
LTYPE
  2
dashed_double-dotted
 70
   64
  3
---------    -    -    ---------
 72
   65
 73
    6
 40
11
 49
6
 49
-1.5
 49
0.25
 49
-1.5
 49
0.25
 49
-1.5
  0
LTYPE
  2
double-dashed_double-dotted
 70
   64
  3
-----   ---------   -   -   ----
 72
   65
 73
    8
 40
18.5
 49
6
 49
-1.5
 49
6
 49
-1.5
 49
0.25
 49
-1.5
 49
0.25
 49
-1.5
  0
LTYPE
  2
dashed_triplicate-dotted
 70
   64
  3
-------    -    -    -    ------
 72
   65
 73
    8
 40
12.75
 49
6
 49
-1.5
 49
0.25
 49
-1.5
 49
0.25
 49
-1.5
 49
0.25
 49
-1.5
  0
LTYPE
  2
double-dashed_triplicate-dotted
 70
   64
  3
-----  ---------  -  -  -  -----
 72
   65
 73
   10
 40
20.25
 49
6
 49
-1.5
 49
6
 49
-1.5
 49
0.25
 49
-1.5
 49
0.25
 49
-1.5
 49
0.25
 49
-1.5
  0
LTYPE
  2
undefined
 70
   64
  3
--------------------------------
 72
   65
 73
    0
 40
0
  0
LTYPE
  2
PLINE2
 70
   64
  3
------     -----------     -----
 72
   65
 73
    2
 40
3
 49
2.1000000000000001
 49
-0.9
  0
LTYPE
  2
PLINE3
 70
   64
  3
------------   ---   -----------
 72
   65
 73
    4
 40
10
 49
7
 49
-1
 49
1
 49
-1
  0
LTYPE
  2
PLINE4
 70
   64
  3
---------   ---   ---   --------
 72
   65
 73
    6
 40
10
 49
5
 49
-1
 49
1
 49
-1
 49
1
 49
-1
  0
LTYPE
  2
PLINE5
 70
   64
  3
------     -----------     -----
 72
   65
 73
    2
 40
5
 49
3.5
 49
-1.5
  0
LTYPE
  2
PLINE6
 70
   64
  3
------------   ---   -----------
 72
   65
 73
    4
 40
15
 49
10.5
 49
-1.5
 49
1.5
 49
-1.5
  0
LTYPE
  2
PLINE7
 70
   64
  3
---------   ---   ---   --------
 72
   65
 73
    6
 40
15
 49
7.5
 49
-1.5
 49
1.5
 49
-1.5
 49
1.5
 49
-1.5
  0
LTYPE
  2
PLINE8
 70
   64
  3
------     -----------     -----
 72
   65
 73
    2
 40
7
 49
4.9000000000000004
 49
-2.1000000000000001
  0
LTYPE
  2
PLINE9
 70
   64
  3
------------   ---   -----------
 72
   65
 73
    4
 40
20
 49
14
 49
-2
 49
2
 49
-2
  0
LTYPE
  2
PLINE10
 70
   64
  3
---------   ---   ---   --------
 72
   65
 73
    6
 40
20
 49
10
 49
-2
 49
2
 49
-2
 49
2
 49
-2
  0
LTYPE
  2
PLINE11
 70
   64
  3
------     -----------     -----
 72
   65
 73
    2
 40
9
 49
6.2999999999999989
 49
-2.7000000000000002
  0
LTYPE
  2
PLINE12
 70
   64
  3
------------   ---   -----------
 72
   65
 73
    4
 40
25
 49
17.5
 49
-2.5
 49
2.5
 49
-2.5
  0
LTYPE
  2
PLINE13
 70
   64
  3
---------   ---   ---   --------
 72
   65
 73
    6
 40
25
 49
12.5
 49
-2.5
 49
2.5
 49
-2.5
 49
2.5
 49
-2.5
  0
LTYPE
  2
PLINE14
 70
   64
  3
------     -----------     -----
 72
   65
 73
    2
 40
11
 49
7.7000000000000002
 49
-3.2999999999999989
  0
LTYPE
  2
PLINE15
 70
   64
  3
------------   ---   -----------
 72
   65
 73
    4
 40
30
 49
21
 49
-3
 49
3
 49
-3
  0
LTYPE
  2
PLINE16
 70
   64
  3
---------   ---   ---   --------
 72
   65
 73
    6
 40
30
 49
15
 49
-3
 49
3
 49
-3
 49
3
 49
-3
  0
ENDTAB
  0
TABLE
  2
STYLE
  5
3
100
AcDbSymbolTable
 70
     1
  0
STYLE
  5
10
100
AcDbSymbolTableRecord
100
AcDbTextStyleTableRecord
  2
STANDARD
 70
     0
 40
0.0
 41
1.0
 50
0.0
 71
     0
 42
0.2
  3
txt
  4
bigfont.shx
  0
STYLE
  5
26
100
AcDbSymbolTableRecord
100
AcDbTextStyleTableRecord
  2
TATEGAKI
 70
    68
 40
0.0
 41
1.0
 50
0.0
 71
     0
 42
1.0
  3
txt
  4
bigfont.shx
  0
ENDTAB
  0
TABLE
  2
LAYER
 70
    4
  0
LAYER
  2
_0-2_寸法
 70
   64
 62
    7
  6
CONTINUOUS
  0
LAYER
  2
_0-3_躯体と製品
 70
   64
 62
    7
  6
CONTINUOUS
  0
LAYER
  2
_0-4_図面枠
 70
   64
 62
    7
  6
CONTINUOUS
  0
LAYER
  2
ADD_LINE
 70
   64
 62
    7
  6
CONTINUOUS
  0
ENDTAB
  0
ENDSEC
  0
SECTION
  2
BLOCKS
  0
BLOCK
  2
-000-_Dot
 70
   64
 10
0
 20
0
 30
0
  0
CIRCLE
  8
_0-0_0
  6
CONTINUOUS
 62
    7
 10
0
 20
0
 40
0.05
  0
LINE
  8
_0-0_0
  6
CONTINUOUS
 62
    7
 10
0.05
 20
0
 11
-0.05
 21
0
  0
LINE
  8
_0-0_0
  6
CONTINUOUS
 62
    7
 10
-0.1
 20
0
 11
-0.2
 21
0
  0
ENDBLK
  0
BLOCK
  2
-001-_D4
 70
   64
 10
0
 20
0
 30
0
  0
LINE
  8
_0-2_寸法
  6
CONTINUOUS
 62
    4
 10
381.12135240694181
 20
39.9444662371844
 11
381.12135240694181
 21
73.736727837184404
  0
LINE
  8
_0-2_寸法
  6
CONTINUOUS
 62
    4
 10
389.12135240694181
 20
41.705021172871398
 11
389.12135240694181
 21
73.736727837184404
  0
LINE
  8
_0-2_寸法
  6
CONTINUOUS
 62
    4
 10
381.3213524069418
 20
73.736727837184404
 11
388.92135240694176
 21
73.736727837184404
  0
INSERT
  2
-000-_Dot
  8
_0-2_寸法
 10
381.12135240694181
 20
73.736727837184404
 41
1
 42
1
 50
180
  0
INSERT
  2
-000-_Dot
  8
_0-2_寸法
 10
389.12135240694181
 20
73.736727837184404
 41
1
 42
1
 50
0
  0
TEXT
  8
_0-2_寸法
 62
    7
 10
383.12135240694181
 20
73.8967278371844
 40
4
 41
1
 50
0
  1
40
  0
POINT
  8
_0-1_Defpoints
 62
    7
 10
381.12135240694181
 20
39.9444662371844
  0
POINT
  8
_0-1_Defpoints
 62
    7
 10
389.12135240694181
 20
41.705021172871398
  0
POINT
  8
_0-1_Defpoints
 62
    7
 10
389.12135240694181
 20
73.736727837184404
  0
ENDBLK
  0
BLOCK
  2
-002-_D5
 70
   64
 10
0
 20
0
 30
0
  0
LINE
  8
_0-2_寸法
  6
CONTINUOUS
 62
    4
 10
389.12135240694181
 20
41.705021172871398
 11
389.12135240694181
 21
73.736727837184404
  0
LINE
  8
_0-2_寸法
  6
CONTINUOUS
 62
    4
 10
411.12135240694181
 20
40.173362637184404
 11
411.12135240694181
 21
73.736727837184404
  0
LINE
  8
_0-2_寸法
  6
CONTINUOUS
 62
    4
 10
389.3213524069418
 20
73.736727837184404
 11
410.92135240694176
 21
73.736727837184404
  0
INSERT
  2
-000-_Dot
  8
_0-2_寸法
 10
389.12135240694181
 20
73.736727837184404
 41
1
 42
1
 50
180
  0
INSERT
  2
-000-_Dot
  8
_0-2_寸法
 10
411.12135240694181
 20
73.736727837184404
 41
1
 42
1
 50
0
  0
TEXT
  8
_0-2_寸法
 62
    7
 10
397.12135240694181
 20
73.8967278371844
 40
4
 41
1
 50
0
  1
110
  0
POINT
  8
_0-1_Defpoints
 62
    7
 10
389.12135240694181
 20
41.705021172871398
  0
POINT
  8
_0-1_Defpoints
 62
    7
 10
411.12135240694181
 20
40.173362637184404
  0
POINT
  8
_0-1_Defpoints
 62
    7
 10
411.12135240694181
 20
73.736727837184404
  0
ENDBLK
  0
BLOCK
  2
-003-_D6
 70
   64
 10
0
 20
0
 30
0
  0
LINE
  8
_0-2_寸法
  6
CONTINUOUS
 62
    4
 10
449.71011461480884
 20
125.3425172371844
 11
353.64499200694183
 21
125.34251723718444
  0
LINE
  8
_0-2_寸法
  6
CONTINUOUS
 62
    4
 10
378.64173560694178
 20
35.342517237184396
 11
353.64499200694183
 21
35.342517237184396
  0
LINE
  8
_0-2_寸法
  6
CONTINUOUS
 62
    4
 10
353.64499200694183
 20
125.14251723718444
 11
353.64499200694183
 21
35.542517237184398
  0
INSERT
  2
-000-_Dot
  8
_0-2_寸法
 10
353.64499200694183
 20
125.34251723718444
 41
1
 42
1
 50
90
  0
INSERT
  2
-000-_Dot
  8
_0-2_寸法
 10
353.64499200694183
 20
35.342517237184396
 41
1
 42
1
 50
270
  0
TEXT
  8
_0-2_寸法
 62
    7
 10
353.48499200694181
 20
76.342517237184481
 40
4
 41
1
 50
90
  1
高さ
  0
POINT
  8
_0-1_Defpoints
 62
    7
 10
449.71011461480884
 20
125.3425172371844
  0
POINT
  8
_0-1_Defpoints
 62
    7
 10
378.64173560694178
 20
35.342517237184396
  0
POINT
  8
_0-1_Defpoints
 62
    7
 10
353.64499200694183
 20
35.342517237184396
  0
ENDBLK
  0
BLOCK
  2
-004-_D7
 70
   64
 10
0
 20
0
 30
0
  0
LINE
  8
_0-2_寸法
  6
CONTINUOUS
 62
    4
 10
389.12135240694181
 20
65.580869637184406
 11
389.12135240694181
 21
148.15295523718439
  0
LINE
  8
_0-2_寸法
  6
CONTINUOUS
 62
    4
 10
569.12135240694181
 20
65.580869637184406
 11
569.12135240694181
 21
148.15295523718439
  0
LINE
  8
_0-2_寸法
  6
CONTINUOUS
 62
    4
 10
389.3213524069418
 20
148.15295523718439
 11
568.92135240694176
 21
148.15295523718439
  0
INSERT
  2
-000-_Dot
  8
_0-2_寸法
 10
389.12135240694181
 20
148.15295523718439
 41
1
 42
1
 50
180
  0
INSERT
  2
-000-_Dot
  8
_0-2_寸法
 10
569.12135240694181
 20
148.15295523718439
 41
1
 42
1
 50
0
  0
TEXT
  8
_0-2_寸法
 62
    7
 10
455.12135240694181
 20
148.31295523718441
 40
4
 41
1
 50
0
  1
基準巾　９００～２０００
  0
POINT
  8
_0-1_Defpoints
 62
    7
 10
389.12135240694181
 20
65.580869637184406
  0
POINT
  8
_0-1_Defpoints
 62
    7
 10
569.12135240694181
 20
65.580869637184406
  0
POINT
  8
_0-1_Defpoints
 62
    7
 10
569.12135240694181
 20
148.15295523718439
  0
ENDBLK
  0
BLOCK
  2
-005-_D8
 70
   64
 10
0
 20
0
 30
0
  0
LINE
  8
_0-2_寸法
  6
CONTINUOUS
 62
    4
 10
397.12135240694181
 20
-13.084958794974956
 11
397.12135240694181
 21
-20.399985962815581
  0
LINE
  8
_0-2_寸法
  6
CONTINUOUS
 62
    4
 10
561.12135240694181
 20
-13.084958794974956
 11
561.12135240694181
 21
-20.399985962815581
  0
LINE
  8
_0-2_寸法
  6
CONTINUOUS
 62
    4
 10
397.32135240694203
 20
-20.399985962815581
 11
560.92135240694176
 21
-20.399985962815581
  0
INSERT
  2
-000-_Dot
  8
_0-2_寸法
 10
397.12135240694181
 20
-20.399985962815581
 41
1
 42
1
 50
180
  0
INSERT
  2
-000-_Dot
  8
_0-2_寸法
 10
561.12135240694181
 20
-20.399985962815581
 41
1
 42
1
 50
0
  0
TEXT
  8
_0-2_寸法
 62
    7
 10
451.12135240694181
 20
-20.239985962815588
 40
4
 41
1
 50
0
  1
受枠外径（基準巾－８０ｍｍ）
  0
POINT
  8
_0-1_Defpoints
 62
    7
 10
397.12135240694181
 20
-13.084958794974956
  0
POINT
  8
_0-1_Defpoints
 62
    7
 10
561.12135240694181
 20
-13.084958794974956
  0
POINT
  8
_0-1_Defpoints
 62
    7
 10
561.12135240694181
 20
-20.399985962815581
  0
ENDBLK
  0
ENDSEC
  0
SECTION
  2
ENTITIES
  0
TEXT
  8
_0-4_図面枠
 62
    7
 10
22.93872236110019
 20
748.06496889171103
 40
40
 41
0.8
 50
0
  1
サニートップ　ＶＳ型標準図
  0
LINE
  8
_0-4_図面枠
  6
CONTINUOUS
 62
    4
 10
-757.93644563890007
 20
732.66666389171098
 11
1177.8968873611002
 21
732.66666389171098
  0
LINE
  8
_0-4_図面枠
  6
CONTINUOUS
 62
    4
 10
-757.93644563890007
 20
-519.00000310828887
 11
1177.8968873611002
 21
-519.00000310828887
  0
LINE
  8
_0-4_図面枠
  6
CONTINUOUS
 62
    4
 10
-757.93644563890007
 20
815.99999689171102
 11
1177.8968873611002
 21
815.99999689171102
  0
ARC
  8
_0-3_躯体と製品
  6
CONTINUOUS
 62
    5
 10
198.1371993611001
 20
418.94422389171098
 40
32.704225000000001
 50
304.42849200000302
 51
325.57150800000142
  0
LINE
  8
_0-3_躯体と製品
  6
PLINE3
 62
    2
 10
220.6064363611008
 20
396.47498689171096
 11
239.22617036109978
 21
377.85525189171108
  0
LINE
  8
_0-3_躯体と製品
  6
CONTINUOUS
 62
    2
 10
222.45997536110099
 20
337.34579889171084
 11
217.68808436109975
 21
342.11768889171105
  0
LINE
  8
_0-3_躯体と製品
  6
CONTINUOUS
 62
    2
 10
224.40559936110003
 20
343.17834889171081
 11
221.00179336109977
 21
339.77454389171112
  0
LINE
  8
_0-3_躯体と製品
  6
CONTINUOUS
 62
    2
 10
213.09189036110001
 20
361.56312589171091
 11
239.25484136109981
 21
335.400174891711
  0
LINE
  8
_0-3_躯体と製品
  6
CONTINUOUS
 62
    2
 10
221.57717136109977
 20
346.00677689171096
 11
224.40559936110003
 21
346.00677689171096
  0
LINE
  8
_0-3_躯体と製品
  6
CONTINUOUS
 62
    2
 10
220.16295836109975
 20
347.42098989171097
 11
222.99138536110013
 21
347.42098989171097
  0
LINE
  8
_0-3_躯体と製品
  6
CONTINUOUS
 62
    2
 10
221.57717136109977
 20
387.01896989171109
 11
225.46625936110013
 21
390.908056891711
  0
LINE
  8
_0-3_躯体と製品
  6
CONTINUOUS
 62
    2
 10
221.57717136109977
 20
384.19054289171106
 11
231.47666636109989
 21
394.09003789171095
  0
LINE
  8
_0-3_躯体と製品
  6
CONTINUOUS
 62
    2
 10
228.64823936109997
 20
368.63419389171111
 11
219.45585136110094
 21
359.44180489171106
  0
LINE
  8
_0-3_躯体と製品
  6
CONTINUOUS
 62
    2
 10
239.25484136109981
 20
335.400174891711
 11
-135.16799463889993
 21
-39.022661108289071
  0
LINE
  8
_0-3_躯体と製品
  6
CONTINUOUS
 62
    2
 10
232.89088036109979
 20
341.76413589171102
 11
-147.89591663889996
 21
-39.022661108289071
  0
LINE
  8
_0-3_躯体と製品
  6
CONTINUOUS
 62
    2
 10
-87.493895638900085
 20
-32.022661108289014
 11
262.50610436109991
 21
-32.022661108289014
  0
LINE
  8
_0-3_躯体と製品
  6
CONTINUOUS
 62
    2
 10
-77.493895638900085
 20
-47.022661108289014
 11
262.50610436109991
 21
-47.022661108289014
  0
LINE
  8
_0-3_躯体と製品
  6
CONTINUOUS
 62
    2
 10
-77.493895638900085
 20
-49.022661108289071
 11
262.50610436109991
 21
-49.022661108289071
  0
LINE
  8
_0-3_躯体と製品
  6
CONTINUOUS
 62
    7
 10
215.92031736109993
 20
354.49205789171083
 11
230.06245336109987
 21
340.34992189171101
  0
LINE
  8
_0-3_躯体と製品
  6
CONTINUOUS
 62
    7
 10
214.50610436109991
 20
324.79357289171094
 11
232.18377336110007
 21
342.47124289171097
  0
LINE
  8
_0-3_躯体と製品
  6
PLINE3
 62
    2
 10
314.50610436109991
 20
-24.022661108289071
 11
219.00610436109991
 21
-24.022661108289071
  0
LINE
  8
_0-3_躯体と製品
  6
CONTINUOUS
 62
    5
 10
221.93072536110003
 20
374.64460089171098
 11
225.46625936110013
 21
371.109066891711
  0
LINE
  8
_0-3_躯体と製品
  6
CONTINUOUS
 62
    2
 10
215.92031736109993
 20
351.66363089171091
 11
227.23402636109995
 21
340.34992189171101
  0
LINE
  8
_0-3_躯体と製品
  6
PLINE3
 62
    2
 10
234.30509436110015
 20
358.73469889171088
 11
200.36396836110089
 21
324.79357289171094
  0
LINE
  8
_0-3_躯体と製品
  6
CONTINUOUS
 62
    5
 10
220.16295836109975
 20
382.77632889171093
 11
225.11270536109987
 21
377.82658189171093
  0
LINE
  8
_0-3_躯体と製品
  6
CONTINUOUS
 62
    5
 10
225.11270536109987
 20
377.82658189171093
 11
-208.73653663890013
 21
-56.022661108289043
  0
LINE
  8
_0-4_図面枠
  6
CONTINUOUS
 62
    4
 10
-757.93644563890007
 20
815.99999689171102
 11
-757.93644563890007
 21
-519.00000310828887
  0
LINE
  8
_0-3_躯体と製品
  6
CONTINUOUS
 62
    2
 10
-193.44364363890008
 20
-20.930778108289019
 11
194.00000736109996
 21
366.51287289171091
  0
LINE
  8
_0-3_躯体と製品
  6
CONTINUOUS
 62
    2
 10
214.50610436109991
 20
362.97733889171093
 11
-184.47433663890001
 21
-36.003101108289002
  0
LINE
  8
_0-3_躯体と製品
  6
CONTINUOUS
 62
    2
 10
-194.8578566389001
 20
-19.51656410828906
 11
192.58579336110006
 21
367.92708689171104
  0
LINE
  8
_0-3_躯体と製品
  6
CONTINUOUS
 62
    5
 10
220.16295836109975
 20
382.77632889171093
 11
-213.68628363890002
 21
-51.072913108289043
  0
LINE
  8
_0-3_躯体と製品
  6
PLINE3
 62
    2
 10
200.36396836110089
 20
324.79357289171094
 11
-141.38119763889995
 21
-16.951593108289046
  0
LINE
  8
_0-3_躯体と製品
  6
CONTINUOUS
 62
    2
 10
-147.49389563890009
 20
-106.48573010828903
 11
-147.49389563890009
 21
-330.23517710828889
  0
LINE
  8
_0-3_躯体と製品
  6
CONTINUOUS
 62
    2
 10
-87.493895638900085
 20
-47.022661108289014
 11
-77.493895638900085
 21
-47.022661108289014
  0
LINE
  8
_0-3_躯体と製品
  6
CONTINUOUS
 62
    2
 10
-77.493895638900085
 20
-49.022661108289071
 11
-91.493895638900085
 21
-49.022661108289071
  0
LINE
  8
_0-3_躯体と製品
  6
CONTINUOUS
 62
    2
 10
-126.49389863889996
 20
-51.022660108289045
 11
-126.49389863889996
 21
-55.836369108289034
  0
LINE
  8
_0-3_躯体と製品
  6
CONTINUOUS
 62
    2
 10
-130.49389863889996
 20
-51.022660108289045
 11
-130.49389863889996
 21
-55.800091108289024
  0
LINE
  8
_0-3_躯体と製品
  6
CONTINUOUS
 62
    2
 10
-118.49389863889996
 20
-51.022660108289045
 11
-118.49389863889996
 21
-55.836369108289034
  0
LINE
  8
_0-3_躯体と製品
  6
CONTINUOUS
 62
    2
 10
-114.49389863889996
 20
-51.022660108289045
 11
-114.49389863889996
 21
-55.800091108289024
  0
LINE
  8
_0-3_躯体と製品
  6
CONTINUOUS
 62
    7
 10
-143.49389563890009
 20
-52.022661108289014
 11
-143.49389563890009
 21
-92.022661108289014
  0
LINE
  8
_0-3_躯体と製品
  6
CONTINUOUS
 62
    7
 10
-147.49389563890009
 20
-95.022661108289014
 11
-147.49389563890009
 21
-45.022661108289043
  0
LINE
  8
_0-3_躯体と製品
  6
CONTINUOUS
 62
    2
 10
-174.99389563890009
 20
-57.522661108289043
 11
-174.99389563890009
 21
-45.022661108289043
  0
LINE
  8
_0-3_躯体と製品
  6
CONTINUOUS
 62
    2
 10
-155.99389563890009
 20
-64.022661108289071
 11
-155.99389563890009
 21
-45.022661108289043
  0
LINE
  8
_0-3_躯体と製品
  6
CONTINUOUS
 62
    2
 10
-218.49389563890009
 20
-53.022661108289043
 11
-218.49389563890009
 21
-61.022661108289043
  0
LINE
  8
_0-3_躯体と製品
  6
CONTINUOUS
 62
    2
 10
-225.49389563890009
 20
-52.022661108289014
 11
-225.49389563890009
 21
-74.022661108289071
  0
LINE
  8
_0-3_躯体と製品
  6
CONTINUOUS
 62
    2
 10
-227.49389563890009
 20
-37.022661108289014
 11
-227.49389563890009
 21
-74.022661108289071
  0
LINE
  8
_0-3_躯体と製品
  6
PLINE3
 62
    2
 10
-122.49389563890009
 20
-30.516602108289021
 11
-122.49389563890009
 21
-62.278774108289042
  0
LINE
  8
_0-3_躯体と製品
  6
CONTINUOUS
 62
    2
 10
-160.99389563890009
 20
-51.922661108289049
 11
-160.99389563890009
 21
-53.422661108289049
  0
LINE
  8
_0-3_躯体と製品
  6
CONTINUOUS
 62
    2
 10
-169.99389563890009
 20
-51.922661108289049
 11
-169.99389563890009
 21
-53.422661108289049
  0
LINE
  8
_0-3_躯体と製品
  6
PLINE3
 62
    2
 10
-165.49389563890009
 20
-24.825396108289027
 11
-165.49389563890009
 21
-67.022661108289014
  0
ARC
  8
_0-3_躯体と製品
  6
CONTINUOUS
 62
    2
 10
-224.49389563890009
 20
-50.022661108289043
 40
5
 50
126.8698980000058
 51
233.13010199999414
  0
LINE
  8
_0-3_躯体と製品
  6
CONTINUOUS
 62
    5
 10
-213.68628363890002
 20
-51.072913108289043
 11
-208.73653663890013
 21
-56.022661108289043
  0
LINE
  8
_0-3_躯体と製品
  6
CONTINUOUS
 62
    7
 10
-85.493894638899064
 20
-256.16953110828899
 11
-85.493894638899064
 21
-115.02266110828901
  0
LINE
  8
_0-3_躯体と製品
  6
CONTINUOUS
 62
    7
 10
-205.49389463889997
 20
-256.16953110828899
 11
-205.49389463889997
 21
-115.02266110828901
  0
LINE
  8
_0-3_躯体と製品
  6
CONTINUOUS
 62
    5
 10
-205.49389463889997
 20
-180.67951410828897
 11
-139.83704163890002
 21
-115.02266110828901
  0
LINE
  8
_0-3_躯体と製品
  6
CONTINUOUS
 62
    5
 10
-205.49389463889997
 20
-177.85108710828894
 11
-142.66546863889994
 21
-115.02266110828901
  0
LINE
  8
_0-3_躯体と製品
  6
CONTINUOUS
 62
    5
 10
-205.49389463889997
 20
-175.02266010828896
 11
-145.49389563890009
 21
-115.02266110828901
  0
LINE
  8
_0-3_躯体と製品
  6
CONTINUOUS
 62
    7
 10
-225.49389463889997
 20
-256.16953110828899
 11
-225.49389463889997
 21
-89.02265910828902
  0
LINE
  8
_0-3_躯体と製品
  6
CONTINUOUS
 62
    5
 10
-163.31829163890006
 20
-256.16953110828899
 11
-85.493894638899064
 21
-178.34513410828902
  0
LINE
  8
_0-3_躯体と製品
  6
CONTINUOUS
 62
    5
 10
-166.14671863889998
 20
-256.16953110828899
 11
-85.493894638899064
 21
-175.51670710828898
  0
LINE
  8
_0-3_躯体と製品
  6
CONTINUOUS
 62
    5
 10
-168.97514563890013
 20
-256.16953110828899
 11
-85.493894638899064
 21
-172.68828010828901
  0
LINE
  8
_0-3_躯体と製品
  6
CONTINUOUS
 62
    7
 10
-205.49389463889997
 20
-115.02266110828901
 11
-85.493894638899064
 21
-115.02266110828901
  0
LINE
  8
_0-3_躯体と製品
  6
CONTINUOUS
 62
    2
 10
-155.99389563890009
 20
-64.022661108289071
 11
-218.49389563890009
 21
-64.022661108289071
  0
LINE
  8
_0-3_躯体と製品
  6
CONTINUOUS
 62
    2
 10
-160.99389563890009
 20
-53.422661108289049
 11
-158.99389563890009
 21
-53.422661108289049
  0
LINE
  8
_0-3_躯体と製品
  6
CONTINUOUS
 62
    2
 10
-158.99389563890009
 20
-61.022661108289043
 11
-171.99389563890009
 21
-61.022661108289043
  0
LINE
  8
_0-3_躯体と製品
  6
CONTINUOUS
 62
    2
 10
-218.49389563890009
 20
-61.022661108289043
 11
-174.99389563890009
 21
-61.022661108289043
  0
LINE
  8
_0-3_躯体と製品
  6
CONTINUOUS
 62
    5
 10
-183.49389563890009
 20
-56.022661108289043
 11
-218.49389563890009
 21
-56.022661108289043
  0
LINE
  8
_0-3_躯体と製品
  6
CONTINUOUS
 62
    2
 10
-208.49389563890009
 20
-72.022661108289014
 11
-208.49389563890009
 21
-89.02265910828902
  0
LINE
  8
_0-3_躯体と製品
  6
CONTINUOUS
 62
    2
 10
-210.49389563890009
 20
-89.022661108289014
 11
-210.49389563890009
 21
-74.022661108289071
  0
ARC
  8
_0-3_躯体と製品
  6
CONTINUOUS
 62
    5
 10
-244.14693863890011
 20
-74.659432108289025
 40
23.651088999999999
 50
322.55044099999731
 51
1.2973440000009437
  0
LINE
  8
_0-3_躯体と製品
  6
CONTINUOUS
 62
    7
 10
-208.49389563890009
 20
-89.02265910828902
 11
-225.49389463889997
 21
-89.02265910828902
  0
LINE
  8
_0-3_躯体と製品
  6
CONTINUOUS
 62
    2
 10
-220.49389563890009
 20
-74.022661108289071
 11
-210.49389563890009
 21
-74.022661108289071
  0
LINE
  8
_0-3_躯体と製品
  6
CONTINUOUS
 62
    2
 10
-218.49389563890009
 20
-72.022661108289014
 11
-208.49389563890009
 21
-72.022661108289014
  0
LINE
  8
_0-3_躯体と製品
  6
CONTINUOUS
 62
    2
 10
-220.49389563890009
 20
-58.522661108289043
 11
-219.99389563890009
 21
-58.022661108289043
  0
LINE
  8
_0-3_躯体と製品
  6
CONTINUOUS
 62
    2
 10
-220.49389563890009
 20
-57.522661108289043
 11
-219.99389563890009
 21
-58.022661108289043
  0
LINE
  8
_0-3_躯体と製品
  6
CONTINUOUS
 62
    2
 10
-220.49389563890009
 20
-58.522661108289043
 11
-220.49389563890009
 21
-74.022661108289071
  0
LINE
  8
_0-3_躯体と製品
  6
CONTINUOUS
 62
    2
 10
-218.49389563890009
 20
-64.022661108289071
 11
-218.49389563890009
 21
-72.022661108289014
  0
LINE
  8
_0-3_躯体と製品
  6
CONTINUOUS
 62
    2
 10
-220.49389563890009
 20
-55.022661108289043
 11
-220.49389563890009
 21
-57.522661108289043
  0
LINE
  8
_0-3_躯体と製品
  6
CONTINUOUS
 62
    2
 10
-225.49389563890009
 20
-55.022661108289043
 11
-220.49389563890009
 21
-55.022661108289043
  0
LINE
  8
_0-3_躯体と製品
  6
CONTINUOUS
 62
    2
 10
-225.49389563890009
 20
-74.022661108289071
 11
-227.49389563890009
 21
-74.022661108289071
  0
LINE
  8
_0-3_躯体と製品
  6
CONTINUOUS
 62
    2
 10
-218.49389563890009
 20
-60.522661108289043
 11
-220.49389563890009
 21
-60.522661108289043
  0
LINE
  8
_0-3_躯体と製品
  6
CONTINUOUS
 62
    2
 10
-218.49389563890009
 20
-55.522661108289043
 11
-220.49389563890009
 21
-55.522661108289043
  0
LINE
  8
_0-3_躯体と製品
  6
CONTINUOUS
 62
    5
 10
-183.49389563890009
 20
-61.022661108289043
 11
-183.49389563890009
 21
-56.022661108289043
  0
LINE
  8
_0-3_躯体と製品
  6
CONTINUOUS
 62
    2
 10
-174.99389563890009
 20
-58.522661108289043
 11
-174.49389563890009
 21
-58.022661108289043
  0
LINE
  8
_0-3_躯体と製品
  6
CONTINUOUS
 62
    2
 10
-171.99389563890009
 20
-53.422661108289049
 11
-171.99389563890009
 21
-61.022661108289043
  0
LINE
  8
_0-3_躯体と製品
  6
CONTINUOUS
 62
    2
 10
-169.99389563890009
 20
-53.422661108289049
 11
-171.99389563890009
 21
-53.422661108289049
  0
LINE
  8
_0-3_躯体と製品
  6
CONTINUOUS
 62
    2
 10
-174.99389563890009
 20
-58.522661108289043
 11
-174.99389563890009
 21
-61.022661108289043
  0
LINE
  8
_0-3_躯体と製品
  6
CONTINUOUS
 62
    2
 10
-171.99389563890009
 20
-60.522661108289043
 11
-174.99389563890009
 21
-60.522661108289043
  0
LINE
  8
_0-3_躯体と製品
  6
CONTINUOUS
 62
    2
 10
-171.99389563890009
 20
-55.522661108289043
 11
-174.99389563890009
 21
-55.522661108289043
  0
LINE
  8
_0-3_躯体と製品
  6
CONTINUOUS
 62
    2
 10
-174.99389563890009
 20
-57.522661108289043
 11
-174.49389563890009
 21
-58.022661108289043
  0
LINE
  8
_0-3_躯体と製品
  6
PLINE3
 62
    2
 10
-118.49389563890009
 20
-102.51688310828894
 11
-118.49389563890009
 21
-130.74091410828896
  0
LINE
  8
_0-3_躯体と製品
  6
CONTINUOUS
 62
    7
 10
-143.49389563890009
 20
-92.022661108289014
 11
-143.49389563890009
 21
-115.02266110828901
  0
LINE
  8
_0-3_躯体と製品
  6
CONTINUOUS
 62
    7
 10
-139.49389563890009
 20
-108.02266110828901
 11
-139.49389563890009
 21
-68.022661108289043
  0
LINE
  8
_0-3_躯体と製品
  6
CONTINUOUS
 62
    7
 10
-96.493895638900085
 20
-111.02266110828901
 11
-136.49389563890009
 21
-111.02266110828901
  0
ARC
  8
_0-3_躯体と製品
  6
CONTINUOUS
 62
    7
 10
-136.49389563890009
 20
-108.02266110828901
 40
3
 50
180
 51
270
  0
LINE
  8
_0-3_躯体と製品
  6
CONTINUOUS
 62
    7
 10
-93.493895638900085
 20
-114.02266110828901
 11
-93.493895638900085
 21
-115.02266110828901
  0
ARC
  8
_0-3_躯体と製品
  6
CONTINUOUS
 62
    7
 10
-96.493895638900085
 20
-114.02266110828901
 40
3
 50
0
 51
90
  0
ARC
  8
_0-3_躯体と製品
  6
CONTINUOUS
 62
    2
 10
-122.49389863889996
 20
-44.522661108289014
 40
12
 50
270
 51
289.47122099999558
  0
LINE
  8
_0-3_躯体と製品
  6
CONTINUOUS
 62
    2
 10
-115.74542663889997
 20
-56.522660108289045
 11
-122.49389863889996
 21
-56.522660108289045
  0
LINE
  8
_0-3_躯体と製品
  6
CONTINUOUS
 62
    2
 10
-125.49389863889996
 20
-59.022661108289071
 11
-119.49389863889996
 21
-59.022661108289071
  0
LINE
  8
_0-3_躯体と製品
  6
CONTINUOUS
 62
    2
 10
-126.49389863889996
 20
-58.022661108289043
 11
-118.49389863889996
 21
-58.022661108289043
  0
LINE
  8
_0-3_躯体と製品
  6
PLINE3
 62
    2
 10
-152.96934963889998
 20
-80.022661108289043
 11
-131.95812763890012
 21
-80.022661108289043
  0
ARC
  8
_0-3_躯体と製品
  6
CONTINUOUS
 62
    7
 10
-146.49389563890009
 20
-92.022661108289014
 40
3
 50
270
 51
0
  0
LINE
  8
_0-3_躯体と製品
  6
CONTINUOUS
 62
    7
 10
-146.49389563890009
 20
-95.022661108289014
 11
-147.49389563890009
 21
-95.022661108289014
  0
ARC
  8
_0-3_躯体と製品
  6
CONTINUOUS
 62
    7
 10
-142.49389563890009
 20
-68.022661108289043
 40
3
 50
0
 51
90
  0
LINE
  8
_0-3_躯体と製品
  6
CONTINUOUS
 62
    7
 10
-142.49389563890009
 20
-65.022661108289043
 11
-143.49389563890009
 21
-65.022661108289043
  0
LINE
  8
_0-3_躯体と製品
  6
CONTINUOUS
 62
    2
 10
-158.99389563890009
 20
-53.422661108289049
 11
-158.99389563890009
 21
-61.022661108289043
  0
ARC
  8
_0-3_躯体と製品
  6
CONTINUOUS
 62
    2
 10
-128.42356563890007
 20
-53.466660108289034
 40
3.056
 50
270
 51
309.1561320000028
  0
ARC
  8
_0-3_躯体と製品
  6
CONTINUOUS
 62
    2
 10
-122.49389863889996
 20
-44.522661108289014
 40
12
 50
250.52877900000436
 51
270.00000000000006
  0
LINE
  8
_0-3_躯体と製品
  6
CONTINUOUS
 62
    2
 10
-129.24237063889996
 20
-56.522660108289045
 11
-122.49389863889996
 21
-56.522660108289045
  0
LINE
  8
_0-3_躯体と製品
  6
CONTINUOUS
 62
    2
 10
-130.49389863889996
 20
-55.800091108289024
 11
-129.24237063889996
 21
-56.522660108289045
  0
LINE
  8
_0-3_躯体と製品
  6
CONTINUOUS
 62
    2
 10
-126.49389863889996
 20
-56.522660108289045
 11
-126.49389863889996
 21
-58.022661108289043
  0
LINE
  8
_0-3_躯体と製品
  6
CONTINUOUS
 62
    2
 10
-126.49389863889996
 20
-58.022661108289043
 11
-125.49389863889996
 21
-59.022661108289071
  0
LINE
  8
_0-3_躯体と製品
  6
CONTINUOUS
 62
    2
 10
-125.49389863889996
 20
-56.522660108289045
 11
-125.49389863889996
 21
-59.022661108289071
  0
ARC
  8
_0-3_躯体と製品
  6
CONTINUOUS
 62
    2
 10
-116.56423063889997
 20
-53.466660108289034
 40
3.056
 50
230.84386799999723
 51
270
  0
LINE
  8
_0-3_躯体と製品
  6
CONTINUOUS
 62
    2
 10
-114.49389863889996
 20
-55.800091108289024
 11
-115.74542663889997
 21
-56.522660108289045
  0
LINE
  8
_0-3_躯体と製品
  6
CONTINUOUS
 62
    2
 10
-118.49389863889996
 20
-56.522660108289045
 11
-118.49389863889996
 21
-58.022661108289043
  0
LINE
  8
_0-3_躯体と製品
  6
CONTINUOUS
 62
    2
 10
-118.49389863889996
 20
-58.022661108289043
 11
-119.49389863889996
 21
-59.022661108289071
  0
LINE
  8
_0-3_躯体と製品
  6
CONTINUOUS
 62
    2
 10
-119.49389863889996
 20
-56.522660108289045
 11
-119.49389863889996
 21
-59.022661108289071
  0
ARC
  8
_0-3_躯体と製品
  6
CONTINUOUS
 62
    2
 10
-159.56422863889998
 20
-32.978661108289032
 40
3.056
 50
90
 51
129.15613200000271
  0
LINE
  8
_0-3_躯体と製品
  6
CONTINUOUS
 62
    2
 10
-157.49389563890009
 20
-35.422661108289049
 11
-173.49389563890009
 21
-35.422661108289049
  0
LINE
  8
_0-3_躯体と製品
  6
CONTINUOUS
 62
    2
 10
-182.49389563890009
 20
-39.022661108289071
 11
-135.16799463889993
 21
-39.022661108289071
  0
LINE
  8
_0-3_躯体と製品
  6
CONTINUOUS
 62
    2
 10
-158.74542363890009
 20
-29.922661108289049
 11
-172.24236863889996
 21
-29.922661108289049
  0
LINE
  8
_0-3_躯体と製品
  6
CONTINUOUS
 62
    2
 10
-158.99389563890009
 20
-45.022661108289043
 11
-171.99389563890009
 21
-45.022661108289043
  0
LINE
  8
_0-3_躯体と製品
  6
CONTINUOUS
 62
    2
 10
-89.493895638900085
 20
-42.022661108289014
 11
-185.49389563890009
 21
-42.022661108289014
  0
LINE
  8
_0-3_躯体と製品
  6
CONTINUOUS
 62
    2
 10
-158.99389563890009
 20
-51.922661108289049
 11
-160.99389563890009
 21
-51.922661108289049
  0
LINE
  8
_0-3_躯体と製品
  6
CONTINUOUS
 62
    2
 10
-156.99389563890009
 20
-37.422661108289049
 11
-173.99389563890009
 21
-37.422661108289049
  0
ARC
  8
_0-3_躯体と製品
  6
CONTINUOUS
 62
    2
 10
-162.24389563890009
 20
-42.484170108289049
 40
8.0384910000000005
 50
246.15243399999753
 51
293.8475660000023
  0
ARC
  8
_0-3_躯体と製品
  6
CONTINUOUS
 62
    5
 10
-222.34404863889995
 20
156.18527689171106
 40
183.28600900000001
 50
276.2174149999986
 51
281.40724600000522
  0
ARC
  8
_0-3_躯体と製品
  6
CONTINUOUS
 62
    5
 10
-214.12607863890003
 20
-4.636106108289141
 40
24.345275000000001
 50
298.54184299999696
 51
322.32181599999683
  0
ARC
  8
_0-3_躯体と製品
  6
CONTINUOUS
 62
    5
 10
-201.49389563890009
 20
-34.022661108289071
 40
5
 50
1.090412000001479
 51
90.079557000002026
  0
LINE
  8
_0-3_躯体と製品
  6
CONTINUOUS
 62
    2
 10
-206.49389563890009
 20
-26.022661108289043
 11
-227.49389563890009
 21
-37.022661108289014
  0
LINE
  8
_0-3_躯体と製品
  6
CONTINUOUS
 62
    2
 10
-202.49389563890009
 20
-26.022661108289043
 11
-202.49389563890009
 21
-28.022661108289043
  0
LINE
  8
_0-3_躯体と製品
  6
CONTINUOUS
 62
    2
 10
-220.99389563890009
 20
-35.875664108289044
 11
-216.92695663890004
 21
-33.745363108289041
  0
LINE
  8
_0-3_躯体と製品
  6
PLINE3
 62
    2
 10
-214.49389563890009
 20
-50.022661108289043
 11
-234.49389563890009
 21
-50.022661108289043
  0
LINE
  8
_0-3_躯体と製品
  6
CONTINUOUS
 62
    2
 10
-217.49389563890009
 20
-51.522661108289071
 11
-219.49389563890009
 21
-52.022661108289014
  0
LINE
  8
_0-3_躯体と製品
  6
CONTINUOUS
 62
    2
 10
-219.49389563890009
 20
-48.022661108289043
 11
-217.49389563890009
 21
-48.522661108289043
  0
LINE
  8
_0-3_躯体と製品
  6
CONTINUOUS
 62
    2
 10
-220.99389563890009
 20
-35.875664108289044
 11
-220.99389563890009
 21
-42.022661108289014
  0
LINE
  8
_0-3_躯体と製品
  6
CONTINUOUS
 62
    2
 10
-222.99389563890009
 20
-39.022661108289071
 11
-222.99389563890009
 21
-42.022661108289014
  0
LINE
  8
_0-3_躯体と製品
  6
CONTINUOUS
 62
    2
 10
-225.49389563890009
 20
-39.022661108289071
 11
-222.99389563890009
 21
-39.022661108289071
  0
LINE
  8
_0-3_躯体と製品
  6
CONTINUOUS
 62
    2
 10
-223.49389563890009
 20
-53.022661108289043
 11
-218.49389563890009
 21
-53.022661108289043
  0
LINE
  8
_0-3_躯体と製品
  6
CONTINUOUS
 62
    2
 10
-223.49389563890009
 20
-52.022661108289014
 11
-223.49389563890009
 21
-53.022661108289043
  0
LINE
  8
_0-3_躯体と製品
  6
CONTINUOUS
 62
    2
 10
-223.49389563890009
 20
-48.022661108289043
 11
-223.49389563890009
 21
-40.022661108289043
  0
ARC
  8
_0-3_躯体と製品
  6
CONTINUOUS
 62
    2
 10
-221.99389563890009
 20
-42.022661108289014
 40
1
 50
180
 51
0
  0
LINE
  8
_0-3_躯体と製品
  6
CONTINUOUS
 62
    2
 10
-219.49389563890009
 20
-52.022661108289014
 11
-227.49389563890009
 21
-52.022661108289014
  0
LINE
  8
_0-3_躯体と製品
  6
CONTINUOUS
 62
    2
 10
-219.49389563890009
 20
-48.022661108289043
 11
-219.49389563890009
 21
-52.022661108289014
  0
LINE
  8
_0-3_躯体と製品
  6
CONTINUOUS
 62
    2
 10
-227.49389563890009
 20
-48.022661108289043
 11
-219.49389563890009
 21
-48.022661108289043
  0
ARC
  8
_0-3_躯体と製品
  6
CONTINUOUS
 62
    2
 10
-224.49389563890009
 20
-40.022661108289043
 40
1
 50
0
 51
180
  0
LINE
  8
_0-3_躯体と製品
  6
CONTINUOUS
 62
    2
 10
-225.49389563890009
 20
-48.022661108289043
 11
-225.49389563890009
 21
-39.022661108289071
  0
LINE
  8
_0-3_躯体と製品
  6
CONTINUOUS
 62
    2
 10
-206.49389563890009
 20
-28.022661108289043
 11
-206.49389563890009
 21
-32.022661108289014
  0
LINE
  8
_0-3_躯体と製品
  6
CONTINUOUS
 62
    2
 10
-202.49389563890009
 20
-28.022661108289043
 11
-206.49389563890009
 21
-28.022661108289043
  0
LINE
  8
_0-3_躯体と製品
  6
CONTINUOUS
 62
    2
 10
-206.49389563890009
 20
-39.022661108289071
 11
-206.49389563890009
 21
-36.022661108289043
  0
LINE
  8
_0-3_躯体と製品
  6
CONTINUOUS
 62
    2
 10
-210.49389563890009
 20
-39.022661108289071
 11
-206.49389563890009
 21
-39.022661108289071
  0
LINE
  8
_0-3_躯体と製品
  6
CONTINUOUS
 62
    2
 10
-207.93215863890009
 20
-36.022661108289043
 11
-206.49389563890009
 21
-36.022661108289043
  0
LINE
  8
_0-3_躯体と製品
  6
CONTINUOUS
 62
    5
 10
-201.63603163890002
 20
-39.022661108289071
 11
-206.49389563890009
 21
-39.022661108289071
  0
LINE
  8
_0-3_躯体と製品
  6
CONTINUOUS
 62
    5
 10
-201.49389563890009
 20
-29.022661108289071
 11
-206.49389563890009
 21
-29.022661108289071
  0
LINE
  8
_0-3_躯体と製品
  6
CONTINUOUS
 62
    2
 10
-206.49389563890009
 20
-32.022661108289014
 11
-207.93215863890009
 21
-32.022661108289014
  0
ARC
  8
_0-3_躯体と製品
  6
CONTINUOUS
 62
    2
 10
-210.49531063890004
 20
-34.022661108289071
 40
4.9985860000000004
 50
185.82245099999832
 51
270.01620999999773
  0
ARC
  8
_0-3_躯体と製品
  6
CONTINUOUS
 62
    2
 10
-216.4629496389
 20
-34.631194108289037
 40
1
 50
5.8224540000006311
 51
117.64597500000379
  0
ARC
  8
_0-3_躯体と製品
  6
CONTINUOUS
 62
    2
 10
-210.49389563890009
 20
-34.022661108289071
 40
3.25
 50
37.97987199999973
 51
322.02012800000034
  0
LINE
  8
_0-3_躯体と製品
  6
CONTINUOUS
 62
    2
 10
-217.49389563890009
 20
-48.522661108289043
 11
-217.49389563890009
 21
-51.522661108289071
  0
LINE
  8
_0-3_躯体と製品
  6
CONTINUOUS
 62
    2
 10
-202.49389563890009
 20
-26.022661108289043
 11
-206.49389563890009
 21
-26.022661108289043
  0
LINE
  8
_0-3_躯体と製品
  6
CONTINUOUS
 62
    2
 10
-168.49389563890009
 20
-26.022661108289043
 11
-169.49389563890009
 21
-27.022661108289014
  0
LINE
  8
_0-3_躯体と製品
  6
CONTINUOUS
 62
    2
 10
-161.49389563890009
 20
-27.022661108289014
 11
-162.49389563890009
 21
-26.022661108289043
  0
LINE
  8
_0-3_躯体と製品
  6
CONTINUOUS
 62
    2
 10
-174.99389563890009
 20
-45.022661108289043
 11
-187.49389563890009
 21
-45.022661108289043
  0
LINE
  8
_0-3_躯体と製品
  6
CONTINUOUS
 62
    2
 10
-185.49389563890009
 20
-39.022661108289071
 11
-185.49389563890009
 21
-42.022661108289014
  0
LINE
  8
_0-3_躯体と製品
  6
CONTINUOUS
 62
    2
 10
-187.49389563890009
 20
-39.022661108289071
 11
-185.49389563890009
 21
-39.022661108289071
  0
LINE
  8
_0-3_躯体と製品
  6
CONTINUOUS
 62
    2
 10
-187.49389563890009
 20
-45.022661108289043
 11
-187.49389563890009
 21
-39.022661108289071
  0
LINE
  8
_0-3_躯体と製品
  6
CONTINUOUS
 62
    5
 10
-182.49389563890009
 20
-38.022661108289043
 11
-182.49389563890009
 21
-42.022661108289014
  0
ARC
  8
_0-3_躯体と製品
  6
CONTINUOUS
 62
    5
 10
-184.49389563890009
 20
-38.022661108289043
 40
2
 50
0
 51
90
  0
LINE
  8
_0-3_躯体と製品
  6
CONTINUOUS
 62
    5
 10
-184.49389563890009
 20
-36.022661108289043
 11
-188.73653663890013
 21
-36.022661108289043
  0
LINE
  8
_0-3_躯体と製品
  6
CONTINUOUS
 62
    5
 10
-190.49389563890009
 20
-37.780020108289023
 11
-190.49389563890009
 21
-45.022661108289043
  0
LINE
  8
_0-3_躯体と製品
  6
CONTINUOUS
 62
    5
 10
-186.49389563890009
 20
-47.022661108289014
 11
-188.49389563890009
 21
-47.022661108289014
  0
ARC
  8
_0-3_躯体と製品
  6
CONTINUOUS
 62
    5
 10
-188.49389563890009
 20
-45.022661108289043
 40
2
 50
180
 51
270
  0
ARC
  8
_0-3_躯体と製品
  6
CONTINUOUS
 62
    5
 10
-186.49389563890009
 20
-46.022661108289043
 40
1
 50
270
 51
90
  0
ARC
  8
_0-3_躯体と製品
  6
CONTINUOUS
 62
    2
 10
-168.74389563890009
 20
-42.484170108289049
 40
8.0384910000000005
 50
246.15243399999753
 51
293.8475660000023
  0
LINE
  8
_0-3_躯体と製品
  6
CONTINUOUS
 62
    2
 10
-162.24389563890009
 20
-50.522661108289043
 11
-168.74389563890009
 21
-50.522661108289043
  0
LINE
  8
_0-3_躯体と製品
  6
CONTINUOUS
 62
    2
 10
-169.49389563890009
 20
-35.422661108289049
 11
-169.49389563890009
 21
-30.608952108289031
  0
ARC
  8
_0-3_躯体と製品
  6
CONTINUOUS
 62
    2
 10
-171.42356363890008
 20
-32.978661108289032
 40
3.056
 50
50.843867999997215
 51
90
  0
ARC
  8
_0-3_躯体と製品
  6
CONTINUOUS
 62
    2
 10
-165.49389563890009
 20
-41.922661108289049
 40
12
 50
90
 51
109.47122099999559
  0
ARC
  8
_0-3_躯体と製品
  6
CONTINUOUS
 62
    2
 10
-165.49389563890009
 20
-41.922661108289049
 40
12
 50
70.528779000004363
 51
90
  0
LINE
  8
_0-3_躯体と製品
  6
CONTINUOUS
 62
    2
 10
-161.49389563890009
 20
-35.422661108289049
 11
-161.49389563890009
 21
-30.608952108289031
  0
LINE
  8
_0-3_躯体と製品
  6
CONTINUOUS
 62
    2
 10
-173.49389563890009
 20
-35.422661108289049
 11
-173.49389563890009
 21
-30.645230108289041
  0
LINE
  8
_0-3_躯体と製品
  6
CONTINUOUS
 62
    2
 10
-173.29389563890004
 20
-35.422661108289049
 11
-173.29389563890004
 21
-37.422661108289049
  0
LINE
  8
_0-3_躯体と製品
  6
CONTINUOUS
 62
    2
 10
-169.49389563890009
 20
-27.022661108289014
 11
-169.49389563890009
 21
-29.922661108289049
  0
LINE
  8
_0-3_躯体と製品
  6
CONTINUOUS
 62
    2
 10
-161.49389563890009
 20
-29.922661108289049
 11
-161.49389563890009
 21
-27.022661108289014
  0
LINE
  8
_0-3_躯体と製品
  6
CONTINUOUS
 62
    2
 10
-165.49389563890009
 20
-35.422661108289049
 11
-167.49389563889895
 21
-37.422661108289049
  0
LINE
  8
_0-3_躯体と製品
  6
CONTINUOUS
 62
    2
 10
-163.49389563890009
 20
-35.422661108289049
 11
-165.49389563890009
 21
-37.422661108289049
  0
LINE
  8
_0-3_躯体と製品
  6
CONTINUOUS
 62
    2
 10
-172.24236863889996
 20
-29.922661108289049
 11
-173.49389563890009
 21
-30.645230108289041
  0
LINE
  8
_0-3_躯体と製品
  6
CONTINUOUS
 62
    2
 10
-171.99389563890009
 20
-45.022661108289043
 11
-171.99389563890009
 21
-51.922661108289049
  0
LINE
  8
_0-3_躯体と製品
  6
CONTINUOUS
 62
    2
 10
-161.24389563890009
 20
-42.022661108289014
 11
-161.24389563890009
 21
-45.022661108289043
  0
LINE
  8
_0-3_躯体と製品
  6
CONTINUOUS
 62
    2
 10
-169.74389563890009
 20
-42.022661108289014
 11
-169.74389563890009
 21
-45.022661108289043
  0
LINE
  8
_0-3_躯体と製品
  6
CONTINUOUS
 62
    2
 10
-171.99389563890009
 20
-51.922661108289049
 11
-169.99389563890009
 21
-51.922661108289049
  0
LINE
  8
_0-3_躯体と製品
  6
CONTINUOUS
 62
    2
 10
-173.99389563890009
 20
-37.422661108289049
 11
-173.99389563890009
 21
-39.022661108289071
  0
LINE
  8
_0-3_躯体と製品
  6
CONTINUOUS
 62
    2
 10
-169.49389563890009
 20
-39.022661108289071
 11
-169.49389563890009
 21
-45.022661108289043
  0
LINE
  8
_0-3_躯体と製品
  6
CONTINUOUS
 62
    2
 10
-161.49389563890009
 20
-39.022661108289071
 11
-161.49389563890009
 21
-45.022661108289043
  0
LINE
  8
_0-3_躯体と製品
  6
CONTINUOUS
 62
    2
 10
-194.8578566389001
 20
-19.51656410828906
 11
-193.44364363890008
 21
-20.930778108289019
  0
LINE
  8
_0-3_躯体と製品
  6
CONTINUOUS
 62
    2
 10
-162.49389563890009
 20
-26.022661108289043
 11
-168.49389563890009
 21
-26.022661108289043
  0
LINE
  8
_0-3_躯体と製品
  6
CONTINUOUS
 62
    2
 10
-130.49389863889996
 20
-51.022661108289043
 11
-114.49389863889996
 21
-51.022661108289043
  0
LINE
  8
_0-3_躯体と製品
  6
CONTINUOUS
 62
    7
 10
-100.49389563890009
 20
-49.022661108289071
 11
-140.49389563890009
 21
-49.022661108289071
  0
ARC
  8
_0-3_躯体と製品
  6
CONTINUOUS
 62
    2
 10
-122.49389563890009
 20
-45.522661108289043
 40
12
 50
70.528779000004363
 51
90
  0
LINE
  8
_0-3_躯体と製品
  6
CONTINUOUS
 62
    2
 10
-115.74542363890009
 20
-33.522661108289043
 11
-122.49389563890009
 21
-33.522661108289043
  0
LINE
  8
_0-3_躯体と製品
  6
CONTINUOUS
 62
    2
 10
-155.99389563890009
 20
-45.022661108289043
 11
-89.493895638900085
 21
-45.022661108289043
  0
LINE
  8
_0-3_躯体と製品
  6
CONTINUOUS
 62
    2
 10
-130.99389563890009
 20
-39.022661108289071
 11
-113.99389563890009
 21
-39.022661108289071
  0
LINE
  8
_0-3_躯体と製品
  6
CONTINUOUS
 62
    2
 10
-130.99389563890009
 20
-40.422661108289049
 11
-113.99389563890009
 21
-40.422661108289049
  0
LINE
  8
_0-3_躯体と製品
  6
CONTINUOUS
 62
    2
 10
-120.49389563890009
 20
-49.022661108289071
 11
-122.49389563890009
 21
-51.022661108289043
  0
LINE
  8
_0-3_躯体と製品
  6
CONTINUOUS
 62
    2
 10
-155.2522656389001
 20
-27.936679108289013
 11
-155.2522656389001
 21
-20.108642108289047
  0
LINE
  8
_0-3_躯体と製品
  6
CONTINUOUS
 62
    2
 10
-141.65226563889996
 20
-20.108642108289047
 11
-141.65226563889996
 21
-27.936679108289013
  0
CIRCLE
  8
_0-3_躯体と製品
  6
CONTINUOUS
 62
    2
 10
-148.4591726389001
 20
-24.022661108289071
 40
6.793092999999998
  0
LINE
  8
_0-3_躯体と製品
  6
PLINE3
 62
    2
 10
-148.45226563889992
 20
-12.022661108289014
 11
-148.45226563889992
 21
-36.022661108289043
  0
LINE
  8
_0-3_躯体と製品
  6
CONTINUOUS
 62
    7
 10
-138.45226563889992
 20
-24.022661108289071
 11
-138.45226563889992
 21
-29.579010108289026
  0
LINE
  8
_0-3_躯体と製品
  6
CONTINUOUS
 62
    7
 10
-158.02169463890004
 20
-21.119899108289047
 11
-160.69189863890006
 21
-29.922661108289049
  0
LINE
  8
_0-3_躯体と製品
  6
PLINE3
 62
    2
 10
-141.38119763889995
 20
-16.951593108289046
 11
-156.93754663890013
 21
-32.507942108289001
  0
ARC
  8
_0-3_躯体と製品
  6
CONTINUOUS
 62
    7
 10
-140.49389563890009
 20
-52.022661108289014
 40
3
 50
90
 51
180
  0
LINE
  8
_0-3_躯体と製品
  6
CONTINUOUS
 62
    2
 10
-148.45226563889992
 20
-31.862661108289046
 11
-155.2522656389001
 21
-27.936679108289013
  0
LINE
  8
_0-3_躯体と製品
  6
CONTINUOUS
 62
    2
 10
-141.65226563889996
 20
-27.936679108289013
 11
-148.45226563889992
 21
-31.862661108289046
  0
LINE
  8
_0-3_躯体と製品
  6
CONTINUOUS
 62
    2
 10
-157.49389563890009
 20
-30.645230108289041
 11
-158.74542363890009
 21
-29.922661108289049
  0
LINE
  8
_0-3_躯体と製品
  6
CONTINUOUS
 62
    2
 10
-157.49389563890009
 20
-30.645230108289041
 11
-157.49389563890009
 21
-35.422661108289049
  0
LINE
  8
_0-3_躯体と製品
  6
CONTINUOUS
 62
    2
 10
-157.69389563890013
 20
-35.422661108289049
 11
-157.69389563890013
 21
-37.422661108289049
  0
LINE
  8
_0-3_躯体と製品
  6
CONTINUOUS
 62
    2
 10
-158.99389563890009
 20
-45.022661108289043
 11
-158.99389563890009
 21
-51.922661108289049
  0
LINE
  8
_0-3_躯体と製品
  6
CONTINUOUS
 62
    2
 10
-156.99389563890009
 20
-39.022661108289071
 11
-156.99389563890009
 21
-37.422661108289049
  0
LINE
  8
_0-3_躯体と製品
  6
CONTINUOUS
 62
    2
 10
-126.49389563890009
 20
-39.022661108289071
 11
-126.49389563890009
 21
-34.208952108289054
  0
ARC
  8
_0-3_躯体と製品
  6
CONTINUOUS
 62
    2
 10
-128.42356363890008
 20
-36.578661108289026
 40
3.056
 50
50.843867999997215
 51
90
  0
ARC
  8
_0-3_躯体と製品
  6
CONTINUOUS
 62
    2
 10
-122.49389563890009
 20
-45.522661108289043
 40
12
 50
90
 51
109.47122099999559
  0
LINE
  8
_0-3_躯体と製品
  6
CONTINUOUS
 62
    2
 10
-129.24236863889996
 20
-33.522661108289043
 11
-122.49389563890009
 21
-33.522661108289043
  0
LINE
  8
_0-3_躯体と製品
  6
CONTINUOUS
 62
    2
 10
-130.49389563890009
 20
-34.245230108288922
 11
-129.24236863889996
 21
-33.522661108289043
  0
LINE
  8
_0-3_躯体と製品
  6
CONTINUOUS
 62
    7
 10
-138.45226563889992
 20
-39.022661108289071
 11
-138.45226563889992
 21
-42.022661108289014
  0
LINE
  8
_0-3_躯体と製品
  6
CONTINUOUS
 62
    2
 10
-130.49389563890009
 20
-39.022661108289071
 11
-130.49389563890009
 21
-34.245230108288922
  0
LINE
  8
_0-3_躯体と製品
  6
CONTINUOUS
 62
    2
 10
-130.29389563889913
 20
-49.022661108289071
 11
-130.29389563889913
 21
-51.022661108289043
  0
LINE
  8
_0-3_躯体と製品
  6
CONTINUOUS
 62
    2
 10
-130.99389563890009
 20
-42.022661108289014
 11
-130.99389563890009
 21
-39.022661108289071
  0
LINE
  8
_0-3_躯体と製品
  6
PLINE2
 62
    7
 10
-138.45226563889992
 20
-29.579010108289026
 11
-138.45226563889992
 21
-39.022661108289071
  0
LINE
  8
_0-3_躯体と製品
  6
CONTINUOUS
 62
    2
 10
-122.49389563890009
 20
-49.022661108289071
 11
-124.49389563890009
 21
-51.022661108289043
  0
LINE
  8
_0-3_躯体と製品
  6
CONTINUOUS
 62
    2
 10
-126.49389563890009
 20
-42.022661108289014
 11
-126.49389563890009
 21
-49.022661108289071
  0
LINE
  8
_0-3_躯体と製品
  6
PLINE3
 62
    2
 10
-136.45226563889992
 20
-24.022661108289071
 11
-160.45226563889992
 21
-24.022661108289071
  0
ARC
  8
_0-3_躯体と製品
  6
CONTINUOUS
 62
    7
 10
-148.45226563889992
 20
-24.022661108289071
 40
10
 50
0
 51
163.12551100000061
  0
LINE
  8
_0-3_躯体と製品
  6
CONTINUOUS
 62
    2
 10
-155.2522656389001
 20
-20.108642108289047
 11
-148.45226563889992
 21
-16.182661108289039
  0
LINE
  8
_0-3_躯体と製品
  6
CONTINUOUS
 62
    2
 10
-148.45226563889992
 20
-16.182661108289039
 11
-141.65226563889996
 21
-20.108642108289047
  0
ARC
  8
_0-3_躯体と製品
  6
CONTINUOUS
 62
    2
 10
-116.56422863889998
 20
-36.578661108289026
 40
3.056
 50
90
 51
129.15613200000271
  0
LINE
  8
_0-3_躯体と製品
  6
CONTINUOUS
 62
    2
 10
-118.49389563890009
 20
-39.022661108289071
 11
-118.49389563890009
 21
-34.208952108289054
  0
LINE
  8
_0-3_躯体と製品
  6
CONTINUOUS
 62
    2
 10
-114.49389563890009
 20
-34.245230108288922
 11
-115.74542363890009
 21
-33.522661108289043
  0
LINE
  8
_0-3_躯体と製品
  6
CONTINUOUS
 62
    2
 10
-114.49389563890009
 20
-34.245230108288922
 11
-114.49389563890009
 21
-39.022661108289071
  0
LINE
  8
_0-3_躯体と製品
  6
CONTINUOUS
 62
    2
 10
-114.69389563890013
 20
-49.022661108289071
 11
-114.69389563890013
 21
-51.022661108289043
  0
LINE
  8
_0-3_躯体と製品
  6
CONTINUOUS
 62
    2
 10
-113.99389563890009
 20
-42.022661108289014
 11
-113.99389563890009
 21
-39.022661108289071
  0
LINE
  8
_0-3_躯体と製品
  6
CONTINUOUS
 62
    2
 10
-118.49389563890009
 20
-42.022661108289014
 11
-118.49389563890009
 21
-49.022661108289071
  0
LINE
  8
_0-3_躯体と製品
  6
CONTINUOUS
 62
    7
 10
-97.493895638898948
 20
-46.022661108289043
 11
-97.493895638898948
 21
-45.022661108289043
  0
ARC
  8
_0-3_躯体と製品
  6
CONTINUOUS
 62
    7
 10
-100.49389563890009
 20
-46.022661108289043
 40
3
 50
270
 51
0
  0
LINE
  8
_0-3_躯体と製品
  6
CONTINUOUS
 62
    2
 10
-89.493895638900085
 20
-45.022661108289043
 11
-89.493895638900085
 21
-47.022661108289014
  0
LINE
  8
_0-3_躯体と製品
  6
CONTINUOUS
 62
    2
 10
-89.493895638900085
 20
-32.022661108289014
 11
-89.493895638900085
 21
-42.022661108289014
  0
LINE
  8
_0-3_躯体と製品
  6
CONTINUOUS
 62
    2
 10
-87.493895638900085
 20
-32.022661108289014
 11
-87.493895638900085
 21
-47.022661108289014
  0
LINE
  8
_0-3_躯体と製品
  6
CONTINUOUS
 62
    2
 10
-89.493895638900085
 20
-32.022661108289014
 11
-87.493895638900085
 21
-32.022661108289014
  0
LINE
  8
_0-3_躯体と製品
  6
CONTINUOUS
 62
    2
 10
-89.493895638900085
 20
-47.022661108289014
 11
-91.493895638900085
 21
-47.022661108289014
  0
ARC
  8
_0-3_躯体と製品
  6
CONTINUOUS
 62
    2
 10
-91.493895638900085
 20
-48.022661108289043
 40
1
 50
90
 51
270
  0
LINE
  8
_0-3_躯体と製品
  6
CONTINUOUS
 62
    7
 10
-65.493894638898837
 20
-59.022661108289071
 11
-75.493894638900201
 21
-49.022661108289071
  0
LINE
  8
_0-3_躯体と製品
  6
CONTINUOUS
 62
    7
 10
-65.493894638898837
 20
-256.16953110828899
 11
-65.493894638898837
 21
-59.022661108289071
  0
LINE
  8
_0-3_躯体と製品
  6
CONTINUOUS
 62
    7
 10
-75.493894638900201
 20
-49.022661108289071
 11
-77.493900638899959
 21
-49.022661108289071
  0
LINE
  8
_0-3_躯体と製品
  6
CONTINUOUS
 62
    2
 10
-77.493895638900085
 20
-47.022661108289014
 11
-77.493895638900085
 21
-49.022661108289071
  0
LINE
  8
_0-3_躯体と製品
  6
CONTINUOUS
 62
    2
 10
203.50610436109991
 20
-29.922661108289049
 11
203.50610436109991
 21
-26.022661108289043
  0
LINE
  8
_0-3_躯体と製品
  6
CONTINUOUS
 62
    2
 10
211.50610436109991
 20
-29.922661108289049
 11
211.50610436109991
 21
-26.022661108289043
  0
LINE
  8
_0-3_躯体と製品
  6
PLINE3
 62
    2
 10
207.50610436109991
 20
-23.022661108289043
 11
207.50610436109991
 21
-32.022661108289014
  0
ARC
  8
_0-3_躯体と製品
  6
CONTINUOUS
 62
    2
 10
201.57643636110015
 20
-32.978661108289032
 40
3.056
 50
50.843867999997215
 51
90
  0
LINE
  8
_0-3_躯体と製品
  6
CONTINUOUS
 62
    2
 10
200.75763136109981
 20
-29.922661108289049
 11
207.50610436109991
 21
-29.922661108289049
  0
LINE
  8
_0-3_躯体と製品
  6
CONTINUOUS
 62
    2
 10
199.50610436109991
 20
-30.645230108289041
 11
200.75763136109981
 21
-29.922661108289049
  0
LINE
  8
_0-3_躯体と製品
  6
CONTINUOUS
 62
    2
 10
199.50610436109991
 20
-32.022661108289014
 11
199.50610436109991
 21
-30.645230108289041
  0
LINE
  8
_0-3_躯体と製品
  6
CONTINUOUS
 62
    2
 10
203.50610436109991
 20
-32.022661108289014
 11
203.50610436109991
 21
-30.608952108289031
  0
ARC
  8
_0-3_躯体と製品
  6
CONTINUOUS
 62
    2
 10
207.50610436109991
 20
-41.922661108289049
 40
12
 50
90
 51
109.47122099999559
  0
ARC
  8
_0-3_躯体と製品
  6
CONTINUOUS
 62
    2
 10
213.4357713610998
 20
-32.978661108289032
 40
3.056
 50
90
 51
129.15613200000271
  0
ARC
  8
_0-3_躯体と製品
  6
CONTINUOUS
 62
    2
 10
207.50610436109991
 20
-41.922661108289049
 40
12
 50
70.528779000004363
 51
90
  0
LINE
  8
_0-3_躯体と製品
  6
CONTINUOUS
 62
    2
 10
211.50610436109991
 20
-32.022661108289014
 11
211.50610436109991
 21
-30.608952108289031
  0
LINE
  8
_0-3_躯体と製品
  6
CONTINUOUS
 62
    2
 10
214.25457636110013
 20
-29.922661108289049
 11
207.50610436109991
 21
-29.922661108289049
  0
LINE
  8
_0-3_躯体と製品
  6
CONTINUOUS
 62
    2
 10
215.50610436109991
 20
-30.645230108289041
 11
214.25457636110013
 21
-29.922661108289049
  0
LINE
  8
_0-3_躯体と製品
  6
CONTINUOUS
 62
    2
 10
215.50610436109991
 20
-30.645230108289041
 11
215.50610436109991
 21
-32.022661108289014
  0
LINE
  8
_0-3_躯体と製品
  6
CONTINUOUS
 62
    2
 10
203.50610436109991
 20
-26.022661108289043
 11
204.50610436109991
 21
-25.022661108289043
  0
LINE
  8
_0-3_躯体と製品
  6
CONTINUOUS
 62
    2
 10
204.50610436109991
 20
-25.022661108289043
 11
210.50610436109991
 21
-25.022661108289043
  0
LINE
  8
_0-3_躯体と製品
  6
CONTINUOUS
 62
    2
 10
211.50610436109991
 20
-26.022661108289043
 11
210.50610436109991
 21
-25.022661108289043
  0
TEXT
  8
_0-4_図面枠
 62
    7
 10
-710.14174563889992
 20
743.81303089171104
 40
20
 41
0.7999999999999992
 50
0
  1
縮　　尺
  0
LINE
  8
_0-4_図面枠
  6
CONTINUOUS
 62
    2
 10
-424.60311263889912
 20
774.33332989171106
 11
-757.93644563890007
 21
774.33332989171106
  0
TEXT
  8
_0-4_図面枠
 62
    7
 10
-718.84929363890001
 20
783.21297889171092
 40
20
 41
0.8
 50
0
  1
ファイル名
  0
TEXT
  8
_0-4_図面枠
 62
    7
 10
-540.64421263889994
 20
784.32458189171098
 40
20
 41
0.7999999999999992
 50
0
  1
ＳＴ　１
  0
LINE
  8
_0-4_図面枠
  6
CONTINUOUS
 62
    4
 10
-424.60311263889912
 20
815.99999689171102
 11
-424.60311263889912
 21
732.66666389171098
  0
LINE
  8
_0-4_図面枠
  6
CONTINUOUS
 62
    2
 10
-591.26977863890011
 20
815.99999689171102
 11
-591.26977863890011
 21
732.66666389171098
  0
TEXT
  8
_0-4_図面枠
 62
    7
 10
-559.31213963889991
 20
743.01110489171094
 40
20
 41
0.8
 50
0
  1
Ｓ　１：５
  0
ARC
  8
_0-3_躯体と製品
  6
CONTINUOUS
 62
    5
 10
121.95515636109985
 20
366.21091389171102
 40
78.196999000000005
 50
357.41641199999998
 51
6.4521340000014096
  0
ARC
  8
_0-3_躯体と製品
  6
CONTINUOUS
 62
    5
 10
179.48720136109978
 20
388.09674689171106
 40
24.049705000000003
 50
303.00052300000419
 51
326.99947699999842
  0
LINE
  8
_0-3_躯体と製品
  6
CONTINUOUS
 62
    2
 10
212.91619336109989
 20
346.88957989171092
 11
217.68808436109975
 21
342.11768889171105
  0
ARC
  8
_0-3_躯体と製品
  6
CONTINUOUS
 62
    2
 10
226.17336636109985
 20
350.60297089171092
 40
12
 50
205.52877900000061
 51
225.0000000000046
  0
LINE
  8
_0-3_躯体と製品
  6
CONTINUOUS
 62
    2
 10
214.85965736109983
 20
344.94611589171086
 11
212.80904736110006
 21
342.89550689171097
  0
LINE
  8
_0-3_躯体と製品
  6
CONTINUOUS
 62
    7
 10
218.04163836110001
 20
356.61337789171091
 11
200.36396936109986
 21
338.93570889171099
  0
LINE
  8
_0-3_躯体と製品
  6
CONTINUOUS
 62
    2
 10
200.70610436110019
 20
335.70759089171099
 11
207.50610436109991
 21
339.63357289171097
  0
LINE
  8
_0-3_躯体と製品
  6
CONTINUOUS
 62
    2
 10
207.50610436109991
 20
323.95357289171102
 11
200.70610436110019
 21
327.879554891711
  0
CIRCLE
  8
_0-3_躯体と製品
  6
CONTINUOUS
 62
    2
 10
207.49919636110008
 20
331.79357289171094
 40
6.793092999999998
  0
LINE
  8
_0-3_躯体と製品
  6
PLINE3
 62
    2
 10
200.36396836110089
 20
338.93570889171099
 11
214.50610436109991
 21
324.79357289171094
  0
ARC
  8
_0-3_躯体と製品
  6
CONTINUOUS
 62
    7
 10
207.43503636110017
 20
331.86464089171102
 40
10
 50
134.99999300000101
 51
314.9999999999954
  0
LINE
  8
_0-3_躯体と製品
  6
CONTINUOUS
 62
    2
 10
200.70610436110019
 20
327.879554891711
 11
200.70610436110019
 21
335.70759089171099
  0
ARC
  8
_0-3_躯体と製品
  6
CONTINUOUS
 62
    2
 10
224.04191136110012
 20
340.08569889171088
 40
3.056
 50
185.8438680000003
 51
225.0000000000046
  0
ARC
  8
_0-3_躯体と製品
  6
CONTINUOUS
 62
    2
 10
226.17336636109985
 20
350.60297089171092
 40
12
 50
225.0000000000046
 51
244.4712210000053
  0
LINE
  8
_0-3_躯体と製品
  6
CONTINUOUS
 62
    2
 10
218.46590236109978
 20
337.23865289171101
 11
217.05168836109988
 21
337.23865289171101
  0
LINE
  8
_0-3_躯体と製品
  6
CONTINUOUS
 62
    2
 10
217.05168836109988
 20
337.23865289171101
 11
212.80904736110006
 21
341.48129289171106
  0
LINE
  8
_0-3_躯体と製品
  6
CONTINUOUS
 62
    2
 10
220.51651136110013
 20
339.28926189171102
 11
218.46590236109978
 21
337.23865289171101
  0
LINE
  8
_0-3_躯体と製品
  6
CONTINUOUS
 62
    2
 10
212.80904736110006
 20
342.89550689171097
 11
212.80904736110006
 21
341.48129289171106
  0
LINE
  8
_0-3_躯体と製品
  6
CONTINUOUS
 62
    2
 10
214.3061043611001
 20
327.879554891711
 11
207.50610436109991
 21
323.95357289171102
  0
LINE
  8
_0-3_躯体と製品
  6
CONTINUOUS
 62
    2
 10
214.3061043611001
 20
335.70759089171099
 11
214.3061043611001
 21
327.879554891711
  0
LINE
  8
_0-3_躯体と製品
  6
CONTINUOUS
 62
    2
 10
207.50610436109991
 20
339.63357289171097
 11
214.3061043611001
 21
335.70759089171099
  0
LINE
  8
_0-3_躯体と製品
  6
CONTINUOUS
 62
    2
 10
192.58579336110006
 20
367.92708689171104
 11
194.00000736109996
 21
366.51287289171091
  0
LINE
  8
_0-3_躯体と製品
  6
CONTINUOUS
 62
    2
 10
212.54216436109982
 20
348.28547689171103
 11
212.91619336109989
 21
346.88957989171092
  0
ARC
  8
_0-3_躯体と製品
  6
CONTINUOUS
 62
    2
 10
215.6560943610998
 20
348.47151589171096
 40
3.056
 50
225.0000000000046
 51
264.1561320000028
  0
LINE
  8
_0-3_躯体と製品
  6
CONTINUOUS
 62
    2
 10
218.74874436110076
 20
348.8352038917111
 11
215.34493836110005
 21
345.43139789171084
  0
LINE
  8
_0-3_躯体と製品
  6
CONTINUOUS
 62
    2
 10
212.54216436109982
 20
348.28547689171103
 11
215.92031736109993
 21
351.66363089171091
  0
LINE
  8
_0-3_躯体と製品
  6
CONTINUOUS
 62
    2
 10
216.06173936110008
 20
351.52220889171099
 11
217.4759523611001
 21
352.936422891711
  0
LINE
  8
_0-3_躯体と製品
  6
CONTINUOUS
 62
    2
 10
217.68808436109975
 20
361.20957189171099
 11
219.45585136110094
 21
359.44180489171106
  0
LINE
  8
_0-3_躯体と製品
  6
CONTINUOUS
 62
    2
 10
218.74874436110076
 20
362.27023289171098
 11
217.68808436109975
 21
361.20957189171099
  0
LINE
  8
_0-3_躯体と製品
  6
CONTINUOUS
 62
    2
 10
217.68808436109975
 20
363.33089289171107
 11
218.74874436110076
 21
362.27023289171098
  0
LINE
  8
_0-3_躯体と製品
  6
CONTINUOUS
 62
    2
 10
215.92031736109993
 20
361.56312589171091
 11
217.68808436109975
 21
363.33089289171107
  0
LINE
  8
_0-3_躯体と製品
  6
CONTINUOUS
 62
    2
 10
215.92031736109993
 20
361.56312589171091
 11
214.50610436109991
 21
362.97733889171093
  0
LINE
  8
_0-3_躯体と製品
  6
CONTINUOUS
 62
    5
 10
213.44544436110118
 20
366.15931989171111
 11
216.98097736110003
 21
362.62378589171112
  0
LINE
  8
_0-3_躯体と製品
  6
CONTINUOUS
 62
    2
 10
204.6066093610998
 20
377.11947489171087
 11
201.07107536110016
 21
373.58394089171099
  0
LINE
  8
_0-3_躯体と製品
  6
CONTINUOUS
 62
    2
 10
199.6568613610998
 20
374.99815489171101
 11
216.62742436110011
 21
391.96871689171098
  0
LINE
  8
_0-3_躯体と製品
  6
CONTINUOUS
 62
    2
 10
201.07107536110016
 20
373.58394089171099
 11
199.6568613610998
 21
374.99815489171101
  0
LINE
  8
_0-3_躯体と製品
  6
CONTINUOUS
 62
    2
 10
206.02082236109982
 20
378.53368889171099
 11
207.78858936110009
 21
376.76592189171106
  0
LINE
  8
_0-3_躯体と製品
  6
CONTINUOUS
 62
    2
 10
213.79899736110019
 20
382.77632889171093
 11
214.85965736109983
 21
383.83698889171092
  0
LINE
  8
_0-3_躯体と製品
  6
CONTINUOUS
 62
    2
 10
214.85965736109983
 20
381.71566889171106
 11
213.79899736110019
 21
382.77632889171093
  0
LINE
  8
_0-3_躯体と製品
  6
CONTINUOUS
 62
    2
 10
208.84924936110019
 20
377.82658189171093
 11
209.90991036110017
 21
376.76592189171106
  0
LINE
  8
_0-3_躯体と製品
  6
CONTINUOUS
 62
    2
 10
208.84924936110019
 20
377.82658189171093
 11
207.78858936110009
 21
376.76592189171106
  0
LINE
  8
_0-3_躯体と製品
  6
CONTINUOUS
 62
    2
 10
216.62742436110011
 20
391.96871689171098
 11
221.57717136109977
 21
387.01896989171109
  0
LINE
  8
_0-3_躯体と製品
  6
CONTINUOUS
 62
    2
 10
221.57717136109977
 20
384.19054289171106
 11
216.62742436110011
 21
389.14028989171084
  0
LINE
  8
_0-3_躯体と製品
  6
CONTINUOUS
 62
    2
 10
207.43503636110017
 20
374.29104789171083
 11
204.6066093610998
 21
377.11947489171087
  0
LINE
  8
_0-3_躯体と製品
  6
CONTINUOUS
 62
    2
 10
214.50610436109991
 20
387.01896989171109
 11
217.3345313611012
 21
384.19054289171106
  0
LINE
  8
_0-3_躯体と製品
  6
CONTINUOUS
 62
    2
 10
216.62742436110011
 20
389.14028989171084
 11
214.50610436109991
 21
387.01896989171109
  0
LINE
  8
_0-3_躯体と製品
  6
CONTINUOUS
 62
    2
 10
213.09189036110001
 20
385.60475589171097
 11
206.02082236109982
 21
378.53368889171099
  0
LINE
  8
_0-3_躯体と製品
  6
CONTINUOUS
 62
    2
 10
214.85965736109983
 20
383.83698889171092
 11
213.09189036110001
 21
385.60475589171097
  0
LINE
  8
_0-3_躯体と製品
  6
CONTINUOUS
 62
    2
 10
207.43503636110017
 20
374.29104789171083
 11
209.90991036110017
 21
376.76592189171106
  0
LINE
  8
_0-3_躯体と製品
  6
CONTINUOUS
 62
    2
 10
217.3345313611012
 20
384.19054289171106
 11
214.85965736109983
 21
381.71566889171106
  0
ARC
  8
_0-3_躯体と製品
  6
CONTINUOUS
 62
    5
 10
212.3847833611012
 20
379.24079489171095
 40
4.5
 50
3.1896849999999199
 51
45.00000000000459
  0
ARC
  8
_0-3_躯体と製品
  6
CONTINUOUS
 62
    5
 10
212.3847833611012
 20
379.24079489171095
 40
4.5
 50
225.0000000000046
 51
266.81031500000358
  0
LINE
  8
_0-4_図面枠
  6
CONTINUOUS
 62
    4
 10
1177.8968873611002
 20
-519.00000310828887
 11
1177.8968873611002
 21
815.99999689171102
  0
LINE
  8
_0-3_躯体と製品
  6
PLINE3
 62
    7
 10
276.50610436109991
 20
411.11947489171098
 11
743.64823936109997
 21
-56.022661108289043
  0
LINE
  8
_0-3_躯体と製品
  6
CONTINUOUS
 62
    2
 10
647.18020236109987
 20
-26.022661108289043
 11
292.50610436109991
 21
328.651437891711
  0
LINE
  8
_0-3_躯体と製品
  6
CONTINUOUS
 62
    2
 10
292.12132736110016
 20
341.76413589171102
 11
659.90812436109991
 21
-26.022661108289043
  0
LINE
  8
_0-3_躯体と製品
  6
CONTINUOUS
 62
    2
 10
224.50610436109991
 20
-16.408163108288932
 11
224.50610436109991
 21
320.651437891711
  0
LINE
  8
_0-3_躯体と製品
  6
CONTINUOUS
 62
    2
 10
226.50610436109991
 20
-16.022661108289043
 11
226.50610436109991
 21
319.14891189171101
  0
LINE
  8
_0-3_躯体と製品
  6
CONTINUOUS
 62
    2
 10
232.50610436109991
 20
-20.022661108289043
 11
232.50610436109991
 21
319.14891189171101
  0
LINE
  8
_0-3_躯体と製品
  6
CONTINUOUS
 62
    2
 10
236.50610436109991
 20
319.14891189171101
 11
236.50610436109991
 21
-20.022661108289043
  0
LINE
  8
_0-3_躯体と製品
  6
CONTINUOUS
 62
    2
 10
292.50610436109991
 20
-26.022661108289043
 11
292.50610436109991
 21
337.1367188917111
  0
LINE
  8
_0-3_躯体と製品
  6
CONTINUOUS
 62
    2
 10
268.50610436109991
 20
-16.022661108289043
 11
268.50610436109991
 21
361.1367188917111
  0
LINE
  8
_0-3_躯体と製品
  6
CONTINUOUS
 62
    2
 10
262.50610436109991
 20
437.84739689171101
 11
716.3761613611
 21
-16.022661108289043
  0
LINE
  8
_0-3_躯体と製品
  6
PLINE3
 62
    2
 10
262.50610436109991
 20
494.61416789171108
 11
262.50610436109991
 21
6.4365708917110567
  0
LINE
  8
_0-3_躯体と製品
  6
CONTINUOUS
 62
    2
 10
262.50610436109991
 20
381.27885489171103
 11
659.80761936110002
 21
-16.022661108289043
  0
LINE
  8
_0-3_躯体と製品
  6
PLINE3
 62
    7
 10
276.50610436109991
 20
411.11947489171098
 11
276.50610436109991
 21
-56.022661108289043
  0
LINE
  8
_0-3_躯体と製品
  6
CONTINUOUS
 62
    2
 10
300.50610436109991
 20
320.651437891711
 11
300.50610436109991
 21
-16.022661108289043
  0
LINE
  8
_0-3_躯体と製品
  6
CONTINUOUS
 62
    2
 10
298.50610436109991
 20
319.14891189171101
 11
298.50610436109991
 21
-16.022661108289043
  0
LINE
  8
_0-3_躯体と製品
  6
CONTINUOUS
 62
    2
 10
672.50610436109991
 20
-105.53876310828903
 11
672.50610436109991
 21
-330.23517710828889
  0
LINE
  8
_0-4_図面枠
  6
CONTINUOUS
 62
    2
 10
293.55764436109985
 20
-378.57319310828893
 11
222.60783336109989
 21
-378.57319310828893
  0
LINE
  8
_0-4_図面枠
  6
CONTINUOUS
 62
    2
 10
222.60783336109989
 20
-410.90044510828898
 11
293.55764436109985
 21
-410.90044510828898
  0
TEXT
  8
_0-4_図面枠
 62
    7
 10
230.06373736109981
 20
-405.50659910828892
 40
20
 41
0.7999999999999999
 50
0
  1
正面図
  0
LINE
  8
_0-4_図面枠
  6
CONTINUOUS
 62
    2
 10
222.60783336109989
 20
-378.57319310828893
 11
222.60783336109989
 21
-410.90044510828898
  0
LINE
  8
_0-4_図面枠
  6
CONTINUOUS
 62
    2
 10
293.55764436109985
 20
-410.90044510828898
 11
293.55764436109985
 21
-378.57319310828893
  0
LINE
  8
_0-3_躯体と製品
  6
CONTINUOUS
 62
    3
 10
262.50610436109991
 20
-26.022661108289043
 11
731.50610436109991
 21
-26.022661108289043
  0
LINE
  8
_0-3_躯体と製品
  6
CONTINUOUS
 62
    3
 10
262.50610436109991
 20
-37.022661108289014
 11
752.50610436109991
 21
-37.022661108289014
  0
LINE
  8
_0-3_躯体と製品
  6
CONTINUOUS
 62
    3
 10
262.50610436109991
 20
-74.022661108289071
 11
752.50610436109991
 21
-74.022661108289071
  0
LINE
  8
_0-3_躯体と製品
  6
CONTINUOUS
 62
    3
 10
262.50610436109991
 20
-89.022661108289014
 11
750.50610336110094
 21
-89.022661108289014
  0
LINE
  8
_0-3_躯体と製品
  6
PLINE3
 62
    7
 10
276.50610436109991
 20
-56.022661108289043
 11
743.64823936109997
 21
-56.022661108289043
  0
ARC
  8
_0-3_躯体と製品
  6
CONTINUOUS
 62
    2
 10
262.50610436109991
 20
-50.022661108289043
 40
3.5
 50
270
 51
90
  0
CIRCLE
  8
_0-3_躯体と製品
  6
CONTINUOUS
 62
    2
 10
492.50610436109991
 20
-50.022661108289043
 40
3.5
  0
LINE
  8
_0-3_躯体と製品
  6
PLINE3
 62
    2
 10
262.50610436109991
 20
-256.16953110828899
 11
262.50610436109991
 21
5.7057348917109607
  0
LINE
  8
_0-3_躯体と製品
  6
PLINE3
 62
    2
 10
492.50610436109991
 20
-40.022661108289043
 11
492.50610436109991
 21
-60.022661108289043
  0
LINE
  8
_0-3_躯体と製品
  6
CONTINUOUS
 62
    2
 10
297.50610436109991
 20
-20.022661108289043
 11
302.31981236110096
 21
-20.022661108289043
  0
LINE
  8
_0-3_躯体と製品
  6
CONTINUOUS
 62
    2
 10
297.50610436109991
 20
-16.022661108289043
 11
302.28353436110001
 21
-16.022661108289043
  0
LINE
  8
_0-3_躯体と製品
  6
CONTINUOUS
 62
    2
 10
262.50610436109991
 20
-28.022661108289043
 11
229.50610436109991
 21
-28.022661108289043
  0
LINE
  8
_0-3_躯体と製品
  6
CONTINUOUS
 62
    2
 10
262.50610436109991
 20
-20.022661108289043
 11
229.50610436109991
 21
-20.022661108289043
  0
ARC
  8
_0-3_躯体と製品
  6
CONTINUOUS
 62
    2
 10
236.00610436109991
 20
-24.022661108289071
 40
12
 50
180
 51
199.47122100000169
  0
LINE
  8
_0-3_躯体と製品
  6
CONTINUOUS
 62
    2
 10
224.00610436109991
 20
-30.771133108289035
 11
224.00610436109991
 21
-24.022661108289071
  0
LINE
  8
_0-3_躯体と製品
  6
CONTINUOUS
 62
    7
 10
229.50610436109991
 20
-14.022661108289071
 11
229.50610436109991
 21
-32.022661108289014
  0
LINE
  8
_0-3_躯体と製品
  6
CONTINUOUS
 62
    2
 10
229.50610436109991
 20
-28.022661108289043
 11
224.6923953610999
 21
-28.022661108289043
  0
ARC
  8
_0-3_躯体と製品
  6
CONTINUOUS
 62
    2
 10
227.06210436109995
 20
-29.952328108289038
 40
3.056
 50
140.84386800000382
 51
180.00000000000003
  0
LINE
  8
_0-3_躯体と製品
  6
CONTINUOUS
 62
    2
 10
224.72867336110085
 20
-32.022661108289014
 11
224.00610436109991
 21
-30.771133108289035
  0
LINE
  8
_0-3_躯体と製品
  6
CONTINUOUS
 62
    2
 10
229.50610436109991
 20
-32.022661108289014
 11
224.72867336110085
 21
-32.022661108289014
  0
LINE
  8
_0-3_躯体と製品
  6
CONTINUOUS
 62
    2
 10
232.50610436109991
 20
-32.022661108289014
 11
232.50610436109991
 21
-28.022661108289043
  0
LINE
  8
_0-3_躯体と製品
  6
CONTINUOUS
 62
    2
 10
236.50610436109991
 20
-32.022661108289014
 11
236.50610436109991
 21
-28.022661108289043
  0
LINE
  8
_0-3_躯体と製品
  6
CONTINUOUS
 62
    2
 10
236.50610436109991
 20
-28.522661108289043
 11
229.50610436109991
 21
-28.522661108289043
  0
LINE
  8
_0-3_躯体と製品
  6
CONTINUOUS
 62
    2
 10
229.50610436109991
 20
-20.022661108289043
 11
224.6923953610999
 21
-20.022661108289043
  0
ARC
  8
_0-3_躯体と製品
  6
CONTINUOUS
 62
    2
 10
227.06210436109995
 20
-18.092993108289022
 40
3.056
 50
180
 51
219.15613199999609
  0
ARC
  8
_0-3_躯体と製品
  6
CONTINUOUS
 62
    2
 10
236.00610436109991
 20
-24.022661108289071
 40
12
 50
160.52877899999822
 51
180.00000000000003
  0
LINE
  8
_0-3_躯体と製品
  6
CONTINUOUS
 62
    2
 10
224.00610436109991
 20
-17.274188108289025
 11
224.00610436109991
 21
-24.022661108289071
  0
LINE
  8
_0-3_躯体と製品
  6
CONTINUOUS
 62
    2
 10
224.72867336110085
 20
-16.022661108289043
 11
224.00610436109991
 21
-17.274188108289025
  0
LINE
  8
_0-3_躯体と製品
  6
CONTINUOUS
 62
    2
 10
229.50610436109991
 20
-16.022661108289043
 11
224.72867336110085
 21
-16.022661108289043
  0
LINE
  8
_0-3_躯体と製品
  6
CONTINUOUS
 62
    7
 10
232.50610436109991
 20
-14.022661108289071
 11
229.50610436109991
 21
-14.022661108289071
  0
LINE
  8
_0-3_躯体と製品
  6
CONTINUOUS
 62
    2
 10
236.50610436109991
 20
-19.522661108289014
 11
229.50610436109991
 21
-19.522661108289014
  0
LINE
  8
_0-3_躯体と製品
  6
CONTINUOUS
 62
    2
 10
263.00610436109991
 20
-52.072661108289026
 11
262.50610436109991
 21
-52.072661108289026
  0
LINE
  8
_0-3_躯体と製品
  6
CONTINUOUS
 62
    2
 10
262.50610436109991
 20
-47.972661108289003
 11
263.00610436109991
 21
-47.972661108289003
  0
LINE
  8
_0-3_躯体と製品
  6
CONTINUOUS
 62
    2
 10
263.02100736110015
 20
-51.218846108289029
 11
263.00610436109991
 21
-52.072661108289026
  0
LINE
  8
_0-3_躯体と製品
  6
CONTINUOUS
 62
    2
 10
263.02100736110015
 20
-48.826476108289029
 11
263.00610436109991
 21
-47.972661108289003
  0
LINE
  8
_0-3_躯体と製品
  6
CONTINUOUS
 62
    2
 10
263.23088836109991
 20
-49.297876108289046
 11
263.02100736110015
 21
-48.826476108289029
  0
LINE
  8
_0-3_躯体と製品
  6
CONTINUOUS
 62
    2
 10
263.70228936110016
 20
-49.507757108289042
 11
263.23088836109991
 21
-49.297876108289046
  0
LINE
  8
_0-3_躯体と製品
  6
CONTINUOUS
 62
    2
 10
264.55610436110101
 20
-49.522661108289014
 11
263.70228936110016
 21
-49.507757108289042
  0
LINE
  8
_0-3_躯体と製品
  6
CONTINUOUS
 62
    2
 10
263.23088836109991
 20
-50.747445108289043
 11
263.02100736110015
 21
-51.218846108289029
  0
LINE
  8
_0-3_躯体と製品
  6
CONTINUOUS
 62
    2
 10
264.55610436110101
 20
-50.522661108289043
 11
263.70228936110016
 21
-50.537564108289047
  0
LINE
  8
_0-3_躯体と製品
  6
CONTINUOUS
 62
    2
 10
263.23088836109991
 20
-50.747445108289043
 11
263.70228936110016
 21
-50.537564108289047
  0
LINE
  8
_0-3_躯体と製品
  6
CONTINUOUS
 62
    2
 10
264.55610436110101
 20
-49.522661108289014
 11
264.55610436110101
 21
-50.522661108289043
  0
LINE
  8
_0-3_躯体と製品
  6
PLINE3
 62
    2
 10
262.50610436109991
 20
-50.022661108289043
 11
271.04307036110094
 21
-50.022661108289043
  0
LINE
  8
_0-3_躯体と製品
  6
CONTINUOUS
 62
    2
 10
262.50610436109991
 20
-16.022661108289043
 11
292.50610436109991
 21
-16.022661108289043
  0
LINE
  8
_0-3_躯体と製品
  6
CONTINUOUS
 62
    2
 10
297.50610436109991
 20
-26.022661108289043
 11
297.50610436109991
 21
-16.022661108289043
  0
LINE
  8
_0-3_躯体と製品
  6
CONTINUOUS
 62
    2
 10
297.50610436109991
 20
-16.22266110828906
 11
295.50610436109991
 21
-16.22266110828906
  0
LINE
  8
_0-3_躯体と製品
  6
CONTINUOUS
 62
    2
 10
297.50610436109991
 20
-24.022661108289071
 11
295.50610436109991
 21
-22.022661108289014
  0
LINE
  8
_0-3_躯体と製品
  6
CONTINUOUS
 62
    2
 10
297.50610436109991
 20
-26.022661108289043
 11
295.50610436109991
 21
-24.022661108289071
  0
LINE
  8
_0-3_躯体と製品
  6
CONTINUOUS
 62
    7
 10
295.50610436109991
 20
-14.022661108289071
 11
295.50610436109991
 21
-26.022661108289043
  0
LINE
  8
_0-3_躯体と製品
  6
CONTINUOUS
 62
    7
 10
292.50610436109991
 20
-14.022661108289071
 11
295.50610436109991
 21
-14.022661108289071
  0
LINE
  8
_0-3_躯体と製品
  6
PLINE3
 62
    2
 10
268.50610436109991
 20
3.9773388917109571
 11
257.01117836110006
 21
3.9773388917109571
  0
LINE
  8
_0-3_躯体と製品
  6
CONTINUOUS
 62
    2
 10
263.00610436109991
 20
1.9273388917109742
 11
262.50610436109991
 21
1.9273388917109742
  0
LINE
  8
_0-3_躯体と製品
  6
CONTINUOUS
 62
    2
 10
262.50610436109991
 20
6.0273388917109685
 11
263.00610436109991
 21
6.0273388917109685
  0
LINE
  8
_0-3_躯体と製品
  6
CONTINUOUS
 62
    2
 10
263.02100736110015
 20
2.7811538917109715
 11
263.00610436109991
 21
1.9273388917109742
  0
LINE
  8
_0-3_躯体と製品
  6
CONTINUOUS
 62
    2
 10
263.02100736110015
 20
5.1735238917108575
 11
263.00610436109991
 21
6.0273388917109685
  0
LINE
  8
_0-3_躯体と製品
  6
CONTINUOUS
 62
    2
 10
263.23088836109991
 20
4.702123891710869
 11
263.02100736110015
 21
5.1735238917108575
  0
LINE
  8
_0-3_躯体と製品
  6
CONTINUOUS
 62
    2
 10
263.70228936110016
 20
4.4922428917109585
 11
263.23088836109991
 21
4.702123891710869
  0
LINE
  8
_0-3_躯体と製品
  6
CONTINUOUS
 62
    2
 10
264.55610436110101
 20
4.4773388917109571
 11
263.70228936110016
 21
4.4922428917109585
  0
LINE
  8
_0-3_躯体と製品
  6
CONTINUOUS
 62
    2
 10
263.23088836109991
 20
3.2525548917109575
 11
263.02100736110015
 21
2.7811538917109715
  0
LINE
  8
_0-3_躯体と製品
  6
CONTINUOUS
 62
    2
 10
264.55610436110101
 20
3.4773388917109571
 11
263.70228936110016
 21
3.4624358917109532
  0
LINE
  8
_0-3_躯体と製品
  6
CONTINUOUS
 62
    2
 10
263.23088836109991
 20
3.2525548917109575
 11
263.70228936110016
 21
3.4624358917109532
  0
ARC
  8
_0-3_躯体と製品
  6
CONTINUOUS
 62
    2
 10
262.50610436109991
 20
3.9773388917109571
 40
3.5
 50
270.39569999999748
 51
89.838961999999313
  0
LINE
  8
_0-3_躯体と製品
  6
CONTINUOUS
 62
    2
 10
264.55610436110101
 20
4.4773388917109571
 11
264.55610436110101
 21
3.4773388917109571
  0
LINE
  8
_0-3_躯体と製品
  6
CONTINUOUS
 62
    2
 10
303.00610436109991
 20
-17.274188108289025
 11
303.00610436109991
 21
-26.022661108289043
  0
ARC
  8
_0-3_躯体と製品
  6
CONTINUOUS
 62
    2
 10
291.00610436109991
 20
-24.022661108289071
 40
12
 50
350.40593200000035
 51
19.471221000001822
  0
ARC
  8
_0-3_躯体と製品
  6
CONTINUOUS
 62
    2
 10
299.95010436110078
 20
-18.092993108289022
 40
3.056
 50
320.84386800000391
 51
0.0000000000000318
  0
LINE
  8
_0-3_躯体と製品
  6
CONTINUOUS
 62
    2
 10
302.28353436110001
 20
-16.022661108289043
 11
303.00610436109991
 21
-17.274188108289025
  0
LINE
  8
_0-3_躯体と製品
  6
CONTINUOUS
 62
    2
 10
309.50610436109991
 20
-21.022661108289043
 11
309.50610436109991
 21
-26.022661108289043
  0
LINE
  8
_0-3_躯体と製品
  6
CONTINUOUS
 62
    2
 10
308.50610436109991
 20
-20.022661108289043
 11
309.50610436109991
 21
-21.022661108289043
  0
LINE
  8
_0-3_躯体と製品
  6
CONTINUOUS
 62
    2
 10
303.00610436109991
 20
-20.022661108289043
 11
308.50610436109991
 21
-20.022661108289043
  0
LINE
  8
_0-3_躯体と製品
  6
PLINE3
 62
    2
 10
268.50610436109991
 20
148.97733889171099
 11
256.50610436109991
 21
148.97733889171099
  0
LINE
  8
_0-3_躯体と製品
  6
CONTINUOUS
 62
    2
 10
263.00610436109991
 20
146.92733889171097
 11
262.50610436109991
 21
146.92733889171097
  0
LINE
  8
_0-3_躯体と製品
  6
CONTINUOUS
 62
    2
 10
262.50610436109991
 20
151.02733889171094
 11
263.00610436109991
 21
151.02733889171094
  0
LINE
  8
_0-3_躯体と製品
  6
CONTINUOUS
 62
    2
 10
263.02100736110015
 20
147.78115389171097
 11
263.00610436109991
 21
146.92733889171097
  0
LINE
  8
_0-3_躯体と製品
  6
CONTINUOUS
 62
    2
 10
263.02100736110015
 20
150.17352389171089
 11
263.00610436109991
 21
151.02733889171094
  0
LINE
  8
_0-3_躯体と製品
  6
CONTINUOUS
 62
    2
 10
263.23088836109991
 20
149.70212389171087
 11
263.02100736110015
 21
150.17352389171089
  0
LINE
  8
_0-3_躯体と製品
  6
CONTINUOUS
 62
    2
 10
263.70228936110016
 20
149.49224289171099
 11
263.23088836109991
 21
149.70212389171087
  0
LINE
  8
_0-3_躯体と製品
  6
CONTINUOUS
 62
    2
 10
264.55610436110101
 20
149.47733889171099
 11
263.70228936110016
 21
149.49224289171099
  0
LINE
  8
_0-3_躯体と製品
  6
CONTINUOUS
 62
    2
 10
263.23088836109991
 20
148.25255489171104
 11
263.02100736110015
 21
147.78115389171097
  0
LINE
  8
_0-3_躯体と製品
  6
CONTINUOUS
 62
    2
 10
264.55610436110101
 20
148.47733889171099
 11
263.70228936110016
 21
148.46243589171098
  0
LINE
  8
_0-3_躯体と製品
  6
CONTINUOUS
 62
    2
 10
263.23088836109991
 20
148.25255489171104
 11
263.70228936110016
 21
148.46243589171098
  0
ARC
  8
_0-3_躯体と製品
  6
CONTINUOUS
 62
    2
 10
262.50610436109991
 20
148.97733889171099
 40
3.5
 50
269.98810300000417
 51
89.613447000005507
  0
LINE
  8
_0-3_躯体と製品
  6
CONTINUOUS
 62
    2
 10
264.55610436110101
 20
149.47733889171099
 11
264.55610436110101
 21
148.47733889171099
  0
LINE
  8
_0-3_躯体と製品
  6
PLINE3
 62
    2
 10
483.02026636110077
 20
-50.022661108289043
 11
503.13256036109988
 21
-50.022661108289043
  0
LINE
  8
_0-3_躯体と製品
  6
CONTINUOUS
 62
    2
 10
493.02100736110015
 20
-51.218846108289029
 11
493.00610436109991
 21
-52.072661108289026
  0
LINE
  8
_0-3_躯体と製品
  6
CONTINUOUS
 62
    2
 10
491.9912003610998
 20
-51.218846108289029
 11
492.00610436109991
 21
-52.072661108289026
  0
LINE
  8
_0-3_躯体と製品
  6
CONTINUOUS
 62
    2
 10
491.78131936110094
 20
-50.747445108289043
 11
491.9912003610998
 21
-51.218846108289029
  0
LINE
  8
_0-3_躯体と製品
  6
CONTINUOUS
 62
    2
 10
491.30991936110013
 20
-50.537564108289047
 11
491.78131936110094
 21
-50.747445108289043
  0
LINE
  8
_0-3_躯体と製品
  6
CONTINUOUS
 62
    2
 10
490.45610436110019
 20
-50.522661108289043
 11
491.30991936110013
 21
-50.537564108289047
  0
LINE
  8
_0-3_躯体と製品
  6
CONTINUOUS
 62
    2
 10
491.30991936110013
 20
-49.507757108289042
 11
490.45610436110019
 21
-49.522661108289014
  0
LINE
  8
_0-3_躯体と製品
  6
CONTINUOUS
 62
    2
 10
491.78131936110094
 20
-49.297876108289046
 11
491.30991936110013
 21
-49.507757108289042
  0
LINE
  8
_0-3_躯体と製品
  6
CONTINUOUS
 62
    2
 10
491.9912003610998
 20
-48.826476108289029
 11
491.78131936110094
 21
-49.297876108289046
  0
LINE
  8
_0-3_躯体と製品
  6
CONTINUOUS
 62
    2
 10
492.00610436109991
 20
-47.972661108289003
 11
491.9912003610998
 21
-48.826476108289029
  0
LINE
  8
_0-3_躯体と製品
  6
CONTINUOUS
 62
    2
 10
493.02100736110015
 20
-48.826476108289029
 11
493.00610436109991
 21
-47.972661108289003
  0
LINE
  8
_0-3_躯体と製品
  6
CONTINUOUS
 62
    2
 10
493.23088836109991
 20
-49.297876108289046
 11
493.02100736110015
 21
-48.826476108289029
  0
LINE
  8
_0-3_躯体と製品
  6
CONTINUOUS
 62
    2
 10
493.70228936110016
 20
-49.507757108289042
 11
493.23088836109991
 21
-49.297876108289046
  0
LINE
  8
_0-3_躯体と製品
  6
CONTINUOUS
 62
    2
 10
494.5561043611001
 20
-49.522661108289014
 11
493.70228936110016
 21
-49.507757108289042
  0
LINE
  8
_0-3_躯体と製品
  6
CONTINUOUS
 62
    2
 10
493.23088836109991
 20
-50.747445108289043
 11
493.02100736110015
 21
-51.218846108289029
  0
LINE
  8
_0-3_躯体と製品
  6
CONTINUOUS
 62
    2
 10
494.5561043611001
 20
-50.522661108289043
 11
493.70228936110016
 21
-50.537564108289047
  0
LINE
  8
_0-3_躯体と製品
  6
CONTINUOUS
 62
    2
 10
493.23088836109991
 20
-50.747445108289043
 11
493.70228936110016
 21
-50.537564108289047
  0
LINE
  8
_0-3_躯体と製品
  6
CONTINUOUS
 62
    2
 10
490.45610436110019
 20
-50.522661108289043
 11
490.45610436110019
 21
-49.522661108289014
  0
LINE
  8
_0-3_躯体と製品
  6
CONTINUOUS
 62
    2
 10
493.00610436109991
 20
-52.072661108289026
 11
492.00610436109991
 21
-52.072661108289026
  0
LINE
  8
_0-3_躯体と製品
  6
CONTINUOUS
 62
    2
 10
494.5561043611001
 20
-49.522661108289014
 11
494.5561043611001
 21
-50.522661108289043
  0
LINE
  8
_0-3_躯体と製品
  6
CONTINUOUS
 62
    2
 10
492.00610436109991
 20
-47.972661108289003
 11
493.00610436109991
 21
-47.972661108289003
  0
LINE
  8
_0-3_躯体と製品
  6
PLINE2
 62
    7
 10
668.50610436109991
 20
-52.022661108289014
 11
668.50610436109991
 21
-92.022661108289014
  0
LINE
  8
_0-3_躯体と製品
  6
PLINE2
 62
    7
 10
672.50610436109991
 20
-95.022661108289014
 11
672.50610436109991
 21
-45.022661108289043
  0
LINE
  8
_0-3_躯体と製品
  6
PLINE2
 62
    7
 10
590.50610336110094
 20
-59.022661108289071
 11
600.50610336110094
 21
-49.022661108289071
  0
CIRCLE
  8
_0-3_躯体と製品
  6
CONTINUOUS
 62
    2
 10
722.50610436109991
 20
-50.022661108289043
 40
3.5
  0
LINE
  8
_0-3_躯体と製品
  6
PLINE3
 62
    2
 10
722.50610436109991
 20
-40.022661108289043
 11
722.50610436109991
 21
-60.022661108289043
  0
LINE
  8
_0-3_躯体と製品
  6
PLINE2
 62
    2
 10
700.00610436109991
 20
-57.522661108289043
 11
700.00610436109991
 21
-45.022661108289043
  0
LINE
  8
_0-3_躯体と製品
  6
CONTINUOUS
 62
    3
 10
752.50610436109991
 20
-37.022661108289014
 11
752.50610436109991
 21
-74.022661108289071
  0
ARC
  8
_0-3_躯体と製品
  6
CONTINUOUS
 62
    2
 10
749.50610436109991
 20
-50.022661108289043
 40
5
 50
306.86989800000583
 51
53.130101999994189
  0
LINE
  8
_0-3_躯体と製品
  6
PLINE3
 62
    2
 10
647.50610436109991
 20
-39.223433108289044
 11
647.50610436109991
 21
-63.397539108289038
  0
LINE
  8
_0-3_躯体と製品
  6
PLINE2
 62
    5
 10
688.33049936110001
 20
-256.16953110828899
 11
610.50610336110094
 21
-178.34513410828902
  0
LINE
  8
_0-3_躯体と製品
  6
PLINE2
 62
    5
 10
691.15892736110118
 20
-256.16953110828899
 11
610.50610336110094
 21
-175.51670710828898
  0
LINE
  8
_0-3_躯体と製品
  6
PLINE2
 62
    5
 10
693.98735436110019
 20
-256.16953110828899
 11
610.50610336110094
 21
-172.68828010828901
  0
LINE
  8
_0-3_躯体と製品
  6
PLINE2
 62
    7
 10
730.50610336110094
 20
-115.02266110828901
 11
610.50610336110094
 21
-115.02266110828901
  0
LINE
  8
_0-3_躯体と製品
  6
PLINE2
 62
    5
 10
664.84924936110019
 20
-115.02266110828901
 11
730.50610336110094
 21
-180.67951410828897
  0
LINE
  8
_0-3_躯体と製品
  6
PLINE2
 62
    5
 10
667.6776773611009
 20
-115.02266110828901
 11
730.50610336110094
 21
-177.85108710828894
  0
LINE
  8
_0-3_躯体と製品
  6
PLINE2
 62
    5
 10
670.50610436109991
 20
-115.02266110828901
 11
730.50610336110094
 21
-175.02266010828896
  0
LINE
  8
_0-3_躯体と製品
  6
PLINE2
 62
    7
 10
610.50610336110094
 20
-256.16953110828899
 11
610.50610336110094
 21
-115.02266110828901
  0
LINE
  8
_0-3_躯体と製品
  6
PLINE2
 62
    7
 10
590.50610336110094
 20
-256.16953110828899
 11
590.50610336110094
 21
-59.022661108289071
  0
LINE
  8
_0-3_躯体と製品
  6
PLINE3
 62
    2
 10
643.50610436109991
 20
-102.51688310828894
 11
643.50610436109991
 21
-130.74091410828896
  0
LINE
  8
_0-3_躯体と製品
  6
PLINE2
 62
    7
 10
668.50610436109991
 20
-92.022661108289014
 11
668.50610436109991
 21
-115.02266110828901
  0
LINE
  8
_0-3_躯体と製品
  6
PLINE2
 62
    7
 10
664.50610436109991
 20
-108.02266110828901
 11
664.50610436109991
 21
-68.022661108289043
  0
LINE
  8
_0-3_躯体と製品
  6
PLINE2
 62
    7
 10
621.50610436109991
 20
-111.02266110828901
 11
661.50610436109991
 21
-111.02266110828901
  0
LINE
  8
_0-3_躯体と製品
  6
CONTINUOUS
 62
    7
 10
618.50610436109991
 20
-114.02266110828901
 11
618.50610436109991
 21
-115.02266110828901
  0
ARC
  8
_0-3_躯体と製品
  6
CONTINUOUS
 62
    7
 10
621.50610436109991
 20
-114.02266110828901
 40
3
 50
90
 51
180
  0
ARC
  8
_0-3_躯体と製品
  6
CONTINUOUS
 62
    7
 10
661.50610436109991
 20
-108.02266110828901
 40
3
 50
270
 51
0
  0
LINE
  8
_0-3_躯体と製品
  6
PLINE3
 62
    2
 10
658.88086736110017
 20
-80.022661108289043
 11
677.83465136109999
 21
-80.022661108289043
  0
ARC
  8
_0-3_躯体と製品
  6
CONTINUOUS
 62
    7
 10
671.50610436109991
 20
-92.022661108289014
 40
3
 50
180
 51
270
  0
LINE
  8
_0-3_躯体と製品
  6
CONTINUOUS
 62
    7
 10
671.50610436109991
 20
-95.022661108289014
 11
672.50610436109991
 21
-95.022661108289014
  0
ARC
  8
_0-3_躯体と製品
  6
CONTINUOUS
 62
    7
 10
667.50610436109991
 20
-68.022661108289043
 40
3
 50
90
 51
180
  0
LINE
  8
_0-3_躯体と製品
  6
CONTINUOUS
 62
    7
 10
667.50610436109991
 20
-65.022661108289043
 11
668.50610436109991
 21
-65.022661108289043
  0
LINE
  8
_0-3_躯体と製品
  6
PLINE2
 62
    7
 10
730.50610336110094
 20
-256.16953110828899
 11
730.50610336110094
 21
-115.02266110828901
  0
LINE
  8
_0-3_躯体と製品
  6
CONTINUOUS
 62
    7
 10
750.50610336110094
 20
-256.16953110828899
 11
750.50610336110094
 21
-89.022661108289014
  0
LINE
  8
_0-3_躯体と製品
  6
CONTINUOUS
 62
    3
 10
735.50610436109991
 20
-89.022661108289014
 11
735.50610436109991
 21
-74.022661108289071
  0
ARC
  8
_0-3_躯体と製品
  6
CONTINUOUS
 62
    5
 10
783.62738936110009
 20
-77.635738108288933
 40
35.287365000000001
 50
174.11753299999961
 51
199.1240190000016
  0
LINE
  8
_0-3_躯体と製品
  6
CONTINUOUS
 62
    2
 10
716.3761613611
 20
-16.022661108289043
 11
659.80761936110002
 21
-16.022661108289043
  0
LINE
  8
_0-3_躯体と製品
  6
PLINE2
 62
    7
 10
625.50610436109991
 20
-49.022661108289071
 11
665.50610436109991
 21
-49.022661108289071
  0
LINE
  8
_0-3_躯体と製品
  6
PLINE2
 62
    7
 10
622.50610436109991
 20
-45.022661108289043
 11
672.50610436109991
 21
-45.022661108289043
  0
ARC
  8
_0-3_躯体と製品
  6
CONTINUOUS
 62
    7
 10
625.50610436109991
 20
-46.022661108289043
 40
3
 50
180
 51
270
  0
LINE
  8
_0-3_躯体と製品
  6
CONTINUOUS
 62
    7
 10
622.50610436109991
 20
-46.022661108289043
 11
622.50610436109991
 21
-45.022661108289043
  0
ARC
  8
_0-3_躯体と製品
  6
CONTINUOUS
 62
    7
 10
665.50610436109991
 20
-52.022661108289014
 40
3
 50
0
 51
90
  0
LINE
  8
_0-3_躯体と製品
  6
PLINE3
 62
    2
 10
746.8744113611001
 20
-50.022661108289043
 11
759.50610436109991
 21
-50.022661108289043
  0
ARC
  8
_0-3_躯体と製品
  6
CONTINUOUS
 62
    5
 10
741.08331936110017
 20
4.9133688917109737
 40
32.384578999999988
 50
220.27684000000221
 51
252.79845399999661
  0
LINE
  8
_0-3_躯体と製品
  6
PLINE3
 62
    2
 10
713.83278536110083
 20
-50.022661108289043
 11
731.87000236110089
 21
-50.022661108289043
  0
LINE
  8
_0-3_躯体と製品
  6
PLINE2
 62
    2
 10
700.00610436109991
 20
-45.022661108289043
 11
712.50610436109991
 21
-45.022661108289043
  0
LINE
  8
_0-3_躯体と製品
  6
PLINE2
 62
    2
 10
710.50610436109991
 20
-42.022661108289014
 11
686.55601536109998
 21
-42.022661108289014
  0
LINE
  8
_0-3_躯体と製品
  6
PLINE2
 62
    2
 10
697.00610436109991
 20
-45.022661108289043
 11
697.00610436109991
 21
-51.922661108289049
  0
LINE
  8
_0-3_躯体と製品
  6
PLINE2
 62
    2
 10
712.50610436109991
 20
-45.022661108289043
 11
712.50610436109991
 21
-39.022661108289071
  0
LINE
  8
_0-3_躯体と製品
  6
PLINE2
 62
    2
 10
710.50610436109991
 20
-42.022661108289014
 11
710.50610436109991
 21
-39.022661108289071
  0
LINE
  8
_0-3_躯体と製品
  6
PLINE2
 62
    2
 10
712.50610436109991
 20
-39.022661108289071
 11
710.50610436109991
 21
-39.022661108289071
  0
LINE
  8
_0-3_躯体と製品
  6
CONTINUOUS
 62
    3
 10
731.50610436109991
 20
-26.022661108289043
 11
752.50610436109991
 21
-37.022661108289014
  0
LINE
  8
_0-3_躯体と製品
  6
CONTINUOUS
 62
    2
 10
723.02100736110015
 20
-51.218846108289029
 11
723.00610436109991
 21
-52.072661108289026
  0
LINE
  8
_0-3_躯体と製品
  6
CONTINUOUS
 62
    2
 10
721.9912003610998
 20
-51.218846108289029
 11
722.00610436109991
 21
-52.072661108289026
  0
LINE
  8
_0-3_躯体と製品
  6
CONTINUOUS
 62
    2
 10
721.78131936110094
 20
-50.747445108289043
 11
721.9912003610998
 21
-51.218846108289029
  0
LINE
  8
_0-3_躯体と製品
  6
CONTINUOUS
 62
    2
 10
721.30991936110013
 20
-50.537564108289047
 11
721.78131936110094
 21
-50.747445108289043
  0
LINE
  8
_0-3_躯体と製品
  6
CONTINUOUS
 62
    2
 10
720.4561043611011
 20
-50.522661108289043
 11
721.30991936110013
 21
-50.537564108289047
  0
LINE
  8
_0-3_躯体と製品
  6
CONTINUOUS
 62
    2
 10
721.30991936110013
 20
-49.507757108289042
 11
720.4561043611011
 21
-49.522661108289014
  0
LINE
  8
_0-3_躯体と製品
  6
CONTINUOUS
 62
    2
 10
721.78131936110094
 20
-49.297876108289046
 11
721.30991936110013
 21
-49.507757108289042
  0
LINE
  8
_0-3_躯体と製品
  6
CONTINUOUS
 62
    2
 10
721.9912003610998
 20
-48.826476108289029
 11
721.78131936110094
 21
-49.297876108289046
  0
LINE
  8
_0-3_躯体と製品
  6
CONTINUOUS
 62
    2
 10
722.00610436109991
 20
-47.972661108289003
 11
721.9912003610998
 21
-48.826476108289029
  0
LINE
  8
_0-3_躯体と製品
  6
CONTINUOUS
 62
    2
 10
723.02100736110015
 20
-48.826476108289029
 11
723.00610436109991
 21
-47.972661108289003
  0
LINE
  8
_0-3_躯体と製品
  6
CONTINUOUS
 62
    2
 10
723.23088836109991
 20
-49.297876108289046
 11
723.02100736110015
 21
-48.826476108289029
  0
LINE
  8
_0-3_躯体と製品
  6
CONTINUOUS
 62
    2
 10
723.70228936110016
 20
-49.507757108289042
 11
723.23088836109991
 21
-49.297876108289046
  0
LINE
  8
_0-3_躯体と製品
  6
CONTINUOUS
 62
    2
 10
724.5561043611001
 20
-49.522661108289014
 11
723.70228936110016
 21
-49.507757108289042
  0
LINE
  8
_0-3_躯体と製品
  6
CONTINUOUS
 62
    2
 10
723.23088836109991
 20
-50.747445108289043
 11
723.02100736110015
 21
-51.218846108289029
  0
LINE
  8
_0-3_躯体と製品
  6
CONTINUOUS
 62
    2
 10
724.5561043611001
 20
-50.522661108289043
 11
723.70228936110016
 21
-50.537564108289047
  0
LINE
  8
_0-3_躯体と製品
  6
CONTINUOUS
 62
    2
 10
723.23088836109991
 20
-50.747445108289043
 11
723.70228936110016
 21
-50.537564108289047
  0
LINE
  8
_0-3_躯体と製品
  6
CONTINUOUS
 62
    2
 10
720.4561043611011
 20
-50.522661108289043
 11
720.4561043611011
 21
-49.522661108289014
  0
LINE
  8
_0-3_躯体と製品
  6
CONTINUOUS
 62
    2
 10
723.00610436109991
 20
-52.072661108289026
 11
722.00610436109991
 21
-52.072661108289026
  0
LINE
  8
_0-3_躯体と製品
  6
CONTINUOUS
 62
    2
 10
724.5561043611001
 20
-49.522661108289014
 11
724.5561043611001
 21
-50.522661108289043
  0
LINE
  8
_0-3_躯体と製品
  6
CONTINUOUS
 62
    2
 10
722.00610436109991
 20
-47.972661108289003
 11
723.00610436109991
 21
-47.972661108289003
  0
LINE
  8
_0-3_躯体と製品
  6
CONTINUOUS
 62
    2
 10
229.53628236109989
 20
371.28168489171094
 11
233.61356236109987
 21
367.20440489171108
  0
LINE
  8
_0-3_躯体と製品
  6
CONTINUOUS
 62
    2
 10
224.75915236110086
 20
370.40196089171093
 11
225.81981236110005
 21
369.34129989171095
  0
LINE
  8
_0-3_躯体と製品
  6
CONTINUOUS
 62
    2
 10
226.88047236110015
 20
370.40196089171093
 11
228.64823936109997
 21
368.63419389171111
  0
LINE
  8
_0-3_躯体と製品
  6
CONTINUOUS
 62
    2
 10
225.81981236110005
 20
369.34129989171095
 11
226.88047236110015
 21
370.40196089171093
  0
LINE
  8
_0-3_躯体と製品
  6
CONTINUOUS
 62
    2
 10
300.50610436109991
 20
319.14891189171101
 11
292.50610436109991
 21
319.14891189171101
  0
LINE
  8
_0-3_躯体と製品
  6
PLINE2
 62
    7
 10
252.50610436109991
 20
319.14891189171101
 11
252.50610436109991
 21
294.14891189171095
  0
ARC
  8
_0-3_躯体と製品
  6
PLINE2
 62
    2
 10
262.50610436109991
 20
320.64891189171101
 40
12
 50
250.52877900000436
 51
270.00000000000006
  0
LINE
  8
_0-3_躯体と製品
  6
PLINE2
 62
    2
 10
255.75763136109981
 20
308.64891189171101
 11
262.50610436109991
 21
308.64891189171101
  0
LINE
  8
_0-3_躯体と製品
  6
PLINE2
 62
    2
 10
262.50610436109991
 20
304.74891189171092
 11
259.50610436109991
 21
304.74891189171092
  0
LINE
  8
_0-3_躯体と製品
  6
PLINE2
 62
    2
 10
254.50610436109991
 20
314.14891189171101
 11
262.50610436109991
 21
314.14891189171101
  0
LINE
  8
_0-3_躯体と製品
  6
PLINE2
 62
    2
 10
255.70610436110019
 20
298.06292989171095
 11
262.50610436109991
 21
301.98891189171093
  0
LINE
  8
_0-3_躯体と製品
  6
PLINE2
 62
    2
 10
262.50610436109991
 20
286.30891189171109
 11
255.70610436110019
 21
290.23489389171095
  0
ARC
  8
_0-3_躯体と製品
  6
PLINE2
 62
    2
 10
262.49919636110008
 20
294.14891189171095
 40
6.793092999999998
 50
89.94174199999442
 51
270.05825800000548
  0
LINE
  8
_0-3_躯体と製品
  6
PLINE2
 62
    7
 10
262.50610436109991
 20
316.14891189171101
 11
252.50610436109991
 21
316.14891189171101
  0
ARC
  8
_0-3_躯体と製品
  6
PLINE2
 62
    7
 10
262.50610436109991
 20
293.97733889171099
 40
10.001472
 50
179.01691199999911
 51
270
  0
LINE
  8
_0-3_躯体と製品
  6
PLINE3
 62
    2
 10
262.50610436109991
 20
294.14891189171095
 11
252.50610436109991
 21
294.14891189171095
  0
LINE
  8
_0-3_躯体と製品
  6
PLINE2
 62
    2
 10
255.70610436110019
 20
290.23489389171095
 11
255.70610436110019
 21
298.06292989171095
  0
ARC
  8
_0-3_躯体と製品
  6
PLINE2
 62
    2
 10
256.57643636110015
 20
311.70491189171105
 40
3.056
 50
270
 51
309.1561320000028
  0
LINE
  8
_0-3_躯体と製品
  6
PLINE2
 62
    2
 10
258.50610436109991
 20
314.14891189171101
 11
258.50610436109991
 21
309.3352038917111
  0
LINE
  8
_0-3_躯体と製品
  6
PLINE2
 62
    2
 10
254.50610436109991
 20
309.37148189171103
 11
255.75763136109981
 21
308.64891189171101
  0
LINE
  8
_0-3_躯体と製品
  6
PLINE2
 62
    2
 10
258.50610436109991
 20
305.74891189171103
 11
259.50610436109991
 21
304.74891189171092
  0
LINE
  8
_0-3_躯体と製品
  6
PLINE2
 62
    2
 10
258.50610436109991
 20
308.64891189171101
 11
258.50610436109991
 21
305.74891189171103
  0
LINE
  8
_0-3_躯体と製品
  6
PLINE2
 62
    2
 10
254.50610436109991
 20
309.37148189171103
 11
254.50610436109991
 21
314.14891189171101
  0
LINE
  8
_0-3_躯体と製品
  6
PLINE2
 62
    2
 10
254.70610436110019
 20
314.14891189171101
 11
254.70610436110019
 21
316.14891189171101
  0
LINE
  8
_0-3_躯体と製品
  6
PLINE2
 62
    2
 10
260.50610436109991
 20
314.14891189171101
 11
262.50610436109991
 21
316.14891189171101
  0
ARC
  8
_0-3_躯体と製品
  6
CONTINUOUS
 62
    2
 10
259.25610436109991
 20
319.61042089171099
 40
8.0384910000000005
 50
66.152433999997612
 51
113.8475660000024
  0
LINE
  8
_0-3_躯体と製品
  6
CONTINUOUS
 62
    2
 10
256.00610436109991
 20
322.14891189171101
 11
262.50610436109991
 21
322.14891189171101
  0
LINE
  8
_0-3_躯体と製品
  6
CONTINUOUS
 62
    2
 10
255.00610436109991
 20
332.14891189171101
 11
262.50610436109991
 21
332.14891189171101
  0
LINE
  8
_0-3_躯体と製品
  6
CONTINUOUS
 62
    2
 10
262.00610436109991
 20
329.14891189171101
 11
256.00610436109991
 21
329.14891189171101
  0
LINE
  8
_0-3_躯体と製品
  6
CONTINUOUS
 62
    2
 10
262.50610436109991
 20
319.14891189171101
 11
224.50610436109991
 21
319.14891189171101
  0
LINE
  8
_0-3_躯体と製品
  6
CONTINUOUS
 62
    2
 10
233.95154036109989
 20
344.94611589171086
 11
242.00610436109991
 21
336.89155289171106
  0
LINE
  8
_0-3_躯体と製品
  6
CONTINUOUS
 62
    2
 10
241.43911636110079
 20
325.80083589171113
 11
240.48537836110017
 21
324.14891189171101
  0
LINE
  8
_0-3_躯体と製品
  6
CONTINUOUS
 62
    2
 10
240.48537836110017
 20
324.14891189171101
 11
241.49574136110004
 21
322.39891189171101
  0
ARC
  8
_0-3_躯体と製品
  6
CONTINUOUS
 62
    2
 10
241.00610436109991
 20
326.45379789171102
 40
0.5
 50
0
 51
123.05573100000132
  0
LINE
  8
_0-3_躯体と製品
  6
CONTINUOUS
 62
    2
 10
242.00610436109991
 20
333.90879689171095
 11
230.24621936110088
 21
322.14891189171101
  0
LINE
  8
_0-3_躯体と製品
  6
CONTINUOUS
 62
    2
 10
223.85587236109996
 20
336.97176889171101
 11
222.45997536110099
 21
337.34579889171084
  0
LINE
  8
_0-3_躯体と製品
  6
CONTINUOUS
 62
    2
 10
227.23402636109995
 20
340.34992189171101
 11
223.85587236109996
 21
336.97176889171101
  0
LINE
  8
_0-3_躯体と製品
  6
CONTINUOUS
 62
    2
 10
227.0926043610998
 20
340.49134389171104
 11
228.50681836110016
 21
341.90555689171083
  0
ARC
  8
_0-3_躯体と製品
  6
CONTINUOUS
 62
    2
 10
242.50610436109991
 20
324.14891189171101
 40
3.25
 50
123.05572600000069
 51
193.60896300000016
  0
ARC
  8
_0-3_躯体と製品
  6
CONTINUOUS
 62
    2
 10
238.37542636110084
 20
323.14891189171101
 40
1
 50
270
 51
13.608960999999676
  0
LINE
  8
_0-3_躯体と製品
  6
CONTINUOUS
 62
    2
 10
238.37542636110084
 20
322.14891189171101
 11
230.24621936110088
 21
322.14891189171101
  0
LINE
  8
_0-3_躯体と製品
  6
CONTINUOUS
 62
    2
 10
243.57309136110007
 20
325.80083589171113
 11
244.52683036110011
 21
324.14891189171101
  0
ARC
  8
_0-3_躯体と製品
  6
CONTINUOUS
 62
    2
 10
244.00610436109991
 20
326.05083589171102
 40
0.5
 50
180
 51
209.99999999999719
  0
LINE
  8
_0-3_躯体と製品
  6
CONTINUOUS
 62
    2
 10
243.50610436109991
 20
326.05083589171102
 11
243.50610436109991
 21
326.45379789171102
  0
ARC
  8
_0-3_躯体と製品
  6
CONTINUOUS
 62
    2
 10
244.00610436109991
 20
326.45379789171102
 40
0.5
 50
56.944268999998663
 51
180
  0
ARC
  8
_0-3_躯体と製品
  6
CONTINUOUS
 62
    2
 10
241.00610436109991
 20
326.05083589171102
 40
0.5
 50
330.00000000000267
 51
0.0000000000000127
  0
LINE
  8
_0-3_躯体と製品
  6
CONTINUOUS
 62
    2
 10
241.50610436109991
 20
326.05083589171102
 11
241.50610436109991
 21
326.45379789171102
  0
LINE
  8
_0-3_躯体と製品
  6
CONTINUOUS
 62
    2
 10
243.51646736109979
 20
322.39891189171101
 11
244.52683036110011
 21
324.14891189171101
  0
LINE
  8
_0-3_躯体と製品
  6
CONTINUOUS
 62
    2
 10
241.49574136110004
 20
322.39891189171101
 11
243.51646736109979
 21
322.39891189171101
  0
ARC
  8
_0-3_躯体と製品
  6
CONTINUOUS
 62
    2
 10
242.50610436109991
 20
324.14891189171101
 40
3.25
 50
346.39103900000038
 51
56.944272999999527
  0
ARC
  8
_0-3_躯体と製品
  6
CONTINUOUS
 62
    2
 10
246.6367823610999
 20
323.14891189171101
 40
1
 50
166.39103900000021
 51
270
  0
LINE
  8
_0-3_躯体と製品
  6
CONTINUOUS
 62
    2
 10
258.25610436109991
 20
322.14891189171101
 11
258.25610436109991
 21
319.14891189171101
  0
LINE
  8
_0-3_躯体と製品
  6
CONTINUOUS
 62
    2
 10
253.00610436109991
 20
333.14891189171101
 11
253.00610436109991
 21
322.14891189171101
  0
LINE
  8
_0-3_躯体と製品
  6
CONTINUOUS
 62
    2
 10
255.00610436109991
 20
333.14891189171101
 11
253.00610436109991
 21
333.14891189171101
  0
LINE
  8
_0-3_躯体と製品
  6
CONTINUOUS
 62
    2
 10
255.00610436109991
 20
333.14891189171101
 11
255.00610436109991
 21
332.14891189171101
  0
LINE
  8
_0-3_躯体と製品
  6
CONTINUOUS
 62
    2
 10
242.00610436109991
 20
336.89155289171106
 11
242.00610436109991
 21
333.90879689171095
  0
LINE
  8
_0-3_躯体と製品
  6
CONTINUOUS
 62
    2
 10
253.00610436109991
 20
322.14891189171101
 11
246.6367823610999
 21
322.14891189171101
  0
LINE
  8
_0-3_躯体と製品
  6
CONTINUOUS
 62
    2
 10
256.00610436109991
 20
329.14891189171101
 11
256.00610436109991
 21
322.14891189171101
  0
LINE
  8
_0-3_躯体と製品
  6
CONTINUOUS
 62
    2
 10
258.50610436109991
 20
322.14891189171101
 11
258.50610436109991
 21
319.14891189171101
  0
ARC
  8
_0-3_躯体と製品
  6
CONTINUOUS
 62
    2
 10
223.14094536109997
 20
352.16674389171112
 40
8.0384910000000005
 50
21.152433999998969
 51
68.847566000001024
  0
LINE
  8
_0-3_躯体と製品
  6
CONTINUOUS
 62
    2
 10
233.42121036109984
 20
353.25462089171094
 11
228.8250163611001
 21
357.85081489171091
  0
LINE
  8
_0-3_躯体と製品
  6
CONTINUOUS
 62
    2
 10
234.15802736109981
 20
363.08192489171097
 11
232.50610436109991
 21
362.12818589171104
  0
ARC
  8
_0-3_躯体と製品
  6
CONTINUOUS
 62
    2
 10
234.40802736109981
 20
362.64891189171101
 40
0.5
 50
90
 51
120.0000000000005
  0
LINE
  8
_0-3_躯体と製品
  6
CONTINUOUS
 62
    2
 10
234.40802736109981
 20
363.14891189171101
 11
234.81099036109981
 21
363.14891189171101
  0
ARC
  8
_0-3_躯体と製品
  6
CONTINUOUS
 62
    2
 10
234.81099036109981
 20
362.64891189171101
 40
0.5
 50
326.9442689999978
 51
90
  0
LINE
  8
_0-3_躯体と製品
  6
CONTINUOUS
 62
    2
 10
234.15802736109981
 20
365.21589989171082
 11
232.50610436109991
 21
366.16963789171098
  0
ARC
  8
_0-3_躯体と製品
  6
CONTINUOUS
 62
    2
 10
234.40802736109981
 20
365.64891189171101
 40
0.5
 50
239.99999999999943
 51
270
  0
LINE
  8
_0-3_躯体と製品
  6
CONTINUOUS
 62
    2
 10
234.40802736109981
 20
365.14891189171101
 11
234.81099036109981
 21
365.14891189171101
  0
LINE
  8
_0-3_躯体と製品
  6
CONTINUOUS
 62
    2
 10
232.50610436109991
 20
366.16963789171098
 11
230.75610436109991
 21
365.15927489171099
  0
LINE
  8
_0-3_躯体と製品
  6
CONTINUOUS
 62
    2
 10
230.75610436109991
 20
363.13854889171091
 11
232.50610436109991
 21
362.12818589171104
  0
LINE
  8
_0-3_躯体と製品
  6
CONTINUOUS
 62
    2
 10
230.75610436109991
 20
365.15927489171099
 11
230.75610436109991
 21
363.13854889171091
  0
ARC
  8
_0-3_躯体と製品
  6
CONTINUOUS
 62
    2
 10
234.81099036109981
 20
365.64891189171101
 40
0.5
 50
270
 51
33.055731000002183
  0
ARC
  8
_0-3_躯体と製品
  6
CONTINUOUS
 62
    2
 10
232.50610436109991
 20
364.14891189171101
 40
3.25
 50
33.055731000002162
 51
70.077040000005468
  0
ARC
  8
_0-3_躯体と製品
  6
CONTINUOUS
 62
    2
 10
234.20205036110019
 20
360.25195589171085
 40
1
 50
113.51856000000501
 51
225.00000000000463
  0
ARC
  8
_0-3_躯体と製品
  6
CONTINUOUS
 62
    2
 10
232.50610436109991
 20
364.14891189171101
 40
3.25
 50
293.51856000000498
 51
326.94442399999787
  0
LINE
  8
_0-3_躯体と製品
  6
CONTINUOUS
 62
    2
 10
233.49494236110013
 20
359.54484989171101
 11
241.02260836110008
 21
352.01718389171094
  0
LINE
  8
_0-3_躯体と製品
  6
CONTINUOUS
 62
    2
 10
236.77996736109981
 20
352.01718389171094
 11
227.58757936109987
 21
361.20957189171099
  0
LINE
  8
_0-3_躯体と製品
  6
CONTINUOUS
 62
    2
 10
236.77996736109981
 20
352.01718389171094
 11
231.83022036110015
 21
347.06743689171094
  0
LINE
  8
_0-3_躯体と製品
  6
CONTINUOUS
 62
    2
 10
241.02260836110008
 20
352.01718389171094
 11
233.95154036109989
 21
344.94611589171086
  0
LINE
  8
_0-3_躯体と製品
  6
CONTINUOUS
 62
    2
 10
230.2392303611
 20
348.65842689171109
 11
228.11790936109992
 21
346.53710689171101
  0
LINE
  8
_0-3_躯体と製品
  6
CONTINUOUS
 62
    2
 10
224.2288223610999
 20
354.66883489171107
 11
222.10750236110016
 21
352.54751389171099
  0
LINE
  8
_0-3_躯体と製品
  6
CONTINUOUS
 62
    2
 10
222.63783236109975
 20
356.25982489171099
 11
227.58757936109987
 21
361.20957189171099
  0
LINE
  8
_0-3_躯体と製品
  6
CONTINUOUS
 62
    2
 10
231.83022036110015
 20
347.06743689171094
 11
222.63783236109975
 21
356.25982489171099
  0
ARC
  8
_0-3_躯体と製品
  6
CONTINUOUS
 62
    2
 10
227.73713936110016
 20
347.57054989171081
 40
8.0384910000000005
 50
21.152433999998969
 51
68.847566000001024
  0
LINE
  8
_0-3_躯体と製品
  6
CONTINUOUS
 62
    2
 10
230.06245336109987
 20
348.8352038917111
 11
227.94113336110013
 21
346.71388289171091
  0
LINE
  8
_0-3_躯体と製品
  6
CONTINUOUS
 62
    2
 10
224.40559936110003
 20
354.49205789171083
 11
222.28427836109995
 21
352.37073789171109
  0
LINE
  8
_0-3_躯体と製品
  6
CONTINUOUS
 62
    2
 10
262.50610436109991
 20
367.1367188917111
 11
292.50610436109991
 21
337.1367188917111
  0
LINE
  8
_0-3_躯体と製品
  6
CONTINUOUS
 62
    2
 10
290.00000736109996
 20
339.64281589171082
 11
297.07107536110016
 21
346.71388289171091
  0
LINE
  8
_0-3_躯体と製品
  6
PLINE2
 62
    2
 10
292.50610436109991
 20
319.14891189171101
 11
262.50610436109991
 21
319.14891189171101
  0
LINE
  8
_0-3_躯体と製品
  6
CONTINUOUS
 62
    2
 10
262.00610436109991
 20
329.14891189171101
 11
262.50610436109991
 21
329.64891189171101
  0
LINE
  8
_0-3_躯体と製品
  6
CONTINUOUS
 62
    2
 10
260.38478436110017
 20
435.72607689171105
 11
225.11270536109987
 21
400.45399889171097
  0
LINE
  8
_0-3_躯体と製品
  6
CONTINUOUS
 62
    2
 10
261.09189036110001
 20
433.60475589171097
 11
227.94113336110013
 21
400.45399889171097
  0
LINE
  8
_0-3_躯体と製品
  6
CONTINUOUS
 62
    2
 10
235.74874436109985
 20
377.14891189171101
 11
262.00610436109991
 21
377.14891189171101
  0
LINE
  8
_0-3_躯体と製品
  6
CONTINUOUS
 62
    2
 10
242.00610436109991
 20
374.14891189171101
 11
262.50610436109991
 21
374.14891189171101
  0
LINE
  8
_0-3_躯体と製品
  6
CONTINUOUS
 62
    2
 10
230.76956036110005
 20
397.62557189171093
 11
235.01220036109999
 21
393.382930891711
  0
LINE
  8
_0-3_躯体と製品
  6
CONTINUOUS
 62
    2
 10
225.11270536109987
 20
400.45399889171097
 11
230.06245336109987
 21
395.50425089171085
  0
ARC
  8
_0-3_躯体と製品
  6
CONTINUOUS
 62
    2
 10
241.00610436109991
 20
372.14891189171101
 40
1
 50
180
 51
0
  0
LINE
  8
_0-3_躯体と製品
  6
CONTINUOUS
 62
    2
 10
241.3761613611
 20
382.77632889171093
 11
235.74874436109985
 21
377.14891189171101
  0
LINE
  8
_0-3_躯体と製品
  6
CONTINUOUS
 62
    2
 10
232.89088036109979
 20
391.26161089171092
 11
241.3761613611
 21
382.77632889171093
  0
LINE
  8
_0-3_躯体と製品
  6
CONTINUOUS
 62
    2
 10
233.59798736109997
 20
391.96871689171098
 11
232.89088036109979
 21
391.26161089171092
  0
ARC
  8
_0-3_躯体と製品
  6
CONTINUOUS
 62
    2
 10
231.47666636109989
 20
392.67582389171082
 40
1
 50
45.000000000004597
 51
134.99999999999528
  0
LINE
  8
_0-3_躯体と製品
  6
CONTINUOUS
 62
    2
 10
240.00610436109991
 20
374.14891189171101
 11
240.00610436109991
 21
372.14891189171101
  0
LINE
  8
_0-3_躯体と製品
  6
CONTINUOUS
 62
    2
 10
223.69849236110076
 20
384.8976498917109
 11
225.11270536109987
 21
383.48343589171111
  0
ARC
  8
_0-3_躯体と製品
  6
CONTINUOUS
 62
    2
 10
224.40559936110003
 20
385.60475589171097
 40
1
 50
134.99999999999531
 51
225.00000000000463
  0
LINE
  8
_0-3_躯体と製品
  6
CONTINUOUS
 62
    2
 10
235.01220036109999
 20
393.382930891711
 11
233.59798736109997
 21
391.96871689171098
  0
LINE
  8
_0-3_躯体と製品
  6
CONTINUOUS
 62
    2
 10
226.17336636109985
 20
391.61516389171106
 11
230.06245336109987
 21
395.50425089171085
  0
LINE
  8
_0-3_躯体と製品
  6
CONTINUOUS
 62
    2
 10
226.17336636109985
 20
390.908056891711
 11
225.46625936110013
 21
390.908056891711
  0
LINE
  8
_0-3_躯体と製品
  6
CONTINUOUS
 62
    2
 10
226.17336636109985
 20
391.61516389171106
 11
226.17336636109985
 21
390.908056891711
  0
LINE
  8
_0-3_躯体と製品
  6
CONTINUOUS
 62
    2
 10
225.36019336109985
 20
387.97356389171091
 11
226.77440636110077
 21
387.97356389171091
  0
LINE
  8
_0-3_躯体と製品
  6
CONTINUOUS
 62
    2
 10
229.10785936110096
 20
391.721229891711
 11
229.10785936110096
 21
390.30701589171099
  0
LINE
  8
_0-3_躯体と製品
  6
CONTINUOUS
 62
    2
 10
231.47666636109989
 20
394.09003789171095
 11
233.59798736109997
 21
391.96871689171098
  0
LINE
  8
_0-3_躯体と製品
  6
CONTINUOUS
 62
    2
 10
236.88603336110009
 20
382.52884189171095
 11
234.55258136110115
 21
380.19538889171099
  0
LINE
  8
_0-3_躯体と製品
  6
CONTINUOUS
 62
    2
 10
229.10785936110096
 20
390.30701589171099
 11
236.88603336110009
 21
382.52884189171095
  0
LINE
  8
_0-3_躯体と製品
  6
CONTINUOUS
 62
    2
 10
232.66314436109997
 20
374.14891189171101
 11
229.53628236109989
 21
371.28168489171094
  0
LINE
  8
_0-3_躯体と製品
  6
CONTINUOUS
 62
    2
 10
240.00610436109991
 20
374.14891189171101
 11
232.66314436109997
 21
374.14891189171101
  0
LINE
  8
_0-3_躯体と製品
  6
CONTINUOUS
 62
    2
 10
225.81981236110005
 20
384.19054289171106
 11
232.18377336110007
 21
377.82658189171093
  0
LINE
  8
_0-3_躯体と製品
  6
CONTINUOUS
 62
    2
 10
225.11270536109987
 20
383.48343589171111
 11
225.81981236110005
 21
384.19054289171106
  0
LINE
  8
_0-3_躯体と製品
  6
CONTINUOUS
 62
    2
 10
232.18377336110007
 20
377.82658189171093
 11
224.75915236110086
 21
370.40196089171093
  0
LINE
  8
_0-3_躯体と製品
  6
CONTINUOUS
 62
    2
 10
234.55258136110115
 20
380.19538889171099
 11
226.77440636110077
 21
387.97356389171091
  0
LINE
  8
_0-3_躯体と製品
  6
CONTINUOUS
 62
    2
 10
235.71930736110016
 20
381.36211589171091
 11
234.55258136110115
 21
380.19538889171099
  0
LINE
  8
_0-3_躯体と製品
  6
CONTINUOUS
 62
    2
 10
242.00610436109991
 20
374.14891189171101
 11
242.00610436109991
 21
372.14891189171101
  0
LINE
  8
_0-3_躯体と製品
  6
CONTINUOUS
 62
    2
 10
227.94113336110013
 20
400.45399889171097
 11
229.35534636110015
 21
399.03978489171107
  0
LINE
  8
_0-3_躯体と製品
  6
CONTINUOUS
 62
    2
 10
232.18377336110007
 20
399.03978489171107
 11
230.76956036110005
 21
397.62557189171093
  0
LINE
  8
_0-3_躯体と製品
  6
CONTINUOUS
 62
    2
 10
230.76956036110005
 20
400.45399889171097
 11
229.35534636110015
 21
399.03978489171107
  0
ARC
  8
_0-3_躯体と製品
  6
CONTINUOUS
 62
    2
 10
231.47666636109989
 20
399.7468918917109
 40
1
 50
314.9999999999954
 51
134.99999999999537
  0
LINE
  8
_0-3_躯体と製品
  6
CONTINUOUS
 62
    2
 10
262.50610436109991
 20
376.64891189171101
 11
262.00610436109991
 21
377.14891189171101
  0
ARC
  8
_0-3_躯体と製品
  6
CONTINUOUS
 62
    2
 10
262.50610436109991
 20
433.60475589171097
 40
3
 50
90
 51
134.99999999999531
  0
ARC
  8
_0-3_躯体と製品
  6
CONTINUOUS
 62
    2
 10
262.50610436109991
 20
432.19054289171095
 40
2
 50
90
 51
134.99999999999531
  0
INSERT
  2
-001-_D4
  8
_0-2_寸法
 10
-2133.100657673609
 20
-215.73524729421104
 41
5
 42
5
 50
0
  0
INSERT
  2
-002-_D5
  8
_0-2_寸法
 10
-2133.100657673609
 20
-215.73524729421104
 41
5
 42
5
 50
0
  0
INSERT
  2
-003-_D6
  8
_0-2_寸法
 10
-2133.100657673609
 20
-215.73524729421104
 41
5
 42
5
 50
0
  0
INSERT
  2
-004-_D7
  8
_0-2_寸法
 10
-2133.100657673609
 20
-215.73524729421104
 41
5
 42
5
 50
0
  0
INSERT
  2
-005-_D8
  8
_0-2_寸法
 10
-2133.100657673609
 20
-215.73524729421104
 41
5
 42
5
 50
0
  0
ENDSEC
  0
EOF
