  0
SECTION
  2
HEADER
  9
$ACADVER
  1
AC1015
  9
$ACADMAINTVER
 70
     6
  9
$DWGCODEPAGE
  3
ANSI_932
  9
$INSBASE
 10
0.0
 20
0.0
 30
0.0
  9
$EXTMIN
 10
0.0
 20
0.0
 30
0.0
  9
$EXTMAX
 10
2520.0
 20
1782.0
 30
0.0
  9
$LIMMIN
 10
0.0
 20
0.0
  9
$LIMMAX
 10
12.0
 20
9.0
  9
$ORTHOMODE
 70
     0
  9
$REGENMODE
 70
     1
  9
$FILLMODE
 70
     1
  9
$QTEXTMODE
 70
     0
  9
$MIRRTEXT
 70
     1
  9
$LTSCALE
 40
6.0
  9
$ATTMODE
 70
     1
  9
$TEXTSIZE
 40
0.2
  9
$TRACEWID
 40
0.05
  9
$TEXTSTYLE
  7
Standard
  9
$CLAYER
  8
0
  9
$CELTYPE
  6
ByLayer
  9
$CECOLOR
 62
   256
  9
$CELTSCALE
 40
1.0
  9
$DISPSILH
 70
     0
  9
$DIMSCALE
 40
1.0
  9
$DIMASZ
 40
0.18
  9
$DIMEXO
 40
0.0625
  9
$DIMDLI
 40
0.38
  9
$DIMRND
 40
0.0
  9
$DIMDLE
 40
0.0
  9
$DIMEXE
 40
0.18
  9
$DIMTP
 40
0.0
  9
$DIMTM
 40
0.0
  9
$DIMTXT
 40
0.18
  9
$DIMCEN
 40
0.09
  9
$DIMTSZ
 40
0.0
  9
$DIMTOL
 70
     0
  9
$DIMLIM
 70
     0
  9
$DIMTIH
 70
     1
  9
$DIMTOH
 70
     1
  9
$DIMSE1
 70
     0
  9
$DIMSE2
 70
     0
  9
$DIMTAD
 70
     0
  9
$DIMZIN
 70
     0
  9
$DIMBLK
  1

  9
$DIMASO
 70
     1
  9
$DIMSHO
 70
     1
  9
$DIMPOST
  1

  9
$DIMAPOST
  1

  9
$DIMALT
 70
     0
  9
$DIMALTD
 70
     2
  9
$DIMALTF
 40
25.4
  9
$DIMLFAC
 40
1.0
  9
$DIMTOFL
 70
     0
  9
$DIMTVP
 40
0.0
  9
$DIMTIX
 70
     0
  9
$DIMSOXD
 70
     0
  9
$DIMSAH
 70
     0
  9
$DIMBLK1
  1

  9
$DIMBLK2
  1

  9
$DIMSTYLE
  2
Standard
  9
$DIMCLRD
 70
     0
  9
$DIMCLRE
 70
     0
  9
$DIMCLRT
 70
     0
  9
$DIMTFAC
 40
1.0
  9
$DIMGAP
 40
0.09
  9
$DIMJUST
 70
     0
  9
$DIMSD1
 70
     0
  9
$DIMSD2
 70
     0
  9
$DIMTOLJ
 70
     1
  9
$DIMTZIN
 70
     0
  9
$DIMALTZ
 70
     0
  9
$DIMALTTZ
 70
     0
  9
$DIMUPT
 70
     0
  9
$DIMDEC
 70
     4
  9
$DIMTDEC
 70
     4
  9
$DIMALTU
 70
     2
  9
$DIMALTTD
 70
     2
  9
$DIMTXSTY
  7
Standard
  9
$DIMAUNIT
 70
     0
  9
$DIMADEC
 70
     0
  9
$DIMALTRND
 40
0.0
  9
$DIMAZIN
 70
     0
  9
$DIMDSEP
 70
    46
  9
$DIMATFIT
 70
     3
  9
$DIMFRAC
 70
     0
  9
$DIMLDRBLK
  1

  9
$DIMLUNIT
 70
     2
  9
$DIMLWD
 70
    -2
  9
$DIMLWE
 70
    -2
  9
$DIMTMOVE
 70
     0
  9
$LUNITS
 70
     2
  9
$LUPREC
 70
     4
  9
$SKETCHINC
 40
0.1
  9
$FILLETRAD
 40
0.5
  9
$AUNITS
 70
     0
  9
$AUPREC
 70
     0
  9
$MENU
  1
.
  9
$ELEVATION
 40
0.0
  9
$PELEVATION
 40
0.0
  9
$THICKNESS
 40
0.0
  9
$LIMCHECK
 70
     0
  9
$CHAMFERA
 40
0.5
  9
$CHAMFERB
 40
0.5
  9
$CHAMFERC
 40
1.0
  9
$CHAMFERD
 40
0.0
  9
$SKPOLY
 70
     0
  9
$TDCREATE
 40
2456819.746094028
  9
$TDUCREATE
 40
2456819.371094028
  9
$TDUPDATE
 40
2456819.746094039
  9
$TDUUPDATE
 40
2456819.371094039
  9
$TDINDWG
 40
0.0000000116
  9
$TDUSRTIMER
 40
0.0000000116
  9
$USRTIMER
 70
     1
  9
$ANGBASE
 50
0.0
  9
$ANGDIR
 70
     0
  9
$PDMODE
 70
     0
  9
$PDSIZE
 40
0.0
  9
$PLINEWID
 40
0.0
  9
$SPLFRAME
 70
     0
  9
$SPLINETYPE
 70
     6
  9
$SPLINESEGS
 70
     8
  9
$HANDSEED
  5
66C
  9
$SURFTAB1
 70
     6
  9
$SURFTAB2
 70
     6
  9
$SURFTYPE
 70
     6
  9
$SURFU
 70
     6
  9
$SURFV
 70
     6
  9
$UCSBASE
  2

  9
$UCSNAME
  2

  9
$UCSORG
 10
0.0
 20
0.0
 30
0.0
  9
$UCSXDIR
 10
1.0
 20
0.0
 30
0.0
  9
$UCSYDIR
 10
0.0
 20
1.0
 30
0.0
  9
$UCSORTHOREF
  2

  9
$UCSORTHOVIEW
 70
     0
  9
$UCSORGTOP
 10
0.0
 20
0.0
 30
0.0
  9
$UCSORGBOTTOM
 10
0.0
 20
0.0
 30
0.0
  9
$UCSORGLEFT
 10
0.0
 20
0.0
 30
0.0
  9
$UCSORGRIGHT
 10
0.0
 20
0.0
 30
0.0
  9
$UCSORGFRONT
 10
0.0
 20
0.0
 30
0.0
  9
$UCSORGBACK
 10
0.0
 20
0.0
 30
0.0
  9
$PUCSBASE
  2

  9
$PUCSNAME
  2

  9
$PUCSORG
 10
0.0
 20
0.0
 30
0.0
  9
$PUCSXDIR
 10
1.0
 20
0.0
 30
0.0
  9
$PUCSYDIR
 10
0.0
 20
1.0
 30
0.0
  9
$PUCSORTHOREF
  2

  9
$PUCSORTHOVIEW
 70
     0
  9
$PUCSORGTOP
 10
0.0
 20
0.0
 30
0.0
  9
$PUCSORGBOTTOM
 10
0.0
 20
0.0
 30
0.0
  9
$PUCSORGLEFT
 10
0.0
 20
0.0
 30
0.0
  9
$PUCSORGRIGHT
 10
0.0
 20
0.0
 30
0.0
  9
$PUCSORGFRONT
 10
0.0
 20
0.0
 30
0.0
  9
$PUCSORGBACK
 10
0.0
 20
0.0
 30
0.0
  9
$USERI1
 70
     0
  9
$USERI2
 70
     0
  9
$USERI3
 70
     0
  9
$USERI4
 70
     0
  9
$USERI5
 70
     0
  9
$USERR1
 40
0.0
  9
$USERR2
 40
0.0
  9
$USERR3
 40
0.0
  9
$USERR4
 40
0.0
  9
$USERR5
 40
0.0
  9
$WORLDVIEW
 70
     1
  9
$SHADEDGE
 70
     3
  9
$SHADEDIF
 70
    70
  9
$TILEMODE
 70
     1
  9
$MAXACTVP
 70
    64
  9
$PINSBASE
 10
0.0
 20
0.0
 30
0.0
  9
$PLIMCHECK
 70
     0
  9
$PEXTMIN
 10
1.000000E+20
 20
1.000000E+20
 30
1.000000E+20
  9
$PEXTMAX
 10
-1.000000E+20
 20
-1.000000E+20
 30
-1.000000E+20
  9
$PLIMMIN
 10
0.0
 20
0.0
  9
$PLIMMAX
 10
12.0
 20
9.0
  9
$UNITMODE
 70
     0
  9
$VISRETAIN
 70
     1
  9
$PLINEGEN
 70
     0
  9
$PSLTSCALE
 70
     1
  9
$TREEDEPTH
 70
  3020
  9
$CMLSTYLE
  2
Standard
  9
$CMLJUST
 70
     0
  9
$CMLSCALE
 40
1.0
  9
$PROXYGRAPHICS
 70
     1
  9
$MEASUREMENT
 70
     0
  9
$CELWEIGHT
370
    -1
  9
$ENDCAPS
280
     0
  9
$JOINSTYLE
280
     0
  9
$LWDISPLAY
290
     0
  9
$INSUNITS
 70
     1
  9
$HYPERLINKBASE
  1

  9
$STYLESHEET
  1

  9
$XEDIT
290
     1
  9
$CEPSNTYPE
380
     0
  9
$PSTYLEMODE
290
     1
  9
$FINGERPRINTGUID
  2
{0A2639EA-02FB-4C25-A4F2-C380926AE72A}
  9
$VERSIONGUID
  2
{FAEB1C32-E019-11D5-929B-00C0DF256EC4}
  9
$EXTNAMES
290
     1
  9
$PSVPSCALE
 40
0.0
  9
$OLESTARTUP
290
     0
  0
ENDSEC
  0
SECTION
  2
CLASSES
  0
CLASS
  1
ACDBDICTIONARYWDFLT
  2
AcDbDictionaryWithDefault
  3
ObjectDBX Classes
 90
        0
280
     0
281
     0
  0
CLASS
  1
VISUALSTYLE
  2
AcDbVisualStyle
  3
ObjectDBX Classes
 90
     4095
280
     0
281
     0
  0
CLASS
  1
SCALE
  2
AcDbScale
  3
ObjectDBX Classes
 90
     1153
280
     0
281
     0
  0
CLASS
  1
DICTIONARYVAR
  2
AcDbDictionaryVar
  3
ObjectDBX Classes
 90
        0
280
     0
281
     0
  0
CLASS
  1
ACDBPLACEHOLDER
  2
AcDbPlaceHolder
  3
ObjectDBX Classes
 90
        0
280
     0
281
     0
  0
CLASS
  1
LAYOUT
  2
AcDbLayout
  3
ObjectDBX Classes
 90
        0
280
     0
281
     0
  0
ENDSEC
  0
SECTION
  2
TABLES
  0
TABLE
  2
VPORT
  5
8
330
0
100
AcDbSymbolTable
 70
     1
  0
VPORT
  5
29
330
8
100
AcDbSymbolTableRecord
100
AcDbViewportTableRecord
  2
*Active
 70
     0
 10
0.0
 20
0.0
 11
1.0
 21
1.0
 12
10.429907
 22
4.5
 13
0.0
 23
0.0
 14
0.5
 24
0.5
 15
0.5
 25
0.5
 16
0.0
 26
0.0
 36
1.0
 17
0.0
 27
0.0
 37
0.0
 40
9.0
 41
1.972973
 42
50.0
 43
0.0
 44
0.0
 50
0.0
 51
0.0
 71
     0
 72
   100
 73
     1
 74
     3
 75
     0
 76
     0
 77
     0
 78
     0
281
     0
 65
     1
110
0.0
120
0.0
130
0.0
111
1.0
121
0.0
131
0.0
112
0.0
122
1.0
132
0.0
 79
     0
146
0.0
  0
ENDTAB
  0
TABLE
  2
LTYPE
  5
5
330
0
100
AcDbSymbolTable
 70
    16
  0
LTYPE
  5
14
330
5
100
AcDbSymbolTableRecord
100
AcDbLinetypeTableRecord
  2
ByBlock
 70
     0
  3

 72
    65
 73
     0
 40
0.0
  0
LTYPE
  5
15
330
5
100
AcDbSymbolTableRecord
100
AcDbLinetypeTableRecord
  2
ByLayer
 70
     0
  3

 72
    65
 73
     0
 40
0.0
  0
LTYPE
  5
16
330
5
100
AcDbSymbolTableRecord
100
AcDbLinetypeTableRecord
  2
Continuous
 70
     0
  3
Solid line
 72
    65
 73
     0
 40
0.0
  0
LTYPE
  5
3B
330
5
100
AcDbSymbolTableRecord
100
AcDbLinetypeTableRecord
  2
PLine1
 70
     0
  3
破線
 72
    65
 73
     2
 40
18.0
 49
12.6
 74
     0
 49
-5.4
 74
     0
  0
LTYPE
  5
3C
330
5
100
AcDbSymbolTableRecord
100
AcDbLinetypeTableRecord
  2
PLine2
 70
     0
  3
一点鎖線
 72
    65
 73
     4
 40
60.0
 49
42.0
 74
     0
 49
-6.0
 74
     0
 49
6.0
 74
     0
 49
-6.0
 74
     0
  0
LTYPE
  5
3D
330
5
100
AcDbSymbolTableRecord
100
AcDbLinetypeTableRecord
  2
PLine3
 70
     0
  3
二点鎖線
 72
    65
 73
     6
 40
60.0
 49
30.0
 74
     0
 49
-6.0
 74
     0
 49
6.0
 74
     0
 49
-6.0
 74
     0
 49
6.0
 74
     0
 49
-6.0
 74
     0
  0
LTYPE
  5
3E
330
5
100
AcDbSymbolTableRecord
100
AcDbLinetypeTableRecord
  2
PLine4
 70
     0
  3
破線1
 72
    65
 73
     2
 40
30.0
 49
21.0
 74
     0
 49
-9.0
 74
     0
  0
LTYPE
  5
3F
330
5
100
AcDbSymbolTableRecord
100
AcDbLinetypeTableRecord
  2
PLine5
 70
     0
  3
一点鎖線1
 72
    65
 73
     4
 40
90.0
 49
63.0
 74
     0
 49
-9.0
 74
     0
 49
9.0
 74
     0
 49
-9.0
 74
     0
  0
LTYPE
  5
40
330
5
100
AcDbSymbolTableRecord
100
AcDbLinetypeTableRecord
  2
PLine6
 70
     0
  3
二点鎖線1
 72
    65
 73
     6
 40
90.0
 49
45.0
 74
     0
 49
-9.0
 74
     0
 49
9.0
 74
     0
 49
-9.0
 74
     0
 49
9.0
 74
     0
 49
-9.0
 74
     0
  0
LTYPE
  5
41
330
5
100
AcDbSymbolTableRecord
100
AcDbLinetypeTableRecord
  2
PLine7
 70
     0
  3
破線2
 72
    65
 73
     2
 40
42.0
 49
29.4
 74
     0
 49
-12.6
 74
     0
  0
LTYPE
  5
42
330
5
100
AcDbSymbolTableRecord
100
AcDbLinetypeTableRecord
  2
PLine8
 70
     0
  3
一点鎖線2
 72
    65
 73
     4
 40
120.0
 49
84.0
 74
     0
 49
-12.0
 74
     0
 49
12.0
 74
     0
 49
-12.0
 74
     0
  0
LTYPE
  5
43
330
5
100
AcDbSymbolTableRecord
100
AcDbLinetypeTableRecord
  2
PLine9
 70
     0
  3
二点鎖線2
 72
    65
 73
     6
 40
120.0
 49
60.0
 74
     0
 49
-12.0
 74
     0
 49
12.0
 74
     0
 49
-12.0
 74
     0
 49
12.0
 74
     0
 49
-12.0
 74
     0
  0
LTYPE
  5
44
330
5
100
AcDbSymbolTableRecord
100
AcDbLinetypeTableRecord
  2
PLine10
 70
     0
  3
破線3
 72
    65
 73
     2
 40
54.0
 49
37.8
 74
     0
 49
-16.2
 74
     0
  0
LTYPE
  5
45
330
5
100
AcDbSymbolTableRecord
100
AcDbLinetypeTableRecord
  2
PLine11
 70
     0
  3
一点鎖線3
 72
    65
 73
     4
 40
150.0
 49
105.0
 74
     0
 49
-15.0
 74
     0
 49
15.0
 74
     0
 49
-15.0
 74
     0
  0
LTYPE
  5
46
330
5
100
AcDbSymbolTableRecord
100
AcDbLinetypeTableRecord
  2
PLine12
 70
     0
  3
二点鎖線3
 72
    65
 73
     6
 40
150.0
 49
75.0
 74
     0
 49
-15.0
 74
     0
 49
15.0
 74
     0
 49
-15.0
 74
     0
 49
15.0
 74
     0
 49
-15.0
 74
     0
  0
LTYPE
  5
47
330
5
100
AcDbSymbolTableRecord
100
AcDbLinetypeTableRecord
  2
PLine13
 70
     0
  3
破線4
 72
    65
 73
     2
 40
66.0
 49
46.2
 74
     0
 49
-19.8
 74
     0
  0
LTYPE
  5
48
330
5
100
AcDbSymbolTableRecord
100
AcDbLinetypeTableRecord
  2
PLine14
 70
     0
  3
一点鎖線4
 72
    65
 73
     4
 40
180.0
 49
126.0
 74
     0
 49
-18.0
 74
     0
 49
18.0
 74
     0
 49
-18.0
 74
     0
  0
LTYPE
  5
49
330
5
100
AcDbSymbolTableRecord
100
AcDbLinetypeTableRecord
  2
PLine15
 70
     0
  3
二点鎖線4
 72
    65
 73
     6
 40
180.0
 49
90.0
 74
     0
 49
-18.0
 74
     0
 49
18.0
 74
     0
 49
-18.0
 74
     0
 49
18.0
 74
     0
 49
-18.0
 74
     0
  0
ENDTAB
  0
TABLE
  2
LAYER
  5
2
330
0
100
AcDbSymbolTable
 70
     7
  0
LAYER
  5
10
330
2
100
AcDbSymbolTableRecord
100
AcDbLayerTableRecord
  2
0
 70
     0
 62
     7
  6
Continuous
370
    -3
390
F
  0
LAYER
  5
4E
330
2
100
AcDbSymbolTableRecord
100
AcDbLayerTableRecord
  2
1__1
 70
     0
 62
     7
  6
Continuous
370
    -3
390
F
  0
LAYER
  5
59
330
2
100
AcDbSymbolTableRecord
100
AcDbLayerTableRecord
  2
2__2
 70
     0
 62
     7
  6
Continuous
370
    -3
390
F
  0
LAYER
  5
5A
330
2
100
AcDbSymbolTableRecord
100
AcDbLayerTableRecord
  2
3__3
 70
     0
 62
     7
  6
Continuous
370
    -3
390
F
  0
LAYER
  5
99
330
2
100
AcDbSymbolTableRecord
100
AcDbLayerTableRecord
  2
5__5
 70
     0
 62
     7
  6
Continuous
370
    -3
390
F
  0
LAYER
  5
C1
330
2
100
AcDbSymbolTableRecord
100
AcDbLayerTableRecord
  2
6__6
 70
     0
 62
     7
  6
Continuous
370
    -3
390
F
  0
LAYER
  5
C6
330
2
100
AcDbSymbolTableRecord
100
AcDbLayerTableRecord
  2
7__7
 70
     0
 62
     7
  6
Continuous
370
    -3
390
F
  0
ENDTAB
  0
TABLE
  2
STYLE
  5
3
330
0
100
AcDbSymbolTable
 70
     5
  0
STYLE
  5
11
330
3
100
AcDbSymbolTableRecord
100
AcDbTextStyleTableRecord
  2
Standard
 70
     0
 40
0.0
 41
1.0
 50
0.0
 71
     0
 42
0.2
  3
txt
  4
bigfont
  0
STYLE
  5
4A
330
3
100
AcDbSymbolTableRecord
100
AcDbTextStyleTableRecord
  2
BIGFONT
 70
     0
 40
0.2
 41
1.0
 50
0.0
 71
     0
 42
3.5
  3
monotxt
  4
bigfont
  0
STYLE
  5
4B
330
3
100
AcDbSymbolTableRecord
100
AcDbTextStyleTableRecord
  2
BIG VER
 70
     4
 40
0.2
 41
1.0
 50
0.0
 71
     0
 42
3.5
  3
monotxt
  4
bigfont
  0
STYLE
  5
4C
330
3
100
AcDbSymbolTableRecord
100
AcDbTextStyleTableRecord
  2
EXTFONT
 70
     0
 40
0.2
 41
1.0
 50
0.0
 71
     0
 42
3.5
  3
monotxt
  4
extfont
  0
STYLE
  5
4D
330
3
100
AcDbSymbolTableRecord
100
AcDbTextStyleTableRecord
  2
EXT VER
 70
     4
 40
0.2
 41
1.0
 50
0.0
 71
     0
 42
3.5
  3
monotxt
  4
extfont
  0
ENDTAB
  0
TABLE
  2
VIEW
  5
6
330
0
100
AcDbSymbolTable
 70
     0
  0
ENDTAB
  0
TABLE
  2
UCS
  5
7
330
0
100
AcDbSymbolTable
 70
     0
  0
ENDTAB
  0
TABLE
  2
APPID
  5
9
330
0
100
AcDbSymbolTable
 70
     1
  0
APPID
  5
12
330
9
100
AcDbSymbolTableRecord
100
AcDbRegAppTableRecord
  2
ACAD
 70
     0
  0
ENDTAB
  0
TABLE
  2
DIMSTYLE
  5
A
330
0
100
AcDbSymbolTable
 70
     1
100
AcDbDimStyleTable
  0
DIMSTYLE
105
27
330
A
100
AcDbSymbolTableRecord
100
AcDbDimStyleTableRecord
  2
Standard
 70
     0
340
11
  0
ENDTAB
  0
TABLE
  2
BLOCK_RECORD
  5
1
330
0
100
AcDbSymbolTable
 70
    25
  0
BLOCK_RECORD
  5
1F
330
1
100
AcDbSymbolTableRecord
100
AcDbBlockTableRecord
  2
*Model_Space
340
22
  0
BLOCK_RECORD
  5
1B
330
1
100
AcDbSymbolTableRecord
100
AcDbBlockTableRecord
  2
*Paper_Space
340
1E
  0
BLOCK_RECORD
  5
23
330
1
100
AcDbSymbolTableRecord
100
AcDbBlockTableRecord
  2
*Paper_Space0
340
26
  0
BLOCK_RECORD
  5
16F
330
1
100
AcDbSymbolTableRecord
100
AcDbBlockTableRecord
  2
DIM_0
340
0
102
{BLKREFS
331
178
102
}
  0
BLOCK_RECORD
  5
17B
330
1
100
AcDbSymbolTableRecord
100
AcDbBlockTableRecord
  2
DIM_1
340
0
102
{BLKREFS
331
184
102
}
  0
BLOCK_RECORD
  5
189
330
1
100
AcDbSymbolTableRecord
100
AcDbBlockTableRecord
  2
DIM_2
340
0
102
{BLKREFS
331
192
102
}
  0
BLOCK_RECORD
  5
19D
330
1
100
AcDbSymbolTableRecord
100
AcDbBlockTableRecord
  2
DIM_3
340
0
102
{BLKREFS
331
1A6
102
}
  0
BLOCK_RECORD
  5
1B4
330
1
100
AcDbSymbolTableRecord
100
AcDbBlockTableRecord
  2
DIM_4
340
0
102
{BLKREFS
331
1BD
102
}
  0
BLOCK_RECORD
  5
1BE
330
1
100
AcDbSymbolTableRecord
100
AcDbBlockTableRecord
  2
DIM_5
340
0
102
{BLKREFS
331
1C7
102
}
  0
BLOCK_RECORD
  5
1D3
330
1
100
AcDbSymbolTableRecord
100
AcDbBlockTableRecord
  2
DIM_6
340
0
102
{BLKREFS
331
1DB
102
}
  0
BLOCK_RECORD
  5
1E1
330
1
100
AcDbSymbolTableRecord
100
AcDbBlockTableRecord
  2
DIM_7
340
0
102
{BLKREFS
331
1E9
102
}
  0
BLOCK_RECORD
  5
1EA
330
1
100
AcDbSymbolTableRecord
100
AcDbBlockTableRecord
  2
DIM_8
340
0
102
{BLKREFS
331
1F2
102
}
  0
BLOCK_RECORD
  5
278
330
1
100
AcDbSymbolTableRecord
100
AcDbBlockTableRecord
  2
DIM_9
340
0
102
{BLKREFS
331
281
102
}
  0
BLOCK_RECORD
  5
282
330
1
100
AcDbSymbolTableRecord
100
AcDbBlockTableRecord
  2
DIM_10
340
0
102
{BLKREFS
331
28A
102
}
  0
BLOCK_RECORD
  5
4DA
330
1
100
AcDbSymbolTableRecord
100
AcDbBlockTableRecord
  2
DIM_11
340
0
102
{BLKREFS
331
4E3
102
}
  0
BLOCK_RECORD
  5
4E4
330
1
100
AcDbSymbolTableRecord
100
AcDbBlockTableRecord
  2
DIM_12
340
0
102
{BLKREFS
331
4ED
102
}
  0
BLOCK_RECORD
  5
505
330
1
100
AcDbSymbolTableRecord
100
AcDbBlockTableRecord
  2
DIM_13
340
0
102
{BLKREFS
331
50B
102
}
  0
BLOCK_RECORD
  5
545
330
1
100
AcDbSymbolTableRecord
100
AcDbBlockTableRecord
  2
DIM_14
340
0
102
{BLKREFS
331
54C
102
}
  0
BLOCK_RECORD
  5
556
330
1
100
AcDbSymbolTableRecord
100
AcDbBlockTableRecord
  2
DIM_15
340
0
102
{BLKREFS
331
55E
102
}
  0
BLOCK_RECORD
  5
565
330
1
100
AcDbSymbolTableRecord
100
AcDbBlockTableRecord
  2
DIM_16
340
0
102
{BLKREFS
331
56E
102
}
  0
BLOCK_RECORD
  5
56F
330
1
100
AcDbSymbolTableRecord
100
AcDbBlockTableRecord
  2
DIM_17
340
0
102
{BLKREFS
331
578
102
}
  0
BLOCK_RECORD
  5
579
330
1
100
AcDbSymbolTableRecord
100
AcDbBlockTableRecord
  2
DIM_18
340
0
102
{BLKREFS
331
581
102
}
  0
BLOCK_RECORD
  5
582
330
1
100
AcDbSymbolTableRecord
100
AcDbBlockTableRecord
  2
DIM_19
340
0
102
{BLKREFS
331
58A
102
}
  0
BLOCK_RECORD
  5
58B
330
1
100
AcDbSymbolTableRecord
100
AcDbBlockTableRecord
  2
DIM_20
340
0
102
{BLKREFS
331
594
102
}
  0
BLOCK_RECORD
  5
5EA
330
1
100
AcDbSymbolTableRecord
100
AcDbBlockTableRecord
  2
DIM_21
340
0
102
{BLKREFS
331
5F3
102
}
  0
BLOCK_RECORD
  5
5F4
330
1
100
AcDbSymbolTableRecord
100
AcDbBlockTableRecord
  2
DIM_22
340
0
102
{BLKREFS
331
5FD
102
}
  0
BLOCK_RECORD
  5
607
330
1
100
AcDbSymbolTableRecord
100
AcDbBlockTableRecord
  2
DIM_23
340
0
102
{BLKREFS
331
610
102
}
  0
ENDTAB
  0
ENDSEC
  0
SECTION
  2
BLOCKS
  0
BLOCK
  5
20
330
1F
100
AcDbEntity
  8
0
100
AcDbBlockBegin
  2
*Model_Space
 70
     0
 10
0.0
 20
0.0
 30
0.0
  3
*Model_Space
  1

  0
ENDBLK
  5
21
330
1F
100
AcDbEntity
  8
0
100
AcDbBlockEnd
  0
BLOCK
  5
1C
330
1B
100
AcDbEntity
 67
     1
  8
0
100
AcDbBlockBegin
  2
*Paper_Space
 70
     0
 10
0.0
 20
0.0
 30
0.0
  3
*Paper_Space
  1

  0
ENDBLK
  5
1D
330
1B
100
AcDbEntity
 67
     1
  8
0
100
AcDbBlockEnd
  0
BLOCK
  5
24
330
23
100
AcDbEntity
  8
0
100
AcDbBlockBegin
  2
*Paper_Space0
 70
     0
 10
0.0
 20
0.0
 30
0.0
  3
*Paper_Space0
  1

  0
ENDBLK
  5
25
330
23
100
AcDbEntity
  8
0
100
AcDbBlockEnd
  0
BLOCK
  5
170
330
16F
100
AcDbEntity
  8
0
100
AcDbBlockBegin
  2
DIM_0
 70
     0
 10
390.880663
 20
653.566517
 30
0.0
  3
DIM_0
  1

  0
CIRCLE
  5
172
330
16F
100
AcDbEntity
  8
7__7
  6
Continuous
 62
     3
100
AcDbCircle
 10
161.628542
 20
653.566517
 30
0.0
 40
2.4
  0
CIRCLE
  5
173
330
16F
100
AcDbEntity
  8
7__7
  6
Continuous
 62
     3
100
AcDbCircle
 10
161.628542
 20
423.566517
 30
0.0
 40
2.4
  0
LINE
  5
174
330
16F
100
AcDbEntity
  8
7__7
  6
Continuous
 62
     3
100
AcDbLine
 10
161.628542
 20
653.566517
 30
0.0
 11
161.628542
 21
423.566517
 31
0.0
  0
LINE
  5
175
330
16F
100
AcDbEntity
  8
7__7
  6
Continuous
 62
     3
100
AcDbLine
 10
390.880663
 20
653.566517
 30
0.0
 11
155.628542
 21
653.566517
 31
0.0
  0
LINE
  5
176
330
16F
100
AcDbEntity
  8
7__7
  6
Continuous
 62
     3
100
AcDbLine
 10
287.111508
 20
423.566517
 30
0.0
 11
155.628542
 21
423.566517
 31
0.0
  0
TEXT
  5
177
330
16F
100
AcDbEntity
  8
7__7
  6
Continuous
 62
     3
100
AcDbText
 10
158.628546
 20
522.308475
 30
0.0
 40
18.0
  1
２３０
 50
90.000003
 41
0.743832
 51
0.0
  7
BIGFONT
 72
     1
 11
158.628545
 21
538.566517
 31
0.0
100
AcDbText
  0
ENDBLK
  5
171
330
16F
100
AcDbEntity
  8
0
100
AcDbBlockEnd
  0
BLOCK
  5
17C
330
17B
100
AcDbEntity
  8
0
100
AcDbBlockBegin
  2
DIM_1
 70
     0
 10
655.918741
 20
485.565744
 30
0.0
  3
DIM_1
  1

  0
CIRCLE
  5
17E
330
17B
100
AcDbEntity
  8
7__7
  6
Continuous
 62
     3
100
AcDbCircle
 10
660.579455
 20
485.565744
 30
0.0
 40
2.4
  0
CIRCLE
  5
17F
330
17B
100
AcDbEntity
  8
7__7
  6
Continuous
 62
     3
100
AcDbCircle
 10
660.579455
 20
470.566517
 30
0.0
 40
2.4
  0
LINE
  5
180
330
17B
100
AcDbEntity
  8
7__7
  6
Continuous
 62
     3
100
AcDbLine
 10
660.579455
 20
485.565744
 30
0.0
 11
660.579455
 21
470.566517
 31
0.0
  0
LINE
  5
181
330
17B
100
AcDbEntity
  8
7__7
  6
Continuous
 62
     3
100
AcDbLine
 10
655.918741
 20
485.565744
 30
0.0
 11
654.579455
 21
485.565744
 31
0.0
  0
LINE
  5
182
330
17B
100
AcDbEntity
  8
7__7
  6
Continuous
 62
     3
100
AcDbLine
 10
666.133026
 20
470.566517
 30
0.0
 11
666.579455
 21
470.566517
 31
0.0
  0
TEXT
  5
183
330
17B
100
AcDbEntity
  8
7__7
  6
Continuous
 62
     3
100
AcDbText
 10
669.125052
 20
488.58342
 30
0.0
 40
18.0
  1
１５
 50
90.000003
 41
0.772441
 51
0.0
  7
BIGFONT
 72
     1
 11
669.125052
 21
499.507942
 31
0.0
100
AcDbText
  0
ENDBLK
  5
17D
330
17B
100
AcDbEntity
  8
0
100
AcDbBlockEnd
  0
BLOCK
  5
18A
330
189
100
AcDbEntity
  8
0
100
AcDbBlockBegin
  2
DIM_2
 70
     0
 10
406.70882
 20
626.898021
 30
0.0
  3
DIM_2
  1

  0
CIRCLE
  5
18C
330
189
100
AcDbEntity
  8
7__7
  6
Continuous
 62
     3
100
AcDbCircle
 10
406.70882
 20
588.66538
 30
0.0
 40
2.4
  0
CIRCLE
  5
18D
330
189
100
AcDbEntity
  8
7__7
  6
Continuous
 62
     3
100
AcDbCircle
 10
421.70882
 20
588.66538
 30
0.0
 40
2.4
  0
LINE
  5
18E
330
189
100
AcDbEntity
  8
7__7
  6
Continuous
 62
     3
100
AcDbLine
 10
406.70882
 20
588.66538
 30
0.0
 11
421.70882
 21
588.66538
 31
0.0
  0
LINE
  5
18F
330
189
100
AcDbEntity
  8
7__7
  6
Continuous
 62
     3
100
AcDbLine
 10
406.70882
 20
626.898021
 30
0.0
 11
406.70882
 21
582.66538
 31
0.0
  0
LINE
  5
190
330
189
100
AcDbEntity
  8
7__7
  6
Continuous
 62
     3
100
AcDbLine
 10
421.70882
 20
594.444217
 30
0.0
 11
421.70882
 21
594.66538
 31
0.0
  0
TEXT
  5
191
330
189
100
AcDbEntity
  8
7__7
  6
Continuous
 62
     3
100
AcDbText
 10
380.504492
 20
583.703542
 30
0.0
 40
18.0
  1
１５
 41
0.772441
 51
0.0
  7
BIGFONT
 72
     1
 11
391.429014
 21
583.703542
 31
0.0
100
AcDbText
  0
ENDBLK
  5
18B
330
189
100
AcDbEntity
  8
0
100
AcDbBlockEnd
  0
BLOCK
  5
19E
330
19D
100
AcDbEntity
  8
0
100
AcDbBlockBegin
  2
DIM_3
 70
     0
 10
476.70882
 20
727.801549
 30
0.0
  3
DIM_3
  1

  0
CIRCLE
  5
1A0
330
19D
100
AcDbEntity
  8
7__7
  6
Continuous
 62
     3
100
AcDbCircle
 10
476.70882
 20
1037.630695
 30
0.0
 40
3.0
  0
CIRCLE
  5
1A1
330
19D
100
AcDbEntity
  8
7__7
  6
Continuous
 62
     3
100
AcDbCircle
 10
1336.70882
 20
1037.630695
 30
0.0
 40
3.0
  0
LINE
  5
1A2
330
19D
100
AcDbEntity
  8
7__7
  6
Continuous
 62
     3
100
AcDbLine
 10
476.70882
 20
1037.630695
 30
0.0
 11
1336.70882
 21
1037.630695
 31
0.0
  0
LINE
  5
1A3
330
19D
100
AcDbEntity
  8
7__7
  6
Continuous
 62
     3
100
AcDbLine
 10
476.70882
 20
727.801549
 30
0.0
 11
476.70882
 21
1043.630695
 31
0.0
  0
LINE
  5
1A4
330
19D
100
AcDbEntity
  8
7__7
  6
Continuous
 62
     3
100
AcDbLine
 10
1336.70882
 20
722.159639
 30
0.0
 11
1336.70882
 21
1043.630695
 31
0.0
  0
TEXT
  5
1A5
330
19D
100
AcDbEntity
  8
7__7
  6
Continuous
 62
     3
100
AcDbText
 10
885.135667
 20
1040.63065
 30
0.0
 40
18.0
  1
硝子寸法
 41
0.729528
  7
BIGFONT
 72
     1
 11
906.70884
 21
1040.63065
 31
0.0
100
AcDbText
  0
ENDBLK
  5
19F
330
19D
100
AcDbEntity
  8
0
100
AcDbBlockEnd
  0
BLOCK
  5
1B5
330
1B4
100
AcDbEntity
  8
0
100
AcDbBlockBegin
  2
DIM_4
 70
     0
 10
321.70882
 20
312.907928
 30
0.0
  3
DIM_4
  1

  0
CIRCLE
  5
1B7
330
1B4
100
AcDbEntity
  8
7__7
  6
Continuous
 62
     3
100
AcDbCircle
 10
321.70882
 20
334.449164
 30
0.0
 40
2.4
  0
CIRCLE
  5
1B8
330
1B4
100
AcDbEntity
  8
7__7
  6
Continuous
 62
     3
100
AcDbCircle
 10
486.70882
 20
334.449164
 30
0.0
 40
2.4
  0
LINE
  5
1B9
330
1B4
100
AcDbEntity
  8
7__7
  6
Continuous
 62
     3
100
AcDbLine
 10
321.70882
 20
334.449164
 30
0.0
 11
486.70882
 21
334.449164
 31
0.0
  0
LINE
  5
1BA
330
1B4
100
AcDbEntity
  8
7__7
  6
Continuous
 62
     3
100
AcDbLine
 10
321.70882
 20
312.907928
 30
0.0
 11
321.70882
 21
340.449164
 31
0.0
  0
LINE
  5
1BB
330
1B4
100
AcDbEntity
  8
7__7
  6
Continuous
 62
     3
100
AcDbLine
 10
486.70882
 20
463.723207
 30
0.0
 11
486.70882
 21
328.449164
 31
0.0
  0
TEXT
  5
1BC
330
1B4
100
AcDbEntity
  8
7__7
  6
Continuous
 62
     3
100
AcDbText
 10
375.265264
 20
337.449155
 30
0.0
 40
18.0
  1
１６５
 41
0.743832
 51
0.0
  7
BIGFONT
 72
     1
 11
391.523306
 21
346.449155
 31
0.0
100
AcDbText
 73
     2
  0
ENDBLK
  5
1B6
330
1B4
100
AcDbEntity
  8
0
100
AcDbBlockEnd
  0
BLOCK
  5
1BF
330
1BE
100
AcDbEntity
  8
0
100
AcDbBlockBegin
  2
DIM_5
 70
     0
 10
1326.70882
 20
344.008495
 30
0.0
  3
DIM_5
  1

  0
CIRCLE
  5
1C1
330
1BE
100
AcDbEntity
  8
7__7
  6
Continuous
 62
     3
100
AcDbCircle
 10
1326.70882
 20
334.449164
 30
0.0
 40
2.4
  0
CIRCLE
  5
1C2
330
1BE
100
AcDbEntity
  8
7__7
  6
Continuous
 62
     3
100
AcDbCircle
 10
1491.70882
 20
334.449164
 30
0.0
 40
2.4
  0
LINE
  5
1C3
330
1BE
100
AcDbEntity
  8
7__7
  6
Continuous
 62
     3
100
AcDbLine
 10
1326.70882
 20
334.449164
 30
0.0
 11
1491.70882
 21
334.449164
 31
0.0
  0
LINE
  5
1C4
330
1BE
100
AcDbEntity
  8
7__7
  6
Continuous
 62
     3
100
AcDbLine
 10
1326.70882
 20
344.008495
 30
0.0
 11
1326.70882
 21
328.449164
 31
0.0
  0
LINE
  5
1C5
330
1BE
100
AcDbEntity
  8
7__7
  6
Continuous
 62
     3
100
AcDbLine
 10
1491.70882
 20
311.533793
 30
0.0
 11
1491.70882
 21
340.449164
 31
0.0
  0
TEXT
  5
1C6
330
1BE
100
AcDbEntity
  8
7__7
  6
Continuous
 62
     3
100
AcDbText
 10
1406.942121
 20
336.111341
 30
0.0
 40
18.0
  1
１６５
 41
0.743832
 51
0.0
  7
BIGFONT
 72
     1
 11
1423.200164
 21
345.111341
 31
0.0
100
AcDbText
 73
     2
  0
ENDBLK
  5
1C0
330
1BE
100
AcDbEntity
  8
0
100
AcDbBlockEnd
  0
BLOCK
  5
1D4
330
1D3
100
AcDbEntity
  8
0
100
AcDbBlockBegin
  2
DIM_6
 70
     0
 10
306.70882
 20
410.743584
 30
0.0
  3
DIM_6
  1

  0
CIRCLE
  5
1D6
330
1D3
100
AcDbEntity
  8
7__7
  6
Continuous
 62
     3
100
AcDbCircle
 10
306.70882
 20
334.449164
 30
0.0
 40
2.4
  0
LINE
  5
1D7
330
1D3
100
AcDbEntity
  8
7__7
  6
Continuous
 62
     3
100
AcDbLine
 10
306.70882
 20
334.449164
 30
0.0
 11
321.70882
 21
334.449164
 31
0.0
  0
LINE
  5
1D8
330
1D3
100
AcDbEntity
  8
7__7
  6
Continuous
 62
     3
100
AcDbLine
 10
306.70882
 20
410.743584
 30
0.0
 11
306.70882
 21
328.449164
 31
0.0
  0
LINE
  5
1D9
330
1D3
100
AcDbEntity
  8
7__7
  6
Continuous
 62
     3
100
AcDbLine
 10
321.70882
 20
329.664906
 30
0.0
 11
321.70882
 21
340.449164
 31
0.0
  0
TEXT
  5
1DA
330
1D3
100
AcDbEntity
  8
7__7
  6
Continuous
 62
     3
100
AcDbText
 10
282.017407
 20
334.72983
 30
0.0
 40
18.0
  1
１５
 41
0.772441
  7
BIGFONT
 72
     1
 11
292.941929
 21
343.72983
 31
0.0
100
AcDbText
 73
     2
  0
ENDBLK
  5
1D5
330
1D3
100
AcDbEntity
  8
0
100
AcDbBlockEnd
  0
BLOCK
  5
1E2
330
1E1
100
AcDbEntity
  8
0
100
AcDbBlockBegin
  2
DIM_7
 70
     0
 10
316.654677
 20
710.203466
 30
0.0
  3
DIM_7
  1

  0
CIRCLE
  5
1E4
330
1E1
100
AcDbEntity
  8
7__7
  6
Continuous
 62
     3
100
AcDbCircle
 10
198.083268
 20
710.203466
 30
0.0
 40
3.0
  0
CIRCLE
  5
1E5
330
1E1
100
AcDbEntity
  8
7__7
  6
Continuous
 62
     3
100
AcDbCircle
 10
198.083268
 20
670.203466
 30
0.0
 40
3.0
  0
LINE
  5
1E6
330
1E1
100
AcDbEntity
  8
7__7
  6
Continuous
 62
     3
100
AcDbLine
 10
198.083268
 20
710.203466
 30
0.0
 11
198.083268
 21
670.203466
 31
0.0
  0
LINE
  5
1E7
330
1E1
100
AcDbEntity
  8
7__7
  6
Continuous
 62
     3
100
AcDbLine
 10
308.583278
 20
670.203466
 30
0.0
 11
192.083268
 21
670.203466
 31
0.0
  0
TEXT
  5
1E8
330
1E1
100
AcDbEntity
  8
7__7
  6
Continuous
 62
     3
100
AcDbText
 10
195.083268
 20
679.27893
 30
0.0
 40
18.0
  1
４０
 50
90.000003
 41
0.772441
 51
0.0
  7
BIGFONT
 72
     1
 11
195.083268
 21
690.203452
 31
0.0
100
AcDbText
  0
ENDBLK
  5
1E3
330
1E1
100
AcDbEntity
  8
0
100
AcDbBlockEnd
  0
BLOCK
  5
1EB
330
1EA
100
AcDbEntity
  8
0
100
AcDbBlockBegin
  2
DIM_8
 70
     0
 10
1506.70882
 20
410.894402
 30
0.0
  3
DIM_8
  1

  0
CIRCLE
  5
1ED
330
1EA
100
AcDbEntity
  8
7__7
  6
Continuous
 62
     3
100
AcDbCircle
 10
1506.70882
 20
334.449164
 30
0.0
 40
2.4
  0
LINE
  5
1EE
330
1EA
100
AcDbEntity
  8
7__7
  6
Continuous
 62
     3
100
AcDbLine
 10
1506.70882
 20
334.449164
 30
0.0
 11
1491.70882
 21
334.449164
 31
0.0
  0
LINE
  5
1EF
330
1EA
100
AcDbEntity
  8
7__7
  6
Continuous
 62
     3
100
AcDbLine
 10
1506.70882
 20
410.894402
 30
0.0
 11
1506.70882
 21
328.449164
 31
0.0
  0
LINE
  5
1F0
330
1EA
100
AcDbEntity
  8
7__7
  6
Continuous
 62
     3
100
AcDbLine
 10
1491.70882
 20
316.501207
 30
0.0
 11
1491.70882
 21
340.449164
 31
0.0
  0
TEXT
  5
1F1
330
1EA
100
AcDbEntity
  8
7__7
  6
Continuous
 62
     3
100
AcDbText
 10
1511.565933
 20
336.347412
 30
0.0
 40
18.0
  1
１５
 41
0.772441
 51
0.0
  7
BIGFONT
 72
     1
 11
1522.490455
 21
345.347412
 31
0.0
100
AcDbText
 73
     2
  0
ENDBLK
  5
1EC
330
1EA
100
AcDbEntity
  8
0
100
AcDbBlockEnd
  0
BLOCK
  5
279
330
278
100
AcDbEntity
  8
0
100
AcDbBlockBegin
  2
DIM_9
 70
     0
 10
1223.065574
 20
653.567236
 30
0.0
  3
DIM_9
  1

  0
CIRCLE
  5
27B
330
278
100
AcDbEntity
  8
7__7
  6
Continuous
 62
     3
100
AcDbCircle
 10
1220.637001
 20
653.567236
 30
0.0
 40
2.4
  0
CIRCLE
  5
27C
330
278
100
AcDbEntity
  8
7__7
  6
Continuous
 62
     3
100
AcDbCircle
 10
1220.637001
 20
538.567232
 30
0.0
 40
2.4
  0
LINE
  5
27D
330
278
100
AcDbEntity
  8
7__7
  6
Continuous
 62
     3
100
AcDbLine
 10
1220.637001
 20
653.567236
 30
0.0
 11
1220.637001
 21
538.567232
 31
0.0
  0
LINE
  5
27E
330
278
100
AcDbEntity
  8
7__7
  6
Continuous
 62
     3
100
AcDbLine
 10
1223.065574
 20
653.567236
 30
0.0
 11
1226.637001
 21
653.567236
 31
0.0
  0
LINE
  5
27F
330
278
100
AcDbEntity
  8
7__7
  6
Continuous
 62
     3
100
AcDbLine
 10
1219.940574
 20
538.567232
 30
0.0
 11
1226.637001
 21
538.567232
 31
0.0
  0
TEXT
  5
280
330
278
100
AcDbEntity
  8
7__7
  6
Continuous
 62
     3
100
AcDbText
 10
1217.63703
 20
579.809195
 30
0.0
 40
18.0
  1
１１５
 50
90.000003
 41
0.743832
 51
0.0
  7
BIGFONT
 72
     1
 11
1217.63703
 21
596.067238
 31
0.0
100
AcDbText
  0
ENDBLK
  5
27A
330
278
100
AcDbEntity
  8
0
100
AcDbBlockEnd
  0
BLOCK
  5
283
330
282
100
AcDbEntity
  8
0
100
AcDbBlockBegin
  2
DIM_10
 70
     0
 10
1219.940574
 20
538.567232
 30
0.0
  3
DIM_10
  1

  0
CIRCLE
  5
285
330
282
100
AcDbEntity
  8
7__7
  6
Continuous
 62
     3
100
AcDbCircle
 10
1220.637001
 20
538.567232
 30
0.0
 40
2.4
  0
CIRCLE
  5
286
330
282
100
AcDbEntity
  8
7__7
  6
Continuous
 62
     3
100
AcDbCircle
 10
1220.637001
 20
470.567146
 30
0.0
 40
2.4
  0
LINE
  5
287
330
282
100
AcDbEntity
  8
7__7
  6
Continuous
 62
     3
100
AcDbLine
 10
1220.637001
 20
538.567232
 30
0.0
 11
1220.637001
 21
470.567146
 31
0.0
  0
LINE
  5
288
330
282
100
AcDbEntity
  8
7__7
  6
Continuous
 62
     3
100
AcDbLine
 10
1217.262002
 20
470.567146
 30
0.0
 11
1226.637001
 21
470.567146
 31
0.0
  0
TEXT
  5
289
330
282
100
AcDbEntity
  8
7__7
  6
Continuous
 62
     3
100
AcDbText
 10
1217.63703
 20
493.642668
 30
0.0
 40
18.0
  1
６８
 50
90.000003
 41
0.772441
 51
0.0
  7
BIGFONT
 72
     1
 11
1217.63703
 21
504.56719
 31
0.0
100
AcDbText
  0
ENDBLK
  5
284
330
282
100
AcDbEntity
  8
0
100
AcDbBlockEnd
  0
BLOCK
  5
4DB
330
4DA
100
AcDbEntity
  8
0
100
AcDbBlockBegin
  2
DIM_11
 70
     0
 10
421.70882
 20
191.095765
 30
0.0
  3
DIM_11
  1

  0
CIRCLE
  5
4DD
330
4DA
100
AcDbEntity
  8
7__7
  6
Continuous
 62
     3
100
AcDbCircle
 10
421.70882
 20
189.346844
 30
0.0
 40
3.0
  0
CIRCLE
  5
4DE
330
4DA
100
AcDbEntity
  8
7__7
  6
Continuous
 62
     3
100
AcDbCircle
 10
481.70882
 20
189.346844
 30
0.0
 40
3.0
  0
LINE
  5
4DF
330
4DA
100
AcDbEntity
  8
7__7
  6
Continuous
 62
     3
100
AcDbLine
 10
421.70882
 20
189.346844
 30
0.0
 11
481.70882
 21
189.346844
 31
0.0
  0
LINE
  5
4E0
330
4DA
100
AcDbEntity
  8
7__7
  6
Continuous
 62
     3
100
AcDbLine
 10
421.70882
 20
191.095765
 30
0.0
 11
421.70882
 21
183.346844
 31
0.0
  0
LINE
  5
4E1
330
4DA
100
AcDbEntity
  8
7__7
  6
Continuous
 62
     3
100
AcDbLine
 10
481.70882
 20
191.095765
 30
0.0
 11
481.70882
 21
183.346844
 31
0.0
  0
TEXT
  5
4E2
330
4DA
100
AcDbEntity
  8
7__7
  6
Continuous
 62
     3
100
AcDbText
 10
439.570462
 20
192.346844
 30
0.0
 40
18.0
  1
６０
 41
0.858268
 51
0.0
  7
BIGFONT
 72
     1
 11
451.70882
 21
192.346844
 31
0.0
100
AcDbText
  0
ENDBLK
  5
4DC
330
4DA
100
AcDbEntity
  8
0
100
AcDbBlockEnd
  0
BLOCK
  5
4E5
330
4E4
100
AcDbEntity
  8
0
100
AcDbBlockBegin
  2
DIM_12
 70
     0
 10
421.70882
 20
245.225755
 30
0.0
  3
DIM_12
  1

  0
CIRCLE
  5
4E7
330
4E4
100
AcDbEntity
  8
7__7
  6
Continuous
 62
     3
100
AcDbCircle
 10
421.70882
 20
233.839556
 30
0.0
 40
3.0
  0
CIRCLE
  5
4E8
330
4E4
100
AcDbEntity
  8
7__7
  6
Continuous
 62
     3
100
AcDbCircle
 10
1391.70882
 20
233.839556
 30
0.0
 40
3.0
  0
LINE
  5
4E9
330
4E4
100
AcDbEntity
  8
7__7
  6
Continuous
 62
     3
100
AcDbLine
 10
421.70882
 20
233.839556
 30
0.0
 11
1391.70882
 21
233.839556
 31
0.0
  0
LINE
  5
4EA
330
4E4
100
AcDbEntity
  8
7__7
  6
Continuous
 62
     3
100
AcDbLine
 10
421.70882
 20
245.225755
 30
0.0
 11
421.70882
 21
227.839556
 31
0.0
  0
LINE
  5
4EB
330
4E4
100
AcDbEntity
  8
7__7
  6
Continuous
 62
     3
100
AcDbLine
 10
1391.70882
 20
239.532656
 30
0.0
 11
1391.70882
 21
227.839556
 31
0.0
  0
TEXT
  5
4EC
330
4E4
100
AcDbEntity
  8
7__7
  6
Continuous
 62
     3
100
AcDbText
 10
888.490841
 20
236.839556
 30
0.0
 40
18.0
  1
Ｊ　躯体内径
 41
0.858268
  7
BIGFONT
 72
     1
 11
927.112889
 21
245.839556
 31
0.0
100
AcDbText
 73
     2
  0
ENDBLK
  5
4E6
330
4E4
100
AcDbEntity
  8
0
100
AcDbBlockEnd
  0
BLOCK
  5
506
330
505
100
AcDbEntity
  8
0
100
AcDbBlockBegin
  2
DIM_13
 70
     0
 10
0.0
 20
0.0
 30
0.0
  3
DIM_13
  1

  0
CIRCLE
  5
508
330
505
100
AcDbEntity
  8
7__7
  6
Continuous
 62
     3
100
AcDbCircle
 10
2161.19872
 20
1243.181684
 30
0.0
 40
2.4
  0
LINE
  5
509
330
505
100
AcDbEntity
  8
7__7
  6
Continuous
 62
     3
100
AcDbLine
 10
2161.19872
 20
1243.181684
 30
0.0
 11
2088.94872
 21
1118.041013
 31
0.0
  0
TEXT
  5
50A
330
505
100
AcDbEntity
  8
7__7
  6
Continuous
 62
     3
100
AcDbText
 10
2108.011516
 20
1156.058823
 30
0.0
 40
15.0
  1
Ｒ３００ 以上
 50
60.000002
 41
0.662092
  7
BIGFONT
 72
     1
 11
2122.908591
 21
1181.861315
 31
0.0
100
AcDbText
  0
ENDBLK
  5
507
330
505
100
AcDbEntity
  8
0
100
AcDbBlockEnd
  0
BLOCK
  5
546
330
545
100
AcDbEntity
  8
0
100
AcDbBlockBegin
  2
DIM_14
 70
     0
 10
2030.898264
 20
1121.214403
 30
0.0
  3
DIM_14
  1

  0
CIRCLE
  5
548
330
545
100
AcDbEntity
  8
7__7
  6
Continuous
 62
     3
100
AcDbCircle
 10
1933.390976
 20
1121.214403
 30
0.0
 40
3.0
  0
CIRCLE
  5
549
330
545
100
AcDbEntity
  8
7__7
  6
Continuous
 62
     3
100
AcDbCircle
 10
1933.390976
 20
304.197918
 30
0.0
 40
3.0
  0
LINE
  5
54A
330
545
100
AcDbEntity
  8
7__7
  6
Continuous
 62
     3
100
AcDbLine
 10
1933.390976
 20
1121.214403
 30
0.0
 11
1933.390976
 21
304.197918
 31
0.0
  0
TEXT
  5
54B
330
545
100
AcDbEntity
  8
7__7
  6
Continuous
 62
     3
100
AcDbText
 10
1930.390891
 20
702.590972
 30
0.0
 40
15.0
  1
ＣＨ
 50
90.000003
 41
0.858268
  7
BIGFONT
 72
     1
 11
1930.390891
 21
712.70627
 31
0.0
100
AcDbText
  0
ENDBLK
  5
547
330
545
100
AcDbEntity
  8
0
100
AcDbBlockEnd
  0
BLOCK
  5
557
330
556
100
AcDbEntity
  8
0
100
AcDbBlockBegin
  2
DIM_15
 70
     0
 10
2144.280404
 20
682.342292
 30
0.0
  3
DIM_15
  1

  0
CIRCLE
  5
559
330
556
100
AcDbEntity
  8
7__7
  6
Continuous
 62
     3
100
AcDbCircle
 10
1994.289069
 20
682.342292
 30
0.0
 40
3.0
  0
CIRCLE
  5
55A
330
556
100
AcDbEntity
  8
7__7
  6
Continuous
 62
     3
100
AcDbCircle
 10
1994.289069
 20
304.197918
 30
0.0
 40
3.0
  0
LINE
  5
55B
330
556
100
AcDbEntity
  8
7__7
  6
Continuous
 62
     3
100
AcDbLine
 10
1994.289069
 20
682.342292
 30
0.0
 11
1994.289069
 21
304.197918
 31
0.0
  0
LINE
  5
55C
330
556
100
AcDbEntity
  8
7__7
  6
Continuous
 62
     3
100
AcDbLine
 10
2144.280404
 20
682.342292
 30
0.0
 11
1984.289069
 21
682.342292
 31
0.0
  0
TEXT
  5
55D
330
556
100
AcDbEntity
  8
7__7
  6
Continuous
 62
     3
100
AcDbText
 10
1991.289021
 20
466.602501
 30
0.0
 40
15.0
  1
約１２００
 50
90.0
 41
0.858268
  7
BIGFONT
 72
     1
 11
1991.289021
 21
493.270105
 31
0.0
100
AcDbText
  0
ENDBLK
  5
558
330
556
100
AcDbEntity
  8
0
100
AcDbBlockEnd
  0
BLOCK
  5
566
330
565
100
AcDbEntity
  8
0
100
AcDbBlockBegin
  2
DIM_16
 70
     0
 10
2211.334347
 20
816.592292
 30
0.0
  3
DIM_16
  1

  0
CIRCLE
  5
568
330
565
100
AcDbEntity
  8
7__7
  6
Continuous
 62
     3
100
AcDbCircle
 10
2120.984347
 20
816.592292
 30
0.0
 40
1.8
  0
CIRCLE
  5
569
330
565
100
AcDbEntity
  8
7__7
  6
Continuous
 62
     3
100
AcDbCircle
 10
2120.984347
 20
656.592292
 30
0.0
 40
1.8
  0
LINE
  5
56A
330
565
100
AcDbEntity
  8
7__7
  6
Continuous
 62
     3
100
AcDbLine
 10
2120.984347
 20
816.592292
 30
0.0
 11
2120.984347
 21
656.592292
 31
0.0
  0
LINE
  5
56B
330
565
100
AcDbEntity
  8
7__7
  6
Continuous
 62
     3
100
AcDbLine
 10
2211.334347
 20
816.592292
 30
0.0
 11
2120.484347
 21
816.592292
 31
0.0
  0
LINE
  5
56C
330
565
100
AcDbEntity
  8
7__7
  6
Continuous
 62
     3
100
AcDbLine
 10
2211.334347
 20
656.592292
 30
0.0
 11
2120.484347
 21
656.592292
 31
0.0
  0
TEXT
  5
56D
330
565
100
AcDbEntity
  8
7__7
  6
Continuous
 62
     3
100
AcDbText
 10
2118.79065
 20
729.2101
 30
0.0
 40
15.0
  1
３２０
 50
90.000003
 41
0.750092
  7
BIGFONT
100
AcDbText
  0
ENDBLK
  5
567
330
565
100
AcDbEntity
  8
0
100
AcDbBlockEnd
  0
BLOCK
  5
570
330
56F
100
AcDbEntity
  8
0
100
AcDbBlockBegin
  2
DIM_17
 70
     0
 10
2256.149854
 20
661.592292
 30
0.0
  3
DIM_17
  1

  0
CIRCLE
  5
572
330
56F
100
AcDbEntity
  8
7__7
  6
Continuous
 62
     3
100
AcDbCircle
 10
2312.868009
 20
661.592292
 30
0.0
 40
1.8
  0
CIRCLE
  5
573
330
56F
100
AcDbEntity
  8
7__7
  6
Continuous
 62
     3
100
AcDbCircle
 10
2312.868009
 20
811.592292
 30
0.0
 40
1.8
  0
LINE
  5
574
330
56F
100
AcDbEntity
  8
7__7
  6
Continuous
 62
     3
100
AcDbLine
 10
2312.868009
 20
661.592292
 30
0.0
 11
2312.868009
 21
811.592292
 31
0.0
  0
LINE
  5
575
330
56F
100
AcDbEntity
  8
7__7
  6
Continuous
 62
     3
100
AcDbLine
 10
2256.149854
 20
661.592292
 30
0.0
 11
2317.868009
 21
661.592292
 31
0.0
  0
LINE
  5
576
330
56F
100
AcDbEntity
  8
7__7
  6
Continuous
 62
     3
100
AcDbLine
 10
2256.149854
 20
811.592292
 30
0.0
 11
2317.868009
 21
811.592292
 31
0.0
  0
TEXT
  5
577
330
56F
100
AcDbEntity
  8
7__7
  6
Continuous
 62
     3
100
AcDbText
 10
2311.322877
 20
719.49353
 30
0.0
 40
15.0
  1
３００
 50
90.000003
 41
0.750092
  7
BIGFONT
100
AcDbText
  0
ENDBLK
  5
571
330
56F
100
AcDbEntity
  8
0
100
AcDbBlockEnd
  0
BLOCK
  5
57A
330
579
100
AcDbEntity
  8
0
100
AcDbBlockBegin
  2
DIM_18
 70
     0
 10
2215.720813
 20
650.748402
 30
0.0
  3
DIM_18
  1

  0
CIRCLE
  5
57C
330
579
100
AcDbEntity
  8
7__7
  6
Continuous
 62
     3
100
AcDbCircle
 10
2215.720813
 20
576.248402
 30
0.0
 40
1.8
  0
CIRCLE
  5
57D
330
579
100
AcDbEntity
  8
7__7
  6
Continuous
 62
     3
100
AcDbCircle
 10
2218.220813
 20
576.248402
 30
0.0
 40
1.8
  0
LINE
  5
57E
330
579
100
AcDbEntity
  8
7__7
  6
Continuous
 62
     3
100
AcDbLine
 10
2215.720813
 20
576.248402
 30
0.0
 11
2218.220813
 21
576.248402
 31
0.0
  0
LINE
  5
57F
330
579
100
AcDbEntity
  8
7__7
  6
Continuous
 62
     3
100
AcDbLine
 10
2215.720813
 20
650.748402
 30
0.0
 11
2215.720813
 21
575.748402
 31
0.0
  0
TEXT
  5
580
330
579
100
AcDbEntity
  8
7__7
  6
Continuous
 62
     3
100
AcDbText
 10
2203.009254
 20
570.211244
 30
0.0
 40
15.0
  1
５
 41
0.858268
  7
BIGFONT
 72
     1
 11
2207.607117
 21
577.711244
 31
0.0
100
AcDbText
 73
     2
  0
ENDBLK
  5
57B
330
579
100
AcDbEntity
  8
0
100
AcDbBlockEnd
  0
BLOCK
  5
583
330
582
100
AcDbEntity
  8
0
100
AcDbBlockBegin
  2
DIM_19
 70
     0
 10
2253.220813
 20
655.748402
 30
0.0
  3
DIM_19
  1

  0
CIRCLE
  5
585
330
582
100
AcDbEntity
  8
7__7
  6
Continuous
 62
     3
100
AcDbCircle
 10
2253.220813
 20
576.248402
 30
0.0
 40
1.8
  0
CIRCLE
  5
586
330
582
100
AcDbEntity
  8
7__7
  6
Continuous
 62
     3
100
AcDbCircle
 10
2218.220813
 20
576.248402
 30
0.0
 40
1.8
  0
LINE
  5
587
330
582
100
AcDbEntity
  8
7__7
  6
Continuous
 62
     3
100
AcDbLine
 10
2253.220813
 20
576.248402
 30
0.0
 11
2218.220813
 21
576.248402
 31
0.0
  0
LINE
  5
588
330
582
100
AcDbEntity
  8
7__7
  6
Continuous
 62
     3
100
AcDbLine
 10
2253.220813
 20
655.748402
 30
0.0
 11
2253.220813
 21
575.748402
 31
0.0
  0
TEXT
  5
589
330
582
100
AcDbEntity
  8
7__7
  6
Continuous
 62
     3
100
AcDbText
 10
2227.299766
 20
579.08952
 30
0.0
 40
15.0
  1
７０
 41
0.777136
  7
BIGFONT
100
AcDbText
  0
ENDBLK
  5
584
330
582
100
AcDbEntity
  8
0
100
AcDbBlockEnd
  0
BLOCK
  5
58C
330
58B
100
AcDbEntity
  8
0
100
AcDbBlockBegin
  2
DIM_20
 70
     0
 10
2347.173866
 20
653.371747
 30
0.0
  3
DIM_20
  1

  0
CIRCLE
  5
58E
330
58B
100
AcDbEntity
  8
7__7
  6
Continuous
 62
     3
100
AcDbCircle
 10
2347.173866
 20
581.592292
 30
0.0
 40
1.8
  0
CIRCLE
  5
58F
330
58B
100
AcDbEntity
  8
7__7
  6
Continuous
 62
     3
100
AcDbCircle
 10
2412.173866
 20
581.592292
 30
0.0
 40
1.8
  0
LINE
  5
590
330
58B
100
AcDbEntity
  8
7__7
  6
Continuous
 62
     3
100
AcDbLine
 10
2347.173866
 20
581.592292
 30
0.0
 11
2412.173866
 21
581.592292
 31
0.0
  0
LINE
  5
591
330
58B
100
AcDbEntity
  8
7__7
  6
Continuous
 62
     3
100
AcDbLine
 10
2347.173866
 20
653.371747
 30
0.0
 11
2347.173866
 21
576.592292
 31
0.0
  0
LINE
  5
592
330
58B
100
AcDbEntity
  8
7__7
  6
Continuous
 62
     3
100
AcDbLine
 10
2412.173866
 20
653.371747
 30
0.0
 11
2412.173866
 21
576.592292
 31
0.0
  0
TEXT
  5
593
330
58B
100
AcDbEntity
  8
7__7
  6
Continuous
 62
     3
100
AcDbText
 10
2361.279392
 20
582.49009
 30
0.0
 40
15.0
  1
１３０
 41
0.750092
  7
BIGFONT
100
AcDbText
  0
ENDBLK
  5
58D
330
58B
100
AcDbEntity
  8
0
100
AcDbBlockEnd
  0
BLOCK
  5
5EB
330
5EA
100
AcDbEntity
  8
0
100
AcDbBlockBegin
  2
DIM_21
 70
     0
 10
2352.173866
 20
818.936756
 30
0.0
  3
DIM_21
  1

  0
CIRCLE
  5
5ED
330
5EA
100
AcDbEntity
  8
7__7
  6
Continuous
 62
     3
100
AcDbCircle
 10
2352.173866
 20
893.168545
 30
0.0
 40
3.0
  0
CIRCLE
  5
5EE
330
5EA
100
AcDbEntity
  8
7__7
  6
Continuous
 62
     3
100
AcDbCircle
 10
2407.173866
 20
893.168545
 30
0.0
 40
3.0
  0
LINE
  5
5EF
330
5EA
100
AcDbEntity
  8
7__7
  6
Continuous
 62
     3
100
AcDbLine
 10
2352.173866
 20
893.168545
 30
0.0
 11
2407.173866
 21
893.168545
 31
0.0
  0
LINE
  5
5F0
330
5EA
100
AcDbEntity
  8
7__7
  6
Continuous
 62
     3
100
AcDbLine
 10
2352.173866
 20
818.936756
 30
0.0
 11
2352.173866
 21
898.168545
 31
0.0
  0
LINE
  5
5F1
330
5EA
100
AcDbEntity
  8
7__7
  6
Continuous
 62
     3
100
AcDbLine
 10
2407.173866
 20
818.15946
 30
0.0
 11
2407.173866
 21
898.168545
 31
0.0
  0
TEXT
  5
5F2
330
5EA
100
AcDbEntity
  8
7__7
  6
Continuous
 62
     3
100
AcDbText
 10
2373.990523
 20
900.332323
 30
0.0
 40
15.0
  1
１１０
 41
0.858268
 51
0.0
  7
BIGFONT
 72
     1
 11
2389.623257
 21
907.832323
 31
0.0
100
AcDbText
 73
     2
  0
ENDBLK
  5
5EC
330
5EA
100
AcDbEntity
  8
0
100
AcDbBlockEnd
  0
BLOCK
  5
5F5
330
5F4
100
AcDbEntity
  8
0
100
AcDbBlockBegin
  2
DIM_22
 70
     0
 10
2352.173866
 20
854.692382
 30
0.0
  3
DIM_22
  1

  0
CIRCLE
  5
5F7
330
5F4
100
AcDbEntity
  8
7__7
  6
Continuous
 62
     3
100
AcDbCircle
 10
2352.173866
 20
853.915086
 30
0.0
 40
3.0
  0
CIRCLE
  5
5F8
330
5F4
100
AcDbEntity
  8
7__7
  6
Continuous
 62
     3
100
AcDbCircle
 10
2364.673866
 20
853.915086
 30
0.0
 40
3.0
  0
LINE
  5
5F9
330
5F4
100
AcDbEntity
  8
7__7
  6
Continuous
 62
     3
100
AcDbLine
 10
2352.173866
 20
853.915086
 30
0.0
 11
2364.673866
 21
853.915086
 31
0.0
  0
LINE
  5
5FA
330
5F4
100
AcDbEntity
  8
7__7
  6
Continuous
 62
     3
100
AcDbLine
 10
2352.173866
 20
854.692382
 30
0.0
 11
2352.173866
 21
848.915086
 31
0.0
  0
LINE
  5
5FB
330
5F4
100
AcDbEntity
  8
7__7
  6
Continuous
 62
     3
100
AcDbLine
 10
2364.673866
 20
854.692382
 30
0.0
 11
2364.673866
 21
848.915086
 31
0.0
  0
TEXT
  5
5FC
330
5F4
100
AcDbEntity
  8
7__7
  6
Continuous
 62
     3
100
AcDbText
 10
2328.098867
 20
848.953043
 30
0.0
 40
15.0
  1
２５
 41
0.858268
 51
0.0
  7
BIGFONT
 72
     1
 11
2338.214165
 21
856.453043
 31
0.0
100
AcDbText
 73
     2
  0
ENDBLK
  5
5F6
330
5F4
100
AcDbEntity
  8
0
100
AcDbBlockEnd
  0
BLOCK
  5
608
330
607
100
AcDbEntity
  8
0
100
AcDbBlockBegin
  2
DIM_23
 70
     0
 10
2239.220813
 20
872.996132
 30
0.0
  3
DIM_23
  1

  0
CIRCLE
  5
60A
330
607
100
AcDbEntity
  8
7__7
  6
Continuous
 62
     3
100
AcDbCircle
 10
2239.220813
 20
868.643277
 30
0.0
 40
3.0
  0
CIRCLE
  5
60B
330
607
100
AcDbEntity
  8
7__7
  6
Continuous
 62
     3
100
AcDbCircle
 10
2253.220813
 20
868.643277
 30
0.0
 40
3.0
  0
LINE
  5
60C
330
607
100
AcDbEntity
  8
7__7
  6
Continuous
 62
     3
100
AcDbLine
 10
2239.220813
 20
868.643277
 30
0.0
 11
2253.220813
 21
868.643277
 31
0.0
  0
LINE
  5
60D
330
607
100
AcDbEntity
  8
7__7
  6
Continuous
 62
     3
100
AcDbLine
 10
2239.220813
 20
872.996132
 30
0.0
 11
2239.220813
 21
863.643277
 31
0.0
  0
LINE
  5
60E
330
607
100
AcDbEntity
  8
7__7
  6
Continuous
 62
     3
100
AcDbLine
 10
2253.220813
 20
816.098101
 30
0.0
 11
2253.220813
 21
873.643277
 31
0.0
  0
TEXT
  5
60F
330
607
100
AcDbEntity
  8
7__7
  6
Continuous
 62
     3
100
AcDbText
 10
2246.987652
 20
873.863811
 30
0.0
 40
15.0
  1
２８
 41
0.858268
 51
0.0
  7
BIGFONT
 72
     1
 11
2257.10295
 21
881.363811
 31
0.0
100
AcDbText
 73
     2
  0
ENDBLK
  5
609
330
607
100
AcDbEntity
  8
0
100
AcDbBlockEnd
  0
ENDSEC
  0
SECTION
  2
ENTITIES
  0
LINE
  5
4F
330
1F
100
AcDbEntity
  8
1__1
  6
PLine2
 62
     3
100
AcDbLine
 10
493.73634
 20
624.887121
 30
0.0
 11
493.73634
 21
548.77714
 31
0.0
  0
LINE
  5
50
330
1F
100
AcDbEntity
  8
1__1
  6
Continuous
 62
     3
100
AcDbLine
 10
321.8274
 20
670.203466
 30
0.0
 11
406.70882
 21
670.203466
 31
0.0
  0
LINE
  5
51
330
1F
100
AcDbEntity
  8
1__1
  6
Continuous
 62
     3
100
AcDbLine
 10
1406.70882
 20
670.214158
 30
0.0
 11
1491.961795
 21
670.177913
 31
0.0
  0
LINE
  5
52
330
1F
100
AcDbEntity
  8
1__1
  6
PLine2
 62
     3
100
AcDbLine
 10
906.70882
 20
1002.854649
 30
0.0
 11
906.70882
 21
392.538827
 31
0.0
  0
LINE
  5
53
330
1F
100
AcDbEntity
  8
1__1
  6
Continuous
 62
     3
100
AcDbLine
 10
493.70882
 20
698.673387
 30
0.0
 11
408.20882
 21
698.673387
 31
0.0
  0
LINE
  5
54
330
1F
100
AcDbEntity
  8
1__1
  6
Continuous
 62
     1
100
AcDbLine
 10
53.213598
 20
48.145636
 30
0.0
 11
53.213598
 21
1728.145636
 31
0.0
  0
LINE
  5
55
330
1F
100
AcDbEntity
  8
1__1
  6
Continuous
 62
     1
100
AcDbLine
 10
53.213598
 20
48.145636
 30
0.0
 11
2453.213598
 21
48.145636
 31
0.0
  0
LINE
  5
56
330
1F
100
AcDbEntity
  8
1__1
  6
Continuous
 62
     3
100
AcDbLine
 10
1319.70882
 20
698.673387
 30
0.0
 11
1405.20882
 21
698.673387
 31
0.0
  0
LINE
  5
57
330
1F
100
AcDbEntity
  8
1__1
  6
PLine1
 62
     3
100
AcDbLine
 10
898.912934
 20
1518.795169
 30
0.0
 11
900.460688
 21
1521.473268
 31
0.0
  0
LINE
  5
58
330
1F
100
AcDbEntity
  8
1__1
  6
PLine1
 62
     3
100
AcDbLine
 10
789.65511
 20
1386.546607
 30
0.0
 11
832.405816
 21
1460.591372
 31
0.0
  0
TEXT
  5
5B
330
1F
100
AcDbEntity
  8
3__3
  6
Continuous
 62
     3
100
AcDbText
 10
883.049762
 20
337.702187
 30
0.0
 40
18.0
  1
Ｓ
 41
0.858268
  7
BIGFONT
 72
     1
 11
888.567198
 21
337.702187
 31
0.0
100
AcDbText
  0
TEXT
  5
7E
330
1F
100
AcDbEntity
  8
3__3
  6
Continuous
 62
     3
100
AcDbText
 10
883.744382
 20
129.172231
 30
0.0
 40
18.0
  1
Ｗ
 41
0.858268
  7
BIGFONT
 72
     1
 11
889.261818
 21
129.172231
 31
0.0
100
AcDbText
  0
TEXT
  5
7F
330
1F
100
AcDbEntity
  8
3__3
  6
Continuous
 62
     3
100
AcDbText
 10
193.61577
 20
816.302455
 30
0.0
 40
18.0
  1
Ｈ
 50
90.000003
 41
0.858268
  7
BIGFONT
 72
     1
 11
193.61577
 21
821.81989
 31
0.0
100
AcDbText
  0
LINE
  5
80
330
1F
100
AcDbEntity
  8
3__3
  6
Continuous
 62
     3
100
AcDbLine
 10
791.511349
 20
1138.967211
 30
0.0
 11
791.511349
 21
1130.617545
 31
0.0
  0
LINE
  5
81
330
1F
100
AcDbEntity
  8
3__3
  6
Continuous
 62
     3
100
AcDbLine
 10
791.511349
 20
1130.617545
 30
0.0
 11
801.530948
 21
1130.617545
 31
0.0
  0
LINE
  5
82
330
1F
100
AcDbEntity
  8
3__3
  6
Continuous
 62
     3
100
AcDbLine
 10
801.530948
 20
1130.617545
 30
0.0
 11
801.530948
 21
1138.967211
 31
0.0
  0
LINE
  5
83
330
1F
100
AcDbEntity
  8
3__3
  6
Continuous
 62
     3
100
AcDbLine
 10
801.530948
 20
1138.967211
 30
0.0
 11
791.511349
 21
1138.967211
 31
0.0
  0
TEXT
  5
84
330
1F
100
AcDbEntity
  8
3__3
  6
Continuous
 62
     3
100
AcDbText
 10
811.609566
 20
1117.582006
 30
0.0
 40
18.0
  1
Ａ
 41
0.858268
  7
BIGFONT
 72
     1
 11
817.127001
 21
1117.582006
 31
0.0
100
AcDbText
  0
LINE
  5
85
330
1F
100
AcDbEntity
  8
3__3
  6
Continuous
 62
     3
100
AcDbLine
 10
859.611601
 20
360.734518
 30
0.0
 11
859.611601
 21
350.714918
 31
0.0
  0
LINE
  5
86
330
1F
100
AcDbEntity
  8
3__3
  6
Continuous
 62
     3
100
AcDbLine
 10
859.611601
 20
350.714918
 30
0.0
 11
869.6312
 21
350.714918
 31
0.0
  0
LINE
  5
87
330
1F
100
AcDbEntity
  8
3__3
  6
Continuous
 62
     3
100
AcDbLine
 10
869.6312
 20
350.714918
 30
0.0
 11
869.6312
 21
360.734518
 31
0.0
  0
LINE
  5
88
330
1F
100
AcDbEntity
  8
3__3
  6
Continuous
 62
     3
100
AcDbLine
 10
869.6312
 20
360.734518
 30
0.0
 11
859.611601
 21
360.734518
 31
0.0
  0
LINE
  5
89
330
1F
100
AcDbEntity
  8
3__3
  6
Continuous
 62
     3
100
AcDbLine
 10
858.636272
 20
155.109122
 30
0.0
 11
858.636272
 21
145.089523
 31
0.0
  0
LINE
  5
8A
330
1F
100
AcDbEntity
  8
3__3
  6
Continuous
 62
     3
100
AcDbLine
 10
858.636272
 20
145.089523
 30
0.0
 11
868.655871
 21
145.089523
 31
0.0
  0
LINE
  5
8B
330
1F
100
AcDbEntity
  8
3__3
  6
Continuous
 62
     3
100
AcDbLine
 10
868.655871
 20
145.089523
 30
0.0
 11
868.655871
 21
155.109122
 31
0.0
  0
LINE
  5
8C
330
1F
100
AcDbEntity
  8
3__3
  6
Continuous
 62
     3
100
AcDbLine
 10
868.655871
 20
155.109122
 30
0.0
 11
858.636272
 21
155.109122
 31
0.0
  0
TEXT
  5
8D
330
1F
100
AcDbEntity
  8
3__3
  6
Continuous
 62
     3
100
AcDbText
 10
831.309801
 20
1117.646734
 30
0.0
 40
18.0
  1
ト゛ーム寸法
 41
0.858268
  7
BIGFONT
100
AcDbText
  0
TEXT
  5
8E
330
1F
100
AcDbEntity
  8
3__3
  6
Continuous
 62
     3
100
AcDbText
 10
909.870606
 20
338.729087
 30
0.0
 40
18.0
  1
有効開口
 41
0.858268
  7
BIGFONT
100
AcDbText
  0
TEXT
  5
8F
330
1F
100
AcDbEntity
  8
3__3
  6
Continuous
 62
     3
100
AcDbText
 10
911.844486
 20
128.391013
 30
0.0
 40
18.0
  1
ヘ゛ース外径
 41
0.858268
  7
BIGFONT
100
AcDbText
  0
TEXT
  5
90
330
1F
100
AcDbEntity
  8
3__3
  6
Continuous
 62
     3
100
AcDbText
 10
564.284538
 20
787.471414
 30
0.0
 40
18.0
  1
開閉角度　６０°
 41
0.858268
  7
BIGFONT
100
AcDbText
  0
LINE
  5
91
330
1F
100
AcDbEntity
  8
3__3
  6
Continuous
 62
     3
100
AcDbLine
 10
866.452373
 20
1070.513196
 30
0.0
 11
866.452373
 21
1062.16353
 31
0.0
  0
LINE
  5
92
330
1F
100
AcDbEntity
  8
3__3
  6
Continuous
 62
     3
100
AcDbLine
 10
866.452373
 20
1062.16353
 30
0.0
 11
876.471972
 21
1062.16353
 31
0.0
  0
LINE
  5
93
330
1F
100
AcDbEntity
  8
3__3
  6
Continuous
 62
     3
100
AcDbLine
 10
876.471972
 20
1062.16353
 30
0.0
 11
876.471972
 21
1070.513196
 31
0.0
  0
LINE
  5
94
330
1F
100
AcDbEntity
  8
3__3
  6
Continuous
 62
     3
100
AcDbLine
 10
876.471972
 20
1070.513196
 30
0.0
 11
866.452373
 21
1070.513196
 31
0.0
  0
LINE
  5
95
330
1F
100
AcDbEntity
  8
3__3
  6
Continuous
 62
     3
100
AcDbLine
 10
865.441334
 20
263.960936
 30
0.0
 11
865.441334
 21
253.941336
 31
0.0
  0
LINE
  5
96
330
1F
100
AcDbEntity
  8
3__3
  6
Continuous
 62
     3
100
AcDbLine
 10
865.441334
 20
253.941336
 30
0.0
 11
875.460934
 21
253.941336
 31
0.0
  0
LINE
  5
97
330
1F
100
AcDbEntity
  8
3__3
  6
Continuous
 62
     3
100
AcDbLine
 10
875.460934
 20
253.941336
 30
0.0
 11
875.460934
 21
263.960936
 31
0.0
  0
LINE
  5
98
330
1F
100
AcDbEntity
  8
3__3
  6
Continuous
 62
     3
100
AcDbLine
 10
875.460934
 20
263.960936
 30
0.0
 11
865.441334
 21
263.960936
 31
0.0
  0
ARC
  5
9A
330
1F
100
AcDbEntity
  8
5__5
  6
Continuous
 62
     6
100
AcDbCircle
 10
424.153123
 20
658.780762
 30
0.0
 40
2.999880000000001
100
AcDbArc
 50
0.0
 51
90.0
  0
ARC
  5
9B
330
1F
100
AcDbEntity
  8
5__5
  6
Continuous
 62
     6
100
AcDbCircle
 10
424.152123
 20
651.351049
 30
0.0
 40
2.999880000000001
100
AcDbArc
 50
300.266052
 51
0.0
  0
ARC
  5
9C
330
1F
100
AcDbEntity
  8
5__5
  6
Continuous
 62
     6
100
AcDbCircle
 10
424.152123
 20
639.953505
 30
0.0
 40
2.999880000000001
100
AcDbArc
 50
358.675924
 51
50.80331
  0
ARC
  5
9D
330
1F
100
AcDbEntity
  8
5__5
  6
Continuous
 62
     6
100
AcDbCircle
 10
424.153123
 20
639.780252
 30
0.0
 40
2.999880000000001
100
AcDbArc
 50
270.0
 51
1.985455
  0
ARC
  5
9E
330
1F
100
AcDbEntity
  8
5__5
  6
Continuous
 62
     6
100
AcDbCircle
 10
420.852255
 20
646.447245
 30
0.0
 40
2.999880000000001
100
AcDbArc
 50
117.197182
 51
180.0
  0
ARC
  5
9F
330
1F
100
AcDbEntity
  8
5__5
  6
Continuous
 62
     6
100
AcDbCircle
 10
420.853255
 20
646.08826
 30
0.0
 40
2.999880000000001
100
AcDbArc
 50
180.0
 51
230.35582
  0
LINE
  5
A0
330
1F
100
AcDbEntity
  8
5__5
  6
Continuous
 62
     6
100
AcDbLine
 10
408.20882
 20
661.779619
 30
0.0
 11
424.153123
 21
661.780642
 31
0.0
  0
LINE
  5
A1
330
1F
100
AcDbEntity
  8
5__5
  6
Continuous
 62
     6
100
AcDbLine
 10
427.153003
 20
658.780762
 30
0.0
 11
427.152003
 21
651.351049
 31
0.0
  0
LINE
  5
A2
330
1F
100
AcDbEntity
  8
5__5
  6
Continuous
 62
     6
100
AcDbLine
 10
425.664063
 20
648.760153
 30
0.0
 11
422.072455
 21
646.665049
 31
0.0
  0
LINE
  5
A3
330
1F
100
AcDbEntity
  8
5__5
  6
Continuous
 62
     6
100
AcDbLine
 10
426.048047
 20
642.278412
 30
0.0
 11
423.047877
 21
644.751019
 31
0.0
  0
LINE
  5
A4
330
1F
100
AcDbEntity
  8
5__5
  6
Continuous
 62
     3
100
AcDbLine
 10
423.047877
 20
644.751019
 30
0.0
 11
422.072455
 21
646.665049
 31
0.0
  0
LINE
  5
A5
330
1F
100
AcDbEntity
  8
5__5
  6
Continuous
 62
     6
100
AcDbLine
 10
408.608744
 20
636.780372
 30
0.0
 11
424.153123
 21
636.780372
 31
0.0
  0
LINE
  5
A6
330
1F
100
AcDbEntity
  8
5__5
  6
Continuous
 62
     6
100
AcDbLine
 10
423.103165
 20
657.880798
 30
0.0
 11
423.103165
 21
650.977064
 31
0.0
  0
LINE
  5
A7
330
1F
100
AcDbEntity
  8
5__5
  6
Continuous
 62
     6
100
AcDbLine
 10
423.103165
 20
650.977064
 30
0.0
 11
419.48131
 21
649.115139
 31
0.0
  0
LINE
  5
A8
330
1F
100
AcDbEntity
  8
5__5
  6
Continuous
 62
     6
100
AcDbLine
 10
423.103165
 20
657.880798
 30
0.0
 11
412.603585
 21
657.880798
 31
0.0
  0
LINE
  5
A9
330
1F
100
AcDbEntity
  8
5__5
  6
Continuous
 62
     6
100
AcDbLine
 10
417.852375
 20
646.447245
 30
0.0
 11
417.853375
 21
646.08826
 31
0.0
  0
LINE
  5
AA
330
1F
100
AcDbEntity
  8
5__5
  6
Continuous
 62
     6
100
AcDbLine
 10
418.939332
 20
643.778352
 30
0.0
 11
421.192909
 21
641.691245
 31
0.0
  0
ARC
  5
AB
330
1F
100
AcDbEntity
  8
5__5
  6
Continuous
 62
     6
100
AcDbCircle
 10
1384.645683
 20
657.75406
 30
0.0
 40
1.0
100
AcDbArc
 50
180.0
 51
310.244823
  0
LINE
  5
AC
330
1F
100
AcDbEntity
  8
5__5
  6
Continuous
 62
     6
100
AcDbLine
 10
1388.615113
 20
657.807899
 30
0.0
 11
1385.291738
 21
656.990769
 31
0.0
  0
ARC
  5
AD
330
1F
100
AcDbEntity
  8
5__5
  6
Continuous
 62
     6
100
AcDbCircle
 10
1390.551875
 20
655.516997
 30
0.0
 40
2.999880000000001
100
AcDbArc
 50
57.692902
 51
130.21167
  0
ARC
  5
AE
330
1F
100
AcDbEntity
  8
5__5
  6
Continuous
 62
     6
100
AcDbCircle
 10
1405.94385
 20
653.538962
 30
0.0
 40
1.99992
100
AcDbArc
 50
270.0
 51
8.4826
  0
ARC
  5
AF
330
1F
100
AcDbEntity
  8
5__5
  6
Continuous
 62
     6
100
AcDbCircle
 10
1385.645603
 20
664.167536
 30
0.0
 40
1.99992
100
AcDbArc
 50
90.0
 51
180.0
  0
LINE
  5
B0
330
1F
100
AcDbEntity
  8
5__5
  6
Continuous
 62
     6
100
AcDbLine
 10
1380.20882
 20
655.56788
 30
0.0
 11
1380.180453
 21
653.568808
 31
0.0
  0
ARC
  5
B1
330
1F
100
AcDbEntity
  8
5__5
  6
Continuous
 62
     6
100
AcDbCircle
 10
1382.180251
 20
653.540431
 30
0.0
 40
2.0
100
AcDbArc
 50
179.187009
 51
269.97787
  0
LINE
  5
B2
330
1F
100
AcDbEntity
  8
5__5
  6
Continuous
 62
     6
100
AcDbLine
 10
1382.179479
 20
651.540431
 30
0.0
 11
1385.045412
 21
651.539324
 31
0.0
  0
LINE
  5
B3
330
1F
100
AcDbEntity
  8
5__5
  6
Continuous
 62
     6
100
AcDbLine
 10
1380.20882
 20
669.280332
 30
0.0
 11
1380.20882
 21
655.281892
 31
0.0
  0
LINE
  5
B4
330
1F
100
AcDbEntity
  8
5__5
  6
Continuous
 62
     6
100
AcDbLine
 10
1385.645603
 20
666.167456
 30
0.0
 11
1400.300076
 21
666.166457
 31
0.0
  0
ARC
  5
B5
330
1F
100
AcDbEntity
  8
5__5
  6
Continuous
 62
     6
100
AcDbCircle
 10
1395.332181
 20
652.540152
 30
0.0
 40
1.0
100
AcDbArc
 50
240.774358
 51
269.994002
  0
LINE
  5
B6
330
1F
100
AcDbEntity
  8
5__5
  6
Continuous
 62
     6
100
AcDbLine
 10
1391.886466
 20
653.322057
 30
0.0
 11
1394.84393
 21
651.667449
 31
0.0
  0
LINE
  5
B7
330
1F
100
AcDbEntity
  8
5__5
  6
Continuous
 62
     6
100
AcDbLine
 10
1405.94385
 20
651.539042
 30
0.0
 11
1395.332076
 21
651.540152
 31
0.0
  0
LINE
  5
B8
330
1F
100
AcDbEntity
  8
5__5
  6
Continuous
 62
     6
100
AcDbLine
 10
1396.264646
 20
655.456
 30
0.0
 11
1392.154811
 21
658.051896
 31
0.0
  0
ARC
  5
B9
330
1F
100
AcDbEntity
  8
5__5
  6
Continuous
 62
     6
100
AcDbCircle
 10
1403.401165
 20
656.457599
 30
0.0
 40
1.0
100
AcDbArc
 50
270.008589
 51
9.110101
  0
LINE
  5
BA
330
1F
100
AcDbEntity
  8
5__5
  6
Continuous
 62
     6
100
AcDbLine
 10
1396.263808
 20
655.456529
 30
0.0
 11
1403.401315
 21
655.457599
 31
0.0
  0
LINE
  5
BB
330
1F
100
AcDbEntity
  8
5__5
  6
Continuous
 62
     6
100
AcDbLine
 10
1403.261957
 20
663.641558
 30
0.0
 11
1404.388551
 21
656.615931
 31
0.0
  0
LINE
  5
BC
330
1F
100
AcDbEntity
  8
5__5
  6
Continuous
 62
     6
100
AcDbLine
 10
1383.645683
 20
664.167536
 30
0.0
 11
1383.645683
 21
657.75406
 31
0.0
  0
LINE
  5
BD
330
1F
100
AcDbEntity
  8
5__5
  6
Continuous
 62
     6
100
AcDbLine
 10
412.602585
 20
640.806211
 30
0.0
 11
412.603585
 21
657.880798
 31
0.0
  0
ARC
  5
BE
330
1F
100
AcDbEntity
  8
5__5
  6
Continuous
 62
     6
100
AcDbCircle
 10
420.873928
 20
641.306211
 30
0.0
 40
0.5
100
AcDbArc
 50
270.0
 51
50.359887
  0
LINE
  5
BF
330
1F
100
AcDbEntity
  8
5__5
  6
Continuous
 62
     6
100
AcDbLine
 10
412.602585
 20
640.806211
 30
0.0
 11
420.873928
 21
640.806211
 31
0.0
  0
ARC
  5
C0
330
1F
100
AcDbEntity
  8
5__5
  6
Continuous
 62
     6
100
AcDbCircle
 10
1400.300076
 20
663.166577
 30
0.0
 40
2.999880000000001
100
AcDbArc
 50
9.110645
 51
90.0
  0
LINE
  5
C2
330
1F
100
AcDbEntity
  8
6__6
  6
PLine2
 62
     3
100
AcDbLine
 10
432.289798
 20
583.564717
 30
0.0
 11
537.284598
 21
583.565717
 31
0.0
  0
LINE
  5
C3
330
1F
100
AcDbEntity
  8
6__6
  6
PLine2
 62
     3
100
AcDbLine
 10
458.959731
 20
592.364365
 30
0.0
 11
458.959731
 21
560.125655
 31
0.0
  0
LINE
  5
C4
330
1F
100
AcDbEntity
  8
6__6
  6
PLine2
 62
     3
100
AcDbLine
 10
458.959731
 20
592.364365
 30
0.0
 11
458.958731
 21
602.530959
 31
0.0
  0
LINE
  5
C5
330
1F
100
AcDbEntity
  8
6__6
  6
Continuous
 62
     3
100
AcDbLine
 10
458.942731
 20
602.421963
 30
0.0
 11
458.942731
 21
606.201812
 31
0.0
  0
ARC
  5
C7
330
1F
100
AcDbEntity
  8
7__7
  6
Continuous
 62
     3
100
AcDbCircle
 10
436.289638
 20
652.566612
 30
0.0
 40
0.9999600000000002
100
AcDbArc
 50
0.0
 51
120.000725
  0
ARC
  5
C8
330
1F
100
AcDbEntity
  8
7__7
  6
Continuous
 62
     3
100
AcDbCircle
 10
436.289638
 20
631.281852
 30
0.0
 40
0.9999600000000002
100
AcDbArc
 50
270.0
 51
0.0
  0
LINE
  5
C9
330
1F
100
AcDbEntity
  8
7__7
  6
Continuous
 62
     6
100
AcDbLine
 10
422.138164
 20
646.535048
 30
0.0
 11
423.047877
 21
644.751019
 31
0.0
  0
LINE
  5
CA
330
1F
100
AcDbEntity
  8
7__7
  6
Continuous
 62
     3
100
AcDbLine
 10
435.289678
 20
650.834719
 30
0.0
 11
423.047877
 21
644.751019
 31
0.0
  0
LINE
  5
CB
330
1F
100
AcDbEntity
  8
7__7
  6
Continuous
 62
     3
100
AcDbLine
 10
422.138164
 20
646.535048
 30
0.0
 11
435.789636
 21
653.432565
 31
0.0
  0
LINE
  5
CC
330
1F
100
AcDbEntity
  8
7__7
  6
Continuous
 62
     3
100
AcDbLine
 10
435.289678
 20
632.281812
 30
0.0
 11
422.708901
 21
632.282832
 31
0.0
  0
LINE
  5
CD
330
1F
100
AcDbEntity
  8
7__7
  6
Continuous
 62
     3
100
AcDbLine
 10
435.289678
 20
632.281812
 30
0.0
 11
435.289678
 21
650.834719
 31
0.0
  0
ARC
  5
CE
330
1F
100
AcDbEntity
  8
7__7
  6
Continuous
 62
     3
100
AcDbCircle
 10
422.70882
 20
631.282832
 30
0.0
 40
1.0
100
AcDbArc
 50
89.995353
 51
180.0
  0
LINE
  5
CF
330
1F
100
AcDbEntity
  8
7__7
  6
Continuous
 62
     3
100
AcDbLine
 10
421.70882
 20
488.566517
 30
0.0
 11
421.70882
 21
631.282832
 31
0.0
  0
LINE
  5
D0
330
1F
100
AcDbEntity
  8
7__7
  6
Continuous
 62
     3
100
AcDbLine
 10
436.289638
 20
630.281892
 30
0.0
 11
423.70874
 21
630.282908
 31
0.0
  0
ARC
  5
D1
330
1F
100
AcDbEntity
  8
7__7
  6
Continuous
 62
     3
100
AcDbCircle
 10
436.289598
 20
652.566517
 30
0.0
 40
1.0
100
AcDbArc
 50
0.0
 51
119.997435
  0
LINE
  5
D2
330
1F
100
AcDbEntity
  8
7__7
  6
Continuous
 62
     3
100
AcDbLine
 10
437.289598
 20
652.566517
 30
0.0
 11
437.289598
 21
620.909203
 31
0.0
  0
LINE
  5
D3
330
1F
100
AcDbEntity
  8
7__7
  6
Continuous
 62
     3
100
AcDbLine
 10
423.70874
 20
487.494057
 30
0.0
 11
423.70874
 21
630.282908
 31
0.0
  0
ARC
  5
D4
330
1F
100
AcDbEntity
  8
7__7
  6
Continuous
 62
     3
100
AcDbCircle
 10
495.70882
 20
671.280391
 30
0.0
 40
1.0
100
AcDbArc
 50
269.999403
 51
0.0
  0
CIRCLE
  5
D5
330
1F
100
AcDbEntity
  8
7__7
  6
Continuous
 62
     3
100
AcDbCircle
 10
493.672342
 20
583.436722
 30
0.0
 40
29.9988
  0
LINE
  5
D6
330
1F
100
AcDbEntity
  8
7__7
  6
Continuous
 62
     3
100
AcDbLine
 10
1398.894912
 20
646.685243
 30
0.0
 11
1399.895392
 21
648.418068
 31
0.0
  0
LINE
  5
D7
330
1F
100
AcDbEntity
  8
7__7
  6
Continuous
 62
     3
100
AcDbLine
 10
1398.894912
 20
646.685243
 30
0.0
 11
1391.70882
 21
650.834188
 31
0.0
  0
LINE
  5
D8
330
1F
100
AcDbEntity
  8
7__7
  6
Continuous
 62
     3
100
AcDbLine
 10
486.70882
 20
485.569637
 30
0.0
 11
486.70882
 21
472.551158
 31
0.0
  0
ARC
  5
D9
330
1F
100
AcDbEntity
  8
7__7
  6
Continuous
 62
     3
100
AcDbCircle
 10
424.45874
 20
537.816515
 30
0.0
 40
0.75
100
AcDbArc
 50
180.0
 51
270.001199
  0
LINE
  5
DA
330
1F
100
AcDbEntity
  8
7__7
  6
Continuous
 62
     3
100
AcDbLine
 10
472.20874
 20
537.067515
 30
0.0
 11
424.458756
 21
537.066515
 31
0.0
  0
LINE
  5
DB
330
1F
100
AcDbEntity
  8
7__7
  6
Continuous
 62
     3
100
AcDbLine
 10
457.007809
 20
508.404724
 30
0.0
 11
486.72262
 21
508.404724
 31
0.0
  0
LINE
  5
DC
330
1F
100
AcDbEntity
  8
7__7
  6
Continuous
 62
     3
100
AcDbLine
 10
486.72262
 20
508.404724
 30
0.0
 11
486.72162
 21
497.848146
 31
0.0
  0
LINE
  5
DD
330
1F
100
AcDbEntity
  8
7__7
  6
Continuous
 62
     3
100
AcDbLine
 10
486.72162
 20
497.848146
 30
0.0
 11
456.616824
 21
497.848146
 31
0.0
  0
LINE
  5
DE
330
1F
100
AcDbEntity
  8
7__7
  6
Continuous
 62
     3
100
AcDbLine
 10
486.70882
 20
485.569637
 30
0.0
 11
485.20882
 21
485.569637
 31
0.0
  0
LINE
  5
DF
330
1F
100
AcDbEntity
  8
7__7
  6
Continuous
 62
     3
100
AcDbLine
 10
486.70882
 20
485.569637
 30
0.0
 11
486.70882
 21
471.570237
 31
0.0
  0
LINE
  5
E0
330
1F
100
AcDbEntity
  8
7__7
  6
Continuous
 62
     3
100
AcDbLine
 10
425.20874
 20
558.567109
 30
0.0
 11
425.20874
 21
538.566518
 31
0.0
  0
LINE
  5
E1
330
1F
100
AcDbEntity
  8
7__7
  6
Continuous
 62
     3
100
AcDbLine
 10
486.72162
 20
508.013739
 30
0.0
 11
486.72162
 21
497.848146
 31
0.0
  0
LINE
  5
E2
330
1F
100
AcDbEntity
  8
7__7
  6
Continuous
 62
     3
100
AcDbLine
 10
467.129918
 20
569.457175
 30
0.0
 11
517.17387
 21
458.33596
 31
0.0
  0
LINE
  5
E3
330
1F
100
AcDbEntity
  8
7__7
  6
Continuous
 62
     3
100
AcDbLine
 10
464.394513
 20
593.108336
 30
0.0
 11
453.512949
 21
593.108336
 31
0.0
  0
LINE
  5
E4
330
1F
100
AcDbEntity
  8
7__7
  6
Continuous
 62
     3
100
AcDbLine
 10
469.904369
 20
583.565076
 30
0.0
 11
464.394513
 21
593.108336
 31
0.0
  0
LINE
  5
E5
330
1F
100
AcDbEntity
  8
7__7
  6
Continuous
 62
     3
100
AcDbLine
 10
448.002973
 20
583.564867
 30
0.0
 11
453.512949
 21
593.108336
 31
0.0
  0
ARC
  5
E6
330
1F
100
AcDbEntity
  8
7__7
  6
Continuous
 62
     3
100
AcDbCircle
 10
472.70878
 20
537.567557
 30
0.0
 40
0.9999600000000002
100
AcDbArc
 50
0.0
 51
90.0
  0
LINE
  5
E7
330
1F
100
AcDbEntity
  8
7__7
  6
Continuous
 62
     3
100
AcDbLine
 10
423.70874
 20
558.566026
 30
0.0
 11
425.20874
 21
558.567109
 31
0.0
  0
LINE
  5
E8
330
1F
100
AcDbEntity
  8
7__7
  6
Continuous
 62
     3
100
AcDbLine
 10
507.286798
 20
538.567517
 30
0.0
 11
425.20874
 21
538.566518
 31
0.0
  0
LINE
  5
E9
330
1F
100
AcDbEntity
  8
7__7
  6
Continuous
 62
     3
100
AcDbLine
 10
457.287798
 20
538.567517
 30
0.0
 11
472.70878
 21
538.567517
 31
0.0
  0
LINE
  5
EA
330
1F
100
AcDbEntity
  8
7__7
  6
Continuous
 62
     3
100
AcDbLine
 10
472.69878
 20
470.570237
 30
0.0
 11
485.689861
 21
470.570237
 31
0.0
  0
LINE
  5
EB
330
1F
100
AcDbEntity
  8
7__7
  6
Continuous
 62
     3
100
AcDbLine
 10
457.287798
 20
538.567517
 30
0.0
 11
550.047087
 21
538.567517
 31
0.0
  0
LINE
  5
EC
330
1F
100
AcDbEntity
  8
7__7
  6
Continuous
 62
     3
100
AcDbLine
 10
457.287798
 20
538.567517
 30
0.0
 11
550.107085
 21
538.567517
 31
0.0
  0
LINE
  5
ED
330
1F
100
AcDbEntity
  8
7__7
  6
Continuous
 62
     3
100
AcDbLine
 10
457.287798
 20
538.567517
 30
0.0
 11
550.107085
 21
538.567517
 31
0.0
  0
LINE
  5
EE
330
1F
100
AcDbEntity
  8
7__7
  6
Continuous
 62
     3
100
AcDbLine
 10
457.287798
 20
538.567517
 30
0.0
 11
549.987089
 21
538.567517
 31
0.0
  0
LINE
  5
EF
330
1F
100
AcDbEntity
  8
7__7
  6
Continuous
 62
     3
100
AcDbLine
 10
457.287798
 20
538.567517
 30
0.0
 11
550.107085
 21
538.567517
 31
0.0
  0
LINE
  5
F0
330
1F
100
AcDbEntity
  8
7__7
  6
Continuous
 62
     3
100
AcDbLine
 10
514.060563
 20
605.442368
 30
0.0
 11
633.993714
 21
497.227995
 31
0.0
  0
ARC
  5
F1
330
1F
100
AcDbEntity
  8
7__7
  6
Continuous
 62
     3
100
AcDbCircle
 10
473.20874
 20
471.570237
 30
0.0
 40
1.0
100
AcDbArc
 50
180.0
 51
270.0
  0
ARC
  5
F2
330
1F
100
AcDbEntity
  8
7__7
  6
Continuous
 62
     3
100
AcDbCircle
 10
485.70882
 20
471.570237
 30
0.0
 40
1.0
100
AcDbArc
 50
270.0
 51
0.0
  0
LINE
  5
F3
330
1F
100
AcDbEntity
  8
7__7
  6
Continuous
 62
     3
100
AcDbLine
 10
473.20874
 20
470.570237
 30
0.0
 11
485.70882
 21
470.570237
 31
0.0
  0
LINE
  5
F4
330
1F
100
AcDbEntity
  8
7__7
  6
Continuous
 62
     3
100
AcDbLine
 10
473.70874
 20
537.567557
 30
0.0
 11
473.70874
 21
472.070237
 31
0.0
  0
LINE
  5
F5
330
1F
100
AcDbEntity
  8
7__7
  6
Continuous
 62
     3
100
AcDbLine
 10
457.287798
 20
538.567517
 30
0.0
 11
550.068086
 21
538.566517
 31
0.0
  0
LINE
  5
F6
330
1F
100
AcDbEntity
  8
7__7
  6
Continuous
 62
     3
100
AcDbLine
 10
474.7087
 20
538.567517
 30
0.0
 11
550.008089
 21
538.566517
 31
0.0
  0
ARC
  5
F7
330
1F
100
AcDbEntity
  8
7__7
  6
Continuous
 62
     3
100
AcDbCircle
 10
533.381754
 20
603.564917
 30
0.0
 40
4.9998
100
AcDbArc
 50
0.0
 51
90.011459
  0
LINE
  5
F8
330
1F
100
AcDbEntity
  8
7__7
  6
Continuous
 62
     3
100
AcDbLine
 10
573.42226
 20
538.567517
 30
0.0
 11
552.068993
 21
538.567517
 31
0.0
  0
LINE
  5
F9
330
1F
100
AcDbEntity
  8
7__7
  6
Continuous
 62
     3
100
AcDbLine
 10
1316.70882
 20
700.280323
 30
0.0
 11
407.70882
 21
700.280323
 31
0.0
  0
LINE
  5
FA
330
1F
100
AcDbEntity
  8
7__7
  6
Continuous
 62
     3
100
AcDbLine
 10
612.192274
 20
653.566517
 30
0.0
 11
674.083538
 21
653.566517
 31
0.0
  0
LINE
  5
FB
330
1F
100
AcDbEntity
  8
7__7
  6
Continuous
 62
     3
100
AcDbLine
 10
1285.905437
 20
653.566517
 30
0.0
 11
1380.20882
 21
653.566517
 31
0.0
  0
LINE
  5
FC
330
1F
100
AcDbEntity
  8
7__7
  6
Continuous
 62
     3
100
AcDbLine
 10
1275.643387
 20
653.566517
 30
0.0
 11
705.560789
 21
653.566517
 31
0.0
  0
CIRCLE
  5
FD
330
1F
100
AcDbEntity
  8
7__7
  6
Continuous
 62
     3
100
AcDbCircle
 10
573.912132
 20
578.389924
 30
0.0
 40
24.999
  0
CIRCLE
  5
FE
330
1F
100
AcDbEntity
  8
7__7
  6
Continuous
 62
     3
100
AcDbCircle
 10
573.912132
 20
578.389924
 30
0.0
 40
7.499700000000001
  0
CIRCLE
  5
FF
330
1F
100
AcDbEntity
  8
7__7
  6
Continuous
 62
     3
100
AcDbCircle
 10
573.912132
 20
578.389924
 30
0.0
 40
19.9992
  0
LINE
  5
100
330
1F
100
AcDbEntity
  8
7__7
  6
Continuous
 62
     3
100
AcDbLine
 10
517.17387
 20
458.33596
 30
0.0
 11
525.23032
 21
462.364186
 31
0.0
  0
LINE
  5
101
330
1F
100
AcDbEntity
  8
7__7
  6
Continuous
 62
     3
100
AcDbLine
 10
457.287798
 20
538.567517
 30
0.0
 11
550.008089
 21
538.566517
 31
0.0
  0
ARC
  5
102
330
1F
100
AcDbEntity
  8
7__7
  6
Continuous
 62
     3
100
AcDbCircle
 10
407.70878
 20
636.279528
 30
0.0
 40
0.9999600000000002
100
AcDbArc
 50
180.0
 51
270.0
  0
ARC
  5
103
330
1F
100
AcDbEntity
  8
7__7
  6
Continuous
 62
     3
100
AcDbCircle
 10
551.068046
 20
620.659233
 30
0.0
 40
0.9999600000000002
100
AcDbArc
 50
0.0
 51
90.0
  0
ARC
  5
104
330
1F
100
AcDbEntity
  8
7__7
  6
Continuous
 62
     3
100
AcDbCircle
 10
1327.485988
 20
548.567369
 30
0.0
 40
9.999600000000001
100
AcDbArc
 50
180.0
 51
270.0
  0
LINE
  5
105
330
1F
100
AcDbEntity
  8
7__7
  6
Continuous
 62
     3
100
AcDbLine
 10
407.70878
 20
635.279568
 30
0.0
 11
417.403393
 21
635.280581
 31
0.0
  0
LINE
  5
106
330
1F
100
AcDbEntity
  8
7__7
  6
Continuous
 62
     3
100
AcDbLine
 10
510.800657
 20
538.567517
 30
0.0
 11
472.016808
 21
538.566517
 31
0.0
  0
LINE
  5
107
330
1F
100
AcDbEntity
  8
7__7
  6
Continuous
 62
     3
100
AcDbLine
 10
437.289598
 20
646.659198
 30
0.0
 11
438.789598
 21
646.659198
 31
0.0
  0
LINE
  5
108
330
1F
100
AcDbEntity
  8
7__7
  6
Continuous
 62
     3
100
AcDbLine
 10
551.068046
 20
621.658194
 30
0.0
 11
438.789598
 21
621.659196
 31
0.0
  0
LINE
  5
109
330
1F
100
AcDbEntity
  8
7__7
  6
Continuous
 62
     3
100
AcDbLine
 10
473.649742
 20
518.470321
 30
0.0
 11
475.250678
 21
518.470321
 31
0.0
  0
LINE
  5
10A
330
1F
100
AcDbEntity
  8
7__7
  6
Continuous
 62
     3
100
AcDbLine
 10
475.250678
 20
518.470321
 30
0.0
 11
475.250678
 21
537.067517
 31
0.0
  0
LINE
  5
10B
330
1F
100
AcDbEntity
  8
7__7
  6
Continuous
 62
     3
100
AcDbLine
 10
457.287798
 20
538.567517
 30
0.0
 11
550.026088
 21
538.567517
 31
0.0
  0
LINE
  5
10C
330
1F
100
AcDbEntity
  8
7__7
  6
Continuous
 62
     3
100
AcDbLine
 10
552.068006
 20
620.659233
 30
0.0
 11
552.069002
 21
537.817526
 31
0.0
  0
ARC
  5
10D
330
1F
100
AcDbEntity
  8
7__7
  6
Continuous
 62
     3
100
AcDbCircle
 10
551.319002
 20
537.817517
 30
0.0
 40
0.75
100
AcDbArc
 50
270.0
 51
0.000689
  0
LINE
  5
10E
330
1F
100
AcDbEntity
  8
7__7
  6
Continuous
 62
     3
100
AcDbLine
 10
475.250678
 20
537.067517
 30
0.0
 11
551.319002
 21
537.067517
 31
0.0
  0
LINE
  5
10F
330
1F
100
AcDbEntity
  8
7__7
  6
Continuous
 62
     3
100
AcDbLine
 10
574.743772
 20
538.566517
 30
0.0
 11
552.068993
 21
538.566517
 31
0.0
  0
LINE
  5
110
330
1F
100
AcDbEntity
  8
7__7
  6
Continuous
 62
     3
100
AcDbLine
 10
573.587145
 20
538.566517
 30
0.0
 11
573.646143
 21
538.567517
 31
0.0
  0
LINE
  5
111
330
1F
100
AcDbEntity
  8
7__7
  6
Continuous
 62
     3
100
AcDbLine
 10
1317.486388
 20
583.252981
 30
0.0
 11
1317.485388
 21
548.567369
 31
0.0
  0
LINE
  5
112
330
1F
100
AcDbEntity
  8
7__7
  6
Continuous
 62
     3
100
AcDbLine
 10
495.20882
 20
691.841661
 30
0.0
 11
495.20882
 21
699.185367
 31
0.0
  0
ARC
  5
113
330
1F
100
AcDbEntity
  8
7__7
  6
Continuous
 62
     3
100
AcDbCircle
 10
474.7087
 20
537.567557
 30
0.0
 40
0.9999600000000002
100
AcDbArc
 50
90.0
 51
180.0
  0
LINE
  5
114
330
1F
100
AcDbEntity
  8
7__7
  6
Continuous
 62
     3
100
AcDbLine
 10
457.287798
 20
538.567517
 30
0.0
 11
473.050766
 21
538.567517
 31
0.0
  0
LINE
  5
115
330
1F
100
AcDbEntity
  8
7__7
  6
Continuous
 62
     3
100
AcDbLine
 10
433.289758
 20
638.281572
 30
0.0
 11
441.288438
 21
638.281572
 31
0.0
  0
LINE
  5
116
330
1F
100
AcDbEntity
  8
7__7
  6
Continuous
 62
     3
100
AcDbLine
 10
468.70894
 20
526.567997
 30
0.0
 11
478.70854
 21
526.567997
 31
0.0
  0
LINE
  5
117
330
1F
100
AcDbEntity
  8
7__7
  6
Continuous
 62
     3
100
AcDbLine
 10
1326.625823
 20
538.566769
 30
0.0
 11
1377.511987
 21
538.568413
 31
0.0
  0
LINE
  5
118
330
1F
100
AcDbEntity
  8
7__7
  6
Continuous
 62
     3
100
AcDbLine
 10
566.683422
 20
544.764269
 30
0.0
 11
566.678422
 21
544.74327
 31
0.0
  0
LINE
  5
119
330
1F
100
AcDbEntity
  8
7__7
  6
Continuous
 62
     3
100
AcDbLine
 10
493.70882
 20
671.780377
 30
0.0
 11
493.70882
 21
698.673387
 31
0.0
  0
LINE
  5
11A
330
1F
100
AcDbEntity
  8
7__7
  6
Continuous
 62
     3
100
AcDbLine
 10
495.20882
 20
700.280323
 30
0.0
 11
495.20882
 21
699.053372
 31
0.0
  0
ARC
  5
11B
330
1F
100
AcDbEntity
  8
7__7
  6
Continuous
 62
     3
100
AcDbCircle
 10
409.20882
 20
671.280292
 30
0.0
 40
1.0
100
AcDbArc
 50
180.0
 51
270.0
  0
LINE
  5
11C
330
1F
100
AcDbEntity
  8
7__7
  6
Continuous
 62
     3
100
AcDbLine
 10
1404.565866
 20
670.281292
 30
0.0
 11
409.208821
 21
670.280292
 31
0.0
  0
ARC
  5
11D
330
1F
100
AcDbEntity
  8
7__7
  6
Continuous
 62
     6
100
AcDbCircle
 10
1381.20878
 20
669.280332
 30
0.0
 40
0.9999600000000002
100
AcDbArc
 50
90.0
 51
180.0
  0
ARC
  5
11E
330
1F
100
AcDbEntity
  8
7__7
  6
Continuous
 62
     3
100
AcDbCircle
 10
571.908213
 20
566.160414
 30
0.0
 40
19.9992
100
AcDbArc
 50
261.274323
 51
347.200562
  0
ARC
  5
11F
330
1F
100
AcDbEntity
  8
7__7
  6
Continuous
 62
     3
100
AcDbCircle
 10
1404.642901
 20
669.280292
 30
0.0
 40
1.0
100
AcDbArc
 50
8.229517
 51
90.0
  0
LINE
  5
120
330
1F
100
AcDbEntity
  8
7__7
  6
Continuous
 62
     3
100
AcDbLine
 10
1405.20882
 20
672.35359
 30
0.0
 11
1410.570656
 21
635.280323
 31
0.0
  0
ARC
  5
121
330
1F
100
AcDbEntity
  8
7__7
  6
Continuous
 62
     3
100
AcDbCircle
 10
532.609403
 20
607.119733
 30
0.0
 40
10.0
100
AcDbArc
 50
264.952581
 51
354.725639
  0
LINE
  5
122
330
1F
100
AcDbEntity
  8
7__7
  6
Continuous
 62
     3
100
AcDbLine
 10
459.97669
 20
603.49592
 30
0.0
 11
531.729601
 21
597.15851
 31
0.0
  0
LINE
  5
123
330
1F
100
AcDbEntity
  8
7__7
  6
Continuous
 62
     3
100
AcDbLine
 10
424.116124
 20
608.564717
 30
0.0
 11
533.381754
 21
608.564717
 31
0.0
  0
ARC
  5
124
330
1F
100
AcDbEntity
  8
7__7
  6
Continuous
 62
     3
100
AcDbCircle
 10
906.562826
 20
430.046673
 30
0.0
 40
527.0979152400001
100
AcDbArc
 50
32.101093
 51
147.953492
  0
LINE
  5
125
330
1F
100
AcDbEntity
  8
7__7
  6
Continuous
 62
     3
100
AcDbLine
 10
615.990676
 20
670.280323
 30
0.0
 11
590.912664
 21
559.931543
 31
0.0
  0
LINE
  5
126
330
1F
100
AcDbEntity
  8
7__7
  6
Continuous
 62
     3
100
AcDbLine
 10
568.874334
 20
546.393204
 30
0.0
 11
455.335876
 21
563.825507
 31
0.0
  0
LINE
  5
127
330
1F
100
AcDbEntity
  8
7__7
  6
Continuous
 62
     3
100
AcDbLine
 10
548.482649
 20
670.280323
 30
0.0
 11
542.567062
 21
606.200482
 31
0.0
  0
LINE
  5
128
330
1F
100
AcDbEntity
  8
7__7
  6
Continuous
 62
     3
100
AcDbLine
 10
1399.895392
 20
648.418068
 30
0.0
 11
1391.20885
 21
653.432572
 31
0.0
  0
LINE
  5
129
330
1F
100
AcDbEntity
  8
7__7
  6
Continuous
 62
     3
100
AcDbLine
 10
458.419752
 20
712.333381
 30
0.0
 11
458.551747
 21
712.534373
 31
0.0
  0
ARC
  5
12A
330
1F
100
AcDbEntity
  8
7__7
  6
Continuous
 62
     3
100
AcDbCircle
 10
1358.785736
 20
714.569292
 30
0.0
 40
4.359825600000001
100
AcDbArc
 50
213.664551
 51
274.195129
  0
ARC
  5
12B
330
1F
100
AcDbEntity
  8
7__7
  6
Continuous
 62
     3
100
AcDbCircle
 10
1358.764737
 20
714.181307
 30
0.0
 40
6.964721400000001
100
AcDbArc
 50
214.659775
 51
268.996368
  0
ARC
  5
12C
330
1F
100
AcDbEntity
  8
7__7
  6
Continuous
 62
     3
100
AcDbCircle
 10
906.734819
 20
430.718646
 30
0.0
 40
529.42782204
100
AcDbArc
 50
32.097834
 51
147.864502
  0
LINE
  5
12D
330
1F
100
AcDbEntity
  8
7__7
  6
Continuous
 62
     3
100
AcDbLine
 10
496.70882
 20
700.280323
 30
0.0
 11
496.70882
 21
671.280391
 31
0.0
  0
ARC
  5
12E
330
1F
100
AcDbEntity
  8
7__7
  6
Continuous
 62
     3
100
AcDbCircle
 10
494.215857
 20
699.280363
 30
0.0
 40
0.9999600000000002
100
AcDbArc
 50
0.0
 51
90.0
  0
ARC
  5
12F
330
1F
100
AcDbEntity
  8
7__7
  6
Continuous
 62
     3
100
AcDbCircle
 10
533.381754
 20
603.564917
 30
0.0
 40
4.9998
100
AcDbArc
 50
0.0
 51
90.0
  0
ARC
  5
130
330
1F
100
AcDbEntity
  8
7__7
  6
Continuous
 62
     3
100
AcDbCircle
 10
458.816736
 20
583.776709
 30
0.0
 40
19.9992
100
AcDbArc
 50
88.896973
 51
259.793549
  0
LINE
  5
131
330
1F
100
AcDbEntity
  8
7__7
  6
Continuous
 62
     3
100
AcDbLine
 10
504.910463
 20
485.566517
 30
0.0
 11
485.20882
 21
485.566517
 31
0.0
  0
LINE
  5
132
330
1F
100
AcDbEntity
  8
7__7
  6
Continuous
 62
     3
100
AcDbLine
 10
417.403393
 20
636.780581
 30
0.0
 11
417.403393
 21
635.280581
 31
0.0
  0
LINE
  5
133
330
1F
100
AcDbEntity
  8
7__7
  6
Continuous
 62
     3
100
AcDbLine
 10
473.532747
 20
538.566517
 30
0.0
 11
550.568993
 21
538.566517
 31
0.0
  0
CIRCLE
  5
134
330
1F
100
AcDbEntity
  8
7__7
  6
Continuous
 62
     3
100
AcDbCircle
 10
1344.707299
 20
565.682684
 30
0.0
 40
24.999
  0
CIRCLE
  5
135
330
1F
100
AcDbEntity
  8
7__7
  6
Continuous
 62
     3
100
AcDbCircle
 10
1344.707299
 20
565.682684
 30
0.0
 40
19.9992
  0
LINE
  5
136
330
1F
100
AcDbEntity
  8
7__7
  6
Continuous
 62
     3
100
AcDbLine
 10
1377.511987
 20
593.252581
 30
0.0
 11
1377.511987
 21
538.568413
 31
0.0
  0
LINE
  5
137
330
1F
100
AcDbEntity
  8
7__7
  6
Continuous
 62
     3
100
AcDbLine
 10
1374.371113
 20
538.568312
 30
0.0
 11
1374.371113
 21
593.251581
 31
0.0
  0
LINE
  5
138
330
1F
100
AcDbEntity
  8
7__7
  6
Continuous
 62
     3
100
AcDbLine
 10
1327.485988
 20
593.252581
 30
0.0
 11
1377.511987
 21
593.252581
 31
0.0
  0
CIRCLE
  5
139
330
1F
100
AcDbEntity
  8
7__7
  6
Continuous
 62
     3
100
AcDbCircle
 10
1344.707299
 20
565.682684
 30
0.0
 40
3.75884964
  0
ARC
  5
13A
330
1F
100
AcDbEntity
  8
7__7
  6
Continuous
 62
     3
100
AcDbCircle
 10
1327.485988
 20
583.252981
 30
0.0
 40
9.999600000000001
100
AcDbArc
 50
90.0
 51
180.0
  0
LINE
  5
13B
330
1F
100
AcDbEntity
  8
7__7
  6
Continuous
 62
     3
100
AcDbLine
 10
1327.486278
 20
538.566897
 30
0.0
 11
1357.566785
 21
538.567769
 31
0.0
  0
LINE
  5
13C
330
1F
100
AcDbEntity
  8
7__7
  6
Continuous
 62
     3
100
AcDbLine
 10
538.381554
 20
603.564917
 30
0.0
 11
538.381554
 21
538.172533
 31
0.0
  0
ARC
  5
13D
330
1F
100
AcDbEntity
  8
7__7
  6
Continuous
 62
     3
100
AcDbCircle
 10
1340.4589
 20
471.316517
 30
0.0
 40
0.75
100
AcDbArc
 50
270.0
 51
0.0
  0
LINE
  5
13E
330
1F
100
AcDbEntity
  8
7__7
  6
Continuous
 62
     3
100
AcDbLine
 10
486.70882
 20
470.566517
 30
0.0
 11
1340.4589
 21
470.566517
 31
0.0
  0
LINE
  5
13F
330
1F
100
AcDbEntity
  8
7__7
  6
Continuous
 62
     3
100
AcDbLine
 10
588.178624
 20
538.56645
 30
0.0
 11
1388.2089
 21
538.56745
 31
0.0
  0
ARC
  5
140
330
1F
100
AcDbEntity
  8
7__7
  6
Continuous
 62
     3
100
AcDbCircle
 10
407.70882
 20
699.280323
 30
0.0
 40
1.0
100
AcDbArc
 50
90.0
 51
180.0
  0
LINE
  5
141
330
1F
100
AcDbEntity
  8
7__7
  6
Continuous
 62
     3
100
AcDbLine
 10
406.70882
 20
636.279528
 30
0.0
 11
406.70882
 21
699.280323
 31
0.0
  0
LINE
  5
142
330
1F
100
AcDbEntity
  8
7__7
  6
Continuous
 62
     3
100
AcDbLine
 10
495.20882
 20
691.877659
 30
0.0
 11
495.20882
 21
671.780379
 31
0.0
  0
LINE
  5
143
330
1F
100
AcDbEntity
  8
7__7
  6
Continuous
 62
     3
100
AcDbLine
 10
1358.411751
 20
710.234465
 30
0.0
 11
1477.94497
 21
710.234465
 31
0.0
  0
LINE
  5
144
330
1F
100
AcDbEntity
  8
7__7
  6
Continuous
 62
     3
100
AcDbLine
 10
1482.798775
 20
706.435617
 30
0.0
 11
1491.961795
 21
670.177913
 31
0.0
  0
ARC
  5
145
330
1F
100
AcDbEntity
  8
7__7
  6
Continuous
 62
     3
100
AcDbCircle
 10
1477.94497
 20
705.234665
 30
0.0
 40
4.9998
100
AcDbArc
 50
13.897291
 51
90.0
  0
LINE
  5
146
330
1F
100
AcDbEntity
  8
7__7
  6
Continuous
 62
     3
100
AcDbLine
 10
1358.348754
 20
707.234585
 30
0.0
 11
1477.94497
 21
707.234585
 31
0.0
  0
ARC
  5
147
330
1F
100
AcDbEntity
  8
7__7
  6
Continuous
 62
     3
100
AcDbCircle
 10
1477.94497
 20
705.234665
 30
0.0
 40
1.99992
100
AcDbArc
 50
13.890294
 51
90.0
  0
LINE
  5
148
330
1F
100
AcDbEntity
  8
7__7
  6
Continuous
 62
     3
100
AcDbLine
 10
1488.868618
 20
670.179228
 30
0.0
 11
1479.885892
 21
705.714646
 31
0.0
  0
ARC
  5
149
330
1F
100
AcDbEntity
  8
7__7
  6
Continuous
 62
     3
100
AcDbCircle
 10
336.044647
 20
705.203666
 30
0.0
 40
1.99992
100
AcDbArc
 50
90.0
 51
165.79007
  0
ARC
  5
14A
330
1F
100
AcDbEntity
  8
7__7
  6
Continuous
 62
     3
100
AcDbCircle
 10
336.044647
 20
705.203666
 30
0.0
 40
4.9998
100
AcDbArc
 50
90.0
 51
165.783112
  0
LINE
  5
14B
330
1F
100
AcDbEntity
  8
7__7
  6
Continuous
 62
     3
100
AcDbLine
 10
336.044647
 20
707.203586
 30
0.0
 11
454.771898
 21
707.203586
 31
0.0
  0
LINE
  5
14C
330
1F
100
AcDbEntity
  8
7__7
  6
Continuous
 62
     3
100
AcDbLine
 10
321.8274
 20
670.203466
 30
0.0
 11
331.197841
 21
706.431617
 31
0.0
  0
LINE
  5
14D
330
1F
100
AcDbEntity
  8
7__7
  6
Continuous
 62
     3
100
AcDbLine
 10
336.044647
 20
710.203466
 30
0.0
 11
454.771898
 21
710.203466
 31
0.0
  0
LINE
  5
14E
330
1F
100
AcDbEntity
  8
7__7
  6
Continuous
 62
     3
100
AcDbLine
 10
324.922301
 20
670.203466
 30
0.0
 11
334.105725
 21
705.694647
 31
0.0
  0
LINE
  5
14F
330
1F
100
AcDbEntity
  8
7__7
  6
Continuous
 62
     3
100
AcDbLine
 10
546.781011
 20
653.566517
 30
0.0
 11
436.300095
 21
653.566517
 31
0.0
  0
CIRCLE
  5
150
330
1F
100
AcDbEntity
  8
7__7
  6
Continuous
 62
     3
100
AcDbCircle
 10
321.70882
 20
122.258747
 30
0.0
 40
2.4
  0
CIRCLE
  5
151
330
1F
100
AcDbEntity
  8
7__7
  6
Continuous
 62
     3
100
AcDbCircle
 10
1491.70882
 20
122.258747
 30
0.0
 40
2.4
  0
LINE
  5
152
330
1F
100
AcDbEntity
  8
7__7
  6
Continuous
 62
     3
100
AcDbLine
 10
321.70882
 20
122.258747
 30
0.0
 11
1491.70882
 21
122.258747
 31
0.0
  0
LINE
  5
153
330
1F
100
AcDbEntity
  8
7__7
  6
Continuous
 62
     3
100
AcDbLine
 10
321.70882
 20
412.809182
 30
0.0
 11
321.70882
 21
116.258747
 31
0.0
  0
LINE
  5
154
330
1F
100
AcDbEntity
  8
7__7
  6
Continuous
 62
     3
100
AcDbLine
 10
1491.70882
 20
419.370118
 30
0.0
 11
1491.70882
 21
116.258747
 31
0.0
  0
LINE
  5
155
330
1F
100
AcDbEntity
  8
7__7
  6
Continuous
 62
     4
100
AcDbLine
 10
423.70874
 20
498.879548
 30
0.0
 11
426.00874
 21
498.879548
 31
0.0
  0
LINE
  5
156
330
1F
100
AcDbEntity
  8
7__7
  6
Continuous
 62
     4
100
AcDbLine
 10
423.70874
 20
458.566517
 30
0.0
 11
322.70882
 21
458.566517
 31
0.0
  0
ARC
  5
157
330
1F
100
AcDbEntity
  8
7__7
  6
Continuous
 62
     4
100
AcDbCircle
 10
322.70882
 20
457.566517
 30
0.0
 40
1.0
100
AcDbArc
 50
90.0
 51
180.0
  0
LINE
  5
158
330
1F
100
AcDbEntity
  8
7__7
  6
Continuous
 62
     4
100
AcDbLine
 10
321.70882
 20
423.566517
 30
0.0
 11
321.70882
 21
457.566517
 31
0.0
  0
LINE
  5
159
330
1F
100
AcDbEntity
  8
7__7
  6
Continuous
 62
     4
100
AcDbLine
 10
423.70874
 20
498.879548
 30
0.0
 11
423.70874
 21
458.566517
 31
0.0
  0
LINE
  5
15A
330
1F
100
AcDbEntity
  8
7__7
  6
Continuous
 62
     4
100
AcDbLine
 10
324.00882
 20
456.266517
 30
0.0
 11
324.00882
 21
425.266517
 31
0.0
  0
ARC
  5
15B
330
1F
100
AcDbEntity
  8
7__7
  6
Continuous
 62
     4
100
AcDbCircle
 10
425.00874
 20
457.266517
 30
0.0
 40
1.0
100
AcDbArc
 50
270.0
 51
0.0
  0
LINE
  5
15C
330
1F
100
AcDbEntity
  8
7__7
  6
Continuous
 62
     4
100
AcDbLine
 10
324.00882
 20
456.266517
 30
0.0
 11
425.00874
 21
456.266517
 31
0.0
  0
LINE
  5
15D
330
1F
100
AcDbEntity
  8
7__7
  6
Continuous
 62
     4
100
AcDbLine
 10
321.70882
 20
425.266517
 30
0.0
 11
324.00882
 21
425.266517
 31
0.0
  0
LINE
  5
15E
330
1F
100
AcDbEntity
  8
7__7
  6
Continuous
 62
     4
100
AcDbLine
 10
391.70882
 20
456.266517
 30
0.0
 11
391.70882
 21
431.266517
 31
0.0
  0
LINE
  5
15F
330
1F
100
AcDbEntity
  8
7__7
  6
Continuous
 62
     4
100
AcDbLine
 10
394.00882
 20
431.266517
 30
0.0
 11
394.00882
 21
453.966517
 31
0.0
  0
LINE
  5
160
330
1F
100
AcDbEntity
  8
7__7
  6
Continuous
 62
     4
100
AcDbLine
 10
394.00882
 20
453.966517
 30
0.0
 11
406.70882
 21
453.966517
 31
0.0
  0
LINE
  5
161
330
1F
100
AcDbEntity
  8
7__7
  6
Continuous
 62
     4
100
AcDbLine
 10
391.70882
 20
431.266517
 30
0.0
 11
394.00882
 21
431.266517
 31
0.0
  0
LINE
  5
162
330
1F
100
AcDbEntity
  8
7__7
  6
Continuous
 62
     4
100
AcDbLine
 10
406.70882
 20
456.266517
 30
0.0
 11
406.70882
 21
453.966517
 31
0.0
  0
LINE
  5
163
330
1F
100
AcDbEntity
  8
7__7
  6
PLine2
 62
     3
100
AcDbLine
 10
1314.022286
 20
565.682684
 30
0.0
 11
1380.616319
 21
565.682684
 31
0.0
  0
LINE
  5
164
330
1F
100
AcDbEntity
  8
7__7
  6
PLine2
 62
     3
100
AcDbLine
 10
1344.706355
 20
596.305642
 30
0.0
 11
1344.706355
 21
537.91862
 31
0.0
  0
LINE
  5
165
330
1F
100
AcDbEntity
  8
7__7
  6
PLine4
 62
     3
100
AcDbLine
 10
547.928754
 20
664.280323
 30
0.0
 11
614.627108
 21
664.280323
 31
0.0
  0
LINE
  5
166
330
1F
100
AcDbEntity
  8
7__7
  6
PLine2
 62
     3
100
AcDbLine
 10
547.014533
 20
583.894293
 30
0.0
 11
602.218058
 21
571.348263
 31
0.0
  0
LINE
  5
167
330
1F
100
AcDbEntity
  8
7__7
  6
PLine2
 62
     3
100
AcDbLine
 10
580.242542
 20
605.223716
 30
0.0
 11
568.172147
 21
551.163357
 31
0.0
  0
CIRCLE
  5
168
330
1F
100
AcDbEntity
  8
7__7
  6
Continuous
 62
     3
100
AcDbCircle
 10
493.672342
 20
583.436722
 30
0.0
 40
20.99880000000005
  0
LINE
  5
169
330
1F
100
AcDbEntity
  8
7__7
  6
Continuous
 62
     3
100
AcDbLine
 10
508.031435
 20
598.760332
 30
0.0
 11
628.628625
 21
489.946803
 31
0.0
  0
LINE
  5
16A
330
1F
100
AcDbEntity
  8
7__7
  6
Continuous
 62
     3
100
AcDbLine
 10
633.993714
 20
497.227995
 30
0.0
 11
628.628625
 21
489.946803
 31
0.0
  0
LINE
  5
16B
330
1F
100
AcDbEntity
  8
7__7
  6
Continuous
 62
     3
100
AcDbLine
 10
1328.20882
 20
485.564926
 30
0.0
 11
514.78131
 21
485.565924
 31
0.0
  0
CIRCLE
  5
16C
330
1F
100
AcDbEntity
  8
7__7
  6
Continuous
 62
     3
100
AcDbCircle
 10
458.959731
 20
583.564971
 30
0.0
 40
9.543364238502921
  0
LINE
  5
16D
330
1F
100
AcDbEntity
  8
7__7
  6
Continuous
 62
     3
100
AcDbLine
 10
475.336123
 20
573.152877
 30
0.0
 11
525.23032
 21
462.364186
 31
0.0
  0
LINE
  5
16E
330
1F
100
AcDbEntity
  8
7__7
  6
PLine2
 62
     3
100
AcDbLine
 10
451.668649
 20
503.321927
 30
0.0
 11
499.870862
 21
503.321927
 31
0.0
  0
INSERT
  5
178
330
1F
100
AcDbEntity
  8
7__7
  6
Continuous
 62
     3
100
AcDbBlockReference
  2
DIM_0
 10
390.880663
 20
653.566517
 30
0.0
  0
LINE
  5
179
330
1F
100
AcDbEntity
  8
7__7
  6
Continuous
 62
     6
100
AcDbLine
 10
1389.617856
 20
653.103232
 30
0.0
 11
1385.691853
 21
651.776033
 31
0.0
  0
ARC
  5
17A
330
1F
100
AcDbEntity
  8
7__7
  6
Continuous
 62
     6
100
AcDbCircle
 10
1390.909966
 20
651.57665
 30
0.0
 40
2.0
100
AcDbArc
 50
60.774358
 51
130.244823
  0
INSERT
  5
184
330
1F
100
AcDbEntity
  8
7__7
  6
Continuous
 62
     3
100
AcDbBlockReference
  2
DIM_1
 10
655.918741
 20
485.565744
 30
0.0
  0
LINE
  5
185
330
1F
100
AcDbEntity
  8
7__7
  6
Continuous
 62
     3
100
AcDbLine
 10
408.20882
 20
698.673387
 30
0.0
 11
408.20882
 21
636.77962
 31
0.0
  0
LINE
  5
186
330
1F
100
AcDbEntity
  8
7__7
  6
Continuous
 62
     3
100
AcDbLine
 10
409.70882
 20
698.673387
 30
0.0
 11
409.70882
 21
671.780292
 31
0.0
  0
LINE
  5
187
330
1F
100
AcDbEntity
  8
7__7
  6
Continuous
 62
     3
100
AcDbLine
 10
417.403236
 20
636.780581
 30
0.0
 11
408.20882
 21
636.77962
 31
0.0
  0
LINE
  5
188
330
1F
100
AcDbEntity
  8
7__7
  6
Continuous
 62
     3
100
AcDbLine
 10
409.70882
 20
671.780292
 30
0.0
 11
495.20882
 21
671.780379
 31
0.0
  0
INSERT
  5
192
330
1F
100
AcDbEntity
  8
7__7
  6
Continuous
 62
     3
100
AcDbBlockReference
  2
DIM_2
 10
406.70882
 20
626.898021
 30
0.0
  0
LINE
  5
193
330
1F
100
AcDbEntity
  8
7__7
  6
Continuous
 62
     3
100
AcDbLine
 10
1406.70882
 20
672.461499
 30
0.0
 11
1412.05521
 21
635.495031
 31
0.0
  0
ARC
  5
194
330
1F
100
AcDbEntity
  8
7__7
  6
Continuous
 62
     6
100
AcDbCircle
 10
1385.045798
 20
652.539324
 30
0.0
 40
1.0
100
AcDbArc
 50
269.97787
 51
310.244823
  0
ARC
  5
195
330
1F
100
AcDbEntity
  8
7__7
  6
Continuous
 62
     3
100
AcDbCircle
 10
438.039598
 20
620.909203
 30
0.0
 40
0.75
100
AcDbArc
 50
180.0
 51
269.999488
  0
LINE
  5
196
330
1F
100
AcDbEntity
  8
7__7
  6
Continuous
 62
     3
100
AcDbLine
 10
550.568012
 20
620.158198
 30
0.0
 11
438.039591
 21
620.159203
 31
0.0
  0
LINE
  5
197
330
1F
100
AcDbEntity
  8
7__7
  6
Continuous
 62
     3
100
AcDbLine
 10
550.568012
 20
620.158198
 30
0.0
 11
550.568993
 21
538.566517
 31
0.0
  0
CIRCLE
  5
198
330
1F
100
AcDbEntity
  8
7__7
  6
Continuous
 62
     3
100
AcDbCircle
 10
456.70882
 20
1115.304241
 30
0.0
 40
3.0
  0
CIRCLE
  5
199
330
1F
100
AcDbEntity
  8
7__7
  6
Continuous
 62
     3
100
AcDbCircle
 10
1356.70882
 20
1115.304241
 30
0.0
 40
3.0
  0
LINE
  5
19A
330
1F
100
AcDbEntity
  8
7__7
  6
Continuous
 62
     3
100
AcDbLine
 10
456.70882
 20
1115.304241
 30
0.0
 11
1356.70882
 21
1115.304241
 31
0.0
  0
LINE
  5
19B
330
1F
100
AcDbEntity
  8
7__7
  6
Continuous
 62
     3
100
AcDbLine
 10
456.70882
 20
728.433697
 30
0.0
 11
456.70882
 21
1121.304241
 31
0.0
  0
LINE
  5
19C
330
1F
100
AcDbEntity
  8
7__7
  6
Continuous
 62
     3
100
AcDbLine
 10
1356.70882
 20
734.062215
 30
0.0
 11
1356.70882
 21
1121.304241
 31
0.0
  0
INSERT
  5
1A6
330
1F
100
AcDbEntity
  8
7__7
  6
Continuous
 62
     3
100
AcDbBlockReference
  2
DIM_3
 10
476.70882
 20
727.801549
 30
0.0
  0
ARC
  5
1A7
330
1F
100
AcDbEntity
  8
7__7
  6
Continuous
 62
     3
100
AcDbCircle
 10
454.450911
 20
714.888279
 30
0.0
 40
4.71781128
100
AcDbArc
 50
274.543469
 51
326.602966
  0
ARC
  5
1A8
330
1F
100
AcDbEntity
  8
7__7
  6
Continuous
 62
     3
100
AcDbCircle
 10
454.569906
 20
713.802323
 30
0.0
 40
6.617735280000001
100
AcDbArc
 50
271.983002
 51
322.209029
  0
LINE
  5
1A9
330
1F
100
AcDbEntity
  8
7__7
  6
PLine2
 62
     3
100
AcDbLine
 10
421.70882
 20
729.608904
 30
0.0
 11
421.70882
 21
688.365322
 31
0.0
  0
LINE
  5
1AA
330
1F
100
AcDbEntity
  8
7__7
  6
Continuous
 62
     3
100
AcDbLine
 10
438.789598
 20
646.659198
 30
0.0
 11
438.789598
 21
621.659196
 31
0.0
  0
LINE
  5
1AB
330
1F
100
AcDbEntity
  8
7__7
  6
Continuous
 62
     3
100
AcDbLine
 10
1410.570656
 20
635.280323
 30
0.0
 11
1391.70882
 21
635.280323
 31
0.0
  0
LINE
  5
1AC
330
1F
100
AcDbEntity
  8
7__7
  6
Continuous
 62
     3
100
AcDbLine
 10
1410.570656
 20
635.280323
 30
0.0
 11
1412.05521
 21
635.495031
 31
0.0
  0
LINE
  5
1AD
330
1F
100
AcDbEntity
  8
7__7
  6
Continuous
 62
     3
100
AcDbLine
 10
1367.70882
 20
505.068064
 30
0.0
 11
1367.70882
 21
556.500267
 31
0.0
  0
LINE
  5
1AE
330
1F
100
AcDbEntity
  8
7__7
  6
Continuous
 62
     3
100
AcDbLine
 10
1365.70882
 20
505.068064
 30
0.0
 11
1365.70882
 21
551.742656
 31
0.0
  0
CIRCLE
  5
1AF
330
1F
100
AcDbEntity
  8
7__7
  6
Continuous
 62
     3
100
AcDbCircle
 10
486.70882
 20
334.449164
 30
0.0
 40
2.4
  0
CIRCLE
  5
1B0
330
1F
100
AcDbEntity
  8
7__7
  6
Continuous
 62
     3
100
AcDbCircle
 10
1326.70882
 20
334.449164
 30
0.0
 40
2.4
  0
LINE
  5
1B1
330
1F
100
AcDbEntity
  8
7__7
  6
Continuous
 62
     3
100
AcDbLine
 10
486.70882
 20
334.449164
 30
0.0
 11
1326.70882
 21
334.449164
 31
0.0
  0
LINE
  5
1B2
330
1F
100
AcDbEntity
  8
7__7
  6
Continuous
 62
     3
100
AcDbLine
 10
486.70882
 20
349.239248
 30
0.0
 11
486.70882
 21
328.449164
 31
0.0
  0
LINE
  5
1B3
330
1F
100
AcDbEntity
  8
7__7
  6
Continuous
 62
     3
100
AcDbLine
 10
1326.70882
 20
458.882788
 30
0.0
 11
1326.70882
 21
328.449164
 31
0.0
  0
INSERT
  5
1BD
330
1F
100
AcDbEntity
  8
7__7
  6
Continuous
 62
     3
100
AcDbBlockReference
  2
DIM_4
 10
321.70882
 20
312.907928
 30
0.0
  0
INSERT
  5
1C7
330
1F
100
AcDbEntity
  8
7__7
  6
Continuous
 62
     3
100
AcDbBlockReference
  2
DIM_5
 10
1326.70882
 20
344.008495
 30
0.0
  0
ARC
  5
1C8
330
1F
100
AcDbEntity
  8
7__7
  6
Continuous
 62
     3
100
AcDbCircle
 10
307.45882
 20
436.316517
 30
0.0
 40
0.75
100
AcDbArc
 50
180.0
 51
270.0
  0
LINE
  5
1C9
330
1F
100
AcDbEntity
  8
7__7
  6
Continuous
 62
     3
100
AcDbLine
 10
319.70882
 20
435.566517
 30
0.0
 11
307.45882
 21
435.566517
 31
0.0
  0
ARC
  5
1CA
330
1F
100
AcDbEntity
  8
7__7
  6
Continuous
 62
     3
100
AcDbCircle
 10
307.45882
 20
470.23608
 30
0.0
 40
0.75
100
AcDbArc
 50
98.743564
 51
180.0
  0
LINE
  5
1CB
330
1F
100
AcDbEntity
  8
7__7
  6
Continuous
 62
     3
100
AcDbLine
 10
306.70882
 20
470.23608
 30
0.0
 11
306.70882
 21
436.316517
 31
0.0
  0
LINE
  5
1CC
330
1F
100
AcDbEntity
  8
7__7
  6
Continuous
 62
     3
100
AcDbLine
 10
421.70882
 20
488.566517
 30
0.0
 11
307.344811
 21
470.977363
 31
0.0
  0
LINE
  5
1CD
330
1F
100
AcDbEntity
  8
7__7
  6
Continuous
 62
     3
100
AcDbLine
 10
308.70882
 20
469.168241
 30
0.0
 11
308.70882
 21
437.566517
 31
0.0
  0
LINE
  5
1CE
330
1F
100
AcDbEntity
  8
7__7
  6
Continuous
 62
     3
100
AcDbLine
 10
308.70882
 20
437.566517
 30
0.0
 11
320.95882
 21
437.566517
 31
0.0
  0
ARC
  5
1CF
330
1F
100
AcDbEntity
  8
7__7
  6
Continuous
 62
     3
100
AcDbCircle
 10
320.95882
 20
436.816517
 30
0.0
 40
0.75
100
AcDbArc
 50
0.0
 51
90.0
  0
LINE
  5
1D0
330
1F
100
AcDbEntity
  8
7__7
  6
Continuous
 62
     3
100
AcDbLine
 10
321.70882
 20
423.566517
 30
0.0
 11
321.70882
 21
436.816517
 31
0.0
  0
LINE
  5
1D1
330
1F
100
AcDbEntity
  8
7__7
  6
Continuous
 62
     3
100
AcDbLine
 10
319.70882
 20
423.566517
 30
0.0
 11
321.70882
 21
423.566517
 31
0.0
  0
LINE
  5
1D2
330
1F
100
AcDbEntity
  8
7__7
  6
Continuous
 62
     3
100
AcDbLine
 10
319.70882
 20
435.566517
 30
0.0
 11
319.70882
 21
422.374768
 31
0.0
  0
INSERT
  5
1DB
330
1F
100
AcDbEntity
  8
7__7
  6
Continuous
 62
     3
100
AcDbBlockReference
  2
DIM_6
 10
306.70882
 20
410.743584
 30
0.0
  0
CIRCLE
  5
1DC
330
1F
100
AcDbEntity
  8
7__7
  6
Continuous
 62
     3
100
AcDbCircle
 10
198.083268
 20
960.203466
 30
0.0
 40
3.0
  0
CIRCLE
  5
1DD
330
1F
100
AcDbEntity
  8
7__7
  6
Continuous
 62
     3
100
AcDbCircle
 10
198.083268
 20
710.203466
 30
0.0
 40
3.0
  0
LINE
  5
1DE
330
1F
100
AcDbEntity
  8
7__7
  6
Continuous
 62
     3
100
AcDbLine
 10
198.083268
 20
960.203466
 30
0.0
 11
198.083268
 21
710.203466
 31
0.0
  0
LINE
  5
1DF
330
1F
100
AcDbEntity
  8
7__7
  6
Continuous
 62
     3
100
AcDbLine
 10
848.213965
 20
960.203466
 30
0.0
 11
192.083268
 21
960.203466
 31
0.0
  0
LINE
  5
1E0
330
1F
100
AcDbEntity
  8
7__7
  6
Continuous
 62
     3
100
AcDbLine
 10
316.654677
 20
710.203466
 30
0.0
 11
192.083268
 21
710.203466
 31
0.0
  0
INSERT
  5
1E9
330
1F
100
AcDbEntity
  8
7__7
  6
Continuous
 62
     3
100
AcDbBlockReference
  2
DIM_7
 10
316.654677
 20
710.203466
 30
0.0
  0
INSERT
  5
1F2
330
1F
100
AcDbEntity
  8
7__7
  6
Continuous
 62
     3
100
AcDbBlockReference
  2
DIM_8
 10
1506.70882
 20
410.894402
 30
0.0
  0
TEXT
  5
1F3
330
1F
100
AcDbEntity
  8
7__7
  6
Continuous
 62
     3
100
AcDbText
 10
1277.304324
 20
65.544496
 30
0.0
 40
18.0
  1
注、図中数字で示す寸法は全種共通です
 41
0.858268
  7
BIGFONT
100
AcDbText
  0
LINE
  5
1F4
330
1F
100
AcDbEntity
  8
7__7
  6
Continuous
 62
     1
100
AcDbLine
 10
1583.269376
 20
48.145636
 30
0.0
 11
1943.269376
 21
48.145636
 31
0.0
  0
LINE
  5
1F5
330
1F
100
AcDbEntity
  8
7__7
  6
Continuous
 62
     3
100
AcDbLine
 10
2123.213598
 20
168.145636
 30
0.0
 11
2123.213598
 21
48.145636
 31
0.0
  0
LINE
  5
1F6
330
1F
100
AcDbEntity
  8
7__7
  6
Continuous
 62
     3
100
AcDbLine
 10
2063.213598
 20
168.145636
 30
0.0
 11
2063.213598
 21
48.145636
 31
0.0
  0
LINE
  5
1F7
330
1F
100
AcDbEntity
  8
7__7
  6
Continuous
 62
     3
100
AcDbLine
 10
2003.213598
 20
168.145636
 30
0.0
 11
2003.213598
 21
48.145636
 31
0.0
  0
LINE
  5
1F8
330
1F
100
AcDbEntity
  8
7__7
  6
Continuous
 62
     3
100
AcDbLine
 10
1943.213598
 20
168.145636
 30
0.0
 11
1943.213598
 21
48.145636
 31
0.0
  0
LINE
  5
1F9
330
1F
100
AcDbEntity
  8
7__7
  6
Continuous
 62
     1
100
AcDbLine
 10
1571.213598
 20
168.145636
 30
0.0
 11
1571.213598
 21
48.145636
 31
0.0
  0
LINE
  5
1FA
330
1F
100
AcDbEntity
  8
7__7
  6
Continuous
 62
     1
100
AcDbLine
 10
1571.213598
 20
48.145636
 30
0.0
 11
2453.213598
 21
48.145636
 31
0.0
  0
LINE
  5
1FB
330
1F
100
AcDbEntity
  8
7__7
  6
Continuous
 62
     1
100
AcDbLine
 10
2453.213598
 20
48.145636
 30
0.0
 11
2453.213598
 21
168.145636
 31
0.0
  0
LINE
  5
1FC
330
1F
100
AcDbEntity
  8
7__7
  6
Continuous
 62
     1
100
AcDbLine
 10
2453.213598
 20
168.145636
 30
0.0
 11
1571.213598
 21
168.145636
 31
0.0
  0
LINE
  5
1FD
330
1F
100
AcDbEntity
  8
7__7
  6
Continuous
 62
     2
100
AcDbLine
 10
1614.360916
 20
134.64858
 30
0.0
 11
1625.433104
 21
145.720767
 31
0.0
  0
LINE
  5
1FE
330
1F
100
AcDbEntity
  8
7__7
  6
Continuous
 62
     2
100
AcDbLine
 10
1614.360916
 20
118.990141
 30
0.0
 11
1614.360916
 21
134.64858
 31
0.0
  0
LINE
  5
1FF
330
1F
100
AcDbEntity
  8
7__7
  6
Continuous
 62
     2
100
AcDbLine
 10
1611.960916
 20
134.64858
 30
0.0
 11
1611.960916
 21
118.990141
 31
0.0
  0
LINE
  5
200
330
1F
100
AcDbEntity
  8
7__7
  6
Continuous
 62
     2
100
AcDbLine
 10
1600.888728
 20
145.720767
 30
0.0
 11
1611.960916
 21
134.64858
 31
0.0
  0
LINE
  5
201
330
1F
100
AcDbEntity
  8
7__7
  6
Continuous
 62
     2
100
AcDbLine
 10
1637.160916
 20
135.145636
 30
0.0
 11
1632.924519
 21
133.945636
 31
0.0
  0
LINE
  5
202
330
1F
100
AcDbEntity
  8
7__7
  6
Continuous
 62
     2
100
AcDbLine
 10
1637.160916
 20
135.145636
 30
0.0
 11
1632.960916
 21
135.145636
 31
0.0
  0
LINE
  5
203
330
1F
100
AcDbEntity
  8
7__7
  6
Continuous
 62
     2
100
AcDbLine
 10
1632.924519
 20
136.345636
 30
0.0
 11
1637.160916
 21
135.145636
 31
0.0
  0
LINE
  5
204
330
1F
100
AcDbEntity
  8
7__7
  6
Continuous
 62
     2
100
AcDbLine
 10
1613.160916
 20
111.145636
 30
0.0
 11
1613.160916
 21
115.345636
 31
0.0
  0
LINE
  5
205
330
1F
100
AcDbEntity
  8
7__7
  6
Continuous
 62
     2
100
AcDbLine
 10
1613.160916
 20
111.145636
 30
0.0
 11
1614.360916
 21
115.382033
 31
0.0
  0
LINE
  5
206
330
1F
100
AcDbEntity
  8
7__7
  6
Continuous
 62
     2
100
AcDbLine
 10
1613.160916
 20
111.145636
 30
0.0
 11
1611.960916
 21
115.382033
 31
0.0
  0
LINE
  5
207
330
1F
100
AcDbEntity
  8
7__7
  6
Continuous
 62
     2
100
AcDbLine
 10
1589.160916
 20
135.145636
 30
0.0
 11
1593.397313
 21
133.945636
 31
0.0
  0
LINE
  5
208
330
1F
100
AcDbEntity
  8
7__7
  6
Continuous
 62
     2
100
AcDbLine
 10
1589.160916
 20
135.145636
 30
0.0
 11
1593.360916
 21
135.145636
 31
0.0
  0
LINE
  5
209
330
1F
100
AcDbEntity
  8
7__7
  6
Continuous
 62
     2
100
AcDbLine
 10
1589.160916
 20
135.145636
 30
0.0
 11
1593.397313
 21
136.345636
 31
0.0
  0
LINE
  5
20A
330
1F
100
AcDbEntity
  8
7__7
  6
Continuous
 62
     2
100
AcDbLine
 10
1613.160916
 20
159.145636
 30
0.0
 11
1614.360916
 21
154.909239
 31
0.0
  0
LINE
  5
20B
330
1F
100
AcDbEntity
  8
7__7
  6
Continuous
 62
     2
100
AcDbLine
 10
1613.160916
 20
159.145636
 30
0.0
 11
1611.960916
 21
154.909239
 31
0.0
  0
LINE
  5
20C
330
1F
100
AcDbEntity
  8
7__7
  6
Continuous
 62
     2
100
AcDbLine
 10
1613.160916
 20
159.145636
 30
0.0
 11
1613.160916
 21
154.945636
 31
0.0
  0
LINE
  5
20D
330
1F
100
AcDbEntity
  8
7__7
  6
Continuous
 62
     2
100
AcDbLine
 10
1613.160916
 20
136.842692
 30
0.0
 11
1602.585784
 21
147.417824
 31
0.0
  0
LINE
  5
20E
330
1F
100
AcDbEntity
  8
7__7
  6
Continuous
 62
     2
100
AcDbLine
 10
1623.736047
 20
147.417824
 30
0.0
 11
1613.160916
 21
136.842692
 31
0.0
  0
LINE
  5
20F
330
1F
100
AcDbEntity
  8
7__7
  6
Continuous
 62
     2
100
AcDbLine
 10
1613.160916
 20
135.145636
 30
0.0
 11
1624.616046
 21
146.600766
 31
0.0
  0
LINE
  5
210
330
1F
100
AcDbEntity
  8
7__7
  6
Continuous
 62
     2
100
AcDbLine
 10
1613.160916
 20
135.145636
 30
0.0
 11
1613.160916
 21
118.945636
 31
0.0
  0
LINE
  5
211
330
1F
100
AcDbEntity
  8
7__7
  6
Continuous
 62
     2
100
AcDbLine
 10
1601.705786
 20
146.600766
 30
0.0
 11
1613.160916
 21
135.145636
 31
0.0
  0
ARC
  5
212
330
1F
100
AcDbEntity
  8
7__7
  6
Continuous
 62
     2
100
AcDbCircle
 10
1613.160916
 20
135.145636
 30
0.0
 40
13.7999999999675
100
AcDbArc
 50
62.718932
 51
117.281068
  0
ARC
  5
213
330
1F
100
AcDbEntity
  8
7__7
  6
Continuous
 62
     2
100
AcDbCircle
 10
1613.160916
 20
135.145636
 30
0.0
 40
16.20000000003378
100
AcDbArc
 50
60.026114
 51
119.973886
  0
ARC
  5
214
330
1F
100
AcDbEntity
  8
7__7
  6
Continuous
 62
     2
100
AcDbCircle
 10
1613.160916
 20
135.145636
 30
0.0
 40
16.20000000003327
100
AcDbArc
 50
285.026114
 51
29.973886
  0
ARC
  5
215
330
1F
100
AcDbEntity
  8
7__7
  6
Continuous
 62
     2
100
AcDbCircle
 10
1613.160916
 20
135.145636
 30
0.0
 40
13.79999999999529
100
AcDbArc
 50
287.718932
 51
27.281068
  0
ARC
  5
216
330
1F
100
AcDbEntity
  8
7__7
  6
Continuous
 62
     2
100
AcDbCircle
 10
1613.160916
 20
135.145636
 30
0.0
 40
13.79999999999453
100
AcDbArc
 50
152.718932
 51
252.281068
  0
ARC
  5
217
330
1F
100
AcDbEntity
  8
7__7
  6
Continuous
 62
     2
100
AcDbCircle
 10
1613.160916
 20
135.145636
 30
0.0
 40
16.20000000001588
100
AcDbArc
 50
150.026114
 51
254.973886
  0
CIRCLE
  5
218
330
1F
100
AcDbEntity
  8
7__7
  6
Continuous
 62
     2
100
AcDbCircle
 10
1613.160916
 20
135.145636
 30
0.0
 40
19.80000000000007
  0
CIRCLE
  5
219
330
1F
100
AcDbEntity
  8
7__7
  6
Continuous
 62
     2
100
AcDbCircle
 10
1613.160916
 20
135.145636
 30
0.0
 40
22.19999999999993
  0
TEXT
  5
21A
330
1F
100
AcDbEntity
  8
7__7
  6
Continuous
 62
     3
100
AcDbText
 10
1653.582492
 20
59.950624
 30
0.0
 40
18.0
  1
電話　０３－３６８５－３４５１（代）
 41
0.858268
  7
BIGFONT
100
AcDbText
  0
TEXT
  5
21B
330
1F
100
AcDbEntity
  8
7__7
  6
Continuous
 62
     3
100
AcDbText
 10
1654.365636
 20
84.55213
 30
0.0
 40
18.0
  1
本社　東京都江東区亀戸６－２０－７
 41
0.858268
  7
BIGFONT
100
AcDbText
  0
ARC
  5
21C
330
1F
100
AcDbEntity
  8
7__7
  6
Continuous
 62
     2
100
AcDbCircle
 10
1613.160916
 20
135.145636
 30
0.0
 40
15.00000000000333
100
AcDbArc
 50
151.260205
 51
253.739795
  0
ARC
  5
21D
330
1F
100
AcDbEntity
  8
7__7
  6
Continuous
 62
     2
100
AcDbCircle
 10
1613.160916
 20
135.145636
 30
0.0
 40
14.99999999997434
100
AcDbArc
 50
286.260205
 51
28.739795
  0
ARC
  5
21E
330
1F
100
AcDbEntity
  8
7__7
  6
Continuous
 62
     2
100
AcDbCircle
 10
1613.160916
 20
135.145636
 30
0.0
 40
14.99999999996777
100
AcDbArc
 50
61.260205
 51
118.739795
  0
CIRCLE
  5
21F
330
1F
100
AcDbEntity
  8
7__7
  6
Continuous
 62
     2
100
AcDbCircle
 10
1613.160916
 20
135.145636
 30
0.0
 40
21.0
  0
TEXT
  5
220
330
1F
100
AcDbEntity
  8
7__7
  6
Continuous
 62
     1
100
AcDbText
 10
1650.831336
 20
114.16156
 30
0.0
 40
42.0
  1
三洋工業株式会社
 41
0.858268
  7
BIGFONT
100
AcDbText
  0
TEXT
  5
221
330
1F
100
AcDbEntity
  8
7__7
  6
Continuous
 62
     3
100
AcDbText
 10
2019.217932
 20
115.80841
 30
0.0
 40
18.0
  1
ｍｍ
 41
0.858268
  7
BIGFONT
100
AcDbText
  0
TEXT
  5
222
330
1F
100
AcDbEntity
  8
7__7
  6
Continuous
 62
     2
100
AcDbText
 10
2093.104692
 20
93.664738
 30
0.0
 40
18.0
  1
図番
 41
0.858268
  7
BIG VER
100
AcDbText
  0
TEXT
  5
223
330
1F
100
AcDbEntity
  8
7__7
  6
Continuous
 62
     2
100
AcDbText
 10
2093.104692
 20
155.90632
 30
0.0
 40
18.0
  1
形名
 41
0.858268
  7
BIG VER
100
AcDbText
  0
TEXT
  5
224
330
1F
100
AcDbEntity
  8
7__7
  6
Continuous
 62
     2
100
AcDbText
 10
1974.89305
 20
95.183036
 30
0.0
 40
18.0
  1
製図
 41
0.858268
  7
BIG VER
100
AcDbText
  0
TEXT
  5
225
330
1F
100
AcDbEntity
  8
7__7
  6
Continuous
 62
     2
100
AcDbText
 10
1974.89305
 20
154.831292
 30
0.0
 40
18.0
  1
単位
 41
0.858268
  7
BIG VER
100
AcDbText
  0
LINE
  5
226
330
1F
100
AcDbEntity
  8
7__7
  6
Continuous
 62
     3
100
AcDbLine
 10
1943.213598
 20
108.145636
 30
0.0
 11
2453.213598
 21
108.145636
 31
0.0
  0
TEXT
  5
227
330
1F
100
AcDbEntity
  8
7__7
  6
Continuous
 62
     2
100
AcDbText
 10
2135.803566
 20
111.972991
 30
0.0
 40
21.0
  1
ＬＭ－Ｓ型　ステンレスタイプ
 41
0.858268
  7
BIGFONT
100
AcDbText
  0
TEXT
  5
228
330
1F
100
AcDbEntity
  8
7__7
  6
Continuous
 62
     2
100
AcDbText
 10
2175.905953
 20
66.61134
 30
0.0
 40
24.0
  1
Ｈ－１２－ＬＭ－６５
 41
0.858268
  7
BIGFONT
100
AcDbText
  0
LINE
  5
229
330
1F
100
AcDbEntity
  8
7__7
  6
Continuous
 62
     2
100
AcDbLine
 10
1551.243629
 20
1638.814633
 30
0.0
 11
1551.243629
 21
1537.302409
 31
0.0
  0
TEXT
  5
22A
330
1F
100
AcDbEntity
  8
7__7
  6
Continuous
 62
     3
100
AcDbText
 10
1561.716989
 20
1593.269081
 30
0.0
 40
16.3128
  1
　ＬＭ－　６００Ｓ
 41
0.858268
  7
BIGFONT
100
AcDbText
  0
TEXT
  5
22B
330
1F
100
AcDbEntity
  8
7__7
  6
Continuous
 62
     3
100
AcDbText
 10
1576.688145
 20
1567.608227
 30
0.0
 40
16.3128
  1
ＬＭ－　９００Ｓ
 41
0.858268
  7
BIGFONT
100
AcDbText
  0
TEXT
  5
22C
330
1F
100
AcDbEntity
  8
7__7
  6
Continuous
 62
     3
100
AcDbText
 10
1576.920206
 20
1541.851644
 30
0.0
 40
16.3128
  1
ＬＭ－１３００Ｓ
 41
0.858268
  7
BIGFONT
100
AcDbText
  0
TEXT
  5
22D
330
1F
100
AcDbEntity
  8
7__7
  6
Continuous
 62
     3
100
AcDbText
 10
1581.889523
 20
1628.919092
 30
0.0
 40
16.3128
  1
型
 41
0.858268
  7
BIGFONT
100
AcDbText
  0
TEXT
  5
22E
330
1F
100
AcDbEntity
  8
7__7
  6
Continuous
 62
     3
100
AcDbText
 10
1666.000346
 20
1630.280681
 30
0.0
 40
16.3128
  1
式
 41
0.858268
  7
BIGFONT
100
AcDbText
  0
LINE
  5
22F
330
1F
100
AcDbEntity
  8
7__7
  6
Continuous
 62
     2
100
AcDbLine
 10
1706.705444
 20
1638.814633
 30
0.0
 11
1706.705444
 21
1537.302409
 31
0.0
  0
LINE
  5
230
330
1F
100
AcDbEntity
  8
7__7
  6
Continuous
 62
     3
100
AcDbLine
 10
1781.278244
 20
1638.814633
 30
0.0
 11
1781.278244
 21
1537.302409
 31
0.0
  0
LINE
  5
231
330
1F
100
AcDbEntity
  8
7__7
  6
Continuous
 62
     3
100
AcDbLine
 10
1855.851044
 20
1638.814633
 30
0.0
 11
1855.851044
 21
1537.302409
 31
0.0
  0
LINE
  5
232
330
1F
100
AcDbEntity
  8
7__7
  6
Continuous
 62
     3
100
AcDbLine
 10
1930.423844
 20
1638.814633
 30
0.0
 11
1930.423844
 21
1537.302409
 31
0.0
  0
LINE
  5
233
330
1F
100
AcDbEntity
  8
7__7
  6
Continuous
 62
     3
100
AcDbLine
 10
2146.940423
 20
1638.814633
 30
0.0
 11
2146.940423
 21
1537.302409
 31
0.0
  0
TEXT
  5
234
330
1F
100
AcDbEntity
  8
7__7
  6
Continuous
 62
     3
100
AcDbText
 10
1740.297334
 20
1617.777754
 30
0.0
 40
16.3128
  1
Ａ
 41
0.858268
  7
BIGFONT
100
AcDbText
  0
TEXT
  5
235
330
1F
100
AcDbEntity
  8
7__7
  6
Continuous
 62
     3
100
AcDbText
 10
1812.348212
 20
1616.463986
 30
0.0
 40
16.3128
  1
Ｗ
 41
0.858268
  7
BIGFONT
100
AcDbText
  0
TEXT
  5
236
330
1F
100
AcDbEntity
  8
7__7
  6
Continuous
 62
     3
100
AcDbText
 10
1886.787309
 20
1617.120833
 30
0.0
 40
16.3128
  1
Ｓ
 41
0.858268
  7
BIGFONT
100
AcDbText
  0
TEXT
  5
237
330
1F
100
AcDbEntity
  8
7__7
  6
Continuous
 62
     3
100
AcDbText
 10
2067.679635
 20
1617.666878
 30
0.0
 40
16.3128
  1
Ｈ
 41
0.858268
  7
BIGFONT
100
AcDbText
  0
TEXT
  5
238
330
1F
100
AcDbEntity
  8
7__7
  6
Continuous
 62
     3
100
AcDbText
 10
2230.260875
 20
1629.220526
 30
0.0
 40
16.3128
  1
排煙面積
 41
0.858268
  7
BIGFONT
100
AcDbText
  0
TEXT
  5
239
330
1F
100
AcDbEntity
  8
7__7
  6
Continuous
 62
     3
100
AcDbText
 10
1730.603289
 20
1592.283742
 30
0.0
 40
16.3128
  1
６００
 41
0.858268
  7
BIGFONT
100
AcDbText
  0
TEXT
  5
23A
330
1F
100
AcDbEntity
  8
7__7
  6
Continuous
 62
     3
100
AcDbText
 10
1729.728961
 20
1566.574522
 30
0.0
 40
16.3128
  1
９００
 41
0.858268
  7
BIGFONT
100
AcDbText
  0
TEXT
  5
23B
330
1F
100
AcDbEntity
  8
7__7
  6
Continuous
 62
     3
100
AcDbText
 10
1716.266864
 20
1541.155185
 30
0.0
 40
16.3128
  1
１３００
 41
0.858268
  7
BIGFONT
100
AcDbText
  0
TEXT
  5
23C
330
1F
100
AcDbEntity
  8
7__7
  6
Continuous
 62
     3
100
AcDbText
 10
1803.488595
 20
1592.302446
 30
0.0
 40
16.3128
  1
８７０
 41
0.858268
  7
BIGFONT
100
AcDbText
  0
TEXT
  5
23D
330
1F
100
AcDbEntity
  8
7__7
  6
Continuous
 62
     3
100
AcDbText
 10
1790.274416
 20
1566.715837
 30
0.0
 40
16.3128
  1
１１７０
 41
0.858268
  7
BIGFONT
100
AcDbText
  0
TEXT
  5
23E
330
1F
100
AcDbEntity
  8
7__7
  6
Continuous
 62
     3
100
AcDbText
 10
1790.242126
 20
1541.581541
 30
0.0
 40
16.3128
  1
１５７０
 41
0.858268
  7
BIGFONT
100
AcDbText
  0
TEXT
  5
23F
330
1F
100
AcDbEntity
  8
7__7
  6
Continuous
 62
     3
100
AcDbText
 10
1878.916666
 20
1592.302446
 30
0.0
 40
16.3128
  1
５４０
 41
0.858268
  7
BIGFONT
100
AcDbText
  0
TEXT
  5
240
330
1F
100
AcDbEntity
  8
7__7
  6
Continuous
 62
     3
100
AcDbText
 10
1878.916666
 20
1567.71405
 30
0.0
 40
16.3128
  1
８４０
 41
0.858268
  7
BIGFONT
100
AcDbText
  0
TEXT
  5
241
330
1F
100
AcDbEntity
  8
7__7
  6
Continuous
 62
     3
100
AcDbText
 10
1864.840104
 20
1540.691995
 30
0.0
 40
16.3128
  1
１２４０
 41
0.858268
  7
BIGFONT
100
AcDbText
  0
TEXT
  5
242
330
1F
100
AcDbEntity
  8
7__7
  6
Continuous
 62
     3
100
AcDbText
 10
2022.286901
 20
1591.984402
 30
0.0
 40
16.3128
  1
１８０
 41
0.858268
  7
BIGFONT
100
AcDbText
  0
TEXT
  5
243
330
1F
100
AcDbEntity
  8
7__7
  6
Continuous
 62
     3
100
AcDbText
 10
2022.286901
 20
1567.396011
 30
0.0
 40
16.3128
  1
２５０
 41
0.858268
  7
BIGFONT
100
AcDbText
  0
TEXT
  5
244
330
1F
100
AcDbEntity
  8
7__7
  6
Continuous
 62
     3
100
AcDbText
 10
2022.644198
 20
1543.128503
 30
0.0
 40
16.3128
  1
３５０
 41
0.858268
  7
BIGFONT
100
AcDbText
  0
TEXT
  5
245
330
1F
100
AcDbEntity
  8
7__7
  6
Continuous
 62
     3
100
AcDbText
 10
2239.336834
 20
1592.722043
 30
0.0
 40
16.3128
  1
０．２９
 41
0.858268
  7
BIGFONT
100
AcDbText
  0
TEXT
  5
246
330
1F
100
AcDbEntity
  8
7__7
  6
Continuous
 62
     3
100
AcDbText
 10
2239.383484
 20
1567.487041
 30
0.0
 40
16.3128
  1
０．７
 41
0.858268
  7
BIGFONT
100
AcDbText
  0
TEXT
  5
247
330
1F
100
AcDbEntity
  8
7__7
  6
Continuous
 62
     3
100
AcDbText
 10
2238.886512
 20
1542.08164
 30
0.0
 40
16.3128
  1
１．５３７
 41
0.858268
  7
BIGFONT
100
AcDbText
  0
LINE
  5
248
330
1F
100
AcDbEntity
  8
7__7
  6
Continuous
 62
     2
100
AcDbLine
 10
1706.705444
 20
1630.355281
 30
0.0
 11
1706.705444
 21
1664.192689
 31
0.0
  0
TEXT
  5
249
330
1F
100
AcDbEntity
  8
7__7
  6
Continuous
 62
     3
100
AcDbText
 10
2110.142869
 20
1638.992089
 30
0.0
 40
16.3128
  1
ｍｍ
 41
0.858268
  7
BIGFONT
100
AcDbText
  0
TEXT
  5
24A
330
1F
100
AcDbEntity
  8
7__7
  6
Continuous
 62
     2
100
AcDbText
 10
1560.756275
 20
1671.259038
 30
0.0
 40
19.738488
  1
ＬＭ－Ｓ型寸法表
 41
0.858268
  7
BIGFONT
100
AcDbText
  0
TEXT
  5
24B
330
1F
100
AcDbEntity
  8
7__7
  6
Continuous
 62
     3
100
AcDbText
 10
2157.911655
 20
1617.780098
 30
0.0
 40
16.3128
  1
硝子寸法
 41
0.858268
  7
BIGFONT
100
AcDbText
  0
TEXT
  5
24C
330
1F
100
AcDbEntity
  8
7__7
  6
Continuous
 62
     3
100
AcDbText
 10
2170.497722
 20
1592.796714
 30
0.0
 40
16.3128
  1
５６０
 41
0.858268
  7
BIGFONT
100
AcDbText
  0
TEXT
  5
24D
330
1F
100
AcDbEntity
  8
7__7
  6
Continuous
 62
     3
100
AcDbText
 10
2170.497722
 20
1566.473322
 30
0.0
 40
16.3128
  1
８６０
 41
0.858268
  7
BIGFONT
100
AcDbText
  0
TEXT
  5
24E
330
1F
100
AcDbEntity
  8
7__7
  6
Continuous
 62
     3
100
AcDbText
 10
2156.83948
 20
1541.203191
 30
0.0
 40
16.3128
  1
１２６０
 41
0.858268
  7
BIGFONT
100
AcDbText
  0
TEXT
  5
24F
330
1F
100
AcDbEntity
  8
7__7
  6
Continuous
 62
     3
100
AcDbText
 10
1919.40381
 20
1642.890787
 30
0.0
 40
16.3128
  1
寸               法
 41
0.47962
  7
BIGFONT
100
AcDbText
  0
TEXT
  5
250
330
1F
100
AcDbEntity
  8
7__7
  6
Continuous
 62
     3
100
AcDbText
 10
2318.174335
 20
1629.500943
 30
0.0
 40
16.3128
  1
概算重量
 41
0.858268
  7
BIGFONT
100
AcDbText
  0
TEXT
  5
251
330
1F
100
AcDbEntity
  8
7__7
  6
Continuous
 62
     3
100
AcDbText
 10
2376.270195
 20
1618.637499
 30
0.0
 40
16.3128
  1

 41
0.858268
  7
BIGFONT
100
AcDbText
  0
TEXT
  5
252
330
1F
100
AcDbEntity
  8
7__7
  6
Continuous
 62
     3
100
AcDbText
 10
2342.276933
 20
1591.715008
 30
0.0
 40
16.3128
  1
４７
 41
0.858268
  7
BIGFONT
100
AcDbText
  0
TEXT
  5
253
330
1F
100
AcDbEntity
  8
7__7
  6
Continuous
 62
     3
100
AcDbText
 10
2341.804566
 20
1566.20919
 30
0.0
 40
16.3128
  1
６６
 41
0.858268
  7
BIGFONT
100
AcDbText
  0
TEXT
  5
254
330
1F
100
AcDbEntity
  8
7__7
  6
Continuous
 62
     3
100
AcDbText
 10
2328.091698
 20
1541.648391
 30
0.0
 40
16.3128
  1
１１１
 41
0.858268
  7
BIGFONT
100
AcDbText
  0
TEXT
  5
255
330
1F
100
AcDbEntity
  8
7__7
  6
Continuous
 62
     3
100
AcDbText
 10
2070.757772
 20
1591.935473
 30
0.0
 40
16.3128
  1
（１７０）
 41
0.858268
  7
BIGFONT
100
AcDbText
  0
TEXT
  5
256
330
1F
100
AcDbEntity
  8
7__7
  6
Continuous
 62
     3
100
AcDbText
 10
2070.247852
 20
1541.454949
 30
0.0
 40
16.3128
  1
（３１０）
 41
0.858268
  7
BIGFONT
100
AcDbText
  0
TEXT
  5
257
330
1F
100
AcDbEntity
  8
7__7
  6
Continuous
 62
     3
100
AcDbText
 10
2070.757772
 20
1566.950243
 30
0.0
 40
16.3128
  1
（２５０）
 41
0.858268
  7
BIGFONT
100
AcDbText
  0
TEXT
  5
258
330
1F
100
AcDbEntity
  8
7__7
  6
Continuous
 62
     3
100
AcDbText
 10
1566.033502
 20
1513.066798
 30
0.0
 40
16.3128
  1
Ｈ寸法（  ）内はＡＣ ． ＰＣ ドーム
 41
0.745338
  7
BIGFONT
100
AcDbText
  0
TEXT
  5
259
330
1F
100
AcDbEntity
  8
7__7
  6
Continuous
 62
     3
100
AcDbText
 10
2289.781371
 20
1617.991465
 30
0.0
 40
16.3128
  1

 41
0.858268
  7
BIGFONT
100
AcDbText
  0
LINE
  5
25A
330
1F
100
AcDbEntity
  8
7__7
  6
Continuous
 62
     2
100
AcDbLine
 10
2396.065543
 20
1613.436577
 30
0.0
 11
1551.243629
 21
1613.436577
 31
0.0
  0
LINE
  5
25B
330
1F
100
AcDbEntity
  8
7__7
  6
Continuous
 62
     3
100
AcDbLine
 10
2396.065543
 20
1588.058521
 30
0.0
 11
1551.243629
 21
1588.058521
 31
0.0
  0
LINE
  5
25C
330
1F
100
AcDbEntity
  8
7__7
  6
Continuous
 62
     3
100
AcDbLine
 10
2396.065543
 20
1562.680465
 30
0.0
 11
1551.243629
 21
1562.680465
 31
0.0
  0
LINE
  5
25D
330
1F
100
AcDbEntity
  8
7__7
  6
Continuous
 62
     2
100
AcDbLine
 10
2396.065543
 20
1537.302409
 30
0.0
 11
1551.243629
 21
1537.302409
 31
0.0
  0
LINE
  5
25E
330
1F
100
AcDbEntity
  8
7__7
  6
Continuous
 62
     3
100
AcDbLine
 10
2221.513223
 20
1638.814633
 30
0.0
 11
1706.705444
 21
1638.814633
 31
0.0
  0
LINE
  5
25F
330
1F
100
AcDbEntity
  8
7__7
  6
Continuous
 62
     2
100
AcDbLine
 10
1551.243629
 20
1638.814633
 30
0.0
 11
1551.243629
 21
1664.192689
 31
0.0
  0
LINE
  5
260
330
1F
100
AcDbEntity
  8
7__7
  6
Continuous
 62
     2
100
AcDbLine
 10
2221.513223
 20
1537.302409
 30
0.0
 11
2221.513223
 21
1664.192689
 31
0.0
  0
LINE
  5
261
330
1F
100
AcDbEntity
  8
7__7
  6
Continuous
 62
     2
100
AcDbLine
 10
2396.065543
 20
1664.192689
 30
0.0
 11
1551.243629
 21
1664.192689
 31
0.0
  0
LINE
  5
262
330
1F
100
AcDbEntity
  8
7__7
  6
Continuous
 62
     2
100
AcDbLine
 10
2308.650282
 20
1537.302409
 30
0.0
 11
2308.650282
 21
1664.192689
 31
0.0
  0
LINE
  5
263
330
1F
100
AcDbEntity
  8
7__7
  6
Continuous
 62
     2
100
AcDbLine
 10
2396.065543
 20
1537.302409
 30
0.0
 11
2396.065543
 21
1664.192689
 31
0.0
  0
LINE
  5
264
330
1F
100
AcDbEntity
  8
7__7
  6
Continuous
 62
     3
100
AcDbLine
 10
464.394695
 20
574.021711
 30
0.0
 11
453.51313
 21
574.021503
 31
0.0
  0
LINE
  5
265
330
1F
100
AcDbEntity
  8
7__7
  6
Continuous
 62
     3
100
AcDbLine
 10
469.904369
 20
583.565076
 30
0.0
 11
464.394695
 21
574.021711
 31
0.0
  0
LINE
  5
266
330
1F
100
AcDbEntity
  8
7__7
  6
Continuous
 62
     3
100
AcDbLine
 10
448.002973
 20
583.564867
 30
0.0
 11
453.51313
 21
574.021503
 31
0.0
  0
ARC
  5
267
330
1F
100
AcDbEntity
  8
7__7
  6
Continuous
 62
     3
100
AcDbCircle
 10
484.67162
 20
503.321913
 30
0.0
 40
12.04999999999993
100
AcDbArc
 50
330.138098
 51
29.863767
  0
ARC
  5
268
330
1F
100
AcDbEntity
  8
7__7
  6
Continuous
 62
     3
100
AcDbCircle
 10
493.173862
 20
494.316691
 30
0.0
 40
3.581413445213627
100
AcDbArc
 50
7.844797
 51
57.051908
  0
LINE
  5
269
330
1F
100
AcDbEntity
  8
7__7
  6
Continuous
 62
     3
100
AcDbLine
 10
496.721466
 20
512.791764
 30
0.0
 11
495.121442
 21
514.291738
 31
0.0
  0
LINE
  5
26A
330
1F
100
AcDbEntity
  8
7__7
  6
Continuous
 62
     3
100
AcDbLine
 10
496.721774
 20
493.852454
 30
0.0
 11
495.121799
 21
492.352428
 31
0.0
  0
LINE
  5
26B
330
1F
100
AcDbEntity
  8
7__7
  6
Continuous
 62
     3
100
AcDbLine
 10
495.121442
 20
514.291738
 30
0.0
 11
486.721442
 21
514.291602
 31
0.0
  0
LINE
  5
26C
330
1F
100
AcDbEntity
  8
7__7
  6
Continuous
 62
     3
100
AcDbLine
 10
486.721799
 20
492.352291
 30
0.0
 11
495.121799
 21
492.352428
 31
0.0
  0
LINE
  5
26D
330
1F
100
AcDbEntity
  8
7__7
  6
Continuous
 62
     3
100
AcDbLine
 10
486.721442
 20
514.291602
 30
0.0
 11
486.721799
 21
492.352291
 31
0.0
  0
LINE
  5
26E
330
1F
100
AcDbEntity
  8
7__7
  6
Continuous
 62
     3
100
AcDbLine
 10
496.721774
 20
493.852454
 30
0.0
 11
496.721466
 21
512.791764
 31
0.0
  0
LINE
  5
26F
330
1F
100
AcDbEntity
  8
7__7
  6
Continuous
 62
     3
100
AcDbLine
 10
486.721523
 20
509.321947
 30
0.0
 11
495.121523
 21
509.322083
 31
0.0
  0
LINE
  5
270
330
1F
100
AcDbEntity
  8
7__7
  6
Continuous
 62
     3
100
AcDbLine
 10
486.721718
 20
497.321947
 30
0.0
 11
495.121718
 21
497.322083
 31
0.0
  0
ARC
  5
271
330
1F
100
AcDbEntity
  8
7__7
  6
Continuous
 62
     3
100
AcDbCircle
 10
493.173569
 20
512.327412
 30
0.0
 40
3.581413445213627
100
AcDbArc
 50
302.949956
 51
352.157067
  0
ARC
  5
272
330
1F
100
AcDbEntity
  8
7__7
  6
Continuous
 62
     3
100
AcDbCircle
 10
422.95874
 20
487.494057
 30
0.0
 40
0.75
100
AcDbArc
 50
278.743564
 51
0.0
  0
LINE
  5
273
330
1F
100
AcDbEntity
  8
7__7
  6
Continuous
 62
     3
100
AcDbLine
 10
308.70882
 20
469.163632
 30
0.0
 11
423.072749
 21
486.752773
 31
0.0
  0
LINE
  5
274
330
1F
100
AcDbEntity
  8
7__7
  6
Continuous
 62
     4
100
AcDbLine
 10
426.00874
 20
498.879548
 30
0.0
 11
426.00874
 21
457.266517
 31
0.0
  0
LINE
  5
275
330
1F
100
AcDbEntity
  8
7__7
  6
Continuous
 62
     3
100
AcDbLine
 10
472.20874
 20
537.067515
 30
0.0
 11
472.20874
 21
471.570237
 31
0.0
  0
LINE
  5
276
330
1F
100
AcDbEntity
  8
7__7
  6
Continuous
 62
     3
100
AcDbLine
 10
485.20882
 20
485.569637
 30
0.0
 11
485.20882
 21
472.070237
 31
0.0
  0
LINE
  5
277
330
1F
100
AcDbEntity
  8
7__7
  6
Continuous
 62
     3
100
AcDbLine
 10
473.70874
 20
472.070237
 30
0.0
 11
485.20882
 21
472.070237
 31
0.0
  0
INSERT
  5
281
330
1F
100
AcDbEntity
  8
7__7
  6
Continuous
 62
     3
100
AcDbBlockReference
  2
DIM_9
 10
1223.065574
 20
653.567236
 30
0.0
  0
INSERT
  5
28A
330
1F
100
AcDbEntity
  8
7__7
  6
Continuous
 62
     3
100
AcDbBlockReference
  2
DIM_10
 10
1219.940574
 20
538.567232
 30
0.0
  0
LINE
  5
28B
330
1F
100
AcDbEntity
  8
7__7
  6
Continuous
 62
     3
100
AcDbLine
 10
1391.70882
 20
488.566517
 30
0.0
 11
1391.70882
 21
650.834188
 31
0.0
  0
ARC
  5
28C
330
1F
100
AcDbEntity
  8
7__7
  6
Continuous
 62
     3
100
AcDbCircle
 10
1390.7089
 20
652.566517
 30
0.0
 40
1.0
100
AcDbArc
 50
60.003332
 51
180.0
  0
LINE
  5
28D
330
1F
100
AcDbEntity
  8
7__7
  6
Continuous
 62
     3
100
AcDbLine
 10
1389.7089
 20
487.0665
 30
0.0
 11
1389.7089
 21
652.566517
 31
0.0
  0
LINE
  5
28E
330
1F
100
AcDbEntity
  8
7__7
  6
Continuous
 62
     3
100
AcDbLine
 10
1326.70882
 20
485.569637
 30
0.0
 11
1326.70882
 21
472.551158
 31
0.0
  0
LINE
  5
28F
330
1F
100
AcDbEntity
  8
7__7
  6
Continuous
 62
     3
100
AcDbLine
 10
1388.958884
 20
537.066515
 30
0.0
 11
1341.2089
 21
537.067515
 31
0.0
  0
LINE
  5
290
330
1F
100
AcDbEntity
  8
7__7
  6
Continuous
 62
     3
100
AcDbLine
 10
1326.70882
 20
485.569637
 30
0.0
 11
1328.20882
 21
485.569637
 31
0.0
  0
LINE
  5
291
330
1F
100
AcDbEntity
  8
7__7
  6
Continuous
 62
     3
100
AcDbLine
 10
1326.70882
 20
485.569637
 30
0.0
 11
1326.70882
 21
471.570237
 31
0.0
  0
LINE
  5
292
330
1F
100
AcDbEntity
  8
7__7
  6
Continuous
 62
     3
100
AcDbLine
 10
1388.2089
 20
558.567109
 30
0.0
 11
1388.2089
 21
538.566518
 31
0.0
  0
LINE
  5
293
330
1F
100
AcDbEntity
  8
7__7
  6
Continuous
 62
     3
100
AcDbLine
 10
1389.7089
 20
558.566026
 30
0.0
 11
1388.2089
 21
558.567109
 31
0.0
  0
ARC
  5
294
330
1F
100
AcDbEntity
  8
7__7
  6
Continuous
 62
     3
100
AcDbCircle
 10
1327.70882
 20
471.570237
 30
0.0
 40
1.0
100
AcDbArc
 50
180.0
 51
270.0
  0
LINE
  5
295
330
1F
100
AcDbEntity
  8
7__7
  6
Continuous
 62
     3
100
AcDbLine
 10
1339.7089
 20
537.567557
 30
0.0
 11
1339.7089
 21
472.070237
 31
0.0
  0
LINE
  5
296
330
1F
100
AcDbEntity
  8
7__7
  6
PLine1
 62
     4
100
AcDbLine
 10
1389.7089
 20
498.879548
 30
0.0
 11
1387.4089
 21
498.879548
 31
0.0
  0
LINE
  5
297
330
1F
100
AcDbEntity
  8
7__7
  6
Continuous
 62
     4
100
AcDbLine
 10
1389.7089
 20
458.566517
 30
0.0
 11
1490.70882
 21
458.566517
 31
0.0
  0
ARC
  5
298
330
1F
100
AcDbEntity
  8
7__7
  6
Continuous
 62
     4
100
AcDbCircle
 10
1490.70882
 20
457.566517
 30
0.0
 40
1.0
100
AcDbArc
 50
0.0
 51
90.0
  0
LINE
  5
299
330
1F
100
AcDbEntity
  8
7__7
  6
Continuous
 62
     4
100
AcDbLine
 10
1491.70882
 20
423.566517
 30
0.0
 11
1491.70882
 21
457.566517
 31
0.0
  0
LINE
  5
29A
330
1F
100
AcDbEntity
  8
7__7
  6
Continuous
 62
     4
100
AcDbLine
 10
1489.40882
 20
456.266517
 30
0.0
 11
1489.40882
 21
425.266517
 31
0.0
  0
ARC
  5
29B
330
1F
100
AcDbEntity
  8
7__7
  6
Continuous
 62
     4
100
AcDbCircle
 10
1388.4089
 20
457.266517
 30
0.0
 40
1.0
100
AcDbArc
 50
180.0
 51
270.0
  0
LINE
  5
29C
330
1F
100
AcDbEntity
  8
7__7
  6
Continuous
 62
     4
100
AcDbLine
 10
1489.40882
 20
456.266517
 30
0.0
 11
1388.4089
 21
456.266517
 31
0.0
  0
LINE
  5
29D
330
1F
100
AcDbEntity
  8
7__7
  6
Continuous
 62
     4
100
AcDbLine
 10
1491.70882
 20
425.266517
 30
0.0
 11
1489.40882
 21
425.266517
 31
0.0
  0
LINE
  5
29E
330
1F
100
AcDbEntity
  8
7__7
  6
Continuous
 62
     4
100
AcDbLine
 10
1421.70882
 20
456.266517
 30
0.0
 11
1421.70882
 21
431.266517
 31
0.0
  0
LINE
  5
29F
330
1F
100
AcDbEntity
  8
7__7
  6
Continuous
 62
     4
100
AcDbLine
 10
1419.40882
 20
431.266517
 30
0.0
 11
1419.40882
 21
453.966517
 31
0.0
  0
LINE
  5
2A0
330
1F
100
AcDbEntity
  8
7__7
  6
Continuous
 62
     4
100
AcDbLine
 10
1419.40882
 20
453.966517
 30
0.0
 11
1406.70882
 21
453.966517
 31
0.0
  0
LINE
  5
2A1
330
1F
100
AcDbEntity
  8
7__7
  6
Continuous
 62
     4
100
AcDbLine
 10
1421.70882
 20
431.266517
 30
0.0
 11
1419.40882
 21
431.266517
 31
0.0
  0
LINE
  5
2A2
330
1F
100
AcDbEntity
  8
7__7
  6
Continuous
 62
     4
100
AcDbLine
 10
1406.70882
 20
456.266517
 30
0.0
 11
1406.70882
 21
453.966517
 31
0.0
  0
LINE
  5
2A3
330
1F
100
AcDbEntity
  8
7__7
  6
Continuous
 62
     4
100
AcDbLine
 10
1389.7089
 20
487.494057
 30
0.0
 11
1389.7089
 21
458.566517
 31
0.0
  0
ARC
  5
2A4
330
1F
100
AcDbEntity
  8
7__7
  6
Continuous
 62
     3
100
AcDbCircle
 10
1505.95882
 20
436.316517
 30
0.0
 40
0.75
100
AcDbArc
 50
270.0
 51
0.0
  0
LINE
  5
2A5
330
1F
100
AcDbEntity
  8
7__7
  6
Continuous
 62
     3
100
AcDbLine
 10
1493.70882
 20
435.566517
 30
0.0
 11
1505.95882
 21
435.566517
 31
0.0
  0
LINE
  5
2A6
330
1F
100
AcDbEntity
  8
7__7
  6
Continuous
 62
     3
100
AcDbLine
 10
1506.70882
 20
470.23608
 30
0.0
 11
1506.70882
 21
436.316517
 31
0.0
  0
ARC
  5
2A7
330
1F
100
AcDbEntity
  8
7__7
  6
Continuous
 62
     3
100
AcDbCircle
 10
1505.95882
 20
470.23608
 30
0.0
 40
0.75
100
AcDbArc
 50
0.0
 51
81.256436
  0
LINE
  5
2A8
330
1F
100
AcDbEntity
  8
7__7
  6
Continuous
 62
     3
100
AcDbLine
 10
1391.70882
 20
488.566517
 30
0.0
 11
1506.072829
 21
470.977363
 31
0.0
  0
LINE
  5
2A9
330
1F
100
AcDbEntity
  8
7__7
  6
Continuous
 62
     3
100
AcDbLine
 10
1504.70882
 20
469.168241
 30
0.0
 11
1504.70882
 21
437.566517
 31
0.0
  0
LINE
  5
2AA
330
1F
100
AcDbEntity
  8
7__7
  6
Continuous
 62
     3
100
AcDbLine
 10
1504.70882
 20
437.566517
 30
0.0
 11
1492.45882
 21
437.566517
 31
0.0
  0
ARC
  5
2AB
330
1F
100
AcDbEntity
  8
7__7
  6
Continuous
 62
     3
100
AcDbCircle
 10
1492.45882
 20
436.816517
 30
0.0
 40
0.75
100
AcDbArc
 50
90.0
 51
180.0
  0
LINE
  5
2AC
330
1F
100
AcDbEntity
  8
7__7
  6
Continuous
 62
     3
100
AcDbLine
 10
1491.70882
 20
423.566517
 30
0.0
 11
1491.70882
 21
436.816517
 31
0.0
  0
LINE
  5
2AD
330
1F
100
AcDbEntity
  8
7__7
  6
Continuous
 62
     3
100
AcDbLine
 10
1493.70882
 20
423.566517
 30
0.0
 11
1491.70882
 21
423.566517
 31
0.0
  0
LINE
  5
2AE
330
1F
100
AcDbEntity
  8
7__7
  6
Continuous
 62
     3
100
AcDbLine
 10
1493.70882
 20
435.566517
 30
0.0
 11
1493.70882
 21
422.374768
 31
0.0
  0
ARC
  5
2AF
330
1F
100
AcDbEntity
  8
7__7
  6
Continuous
 62
     3
100
AcDbCircle
 10
1390.4589
 20
487.494057
 30
0.0
 40
0.75
100
AcDbArc
 50
180.0
 51
261.256436
  0
LINE
  5
2B0
330
1F
100
AcDbEntity
  8
7__7
  6
Continuous
 62
     3
100
AcDbLine
 10
1504.70882
 20
469.163632
 30
0.0
 11
1390.344891
 21
486.752773
 31
0.0
  0
LINE
  5
2B1
330
1F
100
AcDbEntity
  8
7__7
  6
Continuous
 62
     3
100
AcDbLine
 10
1341.2089
 20
471.316517
 30
0.0
 11
1341.2089
 21
537.067515
 31
0.0
  0
LINE
  5
2B2
330
1F
100
AcDbEntity
  8
7__7
  6
Continuous
 62
     3
100
AcDbLine
 10
1328.20882
 20
485.569637
 30
0.0
 11
1328.20882
 21
472.070237
 31
0.0
  0
LINE
  5
2B3
330
1F
100
AcDbEntity
  8
7__7
  6
Continuous
 62
     3
100
AcDbLine
 10
1339.7089
 20
472.070237
 30
0.0
 11
1328.20882
 21
472.070237
 31
0.0
  0
LINE
  5
2B4
330
1F
100
AcDbEntity
  8
7__7
  6
Continuous
 62
     4
100
AcDbLine
 10
1387.4089
 20
488.568064
 30
0.0
 11
1387.4089
 21
457.266517
 31
0.0
  0
ARC
  5
2B5
330
1F
100
AcDbEntity
  8
7__7
  6
Continuous
 62
     3
100
AcDbCircle
 10
1317.70882
 20
671.280391
 30
0.0
 40
1.0
100
AcDbArc
 50
180.0
 51
270.000597
  0
LINE
  5
2B6
330
1F
100
AcDbEntity
  8
7__7
  6
Continuous
 62
     3
100
AcDbLine
 10
1405.70882
 20
700.280323
 30
0.0
 11
1316.70882
 21
700.280323
 31
0.0
  0
LINE
  5
2B7
330
1F
100
AcDbEntity
  8
7__7
  6
Continuous
 62
     3
100
AcDbLine
 10
1318.20882
 20
691.841661
 30
0.0
 11
1318.20882
 21
699.185367
 31
0.0
  0
LINE
  5
2B8
330
1F
100
AcDbEntity
  8
7__7
  6
Continuous
 62
     3
100
AcDbLine
 10
1319.70882
 20
671.780377
 30
0.0
 11
1319.70882
 21
698.673387
 31
0.0
  0
LINE
  5
2B9
330
1F
100
AcDbEntity
  8
7__7
  6
Continuous
 62
     3
100
AcDbLine
 10
1318.20882
 20
700.280323
 30
0.0
 11
1318.20882
 21
699.053372
 31
0.0
  0
ARC
  5
2BA
330
1F
100
AcDbEntity
  8
7__7
  6
Continuous
 62
     3
100
AcDbCircle
 10
1404.20882
 20
671.280292
 30
0.0
 40
1.0
100
AcDbArc
 50
270.0
 51
0.0
  0
LINE
  5
2BB
330
1F
100
AcDbEntity
  8
7__7
  6
Continuous
 62
     3
100
AcDbLine
 10
1316.70882
 20
670.281203
 30
0.0
 11
1316.70882
 21
700.280323
 31
0.0
  0
ARC
  5
2BC
330
1F
100
AcDbEntity
  8
7__7
  6
Continuous
 62
     3
100
AcDbCircle
 10
1319.135783
 20
699.280363
 30
0.0
 40
0.9999600000000002
100
AcDbArc
 50
90.0
 51
180.0
  0
ARC
  5
2BD
330
1F
100
AcDbEntity
  8
7__7
  6
Continuous
 62
     3
100
AcDbCircle
 10
1405.70882
 20
699.280323
 30
0.0
 40
1.0
100
AcDbArc
 50
0.0
 51
90.0
  0
LINE
  5
2BE
330
1F
100
AcDbEntity
  8
7__7
  6
Continuous
 62
     3
100
AcDbLine
 10
1406.70882
 20
672.461499
 30
0.0
 11
1406.70882
 21
699.280323
 31
0.0
  0
LINE
  5
2BF
330
1F
100
AcDbEntity
  8
7__7
  6
Continuous
 62
     3
100
AcDbLine
 10
1318.20882
 20
691.877659
 30
0.0
 11
1318.20882
 21
671.780379
 31
0.0
  0
LINE
  5
2C0
330
1F
100
AcDbEntity
  8
7__7
  6
Continuous
 62
     3
100
AcDbLine
 10
1405.20882
 20
671.280292
 30
0.0
 11
1405.20882
 21
698.673387
 31
0.0
  0
LINE
  5
2C1
330
1F
100
AcDbEntity
  8
7__7
  6
Continuous
 62
     3
100
AcDbLine
 10
1403.70882
 20
698.673387
 30
0.0
 11
1403.70882
 21
671.780292
 31
0.0
  0
LINE
  5
2C2
330
1F
100
AcDbEntity
  8
7__7
  6
Continuous
 62
     3
100
AcDbLine
 10
1403.70882
 20
671.780292
 30
0.0
 11
1318.20882
 21
671.780379
 31
0.0
  0
ARC
  5
2C3
330
1F
100
AcDbEntity
  8
7__7
  6
Continuous
 62
     3
100
AcDbCircle
 10
1340.70886
 20
537.567557
 30
0.0
 40
0.9999600000000002
100
AcDbArc
 50
90.0
 51
180.0
  0
ARC
  5
2C4
330
1F
100
AcDbEntity
  8
7__7
  6
Continuous
 62
     3
100
AcDbCircle
 10
1388.9589
 20
537.816515
 30
0.0
 40
0.75
100
AcDbArc
 50
269.998801
 51
0.0
  0
LINE
  5
2C5
330
1F
100
AcDbEntity
  8
7__7
  6
Continuous
 62
     6
100
AcDbLine
 10
431.114816
 20
707.203586
 30
0.0
 11
424.147819
 21
700.236589
 31
0.0
  0
LINE
  5
2C6
330
1F
100
AcDbEntity
  8
7__7
  6
Continuous
 62
     6
100
AcDbLine
 10
431.70882
 20
702.838752
 30
0.0
 11
429.150391
 21
700.280323
 31
0.0
  0
LINE
  5
2C7
330
1F
100
AcDbEntity
  8
7__7
  6
Continuous
 62
     6
100
AcDbLine
 10
431.70882
 20
700.392589
 30
0.0
 11
431.70882
 21
707.203586
 31
0.0
  0
LINE
  5
2C8
330
1F
100
AcDbEntity
  8
7__7
  6
Continuous
 62
     6
100
AcDbLine
 10
426.434818
 20
707.203586
 30
0.0
 11
419.511555
 21
700.280323
 31
0.0
  0
LINE
  5
2C9
330
1F
100
AcDbEntity
  8
7__7
  6
Continuous
 62
     6
100
AcDbLine
 10
422.64082
 20
707.203586
 30
0.0
 11
429.564083
 21
700.280323
 31
0.0
  0
LINE
  5
2CA
330
1F
100
AcDbEntity
  8
7__7
  6
Continuous
 62
     6
100
AcDbLine
 10
411.70882
 20
700.280323
 30
0.0
 11
411.70882
 21
707.260586
 31
0.0
  0
LINE
  5
2CB
330
1F
100
AcDbEntity
  8
7__7
  6
Continuous
 62
     6
100
AcDbLine
 10
415.178823
 20
707.203586
 30
0.0
 11
411.70882
 21
703.733584
 31
0.0
  0
LINE
  5
2CC
330
1F
100
AcDbEntity
  8
7__7
  6
Continuous
 62
     6
100
AcDbLine
 10
436.70882
 20
711.054126
 30
0.0
 11
406.707571
 21
711.054126
 31
0.0
  0
LINE
  5
2CD
330
1F
100
AcDbEntity
  8
7__7
  6
Continuous
 62
     6
100
AcDbLine
 10
436.70882
 20
711.906138
 30
0.0
 11
406.708154
 21
711.905137
 31
0.0
  0
LINE
  5
2CE
330
1F
100
AcDbEntity
  8
7__7
  6
Continuous
 62
     6
100
AcDbLine
 10
436.70882
 20
711.414125
 30
0.0
 11
406.706539
 21
711.414125
 31
0.0
  0
LINE
  5
2CF
330
1F
100
AcDbEntity
  8
7__7
  6
Continuous
 62
     6
100
AcDbLine
 10
436.70882
 20
710.586106
 30
0.0
 11
406.707251
 21
710.586106
 31
0.0
  0
LINE
  5
2D0
330
1F
100
AcDbEntity
  8
7__7
  6
Continuous
 62
     6
100
AcDbLine
 10
412.656824
 20
707.203586
 30
0.0
 11
419.580087
 21
700.280323
 31
0.0
  0
LINE
  5
2D1
330
1F
100
AcDbEntity
  8
7__7
  6
Continuous
 62
     6
100
AcDbLine
 10
417.804817
 20
707.203586
 30
0.0
 11
424.727113
 21
700.280323
 31
0.0
  0
LINE
  5
2D2
330
1F
100
AcDbEntity
  8
7__7
  6
Continuous
 62
     6
100
AcDbLine
 10
427.632818
 20
707.203586
 30
0.0
 11
431.70882
 21
703.127584
 31
0.0
  0
LINE
  5
2D3
330
1F
100
AcDbEntity
  8
7__7
  6
Continuous
 62
     3
100
AcDbLine
 10
406.708513
 20
712.430124
 30
0.0
 11
406.709539
 21
713.930124
 31
0.0
  0
LINE
  5
2D4
330
1F
100
AcDbEntity
  8
7__7
  6
Continuous
 62
     3
100
AcDbLine
 10
430.017572
 20
717.174123
 30
0.0
 11
413.400068
 21
717.174123
 31
0.0
  0
LINE
  5
2D5
330
1F
100
AcDbEntity
  8
7__7
  6
Continuous
 62
     3
100
AcDbLine
 10
436.708076
 20
713.930124
 30
0.0
 11
406.709539
 21
713.930124
 31
0.0
  0
ARC
  5
2D6
330
1F
100
AcDbEntity
  8
7__7
  6
Continuous
 62
     3
100
AcDbCircle
 10
413.989426
 20
712.083125
 30
0.0
 40
5.124997950000001
100
AcDbArc
 50
96.926697
 51
158.875836
  0
LINE
  5
2D7
330
1F
100
AcDbEntity
  8
7__7
  6
Continuous
 62
     3
100
AcDbLine
 10
436.709102
 20
712.430124
 30
0.0
 11
406.708513
 21
712.430124
 31
0.0
  0
LINE
  5
2D8
330
1F
100
AcDbEntity
  8
7__7
  6
Continuous
 62
     6
100
AcDbLine
 10
406.708513
 20
712.430124
 30
0.0
 11
406.708634
 21
710.256126
 31
0.0
  0
LINE
  5
2D9
330
1F
100
AcDbEntity
  8
7__7
  6
Continuous
 62
     6
100
AcDbLine
 10
420.860961
 20
707.203586
 30
0.0
 11
413.937698
 21
700.280323
 31
0.0
  0
LINE
  5
2DA
330
1F
100
AcDbEntity
  8
7__7
  6
Continuous
 62
     6
100
AcDbLine
 10
411.70882
 20
703.012573
 30
0.0
 11
414.44107
 21
700.280323
 31
0.0
  0
LINE
  5
2DB
330
1F
100
AcDbEntity
  8
7__7
  6
Continuous
 62
     6
100
AcDbLine
 10
436.709102
 20
712.430124
 30
0.0
 11
436.708981
 21
710.256126
 31
0.0
  0
LINE
  5
2DC
330
1F
100
AcDbEntity
  8
7__7
  6
Continuous
 62
     3
100
AcDbLine
 10
436.709102
 20
712.430124
 30
0.0
 11
436.708076
 21
713.930124
 31
0.0
  0
ARC
  5
2DD
330
1F
100
AcDbEntity
  8
7__7
  6
Continuous
 62
     3
100
AcDbCircle
 10
429.428214
 20
712.083125
 30
0.0
 40
5.124997950000001
100
AcDbArc
 50
21.124164
 51
83.396555
  0
LINE
  5
2DE
330
1F
100
AcDbEntity
  8
7__7
  6
PLine2
 62
     3
100
AcDbLine
 10
1391.70882
 20
729.608904
 30
0.0
 11
1391.70882
 21
688.365322
 31
0.0
  0
LINE
  5
2DF
330
1F
100
AcDbEntity
  8
7__7
  6
Continuous
 62
     6
100
AcDbLine
 10
1382.302824
 20
707.203586
 30
0.0
 11
1389.269821
 21
700.236589
 31
0.0
  0
LINE
  5
2E0
330
1F
100
AcDbEntity
  8
7__7
  6
Continuous
 62
     6
100
AcDbLine
 10
1381.70882
 20
702.838752
 30
0.0
 11
1384.267249
 21
700.280323
 31
0.0
  0
LINE
  5
2E1
330
1F
100
AcDbEntity
  8
7__7
  6
Continuous
 62
     6
100
AcDbLine
 10
1381.70882
 20
700.280323
 30
0.0
 11
1381.70882
 21
707.203586
 31
0.0
  0
LINE
  5
2E2
330
1F
100
AcDbEntity
  8
7__7
  6
Continuous
 62
     6
100
AcDbLine
 10
1386.982822
 20
707.203586
 30
0.0
 11
1393.906085
 21
700.280323
 31
0.0
  0
LINE
  5
2E3
330
1F
100
AcDbEntity
  8
7__7
  6
Continuous
 62
     6
100
AcDbLine
 10
1390.77682
 20
707.203586
 30
0.0
 11
1383.853557
 21
700.280323
 31
0.0
  0
LINE
  5
2E4
330
1F
100
AcDbEntity
  8
7__7
  6
Continuous
 62
     6
100
AcDbLine
 10
1401.70882
 20
700.280323
 30
0.0
 11
1401.70882
 21
707.260586
 31
0.0
  0
LINE
  5
2E5
330
1F
100
AcDbEntity
  8
7__7
  6
Continuous
 62
     6
100
AcDbLine
 10
1398.238817
 20
707.203586
 30
0.0
 11
1401.70882
 21
703.733584
 31
0.0
  0
LINE
  5
2E6
330
1F
100
AcDbEntity
  8
7__7
  6
Continuous
 62
     6
100
AcDbLine
 10
1376.70882
 20
711.054126
 30
0.0
 11
1406.710069
 21
711.054126
 31
0.0
  0
LINE
  5
2E7
330
1F
100
AcDbEntity
  8
7__7
  6
Continuous
 62
     6
100
AcDbLine
 10
1376.70882
 20
711.906138
 30
0.0
 11
1406.709486
 21
711.905137
 31
0.0
  0
LINE
  5
2E8
330
1F
100
AcDbEntity
  8
7__7
  6
Continuous
 62
     6
100
AcDbLine
 10
1376.70882
 20
711.414125
 30
0.0
 11
1406.711101
 21
711.414125
 31
0.0
  0
LINE
  5
2E9
330
1F
100
AcDbEntity
  8
7__7
  6
Continuous
 62
     6
100
AcDbLine
 10
1376.70882
 20
710.586106
 30
0.0
 11
1406.710389
 21
710.586106
 31
0.0
  0
LINE
  5
2EA
330
1F
100
AcDbEntity
  8
7__7
  6
Continuous
 62
     6
100
AcDbLine
 10
1400.760816
 20
707.203586
 30
0.0
 11
1393.837553
 21
700.280323
 31
0.0
  0
LINE
  5
2EB
330
1F
100
AcDbEntity
  8
7__7
  6
Continuous
 62
     6
100
AcDbLine
 10
1395.612823
 20
707.203586
 30
0.0
 11
1388.690527
 21
700.280323
 31
0.0
  0
LINE
  5
2EC
330
1F
100
AcDbEntity
  8
7__7
  6
Continuous
 62
     6
100
AcDbLine
 10
1385.784822
 20
707.203586
 30
0.0
 11
1381.70882
 21
703.127584
 31
0.0
  0
LINE
  5
2ED
330
1F
100
AcDbEntity
  8
7__7
  6
Continuous
 62
     3
100
AcDbLine
 10
1406.709127
 20
712.430124
 30
0.0
 11
1406.708101
 21
713.930124
 31
0.0
  0
LINE
  5
2EE
330
1F
100
AcDbEntity
  8
7__7
  6
Continuous
 62
     3
100
AcDbLine
 10
1383.400068
 20
717.174123
 30
0.0
 11
1400.017572
 21
717.174123
 31
0.0
  0
LINE
  5
2EF
330
1F
100
AcDbEntity
  8
7__7
  6
Continuous
 62
     3
100
AcDbLine
 10
1376.709564
 20
713.930124
 30
0.0
 11
1406.708101
 21
713.930124
 31
0.0
  0
ARC
  5
2F0
330
1F
100
AcDbEntity
  8
7__7
  6
Continuous
 62
     3
100
AcDbCircle
 10
1399.428214
 20
712.083125
 30
0.0
 40
5.124997950000001
100
AcDbArc
 50
21.124164
 51
83.073303
  0
LINE
  5
2F1
330
1F
100
AcDbEntity
  8
7__7
  6
Continuous
 62
     3
100
AcDbLine
 10
1376.708538
 20
712.430124
 30
0.0
 11
1406.709127
 21
712.430124
 31
0.0
  0
LINE
  5
2F2
330
1F
100
AcDbEntity
  8
7__7
  6
Continuous
 62
     6
100
AcDbLine
 10
1406.709127
 20
712.430124
 30
0.0
 11
1406.709006
 21
710.256126
 31
0.0
  0
LINE
  5
2F3
330
1F
100
AcDbEntity
  8
7__7
  6
Continuous
 62
     6
100
AcDbLine
 10
1392.556679
 20
707.203586
 30
0.0
 11
1399.479942
 21
700.280323
 31
0.0
  0
LINE
  5
2F4
330
1F
100
AcDbEntity
  8
7__7
  6
Continuous
 62
     6
100
AcDbLine
 10
1401.70882
 20
703.012573
 30
0.0
 11
1398.97657
 21
700.280323
 31
0.0
  0
LINE
  5
2F5
330
1F
100
AcDbEntity
  8
7__7
  6
Continuous
 62
     6
100
AcDbLine
 10
1376.708538
 20
712.430124
 30
0.0
 11
1376.708659
 21
710.256126
 31
0.0
  0
LINE
  5
2F6
330
1F
100
AcDbEntity
  8
7__7
  6
Continuous
 62
     3
100
AcDbLine
 10
1376.708538
 20
712.430124
 30
0.0
 11
1376.709564
 21
713.930124
 31
0.0
  0
ARC
  5
2F7
330
1F
100
AcDbEntity
  8
7__7
  6
Continuous
 62
     3
100
AcDbCircle
 10
1383.989426
 20
712.083125
 30
0.0
 40
5.124997950000001
100
AcDbArc
 50
96.603445
 51
158.875836
  0
LINE
  5
2F8
330
1F
100
AcDbEntity
  8
7__7
  6
Continuous
 62
     3
100
AcDbLine
 10
462.834994
 20
704.166676
 30
0.0
 11
462.834994
 21
696.165679
 31
0.0
  0
LINE
  5
2F9
330
1F
100
AcDbEntity
  8
7__7
  6
Continuous
 62
     6
100
AcDbLine
 10
472.164728
 20
700.280323
 30
0.0
 11
476.150992
 21
704.266588
 31
0.0
  0
LINE
  5
2FA
330
1F
100
AcDbEntity
  8
7__7
  6
Continuous
 62
     6
100
AcDbLine
 10
476.160726
 20
700.280323
 30
0.0
 11
480.146991
 21
704.266588
 31
0.0
  0
LINE
  5
2FB
330
1F
100
AcDbEntity
  8
7__7
  6
Continuous
 62
     6
100
AcDbLine
 10
480.372724
 20
700.280323
 30
0.0
 11
484.358989
 21
704.266588
 31
0.0
  0
LINE
  5
2FC
330
1F
100
AcDbEntity
  8
7__7
  6
Continuous
 62
     6
100
AcDbLine
 10
484.620723
 20
700.280323
 30
0.0
 11
488.606987
 21
704.266588
 31
0.0
  0
LINE
  5
2FD
330
1F
100
AcDbEntity
  8
7__7
  6
Continuous
 62
     6
100
AcDbLine
 10
491.834994
 20
702.742596
 30
0.0
 11
489.372721
 21
700.280323
 31
0.0
  0
LINE
  5
2FE
330
1F
100
AcDbEntity
  8
7__7
  6
Continuous
 62
     3
100
AcDbLine
 10
494.729985
 20
712.280323
 30
0.0
 11
494.729985
 21
711.080323
 31
0.0
  0
CIRCLE
  5
2FF
330
1F
100
AcDbEntity
  8
7__7
  6
Continuous
 62
     3
100
AcDbCircle
 10
487.947092
 20
707.925228
 30
0.0
 40
0.3959998416000001
  0
CIRCLE
  5
300
330
1F
100
AcDbEntity
  8
7__7
  6
Continuous
 62
     3
100
AcDbCircle
 10
546.493069
 20
707.769228
 30
0.0
 40
0.3959998416000001
  0
CIRCLE
  5
301
330
1F
100
AcDbEntity
  8
7__7
  6
Continuous
 62
     3
100
AcDbCircle
 10
596.493049
 20
707.769228
 30
0.0
 40
0.3959998416000001
  0
CIRCLE
  5
302
330
1F
100
AcDbEntity
  8
7__7
  6
Continuous
 62
     3
100
AcDbCircle
 10
646.493029
 20
707.769228
 30
0.0
 40
0.3959998416000001
  0
CIRCLE
  5
303
330
1F
100
AcDbEntity
  8
7__7
  6
Continuous
 62
     3
100
AcDbCircle
 10
696.493009
 20
707.769228
 30
0.0
 40
0.3959998416000001
  0
CIRCLE
  5
304
330
1F
100
AcDbEntity
  8
7__7
  6
Continuous
 62
     3
100
AcDbCircle
 10
746.492989
 20
707.769228
 30
0.0
 40
0.3959998416000001
  0
CIRCLE
  5
305
330
1F
100
AcDbEntity
  8
7__7
  6
Continuous
 62
     3
100
AcDbCircle
 10
796.492969
 20
707.769228
 30
0.0
 40
0.3959998416000001
  0
CIRCLE
  5
306
330
1F
100
AcDbEntity
  8
7__7
  6
Continuous
 62
     3
100
AcDbCircle
 10
846.491949
 20
707.769228
 30
0.0
 40
0.3959998416000001
  0
CIRCLE
  5
307
330
1F
100
AcDbEntity
  8
7__7
  6
Continuous
 62
     3
100
AcDbCircle
 10
896.492929
 20
707.769228
 30
0.0
 40
0.3959998416000001
  0
CIRCLE
  5
308
330
1F
100
AcDbEntity
  8
7__7
  6
Continuous
 62
     3
100
AcDbCircle
 10
946.389947
 20
707.842574
 30
0.0
 40
0.3959998416000001
  0
CIRCLE
  5
309
330
1F
100
AcDbEntity
  8
7__7
  6
Continuous
 62
     3
100
AcDbCircle
 10
996.389927
 20
707.842574
 30
0.0
 40
0.3959998416000001
  0
CIRCLE
  5
30A
330
1F
100
AcDbEntity
  8
7__7
  6
Continuous
 62
     3
100
AcDbCircle
 10
1046.389907
 20
707.842574
 30
0.0
 40
0.3959998416000001
  0
CIRCLE
  5
30B
330
1F
100
AcDbEntity
  8
7__7
  6
Continuous
 62
     3
100
AcDbCircle
 10
1096.389887
 20
707.842574
 30
0.0
 40
0.3959998416000001
  0
CIRCLE
  5
30C
330
1F
100
AcDbEntity
  8
7__7
  6
Continuous
 62
     3
100
AcDbCircle
 10
1146.389867
 20
707.842574
 30
0.0
 40
0.3959998416000001
  0
CIRCLE
  5
30D
330
1F
100
AcDbEntity
  8
7__7
  6
Continuous
 62
     3
100
AcDbCircle
 10
1196.389847
 20
707.842574
 30
0.0
 40
0.3959998416000001
  0
CIRCLE
  5
30E
330
1F
100
AcDbEntity
  8
7__7
  6
Continuous
 62
     3
100
AcDbCircle
 10
1246.389827
 20
707.842574
 30
0.0
 40
0.3959998416000001
  0
CIRCLE
  5
30F
330
1F
100
AcDbEntity
  8
7__7
  6
Continuous
 62
     3
100
AcDbCircle
 10
1296.521807
 20
707.776574
 30
0.0
 40
0.3959998416000001
  0
LINE
  5
310
330
1F
100
AcDbEntity
  8
7__7
  6
Continuous
 62
     3
100
AcDbLine
 10
470.334994
 20
701.780323
 30
0.0
 11
455.334994
 21
701.780323
 31
0.0
  0
ARC
  5
311
330
1F
100
AcDbEntity
  8
7__7
  6
Continuous
 62
     3
100
AcDbCircle
 10
471.134994
 20
712.980323
 30
0.0
 40
0.8
100
AcDbArc
 50
90.0
 51
180.0
  0
LINE
  5
312
330
1F
100
AcDbEntity
  8
7__7
  6
Continuous
 62
     3
100
AcDbLine
 10
470.334994
 20
701.780323
 30
0.0
 11
470.334994
 21
712.980323
 31
0.0
  0
LINE
  5
313
330
1F
100
AcDbEntity
  8
7__7
  6
Continuous
 62
     3
100
AcDbLine
 10
471.881994
 20
712.280323
 30
0.0
 11
495.334994
 21
712.280323
 31
0.0
  0
LINE
  5
314
330
1F
100
AcDbEntity
  8
7__7
  6
Continuous
 62
     3
100
AcDbLine
 10
495.334994
 20
713.780323
 30
0.0
 11
471.134994
 21
713.780323
 31
0.0
  0
LINE
  5
315
330
1F
100
AcDbEntity
  8
7__7
  6
Continuous
 62
     3
100
AcDbLine
 10
471.834994
 20
712.279323
 30
0.0
 11
471.834994
 21
701.080323
 31
0.0
  0
ARC
  5
316
330
1F
100
AcDbEntity
  8
7__7
  6
Continuous
 62
     3
100
AcDbCircle
 10
471.034994
 20
701.080323
 30
0.0
 40
0.8
100
AcDbArc
 50
270.0
 51
0.0
  0
LINE
  5
317
330
1F
100
AcDbEntity
  8
7__7
  6
Continuous
 62
     6
100
AcDbLine
 10
471.834994
 20
704.280323
 30
0.0
 11
491.834994
 21
704.280323
 31
0.0
  0
LINE
  5
318
330
1F
100
AcDbEntity
  8
7__7
  6
Continuous
 62
     6
100
AcDbLine
 10
491.834994
 20
704.280323
 30
0.0
 11
491.834994
 21
700.280323
 31
0.0
  0
LINE
  5
319
330
1F
100
AcDbEntity
  8
7__7
  6
Continuous
 62
     6
100
AcDbLine
 10
491.834994
 20
700.280323
 30
0.0
 11
471.834994
 21
700.280323
 31
0.0
  0
LINE
  5
31A
330
1F
100
AcDbEntity
  8
7__7
  6
Continuous
 62
     6
100
AcDbLine
 10
471.834994
 20
700.280323
 30
0.0
 11
471.834994
 21
704.280323
 31
0.0
  0
LINE
  5
31B
330
1F
100
AcDbEntity
  8
7__7
  6
Continuous
 62
     6
100
AcDbLine
 10
1340.541646
 20
704.280323
 30
0.0
 11
476.70882
 21
704.280323
 31
0.0
  0
LINE
  5
31C
330
1F
100
AcDbEntity
  8
7__7
  6
Continuous
 62
     6
100
AcDbLine
 10
1336.70882
 20
711.080323
 30
0.0
 11
476.70882
 21
711.080323
 31
0.0
  0
LINE
  5
31D
330
1F
100
AcDbEntity
  8
7__7
  6
Continuous
 62
     6
100
AcDbLine
 10
476.70882
 20
711.080323
 30
0.0
 11
476.70882
 21
704.280323
 31
0.0
  0
LINE
  5
31E
330
1F
100
AcDbEntity
  8
7__7
  6
Continuous
 62
     3
100
AcDbLine
 10
495.334994
 20
713.780323
 30
0.0
 11
495.334994
 21
712.280323
 31
0.0
  0
LINE
  5
31F
330
1F
100
AcDbEntity
  8
7__7
  6
Continuous
 62
     3
100
AcDbLine
 10
455.334994
 20
700.280323
 30
0.0
 11
455.334994
 21
701.780323
 31
0.0
  0
LINE
  5
320
330
1F
100
AcDbEntity
  8
7__7
  6
Continuous
 62
     3
100
AcDbLine
 10
1350.582646
 20
704.166676
 30
0.0
 11
1350.582646
 21
696.165679
 31
0.0
  0
LINE
  5
321
330
1F
100
AcDbEntity
  8
7__7
  6
Continuous
 62
     6
100
AcDbLine
 10
1341.252912
 20
700.280323
 30
0.0
 11
1337.266648
 21
704.266588
 31
0.0
  0
LINE
  5
322
330
1F
100
AcDbEntity
  8
7__7
  6
Continuous
 62
     6
100
AcDbLine
 10
1337.256914
 20
700.280323
 30
0.0
 11
1333.270649
 21
704.266588
 31
0.0
  0
LINE
  5
323
330
1F
100
AcDbEntity
  8
7__7
  6
Continuous
 62
     6
100
AcDbLine
 10
1333.044916
 20
700.280323
 30
0.0
 11
1329.058651
 21
704.266588
 31
0.0
  0
LINE
  5
324
330
1F
100
AcDbEntity
  8
7__7
  6
Continuous
 62
     6
100
AcDbLine
 10
1328.796917
 20
700.280323
 30
0.0
 11
1324.810653
 21
704.266588
 31
0.0
  0
LINE
  5
325
330
1F
100
AcDbEntity
  8
7__7
  6
Continuous
 62
     6
100
AcDbLine
 10
1321.582646
 20
702.742596
 30
0.0
 11
1324.044919
 21
700.280323
 31
0.0
  0
LINE
  5
326
330
1F
100
AcDbEntity
  8
7__7
  6
Continuous
 62
     3
100
AcDbLine
 10
1318.687655
 20
712.280323
 30
0.0
 11
1318.687655
 21
711.080323
 31
0.0
  0
LINE
  5
327
330
1F
100
AcDbEntity
  8
7__7
  6
Continuous
 62
     3
100
AcDbLine
 10
1343.082646
 20
701.780323
 30
0.0
 11
1358.082646
 21
701.780323
 31
0.0
  0
ARC
  5
328
330
1F
100
AcDbEntity
  8
7__7
  6
Continuous
 62
     3
100
AcDbCircle
 10
1342.282646
 20
712.980323
 30
0.0
 40
0.8
100
AcDbArc
 50
0.0
 51
90.0
  0
LINE
  5
329
330
1F
100
AcDbEntity
  8
7__7
  6
Continuous
 62
     3
100
AcDbLine
 10
1343.082646
 20
701.780323
 30
0.0
 11
1343.082646
 21
712.980323
 31
0.0
  0
LINE
  5
32A
330
1F
100
AcDbEntity
  8
7__7
  6
Continuous
 62
     3
100
AcDbLine
 10
1341.535646
 20
712.280323
 30
0.0
 11
1318.082646
 21
712.280323
 31
0.0
  0
LINE
  5
32B
330
1F
100
AcDbEntity
  8
7__7
  6
Continuous
 62
     3
100
AcDbLine
 10
1318.082646
 20
713.780323
 30
0.0
 11
1342.282646
 21
713.780323
 31
0.0
  0
LINE
  5
32C
330
1F
100
AcDbEntity
  8
7__7
  6
Continuous
 62
     3
100
AcDbLine
 10
1341.582646
 20
712.279323
 30
0.0
 11
1341.582646
 21
701.080323
 31
0.0
  0
ARC
  5
32D
330
1F
100
AcDbEntity
  8
7__7
  6
Continuous
 62
     3
100
AcDbCircle
 10
1342.382646
 20
701.080323
 30
0.0
 40
0.8
100
AcDbArc
 50
180.0
 51
270.0
  0
LINE
  5
32E
330
1F
100
AcDbEntity
  8
7__7
  6
Continuous
 62
     6
100
AcDbLine
 10
1341.582646
 20
704.280323
 30
0.0
 11
1321.582646
 21
704.280323
 31
0.0
  0
LINE
  5
32F
330
1F
100
AcDbEntity
  8
7__7
  6
Continuous
 62
     6
100
AcDbLine
 10
1321.582646
 20
704.280323
 30
0.0
 11
1321.582646
 21
700.280323
 31
0.0
  0
LINE
  5
330
330
1F
100
AcDbEntity
  8
7__7
  6
Continuous
 62
     6
100
AcDbLine
 10
1321.582646
 20
700.280323
 30
0.0
 11
1341.582646
 21
700.280323
 31
0.0
  0
LINE
  5
331
330
1F
100
AcDbEntity
  8
7__7
  6
Continuous
 62
     6
100
AcDbLine
 10
1341.582646
 20
700.280323
 30
0.0
 11
1341.582646
 21
704.280323
 31
0.0
  0
LINE
  5
332
330
1F
100
AcDbEntity
  8
7__7
  6
Continuous
 62
     6
100
AcDbLine
 10
1336.70882
 20
711.080323
 30
0.0
 11
1336.70882
 21
704.280323
 31
0.0
  0
LINE
  5
333
330
1F
100
AcDbEntity
  8
7__7
  6
Continuous
 62
     3
100
AcDbLine
 10
1318.082646
 20
713.780323
 30
0.0
 11
1318.082646
 21
712.280323
 31
0.0
  0
LINE
  5
334
330
1F
100
AcDbEntity
  8
7__7
  6
Continuous
 62
     3
100
AcDbLine
 10
1358.082646
 20
700.280323
 30
0.0
 11
1358.082646
 21
701.780323
 31
0.0
  0
LINE
  5
335
330
1F
100
AcDbEntity
  8
7__7
  6
Continuous
 62
     3
100
AcDbLine
 10
1365.70882
 20
271.895799
 30
0.0
 11
1365.70882
 21
172.535259
 31
0.0
  0
LINE
  5
336
330
1F
100
AcDbEntity
  8
7__7
  6
Continuous
 62
     4
100
AcDbLine
 10
1361.20882
 20
274.01712
 30
0.0
 11
1361.20882
 21
450.068064
 31
0.0
  0
LINE
  5
337
330
1F
100
AcDbEntity
  8
7__7
  6
Continuous
 62
     4
100
AcDbLine
 10
1372.20882
 20
274.01712
 30
0.0
 11
1372.20882
 21
450.068064
 31
0.0
  0
LINE
  5
338
330
1F
100
AcDbEntity
  8
7__7
  6
Continuous
 62
     4
100
AcDbLine
 10
1343.5089
 20
537.067467
 30
0.0
 11
1343.5089
 21
490.868064
 31
0.0
  0
LINE
  5
339
330
1F
100
AcDbEntity
  8
7__7
  6
Continuous
 62
     4
100
AcDbLine
 10
1387.4089
 20
537.066548
 30
0.0
 11
1387.4089
 21
490.868064
 31
0.0
  0
ARC
  5
33A
330
1F
100
AcDbEntity
  8
7__7
  6
Continuous
 62
     3
100
AcDbCircle
 10
1342.2089
 20
489.568064
 30
0.0
 40
1.0
100
AcDbArc
 50
180.0
 51
270.0
  0
ARC
  5
33B
330
1F
100
AcDbEntity
  8
7__7
  6
Continuous
 62
     3
100
AcDbCircle
 10
1388.7089
 20
489.568064
 30
0.0
 40
1.0
100
AcDbArc
 50
270.0
 51
0.0
  0
LINE
  5
33C
330
1F
100
AcDbEntity
  8
7__7
  6
Continuous
 62
     4
100
AcDbLine
 10
1342.2089
 20
488.568064
 30
0.0
 11
1388.7089
 21
488.568064
 31
0.0
  0
LINE
  5
33D
330
1F
100
AcDbEntity
  8
7__7
  6
Continuous
 62
     4
100
AcDbLine
 10
1343.5089
 20
490.868064
 30
0.0
 11
1387.4089
 21
490.868064
 31
0.0
  0
ARC
  5
33E
330
1F
100
AcDbEntity
  8
7__7
  6
Continuous
 62
     4
100
AcDbCircle
 10
1363.95882
 20
274.01712
 30
0.0
 40
2.749999999999972
100
AcDbArc
 50
180.0
 51
0.0
  0
ARC
  5
33F
330
1F
100
AcDbEntity
  8
7__7
  6
Continuous
 62
     4
100
AcDbCircle
 10
1369.45882
 20
274.01712
 30
0.0
 40
2.749999999999972
100
AcDbArc
 50
0.0
 51
180.0
  0
LINE
  5
340
330
1F
100
AcDbEntity
  8
7__7
  6
Continuous
 62
     3
100
AcDbLine
 10
1367.70882
 20
276.13844
 30
0.0
 11
1367.70882
 21
172.554081
 31
0.0
  0
LINE
  5
341
330
1F
100
AcDbEntity
  8
7__7
  6
Continuous
 62
     3
100
AcDbLine
 10
1359.20882
 20
537.067159
 30
0.0
 11
1359.20882
 21
538.568065
 31
0.0
  0
LINE
  5
342
330
1F
100
AcDbEntity
  8
7__7
  6
Continuous
 62
     3
100
AcDbLine
 10
1374.20882
 20
537.066845
 30
0.0
 11
1374.20882
 21
538.568065
 31
0.0
  0
LINE
  5
343
330
1F
100
AcDbEntity
  8
7__7
  6
Continuous
 62
     4
100
AcDbLine
 10
1359.95882
 20
478.568064
 30
0.0
 11
1373.45882
 21
478.568064
 31
0.0
  0
LINE
  5
344
330
1F
100
AcDbEntity
  8
7__7
  6
Continuous
 62
     4
100
AcDbLine
 10
1373.45882
 20
478.568064
 30
0.0
 11
1373.45882
 21
450.068064
 31
0.0
  0
LINE
  5
345
330
1F
100
AcDbEntity
  8
7__7
  6
Continuous
 62
     4
100
AcDbLine
 10
1373.45882
 20
450.068064
 30
0.0
 11
1359.95882
 21
450.068064
 31
0.0
  0
LINE
  5
346
330
1F
100
AcDbEntity
  8
7__7
  6
Continuous
 62
     4
100
AcDbLine
 10
1359.95882
 20
450.068064
 30
0.0
 11
1359.95882
 21
478.568064
 31
0.0
  0
LINE
  5
347
330
1F
100
AcDbEntity
  8
7__7
  6
Continuous
 62
     4
100
AcDbLine
 10
1359.95882
 20
478.568064
 30
0.0
 11
1362.70882
 21
483.068064
 31
0.0
  0
LINE
  5
348
330
1F
100
AcDbEntity
  8
7__7
  6
Continuous
 62
     4
100
AcDbLine
 10
1362.70882
 20
483.068064
 30
0.0
 11
1370.70882
 21
483.068064
 31
0.0
  0
LINE
  5
349
330
1F
100
AcDbEntity
  8
7__7
  6
Continuous
 62
     4
100
AcDbLine
 10
1370.70882
 20
483.068064
 30
0.0
 11
1373.45882
 21
478.568064
 31
0.0
  0
LINE
  5
34A
330
1F
100
AcDbEntity
  8
7__7
  6
Continuous
 62
     4
100
AcDbLine
 10
1361.70882
 20
488.568064
 30
0.0
 11
1361.70882
 21
490.868064
 31
0.0
  0
LINE
  5
34B
330
1F
100
AcDbEntity
  8
7__7
  6
Continuous
 62
     4
100
AcDbLine
 10
1362.70882
 20
496.368064
 30
0.0
 11
1362.70882
 21
504.068064
 31
0.0
  0
LINE
  5
34C
330
1F
100
AcDbEntity
  8
7__7
  6
Continuous
 62
     4
100
AcDbLine
 10
1362.70882
 20
504.068064
 30
0.0
 11
1363.70882
 21
505.068064
 31
0.0
  0
LINE
  5
34D
330
1F
100
AcDbEntity
  8
7__7
  6
Continuous
 62
     4
100
AcDbLine
 10
1363.70882
 20
505.068064
 30
0.0
 11
1369.70882
 21
505.068064
 31
0.0
  0
LINE
  5
34E
330
1F
100
AcDbEntity
  8
7__7
  6
Continuous
 62
     4
100
AcDbLine
 10
1369.70882
 20
505.068064
 30
0.0
 11
1370.70882
 21
504.068064
 31
0.0
  0
LINE
  5
34F
330
1F
100
AcDbEntity
  8
7__7
  6
Continuous
 62
     4
100
AcDbLine
 10
1370.70882
 20
504.068064
 30
0.0
 11
1370.70882
 21
496.368064
 31
0.0
  0
LINE
  5
350
330
1F
100
AcDbEntity
  8
7__7
  6
Continuous
 62
     4
100
AcDbLine
 10
1371.70882
 20
490.868064
 30
0.0
 11
1371.70882
 21
488.568064
 31
0.0
  0
ARC
  5
351
330
1F
100
AcDbEntity
  8
7__7
  6
Continuous
 62
     3
100
AcDbCircle
 10
1366.70882
 20
486.613649
 30
0.0
 40
9.754415587707356
100
AcDbArc
 50
65.790724
 51
114.209276
  0
ARC
  5
352
330
1F
100
AcDbEntity
  8
7__7
  6
Continuous
 62
     3
100
AcDbCircle
 10
1372.280937
 20
494.506716
 30
0.0
 40
1.865081654395928
100
AcDbArc
 50
93.62604
 51
147.449869
  0
LINE
  5
353
330
1F
100
AcDbEntity
  8
7__7
  6
Continuous
 62
     3
100
AcDbLine
 10
1359.203267
 20
490.868064
 30
0.0
 11
1374.214374
 21
490.868064
 31
0.0
  0
LINE
  5
354
330
1F
100
AcDbEntity
  8
7__7
  6
Continuous
 62
     3
100
AcDbLine
 10
1362.70882
 20
490.868064
 30
0.0
 11
1362.70882
 21
495.5102
 31
0.0
  0
LINE
  5
355
330
1F
100
AcDbEntity
  8
7__7
  6
Continuous
 62
     3
100
AcDbLine
 10
1360.20882
 20
496.368064
 30
0.0
 11
1366.70882
 21
496.368064
 31
0.0
  0
LINE
  5
356
330
1F
100
AcDbEntity
  8
7__7
  6
Continuous
 62
     3
100
AcDbLine
 10
1374.214374
 20
490.868064
 30
0.0
 11
1374.214374
 21
495.787508
 31
0.0
  0
LINE
  5
357
330
1F
100
AcDbEntity
  8
7__7
  6
Continuous
 62
     3
100
AcDbLine
 10
1370.70882
 20
490.868064
 30
0.0
 11
1370.70882
 21
495.5102
 31
0.0
  0
LINE
  5
358
330
1F
100
AcDbEntity
  8
7__7
  6
Continuous
 62
     3
100
AcDbLine
 10
1373.20882
 20
496.368064
 30
0.0
 11
1366.70882
 21
496.368064
 31
0.0
  0
LINE
  5
359
330
1F
100
AcDbEntity
  8
7__7
  6
Continuous
 62
     3
100
AcDbLine
 10
1359.203267
 20
490.868064
 30
0.0
 11
1359.203267
 21
495.787508
 31
0.0
  0
LINE
  5
35A
330
1F
100
AcDbEntity
  8
7__7
  6
Continuous
 62
     3
100
AcDbLine
 10
1359.203267
 20
495.787508
 30
0.0
 11
1360.20882
 21
496.368064
 31
0.0
  0
LINE
  5
35B
330
1F
100
AcDbEntity
  8
7__7
  6
Continuous
 62
     3
100
AcDbLine
 10
1374.214374
 20
495.787508
 30
0.0
 11
1373.20882
 21
496.368064
 31
0.0
  0
ARC
  5
35C
330
1F
100
AcDbEntity
  8
7__7
  6
Continuous
 62
     3
100
AcDbCircle
 10
1361.136703
 20
494.506716
 30
0.0
 40
1.865081654395928
100
AcDbArc
 50
32.550131
 51
86.37396
  0
ARC
  5
35D
330
1F
100
AcDbEntity
  8
7__7
  6
Continuous
 62
     3
100
AcDbCircle
 10
1366.70882
 20
492.82248
 30
0.0
 40
9.754415587707356
100
AcDbArc
 50
245.790724
 51
294.209276
  0
ARC
  5
35E
330
1F
100
AcDbEntity
  8
7__7
  6
Continuous
 62
     3
100
AcDbCircle
 10
1372.280937
 20
484.929412
 30
0.0
 40
1.865081654395928
100
AcDbArc
 50
212.550131
 51
266.37396
  0
LINE
  5
35F
330
1F
100
AcDbEntity
  8
7__7
  6
Continuous
 62
     3
100
AcDbLine
 10
1362.70882
 20
488.568064
 30
0.0
 11
1362.70882
 21
483.925929
 31
0.0
  0
LINE
  5
360
330
1F
100
AcDbEntity
  8
7__7
  6
Continuous
 62
     3
100
AcDbLine
 10
1360.20882
 20
483.068064
 30
0.0
 11
1366.70882
 21
483.068064
 31
0.0
  0
LINE
  5
361
330
1F
100
AcDbEntity
  8
7__7
  6
Continuous
 62
     3
100
AcDbLine
 10
1374.214374
 20
487.987508
 30
0.0
 11
1374.214374
 21
483.648621
 31
0.0
  0
LINE
  5
362
330
1F
100
AcDbEntity
  8
7__7
  6
Continuous
 62
     3
100
AcDbLine
 10
1370.70882
 20
488.568064
 30
0.0
 11
1370.70882
 21
483.925929
 31
0.0
  0
LINE
  5
363
330
1F
100
AcDbEntity
  8
7__7
  6
Continuous
 62
     3
100
AcDbLine
 10
1373.20882
 20
483.068064
 30
0.0
 11
1366.70882
 21
483.068064
 31
0.0
  0
LINE
  5
364
330
1F
100
AcDbEntity
  8
7__7
  6
Continuous
 62
     3
100
AcDbLine
 10
1359.203267
 20
487.987508
 30
0.0
 11
1359.203267
 21
483.648621
 31
0.0
  0
LINE
  5
365
330
1F
100
AcDbEntity
  8
7__7
  6
Continuous
 62
     3
100
AcDbLine
 10
1359.203267
 20
483.648621
 30
0.0
 11
1360.20882
 21
483.068064
 31
0.0
  0
LINE
  5
366
330
1F
100
AcDbEntity
  8
7__7
  6
Continuous
 62
     3
100
AcDbLine
 10
1374.214374
 20
483.648621
 30
0.0
 11
1373.20882
 21
483.068064
 31
0.0
  0
ARC
  5
367
330
1F
100
AcDbEntity
  8
7__7
  6
Continuous
 62
     3
100
AcDbCircle
 10
1361.136703
 20
484.929412
 30
0.0
 40
1.865081654395928
100
AcDbArc
 50
273.62604
 51
327.449869
  0
LINE
  5
368
330
1F
100
AcDbEntity
  8
7__7
  6
Continuous
 62
     4
100
AcDbLine
 10
1362.70882
 20
488.568064
 30
0.0
 11
1370.70882
 21
488.568064
 31
0.0
  0
ARC
  5
369
330
1F
100
AcDbEntity
  8
7__7
  6
Continuous
 62
     3
100
AcDbCircle
 10
1366.70882
 20
478.813649
 30
0.0
 40
9.754415587707356
100
AcDbArc
 50
65.790724
 51
114.209276
  0
ARC
  5
36A
330
1F
100
AcDbEntity
  8
7__7
  6
Continuous
 62
     3
100
AcDbCircle
 10
1372.280937
 20
486.706716
 30
0.0
 40
1.865081654395928
100
AcDbArc
 50
93.62604
 51
147.449869
  0
LINE
  5
36B
330
1F
100
AcDbEntity
  8
7__7
  6
Continuous
 62
     3
100
AcDbLine
 10
1360.20882
 20
488.568064
 30
0.0
 11
1366.70882
 21
488.568064
 31
0.0
  0
LINE
  5
36C
330
1F
100
AcDbEntity
  8
7__7
  6
Continuous
 62
     3
100
AcDbLine
 10
1373.20882
 20
488.568064
 30
0.0
 11
1366.70882
 21
488.568064
 31
0.0
  0
LINE
  5
36D
330
1F
100
AcDbEntity
  8
7__7
  6
Continuous
 62
     3
100
AcDbLine
 10
1359.203267
 20
487.987508
 30
0.0
 11
1360.20882
 21
488.568064
 31
0.0
  0
LINE
  5
36E
330
1F
100
AcDbEntity
  8
7__7
  6
Continuous
 62
     3
100
AcDbLine
 10
1374.214374
 20
487.987508
 30
0.0
 11
1373.20882
 21
488.568064
 31
0.0
  0
ARC
  5
36F
330
1F
100
AcDbEntity
  8
7__7
  6
Continuous
 62
     3
100
AcDbCircle
 10
1361.136703
 20
486.706716
 30
0.0
 40
1.865081654395928
100
AcDbArc
 50
32.550131
 51
86.37396
  0
LINE
  5
370
330
1F
100
AcDbEntity
  8
7__7
  6
Continuous
 62
     3
100
AcDbLine
 10
316.909185
 20
510.805753
 30
0.0
 11
315.361709
 21
508.125504
 31
0.0
  0
CIRCLE
  5
371
330
1F
100
AcDbEntity
  8
7__7
  6
Continuous
 62
     3
100
AcDbCircle
 10
708.969787
 20
711.080323
 30
0.0
 40
2.4
  0
CIRCLE
  5
372
330
1F
100
AcDbEntity
  8
7__7
  6
Continuous
 62
     3
100
AcDbCircle
 10
570.712646
 20
950.551072
 30
0.0
 40
2.4
  0
ARC
  5
373
330
1F
100
AcDbEntity
  8
7__7
  6
Continuous
 62
     3
100
AcDbCircle
 10
432.451424
 20
711.080323
 30
0.0
 40
276.5183628779996
100
AcDbArc
 50
0.0
 51
59.999512
  0
LINE
  5
374
330
1F
100
AcDbEntity
  8
7__7
  6
PLine1
 62
     3
100
AcDbLine
 10
508.106791
 20
902.115158
 30
0.0
 11
786.763446
 21
1384.752027
 31
0.0
  0
LINE
  5
375
330
1F
100
AcDbEntity
  8
7__7
  6
PLine1
 62
     3
100
AcDbLine
 10
856.516297
 20
1445.567778
 30
0.0
 11
508.106791
 21
842.116684
 31
0.0
  0
LINE
  5
376
330
1F
100
AcDbEntity
  8
7__7
  6
PLine1
 62
     3
100
AcDbLine
 10
855.199304
 20
1447.431257
 30
0.0
 11
889.98648
 21
1433.537778
 31
0.0
  0
ARC
  5
377
330
1F
100
AcDbEntity
  8
7__7
  6
PLine1
 62
     3
100
AcDbCircle
 10
815.714985
 20
894.438076
 30
0.0
 40
527.0979152400001
100
AcDbArc
 50
92.100548
 51
207.952947
  0
LINE
  5
378
330
1F
100
AcDbEntity
  8
7__7
  6
Continuous
 62
     3
100
AcDbLine
 10
347.173636
 20
647.482606
 30
0.0
 11
347.065571
 21
647.697414
 31
0.0
  0
ARC
  5
379
330
1F
100
AcDbEntity
  8
7__7
  6
PLine1
 62
     3
100
AcDbCircle
 10
795.427709
 20
1428.336107
 30
0.0
 40
4.359825600000001
100
AcDbArc
 50
273.664005
 51
334.194584
  0
ARC
  5
37A
330
1F
100
AcDbEntity
  8
7__7
  6
PLine1
 62
     3
100
AcDbCircle
 10
795.753212
 20
1428.123926
 30
0.0
 40
6.964721400000001
100
AcDbArc
 50
274.659229
 51
328.995823
  0
ARC
  5
37B
330
1F
100
AcDbEntity
  8
7__7
  6
PLine1
 62
     3
100
AcDbCircle
 10
815.219041
 20
894.923017
 30
0.0
 40
529.42782204
100
AcDbArc
 50
92.109073
 51
207.863956
  0
LINE
  5
37C
330
1F
100
AcDbEntity
  8
7__7
  6
PLine1
 62
     3
100
AcDbLine
 10
798.994763
 20
1425.844779
 30
0.0
 11
858.762358
 21
1529.363014
 31
0.0
  0
LINE
  5
37D
330
1F
100
AcDbEntity
  8
7__7
  6
PLine1
 62
     3
100
AcDbLine
 10
864.479182
 20
1531.667054
 30
0.0
 11
900.460688
 21
1521.473268
 31
0.0
  0
ARC
  5
37E
330
1F
100
AcDbEntity
  8
7__7
  6
PLine1
 62
     3
100
AcDbCircle
 10
863.092288
 20
1526.863072
 30
0.0
 40
4.9998
100
AcDbArc
 50
73.896746
 51
149.999454
  0
LINE
  5
37F
330
1F
100
AcDbEntity
  8
7__7
  6
PLine1
 62
     3
100
AcDbLine
 10
801.561222
 20
1424.290257
 30
0.0
 11
861.360316
 21
1527.863049
 31
0.0
  0
ARC
  5
380
330
1F
100
AcDbEntity
  8
7__7
  6
PLine1
 62
     3
100
AcDbCircle
 10
863.092288
 20
1526.863072
 30
0.0
 40
1.99992
100
AcDbArc
 50
73.889748
 51
149.999454
  0
LINE
  5
381
330
1F
100
AcDbEntity
  8
7__7
  6
PLine1
 62
     3
100
AcDbLine
 10
898.912934
 20
1518.795169
 30
0.0
 11
863.647092
 21
1528.783946
 31
0.0
  0
ARC
  5
382
330
1F
100
AcDbEntity
  8
7__7
  6
Continuous
 62
     3
100
AcDbCircle
 10
292.159554
 20
537.938323
 30
0.0
 40
1.99992
100
AcDbArc
 50
149.999454
 51
225.789524
  0
ARC
  5
383
330
1F
100
AcDbEntity
  8
7__7
  6
Continuous
 62
     3
100
AcDbCircle
 10
292.159554
 20
537.938323
 30
0.0
 40
4.9998
100
AcDbArc
 50
149.999454
 51
225.782566
  0
LINE
  5
384
330
1F
100
AcDbEntity
  8
7__7
  6
PLine1
 62
     3
100
AcDbLine
 10
290.427582
 20
538.938299
 30
0.0
 11
349.792187
 21
641.758549
 31
0.0
  0
LINE
  5
385
330
1F
100
AcDbEntity
  8
7__7
  6
PLine1
 62
     3
100
AcDbLine
 10
315.361709
 20
508.125504
 30
0.0
 11
288.672681
 21
534.354874
 31
0.0
  0
LINE
  5
386
330
1F
100
AcDbEntity
  8
7__7
  6
PLine1
 62
     3
100
AcDbLine
 10
287.829624
 20
540.438264
 30
0.0
 11
347.194229
 21
643.258514
 31
0.0
  0
LINE
  5
387
330
1F
100
AcDbEntity
  8
7__7
  6
PLine1
 62
     3
100
AcDbLine
 10
316.909185
 20
510.805753
 30
0.0
 11
290.764878
 21
536.50467
 31
0.0
  0
LINE
  5
388
330
1F
100
AcDbEntity
  8
7__7
  6
PLine1
 62
     3
100
AcDbLine
 10
855.855864
 20
1448.784243
 30
0.0
 11
890.542828
 21
1434.930788
 31
0.0
  0
ARC
  5
389
330
1F
100
AcDbEntity
  8
7__7
  6
Continuous
 62
     3
100
AcDbCircle
 10
342.976588
 20
645.322977
 30
0.0
 40
4.71781128
100
AcDbArc
 50
334.542924
 51
26.602421
  0
ARC
  5
38A
330
1F
100
AcDbEntity
  8
7__7
  6
Continuous
 62
     3
100
AcDbCircle
 10
343.976548
 20
644.883043
 30
0.0
 40
6.617735280000001
100
AcDbArc
 50
331.982456
 51
22.208483
  0
LINE
  5
38B
330
1F
100
AcDbEntity
  8
7__7
  6
PLine1
 62
     3
100
AcDbLine
 10
889.98648
 20
1433.537778
 30
0.0
 11
890.542828
 21
1434.930788
 31
0.0
  0
ARC
  5
38C
330
1F
100
AcDbEntity
  8
7__7
  6
PLine1
 62
     3
100
AcDbCircle
 10
812.377994
 20
1371.117842
 30
0.0
 40
1.0
100
AcDbArc
 50
239.999454
 51
330.000051
  0
LINE
  5
38D
330
1F
100
AcDbEntity
  8
7__7
  6
PLine1
 62
     3
100
AcDbLine
 10
831.26418
 20
1461.827864
 30
0.0
 11
786.763446
 21
1384.752027
 31
0.0
  0
LINE
  5
38E
330
1F
100
AcDbEntity
  8
7__7
  6
PLine1
 62
     3
100
AcDbLine
 10
794.821514
 20
1381.831657
 30
0.0
 11
788.461713
 21
1385.50357
 31
0.0
  0
LINE
  5
38F
330
1F
100
AcDbEntity
  8
7__7
  6
PLine1
 62
     3
100
AcDbLine
 10
812.945012
 20
1373.099881
 30
0.0
 11
789.65511
 21
1386.546607
 31
0.0
  0
LINE
  5
390
330
1F
100
AcDbEntity
  8
7__7
  6
PLine1
 62
     3
100
AcDbLine
 10
787.513459
 20
1386.051058
 30
0.0
 11
788.576023
 21
1385.437572
 31
0.0
  0
ARC
  5
391
330
1F
100
AcDbEntity
  8
7__7
  6
PLine1
 62
     3
100
AcDbCircle
 10
855.628793
 20
1446.028578
 30
0.0
 40
1.0
100
AcDbArc
 50
329.999454
 51
59.999454
  0
LINE
  5
392
330
1F
100
AcDbEntity
  8
7__7
  6
PLine1
 62
     3
100
AcDbLine
 10
812.743303
 20
1369.752219
 30
0.0
 11
786.763446
 21
1384.752027
 31
0.0
  0
ARC
  5
393
330
1F
100
AcDbEntity
  8
7__7
  6
PLine1
 62
     3
100
AcDbCircle
 10
788.842934
 20
1386.353838
 30
0.0
 40
0.9999600000000002
100
AcDbArc
 50
149.999454
 51
239.999454
  0
ARC
  5
394
330
1F
100
AcDbEntity
  8
7__7
  6
PLine1
 62
     3
100
AcDbCircle
 10
832.130201
 20
1461.327856
 30
0.0
 40
1.0
100
AcDbArc
 50
59.999454
 51
149.999454
  0
LINE
  5
395
330
1F
100
AcDbEntity
  8
7__7
  6
PLine1
 62
     3
100
AcDbLine
 10
855.855864
 20
1448.784243
 30
0.0
 11
832.630209
 21
1462.193876
 31
0.0
  0
LINE
  5
396
330
1F
100
AcDbEntity
  8
7__7
  6
PLine1
 62
     3
100
AcDbLine
 10
794.790339
 20
1381.849656
 30
0.0
 11
812.194999
 21
1371.80085
 31
0.0
  0
LINE
  5
397
330
1F
100
AcDbEntity
  8
7__7
  6
PLine1
 62
     3
100
AcDbLine
 10
856.128802
 20
1446.894599
 30
0.0
 11
832.405816
 21
1460.591372
 31
0.0
  0
LINE
  5
398
330
1F
100
AcDbEntity
  8
7__7
  6
PLine1
 62
     3
100
AcDbLine
 10
831.655803
 20
1459.292341
 30
0.0
 11
854.945778
 21
1445.845572
 31
0.0
  0
LINE
  5
399
330
1F
100
AcDbEntity
  8
7__7
  6
PLine1
 62
     3
100
AcDbLine
 10
854.945778
 20
1445.845572
 30
0.0
 11
812.194999
 21
1371.80085
 31
0.0
  0
LINE
  5
39A
330
1F
100
AcDbEntity
  8
7__7
  6
PLine1
 62
     3
100
AcDbLine
 10
798.864908
 20
1464.368107
 30
0.0
 11
834.582702
 21
1443.745976
 31
0.0
  0
LINE
  5
39B
330
1F
100
AcDbEntity
  8
7__7
  6
PLine1
 62
     3
100
AcDbLine
 10
813.5653
 20
1445.019477
 30
0.0
 11
823.08242
 21
1447.569484
 31
0.0
  0
LINE
  5
39C
330
1F
100
AcDbEntity
  8
7__7
  6
PLine1
 62
     3
100
AcDbLine
 10
817.04833
 20
1442.322604
 30
0.0
 11
820.543218
 21
1443.259021
 31
0.0
  0
LINE
  5
39D
330
1F
100
AcDbEntity
  8
7__7
  6
PLine1
 62
     3
100
AcDbLine
 10
819.166757
 20
1441.099502
 30
0.0
 11
813.268293
 21
1444.505057
 31
0.0
  0
LINE
  5
39E
330
1F
100
AcDbEntity
  8
7__7
  6
PLine1
 62
     3
100
AcDbLine
 10
815.905338
 20
1449.072452
 30
0.0
 11
825.362716
 21
1451.606452
 31
0.0
  0
LINE
  5
39F
330
1F
100
AcDbEntity
  8
7__7
  6
PLine1
 62
     3
100
AcDbLine
 10
817.802368
 20
1452.358133
 30
0.0
 11
820.336368
 21
1442.900755
 31
0.0
  0
LINE
  5
3A0
330
1F
100
AcDbEntity
  8
7__7
  6
PLine1
 62
     3
100
AcDbLine
 10
823.219095
 20
1461.853971
 30
0.0
 11
829.287299
 21
1458.350414
 31
0.0
  0
LINE
  5
3A1
330
1F
100
AcDbEntity
  8
7__7
  6
PLine1
 62
     3
100
AcDbLine
 10
821.533428
 20
1458.820376
 30
0.0
 11
826.273552
 21
1460.09044
 31
0.0
  0
LINE
  5
3A2
330
1F
100
AcDbEntity
  8
7__7
  6
PLine1
 62
     3
100
AcDbLine
 10
807.433606
 20
1442.100255
 30
0.0
 11
822.434477
 21
1468.081956
 31
0.0
  0
LINE
  5
3A3
330
1F
100
AcDbEntity
  8
7__7
  6
PLine1
 62
     3
100
AcDbLine
 10
806.695745
 20
1442.526269
 30
0.0
 11
821.697193
 21
1468.506965
 31
0.0
  0
LINE
  5
3A4
330
1F
100
AcDbEntity
  8
7__7
  6
PLine1
 62
     3
100
AcDbLine
 10
807.121838
 20
1442.280258
 30
0.0
 11
822.123227
 21
1468.262853
 31
0.0
  0
LINE
  5
3A5
330
1F
100
AcDbEntity
  8
7__7
  6
PLine1
 62
     3
100
AcDbLine
 10
807.83892
 20
1441.866242
 30
0.0
 11
822.839952
 21
1467.848219
 31
0.0
  0
LINE
  5
3A6
330
1F
100
AcDbEntity
  8
7__7
  6
PLine1
 62
     3
100
AcDbLine
 10
822.794449
 20
1461.004479
 30
0.0
 11
825.328449
 21
1451.547101
 31
0.0
  0
LINE
  5
3A7
330
1F
100
AcDbEntity
  8
7__7
  6
PLine1
 62
     3
100
AcDbLine
 10
820.220409
 20
1456.546211
 30
0.0
 11
822.754893
 21
1447.089671
 31
0.0
  0
LINE
  5
3A8
330
1F
100
AcDbEntity
  8
7__7
  6
PLine1
 62
     3
100
AcDbLine
 10
815.306328
 20
1448.034959
 30
0.0
 11
816.798195
 21
1442.467022
 31
0.0
  0
LINE
  5
3A9
330
1F
100
AcDbEntity
  8
7__7
  6
PLine1
 62
     3
100
AcDbLine
 10
821.242363
 20
1468.769151
 30
0.0
 11
819.942819
 21
1469.518275
 31
0.0
  0
LINE
  5
3AA
330
1F
100
AcDbEntity
  8
7__7
  6
PLine1
 62
     3
100
AcDbLine
 10
805.479241
 20
1450.955063
 30
0.0
 11
813.78813
 21
1465.346165
 31
0.0
  0
LINE
  5
3AB
330
1F
100
AcDbEntity
  8
7__7
  6
PLine1
 62
     3
100
AcDbLine
 10
804.943303
 20
1443.538923
 30
0.0
 11
819.942819
 21
1469.518275
 31
0.0
  0
ARC
  5
3AC
330
1F
100
AcDbEntity
  8
7__7
  6
PLine1
 62
     3
100
AcDbCircle
 10
817.902355
 20
1462.290227
 30
0.0
 40
5.124997950000001
100
AcDbArc
 50
81.123618
 51
143.072758
  0
LINE
  5
3AD
330
1F
100
AcDbEntity
  8
7__7
  6
PLine1
 62
     3
100
AcDbLine
 10
806.241821
 20
1442.788022
 30
0.0
 11
821.242363
 21
1468.769151
 31
0.0
  0
LINE
  5
3AE
330
1F
100
AcDbEntity
  8
7__7
  6
PLine1
 62
     3
100
AcDbLine
 10
821.242363
 20
1468.769151
 30
0.0
 11
823.12503
 21
1467.682029
 31
0.0
  0
ARC
  5
3AF
330
1F
100
AcDbEntity
  8
7__7
  6
PLine1
 62
     3
100
AcDbCircle
 10
806.548024
 20
1456.006157
 30
0.0
 40
3.6
100
AcDbArc
 50
149.999454
 51
239.999454
  0
LINE
  5
3B0
330
1F
100
AcDbEntity
  8
7__7
  6
PLine1
 62
     3
100
AcDbLine
 10
806.133627
 20
1452.08847
 30
0.0
 11
804.747994
 21
1452.888483
 31
0.0
  0
LINE
  5
3B1
330
1F
100
AcDbEntity
  8
7__7
  6
PLine1
 62
     3
100
AcDbLine
 10
806.753538
 20
1463.561991
 30
0.0
 11
803.43035
 21
1457.806187
 31
0.0
  0
ARC
  5
3B2
330
1F
100
AcDbEntity
  8
7__7
  6
PLine1
 62
     3
100
AcDbCircle
 10
809.871212
 20
1461.761961
 30
0.0
 40
3.6
100
AcDbArc
 50
64.999454
 51
149.999454
  0
LINE
  5
3B3
330
1F
100
AcDbEntity
  8
7__7
  6
PLine1
 62
     3
100
AcDbLine
 10
813.133743
 20
1464.212759
 30
0.0
 11
811.392669
 21
1465.024655
 31
0.0
  0
LINE
  5
3B4
330
1F
100
AcDbEntity
  8
7__7
  6
PLine1
 62
     3
100
AcDbLine
 10
818.692312
 20
1453.899527
 30
0.0
 11
828.14969
 21
1456.433527
 31
0.0
  0
LINE
  5
3B5
330
1F
100
AcDbEntity
  8
7__7
  6
PLine1
 62
     3
100
AcDbLine
 10
826.897962
 20
1459.729929
 30
0.0
 11
827.898
 21
1455.997596
 31
0.0
  0
LINE
  5
3B6
330
1F
100
AcDbEntity
  8
7__7
  6
PLine1
 62
     3
100
AcDbLine
 10
806.241821
 20
1442.788022
 30
0.0
 11
808.12461
 21
1441.70111
 31
0.0
  0
LINE
  5
3B7
330
1F
100
AcDbEntity
  8
7__7
  6
PLine1
 62
     3
100
AcDbLine
 10
806.241821
 20
1442.788022
 30
0.0
 11
804.943303
 21
1443.538923
 31
0.0
  0
ARC
  5
3B8
330
1F
100
AcDbEntity
  8
7__7
  6
PLine1
 62
     3
100
AcDbCircle
 10
810.182834
 20
1448.919919
 30
0.0
 40
5.124997950000001
100
AcDbArc
 50
156.602899
 51
218.87529
  0
LINE
  5
3B9
330
1F
100
AcDbEntity
  8
7__7
  6
PLine1
 62
     3
100
AcDbLine
 10
508.106791
 20
910.115026
 30
0.0
 11
795.215973
 21
1407.391779
 31
0.0
  0
LINE
  5
3BA
330
1F
100
AcDbEntity
  8
7__7
  6
PLine1
 62
     3
100
AcDbLine
 10
508.106791
 20
923.714801
 30
0.0
 11
787.410588
 21
1407.472529
 31
0.0
  0
LINE
  5
3BB
330
1F
100
AcDbEntity
  8
7__7
  6
PLine1
 62
     3
100
AcDbLine
 10
800.334977
 20
1416.030668
 30
0.0
 11
807.264005
 21
1412.030104
 31
0.0
  0
LINE
  5
3BC
330
1F
100
AcDbEntity
  8
7__7
  6
PLine1
 62
     3
100
AcDbLine
 10
799.035695
 20
1406.007717
 30
0.0
 11
793.590342
 21
1404.548695
 31
0.0
  0
LINE
  5
3BD
330
1F
100
AcDbEntity
  8
7__7
  6
PLine1
 62
     3
100
AcDbLine
 10
797.037663
 20
1402.5471
 30
0.0
 11
791.59231
 21
1401.088078
 31
0.0
  0
LINE
  5
3BE
330
1F
100
AcDbEntity
  8
7__7
  6
PLine1
 62
     3
100
AcDbLine
 10
794.931629
 20
1398.899423
 30
0.0
 11
789.486276
 21
1397.4404
 31
0.0
  0
LINE
  5
3BF
330
1F
100
AcDbEntity
  8
7__7
  6
PLine1
 62
     3
100
AcDbLine
 10
792.807595
 20
1395.220569
 30
0.0
 11
787.362242
 21
1393.761546
 31
0.0
  0
LINE
  5
3C0
330
1F
100
AcDbEntity
  8
7__7
  6
PLine1
 62
     3
100
AcDbLine
 10
787.06802
 20
1390.204018
 30
0.0
 11
790.431556
 21
1391.10524
 31
0.0
  0
LINE
  5
3C1
330
1F
100
AcDbEntity
  8
7__7
  6
PLine1
 62
     3
100
AcDbLine
 10
777.360632
 20
1392.465838
 30
0.0
 11
778.399857
 21
1391.865828
 31
0.0
  0
LINE
  5
3C2
330
1F
100
AcDbEntity
  8
7__7
  6
PLine1
 62
     3
100
AcDbLine
 10
798.651546
 20
1408.342317
 30
0.0
 11
806.15167
 21
1421.332626
 31
0.0
  0
ARC
  5
3C3
330
1F
100
AcDbEntity
  8
7__7
  6
PLine1
 62
     3
100
AcDbCircle
 10
788.552108
 20
1413.249593
 30
0.0
 40
0.8
100
AcDbArc
 50
59.999454
 51
149.999454
  0
LINE
  5
3C4
330
1F
100
AcDbEntity
  8
7__7
  6
PLine1
 62
     3
100
AcDbLine
 10
798.651546
 20
1408.342317
 30
0.0
 11
788.952115
 21
1413.942409
 31
0.0
  0
LINE
  5
3C5
330
1F
100
AcDbEntity
  8
7__7
  6
PLine1
 62
     3
100
AcDbLine
 10
788.784816
 20
1412.252669
 30
0.0
 11
777.058123
 21
1391.941887
 31
0.0
  0
LINE
  5
3C6
330
1F
100
AcDbEntity
  8
7__7
  6
PLine1
 62
     3
100
AcDbLine
 10
775.759092
 20
1392.6919
 30
0.0
 11
787.859292
 21
1413.649599
 31
0.0
  0
LINE
  5
3C7
330
1F
100
AcDbEntity
  8
7__7
  6
PLine1
 62
     3
100
AcDbLine
 10
788.809183
 20
1412.292872
 30
0.0
 11
798.507748
 21
1406.69328
 31
0.0
  0
ARC
  5
3C8
330
1F
100
AcDbEntity
  8
7__7
  6
PLine1
 62
     3
100
AcDbCircle
 10
798.907754
 20
1407.386097
 30
0.0
 40
0.8
100
AcDbArc
 50
239.999454
 51
329.999454
  0
LINE
  5
3C9
330
1F
100
AcDbEntity
  8
7__7
  6
PLine1
 62
     3
100
AcDbLine
 10
795.736482
 20
1408.293306
 30
0.0
 11
785.736317
 21
1390.972894
 31
0.0
  0
LINE
  5
3CA
330
1F
100
AcDbEntity
  8
7__7
  6
PLine1
 62
     3
100
AcDbLine
 10
785.736317
 20
1390.972894
 30
0.0
 11
789.200399
 21
1388.972861
 31
0.0
  0
LINE
  5
3CB
330
1F
100
AcDbEntity
  8
7__7
  6
PLine1
 62
     3
100
AcDbLine
 10
789.200399
 20
1388.972861
 30
0.0
 11
799.200564
 21
1406.293273
 31
0.0
  0
LINE
  5
3CC
330
1F
100
AcDbEntity
  8
7__7
  6
PLine1
 62
     3
100
AcDbLine
 10
799.200564
 20
1406.293273
 30
0.0
 11
795.736482
 21
1408.293306
 31
0.0
  0
LINE
  5
3CD
330
1F
100
AcDbEntity
  8
7__7
  6
PLine1
 62
     3
100
AcDbLine
 10
787.410588
 20
1407.472529
 30
0.0
 11
793.299529
 21
1404.072472
 31
0.0
  0
LINE
  5
3CE
330
1F
100
AcDbEntity
  8
7__7
  6
PLine1
 62
     3
100
AcDbLine
 10
775.759092
 20
1392.6919
 30
0.0
 11
777.058123
 21
1391.941887
 31
0.0
  0
LINE
  5
3CF
330
1F
100
AcDbEntity
  8
7__7
  6
PLine1
 62
     3
100
AcDbLine
 10
807.450701
 20
1420.582614
 30
0.0
 11
806.15167
 21
1421.332626
 31
0.0
  0
LINE
  5
3D0
330
1F
100
AcDbEntity
  8
7__7
  6
PLine4
 62
     3
100
AcDbLine
 10
1235.277081
 20
745.596365
 30
0.0
 11
811.630035
 21
1321.690928
 31
0.0
  0
LINE
  5
3D1
330
1F
100
AcDbEntity
  8
7__7
  6
PLine2
 62
     3
100
AcDbLine
 10
687.538109
 20
640.28058
 30
0.0
 11
704.064639
 21
640.28058
 31
0.0
  0
LINE
  5
3D2
330
1F
100
AcDbEntity
  8
7__7
  6
Continuous
 62
     3
100
AcDbLine
 10
1179.70882
 20
540.867152
 30
0.0
 11
1139.70882
 21
540.867152
 31
0.0
  0
LINE
  5
3D3
330
1F
100
AcDbEntity
  8
7__7
  6
Continuous
 62
     3
100
AcDbLine
 10
1179.70882
 20
543.167152
 30
0.0
 11
1157.09987
 21
575.303054
 31
0.0
  0
LINE
  5
3D4
330
1F
100
AcDbEntity
  8
7__7
  6
Continuous
 62
     3
100
AcDbLine
 10
1139.70882
 20
568.567152
 30
0.0
 11
1139.70882
 21
538.567152
 31
0.0
  0
CIRCLE
  5
3D5
330
1F
100
AcDbEntity
  8
7__7
  6
Continuous
 62
     3
100
AcDbCircle
 10
1150.013816
 20
568.532726
 30
0.0
 40
4.764998093999999
  0
LINE
  5
3D6
330
1F
100
AcDbEntity
  8
7__7
  6
PLine2
 62
     3
100
AcDbLine
 10
675.704562
 20
643.416029
 30
0.0
 11
1169.800858
 21
565.394467
 31
0.0
  0
LINE
  5
3D7
330
1F
100
AcDbEntity
  8
7__7
  6
Continuous
 62
     3
100
AcDbLine
 10
1179.70882
 20
543.167152
 30
0.0
 11
1179.70882
 21
538.567152
 31
0.0
  0
LINE
  5
3D8
330
1F
100
AcDbEntity
  8
7__7
  6
Continuous
 62
     3
100
AcDbLine
 10
1139.70882
 20
543.167152
 30
0.0
 11
1179.70882
 21
543.167152
 31
0.0
  0
LINE
  5
3D9
330
1F
100
AcDbEntity
  8
7__7
  6
PLine2
 62
     3
100
AcDbLine
 10
1149.70882
 20
580.565365
 30
0.0
 11
1149.70882
 21
556.638153
 31
0.0
  0
ARC
  5
3DA
330
1F
100
AcDbEntity
  8
7__7
  6
Continuous
 62
     3
100
AcDbCircle
 10
1149.70882
 20
568.567152
 30
0.0
 40
10.0
100
AcDbArc
 50
42.344768
 51
180.0
  0
LINE
  5
3DB
330
1F
100
AcDbEntity
  8
7__7
  6
Continuous
 62
     4
100
AcDbLine
 10
705.687515
 20
651.336376
 30
0.0
 11
722.20468
 21
648.72819
 31
0.0
  0
LINE
  5
3DC
330
1F
100
AcDbEntity
  8
7__7
  6
Continuous
 62
     4
100
AcDbLine
 10
1123.53604
 20
585.354916
 30
0.0
 11
727.143485
 21
647.948315
 31
0.0
  0
LINE
  5
3DD
330
1F
100
AcDbEntity
  8
7__7
  6
Continuous
 62
     4
100
AcDbLine
 10
693.61128
 20
627.933539
 30
0.0
 11
718.305305
 21
624.034164
 31
0.0
  0
LINE
  5
3DE
330
1F
100
AcDbEntity
  8
7__7
  6
Continuous
 62
     4
100
AcDbLine
 10
1119.636666
 20
560.660891
 30
0.0
 11
723.24411
 21
623.25429
 31
0.0
  0
LINE
  5
3DF
330
1F
100
AcDbEntity
  8
7__7
  6
Continuous
 62
     4
100
AcDbLine
 10
1123.53604
 20
585.354916
 30
0.0
 11
1119.636666
 21
560.660891
 31
0.0
  0
ARC
  5
3E0
330
1F
100
AcDbEntity
  8
7__7
  6
Continuous
 62
     4
100
AcDbCircle
 10
1122.010155
 20
580.593438
 30
0.0
 40
5.0
100
AcDbArc
 50
351.026654
 51
72.23118
  0
ARC
  5
3E1
330
1F
100
AcDbEntity
  8
7__7
  6
Continuous
 62
     4
100
AcDbCircle
 10
1119.652188
 20
565.660867
 30
0.0
 40
5.0
100
AcDbArc
 50
269.822128
 51
351.026654
  0
LINE
  5
3E2
330
1F
100
AcDbEntity
  8
7__7
  6
Continuous
 62
     4
100
AcDbLine
 10
1123.820289
 20
560.000265
 30
0.0
 11
1127.719664
 21
584.69429
 31
0.0
  0
LINE
  5
3E3
330
1F
100
AcDbEntity
  8
7__7
  6
Continuous
 62
     4
100
AcDbLine
 10
1127.719664
 20
584.69429
 30
0.0
 11
1151.658507
 21
580.914165
 31
0.0
  0
LINE
  5
3E4
330
1F
100
AcDbEntity
  8
7__7
  6
Continuous
 62
     4
100
AcDbLine
 10
1139.582273
 20
557.511328
 30
0.0
 11
1123.820289
 21
560.000265
 31
0.0
  0
ARC
  5
3E5
330
1F
100
AcDbEntity
  8
7__7
  6
Continuous
 62
     4
100
AcDbCircle
 10
1148.805901
 20
568.70973
 30
0.0
 40
12.53337906706985
100
AcDbArc
 50
2.093717
 51
85.209165
  0
LINE
  5
3E6
330
1F
100
AcDbEntity
  8
7__7
  6
Continuous
 62
     4
100
AcDbLine
 10
722.20468
 20
648.72819
 30
0.0
 11
718.305305
 21
624.034164
 31
0.0
  0
ARC
  5
3E7
330
1F
100
AcDbEntity
  8
7__7
  6
Continuous
 62
     4
100
AcDbCircle
 10
695.560967
 20
640.280551
 30
0.0
 40
12.49999999999996
100
AcDbArc
 50
177.371215
 51
261.026654
  0
LINE
  5
3E8
330
1F
100
AcDbEntity
  8
7__7
  6
Continuous
 62
     4
100
AcDbLine
 10
727.143485
 20
647.948315
 30
0.0
 11
723.24411
 21
623.25429
 31
0.0
  0
LINE
  5
3E9
330
1F
100
AcDbEntity
  8
7__7
  6
Continuous
 62
     4
100
AcDbLine
 10
721.190842
 20
642.307743
 30
0.0
 11
726.129647
 21
641.527868
 31
0.0
  0
LINE
  5
3EA
330
1F
100
AcDbEntity
  8
7__7
  6
Continuous
 62
     4
100
AcDbLine
 10
719.319143
 20
630.454611
 30
0.0
 11
724.257948
 21
629.674736
 31
0.0
  0
LINE
  5
3EB
330
1F
100
AcDbEntity
  8
7__7
  6
PLine2
 62
     3
100
AcDbLine
 10
695.560789
 20
650.302305
 30
0.0
 11
695.560789
 21
627.089815
 31
0.0
  0
CIRCLE
  5
3EC
330
1F
100
AcDbEntity
  8
7__7
  6
Continuous
 62
     3
100
AcDbCircle
 10
695.560789
 20
640.28058
 30
0.0
 40
4.5
  0
LINE
  5
3ED
330
1F
100
AcDbEntity
  8
7__7
  6
Continuous
 62
     3
100
AcDbLine
 10
665.560789
 20
667.98058
 30
0.0
 11
705.560789
 21
667.98058
 31
0.0
  0
LINE
  5
3EE
330
1F
100
AcDbEntity
  8
7__7
  6
Continuous
 62
     3
100
AcDbLine
 10
665.560789
 20
665.68058
 30
0.0
 11
688.169739
 21
633.544677
 31
0.0
  0
LINE
  5
3EF
330
1F
100
AcDbEntity
  8
7__7
  6
Continuous
 62
     3
100
AcDbLine
 10
705.560789
 20
640.28058
 30
0.0
 11
705.560789
 21
670.28058
 31
0.0
  0
LINE
  5
3F0
330
1F
100
AcDbEntity
  8
7__7
  6
Continuous
 62
     3
100
AcDbLine
 10
665.560789
 20
665.68058
 30
0.0
 11
665.560789
 21
670.28058
 31
0.0
  0
LINE
  5
3F1
330
1F
100
AcDbEntity
  8
7__7
  6
Continuous
 62
     3
100
AcDbLine
 10
705.560789
 20
665.68058
 30
0.0
 11
665.560789
 21
665.68058
 31
0.0
  0
ARC
  5
3F2
330
1F
100
AcDbEntity
  8
7__7
  6
Continuous
 62
     3
100
AcDbCircle
 10
695.560789
 20
640.28058
 30
0.0
 40
10.0
100
AcDbArc
 50
222.344768
 51
0.0
  0
LINE
  5
3F3
330
1F
100
AcDbEntity
  8
7__7
  6
Continuous
 62
     4
100
AcDbLine
 10
1316.70882
 20
670.281203
 30
0.0
 11
1266.70882
 21
670.281203
 31
0.0
  0
LINE
  5
3F4
330
1F
100
AcDbEntity
  8
7__7
  6
PLine5
 62
     3
100
AcDbLine
 10
1292.97885
 20
631.507686
 30
0.0
 11
1303.549827
 21
642.913943
 31
0.0
  0
LINE
  5
3F5
330
1F
100
AcDbEntity
  8
7__7
  6
Continuous
 62
     4
100
AcDbLine
 10
1310.70882
 20
695.280976
 30
0.0
 11
1316.70882
 21
695.281204
 31
0.0
  0
LINE
  5
3F6
330
1F
100
AcDbEntity
  8
7__7
  6
Continuous
 62
     4
100
AcDbLine
 10
1310.70882
 20
695.280976
 30
0.0
 11
1310.70882
 21
679.281203
 31
0.0
  0
ARC
  5
3F7
330
1F
100
AcDbEntity
  8
7__7
  6
Continuous
 62
     4
100
AcDbCircle
 10
1307.70882
 20
679.281203
 30
0.0
 40
3.0
100
AcDbArc
 50
270.0
 51
0.0
  0
ARC
  5
3F8
330
1F
100
AcDbEntity
  8
7__7
  6
Continuous
 62
     4
100
AcDbCircle
 10
1307.70882
 20
679.281203
 30
0.0
 40
3.0
100
AcDbArc
 50
270.0
 51
0.0
  0
LINE
  5
3F9
330
1F
100
AcDbEntity
  8
7__7
  6
Continuous
 62
     4
100
AcDbLine
 10
1269.70882
 20
676.281203
 30
0.0
 11
1307.70882
 21
676.281203
 31
0.0
  0
LINE
  5
3FA
330
1F
100
AcDbEntity
  8
7__7
  6
Continuous
 62
     3
100
AcDbLine
 10
1283.086539
 20
652.770448
 30
0.0
 11
1347.307289
 21
593.252581
 31
0.0
  0
ARC
  5
3FB
330
1F
100
AcDbEntity
  8
7__7
  6
Continuous
 62
     3
100
AcDbCircle
 10
1315.931942
 20
620.966897
 30
0.0
 40
2.499999999999906
100
AcDbArc
 50
159.067349
 51
227.17657
  0
ARC
  5
3FC
330
1F
100
AcDbEntity
  8
7__7
  6
Continuous
 62
     3
100
AcDbCircle
 10
1315.931942
 20
620.966897
 30
0.0
 40
2.499999999999906
100
AcDbArc
 50
47.17657
 51
115.001106
  0
LINE
  5
3FD
330
1F
100
AcDbEntity
  8
7__7
  6
Continuous
 62
     3
100
AcDbLine
 10
1281.727056
 20
651.303544
 30
0.0
 11
1344.364993
 21
593.252581
 31
0.0
  0
LINE
  5
3FE
330
1F
100
AcDbEntity
  8
7__7
  6
Continuous
 62
     3
100
AcDbLine
 10
1313.552847
 20
618.399815
 30
0.0
 11
1314.232589
 21
619.133267
 31
0.0
  0
LINE
  5
3FF
330
1F
100
AcDbEntity
  8
7__7
  6
Continuous
 62
     3
100
AcDbLine
 10
1318.311037
 20
623.533979
 30
0.0
 11
1317.631295
 21
622.800527
 31
0.0
  0
LINE
  5
400
330
1F
100
AcDbEntity
  8
7__7
  6
Continuous
 62
     3
100
AcDbLine
 10
1275.929725
 20
653.267797
 30
0.0
 11
1313.552847
 21
618.399815
 31
0.0
  0
LINE
  5
401
330
1F
100
AcDbEntity
  8
7__7
  6
Continuous
 62
     3
100
AcDbLine
 10
1278.40605
 20
652.33623
 30
0.0
 11
1314.232589
 21
619.133267
 31
0.0
  0
LINE
  5
402
330
1F
100
AcDbEntity
  8
7__7
  6
Continuous
 62
     3
100
AcDbLine
 10
1281.805552
 20
655.986085
 30
0.0
 11
1317.631295
 21
622.800527
 31
0.0
  0
LINE
  5
403
330
1F
100
AcDbEntity
  8
7__7
  6
Continuous
 62
     3
100
AcDbLine
 10
1280.687915
 20
658.401961
 30
0.0
 11
1318.311037
 21
623.533979
 31
0.0
  0
LINE
  5
404
330
1F
100
AcDbEntity
  8
7__7
  6
Continuous
 62
     3
100
AcDbLine
 10
1273.43372
 20
660.352976
 30
0.0
 11
1282.974889
 21
651.510506
 31
0.0
  0
LINE
  5
405
330
1F
100
AcDbEntity
  8
7__7
  6
Continuous
 62
     3
100
AcDbLine
 10
1274.240832
 20
651.445454
 30
0.0
 11
1283.159131
 21
661.068444
 31
0.0
  0
LINE
  5
406
330
1F
100
AcDbEntity
  8
7__7
  6
Continuous
 62
     4
100
AcDbLine
 10
1276.70882
 20
658.947755
 30
0.0
 11
1276.70882
 21
668.530191
 31
0.0
  0
LINE
  5
407
330
1F
100
AcDbEntity
  8
7__7
  6
Continuous
 62
     4
100
AcDbLine
 10
1278.30882
 20
659.334879
 30
0.0
 11
1278.30882
 21
670.130191
 31
0.0
  0
LINE
  5
408
330
1F
100
AcDbEntity
  8
7__7
  6
Continuous
 62
     4
100
AcDbLine
 10
1279.90882
 20
658.947755
 30
0.0
 11
1279.90882
 21
668.530191
 31
0.0
  0
LINE
  5
409
330
1F
100
AcDbEntity
  8
7__7
  6
Continuous
 62
     4
100
AcDbLine
 10
1288.30882
 20
668.530191
 30
0.0
 11
1279.90882
 21
668.530191
 31
0.0
  0
LINE
  5
40A
330
1F
100
AcDbEntity
  8
7__7
  6
Continuous
 62
     4
100
AcDbLine
 10
1288.30882
 20
670.130191
 30
0.0
 11
1288.30882
 21
668.530191
 31
0.0
  0
LINE
  5
40B
330
1F
100
AcDbEntity
  8
7__7
  6
Continuous
 62
     4
100
AcDbLine
 10
1266.70882
 20
668.530191
 30
0.0
 11
1276.70882
 21
668.530191
 31
0.0
  0
ARC
  5
40C
330
1F
100
AcDbEntity
  8
7__7
  6
Continuous
 62
     4
100
AcDbCircle
 10
1269.70882
 20
673.281203
 30
0.0
 40
3.0
100
AcDbArc
 50
90.0
 51
180.0
  0
LINE
  5
40D
330
1F
100
AcDbEntity
  8
7__7
  6
Continuous
 62
     4
100
AcDbLine
 10
1266.70882
 20
668.530191
 30
0.0
 11
1266.70882
 21
673.281203
 31
0.0
  0
CIRCLE
  5
40E
330
1F
100
AcDbEntity
  8
7__7
  6
Continuous
 62
     3
100
AcDbCircle
 10
1278.30882
 20
655.834879
 30
0.0
 40
3.49999999999999
  0
ARC
  5
40F
330
1F
100
AcDbEntity
  8
7__7
  6
Continuous
 62
     3
100
AcDbCircle
 10
1280.726248
 20
653.594479
 30
0.0
 40
2.499999999999906
100
AcDbArc
 50
227.17657
 51
293.598391
  0
ARC
  5
410
330
1F
100
AcDbEntity
  8
7__7
  6
Continuous
 62
     3
100
AcDbCircle
 10
1280.726248
 20
653.594479
 30
0.0
 40
2.499999999999906
100
AcDbArc
 50
340.754748
 51
47.17657
  0
ARC
  5
411
330
1F
100
AcDbEntity
  8
7__7
  6
Continuous
 62
     3
100
AcDbCircle
 10
1282.406798
 20
652.036996
 30
0.0
 40
0.9999999999999428
100
AcDbArc
 50
47.17657
 51
227.17657
  0
LINE
  5
412
330
1F
100
AcDbEntity
  8
7__7
  6
PLine1
 62
     3
100
AcDbLine
 10
815.883831
 20
1302.620554
 30
0.0
 11
828.41239
 21
1311.833776
 31
0.0
  0
LINE
  5
413
330
1F
100
AcDbEntity
  8
7__7
  6
PLine1
 62
     3
100
AcDbLine
 10
788.092934
 20
1377.056188
 30
0.0
 11
791.092787
 21
1382.252426
 31
0.0
  0
LINE
  5
414
330
1F
100
AcDbEntity
  8
7__7
  6
PLine1
 62
     3
100
AcDbLine
 10
788.092934
 20
1377.056188
 30
0.0
 11
801.949068
 21
1369.05617
 31
0.0
  0
ARC
  5
415
330
1F
100
AcDbEntity
  8
7__7
  6
PLine1
 62
     3
100
AcDbCircle
 10
800.449043
 20
1366.458108
 30
0.0
 40
3.0
100
AcDbArc
 50
329.999454
 51
59.999454
  0
ARC
  5
416
330
1F
100
AcDbEntity
  8
7__7
  6
PLine1
 62
     3
100
AcDbCircle
 10
800.449043
 20
1366.458108
 30
0.0
 40
3.0
100
AcDbArc
 50
329.999454
 51
59.999454
  0
LINE
  5
417
330
1F
100
AcDbEntity
  8
7__7
  6
PLine1
 62
     3
100
AcDbLine
 10
784.046791
 20
1332.049299
 30
0.0
 11
803.047105
 21
1364.958083
 31
0.0
  0
ARC
  5
418
330
1F
100
AcDbEntity
  8
7__7
  6
PLine1
 62
     3
100
AcDbCircle
 10
836.443278
 20
1287.94875
 30
0.0
 40
2.499999999999906
100
AcDbArc
 50
126.329931
 51
216.329931
  0
ARC
  5
419
330
1F
100
AcDbEntity
  8
7__7
  6
PLine1
 62
     3
100
AcDbCircle
 10
836.443278
 20
1287.94875
 30
0.0
 40
2.499999999999906
100
AcDbArc
 50
36.329931
 51
126.329931
  0
LINE
  5
41A
330
1F
100
AcDbEntity
  8
7__7
  6
PLine1
 62
     3
100
AcDbLine
 10
833.623612
 20
1285.875231
 30
0.0
 11
834.42923
 21
1286.467665
 31
0.0
  0
LINE
  5
41B
330
1F
100
AcDbEntity
  8
7__7
  6
PLine1
 62
     3
100
AcDbLine
 10
839.262944
 20
1290.02227
 30
0.0
 11
838.457325
 21
1289.429836
 31
0.0
  0
LINE
  5
41C
330
1F
100
AcDbEntity
  8
7__7
  6
PLine1
 62
     3
100
AcDbLine
 10
803.234135
 20
1327.200226
 30
0.0
 11
833.623612
 21
1285.875231
 31
0.0
  0
LINE
  5
41D
330
1F
100
AcDbEntity
  8
7__7
  6
PLine1
 62
     3
100
AcDbLine
 10
805.490915
 20
1325.819305
 30
0.0
 11
834.42923
 21
1286.467665
 31
0.0
  0
LINE
  5
41E
330
1F
100
AcDbEntity
  8
7__7
  6
PLine1
 62
     3
100
AcDbLine
 10
809.516517
 20
1328.764232
 30
0.0
 11
838.457325
 21
1289.429836
 31
0.0
  0
LINE
  5
41F
330
1F
100
AcDbEntity
  8
7__7
  6
PLine1
 62
     3
100
AcDbLine
 10
808.873468
 20
1331.347265
 30
0.0
 11
839.262944
 21
1290.02227
 31
0.0
  0
LINE
  5
420
330
1F
100
AcDbEntity
  8
7__7
  6
PLine1
 62
     3
100
AcDbLine
 10
802.116017
 20
1334.628524
 30
0.0
 11
809.822744
 21
1324.148565
 31
0.0
  0
LINE
  5
421
330
1F
100
AcDbEntity
  8
7__7
  6
PLine1
 62
     3
100
AcDbLine
 10
801.232485
 20
1325.728257
 30
0.0
 11
811.802316
 21
1333.501074
 31
0.0
  0
LINE
  5
422
330
1F
100
AcDbEntity
  8
7__7
  6
PLine1
 62
     3
100
AcDbLine
 10
802.557973
 20
1329.444576
 30
0.0
 11
794.259386
 21
1334.235873
 31
0.0
  0
LINE
  5
423
330
1F
100
AcDbEntity
  8
7__7
  6
PLine1
 62
     3
100
AcDbLine
 10
803.022729
 20
1331.023774
 30
0.0
 11
793.673766
 21
1336.42152
 31
0.0
  0
LINE
  5
424
330
1F
100
AcDbEntity
  8
7__7
  6
PLine1
 62
     3
100
AcDbLine
 10
804.157999
 20
1332.215842
 30
0.0
 11
795.859412
 21
1337.007139
 31
0.0
  0
LINE
  5
425
330
1F
100
AcDbEntity
  8
7__7
  6
PLine1
 62
     3
100
AcDbLine
 10
800.059481
 20
1344.281713
 30
0.0
 11
795.859412
 21
1337.007139
 31
0.0
  0
LINE
  5
426
330
1F
100
AcDbEntity
  8
7__7
  6
PLine1
 62
     3
100
AcDbLine
 10
798.673848
 20
1345.081726
 30
0.0
 11
800.059481
 21
1344.281713
 31
0.0
  0
LINE
  5
427
330
1F
100
AcDbEntity
  8
7__7
  6
PLine1
 62
     3
100
AcDbLine
 10
789.259303
 20
1325.575667
 30
0.0
 11
794.259386
 21
1334.235873
 31
0.0
  0
ARC
  5
428
330
1F
100
AcDbEntity
  8
7__7
  6
PLine1
 62
     3
100
AcDbCircle
 10
786.644853
 20
1330.549274
 30
0.0
 40
3.0
100
AcDbArc
 50
149.999454
 51
239.999454
  0
LINE
  5
429
330
1F
100
AcDbEntity
  8
7__7
  6
PLine1
 62
     3
100
AcDbLine
 10
789.259303
 20
1325.575667
 30
0.0
 11
785.144829
 21
1327.951212
 31
0.0
  0
CIRCLE
  5
42A
330
1F
100
AcDbEntity
  8
7__7
  6
PLine1
 62
     3
100
AcDbCircle
 10
806.053801
 20
1329.273745
 30
0.0
 40
3.49999999999999
  0
ARC
  5
42B
330
1F
100
AcDbEntity
  8
7__7
  6
PLine1
 62
     3
100
AcDbCircle
 10
808.00644
 20
1326.618458
 30
0.0
 40
2.499999999999906
100
AcDbArc
 50
216.329931
 51
306.329931
  0
ARC
  5
42C
330
1F
100
AcDbEntity
  8
7__7
  6
PLine1
 62
     3
100
AcDbCircle
 10
808.00644
 20
1326.618458
 30
0.0
 40
2.499999999999906
100
AcDbArc
 50
306.329931
 51
36.329931
  0
ARC
  5
42D
330
1F
100
AcDbEntity
  8
7__7
  6
Continuous
 62
     3
100
AcDbCircle
 10
1391.70882
 20
712.919707
 30
0.0
 40
9.754415587707356
100
AcDbArc
 50
65.790724
 51
114.209276
  0
ARC
  5
42E
330
1F
100
AcDbEntity
  8
7__7
  6
Continuous
 62
     3
100
AcDbCircle
 10
1397.280937
 20
720.812775
 30
0.0
 40
1.865081654395928
100
AcDbArc
 50
93.62604
 51
147.449869
  0
LINE
  5
42F
330
1F
100
AcDbEntity
  8
7__7
  6
Continuous
 62
     3
100
AcDbLine
 10
1384.203267
 20
717.174123
 30
0.0
 11
1399.214374
 21
717.174123
 31
0.0
  0
LINE
  5
430
330
1F
100
AcDbEntity
  8
7__7
  6
Continuous
 62
     3
100
AcDbLine
 10
1387.70882
 20
717.174123
 30
0.0
 11
1387.70882
 21
721.816259
 31
0.0
  0
LINE
  5
431
330
1F
100
AcDbEntity
  8
7__7
  6
Continuous
 62
     3
100
AcDbLine
 10
1385.20882
 20
722.674123
 30
0.0
 11
1391.70882
 21
722.674123
 31
0.0
  0
LINE
  5
432
330
1F
100
AcDbEntity
  8
7__7
  6
Continuous
 62
     3
100
AcDbLine
 10
1399.214374
 20
717.174123
 30
0.0
 11
1399.214374
 21
722.093567
 31
0.0
  0
LINE
  5
433
330
1F
100
AcDbEntity
  8
7__7
  6
Continuous
 62
     3
100
AcDbLine
 10
1395.70882
 20
717.174123
 30
0.0
 11
1395.70882
 21
721.816259
 31
0.0
  0
LINE
  5
434
330
1F
100
AcDbEntity
  8
7__7
  6
Continuous
 62
     3
100
AcDbLine
 10
1398.20882
 20
722.674123
 30
0.0
 11
1391.70882
 21
722.674123
 31
0.0
  0
LINE
  5
435
330
1F
100
AcDbEntity
  8
7__7
  6
Continuous
 62
     3
100
AcDbLine
 10
1384.203267
 20
717.174123
 30
0.0
 11
1384.203267
 21
722.093567
 31
0.0
  0
LINE
  5
436
330
1F
100
AcDbEntity
  8
7__7
  6
Continuous
 62
     3
100
AcDbLine
 10
1384.203267
 20
722.093567
 30
0.0
 11
1385.20882
 21
722.674123
 31
0.0
  0
LINE
  5
437
330
1F
100
AcDbEntity
  8
7__7
  6
Continuous
 62
     3
100
AcDbLine
 10
1399.214374
 20
722.093567
 30
0.0
 11
1398.20882
 21
722.674123
 31
0.0
  0
ARC
  5
438
330
1F
100
AcDbEntity
  8
7__7
  6
Continuous
 62
     3
100
AcDbCircle
 10
1386.136703
 20
720.812775
 30
0.0
 40
1.865081654395928
100
AcDbArc
 50
32.550131
 51
86.37396
  0
ARC
  5
439
330
1F
100
AcDbEntity
  8
7__7
  6
Continuous
 62
     3
100
AcDbCircle
 10
421.70882
 20
712.919707
 30
0.0
 40
9.754415587707356
100
AcDbArc
 50
65.790724
 51
114.209276
  0
ARC
  5
43A
330
1F
100
AcDbEntity
  8
7__7
  6
Continuous
 62
     3
100
AcDbCircle
 10
427.280937
 20
720.812775
 30
0.0
 40
1.865081654395928
100
AcDbArc
 50
93.62604
 51
147.449869
  0
LINE
  5
43B
330
1F
100
AcDbEntity
  8
7__7
  6
Continuous
 62
     3
100
AcDbLine
 10
414.203267
 20
717.174123
 30
0.0
 11
429.214374
 21
717.174123
 31
0.0
  0
LINE
  5
43C
330
1F
100
AcDbEntity
  8
7__7
  6
Continuous
 62
     3
100
AcDbLine
 10
417.70882
 20
717.174123
 30
0.0
 11
417.70882
 21
721.816259
 31
0.0
  0
LINE
  5
43D
330
1F
100
AcDbEntity
  8
7__7
  6
Continuous
 62
     3
100
AcDbLine
 10
415.20882
 20
722.674123
 30
0.0
 11
421.70882
 21
722.674123
 31
0.0
  0
LINE
  5
43E
330
1F
100
AcDbEntity
  8
7__7
  6
Continuous
 62
     3
100
AcDbLine
 10
429.214374
 20
717.174123
 30
0.0
 11
429.214374
 21
722.093567
 31
0.0
  0
LINE
  5
43F
330
1F
100
AcDbEntity
  8
7__7
  6
Continuous
 62
     3
100
AcDbLine
 10
425.70882
 20
717.174123
 30
0.0
 11
425.70882
 21
721.816259
 31
0.0
  0
LINE
  5
440
330
1F
100
AcDbEntity
  8
7__7
  6
Continuous
 62
     3
100
AcDbLine
 10
428.20882
 20
722.674123
 30
0.0
 11
421.70882
 21
722.674123
 31
0.0
  0
LINE
  5
441
330
1F
100
AcDbEntity
  8
7__7
  6
Continuous
 62
     3
100
AcDbLine
 10
414.203267
 20
717.174123
 30
0.0
 11
414.203267
 21
722.093567
 31
0.0
  0
LINE
  5
442
330
1F
100
AcDbEntity
  8
7__7
  6
Continuous
 62
     3
100
AcDbLine
 10
414.203267
 20
722.093567
 30
0.0
 11
415.20882
 21
722.674123
 31
0.0
  0
LINE
  5
443
330
1F
100
AcDbEntity
  8
7__7
  6
Continuous
 62
     3
100
AcDbLine
 10
429.214374
 20
722.093567
 30
0.0
 11
428.20882
 21
722.674123
 31
0.0
  0
ARC
  5
444
330
1F
100
AcDbEntity
  8
7__7
  6
Continuous
 62
     3
100
AcDbCircle
 10
416.136703
 20
720.812775
 30
0.0
 40
1.865081654395928
100
AcDbArc
 50
32.550131
 51
86.37396
  0
LINE
  5
445
330
1F
100
AcDbEntity
  8
7__7
  6
Continuous
 62
     1
100
AcDbLine
 10
2453.213598
 20
1728.145636
 30
0.0
 11
53.213598
 21
1728.145636
 31
0.0
  0
LINE
  5
446
330
1F
100
AcDbEntity
  8
7__7
  6
Continuous
 62
     1
100
AcDbLine
 10
2453.213598
 20
48.145636
 30
0.0
 11
2453.213598
 21
1728.145636
 31
0.0
  0
TEXT
  5
447
330
1F
100
AcDbEntity
  8
7__7
  6
Continuous
 62
     2
100
AcDbText
 10
2135.074848
 20
138.206818
 30
0.0
 40
21.0
  1
ライトモニック標準施工図
 41
0.858268
  7
BIGFONT
100
AcDbText
  0
LINE
  5
448
330
1F
100
AcDbEntity
  8
7__7
  6
Continuous
 62
     4
100
AcDbLine
 10
281.740615
 20
297.206731
 30
0.0
 11
291.70882
 21
297.206731
 31
0.0
  0
LINE
  5
449
330
1F
100
AcDbEntity
  8
7__7
  6
Continuous
 62
     4
100
AcDbLine
 10
291.70882
 20
297.206731
 30
0.0
 11
291.70882
 21
267.302116
 31
0.0
  0
LINE
  5
44A
330
1F
100
AcDbEntity
  8
7__7
  6
Continuous
 62
     4
100
AcDbLine
 10
289.715179
 20
267.302116
 30
0.0
 11
291.70882
 21
267.302116
 31
0.0
  0
LINE
  5
44B
330
1F
100
AcDbEntity
  8
7__7
  6
Continuous
 62
     4
100
AcDbLine
 10
281.740615
 20
295.21309
 30
0.0
 11
289.715179
 21
295.21309
 31
0.0
  0
LINE
  5
44C
330
1F
100
AcDbEntity
  8
7__7
  6
Continuous
 62
     4
100
AcDbLine
 10
289.715179
 20
295.21309
 30
0.0
 11
289.715179
 21
267.302116
 31
0.0
  0
LINE
  5
44D
330
1F
100
AcDbEntity
  8
7__7
  6
Continuous
 62
     4
100
AcDbLine
 10
281.740615
 20
297.206731
 30
0.0
 11
281.740615
 21
295.21309
 31
0.0
  0
LINE
  5
44E
330
1F
100
AcDbEntity
  8
7__7
  6
Continuous
 62
     2
100
AcDbLine
 10
301.70882
 20
307.174936
 30
0.0
 11
253.823201
 21
307.174936
 31
0.0
  0
LINE
  5
44F
330
1F
100
AcDbEntity
  8
7__7
  6
Continuous
 62
     2
100
AcDbLine
 10
253.823201
 20
391.640812
 30
0.0
 11
253.823201
 21
307.174936
 31
0.0
  0
LINE
  5
450
330
1F
100
AcDbEntity
  8
7__7
  6
Continuous
 62
     2
100
AcDbLine
 10
421.70882
 20
421.242997
 30
0.0
 11
253.823201
 21
391.640812
 31
0.0
  0
LINE
  5
451
330
1F
100
AcDbEntity
  8
7__7
  6
Continuous
 62
     2
100
AcDbLine
 10
421.70882
 20
421.242997
 30
0.0
 11
421.70882
 21
154.217937
 31
0.0
  0
LINE
  5
452
330
1F
100
AcDbEntity
  8
7__7
  6
Continuous
 62
     2
100
AcDbLine
 10
301.70882
 20
307.174936
 30
0.0
 11
301.70882
 21
154.217937
 31
0.0
  0
LINE
  5
453
330
1F
100
AcDbEntity
  8
7__7
  6
Continuous
 62
     3
100
AcDbLine
 10
291.70882
 20
307.174936
 30
0.0
 11
291.70882
 21
154.217937
 31
0.0
  0
LINE
  5
454
330
1F
100
AcDbEntity
  8
7__7
  6
Continuous
 62
     6
100
AcDbLine
 10
421.70882
 20
290.310436
 30
0.0
 11
301.70882
 21
170.310436
 31
0.0
  0
LINE
  5
455
330
1F
100
AcDbEntity
  8
7__7
  6
Continuous
 62
     6
100
AcDbLine
 10
421.70882
 20
300.501928
 30
0.0
 11
301.70882
 21
180.501928
 31
0.0
  0
LINE
  5
456
330
1F
100
AcDbEntity
  8
7__7
  6
Continuous
 62
     4
100
AcDbLine
 10
376.70882
 20
361.413183
 30
0.0
 11
376.70882
 21
447.464381
 31
0.0
  0
LINE
  5
457
330
1F
100
AcDbEntity
  8
7__7
  6
Continuous
 62
     4
100
AcDbLine
 10
376.70882
 20
447.464381
 30
0.0
 11
386.70882
 21
447.464381
 31
0.0
  0
LINE
  5
458
330
1F
100
AcDbEntity
  8
7__7
  6
Continuous
 62
     4
100
AcDbLine
 10
386.70882
 20
447.464381
 30
0.0
 11
386.70882
 21
361.413183
 31
0.0
  0
LINE
  5
459
330
1F
100
AcDbEntity
  8
7__7
  6
Continuous
 62
     4
100
AcDbLine
 10
233.823201
 20
348.422862
 30
0.0
 11
233.823201
 21
407.583759
 31
0.0
  0
LINE
  5
45A
330
1F
100
AcDbEntity
  8
7__7
  6
Continuous
 62
     4
100
AcDbLine
 10
317.70882
 20
423.21387
 30
0.0
 11
234.649556
 21
408.568568
 31
0.0
  0
ARC
  5
45B
330
1F
100
AcDbEntity
  8
7__7
  6
Continuous
 62
     4
100
AcDbCircle
 10
234.823201
 20
407.583759
 30
0.0
 40
1.000000000514703
100
AcDbArc
 50
99.999808
 51
180.0
  0
LINE
  5
45C
330
1F
100
AcDbEntity
  8
7__7
  6
Continuous
 62
     4
100
AcDbLine
 10
235.823201
 20
348.422862
 30
0.0
 11
235.823201
 21
406.744657
 31
0.0
  0
LINE
  5
45D
330
1F
100
AcDbEntity
  8
7__7
  6
Continuous
 62
     4
100
AcDbLine
 10
235.823201
 20
406.744657
 30
0.0
 11
318.882465
 21
421.389959
 31
0.0
  0
ARC
  5
45E
330
1F
100
AcDbEntity
  8
7__7
  6
Continuous
 62
     4
100
AcDbCircle
 10
318.70882
 20
422.374768
 30
0.0
 40
0.99999999862816
100
AcDbArc
 50
279.999808
 51
0.0
  0
LINE
  5
45F
330
1F
100
AcDbEntity
  8
7__7
  6
Continuous
 62
     4
100
AcDbLine
 10
233.823201
 20
348.422862
 30
0.0
 11
235.823201
 21
348.422862
 31
0.0
  0
LINE
  5
460
330
1F
100
AcDbEntity
  8
7__7
  6
Continuous
 62
     4
100
AcDbLine
 10
248.823201
 20
363.422862
 30
0.0
 11
248.823201
 21
395.836325
 31
0.0
  0
LINE
  5
461
330
1F
100
AcDbEntity
  8
7__7
  6
Continuous
 62
     4
100
AcDbLine
 10
248.823201
 20
395.836325
 30
0.0
 11
321.966203
 21
408.733157
 31
0.0
  0
LINE
  5
462
330
1F
100
AcDbEntity
  8
7__7
  6
PLine1
 62
     4
100
AcDbLine
 10
246.823201
 20
363.422862
 30
0.0
 11
246.823201
 21
397.51453
 31
0.0
  0
LINE
  5
463
330
1F
100
AcDbEntity
  8
7__7
  6
PLine1
 62
     4
100
AcDbLine
 10
246.823201
 20
397.51453
 30
0.0
 11
321.618914
 21
410.702774
 31
0.0
  0
LINE
  5
464
330
1F
100
AcDbEntity
  8
7__7
  6
Continuous
 62
     4
100
AcDbLine
 10
248.823201
 20
395.836325
 30
0.0
 11
235.823201
 21
406.744657
 31
0.0
  0
LINE
  5
465
330
1F
100
AcDbEntity
  8
7__7
  6
Continuous
 62
     4
100
AcDbLine
 10
319.629633
 20
421.984764
 30
0.0
 11
321.966203
 21
408.733157
 31
0.0
  0
LINE
  5
466
330
1F
100
AcDbEntity
  8
7__7
  6
Continuous
 62
     6
100
AcDbLine
 10
235.823201
 20
363.422862
 30
0.0
 11
253.823201
 21
363.422862
 31
0.0
  0
LINE
  5
467
330
1F
100
AcDbEntity
  8
7__7
  6
PLine2
 62
     3
100
AcDbLine
 10
285.61296
 20
282.206731
 30
0.0
 11
302.626335
 21
282.206731
 31
0.0
  0
LINE
  5
468
330
1F
100
AcDbEntity
  8
7__7
  6
Continuous
 62
     6
100
AcDbLine
 10
235.823201
 20
348.422862
 30
0.0
 11
253.823201
 21
346.890845
 31
0.0
  0
LINE
  5
469
330
1F
100
AcDbEntity
  8
7__7
  6
Continuous
 62
     6
100
AcDbLine
 10
239.277637
 20
348.128848
 30
0.0
 11
248.969737
 21
357.820947
 31
0.0
  0
LINE
  5
46A
330
1F
100
AcDbEntity
  8
7__7
  6
Continuous
 62
     6
100
AcDbLine
 10
235.81584
 20
351.880225
 30
0.0
 11
241.756562
 21
357.820947
 31
0.0
  0
LINE
  5
46B
330
1F
100
AcDbEntity
  8
7__7
  6
Continuous
 62
     6
100
AcDbLine
 10
244.271235
 20
347.703832
 30
0.0
 11
235.823201
 21
356.151866
 31
0.0
  0
LINE
  5
46C
330
1F
100
AcDbEntity
  8
7__7
  6
Continuous
 62
     6
100
AcDbLine
 10
245.933633
 20
347.562342
 30
0.0
 11
253.823201
 21
355.45191
 31
0.0
  0
LINE
  5
46D
330
1F
100
AcDbEntity
  8
7__7
  6
Continuous
 62
     6
100
AcDbLine
 10
251.925372
 20
347.052373
 30
0.0
 11
253.823201
 21
348.950201
 31
0.0
  0
LINE
  5
46E
330
1F
100
AcDbEntity
  8
7__7
  6
Continuous
 62
     6
100
AcDbLine
 10
251.455227
 20
347.092388
 30
0.0
 11
240.726667
 21
357.820947
 31
0.0
  0
LINE
  5
46F
330
1F
100
AcDbEntity
  8
7__7
  6
Continuous
 62
     6
100
AcDbLine
 10
253.823201
 20
351.484748
 30
0.0
 11
247.487001
 21
357.820947
 31
0.0
  0
LINE
  5
470
330
1F
100
AcDbEntity
  8
7__7
  6
Continuous
 62
     4
100
AcDbLine
 10
371.452297
 20
422.039794
 30
0.0
 11
366.573155
 21
429.602464
 31
0.0
  0
LINE
  5
471
330
1F
100
AcDbEntity
  8
7__7
  6
Continuous
 62
     4
100
AcDbLine
 10
397.925688
 20
449.829904
 30
0.0
 11
402.804829
 21
442.267234
 31
0.0
  0
LINE
  5
472
330
1F
100
AcDbEntity
  8
7__7
  6
Continuous
 62
     4
100
AcDbLine
 10
366.573155
 20
429.602464
 30
0.0
 11
376.70882
 21
436.141602
 31
0.0
  0
LINE
  5
473
330
1F
100
AcDbEntity
  8
7__7
  6
Continuous
 62
     4
100
AcDbLine
 10
386.70882
 20
442.593215
 30
0.0
 11
391.70882
 21
445.819022
 31
0.0
  0
LINE
  5
474
330
1F
100
AcDbEntity
  8
7__7
  6
Continuous
 62
     4
100
AcDbLine
 10
394.00882
 20
447.302893
 30
0.0
 11
397.925688
 21
449.829904
 31
0.0
  0
LINE
  5
475
330
1F
100
AcDbEntity
  8
7__7
  6
Continuous
 62
     4
100
AcDbLine
 10
402.804829
 20
442.267234
 30
0.0
 11
394.00882
 21
436.59239
 31
0.0
  0
LINE
  5
476
330
1F
100
AcDbEntity
  8
7__7
  6
Continuous
 62
     4
100
AcDbLine
 10
391.70882
 20
435.108519
 30
0.0
 11
386.70882
 21
431.882712
 31
0.0
  0
LINE
  5
477
330
1F
100
AcDbEntity
  8
7__7
  6
Continuous
 62
     4
100
AcDbLine
 10
376.70882
 20
425.431099
 30
0.0
 11
371.452297
 21
422.039794
 31
0.0
  0
LINE
  5
478
330
1F
100
AcDbEntity
  8
7__7
  6
PLine2
 62
     3
100
AcDbLine
 10
365.332086
 20
423.446523
 30
0.0
 11
402.964155
 21
447.725277
 31
0.0
  0
LINE
  5
479
330
1F
100
AcDbEntity
  8
7__7
  6
Continuous
 62
     4
100
AcDbLine
 10
317.70882
 20
435.566517
 30
0.0
 11
317.70882
 21
423.21387
 31
0.0
  0
LINE
  5
47A
330
1F
100
AcDbEntity
  8
7__7
  6
Continuous
 62
     6
100
AcDbLine
 10
421.70882
 20
421.242997
 30
0.0
 11
421.70882
 21
456.266517
 31
0.0
  0
CIRCLE
  5
47B
330
1F
100
AcDbEntity
  8
7__7
  6
Continuous
 62
     6
100
AcDbCircle
 10
413.374559
 20
444.495571
 30
0.0
 40
0.9999999999999858
  0
CIRCLE
  5
47C
330
1F
100
AcDbEntity
  8
7__7
  6
Continuous
 62
     6
100
AcDbCircle
 10
408.151121
 20
434.794902
 30
0.0
 40
0.9999999999999858
  0
CIRCLE
  5
47D
330
1F
100
AcDbEntity
  8
7__7
  6
Continuous
 62
     6
100
AcDbCircle
 10
413.001456
 20
427.705952
 30
0.0
 40
0.9999999999999858
  0
CIRCLE
  5
47E
330
1F
100
AcDbEntity
  8
7__7
  6
Continuous
 62
     6
100
AcDbCircle
 10
406.658711
 20
449.345905
 30
0.0
 40
0.9999999999999858
  0
CIRCLE
  5
47F
330
1F
100
AcDbEntity
  8
7__7
  6
Continuous
 62
     6
100
AcDbCircle
 10
355.543648
 20
448.226597
 30
0.0
 40
0.9999999999999858
  0
CIRCLE
  5
480
330
1F
100
AcDbEntity
  8
7__7
  6
Continuous
 62
     6
100
AcDbCircle
 10
354.797442
 20
431.436978
 30
0.0
 40
0.9999999999999858
  0
CIRCLE
  5
481
330
1F
100
AcDbEntity
  8
7__7
  6
Continuous
 62
     6
100
AcDbCircle
 10
339.500234
 20
419.124591
 30
0.0
 40
0.9999999999999858
  0
CIRCLE
  5
482
330
1F
100
AcDbEntity
  8
7__7
  6
Continuous
 62
     6
100
AcDbCircle
 10
338.754029
 20
438.899031
 30
0.0
 40
0.9999999999999858
  0
CIRCLE
  5
483
330
1F
100
AcDbEntity
  8
7__7
  6
Continuous
 62
     6
100
AcDbCircle
 10
357.409161
 20
417.259077
 30
0.0
 40
0.9999999999999858
  0
LINE
  5
484
330
1F
100
AcDbEntity
  8
7__7
  6
PLine2
 62
     3
100
AcDbLine
 10
381.70882
 20
452.424242
 30
0.0
 11
381.70882
 21
362.003886
 31
0.0
  0
LINE
  5
485
330
1F
100
AcDbEntity
  8
7__7
  6
PLine2
 62
     3
100
AcDbLine
 10
316.218443
 20
429.566517
 30
0.0
 11
325.182142
 21
429.566517
 31
0.0
  0
LINE
  5
486
330
1F
100
AcDbEntity
  8
7__7
  6
Continuous
 62
     6
100
AcDbLine
 10
306.70882
 20
436.316517
 30
0.0
 11
304.878379
 21
420.951562
 31
0.0
  0
LINE
  5
487
330
1F
100
AcDbEntity
  8
7__7
  6
Continuous
 62
     6
100
AcDbLine
 10
312.096287
 20
435.316517
 30
0.0
 11
305.844963
 21
429.065193
 31
0.0
  0
LINE
  5
488
330
1F
100
AcDbEntity
  8
7__7
  6
Continuous
 62
     6
100
AcDbLine
 10
305.040732
 20
422.314375
 30
0.0
 11
312.478213
 21
429.751855
 31
0.0
  0
LINE
  5
489
330
1F
100
AcDbEntity
  8
7__7
  6
Continuous
 62
     6
100
AcDbLine
 10
310.9495
 20
422.022043
 30
0.0
 11
305.638599
 21
427.332945
 31
0.0
  0
LINE
  5
48A
330
1F
100
AcDbEntity
  8
7__7
  6
Continuous
 62
     6
100
AcDbLine
 10
305.521778
 20
421.065008
 30
0.0
 11
304.958945
 21
421.627842
 31
0.0
  0
LINE
  5
48B
330
1F
100
AcDbEntity
  8
7__7
  6
Continuous
 62
     6
100
AcDbLine
 10
311.020482
 20
422.034559
 30
0.0
 11
312.478213
 21
423.49229
 31
0.0
  0
LINE
  5
48C
330
1F
100
AcDbEntity
  8
7__7
  6
Continuous
 62
     6
100
AcDbLine
 10
312.478213
 20
432.449099
 30
0.0
 11
309.610795
 21
435.316517
 31
0.0
  0
LINE
  5
48D
330
1F
100
AcDbEntity
  8
7__7
  6
Continuous
 62
     6
100
AcDbLine
 10
312.478213
 20
426.489995
 30
0.0
 11
306.276941
 21
432.691267
 31
0.0
  0
LINE
  5
48E
330
1F
100
AcDbEntity
  8
7__7
  6
Continuous
 62
     6
100
AcDbLine
 10
421.70882
 20
295.086094
 30
0.0
 11
301.70882
 21
175.086094
 31
0.0
  0
LINE
  5
48F
330
1F
100
AcDbEntity
  8
7__7
  6
Continuous
 62
     4
100
AcDbLine
 10
1531.677025
 20
297.206731
 30
0.0
 11
1521.70882
 21
297.206731
 31
0.0
  0
LINE
  5
490
330
1F
100
AcDbEntity
  8
7__7
  6
Continuous
 62
     4
100
AcDbLine
 10
1521.70882
 20
297.206731
 30
0.0
 11
1521.70882
 21
267.302116
 31
0.0
  0
LINE
  5
491
330
1F
100
AcDbEntity
  8
7__7
  6
Continuous
 62
     4
100
AcDbLine
 10
1523.702461
 20
267.302116
 30
0.0
 11
1521.70882
 21
267.302116
 31
0.0
  0
LINE
  5
492
330
1F
100
AcDbEntity
  8
7__7
  6
Continuous
 62
     4
100
AcDbLine
 10
1531.677025
 20
295.21309
 30
0.0
 11
1523.702461
 21
295.21309
 31
0.0
  0
LINE
  5
493
330
1F
100
AcDbEntity
  8
7__7
  6
Continuous
 62
     4
100
AcDbLine
 10
1523.702461
 20
295.21309
 30
0.0
 11
1523.702461
 21
267.302116
 31
0.0
  0
LINE
  5
494
330
1F
100
AcDbEntity
  8
7__7
  6
Continuous
 62
     4
100
AcDbLine
 10
1531.677025
 20
297.206731
 30
0.0
 11
1531.677025
 21
295.21309
 31
0.0
  0
LINE
  5
495
330
1F
100
AcDbEntity
  8
7__7
  6
Continuous
 62
     2
100
AcDbLine
 10
1511.70882
 20
307.174936
 30
0.0
 11
1559.594439
 21
307.174936
 31
0.0
  0
LINE
  5
496
330
1F
100
AcDbEntity
  8
7__7
  6
Continuous
 62
     2
100
AcDbLine
 10
1559.594439
 20
391.640812
 30
0.0
 11
1559.594439
 21
307.174936
 31
0.0
  0
LINE
  5
497
330
1F
100
AcDbEntity
  8
7__7
  6
Continuous
 62
     2
100
AcDbLine
 10
1391.70882
 20
421.242997
 30
0.0
 11
1559.594439
 21
391.640812
 31
0.0
  0
LINE
  5
498
330
1F
100
AcDbEntity
  8
7__7
  6
Continuous
 62
     2
100
AcDbLine
 10
1391.70882
 20
421.242997
 30
0.0
 11
1391.70882
 21
154.217937
 31
0.0
  0
LINE
  5
499
330
1F
100
AcDbEntity
  8
7__7
  6
Continuous
 62
     2
100
AcDbLine
 10
1511.70882
 20
307.174936
 30
0.0
 11
1511.70882
 21
154.217937
 31
0.0
  0
LINE
  5
49A
330
1F
100
AcDbEntity
  8
7__7
  6
Continuous
 62
     3
100
AcDbLine
 10
1521.70882
 20
307.174936
 30
0.0
 11
1521.70882
 21
154.217937
 31
0.0
  0
LINE
  5
49B
330
1F
100
AcDbEntity
  8
7__7
  6
Continuous
 62
     6
100
AcDbLine
 10
1391.70882
 20
290.310436
 30
0.0
 11
1511.70882
 21
170.310436
 31
0.0
  0
LINE
  5
49C
330
1F
100
AcDbEntity
  8
7__7
  6
Continuous
 62
     6
100
AcDbLine
 10
1391.70882
 20
300.501928
 30
0.0
 11
1511.70882
 21
180.501928
 31
0.0
  0
LINE
  5
49D
330
1F
100
AcDbEntity
  8
7__7
  6
Continuous
 62
     4
100
AcDbLine
 10
1436.70882
 20
361.413183
 30
0.0
 11
1436.70882
 21
447.464381
 31
0.0
  0
LINE
  5
49E
330
1F
100
AcDbEntity
  8
7__7
  6
Continuous
 62
     4
100
AcDbLine
 10
1436.70882
 20
447.464381
 30
0.0
 11
1426.70882
 21
447.464381
 31
0.0
  0
LINE
  5
49F
330
1F
100
AcDbEntity
  8
7__7
  6
Continuous
 62
     4
100
AcDbLine
 10
1426.70882
 20
447.464381
 30
0.0
 11
1426.70882
 21
361.413183
 31
0.0
  0
LINE
  5
4A0
330
1F
100
AcDbEntity
  8
7__7
  6
Continuous
 62
     4
100
AcDbLine
 10
1579.594439
 20
348.422862
 30
0.0
 11
1579.594439
 21
407.583759
 31
0.0
  0
LINE
  5
4A1
330
1F
100
AcDbEntity
  8
7__7
  6
Continuous
 62
     4
100
AcDbLine
 10
1495.70882
 20
423.21387
 30
0.0
 11
1578.768084
 21
408.568568
 31
0.0
  0
ARC
  5
4A2
330
1F
100
AcDbEntity
  8
7__7
  6
Continuous
 62
     4
100
AcDbCircle
 10
1578.594439
 20
407.583759
 30
0.0
 40
1.000000000395068
100
AcDbArc
 50
0.0
 51
80.000192
  0
LINE
  5
4A3
330
1F
100
AcDbEntity
  8
7__7
  6
Continuous
 62
     4
100
AcDbLine
 10
1577.594439
 20
348.422862
 30
0.0
 11
1577.594439
 21
406.744657
 31
0.0
  0
LINE
  5
4A4
330
1F
100
AcDbEntity
  8
7__7
  6
Continuous
 62
     4
100
AcDbLine
 10
1577.594439
 20
406.744657
 30
0.0
 11
1494.535175
 21
421.389959
 31
0.0
  0
ARC
  5
4A5
330
1F
100
AcDbEntity
  8
7__7
  6
Continuous
 62
     4
100
AcDbCircle
 10
1494.70882
 20
422.374768
 30
0.0
 40
0.9999999981967133
100
AcDbArc
 50
180.0
 51
260.000192
  0
LINE
  5
4A6
330
1F
100
AcDbEntity
  8
7__7
  6
Continuous
 62
     4
100
AcDbLine
 10
1579.594439
 20
348.422862
 30
0.0
 11
1577.594439
 21
348.422862
 31
0.0
  0
LINE
  5
4A7
330
1F
100
AcDbEntity
  8
7__7
  6
Continuous
 62
     4
100
AcDbLine
 10
1564.594439
 20
363.422862
 30
0.0
 11
1564.594439
 21
395.836325
 31
0.0
  0
LINE
  5
4A8
330
1F
100
AcDbEntity
  8
7__7
  6
Continuous
 62
     4
100
AcDbLine
 10
1564.594439
 20
395.836325
 30
0.0
 11
1491.451437
 21
408.733157
 31
0.0
  0
LINE
  5
4A9
330
1F
100
AcDbEntity
  8
7__7
  6
PLine1
 62
     4
100
AcDbLine
 10
1566.594439
 20
363.422862
 30
0.0
 11
1566.594439
 21
397.51453
 31
0.0
  0
LINE
  5
4AA
330
1F
100
AcDbEntity
  8
7__7
  6
PLine1
 62
     4
100
AcDbLine
 10
1566.594439
 20
397.51453
 30
0.0
 11
1491.798726
 21
410.702774
 31
0.0
  0
LINE
  5
4AB
330
1F
100
AcDbEntity
  8
7__7
  6
Continuous
 62
     4
100
AcDbLine
 10
1564.594439
 20
395.836325
 30
0.0
 11
1577.594439
 21
406.744657
 31
0.0
  0
LINE
  5
4AC
330
1F
100
AcDbEntity
  8
7__7
  6
Continuous
 62
     4
100
AcDbLine
 10
1493.788007
 20
421.984764
 30
0.0
 11
1491.451437
 21
408.733157
 31
0.0
  0
LINE
  5
4AD
330
1F
100
AcDbEntity
  8
7__7
  6
Continuous
 62
     6
100
AcDbLine
 10
1577.594439
 20
363.422862
 30
0.0
 11
1559.594439
 21
363.422862
 31
0.0
  0
LINE
  5
4AE
330
1F
100
AcDbEntity
  8
7__7
  6
PLine2
 62
     3
100
AcDbLine
 10
1527.80468
 20
282.206731
 30
0.0
 11
1510.791305
 21
282.206731
 31
0.0
  0
LINE
  5
4AF
330
1F
100
AcDbEntity
  8
7__7
  6
Continuous
 62
     6
100
AcDbLine
 10
1577.594439
 20
348.422862
 30
0.0
 11
1559.594439
 21
346.890845
 31
0.0
  0
LINE
  5
4B0
330
1F
100
AcDbEntity
  8
7__7
  6
Continuous
 62
     6
100
AcDbLine
 10
1574.140003
 20
348.128848
 30
0.0
 11
1564.447903
 21
357.820947
 31
0.0
  0
LINE
  5
4B1
330
1F
100
AcDbEntity
  8
7__7
  6
Continuous
 62
     6
100
AcDbLine
 10
1577.6018
 20
351.880225
 30
0.0
 11
1571.661078
 21
357.820947
 31
0.0
  0
LINE
  5
4B2
330
1F
100
AcDbEntity
  8
7__7
  6
Continuous
 62
     6
100
AcDbLine
 10
1569.146405
 20
347.703832
 30
0.0
 11
1577.594439
 21
356.151866
 31
0.0
  0
LINE
  5
4B3
330
1F
100
AcDbEntity
  8
7__7
  6
Continuous
 62
     6
100
AcDbLine
 10
1567.484007
 20
347.562342
 30
0.0
 11
1559.594439
 21
355.45191
 31
0.0
  0
LINE
  5
4B4
330
1F
100
AcDbEntity
  8
7__7
  6
Continuous
 62
     6
100
AcDbLine
 10
1561.492268
 20
347.052373
 30
0.0
 11
1559.594439
 21
348.950201
 31
0.0
  0
LINE
  5
4B5
330
1F
100
AcDbEntity
  8
7__7
  6
Continuous
 62
     6
100
AcDbLine
 10
1561.962413
 20
347.092388
 30
0.0
 11
1572.690973
 21
357.820947
 31
0.0
  0
LINE
  5
4B6
330
1F
100
AcDbEntity
  8
7__7
  6
Continuous
 62
     6
100
AcDbLine
 10
1559.594439
 20
351.484748
 30
0.0
 11
1565.930639
 21
357.820947
 31
0.0
  0
LINE
  5
4B7
330
1F
100
AcDbEntity
  8
7__7
  6
Continuous
 62
     4
100
AcDbLine
 10
1441.965343
 20
422.039794
 30
0.0
 11
1446.844485
 21
429.602464
 31
0.0
  0
LINE
  5
4B8
330
1F
100
AcDbEntity
  8
7__7
  6
Continuous
 62
     4
100
AcDbLine
 10
1415.491952
 20
449.829904
 30
0.0
 11
1410.612811
 21
442.267234
 31
0.0
  0
LINE
  5
4B9
330
1F
100
AcDbEntity
  8
7__7
  6
Continuous
 62
     4
100
AcDbLine
 10
1446.844485
 20
429.602464
 30
0.0
 11
1436.70882
 21
436.141602
 31
0.0
  0
LINE
  5
4BA
330
1F
100
AcDbEntity
  8
7__7
  6
Continuous
 62
     4
100
AcDbLine
 10
1426.70882
 20
442.593215
 30
0.0
 11
1421.70882
 21
445.819022
 31
0.0
  0
LINE
  5
4BB
330
1F
100
AcDbEntity
  8
7__7
  6
Continuous
 62
     4
100
AcDbLine
 10
1419.40882
 20
447.302893
 30
0.0
 11
1415.491952
 21
449.829904
 31
0.0
  0
LINE
  5
4BC
330
1F
100
AcDbEntity
  8
7__7
  6
Continuous
 62
     4
100
AcDbLine
 10
1410.612811
 20
442.267234
 30
0.0
 11
1419.40882
 21
436.59239
 31
0.0
  0
LINE
  5
4BD
330
1F
100
AcDbEntity
  8
7__7
  6
Continuous
 62
     4
100
AcDbLine
 10
1421.70882
 20
435.108519
 30
0.0
 11
1426.70882
 21
431.882712
 31
0.0
  0
LINE
  5
4BE
330
1F
100
AcDbEntity
  8
7__7
  6
Continuous
 62
     4
100
AcDbLine
 10
1436.70882
 20
425.431099
 30
0.0
 11
1441.965343
 21
422.039794
 31
0.0
  0
LINE
  5
4BF
330
1F
100
AcDbEntity
  8
7__7
  6
PLine2
 62
     3
100
AcDbLine
 10
1448.085554
 20
423.446523
 30
0.0
 11
1410.453485
 21
447.725277
 31
0.0
  0
LINE
  5
4C0
330
1F
100
AcDbEntity
  8
7__7
  6
Continuous
 62
     4
100
AcDbLine
 10
1495.70882
 20
435.566517
 30
0.0
 11
1495.70882
 21
423.21387
 31
0.0
  0
LINE
  5
4C1
330
1F
100
AcDbEntity
  8
7__7
  6
Continuous
 62
     6
100
AcDbLine
 10
1391.70882
 20
421.242997
 30
0.0
 11
1391.70882
 21
456.266517
 31
0.0
  0
CIRCLE
  5
4C2
330
1F
100
AcDbEntity
  8
7__7
  6
Continuous
 62
     6
100
AcDbCircle
 10
1400.043081
 20
444.495571
 30
0.0
 40
1.000000000000114
  0
CIRCLE
  5
4C3
330
1F
100
AcDbEntity
  8
7__7
  6
Continuous
 62
     6
100
AcDbCircle
 10
1405.266519
 20
434.794902
 30
0.0
 40
0.9999999999999432
  0
CIRCLE
  5
4C4
330
1F
100
AcDbEntity
  8
7__7
  6
Continuous
 62
     6
100
AcDbCircle
 10
1400.416184
 20
427.705952
 30
0.0
 40
0.9999999999999432
  0
CIRCLE
  5
4C5
330
1F
100
AcDbEntity
  8
7__7
  6
Continuous
 62
     6
100
AcDbCircle
 10
1406.758929
 20
449.345905
 30
0.0
 40
0.9999999999999432
  0
CIRCLE
  5
4C6
330
1F
100
AcDbEntity
  8
7__7
  6
Continuous
 62
     6
100
AcDbCircle
 10
1457.873992
 20
448.226597
 30
0.0
 40
0.9999999999999432
  0
CIRCLE
  5
4C7
330
1F
100
AcDbEntity
  8
7__7
  6
Continuous
 62
     6
100
AcDbCircle
 10
1458.620198
 20
431.436978
 30
0.0
 40
0.9999999999999432
  0
CIRCLE
  5
4C8
330
1F
100
AcDbEntity
  8
7__7
  6
Continuous
 62
     6
100
AcDbCircle
 10
1473.917406
 20
419.124591
 30
0.0
 40
1.000000000000114
  0
CIRCLE
  5
4C9
330
1F
100
AcDbEntity
  8
7__7
  6
Continuous
 62
     6
100
AcDbCircle
 10
1474.663611
 20
438.899031
 30
0.0
 40
0.9999999999999432
  0
CIRCLE
  5
4CA
330
1F
100
AcDbEntity
  8
7__7
  6
Continuous
 62
     6
100
AcDbCircle
 10
1456.008479
 20
417.259077
 30
0.0
 40
0.9999999999999432
  0
LINE
  5
4CB
330
1F
100
AcDbEntity
  8
7__7
  6
PLine2
 62
     3
100
AcDbLine
 10
1431.70882
 20
452.424242
 30
0.0
 11
1431.70882
 21
362.003886
 31
0.0
  0
LINE
  5
4CC
330
1F
100
AcDbEntity
  8
7__7
  6
PLine2
 62
     3
100
AcDbLine
 10
1497.199197
 20
429.566517
 30
0.0
 11
1488.235498
 21
429.566517
 31
0.0
  0
LINE
  5
4CD
330
1F
100
AcDbEntity
  8
7__7
  6
Continuous
 62
     6
100
AcDbLine
 10
1506.70882
 20
436.316517
 30
0.0
 11
1508.539261
 21
420.951562
 31
0.0
  0
LINE
  5
4CE
330
1F
100
AcDbEntity
  8
7__7
  6
Continuous
 62
     6
100
AcDbLine
 10
1501.321353
 20
435.316517
 30
0.0
 11
1507.572677
 21
429.065193
 31
0.0
  0
LINE
  5
4CF
330
1F
100
AcDbEntity
  8
7__7
  6
Continuous
 62
     6
100
AcDbLine
 10
1508.376908
 20
422.314375
 30
0.0
 11
1500.939427
 21
429.751855
 31
0.0
  0
LINE
  5
4D0
330
1F
100
AcDbEntity
  8
7__7
  6
Continuous
 62
     6
100
AcDbLine
 10
1502.46814
 20
422.022043
 30
0.0
 11
1507.779041
 21
427.332945
 31
0.0
  0
LINE
  5
4D1
330
1F
100
AcDbEntity
  8
7__7
  6
Continuous
 62
     6
100
AcDbLine
 10
1507.895862
 20
421.065008
 30
0.0
 11
1508.458695
 21
421.627842
 31
0.0
  0
LINE
  5
4D2
330
1F
100
AcDbEntity
  8
7__7
  6
Continuous
 62
     6
100
AcDbLine
 10
1502.397158
 20
422.034559
 30
0.0
 11
1500.939427
 21
423.49229
 31
0.0
  0
LINE
  5
4D3
330
1F
100
AcDbEntity
  8
7__7
  6
Continuous
 62
     6
100
AcDbLine
 10
1500.939427
 20
432.449099
 30
0.0
 11
1503.806845
 21
435.316517
 31
0.0
  0
LINE
  5
4D4
330
1F
100
AcDbEntity
  8
7__7
  6
Continuous
 62
     6
100
AcDbLine
 10
1500.939427
 20
426.489995
 30
0.0
 11
1507.140699
 21
432.691267
 31
0.0
  0
LINE
  5
4D5
330
1F
100
AcDbEntity
  8
7__7
  6
Continuous
 62
     6
100
AcDbLine
 10
1391.70882
 20
295.086094
 30
0.0
 11
1511.70882
 21
175.086094
 31
0.0
  0
LINE
  5
4D6
330
1F
100
AcDbEntity
  8
7__7
  6
Continuous
 62
     4
100
AcDbLine
 10
481.70882
 20
154.217937
 30
0.0
 11
481.70882
 21
470.570237
 31
0.0
  0
LINE
  5
4D7
330
1F
100
AcDbEntity
  8
7__7
  6
Continuous
 62
     4
100
AcDbLine
 10
472.70882
 20
154.217937
 30
0.0
 11
472.70882
 21
470.570237
 31
0.0
  0
LINE
  5
4D8
330
1F
100
AcDbEntity
  8
7__7
  6
Continuous
 62
     4
100
AcDbLine
 10
1331.70882
 20
154.217937
 30
0.0
 11
1331.70882
 21
470.570237
 31
0.0
  0
LINE
  5
4D9
330
1F
100
AcDbEntity
  8
7__7
  6
Continuous
 62
     4
100
AcDbLine
 10
1340.70882
 20
154.217937
 30
0.0
 11
1340.70882
 21
470.570237
 31
0.0
  0
INSERT
  5
4E3
330
1F
100
AcDbEntity
  8
7__7
  6
Continuous
 62
     3
100
AcDbBlockReference
  2
DIM_11
 10
421.70882
 20
191.095765
 30
0.0
  0
INSERT
  5
4ED
330
1F
100
AcDbEntity
  8
7__7
  6
Continuous
 62
     3
100
AcDbBlockReference
  2
DIM_12
 10
421.70882
 20
245.225755
 30
0.0
  0
LINE
  5
4EE
330
1F
100
AcDbEntity
  8
7__7
  6
Continuous
 62
     3
100
AcDbLine
 10
1554.262876
 20
425.471163
 30
0.0
 11
1550.860953
 21
413.578859
 31
0.0
  0
LINE
  5
4EF
330
1F
100
AcDbEntity
  8
7__7
  6
Continuous
 62
     3
100
AcDbLine
 10
1550.860953
 20
413.578859
 30
0.0
 11
1565.323237
 21
438.62827
 31
0.0
  0
LINE
  5
4F0
330
1F
100
AcDbEntity
  8
7__7
  6
Continuous
 62
     3
100
AcDbLine
 10
1565.323237
 20
438.62827
 30
0.0
 11
1750.709064
 21
438.62827
 31
0.0
  0
TEXT
  5
4F1
330
1F
100
AcDbEntity
  8
7__7
  6
Continuous
 62
     3
100
AcDbText
 10
1565.323237
 20
441.62827
 30
0.0
 40
18.0
  1
２段水切り（オプション）
 41
0.858268
  7
BIGFONT
100
AcDbText
  0
LINE
  5
4F2
330
1F
100
AcDbEntity
  8
7__7
  6
Continuous
 62
     3
100
AcDbLine
 10
1577.587827
 20
338.522663
 30
0.0
 11
1568.98975
 21
347.414968
 31
0.0
  0
LINE
  5
4F3
330
1F
100
AcDbEntity
  8
7__7
  6
Continuous
 62
     3
100
AcDbLine
 10
1568.98975
 20
347.414968
 30
0.0
 11
1590.603643
 21
309.978608
 31
0.0
  0
LINE
  5
4F4
330
1F
100
AcDbEntity
  8
7__7
  6
Continuous
 62
     3
100
AcDbLine
 10
1590.603643
 20
309.978608
 30
0.0
 11
1760.540651
 21
309.978608
 31
0.0
  0
TEXT
  5
4F5
330
1F
100
AcDbEntity
  8
7__7
  6
Continuous
 62
     3
100
AcDbText
 10
1590.603643
 20
312.978608
 30
0.0
 40
18.0
  1
シーリング処理（別途）
 41
0.858268
  7
BIGFONT
100
AcDbText
  0
LINE
  5
4F6
330
1F
100
AcDbEntity
  8
7__7
  6
Continuous
 62
     3
100
AcDbLine
 10
1510.23378
 20
440.77371
 30
0.0
 11
1506.831856
 21
428.881405
 31
0.0
  0
LINE
  5
4F7
330
1F
100
AcDbEntity
  8
7__7
  6
Continuous
 62
     3
100
AcDbLine
 10
1506.831856
 20
428.881405
 30
0.0
 11
1535.44087
 21
478.433672
 31
0.0
  0
LINE
  5
4F8
330
1F
100
AcDbEntity
  8
7__7
  6
Continuous
 62
     3
100
AcDbLine
 10
1535.44087
 20
478.433672
 30
0.0
 11
1705.377878
 21
478.433672
 31
0.0
  0
TEXT
  5
4F9
330
1F
100
AcDbEntity
  8
7__7
  6
Continuous
 62
     3
100
AcDbText
 10
1535.44087
 20
481.433672
 30
0.0
 40
18.0
  1
シーリング処理（別途）
 41
0.858268
  7
BIGFONT
100
AcDbText
  0
LINE
  5
4FA
330
1F
100
AcDbEntity
  8
7__7
  6
Continuous
 62
     3
100
AcDbLine
 10
1445.024411
 20
380.212006
 30
0.0
 11
1436.426335
 21
389.104311
 31
0.0
  0
LINE
  5
4FB
330
1F
100
AcDbEntity
  8
7__7
  6
Continuous
 62
     3
100
AcDbLine
 10
1436.426335
 20
389.104311
 30
0.0
 11
1541.661892
 21
206.830979
 31
0.0
  0
LINE
  5
4FC
330
1F
100
AcDbEntity
  8
7__7
  6
Continuous
 62
     3
100
AcDbLine
 10
1541.661892
 20
206.830979
 30
0.0
 11
1634.354805
 21
206.830979
 31
0.0
  0
TEXT
  5
4FD
330
1F
100
AcDbEntity
  8
7__7
  6
Continuous
 62
     3
100
AcDbText
 10
1541.661892
 20
209.830979
 30
0.0
 40
18.0
  1
差筋（別途）
 41
0.858268
  7
BIGFONT
100
AcDbText
  0
LINE
  5
4FE
330
1F
100
AcDbEntity
  8
7__7
  6
Continuous
 62
     3
100
AcDbLine
 10
490.078583
 20
209.228047
 30
0.0
 11
481.480507
 21
218.120352
 31
0.0
  0
LINE
  5
4FF
330
1F
100
AcDbEntity
  8
7__7
  6
Continuous
 62
     3
100
AcDbLine
 10
481.480507
 20
218.120352
 30
0.0
 11
511.456887
 21
166.199739
 31
0.0
  0
LINE
  5
500
330
1F
100
AcDbEntity
  8
7__7
  6
Continuous
 62
     3
100
AcDbLine
 10
511.456887
 20
166.199739
 30
0.0
 11
650.496257
 21
166.199739
 31
0.0
  0
TEXT
  5
501
330
1F
100
AcDbEntity
  8
7__7
  6
Continuous
 62
     3
100
AcDbText
 10
511.456887
 20
169.199739
 30
0.0
 40
18.0
  1
内装仕上げ（別途）
 41
0.858268
  7
BIGFONT
100
AcDbText
  0
TEXT
  5
502
330
1F
100
AcDbEntity
  8
7__7
  6
Continuous
 62
     3
100
AcDbText
 10
2093.968707
 20
212.087995
 30
0.0
 40
21.0
  1
ボックス施工例
 41
0.858268
  7
BIGFONT
100
AcDbText
  0
LINE
  5
503
330
1F
100
AcDbEntity
  8
7__7
  6
Continuous
 62
     3
100
AcDbLine
 10
2277.720813
 20
1266.883417
 30
0.0
 11
2277.720813
 21
304.023397
 31
0.0
  0
LINE
  5
504
330
1F
100
AcDbEntity
  8
7__7
  6
Continuous
 62
     3
100
AcDbLine
 10
2218.220813
 20
1120.114403
 30
0.0
 11
2218.220813
 21
1126.764403
 31
0.0
  0
INSERT
  5
50B
330
1F
100
AcDbEntity
  8
7__7
  6
Continuous
 62
     3
100
AcDbBlockReference
  2
DIM_13
 10
0.0
 20
0.0
 30
0.0
  0
LINE
  5
50C
330
1F
100
AcDbEntity
  8
7__7
  6
Continuous
 62
     4
100
AcDbLine
 10
2196.190566
 20
1210.620399
 30
0.0
 11
2203.499892
 21
1216.69818
 31
0.0
  0
ARC
  5
50D
330
1F
100
AcDbEntity
  8
7__7
  6
Continuous
 62
     4
100
AcDbCircle
 10
2088.94872
 20
1118.041013
 30
0.0
 40
144.5000000001307
100
AcDbArc
 50
40.782563
 51
89.215646
  0
ARC
  5
50E
330
1F
100
AcDbEntity
  8
7__7
  6
Continuous
 62
     4
100
AcDbCircle
 10
2088.94872
 20
1118.041013
 30
0.0
 40
149.9999999999602
100
AcDbArc
 50
40.744474
 51
89.215646
  0
LINE
  5
50F
330
1F
100
AcDbEntity
  8
7__7
  6
Continuous
 62
     3
100
AcDbLine
 10
1981.537418
 20
1250.02073
 30
0.0
 11
1984.939341
 21
1261.913035
 31
0.0
  0
LINE
  5
510
330
1F
100
AcDbEntity
  8
7__7
  6
Continuous
 62
     3
100
AcDbLine
 10
1984.939341
 20
1261.913035
 30
0.0
 11
1937.432342
 21
1179.628499
 31
0.0
  0
LINE
  5
511
330
1F
100
AcDbEntity
  8
7__7
  6
Continuous
 62
     3
100
AcDbLine
 10
1937.432342
 20
1179.628499
 30
0.0
 11
1795.532342
 21
1179.628499
 31
0.0
  0
TEXT
  5
512
330
1F
100
AcDbEntity
  8
7__7
  6
Continuous
 62
     3
100
AcDbText
 10
1817.887624
 20
1184.62857
 30
0.0
 40
15.0
  1
アウターケーブルφ１１
 41
0.858268
 51
0.0
  7
BIGFONT
 72
     2
 11
1937.432056
 21
1184.62857
 31
0.0
100
AcDbText
  0
TEXT
  5
513
330
1F
100
AcDbEntity
  8
7__7
  6
Continuous
 62
     3
100
AcDbText
 10
1868.666191
 20
1241.037495
 30
0.0
 40
15.0
  1
←本体へ
 41
0.729528
 51
0.0
  7
BIGFONT
100
AcDbText
  0
LINE
  5
514
330
1F
100
AcDbEntity
  8
7__7
  6
Continuous
 62
     6
100
AcDbLine
 10
2327.704337
 20
1327.553862
 30
0.0
 11
2268.177433
 21
1268.026958
 31
0.0
  0
LINE
  5
515
330
1F
100
AcDbEntity
  8
7__7
  6
Continuous
 62
     6
100
AcDbLine
 10
2272.108859
 20
1268.026958
 30
0.0
 11
2331.635763
 21
1327.553862
 31
0.0
  0
LINE
  5
516
330
1F
100
AcDbEntity
  8
7__7
  6
Continuous
 62
     6
100
AcDbLine
 10
2323.150482
 20
1327.553862
 30
0.0
 11
2263.623577
 21
1268.026958
 31
0.0
  0
LINE
  5
517
330
1F
100
AcDbEntity
  8
7__7
  6
Continuous
 62
     6
100
AcDbLine
 10
2004.120538
 20
1268.026958
 30
0.0
 11
2063.647442
 21
1327.553862
 31
0.0
  0
LINE
  5
518
330
1F
100
AcDbEntity
  8
7__7
  6
Continuous
 62
     6
100
AcDbLine
 10
1995.635256
 20
1268.026958
 30
0.0
 11
2055.16216
 21
1327.553862
 31
0.0
  0
LINE
  5
519
330
1F
100
AcDbEntity
  8
7__7
  6
Continuous
 62
     3
100
AcDbLine
 10
1877.572266
 20
1121.214403
 30
0.0
 11
2216.820813
 21
1121.214403
 31
0.0
  0
LINE
  5
51A
330
1F
100
AcDbEntity
  8
7__7
  6
Continuous
 62
     3
100
AcDbLine
 10
1877.572266
 20
1125.964403
 30
0.0
 11
2216.820813
 21
1125.964403
 31
0.0
  0
LINE
  5
51B
330
1F
100
AcDbEntity
  8
7__7
  6
Continuous
 62
     3
100
AcDbLine
 10
2216.820813
 20
1125.964403
 30
0.0
 11
2216.820813
 21
1121.214403
 31
0.0
  0
LINE
  5
51C
330
1F
100
AcDbEntity
  8
7__7
  6
Continuous
 62
     3
100
AcDbLine
 10
2210.520813
 20
1126.264403
 30
0.0
 11
2210.520813
 21
1126.764403
 31
0.0
  0
LINE
  5
51D
330
1F
100
AcDbEntity
  8
7__7
  6
Continuous
 62
     3
100
AcDbLine
 10
2217.720813
 20
1126.264403
 30
0.0
 11
2210.520813
 21
1126.264403
 31
0.0
  0
LINE
  5
51E
330
1F
100
AcDbEntity
  8
7__7
  6
Continuous
 62
     3
100
AcDbLine
 10
2217.720813
 20
1120.614403
 30
0.0
 11
2217.720813
 21
1126.264403
 31
0.0
  0
LINE
  5
51F
330
1F
100
AcDbEntity
  8
7__7
  6
Continuous
 62
     3
100
AcDbLine
 10
2215.320813
 20
1120.614403
 30
0.0
 11
2217.720813
 21
1120.614403
 31
0.0
  0
LINE
  5
520
330
1F
100
AcDbEntity
  8
7__7
  6
Continuous
 62
     3
100
AcDbLine
 10
2215.320813
 20
1121.214403
 30
0.0
 11
2215.320813
 21
1120.614403
 31
0.0
  0
LINE
  5
521
330
1F
100
AcDbEntity
  8
7__7
  6
Continuous
 62
     3
100
AcDbLine
 10
2214.820813
 20
1121.214403
 30
0.0
 11
2215.320813
 21
1121.214403
 31
0.0
  0
LINE
  5
522
330
1F
100
AcDbEntity
  8
7__7
  6
Continuous
 62
     3
100
AcDbLine
 10
2214.820813
 20
1120.114403
 30
0.0
 11
2214.820813
 21
1121.214403
 31
0.0
  0
LINE
  5
523
330
1F
100
AcDbEntity
  8
7__7
  6
Continuous
 62
     3
100
AcDbLine
 10
2214.820813
 20
1120.114403
 30
0.0
 11
2218.220813
 21
1120.114403
 31
0.0
  0
LINE
  5
524
330
1F
100
AcDbEntity
  8
7__7
  6
Continuous
 62
     3
100
AcDbLine
 10
2210.520813
 20
1126.764403
 30
0.0
 11
2218.220813
 21
1126.764403
 31
0.0
  0
TEXT
  5
525
330
1F
100
AcDbEntity
  8
7__7
  6
Continuous
 62
     3
100
AcDbText
 10
1993.402366
 20
1104.400455
 30
0.0
 40
15.0
  1
ＣＬ
 41
0.858268
 51
0.0
  7
BIGFONT
100
AcDbText
  0
TEXT
  5
526
330
1F
100
AcDbEntity
  8
7__7
  6
Continuous
 62
     3
100
AcDbText
 10
1980.994526
 20
1104.963655
 30
0.0
 40
15.0
  1
△
 41
0.858268
 51
0.0
  7
BIGFONT
100
AcDbText
  0
TEXT
  5
527
330
1F
100
AcDbEntity
  8
7__7
  6
Continuous
 62
     3
100
AcDbText
 10
2092.681537
 20
1011.534357
 30
0.0
 40
15.0
  1
φ１９　電線管
 41
0.858268
  7
BIGFONT
100
AcDbText
  0
LINE
  5
528
330
1F
100
AcDbEntity
  8
7__7
  6
Continuous
 62
     3
100
AcDbLine
 10
2229.941913
 20
968.078693
 30
0.0
 11
2238.539989
 21
959.186388
 31
0.0
  0
LINE
  5
529
330
1F
100
AcDbEntity
  8
7__7
  6
Continuous
 62
     3
100
AcDbLine
 10
2238.539989
 20
959.186388
 30
0.0
 11
2198.215786
 21
1029.029956
 31
0.0
  0
LINE
  5
52A
330
1F
100
AcDbEntity
  8
7__7
  6
Continuous
 62
     3
100
AcDbLine
 10
2198.215786
 20
1029.029956
 30
0.0
 11
2090.524546
 21
1029.029956
 31
0.0
  0
TEXT
  5
52B
330
1F
100
AcDbEntity
  8
7__7
  6
Continuous
 62
     3
100
AcDbText
 10
2108.398588
 20
1031.529932
 30
0.0
 40
15.0
  1
ワイヤー通路
 41
0.858268
 51
0.0
  7
BIGFONT
 72
     2
 11
2172.768667
 21
1031.529932
 31
0.0
100
AcDbText
  0
TEXT
  5
52C
330
1F
100
AcDbEntity
  8
7__7
  6
Continuous
 62
     3
100
AcDbText
 10
2018.703709
 20
900.823246
 30
0.0
 40
15.0
  1
（ＨＭ１型－埋込）
 41
0.858268
  7
BIGFONT
100
AcDbText
  0
LINE
  5
52D
330
1F
100
AcDbEntity
  8
7__7
  6
Continuous
 62
     2
100
AcDbLine
 10
1919.143966
 20
1327.553862
 30
0.0
 11
2362.781449
 21
1327.553862
 31
0.0
  0
LINE
  5
52E
330
1F
100
AcDbEntity
  8
7__7
  6
Continuous
 62
     3
100
AcDbLine
 10
2070.521877
 20
1272.539417
 30
0.0
 11
2070.521877
 21
1263.109952
 31
0.0
  0
LINE
  5
52F
330
1F
100
AcDbEntity
  8
7__7
  6
Continuous
 62
     3
100
AcDbLine
 10
2063.021877
 20
1267.276958
 30
0.0
 11
2078.021877
 21
1267.276958
 31
0.0
  0
LINE
  5
530
330
1F
100
AcDbEntity
  8
7__7
  6
Continuous
 62
     3
100
AcDbLine
 10
2063.021877
 20
1260.454726
 30
0.0
 11
2078.021877
 21
1260.454726
 31
0.0
  0
LINE
  5
531
330
1F
100
AcDbEntity
  8
7__7
  6
Continuous
 62
     3
100
AcDbLine
 10
2078.021877
 20
1268.026958
 30
0.0
 11
2078.021877
 21
1260.454726
 31
0.0
  0
LINE
  5
532
330
1F
100
AcDbEntity
  8
7__7
  6
Continuous
 62
     3
100
AcDbLine
 10
2063.021877
 20
1268.026958
 30
0.0
 11
2063.021877
 21
1260.454726
 31
0.0
  0
LINE
  5
533
330
1F
100
AcDbEntity
  8
7__7
  6
Continuous
 62
     2
100
AcDbLine
 10
2091.00209
 20
1268.026958
 30
0.0
 11
2362.781449
 21
1268.026958
 31
0.0
  0
LINE
  5
534
330
1F
100
AcDbEntity
  8
7__7
  6
PLine3
 62
     3
100
AcDbLine
 10
1877.572266
 20
1265.776958
 30
0.0
 11
1918.986297
 21
1265.776958
 31
0.0
  0
LINE
  5
535
330
1F
100
AcDbEntity
  8
7__7
  6
PLine2
 62
     3
100
AcDbLine
 10
1877.572266
 20
1264.776958
 30
0.0
 11
1919.212311
 21
1264.776958
 31
0.0
  0
LINE
  5
536
330
1F
100
AcDbEntity
  8
7__7
  6
Continuous
 62
     4
100
AcDbLine
 10
2090.964091
 20
1262.526958
 30
0.0
 11
2078.021877
 21
1262.526958
 31
0.0
  0
LINE
  5
537
330
1F
100
AcDbEntity
  8
7__7
  6
Continuous
 62
     4
100
AcDbLine
 10
2091.00209
 20
1268.026958
 30
0.0
 11
1919.143966
 21
1268.026958
 31
0.0
  0
LINE
  5
538
330
1F
100
AcDbEntity
  8
7__7
  6
Continuous
 62
     3
100
AcDbLine
 10
2095.444676
 20
1238.170116
 30
0.0
 11
2104.846599
 21
1260.454726
 31
0.0
  0
LINE
  5
539
330
1F
100
AcDbEntity
  8
7__7
  6
Continuous
 62
     3
100
AcDbLine
 10
2104.846599
 20
1260.454726
 30
0.0
 11
2069.233861
 21
1198.771653
 31
0.0
  0
LINE
  5
53A
330
1F
100
AcDbEntity
  8
7__7
  6
Continuous
 62
     3
100
AcDbLine
 10
2069.233861
 20
1198.771653
 30
0.0
 11
1991.833861
 21
1198.771653
 31
0.0
  0
TEXT
  5
53B
330
1F
100
AcDbEntity
  8
7__7
  6
Continuous
 62
     3
100
AcDbText
 10
2004.863737
 20
1203.77164
 30
0.0
 40
15.0
  1
クリップ止め
 41
0.858268
 51
0.0
  7
BIGFONT
 72
     2
 11
2069.233816
 21
1203.77164
 31
0.0
100
AcDbText
  0
LINE
  5
53C
330
1F
100
AcDbEntity
  8
7__7
  6
Continuous
 62
     4
100
AcDbLine
 10
2063.021877
 20
1262.526958
 30
0.0
 11
1919.05921
 21
1262.526958
 31
0.0
  0
LINE
  5
53D
330
1F
100
AcDbEntity
  8
7__7
  6
Continuous
 62
     6
100
AcDbLine
 10
2110.403256
 20
304.197918
 30
0.0
 11
2077.134757
 21
270.929418
 31
0.0
  0
LINE
  5
53E
330
1F
100
AcDbEntity
  8
7__7
  6
Continuous
 62
     6
100
AcDbLine
 10
2074.908997
 20
270.929418
 30
0.0
 11
2108.177497
 21
304.197918
 31
0.0
  0
LINE
  5
53F
330
1F
100
AcDbEntity
  8
7__7
  6
Continuous
 62
     6
100
AcDbLine
 10
2302.843466
 20
270.929418
 30
0.0
 11
2336.111965
 21
304.197918
 31
0.0
  0
LINE
  5
540
330
1F
100
AcDbEntity
  8
7__7
  6
Continuous
 62
     6
100
AcDbLine
 10
2338.531602
 20
304.197918
 30
0.0
 11
2305.263103
 21
270.929418
 31
0.0
  0
LINE
  5
541
330
1F
100
AcDbEntity
  8
7__7
  6
Continuous
 62
     3
100
AcDbLine
 10
2207.018974
 20
797.526304
 30
0.0
 11
2215.617051
 21
788.633999
 31
0.0
  0
LINE
  5
542
330
1F
100
AcDbEntity
  8
7__7
  6
Continuous
 62
     3
100
AcDbLine
 10
2215.617051
 20
788.633999
 30
0.0
 11
2139.985608
 21
919.631501
 31
0.0
  0
LINE
  5
543
330
1F
100
AcDbEntity
  8
7__7
  6
Continuous
 62
     3
100
AcDbLine
 10
2139.985608
 20
919.631501
 30
0.0
 11
2026.699076
 21
919.631501
 31
0.0
  0
TEXT
  5
544
330
1F
100
AcDbEntity
  8
7__7
  6
Continuous
 62
     3
100
AcDbText
 10
2046.412231
 20
922.131536
 30
0.0
 40
15.0
  1
ハンドルＢＯＸ
 41
0.858268
 51
0.0
  7
BIGFONT
 72
     2
 11
2121.81718
 21
922.131536
 31
0.0
100
AcDbText
  0
INSERT
  5
54C
330
1F
100
AcDbEntity
  8
7__7
  6
Continuous
 62
     3
100
AcDbBlockReference
  2
DIM_14
 10
2030.898264
 20
1121.214403
 30
0.0
  0
LINE
  5
54D
330
1F
100
AcDbEntity
  8
7__7
  6
Continuous
 62
     3
100
AcDbLine
 10
2272.970813
 20
1266.883417
 30
0.0
 11
2272.970813
 21
304.023397
 31
0.0
  0
TEXT
  5
54E
330
1F
100
AcDbEntity
  8
7__7
  6
Continuous
 62
     3
100
AcDbText
 10
2051.878926
 20
307.581835
 30
0.0
 40
15.0
  1
ＦＬ
 41
0.858268
 51
0.0
  7
BIGFONT
100
AcDbText
  0
TEXT
  5
54F
330
1F
100
AcDbEntity
  8
7__7
  6
Continuous
 62
     3
100
AcDbText
 10
2039.103661
 20
306.885425
 30
0.0
 40
15.0
  1
▽
 41
0.858268
 51
0.0
  7
BIGFONT
100
AcDbText
  0
LINE
  5
550
330
1F
100
AcDbEntity
  8
7__7
  6
Continuous
 62
     3
100
AcDbLine
 10
2211.672737
 20
484.485825
 30
0.0
 11
2220.270813
 21
475.59352
 31
0.0
  0
LINE
  5
551
330
1F
100
AcDbEntity
  8
7__7
  6
Continuous
 62
     3
100
AcDbLine
 10
2220.270813
 20
475.59352
 30
0.0
 11
2183.68159
 21
538.967914
 31
0.0
  0
LINE
  5
552
330
1F
100
AcDbEntity
  8
7__7
  6
Continuous
 62
     3
100
AcDbLine
 10
2183.68159
 20
538.967914
 30
0.0
 11
2075.144665
 21
538.967914
 31
0.0
  0
TEXT
  5
553
330
1F
100
AcDbEntity
  8
7__7
  6
Continuous
 62
     3
100
AcDbText
 10
2098.53601
 20
541.467905
 30
0.0
 40
15.0
  1
内装ボード（別途）
 41
0.858268
 51
0.0
  7
BIGFONT
 72
     2
 11
2196.010701
 21
541.467905
 31
0.0
100
AcDbText
  0
LINE
  5
554
330
1F
100
AcDbEntity
  8
7__7
  6
Continuous
 62
     3
100
AcDbLine
 10
2222.970813
 20
661.592292
 30
0.0
 11
2222.970813
 21
304.197918
 31
0.0
  0
LINE
  5
555
330
1F
100
AcDbEntity
  8
7__7
  6
Continuous
 62
     3
100
AcDbLine
 10
2218.220813
 20
661.592292
 30
0.0
 11
2218.220813
 21
304.197918
 31
0.0
  0
INSERT
  5
55E
330
1F
100
AcDbEntity
  8
7__7
  6
Continuous
 62
     3
100
AcDbBlockReference
  2
DIM_15
 10
2144.280404
 20
682.342292
 30
0.0
  0
LINE
  5
55F
330
1F
100
AcDbEntity
  8
7__7
  6
Continuous
 62
     2
100
AcDbLine
 10
1899.95186
 20
304.197918
 30
0.0
 11
2362.781449
 21
304.197918
 31
0.0
  0
LINE
  5
560
330
1F
100
AcDbEntity
  8
7__7
  6
Continuous
 62
     3
100
AcDbLine
 10
2222.970813
 20
811.592292
 30
0.0
 11
2222.970813
 21
1268.026958
 31
0.0
  0
LINE
  5
561
330
1F
100
AcDbEntity
  8
7__7
  6
Continuous
 62
     3
100
AcDbLine
 10
2218.220813
 20
1268.026958
 30
0.0
 11
2218.220813
 21
764.092292
 31
0.0
  0
LINE
  5
562
330
1F
100
AcDbEntity
  8
7__7
  6
Continuous
 62
     4
100
AcDbLine
 10
2215.720813
 20
656.592292
 30
0.0
 11
2218.220813
 21
656.592292
 31
0.0
  0
LINE
  5
563
330
1F
100
AcDbEntity
  8
7__7
  6
Continuous
 62
     4
100
AcDbLine
 10
2218.220813
 20
656.592292
 30
0.0
 11
2218.220813
 21
816.592292
 31
0.0
  0
LINE
  5
564
330
1F
100
AcDbEntity
  8
7__7
  6
Continuous
 62
     4
100
AcDbLine
 10
2218.220813
 20
816.592292
 30
0.0
 11
2215.720813
 21
816.592292
 31
0.0
  0
INSERT
  5
56E
330
1F
100
AcDbEntity
  8
7__7
  6
Continuous
 62
     3
100
AcDbBlockReference
  2
DIM_16
 10
2211.334347
 20
816.592292
 30
0.0
  0
INSERT
  5
578
330
1F
100
AcDbEntity
  8
7__7
  6
Continuous
 62
     3
100
AcDbBlockReference
  2
DIM_17
 10
2256.149854
 20
661.592292
 30
0.0
  0
INSERT
  5
581
330
1F
100
AcDbEntity
  8
7__7
  6
Continuous
 62
     3
100
AcDbBlockReference
  2
DIM_18
 10
2215.720813
 20
650.748402
 30
0.0
  0
INSERT
  5
58A
330
1F
100
AcDbEntity
  8
7__7
  6
Continuous
 62
     3
100
AcDbBlockReference
  2
DIM_19
 10
2253.220813
 20
655.748402
 30
0.0
  0
INSERT
  5
594
330
1F
100
AcDbEntity
  8
7__7
  6
Continuous
 62
     3
100
AcDbBlockReference
  2
DIM_20
 10
2347.173866
 20
653.371747
 30
0.0
  0
LINE
  5
595
330
1F
100
AcDbEntity
  8
7__7
  6
Continuous
 62
     4
100
AcDbLine
 10
2347.173866
 20
816.592292
 30
0.0
 11
2347.173866
 21
656.592292
 31
0.0
  0
LINE
  5
596
330
1F
100
AcDbEntity
  8
7__7
  6
Continuous
 62
     4
100
AcDbLine
 10
2412.173866
 20
816.592292
 30
0.0
 11
2412.173866
 21
656.592292
 31
0.0
  0
LINE
  5
597
330
1F
100
AcDbEntity
  8
7__7
  6
Continuous
 62
     4
100
AcDbLine
 10
2347.173866
 20
816.592292
 30
0.0
 11
2412.173866
 21
816.592292
 31
0.0
  0
LINE
  5
598
330
1F
100
AcDbEntity
  8
7__7
  6
Continuous
 62
     4
100
AcDbLine
 10
2347.173866
 20
656.592292
 30
0.0
 11
2412.173866
 21
656.592292
 31
0.0
  0
LINE
  5
599
330
1F
100
AcDbEntity
  8
7__7
  6
Continuous
 62
     4
100
AcDbLine
 10
2387.173866
 20
682.342292
 30
0.0
 11
2387.173866
 21
804.184824
 31
0.0
  0
ARC
  5
59A
330
1F
100
AcDbEntity
  8
7__7
  6
Continuous
 62
     4
100
AcDbCircle
 10
2374.323866
 20
769.420419
 30
0.0
 40
0.8500000127255676
100
AcDbArc
 50
90.0
 51
180.0
  0
ARC
  5
59B
330
1F
100
AcDbEntity
  8
7__7
  6
Continuous
 62
     4
100
AcDbCircle
 10
2385.023866
 20
769.420419
 30
0.0
 40
0.8500000055584698
100
AcDbArc
 50
0.0
 51
90.0
  0
ARC
  5
59C
330
1F
100
AcDbEntity
  8
7__7
  6
Continuous
 62
     4
100
AcDbCircle
 10
2374.323866
 20
758.720419
 30
0.0
 40
0.8499999966836138
100
AcDbArc
 50
180.0
 51
270.0
  0
ARC
  5
59D
330
1F
100
AcDbEntity
  8
7__7
  6
Continuous
 62
     4
100
AcDbCircle
 10
2385.023866
 20
758.720419
 30
0.0
 40
0.8499999962838809
100
AcDbArc
 50
270.0
 51
0.0
  0
LINE
  5
59E
330
1F
100
AcDbEntity
  8
7__7
  6
Continuous
 62
     4
100
AcDbLine
 10
2373.473866
 20
769.420419
 30
0.0
 11
2373.473866
 21
758.720419
 31
0.0
  0
LINE
  5
59F
330
1F
100
AcDbEntity
  8
7__7
  6
Continuous
 62
     4
100
AcDbLine
 10
2385.873866
 20
769.420419
 30
0.0
 11
2385.873866
 21
758.720419
 31
0.0
  0
LINE
  5
5A0
330
1F
100
AcDbEntity
  8
7__7
  6
Continuous
 62
     4
100
AcDbLine
 10
2374.323866
 20
757.870419
 30
0.0
 11
2385.023866
 21
757.870419
 31
0.0
  0
LINE
  5
5A1
330
1F
100
AcDbEntity
  8
7__7
  6
Continuous
 62
     4
100
AcDbLine
 10
2374.323866
 20
770.270419
 30
0.0
 11
2385.023866
 21
770.270419
 31
0.0
  0
LINE
  5
5A2
330
1F
100
AcDbEntity
  8
7__7
  6
Continuous
 62
     4
100
AcDbLine
 10
2372.173866
 20
682.342292
 30
0.0
 11
2372.173866
 21
804.184824
 31
0.0
  0
LINE
  5
5A3
330
1F
100
AcDbEntity
  8
7__7
  6
Continuous
 62
     4
100
AcDbLine
 10
2254.820804
 20
797.342292
 30
0.0
 11
2253.220813
 21
797.342292
 31
0.0
  0
LINE
  5
5A4
330
1F
100
AcDbEntity
  8
7__7
  6
Continuous
 62
     4
100
AcDbLine
 10
2254.820804
 20
805.342292
 30
0.0
 11
2253.220813
 21
805.342292
 31
0.0
  0
LINE
  5
5A5
330
1F
100
AcDbEntity
  8
7__7
  6
Continuous
 62
     4
100
AcDbLine
 10
2254.820804
 20
797.342292
 30
0.0
 11
2254.820804
 21
805.342292
 31
0.0
  0
LINE
  5
5A6
330
1F
100
AcDbEntity
  8
7__7
  6
Continuous
 62
     4
100
AcDbLine
 10
2254.820804
 20
774.842292
 30
0.0
 11
2253.220813
 21
774.842292
 31
0.0
  0
LINE
  5
5A7
330
1F
100
AcDbEntity
  8
7__7
  6
Continuous
 62
     4
100
AcDbLine
 10
2254.820804
 20
766.842292
 30
0.0
 11
2253.220813
 21
766.842292
 31
0.0
  0
LINE
  5
5A8
330
1F
100
AcDbEntity
  8
7__7
  6
Continuous
 62
     4
100
AcDbLine
 10
2254.820804
 20
682.342292
 30
0.0
 11
2253.220813
 21
682.342292
 31
0.0
  0
LINE
  5
5A9
330
1F
100
AcDbEntity
  8
7__7
  6
Continuous
 62
     4
100
AcDbLine
 10
2254.820804
 20
766.842292
 30
0.0
 11
2254.820804
 21
774.842292
 31
0.0
  0
LINE
  5
5AA
330
1F
100
AcDbEntity
  8
7__7
  6
Continuous
 62
     4
100
AcDbLine
 10
2254.820804
 20
663.092292
 30
0.0
 11
2253.220813
 21
663.092292
 31
0.0
  0
LINE
  5
5AB
330
1F
100
AcDbEntity
  8
7__7
  6
Continuous
 62
     4
100
AcDbLine
 10
2254.820804
 20
663.092292
 30
0.0
 11
2254.820804
 21
682.342292
 31
0.0
  0
ARC
  5
5AC
330
1F
100
AcDbEntity
  8
7__7
  6
Continuous
 62
     4
100
AcDbCircle
 10
2252.620807
 20
810.992294
 30
0.0
 40
0.600000005544681
100
AcDbArc
 50
0.0
 51
90.0
  0
ARC
  5
5AD
330
1F
100
AcDbEntity
  8
7__7
  6
Continuous
 62
     4
100
AcDbCircle
 10
2252.620807
 20
662.19229
 30
0.0
 40
0.5999999943676526
100
AcDbArc
 50
270.0
 51
0.0
  0
ARC
  5
5AE
330
1F
100
AcDbEntity
  8
7__7
  6
Continuous
 62
     4
100
AcDbCircle
 10
2218.820804
 20
805.167293
 30
0.0
 40
0.6000000094561557
100
AcDbArc
 50
90.0
 51
180.0
  0
ARC
  5
5AF
330
1F
100
AcDbEntity
  8
7__7
  6
Continuous
 62
     4
100
AcDbCircle
 10
2219.070804
 20
808.267291
 30
0.0
 40
0.2500000131552967
100
AcDbArc
 50
180.0
 51
270.0
  0
ARC
  5
5B0
330
1F
100
AcDbEntity
  8
7__7
  6
Continuous
 62
     4
100
AcDbCircle
 10
2219.070804
 20
804.917293
 30
0.0
 40
0.2500000046933174
100
AcDbArc
 50
90.0
 51
180.0
  0
ARC
  5
5B1
330
1F
100
AcDbEntity
  8
7__7
  6
Continuous
 62
     4
100
AcDbCircle
 10
2219.070804
 20
664.917289
 30
0.0
 40
0.2500000148326077
100
AcDbArc
 50
90.0
 51
180.0
  0
ARC
  5
5B2
330
1F
100
AcDbEntity
  8
7__7
  6
Continuous
 62
     4
100
AcDbCircle
 10
2219.070804
 20
668.267295
 30
0.0
 40
0.2499999993212197
100
AcDbArc
 50
180.0
 51
270.0
  0
ARC
  5
5B3
330
1F
100
AcDbEntity
  8
7__7
  6
Continuous
 62
     4
100
AcDbCircle
 10
2218.820804
 20
808.017291
 30
0.0
 40
0.6000000004508289
100
AcDbArc
 50
180.0
 51
270.0
  0
LINE
  5
5B4
330
1F
100
AcDbEntity
  8
7__7
  6
Continuous
 62
     4
100
AcDbLine
 10
2219.820804
 20
665.167289
 30
0.0
 11
2219.070804
 21
665.167289
 31
0.0
  0
LINE
  5
5B5
330
1F
100
AcDbEntity
  8
7__7
  6
Continuous
 62
     4
100
AcDbLine
 10
2218.820804
 20
803.592292
 30
0.0
 11
2218.820804
 21
804.917293
 31
0.0
  0
LINE
  5
5B6
330
1F
100
AcDbEntity
  8
7__7
  6
Continuous
 62
     4
100
AcDbLine
 10
2218.820804
 20
803.592292
 30
0.0
 11
2218.220813
 21
803.592292
 31
0.0
  0
LINE
  5
5B7
330
1F
100
AcDbEntity
  8
7__7
  6
Continuous
 62
     4
100
AcDbLine
 10
2218.820804
 20
669.592292
 30
0.0
 11
2218.820804
 21
662.19229
 31
0.0
  0
LINE
  5
5B8
330
1F
100
AcDbEntity
  8
7__7
  6
Continuous
 62
     4
100
AcDbLine
 10
2252.620807
 20
662.19229
 30
0.0
 11
2252.620807
 21
810.992294
 31
0.0
  0
LINE
  5
5B9
330
1F
100
AcDbEntity
  8
7__7
  6
Continuous
 62
     4
100
AcDbLine
 10
2252.620807
 20
810.992294
 30
0.0
 11
2218.820804
 21
810.992294
 31
0.0
  0
LINE
  5
5BA
330
1F
100
AcDbEntity
  8
7__7
  6
Continuous
 62
     4
100
AcDbLine
 10
2219.820804
 20
805.767291
 30
0.0
 11
2218.820804
 21
805.767291
 31
0.0
  0
LINE
  5
5BB
330
1F
100
AcDbEntity
  8
7__7
  6
Continuous
 62
     4
100
AcDbLine
 10
2252.620807
 20
662.19229
 30
0.0
 11
2218.220813
 21
662.19229
 31
0.0
  0
LINE
  5
5BC
330
1F
100
AcDbEntity
  8
7__7
  6
Continuous
 62
     4
100
AcDbLine
 10
2253.220813
 20
662.19229
 30
0.0
 11
2253.220813
 21
810.992294
 31
0.0
  0
LINE
  5
5BD
330
1F
100
AcDbEntity
  8
7__7
  6
Continuous
 62
     4
100
AcDbLine
 10
2252.620807
 20
811.592292
 30
0.0
 11
2218.220813
 21
811.592292
 31
0.0
  0
LINE
  5
5BE
330
1F
100
AcDbEntity
  8
7__7
  6
Continuous
 62
     4
100
AcDbLine
 10
2252.620807
 20
661.592292
 30
0.0
 11
2218.220813
 21
661.592292
 31
0.0
  0
LINE
  5
5BF
330
1F
100
AcDbEntity
  8
7__7
  6
Continuous
 62
     4
100
AcDbLine
 10
2218.820804
 20
669.592292
 30
0.0
 11
2218.220813
 21
669.592292
 31
0.0
  0
LINE
  5
5C0
330
1F
100
AcDbEntity
  8
7__7
  6
Continuous
 62
     4
100
AcDbLine
 10
2219.820804
 20
805.167293
 30
0.0
 11
2219.820804
 21
808.017291
 31
0.0
  0
LINE
  5
5C1
330
1F
100
AcDbEntity
  8
7__7
  6
Continuous
 62
     4
100
AcDbLine
 10
2218.820804
 20
808.267291
 30
0.0
 11
2218.820804
 21
810.992294
 31
0.0
  0
LINE
  5
5C2
330
1F
100
AcDbEntity
  8
7__7
  6
Continuous
 62
     4
100
AcDbLine
 10
2219.820804
 20
668.017295
 30
0.0
 11
2219.070804
 21
668.017295
 31
0.0
  0
LINE
  5
5C3
330
1F
100
AcDbEntity
  8
7__7
  6
Continuous
 62
     4
100
AcDbLine
 10
2219.820804
 20
805.167293
 30
0.0
 11
2219.070804
 21
805.167293
 31
0.0
  0
LINE
  5
5C4
330
1F
100
AcDbEntity
  8
7__7
  6
Continuous
 62
     4
100
AcDbLine
 10
2219.820804
 20
807.417293
 30
0.0
 11
2218.820804
 21
807.417293
 31
0.0
  0
LINE
  5
5C5
330
1F
100
AcDbEntity
  8
7__7
  6
Continuous
 62
     4
100
AcDbLine
 10
2219.820804
 20
668.017295
 30
0.0
 11
2219.820804
 21
665.167289
 31
0.0
  0
LINE
  5
5C6
330
1F
100
AcDbEntity
  8
7__7
  6
Continuous
 62
     4
100
AcDbLine
 10
2219.820804
 20
808.017291
 30
0.0
 11
2219.070804
 21
808.017291
 31
0.0
  0
LINE
  5
5C7
330
1F
100
AcDbEntity
  8
7__7
  6
Continuous
 62
     4
100
AcDbLine
 10
2218.220813
 20
776.292292
 30
0.0
 11
2218.220813
 21
816.592292
 31
0.0
  0
LINE
  5
5C8
330
1F
100
AcDbEntity
  8
7__7
  6
Continuous
 62
     4
100
AcDbLine
 10
2218.220813
 20
656.592292
 30
0.0
 11
2218.220813
 21
776.292292
 31
0.0
  0
LINE
  5
5C9
330
1F
100
AcDbEntity
  8
7__7
  6
Continuous
 62
     4
100
AcDbLine
 10
2215.720813
 20
656.592292
 30
0.0
 11
2215.720813
 21
816.592292
 31
0.0
  0
LINE
  5
5CA
330
1F
100
AcDbEntity
  8
7__7
  6
Continuous
 62
     4
100
AcDbLine
 10
2210.720813
 20
678.342292
 30
0.0
 11
2228.220813
 21
678.342292
 31
0.0
  0
LINE
  5
5CB
330
1F
100
AcDbEntity
  8
7__7
  6
Continuous
 62
     4
100
AcDbLine
 10
2228.220813
 20
686.342292
 30
0.0
 11
2210.720813
 21
686.342292
 31
0.0
  0
LINE
  5
5CC
330
1F
100
AcDbEntity
  8
7__7
  6
Continuous
 62
     4
100
AcDbLine
 10
2212.220813
 20
777.592292
 30
0.0
 11
2212.220813
 21
766.592292
 31
0.0
  0
LINE
  5
5CD
330
1F
100
AcDbEntity
  8
7__7
  6
Continuous
 62
     4
100
AcDbLine
 10
2212.220813
 20
766.592292
 30
0.0
 11
2210.720813
 21
766.592292
 31
0.0
  0
LINE
  5
5CE
330
1F
100
AcDbEntity
  8
7__7
  6
Continuous
 62
     4
100
AcDbLine
 10
2210.720813
 20
766.592292
 30
0.0
 11
2210.720813
 21
676.842292
 31
0.0
  0
LINE
  5
5CF
330
1F
100
AcDbEntity
  8
7__7
  6
Continuous
 62
     4
100
AcDbLine
 10
2206.720813
 20
764.592292
 30
0.0
 11
2205.220813
 21
766.092292
 31
0.0
  0
LINE
  5
5D0
330
1F
100
AcDbEntity
  8
7__7
  6
Continuous
 62
     4
100
AcDbLine
 10
2205.220813
 20
766.092292
 30
0.0
 11
2205.220813
 21
777.592292
 31
0.0
  0
LINE
  5
5D1
330
1F
100
AcDbEntity
  8
7__7
  6
Continuous
 62
     4
100
AcDbLine
 10
2205.220813
 20
777.592292
 30
0.0
 11
2212.220813
 21
777.592292
 31
0.0
  0
LINE
  5
5D2
330
1F
100
AcDbEntity
  8
7__7
  6
Continuous
 62
     4
100
AcDbLine
 10
2207.720813
 20
676.842292
 30
0.0
 11
2210.720813
 21
676.842292
 31
0.0
  0
LINE
  5
5D3
330
1F
100
AcDbEntity
  8
7__7
  6
Continuous
 62
     4
100
AcDbLine
 10
2192.720813
 20
766.592292
 30
0.0
 11
2204.720813
 21
767.092292
 31
0.0
  0
LINE
  5
5D4
330
1F
100
AcDbEntity
  8
7__7
  6
Continuous
 62
     4
100
AcDbLine
 10
2204.720813
 20
767.092292
 30
0.0
 11
2204.720813
 21
777.092292
 31
0.0
  0
LINE
  5
5D5
330
1F
100
AcDbEntity
  8
7__7
  6
Continuous
 62
     4
100
AcDbLine
 10
2204.720813
 20
777.092292
 30
0.0
 11
2192.720813
 21
777.592292
 31
0.0
  0
LINE
  5
5D6
330
1F
100
AcDbEntity
  8
7__7
  6
Continuous
 62
     4
100
AcDbLine
 10
2192.720813
 20
777.592292
 30
0.0
 11
2192.720813
 21
766.592292
 31
0.0
  0
LINE
  5
5D7
330
1F
100
AcDbEntity
  8
7__7
  6
Continuous
 62
     4
100
AcDbLine
 10
2204.720813
 20
767.592292
 30
0.0
 11
2205.220813
 21
767.592292
 31
0.0
  0
LINE
  5
5D8
330
1F
100
AcDbEntity
  8
7__7
  6
Continuous
 62
     4
100
AcDbLine
 10
2205.220813
 20
776.592292
 30
0.0
 11
2204.720813
 21
776.592292
 31
0.0
  0
LINE
  5
5D9
330
1F
100
AcDbEntity
  8
7__7
  6
PLine2
 62
     4
100
AcDbLine
 10
2251.600559
 20
682.342292
 30
0.0
 11
2173.850559
 21
682.342292
 31
0.0
  0
LINE
  5
5DA
330
1F
100
AcDbEntity
  8
7__7
  6
Continuous
 62
     4
100
AcDbLine
 10
2228.220813
 20
678.342292
 30
0.0
 11
2228.220813
 21
686.342292
 31
0.0
  0
LINE
  5
5DB
330
1F
100
AcDbEntity
  8
7__7
  6
Continuous
 62
     4
100
AcDbLine
 10
2207.720813
 20
676.842292
 30
0.0
 11
2205.685279
 21
678.877826
 31
0.0
  0
LINE
  5
5DC
330
1F
100
AcDbEntity
  8
7__7
  6
Continuous
 62
     4
100
AcDbLine
 10
2206.720813
 20
764.592292
 30
0.0
 11
2206.720813
 21
688.842292
 31
0.0
  0
TEXT
  5
5DD
330
1F
100
AcDbEntity
  8
7__7
  6
Continuous
 62
     1
100
AcDbText
 10
2375.081007
 20
757.639806
 30
0.0
 40
12.5
  1
押
 41
0.858268
  7
BIGFONT
100
AcDbText
  0
ARC
  5
5DE
330
1F
100
AcDbEntity
  8
7__7
  6
Continuous
 62
     4
100
AcDbCircle
 10
2379.673866
 20
682.342292
 30
0.0
 40
7.499999999978002
100
AcDbArc
 50
138.189685
 51
41.810315
  0
LINE
  5
5DF
330
1F
100
AcDbEntity
  8
7__7
  6
Continuous
 62
     4
100
AcDbLine
 10
2372.173866
 20
687.342292
 30
0.0
 11
2387.173866
 21
687.342292
 31
0.0
  0
ARC
  5
5E0
330
1F
100
AcDbEntity
  8
7__7
  6
Continuous
 62
     4
100
AcDbCircle
 10
2379.673866
 20
786.184824
 30
0.0
 40
19.49999999960522
100
AcDbArc
 50
67.380135
 51
112.619865
  0
LINE
  5
5E1
330
1F
100
AcDbEntity
  8
7__7
  6
PLine1
 62
     4
100
AcDbLine
 10
2352.173866
 20
781.03336
 30
0.0
 11
2352.173866
 21
811.592292
 31
0.0
  0
LINE
  5
5E2
330
1F
100
AcDbEntity
  8
7__7
  6
PLine1
 62
     4
100
AcDbLine
 10
2352.173866
 20
811.592292
 30
0.0
 11
2407.173866
 21
811.592292
 31
0.0
  0
LINE
  5
5E3
330
1F
100
AcDbEntity
  8
7__7
  6
PLine1
 62
     4
100
AcDbLine
 10
2407.173866
 20
811.592292
 30
0.0
 11
2407.173866
 21
778.247528
 31
0.0
  0
LINE
  5
5E4
330
1F
100
AcDbEntity
  8
7__7
  6
Continuous
 62
     4
100
AcDbLine
 10
2359.173866
 20
816.592292
 30
0.0
 11
2359.173866
 21
821.592292
 31
0.0
  0
LINE
  5
5E5
330
1F
100
AcDbEntity
  8
7__7
  6
Continuous
 62
     4
100
AcDbLine
 10
2359.173866
 20
821.592292
 30
0.0
 11
2370.173866
 21
821.592292
 31
0.0
  0
LINE
  5
5E6
330
1F
100
AcDbEntity
  8
7__7
  6
Continuous
 62
     4
100
AcDbLine
 10
2370.173866
 20
821.592292
 30
0.0
 11
2370.173866
 21
816.592292
 31
0.0
  0
LINE
  5
5E7
330
1F
100
AcDbEntity
  8
7__7
  6
Continuous
 62
     4
100
AcDbLine
 10
2359.923866
 20
821.592292
 30
0.0
 11
2359.923866
 21
926.202679
 31
0.0
  0
LINE
  5
5E8
330
1F
100
AcDbEntity
  8
7__7
  6
Continuous
 62
     4
100
AcDbLine
 10
2369.423866
 20
821.592292
 30
0.0
 11
2369.423866
 21
926.202679
 31
0.0
  0
LINE
  5
5E9
330
1F
100
AcDbEntity
  8
7__7
  6
PLine2
 62
     4
100
AcDbLine
 10
2364.673866
 20
950.703059
 30
0.0
 11
2364.673866
 21
801.462157
 31
0.0
  0
INSERT
  5
5F3
330
1F
100
AcDbEntity
  8
7__7
  6
Continuous
 62
     3
100
AcDbBlockReference
  2
DIM_21
 10
2352.173866
 20
818.936756
 30
0.0
  0
INSERT
  5
5FD
330
1F
100
AcDbEntity
  8
7__7
  6
Continuous
 62
     3
100
AcDbBlockReference
  2
DIM_22
 10
2352.173866
 20
854.692382
 30
0.0
  0
LINE
  5
5FE
330
1F
100
AcDbEntity
  8
7__7
  6
Continuous
 62
     4
100
AcDbLine
 10
2233.720813
 20
821.592292
 30
0.0
 11
2244.720813
 21
821.592292
 31
0.0
  0
LINE
  5
5FF
330
1F
100
AcDbEntity
  8
7__7
  6
Continuous
 62
     4
100
AcDbLine
 10
2244.720813
 20
821.592292
 30
0.0
 11
2244.720813
 21
812.592292
 31
0.0
  0
LINE
  5
600
330
1F
100
AcDbEntity
  8
7__7
  6
Continuous
 62
     4
100
AcDbLine
 10
2233.720813
 20
812.592292
 30
0.0
 11
2233.720813
 21
821.592292
 31
0.0
  0
LINE
  5
601
330
1F
100
AcDbEntity
  8
7__7
  6
Continuous
 62
     4
100
AcDbLine
 10
2233.720813
 20
812.592292
 30
0.0
 11
2244.720813
 21
812.592292
 31
0.0
  0
LINE
  5
602
330
1F
100
AcDbEntity
  8
7__7
  6
Continuous
 62
     4
100
AcDbLine
 10
2244.720813
 20
812.592292
 30
0.0
 11
2245.47363
 21
811.592292
 31
0.0
  0
LINE
  5
603
330
1F
100
AcDbEntity
  8
7__7
  6
Continuous
 62
     4
100
AcDbLine
 10
2233.720813
 20
812.592292
 30
0.0
 11
2232.967997
 21
811.592292
 31
0.0
  0
LINE
  5
604
330
1F
100
AcDbEntity
  8
7__7
  6
Continuous
 62
     4
100
AcDbLine
 10
2234.470813
 20
821.592292
 30
0.0
 11
2234.470813
 21
1110.526958
 31
0.0
  0
LINE
  5
605
330
1F
100
AcDbEntity
  8
7__7
  6
Continuous
 62
     4
100
AcDbLine
 10
2243.970813
 20
821.592292
 30
0.0
 11
2243.970813
 21
1110.526958
 31
0.0
  0
LINE
  5
606
330
1F
100
AcDbEntity
  8
7__7
  6
PLine2
 62
     4
100
AcDbLine
 10
2239.220813
 20
950.703059
 30
0.0
 11
2239.220813
 21
801.462157
 31
0.0
  0
INSERT
  5
610
330
1F
100
AcDbEntity
  8
7__7
  6
Continuous
 62
     3
100
AcDbBlockReference
  2
DIM_23
 10
2239.220813
 20
872.996132
 30
0.0
  0
LINE
  5
611
330
1F
100
AcDbEntity
  8
7__7
  6
Continuous
 62
     4
100
AcDbLine
 10
2204.220813
 20
682.41336
 30
0.0
 11
2204.220813
 21
686.842292
 31
0.0
  0
ARC
  5
612
330
1F
100
AcDbEntity
  8
7__7
  6
Continuous
 62
     4
100
AcDbCircle
 10
2209.220813
 20
682.41336
 30
0.0
 40
4.999999999336604
100
AcDbArc
 50
180.0
 51
225.0
  0
LINE
  5
613
330
1F
100
AcDbEntity
  8
7__7
  6
Continuous
 62
     4
100
AcDbLine
 10
2204.720813
 20
687.342292
 30
0.0
 11
2205.220813
 21
687.342292
 31
0.0
  0
ARC
  5
614
330
1F
100
AcDbEntity
  8
7__7
  6
Continuous
 62
     4
100
AcDbCircle
 10
2204.720813
 20
686.842292
 30
0.0
 40
0.4999999913831558
100
AcDbArc
 50
90.0
 51
180.0
  0
ARC
  5
615
330
1F
100
AcDbEntity
  8
7__7
  6
Continuous
 62
     4
100
AcDbCircle
 10
2205.220813
 20
688.842292
 30
0.0
 40
1.500000001786029
100
AcDbArc
 50
270.0
 51
0.0
  0
ARC
  5
616
330
1F
100
AcDbEntity
  8
7__7
  6
Continuous
 62
     4
100
AcDbCircle
 10
2084.470813
 20
1110.526958
 30
0.0
 40
150.0000000000299
100
AcDbArc
 50
0.0
 51
41.858218
  0
ARC
  5
617
330
1F
100
AcDbEntity
  8
7__7
  6
Continuous
 62
     4
100
AcDbCircle
 10
2084.470813
 20
1110.526958
 30
0.0
 40
159.5000000000061
100
AcDbArc
 50
0.0
 51
41.732234
  0
LINE
  5
618
330
1F
100
AcDbEntity
  8
7__7
  6
Continuous
 62
     6
100
AcDbLine
 10
2000.140824
 20
1268.026958
 30
0.0
 11
2059.667728
 21
1327.553862
 31
0.0
  0
LINE
  5
619
330
1F
100
AcDbEntity
  8
7__7
  6
Continuous
 62
     6
100
AcDbLine
 10
2072.877906
 20
270.929418
 30
0.0
 11
2106.146405
 21
304.197918
 31
0.0
  0
LINE
  5
61A
330
1F
100
AcDbEntity
  8
7__7
  6
Continuous
 62
     6
100
AcDbLine
 10
2307.843121
 20
270.929418
 30
0.0
 11
2341.111621
 21
304.197918
 31
0.0
  0
LINE
  5
61B
330
1F
100
AcDbEntity
  8
7__7
  6
Continuous
 62
     2
100
AcDbLine
 10
2086.382575
 20
237.489948
 30
0.0
 11
2223.961327
 21
237.489948
 31
0.0
  0
LINE
  5
61C
330
1F
100
AcDbEntity
  8
7__7
  6
Continuous
 62
     2
100
AcDbLine
 10
2223.961327
 20
237.489948
 30
0.0
 11
2223.961327
 21
206.593025
 31
0.0
  0
LINE
  5
61D
330
1F
100
AcDbEntity
  8
7__7
  6
Continuous
 62
     2
100
AcDbLine
 10
2223.961327
 20
206.593025
 30
0.0
 11
2086.382575
 21
206.593025
 31
0.0
  0
LINE
  5
61E
330
1F
100
AcDbEntity
  8
7__7
  6
Continuous
 62
     2
100
AcDbLine
 10
2086.382575
 20
206.593025
 30
0.0
 11
2086.382575
 21
237.489948
 31
0.0
  0
LINE
  5
61F
330
1F
100
AcDbEntity
  8
7__7
  6
Continuous
 62
     3
100
AcDbLine
 10
2004.996644
 20
1638.814633
 30
0.0
 11
2004.996644
 21
1537.302409
 31
0.0
  0
TEXT
  5
620
330
1F
100
AcDbEntity
  8
7__7
  6
Continuous
 62
     3
100
AcDbText
 10
1961.438657
 20
1617.411305
 30
0.0
 40
16.3128
  1
Ｊ
 41
0.858268
  7
BIGFONT
100
AcDbText
  0
TEXT
  5
621
330
1F
100
AcDbEntity
  8
7__7
  6
Continuous
 62
     3
100
AcDbText
 10
1953.568014
 20
1592.592918
 30
0.0
 40
16.3128
  1
６７０
 41
0.858268
  7
BIGFONT
100
AcDbText
  0
TEXT
  5
622
330
1F
100
AcDbEntity
  8
7__7
  6
Continuous
 62
     3
100
AcDbText
 10
1953.568014
 20
1568.004522
 30
0.0
 40
16.3128
  1
９７０
 41
0.858268
  7
BIGFONT
100
AcDbText
  0
TEXT
  5
623
330
1F
100
AcDbEntity
  8
7__7
  6
Continuous
 62
     3
100
AcDbText
 10
1939.491452
 20
1540.982467
 30
0.0
 40
16.3128
  1
１３７０
 41
0.858268
  7
BIGFONT
100
AcDbText
  0
TEXT
  5
624
330
1F
100
AcDbEntity
  8
7__7
  6
Continuous
 62
     3
100
AcDbText
 10
17.451401
 20
-54.504655
 30
0.0
 40
18.0
  1
Ｓ１：６
 41
0.858268
  7
BIGFONT
100
AcDbText
  0
TEXT
  5
625
330
1F
100
AcDbEntity
  8
7__7
  6
Continuous
 62
     3
100
AcDbText
 10
16.165974
 20
-81.885128
 30
0.0
 40
18.0
  1
Ｓ１：１２
 41
0.858268
  7
BIGFONT
100
AcDbText
  0
LINE
  5
626
330
1F
100
AcDbEntity
  8
7__7
  6
Continuous
 62
     3
370
   211
100
AcDbLine
 10
1178.330245
 20
900.896228
 30
0.0
 11
1174.928321
 21
889.003923
 31
0.0
  0
LINE
  5
627
330
1F
100
AcDbEntity
  8
7__7
  6
Continuous
 62
     3
370
   211
100
AcDbLine
 10
1174.928321
 20
889.003923
 30
0.0
 11
1345.190531
 21
1183.906722
 31
0.0
  0
LINE
  5
628
330
1F
100
AcDbEntity
  8
7__7
  6
Continuous
 62
     3
370
   211
100
AcDbLine
 10
1345.190531
 20
1183.906722
 30
0.0
 11
1499.67872
 21
1183.906722
 31
0.0
  0
TEXT
  5
629
330
1F
100
AcDbEntity
  8
7__7
  6
Continuous
 62
     3
100
AcDbText
 10
1345.190531
 20
1186.906722
 30
0.0
 40
18.0
  1
サントップドームＢ型
 41
0.858268
  7
BIGFONT
100
AcDbText
  0
LINE
  5
62A
330
1F
100
AcDbEntity
  8
7__7
  6
Continuous
 62
     3
370
   211
100
AcDbLine
 10
1189.075985
 20
722.986734
 30
0.0
 11
1185.674061
 21
711.094429
 31
0.0
  0
LINE
  5
62B
330
1F
100
AcDbEntity
  8
7__7
  6
Continuous
 62
     3
370
   211
100
AcDbLine
 10
1185.674061
 20
711.094429
 30
0.0
 11
1392.749716
 21
1069.759984
 31
0.0
  0
LINE
  5
62C
330
1F
100
AcDbEntity
  8
7__7
  6
Continuous
 62
     3
370
   211
100
AcDbLine
 10
1392.749716
 20
1069.759984
 30
0.0
 11
1500.891448
 21
1069.759984
 31
0.0
  0
TEXT
  5
62D
330
1F
100
AcDbEntity
  8
7__7
  6
Continuous
 62
     3
100
AcDbText
 10
1392.749716
 20
1072.759984
 30
0.0
 40
18.0
  1
６．８網入り硝子
 41
0.858268
  7
BIGFONT
100
AcDbText
  0
LINE
  5
62E
330
1F
100
AcDbEntity
  8
7__7
  6
Continuous
 62
     3
370
   211
100
AcDbLine
 10
1410.558683
 20
688.175908
 30
0.0
 11
1407.156759
 21
676.283603
 31
0.0
  0
LINE
  5
62F
330
1F
100
AcDbEntity
  8
7__7
  6
Continuous
 62
     3
370
   211
100
AcDbLine
 10
1407.156759
 20
676.283603
 30
0.0
 11
1490.897891
 21
821.327498
 31
0.0
  0
LINE
  5
630
330
1F
100
AcDbEntity
  8
7__7
  6
Continuous
 62
     3
370
   211
100
AcDbLine
 10
1490.897891
 20
821.327498
 30
0.0
 11
1583.590805
 21
821.327498
 31
0.0
  0
TEXT
  5
631
330
1F
100
AcDbEntity
  8
7__7
  6
Continuous
 62
     3
100
AcDbText
 10
1490.897891
 20
824.327498
 30
0.0
 40
18.0
  1
ドアフレーム
 41
0.858268
  7
BIGFONT
100
AcDbText
  0
LINE
  5
632
330
1F
100
AcDbEntity
  8
7__7
  6
Continuous
 62
     3
370
   211
100
AcDbLine
 10
1423.724684
 20
496.298931
 30
0.0
 11
1420.322761
 21
484.406627
 31
0.0
  0
LINE
  5
633
330
1F
100
AcDbEntity
  8
7__7
  6
Continuous
 62
     3
370
   211
100
AcDbLine
 10
1420.322761
 20
484.406627
 30
0.0
 11
1476.594728
 21
581.872533
 31
0.0
  0
LINE
  5
634
330
1F
100
AcDbEntity
  8
7__7
  6
Continuous
 62
     3
370
   211
100
AcDbLine
 10
1476.594728
 20
581.872533
 30
0.0
 11
1507.492366
 21
581.872533
 31
0.0
  0
TEXT
  5
635
330
1F
100
AcDbEntity
  8
7__7
  6
Continuous
 62
     3
100
AcDbText
 10
1476.594728
 20
584.872533
 30
0.0
 40
18.0
  1
台部
 41
0.858268
  7
BIGFONT
100
AcDbText
  0
LINE
  5
636
330
1F
100
AcDbEntity
  8
7__7
  6
Continuous
 62
     3
370
   211
100
AcDbLine
 10
1356.82835
 20
304.710497
 30
0.0
 11
1360.230274
 21
316.602802
 31
0.0
  0
LINE
  5
637
330
1F
100
AcDbEntity
  8
7__7
  6
Continuous
 62
     3
370
   211
100
AcDbLine
 10
1360.230274
 20
316.602802
 30
0.0
 11
1287.024134
 21
189.806047
 31
0.0
  0
LINE
  5
638
330
1F
100
AcDbEntity
  8
7__7
  6
Continuous
 62
     3
370
   211
100
AcDbLine
 10
1287.024134
 20
189.806047
 30
0.0
 11
1163.433583
 21
189.806047
 31
0.0
  0
TEXT
  5
639
330
1F
100
AcDbEntity
  8
7__7
  6
Continuous
 62
     3
100
AcDbText
 10
1183.29635
 20
192.806047
 30
0.0
 40
18.0
  1
アウターケーブル
 41
0.858268
  7
BIGFONT
 72
     2
 11
1287.024134
 21
192.806047
 31
0.0
100
AcDbText
  0
LINE
  5
63A
330
1F
100
AcDbEntity
  8
7__7
  6
Continuous
 62
     3
370
   211
100
AcDbLine
 10
979.932614
 20
575.081286
 30
0.0
 11
971.334538
 21
583.973591
 31
0.0
  0
LINE
  5
63B
330
1F
100
AcDbEntity
  8
7__7
  6
Continuous
 62
     3
370
   211
100
AcDbLine
 10
971.334538
 20
583.973591
 30
0.0
 11
1082.267867
 21
391.831429
 31
0.0
  0
LINE
  5
63C
330
1F
100
AcDbEntity
  8
7__7
  6
Continuous
 62
     3
370
   211
100
AcDbLine
 10
1082.267867
 20
391.831429
 30
0.0
 11
1174.96078
 21
391.831429
 31
0.0
  0
TEXT
  5
63D
330
1F
100
AcDbEntity
  8
7__7
  6
Continuous
 62
     3
100
AcDbText
 10
1082.267867
 20
394.831429
 30
0.0
 40
18.0
  1
オートステー
 41
0.858268
  7
BIGFONT
100
AcDbText
  0
LINE
  5
63E
330
1F
100
AcDbEntity
  8
7__7
  6
Continuous
 62
     3
370
   211
100
AcDbLine
 10
521.353409
 20
552.613432
 30
0.0
 11
512.755333
 21
561.505737
 31
0.0
  0
LINE
  5
63F
330
1F
100
AcDbEntity
  8
7__7
  6
Continuous
 62
     3
370
   211
100
AcDbLine
 10
512.755333
 20
561.505737
 30
0.0
 11
620.566071
 21
374.77206
 31
0.0
  0
LINE
  5
640
330
1F
100
AcDbEntity
  8
7__7
  6
Continuous
 62
     3
370
   211
100
AcDbLine
 10
620.566071
 20
374.77206
 30
0.0
 11
775.05426
 21
374.77206
 31
0.0
  0
TEXT
  5
641
330
1F
100
AcDbEntity
  8
7__7
  6
Continuous
 62
     3
100
AcDbText
 10
620.566071
 20
377.77206
 30
0.0
 40
18.0
  1
トーションスプリング
 41
0.858268
  7
BIGFONT
100
AcDbText
  0
LINE
  5
642
330
1F
100
AcDbEntity
  8
7__7
  6
Continuous
 62
     3
370
   211
100
AcDbLine
 10
402.940791
 20
423.662582
 30
0.0
 11
394.342715
 21
432.554886
 31
0.0
  0
LINE
  5
643
330
1F
100
AcDbEntity
  8
7__7
  6
Continuous
 62
     3
370
   211
100
AcDbLine
 10
394.342715
 20
432.554886
 30
0.0
 11
493.633767
 21
260.57774
 31
0.0
  0
LINE
  5
644
330
1F
100
AcDbEntity
  8
7__7
  6
Continuous
 62
     3
370
   211
100
AcDbLine
 10
493.633767
 20
260.57774
 30
0.0
 11
586.32668
 21
260.57774
 31
0.0
  0
TEXT
  5
645
330
1F
100
AcDbEntity
  8
7__7
  6
Continuous
 62
     3
100
AcDbText
 10
493.633767
 20
263.57774
 30
0.0
 40
18.0
  1
アンカー金具
 41
0.858268
  7
BIGFONT
100
AcDbText
  0
ENDSEC
  0
SECTION
  2
OBJECTS
  0
DICTIONARY
  5
C
330
0
100
AcDbDictionary
281
     1
  3
ACAD_GROUP
350
D
  3
ACAD_LAYOUT
350
1A
  3
ACAD_MLEADERSTYLE
350
648
  3
ACAD_MLINESTYLE
350
17
  3
ACAD_PLOTSETTINGS
350
19
  3
ACAD_PLOTSTYLENAME
350
E
  3
ACAD_SCALELIST
350
5C
  3
ACAD_VISUALSTYLE
350
2A
  3
AcDbVariableDictionary
350
646
  0
DICTIONARY
  5
D
102
{ACAD_REACTORS
330
C
102
}
330
C
100
AcDbDictionary
281
     1
  0
DICTIONARY
  5
1A
102
{ACAD_REACTORS
330
C
102
}
330
C
100
AcDbDictionary
281
     1
  3
Layout1
350
1E
  3
Layout2
350
26
  3
Model
350
22
  0
DICTIONARY
  5
648
102
{ACAD_REACTORS
330
C
102
}
330
C
100
AcDbDictionary
281
     1
  0
DICTIONARY
  5
17
102
{ACAD_REACTORS
330
C
102
}
330
C
100
AcDbDictionary
281
     1
  3
Standard
350
18
  0
DICTIONARY
  5
19
102
{ACAD_REACTORS
330
C
102
}
330
C
100
AcDbDictionary
281
     1
  0
ACDBDICTIONARYWDFLT
  5
E
102
{ACAD_REACTORS
330
C
102
}
330
C
100
AcDbDictionary
281
     1
  3
Normal
350
F
100
AcDbDictionaryWithDefault
340
F
  0
DICTIONARY
  5
5C
102
{ACAD_REACTORS
330
C
102
}
330
C
100
AcDbDictionary
281
     1
  3
A0
350
5D
  3
A1
350
5E
  3
A2
350
5F
  3
A3
350
60
  3
A4
350
61
  3
A5
350
62
  3
A6
350
63
  3
A7
350
64
  3
A8
350
65
  3
A9
350
66
  3
B0
350
67
  3
B1
350
68
  3
B2
350
69
  3
B3
350
6A
  3
B4
350
6B
  3
B5
350
6C
  3
B6
350
6D
  3
B7
350
6E
  3
B8
350
6F
  3
B9
350
70
  3
C0
350
71
  3
C1
350
72
  3
C2
350
73
  3
C3
350
74
  3
C4
350
75
  3
C5
350
76
  3
C6
350
77
  3
C7
350
78
  3
C8
350
79
  3
C9
350
7A
  3
D0
350
7B
  3
D1
350
7C
  3
D2
350
7D
  0
DICTIONARY
  5
2A
102
{ACAD_REACTORS
330
C
102
}
330
C
100
AcDbDictionary
281
     1
  3
2dWireframe
350
2F
  3
3D Hidden
350
31
  3
3dWireframe
350
30
  3
Basic
350
32
  3
Brighten
350
36
  3
ColorChange
350
3A
  3
Conceptual
350
34
  3
Dim
350
35
  3
Facepattern
350
39
  3
Flat
350
2B
  3
FlatWithEdges
350
2C
  3
Gouraud
350
2D
  3
GouraudWithEdges
350
2E
  3
Linepattern
350
38
  3
Realistic
350
33
  3
Thicken
350
37
  0
DICTIONARY
  5
646
102
{ACAD_REACTORS
330
C
102
}
330
C
100
AcDbDictionary
281
     1
  3
CANNOSCALE
350
649
  3
DIMASSOC
350
64A
  3
HIDETEXT
350
64B
  0
LAYOUT
  5
1E
102
{ACAD_REACTORS
330
1A
102
}
330
1A
100
AcDbPlotSettings
  1

  2
none_device
  4

  6

 40
0.0
 41
0.0
 42
0.0
 43
0.0
 44
0.0
 45
0.0
 46
0.0
 47
0.0
 48
0.0
 49
0.0
140
0.0
141
0.0
142
1.0
143
1.0
 70
   688
 72
     0
 73
     0
 74
     5
  7

 75
    16
147
1.0
148
0.0
149
0.0
100
AcDbLayout
  1
Layout1
 70
     1
 71
     1
 10
0.0
 20
0.0
 11
12.0
 21
9.0
 12
0.0
 22
0.0
 32
0.0
 14
1.000000E+20
 24
1.000000E+20
 34
1.000000E+20
 15
-1.000000E+20
 25
-1.000000E+20
 35
-1.000000E+20
146
0.0
 13
0.0
 23
0.0
 33
0.0
 16
1.0
 26
0.0
 36
0.0
 17
0.0
 27
1.0
 37
0.0
 76
     0
330
1B
  0
LAYOUT
  5
26
102
{ACAD_REACTORS
330
1A
102
}
330
1A
100
AcDbPlotSettings
  1

  2
none_device
  4

  6

 40
0.0
 41
0.0
 42
0.0
 43
0.0
 44
0.0
 45
0.0
 46
0.0
 47
0.0
 48
0.0
 49
0.0
140
0.0
141
0.0
142
1.0
143
1.0
 70
   688
 72
     0
 73
     0
 74
     5
  7

 75
    16
147
1.0
148
0.0
149
0.0
100
AcDbLayout
  1
Layout2
 70
     1
 71
     2
 10
0.0
 20
0.0
 11
0.0
 21
0.0
 12
0.0
 22
0.0
 32
0.0
 14
0.0
 24
0.0
 34
0.0
 15
0.0
 25
0.0
 35
0.0
146
0.0
 13
0.0
 23
0.0
 33
0.0
 16
1.0
 26
0.0
 36
0.0
 17
0.0
 27
1.0
 37
0.0
 76
     0
330
23
  0
LAYOUT
  5
22
102
{ACAD_REACTORS
330
1A
102
}
330
1A
100
AcDbPlotSettings
  1

  2
none_device
  4

  6

 40
0.0
 41
0.0
 42
0.0
 43
0.0
 44
0.0
 45
0.0
 46
0.0
 47
0.0
 48
0.0
 49
0.0
140
0.0
141
0.0
142
1.0
143
1.0
 70
  1712
 72
     0
 73
     0
 74
     0
  7

 75
     0
147
1.0
148
0.0
149
0.0
100
AcDbLayout
  1
Model
 70
     1
 71
     0
 10
0.0
 20
0.0
 11
12.0
 21
9.0
 12
0.0
 22
0.0
 32
0.0
 14
0.0
 24
0.0
 34
0.0
 15
2520.0
 25
1782.0
 35
0.0
146
0.0
 13
0.0
 23
0.0
 33
0.0
 16
1.0
 26
0.0
 36
0.0
 17
0.0
 27
1.0
 37
0.0
 76
     0
330
1F
331
29
  0
MLINESTYLE
  5
18
102
{ACAD_REACTORS
330
17
102
}
330
17
100
AcDbMlineStyle
  2
Standard
 70
     0
  3

 62
   256
 51
90.0
 52
90.0
 71
     2
 49
0.5
 62
   256
  6
BYLAYER
 49
-0.5
 62
   256
  6
BYLAYER
  0
ACDBPLACEHOLDER
  5
F
102
{ACAD_REACTORS
330
E
102
}
330
E
  0
SCALE
  5
5D
102
{ACAD_REACTORS
330
5C
102
}
330
5C
100
AcDbScale
 70
     0
300
1:1
140
1.0
141
1.0
290
     1
  0
SCALE
  5
5E
102
{ACAD_REACTORS
330
5C
102
}
330
5C
100
AcDbScale
 70
     0
300
1:2
140
1.0
141
2.0
290
     0
  0
SCALE
  5
5F
102
{ACAD_REACTORS
330
5C
102
}
330
5C
100
AcDbScale
 70
     0
300
1:4
140
1.0
141
4.0
290
     0
  0
SCALE
  5
60
102
{ACAD_REACTORS
330
5C
102
}
330
5C
100
AcDbScale
 70
     0
300
1:5
140
1.0
141
5.0
290
     0
  0
SCALE
  5
61
102
{ACAD_REACTORS
330
5C
102
}
330
5C
100
AcDbScale
 70
     0
300
1:8
140
1.0
141
8.0
290
     0
  0
SCALE
  5
62
102
{ACAD_REACTORS
330
5C
102
}
330
5C
100
AcDbScale
 70
     0
300
1:10
140
1.0
141
10.0
290
     0
  0
SCALE
  5
63
102
{ACAD_REACTORS
330
5C
102
}
330
5C
100
AcDbScale
 70
     0
300
1:16
140
1.0
141
16.0
290
     0
  0
SCALE
  5
64
102
{ACAD_REACTORS
330
5C
102
}
330
5C
100
AcDbScale
 70
     0
300
1:20
140
1.0
141
20.0
290
     0
  0
SCALE
  5
65
102
{ACAD_REACTORS
330
5C
102
}
330
5C
100
AcDbScale
 70
     0
300
1:30
140
1.0
141
30.0
290
     0
  0
SCALE
  5
66
102
{ACAD_REACTORS
330
5C
102
}
330
5C
100
AcDbScale
 70
     0
300
1:40
140
1.0
141
40.0
290
     0
  0
SCALE
  5
67
102
{ACAD_REACTORS
330
5C
102
}
330
5C
100
AcDbScale
 70
     0
300
1:50
140
1.0
141
50.0
290
     0
  0
SCALE
  5
68
102
{ACAD_REACTORS
330
5C
102
}
330
5C
100
AcDbScale
 70
     0
300
1:100
140
1.0
141
100.0
290
     0
  0
SCALE
  5
69
102
{ACAD_REACTORS
330
5C
102
}
330
5C
100
AcDbScale
 70
     0
300
2:1
140
2.0
141
1.0
290
     0
  0
SCALE
  5
6A
102
{ACAD_REACTORS
330
5C
102
}
330
5C
100
AcDbScale
 70
     0
300
4:1
140
4.0
141
1.0
290
     0
  0
SCALE
  5
6B
102
{ACAD_REACTORS
330
5C
102
}
330
5C
100
AcDbScale
 70
     0
300
8:1
140
8.0
141
1.0
290
     0
  0
SCALE
  5
6C
102
{ACAD_REACTORS
330
5C
102
}
330
5C
100
AcDbScale
 70
     0
300
10:1
140
10.0
141
1.0
290
     0
  0
SCALE
  5
6D
102
{ACAD_REACTORS
330
5C
102
}
330
5C
100
AcDbScale
 70
     0
300
100:1
140
100.0
141
1.0
290
     0
  0
SCALE
  5
6E
102
{ACAD_REACTORS
330
5C
102
}
330
5C
100
AcDbScale
 70
     0
300
1/128" = 1'-0"
140
0.007812
141
12.0
290
     0
  0
SCALE
  5
6F
102
{ACAD_REACTORS
330
5C
102
}
330
5C
100
AcDbScale
 70
     0
300
1/64" = 1'-0"
140
0.015625
141
12.0
290
     0
  0
SCALE
  5
70
102
{ACAD_REACTORS
330
5C
102
}
330
5C
100
AcDbScale
 70
     0
300
1/32" = 1'-0"
140
0.03125
141
12.0
290
     0
  0
SCALE
  5
71
102
{ACAD_REACTORS
330
5C
102
}
330
5C
100
AcDbScale
 70
     0
300
1/16" = 1'-0"
140
0.0625
141
12.0
290
     0
  0
SCALE
  5
72
102
{ACAD_REACTORS
330
5C
102
}
330
5C
100
AcDbScale
 70
     0
300
3/32" = 1'-0"
140
0.09375
141
12.0
290
     0
  0
SCALE
  5
73
102
{ACAD_REACTORS
330
5C
102
}
330
5C
100
AcDbScale
 70
     0
300
1/8" = 1'-0"
140
0.125
141
12.0
290
     0
  0
SCALE
  5
74
102
{ACAD_REACTORS
330
5C
102
}
330
5C
100
AcDbScale
 70
     0
300
3/16" = 1'-0"
140
0.1875
141
12.0
290
     0
  0
SCALE
  5
75
102
{ACAD_REACTORS
330
5C
102
}
330
5C
100
AcDbScale
 70
     0
300
1/4" = 1'-0"
140
0.25
141
12.0
290
     0
  0
SCALE
  5
76
102
{ACAD_REACTORS
330
5C
102
}
330
5C
100
AcDbScale
 70
     0
300
3/8" = 1'-0"
140
0.375
141
12.0
290
     0
  0
SCALE
  5
77
102
{ACAD_REACTORS
330
5C
102
}
330
5C
100
AcDbScale
 70
     0
300
1/2" = 1'-0"
140
0.5
141
12.0
290
     0
  0
SCALE
  5
78
102
{ACAD_REACTORS
330
5C
102
}
330
5C
100
AcDbScale
 70
     0
300
3/4" = 1'-0"
140
0.75
141
12.0
290
     0
  0
SCALE
  5
79
102
{ACAD_REACTORS
330
5C
102
}
330
5C
100
AcDbScale
 70
     0
300
1" = 1'-0"
140
1.0
141
12.0
290
     0
  0
SCALE
  5
7A
102
{ACAD_REACTORS
330
5C
102
}
330
5C
100
AcDbScale
 70
     0
300
1-1/2" = 1'-0"
140
1.5
141
12.0
290
     0
  0
SCALE
  5
7B
102
{ACAD_REACTORS
330
5C
102
}
330
5C
100
AcDbScale
 70
     0
300
3" = 1'-0"
140
3.0
141
12.0
290
     0
  0
SCALE
  5
7C
102
{ACAD_REACTORS
330
5C
102
}
330
5C
100
AcDbScale
 70
     0
300
6" = 1'-0"
140
6.0
141
12.0
290
     0
  0
SCALE
  5
7D
102
{ACAD_REACTORS
330
5C
102
}
330
5C
100
AcDbScale
 70
     0
300
1'-0" = 1'-0"
140
12.0
141
12.0
290
     0
  0
VISUALSTYLE
  5
2F
102
{ACAD_REACTORS
330
2A
102
}
102
{ACAD_XDICTIONARY
360
654
102
}
330
2A
100
AcDbVisualStyle
  2
2dWireframe
 70
     4
 71
     0
 72
     2
 73
     0
 90
        0
 40
-0.6
 41
-30.0
 62
     5
 63
     7
 74
     1
 91
        4
 64
     7
 65
   257
 75
     1
175
     1
 42
1.0
 92
        0
 66
   257
 43
1.0
 76
     1
 77
     6
 78
     2
 67
     7
 79
     5
170
     0
171
     0
290
     0
174
     0
 93
        1
 44
0.0
173
     0
291
     0
 45
0.0
1001
ACAD
1000
AcDbSavedByObjectVersion
1070
     0
  0
VISUALSTYLE
  5
31
102
{ACAD_REACTORS
330
2A
102
}
102
{ACAD_XDICTIONARY
360
658
102
}
330
2A
100
AcDbVisualStyle
  2
3D Hidden
 70
     6
 71
     1
 72
     2
 73
     2
 90
        0
 40
-0.6
 41
-30.0
 62
     5
 63
     7
 74
     2
 91
        2
 64
     7
 65
   257
 75
     2
175
     1
 42
40.0
 92
        0
 66
   257
 43
1.0
 76
     1
 77
     6
 78
     2
 67
     7
 79
     3
170
     0
171
     0
290
     0
174
     0
 93
        1
 44
0.0
173
     0
291
     0
 45
0.0
1001
ACAD
1000
AcDbSavedByObjectVersion
1070
     0
  0
VISUALSTYLE
  5
30
102
{ACAD_REACTORS
330
2A
102
}
102
{ACAD_XDICTIONARY
360
656
102
}
330
2A
100
AcDbVisualStyle
  2
3dWireframe
 70
     5
 71
     0
 72
     2
 73
     0
 90
        0
 40
-0.6
 41
-30.0
 62
     5
 63
     7
 74
     1
 91
        4
 64
     7
 65
   257
 75
     1
175
     1
 42
1.0
 92
        0
 66
   257
 43
1.0
 76
     1
 77
     6
 78
     2
 67
     7
 79
     5
170
     0
171
     0
290
     0
174
     0
 93
        1
 44
0.0
173
     0
291
     0
 45
0.0
1001
ACAD
1000
AcDbSavedByObjectVersion
1070
     0
  0
VISUALSTYLE
  5
32
102
{ACAD_REACTORS
330
2A
102
}
102
{ACAD_XDICTIONARY
360
65A
102
}
330
2A
100
AcDbVisualStyle
  2
Basic
 70
     7
 71
     1
 72
     0
 73
     1
 90
        0
 40
-0.6
 41
-30.0
 62
     5
 63
     7
 74
     0
 91
        4
 64
     7
 65
   257
 75
     1
175
     1
 42
1.0
 92
        8
 66
     7
 43
1.0
 76
     1
 77
     6
 78
     2
 67
     7
 79
     5
170
     0
171
     0
290
     0
174
     0
 93
        1
 44
0.0
173
     0
291
     1
 45
0.0
1001
ACAD
1000
AcDbSavedByObjectVersion
1070
     0
  0
VISUALSTYLE
  5
36
102
{ACAD_REACTORS
330
2A
102
}
102
{ACAD_XDICTIONARY
360
662
102
}
330
2A
100
AcDbVisualStyle
  2
Brighten
 70
    12
 71
     2
 72
     2
 73
     0
 90
        0
 40
-0.6
 41
-30.0
 62
     5
 63
     7
 74
     1
 91
        4
 64
     7
 65
   257
 75
     1
175
     1
 42
1.0
 92
        8
 66
     7
 43
1.0
 76
     1
 77
     6
 78
     2
 67
     7
 79
     5
170
     0
171
     0
290
     0
174
     0
 93
        1
 44
50.0
173
     0
291
     1
 45
0.0
1001
ACAD
1000
AcDbSavedByObjectVersion
1070
     0
  0
VISUALSTYLE
  5
3A
102
{ACAD_REACTORS
330
2A
102
}
102
{ACAD_XDICTIONARY
360
66A
102
}
330
2A
100
AcDbVisualStyle
  2
ColorChange
 70
    16
 71
     2
 72
     2
 73
     3
 90
        0
 40
-0.6
 41
-30.0
 62
     5
 63
     8
 74
     1
 91
        4
 64
     7
 65
   257
 75
     1
175
     1
 42
1.0
 92
        8
 66
     8
 43
1.0
 76
     1
 77
     6
 78
     2
 67
     7
 79
     5
170
     0
171
     0
290
     0
174
     0
 93
        1
 44
0.0
173
     0
291
     1
 45
0.0
1001
ACAD
1000
AcDbSavedByObjectVersion
1070
     0
  0
VISUALSTYLE
  5
34
102
{ACAD_REACTORS
330
2A
102
}
102
{ACAD_XDICTIONARY
360
65E
102
}
330
2A
100
AcDbVisualStyle
  2
Conceptual
 70
     9
 71
     3
 72
     2
 73
     0
 90
        0
 40
-0.6
 41
-30.0
 62
     5
 63
     7
 74
     2
 91
        2
 64
     7
 65
   257
 75
     1
175
     1
 42
40.0
 92
        8
 66
     7
 43
1.0
 76
     1
 77
     6
 78
     2
 67
     7
 79
     3
170
     0
171
     0
290
     0
174
     0
 93
        1
 44
0.0
173
     0
291
     0
 45
0.0
1001
ACAD
1000
AcDbSavedByObjectVersion
1070
     0
  0
VISUALSTYLE
  5
35
102
{ACAD_REACTORS
330
2A
102
}
102
{ACAD_XDICTIONARY
360
660
102
}
330
2A
100
AcDbVisualStyle
  2
Dim
 70
    11
 71
     2
 72
     2
 73
     0
 90
        0
 40
-0.6
 41
-30.0
 62
     5
 63
     7
 74
     1
 91
        4
 64
     7
 65
   257
 75
     1
175
     1
 42
1.0
 92
        8
 66
     7
 43
1.0
 76
     1
 77
     6
 78
     2
 67
     7
 79
     5
170
     0
171
     0
290
     0
174
     0
 93
        1
 44
-50.0
173
     0
291
     1
 45
0.0
1001
ACAD
1000
AcDbSavedByObjectVersion
1070
     0
  0
VISUALSTYLE
  5
39
102
{ACAD_REACTORS
330
2A
102
}
102
{ACAD_XDICTIONARY
360
668
102
}
330
2A
100
AcDbVisualStyle
  2
Facepattern
 70
    15
 71
     2
 72
     2
 73
     0
 90
        0
 40
-0.6
 41
-30.0
 62
     5
 63
     7
 74
     1
 91
        4
 64
     7
 65
   257
 75
     1
175
     1
 42
1.0
 92
        8
 66
     7
 43
1.0
 76
     1
 77
     6
 78
     2
 67
     7
 79
     5
170
     0
171
     0
290
     0
174
     0
 93
        1
 44
0.0
173
     0
291
     1
 45
0.0
1001
ACAD
1000
AcDbSavedByObjectVersion
1070
     0
  0
VISUALSTYLE
  5
2B
102
{ACAD_REACTORS
330
2A
102
}
102
{ACAD_XDICTIONARY
360
64C
102
}
330
2A
100
AcDbVisualStyle
  2
Flat
 70
     0
 71
     2
 72
     1
 73
     1
 90
        2
 40
-0.6
 41
30.0
 62
     5
 63
     7
 74
     0
 91
        4
 64
     7
 65
   257
 75
     1
175
     1
 42
1.0
 92
        8
 66
     7
 43
1.0
 76
     1
 77
     6
 78
     2
 67
     7
 79
     5
170
     0
171
     0
290
     0
174
     0
 93
       13
 44
0.0
173
     0
291
     1
 45
0.0
1001
ACAD
1000
AcDbSavedByObjectVersion
1070
     0
  0
VISUALSTYLE
  5
2C
102
{ACAD_REACTORS
330
2A
102
}
102
{ACAD_XDICTIONARY
360
64E
102
}
330
2A
100
AcDbVisualStyle
  2
FlatWithEdges
 70
     1
 71
     2
 72
     1
 73
     1
 90
        2
 40
-0.6
 41
30.0
 62
     5
 63
     7
 74
     1
 91
        4
 64
     7
 65
   257
 75
     1
175
     1
 42
1.0
 92
        0
 66
   257
 43
1.0
 76
     1
 77
     6
 78
     2
 67
     7
 79
     5
170
     0
171
     0
290
     0
174
     0
 93
       13
 44
0.0
173
     0
291
     1
 45
0.0
1001
ACAD
1000
AcDbSavedByObjectVersion
1070
     0
  0
VISUALSTYLE
  5
2D
102
{ACAD_REACTORS
330
2A
102
}
102
{ACAD_XDICTIONARY
360
650
102
}
330
2A
100
AcDbVisualStyle
  2
Gouraud
 70
     2
 71
     2
 72
     2
 73
     1
 90
        2
 40
-0.6
 41
30.0
 62
     5
 63
     7
 74
     0
 91
        4
 64
     7
 65
   257
 75
     1
175
     1
 42
1.0
 92
        0
 66
     7
 43
1.0
 76
     1
 77
     6
 78
     2
 67
     7
 79
     5
170
     0
171
     0
290
     0
174
     0
 93
       13
 44
0.0
173
     0
291
     1
 45
0.0
1001
ACAD
1000
AcDbSavedByObjectVersion
1070
     0
  0
VISUALSTYLE
  5
2E
102
{ACAD_REACTORS
330
2A
102
}
102
{ACAD_XDICTIONARY
360
652
102
}
330
2A
100
AcDbVisualStyle
  2
GouraudWithEdges
 70
     3
 71
     2
 72
     2
 73
     1
 90
        2
 40
-0.6
 41
30.0
 62
     5
 63
     7
 74
     1
 91
        4
 64
     7
 65
   257
 75
     1
175
     1
 42
1.0
 92
        0
 66
   257
 43
1.0
 76
     1
 77
     6
 78
     2
 67
     7
 79
     5
170
     0
171
     0
290
     0
174
     0
 93
       13
 44
0.0
173
     0
291
     1
 45
0.0
1001
ACAD
1000
AcDbSavedByObjectVersion
1070
     0
  0
VISUALSTYLE
  5
38
102
{ACAD_REACTORS
330
2A
102
}
102
{ACAD_XDICTIONARY
360
666
102
}
330
2A
100
AcDbVisualStyle
  2
Linepattern
 70
    14
 71
     2
 72
     2
 73
     0
 90
        0
 40
-0.6
 41
-30.0
 62
     5
 63
     7
 74
     1
 91
        4
 64
     7
 65
   257
 75
     7
175
     7
 42
1.0
 92
        8
 66
     7
 43
1.0
 76
     1
 77
     6
 78
     2
 67
     7
 79
     5
170
     0
171
     0
290
     0
174
     0
 93
        1
 44
0.0
173
     0
291
     1
 45
0.0
1001
ACAD
1000
AcDbSavedByObjectVersion
1070
     0
  0
VISUALSTYLE
  5
33
102
{ACAD_REACTORS
330
2A
102
}
102
{ACAD_XDICTIONARY
360
65C
102
}
330
2A
100
AcDbVisualStyle
  2
Realistic
 70
     8
 71
     2
 72
     2
 73
     0
 90
        0
 40
-0.6
 41
-30.0
 62
     5
 63
     7
 74
     1
 91
        0
 64
     7
 65
   257
 75
     1
175
     1
 42
1.0
 92
        8
 66
     8
 43
1.0
 76
     1
 77
     6
 78
     2
 67
     7
 79
     5
170
     0
171
     0
290
     0
174
     0
 93
       13
 44
0.0
173
     0
291
     0
 45
0.0
1001
ACAD
1000
AcDbSavedByObjectVersion
1070
     0
  0
VISUALSTYLE
  5
37
102
{ACAD_REACTORS
330
2A
102
}
102
{ACAD_XDICTIONARY
360
664
102
}
330
2A
100
AcDbVisualStyle
  2
Thicken
 70
    13
 71
     2
 72
     2
 73
     0
 90
        0
 40
-0.6
 41
-30.0
 62
     5
 63
     7
 74
     1
 91
        4
 64
     7
 65
   257
 75
     1
175
     1
 42
1.0
 92
       12
 66
     7
 43
1.0
 76
     1
 77
     6
 78
     2
 67
     7
 79
     5
170
     0
171
     0
290
     0
174
     0
 93
        1
 44
0.0
173
     0
291
     1
 45
0.0
1001
ACAD
1000
AcDbSavedByObjectVersion
1070
     0
  0
DICTIONARYVAR
  5
649
102
{ACAD_REACTORS
330
646
102
}
330
646
100
DictionaryVariables
280
     0
  1
1:1
  0
DICTIONARYVAR
  5
64A
102
{ACAD_REACTORS
330
646
102
}
330
646
100
DictionaryVariables
280
     0
  1
2
  0
DICTIONARYVAR
  5
64B
102
{ACAD_REACTORS
330
646
102
}
330
646
100
DictionaryVariables
280
     0
  1
1
  0
DICTIONARY
  5
654
330
2F
100
AcDbDictionary
280
     1
281
     1
  3
ACAD_XREC_ROUNDTRIP
360
655
  0
DICTIONARY
  5
658
330
31
100
AcDbDictionary
280
     1
281
     1
  3
ACAD_XREC_ROUNDTRIP
360
659
  0
DICTIONARY
  5
656
330
30
100
AcDbDictionary
280
     1
281
     1
  3
ACAD_XREC_ROUNDTRIP
360
657
  0
DICTIONARY
  5
65A
330
32
100
AcDbDictionary
280
     1
281
     1
  3
ACAD_XREC_ROUNDTRIP
360
65B
  0
DICTIONARY
  5
662
330
36
100
AcDbDictionary
280
     1
281
     1
  3
ACAD_XREC_ROUNDTRIP
360
663
  0
DICTIONARY
  5
66A
330
3A
100
AcDbDictionary
280
     1
281
     1
  3
ACAD_XREC_ROUNDTRIP
360
66B
  0
DICTIONARY
  5
65E
330
34
100
AcDbDictionary
280
     1
281
     1
  3
ACAD_XREC_ROUNDTRIP
360
65F
  0
DICTIONARY
  5
660
330
35
100
AcDbDictionary
280
     1
281
     1
  3
ACAD_XREC_ROUNDTRIP
360
661
  0
DICTIONARY
  5
668
330
39
100
AcDbDictionary
280
     1
281
     1
  3
ACAD_XREC_ROUNDTRIP
360
669
  0
DICTIONARY
  5
64C
330
2B
100
AcDbDictionary
280
     1
281
     1
  3
ACAD_XREC_ROUNDTRIP
360
64D
  0
DICTIONARY
  5
64E
330
2C
100
AcDbDictionary
280
     1
281
     1
  3
ACAD_XREC_ROUNDTRIP
360
64F
  0
DICTIONARY
  5
650
330
2D
100
AcDbDictionary
280
     1
281
     1
  3
ACAD_XREC_ROUNDTRIP
360
651
  0
DICTIONARY
  5
652
330
2E
100
AcDbDictionary
280
     1
281
     1
  3
ACAD_XREC_ROUNDTRIP
360
653
  0
DICTIONARY
  5
666
330
38
100
AcDbDictionary
280
     1
281
     1
  3
ACAD_XREC_ROUNDTRIP
360
667
  0
DICTIONARY
  5
65C
330
33
100
AcDbDictionary
280
     1
281
     1
  3
ACAD_XREC_ROUNDTRIP
360
65D
  0
DICTIONARY
  5
664
330
37
100
AcDbDictionary
280
     1
281
     1
  3
ACAD_XREC_ROUNDTRIP
360
665
  0
XRECORD
  5
655
102
{ACAD_REACTORS
330
654
102
}
330
654
100
AcDbXrecord
280
     1
102
RTVSPropertyOp0
 70
     1
102
RTVSPropertyOp1
 70
     1
102
RTVSPropertyOp2
 70
     1
102
RTVSPropertyOp3
 70
     1
102
RTVSPropertyOp4
 70
     1
102
RTVSPropertyOp5
 70
     1
102
RTVSPropertyOp6
 70
     1
102
RTVSPropertyOp7
 70
     1
102
RTVSPropertyOp8
 70
     1
102
RTVSPropertyOp9
 70
     1
102
RTVSPropertyOp10
 70
     1
102
RTVSPropertyOp11
 70
     1
102
RTVSPropertyOp12
 70
     1
102
RTVSPropertyOp13
 70
     1
102
RTVSPropertyOp14
 70
     1
102
RTVSPropertyOp15
 70
     1
102
RTVSPropertyOp16
 70
     1
102
RTVSPropertyOp17
 70
     1
102
RTVSPropertyOp18
 70
     1
102
RTVSPropertyOp19
 70
     1
102
RTVSPropertyOp20
 70
     1
102
RTVSPropertyOp21
 70
     1
102
RTVSPropertyOp22
 70
     1
102
RTVSPropertyOp23
 70
     1
102
RTVSPropertyOp24
 70
     1
102
RTVSPropertyOp25
 70
     1
102
RTVSPropertyOp26
 70
     1
102
RTVSPropertyOp27
 70
     1
  0
XRECORD
  5
659
102
{ACAD_REACTORS
330
658
102
}
330
658
100
AcDbXrecord
280
     1
102
RTVSPropertyOp0
 70
     1
102
RTVSPropertyOp1
 70
     1
102
RTVSPropertyOp2
 70
     1
102
RTVSPropertyOp3
 70
     1
102
RTVSPropertyOp4
 70
     1
102
RTVSPropertyOp5
 70
     1
102
RTVSPropertyOp6
 70
     1
102
RTVSPropertyOp7
 70
     1
102
RTVSPropertyOp8
 70
     1
102
RTVSPropertyOp9
 70
     1
102
RTVSPropertyOp10
 70
     1
102
RTVSPropertyOp11
 70
     1
102
RTVSPropertyOp12
 70
     1
102
RTVSPropertyOp13
 70
     1
102
RTVSPropertyOp14
 70
     1
102
RTVSPropertyOp15
 70
     1
102
RTVSPropertyOp16
 70
     1
102
RTVSPropertyOp17
 70
     1
102
RTVSPropertyOp18
 70
     1
102
RTVSPropertyOp19
 70
     1
102
RTVSPropertyOp20
 70
     1
102
RTVSPropertyOp21
 70
     1
102
RTVSPropertyOp22
 70
     1
102
RTVSPropertyOp23
 70
     1
102
RTVSPropertyOp24
 70
     1
102
RTVSPropertyOp25
 70
     1
102
RTVSPropertyOp26
 70
     1
102
RTVSPropertyOp27
 70
     1
  0
XRECORD
  5
657
102
{ACAD_REACTORS
330
656
102
}
330
656
100
AcDbXrecord
280
     1
102
RTVSPropertyOp0
 70
     1
102
RTVSPropertyOp1
 70
     1
102
RTVSPropertyOp2
 70
     1
102
RTVSPropertyOp3
 70
     1
102
RTVSPropertyOp4
 70
     1
102
RTVSPropertyOp5
 70
     1
102
RTVSPropertyOp6
 70
     1
102
RTVSPropertyOp7
 70
     1
102
RTVSPropertyOp8
 70
     1
102
RTVSPropertyOp9
 70
     1
102
RTVSPropertyOp10
 70
     1
102
RTVSPropertyOp11
 70
     1
102
RTVSPropertyOp12
 70
     1
102
RTVSPropertyOp13
 70
     1
102
RTVSPropertyOp14
 70
     1
102
RTVSPropertyOp15
 70
     1
102
RTVSPropertyOp16
 70
     1
102
RTVSPropertyOp17
 70
     1
102
RTVSPropertyOp18
 70
     1
102
RTVSPropertyOp19
 70
     1
102
RTVSPropertyOp20
 70
     1
102
RTVSPropertyOp21
 70
     1
102
RTVSPropertyOp22
 70
     1
102
RTVSPropertyOp23
 70
     1
102
RTVSPropertyOp24
 70
     1
102
RTVSPropertyOp25
 70
     1
102
RTVSPropertyOp26
 70
     1
102
RTVSPropertyOp27
 70
     1
  0
XRECORD
  5
65B
102
{ACAD_REACTORS
330
65A
102
}
330
65A
100
AcDbXrecord
280
     1
102
RTVSPropertyOp0
 70
     1
102
RTVSPropertyOp1
 70
     1
102
RTVSPropertyOp2
 70
     1
102
RTVSPropertyOp3
 70
     1
102
RTVSPropertyOp4
 70
     1
102
RTVSPropertyOp5
 70
     1
102
RTVSPropertyOp6
 70
     1
102
RTVSPropertyOp7
 70
     1
102
RTVSPropertyOp8
 70
     1
102
RTVSPropertyOp9
 70
     1
102
RTVSPropertyOp10
 70
     1
102
RTVSPropertyOp11
 70
     1
102
RTVSPropertyOp12
 70
     1
102
RTVSPropertyOp13
 70
     1
102
RTVSPropertyOp14
 70
     1
102
RTVSPropertyOp15
 70
     1
102
RTVSPropertyOp16
 70
     1
102
RTVSPropertyOp17
 70
     1
102
RTVSPropertyOp18
 70
     1
102
RTVSPropertyOp19
 70
     1
102
RTVSPropertyOp20
 70
     1
102
RTVSPropertyOp21
 70
     1
102
RTVSPropertyOp22
 70
     1
102
RTVSPropertyOp23
 70
     1
102
RTVSPropertyOp24
 70
     1
102
RTVSPropertyOp25
 70
     1
102
RTVSPropertyOp26
 70
     1
102
RTVSPropertyOp27
 70
     1
  0
XRECORD
  5
663
102
{ACAD_REACTORS
330
662
102
}
330
662
100
AcDbXrecord
280
     1
102
RTVSPropertyOp0
 70
     1
102
RTVSPropertyOp1
 70
     1
102
RTVSPropertyOp2
 70
     1
102
RTVSPropertyOp3
 70
     1
102
RTVSPropertyOp4
 70
     1
102
RTVSPropertyOp5
 70
     1
102
RTVSPropertyOp6
 70
     1
102
RTVSPropertyOp7
 70
     1
102
RTVSPropertyOp8
 70
     1
102
RTVSPropertyOp9
 70
     1
102
RTVSPropertyOp10
 70
     1
102
RTVSPropertyOp11
 70
     1
102
RTVSPropertyOp12
 70
     1
102
RTVSPropertyOp13
 70
     1
102
RTVSPropertyOp14
 70
     1
102
RTVSPropertyOp15
 70
     1
102
RTVSPropertyOp16
 70
     1
102
RTVSPropertyOp17
 70
     1
102
RTVSPropertyOp18
 70
     1
102
RTVSPropertyOp19
 70
     1
102
RTVSPropertyOp20
 70
     1
102
RTVSPropertyOp21
 70
     1
102
RTVSPropertyOp22
 70
     1
102
RTVSPropertyOp23
 70
     1
102
RTVSPropertyOp24
 70
     1
102
RTVSPropertyOp25
 70
     1
102
RTVSPropertyOp26
 70
     1
102
RTVSPropertyOp27
 70
     1
  0
XRECORD
  5
66B
102
{ACAD_REACTORS
330
66A
102
}
330
66A
100
AcDbXrecord
280
     1
102
RTVSPropertyOp0
 70
     1
102
RTVSPropertyOp1
 70
     1
102
RTVSPropertyOp2
 70
     1
102
RTVSPropertyOp3
 70
     1
102
RTVSPropertyOp4
 70
     1
102
RTVSPropertyOp5
 70
     1
102
RTVSPropertyOp6
 70
     1
102
RTVSPropertyOp7
 70
     1
102
RTVSPropertyOp8
 70
     1
102
RTVSPropertyOp9
 70
     1
102
RTVSPropertyOp10
 70
     1
102
RTVSPropertyOp11
 70
     1
102
RTVSPropertyOp12
 70
     1
102
RTVSPropertyOp13
 70
     1
102
RTVSPropertyOp14
 70
     1
102
RTVSPropertyOp15
 70
     1
102
RTVSPropertyOp16
 70
     1
102
RTVSPropertyOp17
 70
     1
102
RTVSPropertyOp18
 70
     1
102
RTVSPropertyOp19
 70
     1
102
RTVSPropertyOp20
 70
     1
102
RTVSPropertyOp21
 70
     1
102
RTVSPropertyOp22
 70
     1
102
RTVSPropertyOp23
 70
     1
102
RTVSPropertyOp24
 70
     1
102
RTVSPropertyOp25
 70
     1
102
RTVSPropertyOp26
 70
     1
102
RTVSPropertyOp27
 70
     1
  0
XRECORD
  5
65F
102
{ACAD_REACTORS
330
65E
102
}
330
65E
100
AcDbXrecord
280
     1
102
RTVSPropertyOp0
 70
     1
102
RTVSPropertyOp1
 70
     1
102
RTVSPropertyOp2
 70
     1
102
RTVSPropertyOp3
 70
     1
102
RTVSPropertyOp4
 70
     1
102
RTVSPropertyOp5
 70
     1
102
RTVSPropertyOp6
 70
     1
102
RTVSPropertyOp7
 70
     1
102
RTVSPropertyOp8
 70
     1
102
RTVSPropertyOp9
 70
     1
102
RTVSPropertyOp10
 70
     1
102
RTVSPropertyOp11
 70
     1
102
RTVSPropertyOp12
 70
     1
102
RTVSPropertyOp13
 70
     1
102
RTVSPropertyOp14
 70
     1
102
RTVSPropertyOp15
 70
     1
102
RTVSPropertyOp16
 70
     1
102
RTVSPropertyOp17
 70
     1
102
RTVSPropertyOp18
 70
     1
102
RTVSPropertyOp19
 70
     1
102
RTVSPropertyOp20
 70
     1
102
RTVSPropertyOp21
 70
     1
102
RTVSPropertyOp22
 70
     1
102
RTVSPropertyOp23
 70
     1
102
RTVSPropertyOp24
 70
     1
102
RTVSPropertyOp25
 70
     1
102
RTVSPropertyOp26
 70
     1
102
RTVSPropertyOp27
 70
     1
  0
XRECORD
  5
661
102
{ACAD_REACTORS
330
660
102
}
330
660
100
AcDbXrecord
280
     1
102
RTVSPropertyOp0
 70
     1
102
RTVSPropertyOp1
 70
     1
102
RTVSPropertyOp2
 70
     1
102
RTVSPropertyOp3
 70
     1
102
RTVSPropertyOp4
 70
     1
102
RTVSPropertyOp5
 70
     1
102
RTVSPropertyOp6
 70
     1
102
RTVSPropertyOp7
 70
     1
102
RTVSPropertyOp8
 70
     1
102
RTVSPropertyOp9
 70
     1
102
RTVSPropertyOp10
 70
     1
102
RTVSPropertyOp11
 70
     1
102
RTVSPropertyOp12
 70
     1
102
RTVSPropertyOp13
 70
     1
102
RTVSPropertyOp14
 70
     1
102
RTVSPropertyOp15
 70
     1
102
RTVSPropertyOp16
 70
     1
102
RTVSPropertyOp17
 70
     1
102
RTVSPropertyOp18
 70
     1
102
RTVSPropertyOp19
 70
     1
102
RTVSPropertyOp20
 70
     1
102
RTVSPropertyOp21
 70
     1
102
RTVSPropertyOp22
 70
     1
102
RTVSPropertyOp23
 70
     1
102
RTVSPropertyOp24
 70
     1
102
RTVSPropertyOp25
 70
     1
102
RTVSPropertyOp26
 70
     1
102
RTVSPropertyOp27
 70
     1
  0
XRECORD
  5
669
102
{ACAD_REACTORS
330
668
102
}
330
668
100
AcDbXrecord
280
     1
102
RTVSPropertyOp0
 70
     1
102
RTVSPropertyOp1
 70
     1
102
RTVSPropertyOp2
 70
     1
102
RTVSPropertyOp3
 70
     1
102
RTVSPropertyOp4
 70
     1
102
RTVSPropertyOp5
 70
     1
102
RTVSPropertyOp6
 70
     1
102
RTVSPropertyOp7
 70
     1
102
RTVSPropertyOp8
 70
     1
102
RTVSPropertyOp9
 70
     1
102
RTVSPropertyOp10
 70
     1
102
RTVSPropertyOp11
 70
     1
102
RTVSPropertyOp12
 70
     1
102
RTVSPropertyOp13
 70
     1
102
RTVSPropertyOp14
 70
     1
102
RTVSPropertyOp15
 70
     1
102
RTVSPropertyOp16
 70
     1
102
RTVSPropertyOp17
 70
     1
102
RTVSPropertyOp18
 70
     1
102
RTVSPropertyOp19
 70
     1
102
RTVSPropertyOp20
 70
     1
102
RTVSPropertyOp21
 70
     1
102
RTVSPropertyOp22
 70
     1
102
RTVSPropertyOp23
 70
     1
102
RTVSPropertyOp24
 70
     1
102
RTVSPropertyOp25
 70
     1
102
RTVSPropertyOp26
 70
     1
102
RTVSPropertyOp27
 70
     1
  0
XRECORD
  5
64D
102
{ACAD_REACTORS
330
64C
102
}
330
64C
100
AcDbXrecord
280
     1
102
RTVSPropertyOp0
 70
     1
102
RTVSPropertyOp1
 70
     1
102
RTVSPropertyOp2
 70
     1
102
RTVSPropertyOp3
 70
     1
102
RTVSPropertyOp4
 70
     1
102
RTVSPropertyOp5
 70
     1
102
RTVSPropertyOp6
 70
     1
102
RTVSPropertyOp7
 70
     1
102
RTVSPropertyOp8
 70
     1
102
RTVSPropertyOp9
 70
     1
102
RTVSPropertyOp10
 70
     1
102
RTVSPropertyOp11
 70
     1
102
RTVSPropertyOp12
 70
     1
102
RTVSPropertyOp13
 70
     1
102
RTVSPropertyOp14
 70
     1
102
RTVSPropertyOp15
 70
     1
102
RTVSPropertyOp16
 70
     1
102
RTVSPropertyOp17
 70
     1
102
RTVSPropertyOp18
 70
     1
102
RTVSPropertyOp19
 70
     1
102
RTVSPropertyOp20
 70
     1
102
RTVSPropertyOp21
 70
     1
102
RTVSPropertyOp22
 70
     1
102
RTVSPropertyOp23
 70
     1
102
RTVSPropertyOp24
 70
     1
102
RTVSPropertyOp25
 70
     1
102
RTVSPropertyOp26
 70
     1
102
RTVSPropertyOp27
 70
     1
  0
XRECORD
  5
64F
102
{ACAD_REACTORS
330
64E
102
}
330
64E
100
AcDbXrecord
280
     1
102
RTVSPropertyOp0
 70
     1
102
RTVSPropertyOp1
 70
     1
102
RTVSPropertyOp2
 70
     1
102
RTVSPropertyOp3
 70
     1
102
RTVSPropertyOp4
 70
     1
102
RTVSPropertyOp5
 70
     1
102
RTVSPropertyOp6
 70
     1
102
RTVSPropertyOp7
 70
     1
102
RTVSPropertyOp8
 70
     1
102
RTVSPropertyOp9
 70
     1
102
RTVSPropertyOp10
 70
     1
102
RTVSPropertyOp11
 70
     1
102
RTVSPropertyOp12
 70
     1
102
RTVSPropertyOp13
 70
     1
102
RTVSPropertyOp14
 70
     1
102
RTVSPropertyOp15
 70
     1
102
RTVSPropertyOp16
 70
     1
102
RTVSPropertyOp17
 70
     1
102
RTVSPropertyOp18
 70
     1
102
RTVSPropertyOp19
 70
     1
102
RTVSPropertyOp20
 70
     1
102
RTVSPropertyOp21
 70
     1
102
RTVSPropertyOp22
 70
     1
102
RTVSPropertyOp23
 70
     1
102
RTVSPropertyOp24
 70
     1
102
RTVSPropertyOp25
 70
     1
102
RTVSPropertyOp26
 70
     1
102
RTVSPropertyOp27
 70
     1
  0
XRECORD
  5
651
102
{ACAD_REACTORS
330
650
102
}
330
650
100
AcDbXrecord
280
     1
102
RTVSPropertyOp0
 70
     1
102
RTVSPropertyOp1
 70
     1
102
RTVSPropertyOp2
 70
     1
102
RTVSPropertyOp3
 70
     1
102
RTVSPropertyOp4
 70
     1
102
RTVSPropertyOp5
 70
     1
102
RTVSPropertyOp6
 70
     1
102
RTVSPropertyOp7
 70
     1
102
RTVSPropertyOp8
 70
     1
102
RTVSPropertyOp9
 70
     1
102
RTVSPropertyOp10
 70
     1
102
RTVSPropertyOp11
 70
     1
102
RTVSPropertyOp12
 70
     1
102
RTVSPropertyOp13
 70
     1
102
RTVSPropertyOp14
 70
     1
102
RTVSPropertyOp15
 70
     1
102
RTVSPropertyOp16
 70
     1
102
RTVSPropertyOp17
 70
     1
102
RTVSPropertyOp18
 70
     1
102
RTVSPropertyOp19
 70
     1
102
RTVSPropertyOp20
 70
     1
102
RTVSPropertyOp21
 70
     1
102
RTVSPropertyOp22
 70
     1
102
RTVSPropertyOp23
 70
     1
102
RTVSPropertyOp24
 70
     1
102
RTVSPropertyOp25
 70
     1
102
RTVSPropertyOp26
 70
     1
102
RTVSPropertyOp27
 70
     1
  0
XRECORD
  5
653
102
{ACAD_REACTORS
330
652
102
}
330
652
100
AcDbXrecord
280
     1
102
RTVSPropertyOp0
 70
     1
102
RTVSPropertyOp1
 70
     1
102
RTVSPropertyOp2
 70
     1
102
RTVSPropertyOp3
 70
     1
102
RTVSPropertyOp4
 70
     1
102
RTVSPropertyOp5
 70
     1
102
RTVSPropertyOp6
 70
     1
102
RTVSPropertyOp7
 70
     1
102
RTVSPropertyOp8
 70
     1
102
RTVSPropertyOp9
 70
     1
102
RTVSPropertyOp10
 70
     1
102
RTVSPropertyOp11
 70
     1
102
RTVSPropertyOp12
 70
     1
102
RTVSPropertyOp13
 70
     1
102
RTVSPropertyOp14
 70
     1
102
RTVSPropertyOp15
 70
     1
102
RTVSPropertyOp16
 70
     1
102
RTVSPropertyOp17
 70
     1
102
RTVSPropertyOp18
 70
     1
102
RTVSPropertyOp19
 70
     1
102
RTVSPropertyOp20
 70
     1
102
RTVSPropertyOp21
 70
     1
102
RTVSPropertyOp22
 70
     1
102
RTVSPropertyOp23
 70
     1
102
RTVSPropertyOp24
 70
     1
102
RTVSPropertyOp25
 70
     1
102
RTVSPropertyOp26
 70
     1
102
RTVSPropertyOp27
 70
     1
  0
XRECORD
  5
667
102
{ACAD_REACTORS
330
666
102
}
330
666
100
AcDbXrecord
280
     1
102
RTVSPropertyOp0
 70
     1
102
RTVSPropertyOp1
 70
     1
102
RTVSPropertyOp2
 70
     1
102
RTVSPropertyOp3
 70
     1
102
RTVSPropertyOp4
 70
     1
102
RTVSPropertyOp5
 70
     1
102
RTVSPropertyOp6
 70
     1
102
RTVSPropertyOp7
 70
     1
102
RTVSPropertyOp8
 70
     1
102
RTVSPropertyOp9
 70
     1
102
RTVSPropertyOp10
 70
     1
102
RTVSPropertyOp11
 70
     1
102
RTVSPropertyOp12
 70
     1
102
RTVSPropertyOp13
 70
     1
102
RTVSPropertyOp14
 70
     1
102
RTVSPropertyOp15
 70
     1
102
RTVSPropertyOp16
 70
     1
102
RTVSPropertyOp17
 70
     1
102
RTVSPropertyOp18
 70
     1
102
RTVSPropertyOp19
 70
     1
102
RTVSPropertyOp20
 70
     1
102
RTVSPropertyOp21
 70
     1
102
RTVSPropertyOp22
 70
     1
102
RTVSPropertyOp23
 70
     1
102
RTVSPropertyOp24
 70
     1
102
RTVSPropertyOp25
 70
     1
102
RTVSPropertyOp26
 70
     1
102
RTVSPropertyOp27
 70
     1
  0
XRECORD
  5
65D
102
{ACAD_REACTORS
330
65C
102
}
330
65C
100
AcDbXrecord
280
     1
102
RTVSPropertyOp0
 70
     1
102
RTVSPropertyOp1
 70
     1
102
RTVSPropertyOp2
 70
     1
102
RTVSPropertyOp3
 70
     1
102
RTVSPropertyOp4
 70
     1
102
RTVSPropertyOp5
 70
     1
102
RTVSPropertyOp6
 70
     1
102
RTVSPropertyOp7
 70
     1
102
RTVSPropertyOp8
 70
     1
102
RTVSPropertyOp9
 70
     1
102
RTVSPropertyOp10
 70
     1
102
RTVSPropertyOp11
 70
     1
102
RTVSPropertyOp12
 70
     1
102
RTVSPropertyOp13
 70
     1
102
RTVSPropertyOp14
 70
     1
102
RTVSPropertyOp15
 70
     1
102
RTVSPropertyOp16
 70
     1
102
RTVSPropertyOp17
 70
     1
102
RTVSPropertyOp18
 70
     1
102
RTVSPropertyOp19
 70
     1
102
RTVSPropertyOp20
 70
     1
102
RTVSPropertyOp21
 70
     1
102
RTVSPropertyOp22
 70
     1
102
RTVSPropertyOp23
 70
     1
102
RTVSPropertyOp24
 70
     1
102
RTVSPropertyOp25
 70
     1
102
RTVSPropertyOp26
 70
     1
102
RTVSPropertyOp27
 70
     1
  0
XRECORD
  5
665
102
{ACAD_REACTORS
330
664
102
}
330
664
100
AcDbXrecord
280
     1
102
RTVSPropertyOp0
 70
     1
102
RTVSPropertyOp1
 70
     1
102
RTVSPropertyOp2
 70
     1
102
RTVSPropertyOp3
 70
     1
102
RTVSPropertyOp4
 70
     1
102
RTVSPropertyOp5
 70
     1
102
RTVSPropertyOp6
 70
     1
102
RTVSPropertyOp7
 70
     1
102
RTVSPropertyOp8
 70
     1
102
RTVSPropertyOp9
 70
     1
102
RTVSPropertyOp10
 70
     1
102
RTVSPropertyOp11
 70
     1
102
RTVSPropertyOp12
 70
     1
102
RTVSPropertyOp13
 70
     1
102
RTVSPropertyOp14
 70
     1
102
RTVSPropertyOp15
 70
     1
102
RTVSPropertyOp16
 70
     1
102
RTVSPropertyOp17
 70
     1
102
RTVSPropertyOp18
 70
     1
102
RTVSPropertyOp19
 70
     1
102
RTVSPropertyOp20
 70
     1
102
RTVSPropertyOp21
 70
     1
102
RTVSPropertyOp22
 70
     1
102
RTVSPropertyOp23
 70
     1
102
RTVSPropertyOp24
 70
     1
102
RTVSPropertyOp25
 70
     1
102
RTVSPropertyOp26
 70
     1
102
RTVSPropertyOp27
 70
     1
  0
ENDSEC
  0
EOF
