  0
SECTION
  2
HEADER
  9
$ACADVER
  1
AC1015
  9
$ACADMAINTVER
 70
     6
  9
$DWGCODEPAGE
  3
ANSI_932
  9
$INSBASE
 10
0.0
 20
0.0
 30
0.0
  9
$EXTMIN
 10
0.0
 20
0.0
 30
0.0
  9
$EXTMAX
 10
2520.0
 20
1782.0
 30
0.0
  9
$LIMMIN
 10
0.0
 20
0.0
  9
$LIMMAX
 10
12.0
 20
9.0
  9
$ORTHOMODE
 70
     0
  9
$REGENMODE
 70
     1
  9
$FILLMODE
 70
     1
  9
$QTEXTMODE
 70
     0
  9
$MIRRTEXT
 70
     1
  9
$LTSCALE
 40
6.0
  9
$ATTMODE
 70
     1
  9
$TEXTSIZE
 40
0.2
  9
$TRACEWID
 40
0.05
  9
$TEXTSTYLE
  7
Standard
  9
$CLAYER
  8
0
  9
$CELTYPE
  6
ByLayer
  9
$CECOLOR
 62
   256
  9
$CELTSCALE
 40
1.0
  9
$DISPSILH
 70
     0
  9
$DIMSCALE
 40
1.0
  9
$DIMASZ
 40
0.18
  9
$DIMEXO
 40
0.0625
  9
$DIMDLI
 40
0.38
  9
$DIMRND
 40
0.0
  9
$DIMDLE
 40
0.0
  9
$DIMEXE
 40
0.18
  9
$DIMTP
 40
0.0
  9
$DIMTM
 40
0.0
  9
$DIMTXT
 40
0.18
  9
$DIMCEN
 40
0.09
  9
$DIMTSZ
 40
0.0
  9
$DIMTOL
 70
     0
  9
$DIMLIM
 70
     0
  9
$DIMTIH
 70
     1
  9
$DIMTOH
 70
     1
  9
$DIMSE1
 70
     0
  9
$DIMSE2
 70
     0
  9
$DIMTAD
 70
     0
  9
$DIMZIN
 70
     0
  9
$DIMBLK
  1

  9
$DIMASO
 70
     1
  9
$DIMSHO
 70
     1
  9
$DIMPOST
  1

  9
$DIMAPOST
  1

  9
$DIMALT
 70
     0
  9
$DIMALTD
 70
     2
  9
$DIMALTF
 40
25.4
  9
$DIMLFAC
 40
1.0
  9
$DIMTOFL
 70
     0
  9
$DIMTVP
 40
0.0
  9
$DIMTIX
 70
     0
  9
$DIMSOXD
 70
     0
  9
$DIMSAH
 70
     0
  9
$DIMBLK1
  1

  9
$DIMBLK2
  1

  9
$DIMSTYLE
  2
Standard
  9
$DIMCLRD
 70
     0
  9
$DIMCLRE
 70
     0
  9
$DIMCLRT
 70
     0
  9
$DIMTFAC
 40
1.0
  9
$DIMGAP
 40
0.09
  9
$DIMJUST
 70
     0
  9
$DIMSD1
 70
     0
  9
$DIMSD2
 70
     0
  9
$DIMTOLJ
 70
     1
  9
$DIMTZIN
 70
     0
  9
$DIMALTZ
 70
     0
  9
$DIMALTTZ
 70
     0
  9
$DIMUPT
 70
     0
  9
$DIMDEC
 70
     4
  9
$DIMTDEC
 70
     4
  9
$DIMALTU
 70
     2
  9
$DIMALTTD
 70
     2
  9
$DIMTXSTY
  7
Standard
  9
$DIMAUNIT
 70
     0
  9
$DIMADEC
 70
     0
  9
$DIMALTRND
 40
0.0
  9
$DIMAZIN
 70
     0
  9
$DIMDSEP
 70
    46
  9
$DIMATFIT
 70
     3
  9
$DIMFRAC
 70
     0
  9
$DIMLDRBLK
  1

  9
$DIMLUNIT
 70
     2
  9
$DIMLWD
 70
    -2
  9
$DIMLWE
 70
    -2
  9
$DIMTMOVE
 70
     0
  9
$LUNITS
 70
     2
  9
$LUPREC
 70
     4
  9
$SKETCHINC
 40
0.1
  9
$FILLETRAD
 40
0.5
  9
$AUNITS
 70
     0
  9
$AUPREC
 70
     0
  9
$MENU
  1
.
  9
$ELEVATION
 40
0.0
  9
$PELEVATION
 40
0.0
  9
$THICKNESS
 40
0.0
  9
$LIMCHECK
 70
     0
  9
$CHAMFERA
 40
0.5
  9
$CHAMFERB
 40
0.5
  9
$CHAMFERC
 40
1.0
  9
$CHAMFERD
 40
0.0
  9
$SKPOLY
 70
     0
  9
$TDCREATE
 40
2456819.746048993
  9
$TDUCREATE
 40
2456819.371048993
  9
$TDUPDATE
 40
2456819.746049005
  9
$TDUUPDATE
 40
2456819.371049005
  9
$TDINDWG
 40
0.0000000116
  9
$TDUSRTIMER
 40
0.0000000116
  9
$USRTIMER
 70
     1
  9
$ANGBASE
 50
0.0
  9
$ANGDIR
 70
     0
  9
$PDMODE
 70
     0
  9
$PDSIZE
 40
0.0
  9
$PLINEWID
 40
0.0
  9
$SPLFRAME
 70
     0
  9
$SPLINETYPE
 70
     6
  9
$SPLINESEGS
 70
     8
  9
$HANDSEED
  5
677
  9
$SURFTAB1
 70
     6
  9
$SURFTAB2
 70
     6
  9
$SURFTYPE
 70
     6
  9
$SURFU
 70
     6
  9
$SURFV
 70
     6
  9
$UCSBASE
  2

  9
$UCSNAME
  2

  9
$UCSORG
 10
0.0
 20
0.0
 30
0.0
  9
$UCSXDIR
 10
1.0
 20
0.0
 30
0.0
  9
$UCSYDIR
 10
0.0
 20
1.0
 30
0.0
  9
$UCSORTHOREF
  2

  9
$UCSORTHOVIEW
 70
     0
  9
$UCSORGTOP
 10
0.0
 20
0.0
 30
0.0
  9
$UCSORGBOTTOM
 10
0.0
 20
0.0
 30
0.0
  9
$UCSORGLEFT
 10
0.0
 20
0.0
 30
0.0
  9
$UCSORGRIGHT
 10
0.0
 20
0.0
 30
0.0
  9
$UCSORGFRONT
 10
0.0
 20
0.0
 30
0.0
  9
$UCSORGBACK
 10
0.0
 20
0.0
 30
0.0
  9
$PUCSBASE
  2

  9
$PUCSNAME
  2

  9
$PUCSORG
 10
0.0
 20
0.0
 30
0.0
  9
$PUCSXDIR
 10
1.0
 20
0.0
 30
0.0
  9
$PUCSYDIR
 10
0.0
 20
1.0
 30
0.0
  9
$PUCSORTHOREF
  2

  9
$PUCSORTHOVIEW
 70
     0
  9
$PUCSORGTOP
 10
0.0
 20
0.0
 30
0.0
  9
$PUCSORGBOTTOM
 10
0.0
 20
0.0
 30
0.0
  9
$PUCSORGLEFT
 10
0.0
 20
0.0
 30
0.0
  9
$PUCSORGRIGHT
 10
0.0
 20
0.0
 30
0.0
  9
$PUCSORGFRONT
 10
0.0
 20
0.0
 30
0.0
  9
$PUCSORGBACK
 10
0.0
 20
0.0
 30
0.0
  9
$USERI1
 70
     0
  9
$USERI2
 70
     0
  9
$USERI3
 70
     0
  9
$USERI4
 70
     0
  9
$USERI5
 70
     0
  9
$USERR1
 40
0.0
  9
$USERR2
 40
0.0
  9
$USERR3
 40
0.0
  9
$USERR4
 40
0.0
  9
$USERR5
 40
0.0
  9
$WORLDVIEW
 70
     1
  9
$SHADEDGE
 70
     3
  9
$SHADEDIF
 70
    70
  9
$TILEMODE
 70
     1
  9
$MAXACTVP
 70
    64
  9
$PINSBASE
 10
0.0
 20
0.0
 30
0.0
  9
$PLIMCHECK
 70
     0
  9
$PEXTMIN
 10
1.000000E+20
 20
1.000000E+20
 30
1.000000E+20
  9
$PEXTMAX
 10
-1.000000E+20
 20
-1.000000E+20
 30
-1.000000E+20
  9
$PLIMMIN
 10
0.0
 20
0.0
  9
$PLIMMAX
 10
12.0
 20
9.0
  9
$UNITMODE
 70
     0
  9
$VISRETAIN
 70
     1
  9
$PLINEGEN
 70
     0
  9
$PSLTSCALE
 70
     1
  9
$TREEDEPTH
 70
  3020
  9
$CMLSTYLE
  2
Standard
  9
$CMLJUST
 70
     0
  9
$CMLSCALE
 40
1.0
  9
$PROXYGRAPHICS
 70
     1
  9
$MEASUREMENT
 70
     0
  9
$CELWEIGHT
370
    -1
  9
$ENDCAPS
280
     0
  9
$JOINSTYLE
280
     0
  9
$LWDISPLAY
290
     0
  9
$INSUNITS
 70
     1
  9
$HYPERLINKBASE
  1

  9
$STYLESHEET
  1

  9
$XEDIT
290
     1
  9
$CEPSNTYPE
380
     0
  9
$PSTYLEMODE
290
     1
  9
$FINGERPRINTGUID
  2
{96180D84-08D1-4C0F-A6E4-C6FBF4CE21E5}
  9
$VERSIONGUID
  2
{FAEB1C32-E019-11D5-929B-00C0DF256EC4}
  9
$EXTNAMES
290
     1
  9
$PSVPSCALE
 40
0.0
  9
$OLESTARTUP
290
     0
  0
ENDSEC
  0
SECTION
  2
CLASSES
  0
CLASS
  1
ACDBDICTIONARYWDFLT
  2
AcDbDictionaryWithDefault
  3
ObjectDBX Classes
 90
        0
280
     0
281
     0
  0
CLASS
  1
VISUALSTYLE
  2
AcDbVisualStyle
  3
ObjectDBX Classes
 90
     4095
280
     0
281
     0
  0
CLASS
  1
SCALE
  2
AcDbScale
  3
ObjectDBX Classes
 90
     1153
280
     0
281
     0
  0
CLASS
  1
DICTIONARYVAR
  2
AcDbDictionaryVar
  3
ObjectDBX Classes
 90
        0
280
     0
281
     0
  0
CLASS
  1
ACDBPLACEHOLDER
  2
AcDbPlaceHolder
  3
ObjectDBX Classes
 90
        0
280
     0
281
     0
  0
CLASS
  1
LAYOUT
  2
AcDbLayout
  3
ObjectDBX Classes
 90
        0
280
     0
281
     0
  0
ENDSEC
  0
SECTION
  2
TABLES
  0
TABLE
  2
VPORT
  5
8
330
0
100
AcDbSymbolTable
 70
     1
  0
VPORT
  5
29
330
8
100
AcDbSymbolTableRecord
100
AcDbViewportTableRecord
  2
*Active
 70
     0
 10
0.0
 20
0.0
 11
1.0
 21
1.0
 12
10.429907
 22
4.5
 13
0.0
 23
0.0
 14
0.5
 24
0.5
 15
0.5
 25
0.5
 16
0.0
 26
0.0
 36
1.0
 17
0.0
 27
0.0
 37
0.0
 40
9.0
 41
1.972973
 42
50.0
 43
0.0
 44
0.0
 50
0.0
 51
0.0
 71
     0
 72
   100
 73
     1
 74
     3
 75
     0
 76
     0
 77
     0
 78
     0
281
     0
 65
     1
110
0.0
120
0.0
130
0.0
111
1.0
121
0.0
131
0.0
112
0.0
122
1.0
132
0.0
 79
     0
146
0.0
  0
ENDTAB
  0
TABLE
  2
LTYPE
  5
5
330
0
100
AcDbSymbolTable
 70
    16
  0
LTYPE
  5
14
330
5
100
AcDbSymbolTableRecord
100
AcDbLinetypeTableRecord
  2
ByBlock
 70
     0
  3

 72
    65
 73
     0
 40
0.0
  0
LTYPE
  5
15
330
5
100
AcDbSymbolTableRecord
100
AcDbLinetypeTableRecord
  2
ByLayer
 70
     0
  3

 72
    65
 73
     0
 40
0.0
  0
LTYPE
  5
16
330
5
100
AcDbSymbolTableRecord
100
AcDbLinetypeTableRecord
  2
Continuous
 70
     0
  3
Solid line
 72
    65
 73
     0
 40
0.0
  0
LTYPE
  5
3B
330
5
100
AcDbSymbolTableRecord
100
AcDbLinetypeTableRecord
  2
PLine1
 70
     0
  3
破線
 72
    65
 73
     2
 40
18.0
 49
12.6
 74
     0
 49
-5.4
 74
     0
  0
LTYPE
  5
3C
330
5
100
AcDbSymbolTableRecord
100
AcDbLinetypeTableRecord
  2
PLine2
 70
     0
  3
一点鎖線
 72
    65
 73
     4
 40
60.0
 49
42.0
 74
     0
 49
-6.0
 74
     0
 49
6.0
 74
     0
 49
-6.0
 74
     0
  0
LTYPE
  5
3D
330
5
100
AcDbSymbolTableRecord
100
AcDbLinetypeTableRecord
  2
PLine3
 70
     0
  3
二点鎖線
 72
    65
 73
     6
 40
60.0
 49
30.0
 74
     0
 49
-6.0
 74
     0
 49
6.0
 74
     0
 49
-6.0
 74
     0
 49
6.0
 74
     0
 49
-6.0
 74
     0
  0
LTYPE
  5
3E
330
5
100
AcDbSymbolTableRecord
100
AcDbLinetypeTableRecord
  2
PLine4
 70
     0
  3
破線1
 72
    65
 73
     2
 40
30.0
 49
21.0
 74
     0
 49
-9.0
 74
     0
  0
LTYPE
  5
3F
330
5
100
AcDbSymbolTableRecord
100
AcDbLinetypeTableRecord
  2
PLine5
 70
     0
  3
一点鎖線1
 72
    65
 73
     4
 40
90.0
 49
63.0
 74
     0
 49
-9.0
 74
     0
 49
9.0
 74
     0
 49
-9.0
 74
     0
  0
LTYPE
  5
40
330
5
100
AcDbSymbolTableRecord
100
AcDbLinetypeTableRecord
  2
PLine6
 70
     0
  3
二点鎖線1
 72
    65
 73
     6
 40
90.0
 49
45.0
 74
     0
 49
-9.0
 74
     0
 49
9.0
 74
     0
 49
-9.0
 74
     0
 49
9.0
 74
     0
 49
-9.0
 74
     0
  0
LTYPE
  5
41
330
5
100
AcDbSymbolTableRecord
100
AcDbLinetypeTableRecord
  2
PLine7
 70
     0
  3
破線2
 72
    65
 73
     2
 40
42.0
 49
29.4
 74
     0
 49
-12.6
 74
     0
  0
LTYPE
  5
42
330
5
100
AcDbSymbolTableRecord
100
AcDbLinetypeTableRecord
  2
PLine8
 70
     0
  3
一点鎖線2
 72
    65
 73
     4
 40
120.0
 49
84.0
 74
     0
 49
-12.0
 74
     0
 49
12.0
 74
     0
 49
-12.0
 74
     0
  0
LTYPE
  5
43
330
5
100
AcDbSymbolTableRecord
100
AcDbLinetypeTableRecord
  2
PLine9
 70
     0
  3
二点鎖線2
 72
    65
 73
     6
 40
120.0
 49
60.0
 74
     0
 49
-12.0
 74
     0
 49
12.0
 74
     0
 49
-12.0
 74
     0
 49
12.0
 74
     0
 49
-12.0
 74
     0
  0
LTYPE
  5
44
330
5
100
AcDbSymbolTableRecord
100
AcDbLinetypeTableRecord
  2
PLine10
 70
     0
  3
破線3
 72
    65
 73
     2
 40
54.0
 49
37.8
 74
     0
 49
-16.2
 74
     0
  0
LTYPE
  5
45
330
5
100
AcDbSymbolTableRecord
100
AcDbLinetypeTableRecord
  2
PLine11
 70
     0
  3
一点鎖線3
 72
    65
 73
     4
 40
150.0
 49
105.0
 74
     0
 49
-15.0
 74
     0
 49
15.0
 74
     0
 49
-15.0
 74
     0
  0
LTYPE
  5
46
330
5
100
AcDbSymbolTableRecord
100
AcDbLinetypeTableRecord
  2
PLine12
 70
     0
  3
二点鎖線3
 72
    65
 73
     6
 40
150.0
 49
75.0
 74
     0
 49
-15.0
 74
     0
 49
15.0
 74
     0
 49
-15.0
 74
     0
 49
15.0
 74
     0
 49
-15.0
 74
     0
  0
LTYPE
  5
47
330
5
100
AcDbSymbolTableRecord
100
AcDbLinetypeTableRecord
  2
PLine13
 70
     0
  3
破線4
 72
    65
 73
     2
 40
66.0
 49
46.2
 74
     0
 49
-19.8
 74
     0
  0
LTYPE
  5
48
330
5
100
AcDbSymbolTableRecord
100
AcDbLinetypeTableRecord
  2
PLine14
 70
     0
  3
一点鎖線4
 72
    65
 73
     4
 40
180.0
 49
126.0
 74
     0
 49
-18.0
 74
     0
 49
18.0
 74
     0
 49
-18.0
 74
     0
  0
LTYPE
  5
49
330
5
100
AcDbSymbolTableRecord
100
AcDbLinetypeTableRecord
  2
PLine15
 70
     0
  3
二点鎖線4
 72
    65
 73
     6
 40
180.0
 49
90.0
 74
     0
 49
-18.0
 74
     0
 49
18.0
 74
     0
 49
-18.0
 74
     0
 49
18.0
 74
     0
 49
-18.0
 74
     0
  0
ENDTAB
  0
TABLE
  2
LAYER
  5
2
330
0
100
AcDbSymbolTable
 70
     7
  0
LAYER
  5
10
330
2
100
AcDbSymbolTableRecord
100
AcDbLayerTableRecord
  2
0
 70
     0
 62
     7
  6
Continuous
370
    -3
390
F
  0
LAYER
  5
4E
330
2
100
AcDbSymbolTableRecord
100
AcDbLayerTableRecord
  2
1__1
 70
     0
 62
     7
  6
Continuous
370
    -3
390
F
  0
LAYER
  5
54
330
2
100
AcDbSymbolTableRecord
100
AcDbLayerTableRecord
  2
2__2
 70
     0
 62
     7
  6
Continuous
370
    -3
390
F
  0
LAYER
  5
55
330
2
100
AcDbSymbolTableRecord
100
AcDbLayerTableRecord
  2
3__3
 70
     0
 62
     7
  6
Continuous
370
    -3
390
F
  0
LAYER
  5
7C
330
2
100
AcDbSymbolTableRecord
100
AcDbLayerTableRecord
  2
5__5
 70
     0
 62
     7
  6
Continuous
370
    -3
390
F
  0
LAYER
  5
A4
330
2
100
AcDbSymbolTableRecord
100
AcDbLayerTableRecord
  2
6__6
 70
     0
 62
     7
  6
Continuous
370
    -3
390
F
  0
LAYER
  5
A9
330
2
100
AcDbSymbolTableRecord
100
AcDbLayerTableRecord
  2
7__7
 70
     0
 62
     7
  6
Continuous
370
    -3
390
F
  0
ENDTAB
  0
TABLE
  2
STYLE
  5
3
330
0
100
AcDbSymbolTable
 70
     5
  0
STYLE
  5
11
330
3
100
AcDbSymbolTableRecord
100
AcDbTextStyleTableRecord
  2
Standard
 70
     0
 40
0.0
 41
1.0
 50
0.0
 71
     0
 42
0.2
  3
txt
  4
bigfont
  0
STYLE
  5
4A
330
3
100
AcDbSymbolTableRecord
100
AcDbTextStyleTableRecord
  2
BIGFONT
 70
     0
 40
0.2
 41
1.0
 50
0.0
 71
     0
 42
3.5
  3
monotxt
  4
bigfont
  0
STYLE
  5
4B
330
3
100
AcDbSymbolTableRecord
100
AcDbTextStyleTableRecord
  2
BIG VER
 70
     4
 40
0.2
 41
1.0
 50
0.0
 71
     0
 42
3.5
  3
monotxt
  4
bigfont
  0
STYLE
  5
4C
330
3
100
AcDbSymbolTableRecord
100
AcDbTextStyleTableRecord
  2
EXTFONT
 70
     0
 40
0.2
 41
1.0
 50
0.0
 71
     0
 42
3.5
  3
monotxt
  4
extfont
  0
STYLE
  5
4D
330
3
100
AcDbSymbolTableRecord
100
AcDbTextStyleTableRecord
  2
EXT VER
 70
     4
 40
0.2
 41
1.0
 50
0.0
 71
     0
 42
3.5
  3
monotxt
  4
extfont
  0
ENDTAB
  0
TABLE
  2
VIEW
  5
6
330
0
100
AcDbSymbolTable
 70
     0
  0
ENDTAB
  0
TABLE
  2
UCS
  5
7
330
0
100
AcDbSymbolTable
 70
     0
  0
ENDTAB
  0
TABLE
  2
APPID
  5
9
330
0
100
AcDbSymbolTable
 70
     1
  0
APPID
  5
12
330
9
100
AcDbSymbolTableRecord
100
AcDbRegAppTableRecord
  2
ACAD
 70
     0
  0
ENDTAB
  0
TABLE
  2
DIMSTYLE
  5
A
330
0
100
AcDbSymbolTable
 70
     1
100
AcDbDimStyleTable
  0
DIMSTYLE
105
27
330
A
100
AcDbSymbolTableRecord
100
AcDbDimStyleTableRecord
  2
Standard
 70
     0
340
11
  0
ENDTAB
  0
TABLE
  2
BLOCK_RECORD
  5
1
330
0
100
AcDbSymbolTable
 70
    25
  0
BLOCK_RECORD
  5
1F
330
1
100
AcDbSymbolTableRecord
100
AcDbBlockTableRecord
  2
*Model_Space
340
22
  0
BLOCK_RECORD
  5
1B
330
1
100
AcDbSymbolTableRecord
100
AcDbBlockTableRecord
  2
*Paper_Space
340
1E
  0
BLOCK_RECORD
  5
23
330
1
100
AcDbSymbolTableRecord
100
AcDbBlockTableRecord
  2
*Paper_Space0
340
26
  0
BLOCK_RECORD
  5
140
330
1
100
AcDbSymbolTableRecord
100
AcDbBlockTableRecord
  2
DIM_0
340
0
102
{BLKREFS
331
149
102
}
  0
BLOCK_RECORD
  5
14C
330
1
100
AcDbSymbolTableRecord
100
AcDbBlockTableRecord
  2
DIM_1
340
0
102
{BLKREFS
331
155
102
}
  0
BLOCK_RECORD
  5
15A
330
1
100
AcDbSymbolTableRecord
100
AcDbBlockTableRecord
  2
DIM_2
340
0
102
{BLKREFS
331
163
102
}
  0
BLOCK_RECORD
  5
16E
330
1
100
AcDbSymbolTableRecord
100
AcDbBlockTableRecord
  2
DIM_3
340
0
102
{BLKREFS
331
177
102
}
  0
BLOCK_RECORD
  5
18E
330
1
100
AcDbSymbolTableRecord
100
AcDbBlockTableRecord
  2
DIM_4
340
0
102
{BLKREFS
331
196
102
}
  0
BLOCK_RECORD
  5
218
330
1
100
AcDbSymbolTableRecord
100
AcDbBlockTableRecord
  2
DIM_5
340
0
102
{BLKREFS
331
221
102
}
  0
BLOCK_RECORD
  5
222
330
1
100
AcDbSymbolTableRecord
100
AcDbBlockTableRecord
  2
DIM_6
340
0
102
{BLKREFS
331
22A
102
}
  0
BLOCK_RECORD
  5
418
330
1
100
AcDbSymbolTableRecord
100
AcDbBlockTableRecord
  2
DIM_7
340
0
102
{BLKREFS
331
41E
102
}
  0
BLOCK_RECORD
  5
458
330
1
100
AcDbSymbolTableRecord
100
AcDbBlockTableRecord
  2
DIM_8
340
0
102
{BLKREFS
331
45F
102
}
  0
BLOCK_RECORD
  5
469
330
1
100
AcDbSymbolTableRecord
100
AcDbBlockTableRecord
  2
DIM_9
340
0
102
{BLKREFS
331
471
102
}
  0
BLOCK_RECORD
  5
478
330
1
100
AcDbSymbolTableRecord
100
AcDbBlockTableRecord
  2
DIM_10
340
0
102
{BLKREFS
331
481
102
}
  0
BLOCK_RECORD
  5
482
330
1
100
AcDbSymbolTableRecord
100
AcDbBlockTableRecord
  2
DIM_11
340
0
102
{BLKREFS
331
48B
102
}
  0
BLOCK_RECORD
  5
48C
330
1
100
AcDbSymbolTableRecord
100
AcDbBlockTableRecord
  2
DIM_12
340
0
102
{BLKREFS
331
494
102
}
  0
BLOCK_RECORD
  5
495
330
1
100
AcDbSymbolTableRecord
100
AcDbBlockTableRecord
  2
DIM_13
340
0
102
{BLKREFS
331
49D
102
}
  0
BLOCK_RECORD
  5
49E
330
1
100
AcDbSymbolTableRecord
100
AcDbBlockTableRecord
  2
DIM_14
340
0
102
{BLKREFS
331
4A7
102
}
  0
BLOCK_RECORD
  5
4FD
330
1
100
AcDbSymbolTableRecord
100
AcDbBlockTableRecord
  2
DIM_15
340
0
102
{BLKREFS
331
506
102
}
  0
BLOCK_RECORD
  5
507
330
1
100
AcDbSymbolTableRecord
100
AcDbBlockTableRecord
  2
DIM_16
340
0
102
{BLKREFS
331
510
102
}
  0
BLOCK_RECORD
  5
51A
330
1
100
AcDbSymbolTableRecord
100
AcDbBlockTableRecord
  2
DIM_17
340
0
102
{BLKREFS
331
523
102
}
  0
BLOCK_RECORD
  5
54C
330
1
100
AcDbSymbolTableRecord
100
AcDbBlockTableRecord
  2
DIM_18
340
0
102
{BLKREFS
331
555
102
}
  0
BLOCK_RECORD
  5
556
330
1
100
AcDbSymbolTableRecord
100
AcDbBlockTableRecord
  2
DIM_19
340
0
102
{BLKREFS
331
55F
102
}
  0
BLOCK_RECORD
  5
560
330
1
100
AcDbSymbolTableRecord
100
AcDbBlockTableRecord
  2
DIM_20
340
0
102
{BLKREFS
331
568
102
}
  0
BLOCK_RECORD
  5
569
330
1
100
AcDbSymbolTableRecord
100
AcDbBlockTableRecord
  2
DIM_21
340
0
102
{BLKREFS
331
571
102
}
  0
BLOCK_RECORD
  5
604
330
1
100
AcDbSymbolTableRecord
100
AcDbBlockTableRecord
  2
DIM_22
340
0
102
{BLKREFS
331
60D
102
}
  0
BLOCK_RECORD
  5
60E
330
1
100
AcDbSymbolTableRecord
100
AcDbBlockTableRecord
  2
DIM_23
340
0
102
{BLKREFS
331
617
102
}
  0
ENDTAB
  0
ENDSEC
  0
SECTION
  2
BLOCKS
  0
BLOCK
  5
20
330
1F
100
AcDbEntity
  8
0
100
AcDbBlockBegin
  2
*Model_Space
 70
     0
 10
0.0
 20
0.0
 30
0.0
  3
*Model_Space
  1

  0
ENDBLK
  5
21
330
1F
100
AcDbEntity
  8
0
100
AcDbBlockEnd
  0
BLOCK
  5
1C
330
1B
100
AcDbEntity
 67
     1
  8
0
100
AcDbBlockBegin
  2
*Paper_Space
 70
     0
 10
0.0
 20
0.0
 30
0.0
  3
*Paper_Space
  1

  0
ENDBLK
  5
1D
330
1B
100
AcDbEntity
 67
     1
  8
0
100
AcDbBlockEnd
  0
BLOCK
  5
24
330
23
100
AcDbEntity
  8
0
100
AcDbBlockBegin
  2
*Paper_Space0
 70
     0
 10
0.0
 20
0.0
 30
0.0
  3
*Paper_Space0
  1

  0
ENDBLK
  5
25
330
23
100
AcDbEntity
  8
0
100
AcDbBlockEnd
  0
BLOCK
  5
141
330
140
100
AcDbEntity
  8
0
100
AcDbBlockBegin
  2
DIM_0
 70
     0
 10
396.178084
 20
644.001151
 30
0.0
  3
DIM_0
  1

  0
CIRCLE
  5
143
330
140
100
AcDbEntity
  8
7__7
  6
Continuous
 62
     3
100
AcDbCircle
 10
191.408764
 20
644.001151
 30
0.0
 40
3.0
  0
CIRCLE
  5
144
330
140
100
AcDbEntity
  8
7__7
  6
Continuous
 62
     3
100
AcDbCircle
 10
191.408764
 20
414.001151
 30
0.0
 40
3.0
  0
LINE
  5
145
330
140
100
AcDbEntity
  8
7__7
  6
Continuous
 62
     3
100
AcDbLine
 10
191.408764
 20
644.001151
 30
0.0
 11
191.408764
 21
414.001151
 31
0.0
  0
LINE
  5
146
330
140
100
AcDbEntity
  8
7__7
  6
Continuous
 62
     3
100
AcDbLine
 10
396.178084
 20
644.001151
 30
0.0
 11
185.408764
 21
644.001151
 31
0.0
  0
LINE
  5
147
330
140
100
AcDbEntity
  8
7__7
  6
Continuous
 62
     3
100
AcDbLine
 10
300.71623
 20
414.001151
 30
0.0
 11
185.408764
 21
414.001151
 31
0.0
  0
TEXT
  5
148
330
140
100
AcDbEntity
  8
7__7
  6
Continuous
 62
     3
100
AcDbText
 10
188.408765
 20
512.743109
 30
0.0
 40
18.0
  1
２３０
 50
90.000003
 41
0.743832
 51
0.0
  7
BIGFONT
 72
     1
 11
188.408764
 21
529.001151
 31
0.0
100
AcDbText
  0
ENDBLK
  5
142
330
140
100
AcDbEntity
  8
0
100
AcDbBlockEnd
  0
BLOCK
  5
14D
330
14C
100
AcDbEntity
  8
0
100
AcDbBlockBegin
  2
DIM_1
 70
     0
 10
664.276175
 20
476.000378
 30
0.0
  3
DIM_1
  1

  0
CIRCLE
  5
14F
330
14C
100
AcDbEntity
  8
7__7
  6
Continuous
 62
     3
100
AcDbCircle
 10
668.936889
 20
476.000378
 30
0.0
 40
2.4
  0
CIRCLE
  5
150
330
14C
100
AcDbEntity
  8
7__7
  6
Continuous
 62
     3
100
AcDbCircle
 10
668.936889
 20
461.001151
 30
0.0
 40
2.4
  0
LINE
  5
151
330
14C
100
AcDbEntity
  8
7__7
  6
Continuous
 62
     3
100
AcDbLine
 10
668.936889
 20
476.000378
 30
0.0
 11
668.936889
 21
461.001151
 31
0.0
  0
LINE
  5
152
330
14C
100
AcDbEntity
  8
7__7
  6
Continuous
 62
     3
100
AcDbLine
 10
664.276175
 20
476.000378
 30
0.0
 11
662.936889
 21
476.000378
 31
0.0
  0
LINE
  5
153
330
14C
100
AcDbEntity
  8
7__7
  6
Continuous
 62
     3
100
AcDbLine
 10
674.49046
 20
461.001151
 30
0.0
 11
674.936889
 21
461.001151
 31
0.0
  0
TEXT
  5
154
330
14C
100
AcDbEntity
  8
7__7
  6
Continuous
 62
     3
100
AcDbText
 10
677.482486
 20
480.685207
 30
0.0
 40
18.0
  1
１５
 50
90.000003
 41
0.772441
 51
0.0
  7
BIGFONT
 72
     1
 11
668.482486
 21
491.609729
 31
0.0
100
AcDbText
 73
     2
  0
ENDBLK
  5
14E
330
14C
100
AcDbEntity
  8
0
100
AcDbBlockEnd
  0
BLOCK
  5
15B
330
15A
100
AcDbEntity
  8
0
100
AcDbBlockBegin
  2
DIM_2
 70
     0
 10
415.066254
 20
617.332655
 30
0.0
  3
DIM_2
  1

  0
CIRCLE
  5
15D
330
15A
100
AcDbEntity
  8
7__7
  6
Continuous
 62
     3
100
AcDbCircle
 10
415.066254
 20
579.100014
 30
0.0
 40
2.4
  0
CIRCLE
  5
15E
330
15A
100
AcDbEntity
  8
7__7
  6
Continuous
 62
     3
100
AcDbCircle
 10
430.066254
 20
579.100014
 30
0.0
 40
2.4
  0
LINE
  5
15F
330
15A
100
AcDbEntity
  8
7__7
  6
Continuous
 62
     3
100
AcDbLine
 10
415.066254
 20
579.100014
 30
0.0
 11
430.066254
 21
579.100014
 31
0.0
  0
LINE
  5
160
330
15A
100
AcDbEntity
  8
7__7
  6
Continuous
 62
     3
100
AcDbLine
 10
415.066254
 20
617.332655
 30
0.0
 11
415.066254
 21
573.100014
 31
0.0
  0
LINE
  5
161
330
15A
100
AcDbEntity
  8
7__7
  6
Continuous
 62
     3
100
AcDbLine
 10
430.066254
 20
584.878851
 30
0.0
 11
430.066254
 21
585.100014
 31
0.0
  0
TEXT
  5
162
330
15A
100
AcDbEntity
  8
7__7
  6
Continuous
 62
     3
100
AcDbText
 10
388.861926
 20
574.138176
 30
0.0
 40
18.0
  1
１５
 41
0.772441
 51
0.0
  7
BIGFONT
 72
     1
 11
399.786448
 21
574.138176
 31
0.0
100
AcDbText
  0
ENDBLK
  5
15C
330
15A
100
AcDbEntity
  8
0
100
AcDbBlockEnd
  0
BLOCK
  5
16F
330
16E
100
AcDbEntity
  8
0
100
AcDbBlockBegin
  2
DIM_3
 70
     0
 10
485.066254
 20
718.236183
 30
0.0
  3
DIM_3
  1

  0
CIRCLE
  5
171
330
16E
100
AcDbEntity
  8
7__7
  6
Continuous
 62
     3
100
AcDbCircle
 10
485.066254
 20
842.942289
 30
0.0
 40
3.0
  0
CIRCLE
  5
172
330
16E
100
AcDbEntity
  8
7__7
  6
Continuous
 62
     3
100
AcDbCircle
 10
1345.066254
 20
842.942289
 30
0.0
 40
3.0
  0
LINE
  5
173
330
16E
100
AcDbEntity
  8
7__7
  6
Continuous
 62
     3
100
AcDbLine
 10
485.066254
 20
842.942289
 30
0.0
 11
1345.066254
 21
842.942289
 31
0.0
  0
LINE
  5
174
330
16E
100
AcDbEntity
  8
7__7
  6
Continuous
 62
     3
100
AcDbLine
 10
485.066254
 20
718.236183
 30
0.0
 11
485.066254
 21
848.942289
 31
0.0
  0
LINE
  5
175
330
16E
100
AcDbEntity
  8
7__7
  6
Continuous
 62
     3
100
AcDbLine
 10
1345.066254
 20
712.594273
 30
0.0
 11
1345.066254
 21
848.942289
 31
0.0
  0
TEXT
  5
176
330
16E
100
AcDbEntity
  8
7__7
  6
Continuous
 62
     3
100
AcDbText
 10
1015.47888
 20
848.779122
 30
0.0
 40
18.0
  1
硝子寸法
 41
0.729528
  7
BIGFONT
 72
     1
 11
1037.052052
 21
848.779122
 31
0.0
100
AcDbText
  0
ENDBLK
  5
170
330
16E
100
AcDbEntity
  8
0
100
AcDbBlockEnd
  0
BLOCK
  5
18F
330
18E
100
AcDbEntity
  8
0
100
AcDbBlockBegin
  2
DIM_4
 70
     0
 10
401.290414
 20
708.714837
 30
0.0
  3
DIM_4
  1

  0
CIRCLE
  5
191
330
18E
100
AcDbEntity
  8
7__7
  6
Continuous
 62
     3
100
AcDbCircle
 10
239.188345
 20
708.714837
 30
0.0
 40
2.4
  0
CIRCLE
  5
192
330
18E
100
AcDbEntity
  8
7__7
  6
Continuous
 62
     3
100
AcDbCircle
 10
239.188345
 20
678.714837
 30
0.0
 40
2.4
  0
LINE
  5
193
330
18E
100
AcDbEntity
  8
7__7
  6
Continuous
 62
     3
100
AcDbLine
 10
239.188345
 20
708.714837
 30
0.0
 11
239.188345
 21
678.714837
 31
0.0
  0
LINE
  5
194
330
18E
100
AcDbEntity
  8
7__7
  6
Continuous
 62
     3
100
AcDbLine
 10
379.400616
 20
678.714837
 30
0.0
 11
233.188345
 21
678.714837
 31
0.0
  0
TEXT
  5
195
330
18E
100
AcDbEntity
  8
7__7
  6
Continuous
 62
     3
100
AcDbText
 10
236.188348
 20
682.790318
 30
0.0
 40
18.0
  1
３０
 50
90.000003
 41
0.772441
 51
0.0
  7
BIGFONT
 72
     1
 11
236.188348
 21
693.71484
 31
0.0
100
AcDbText
  0
ENDBLK
  5
190
330
18E
100
AcDbEntity
  8
0
100
AcDbBlockEnd
  0
BLOCK
  5
219
330
218
100
AcDbEntity
  8
0
100
AcDbBlockBegin
  2
DIM_5
 70
     0
 10
1231.423008
 20
644.00187
 30
0.0
  3
DIM_5
  1

  0
CIRCLE
  5
21B
330
218
100
AcDbEntity
  8
7__7
  6
Continuous
 62
     3
100
AcDbCircle
 10
1228.994435
 20
644.00187
 30
0.0
 40
2.4
  0
CIRCLE
  5
21C
330
218
100
AcDbEntity
  8
7__7
  6
Continuous
 62
     3
100
AcDbCircle
 10
1228.994435
 20
529.001866
 30
0.0
 40
2.4
  0
LINE
  5
21D
330
218
100
AcDbEntity
  8
7__7
  6
Continuous
 62
     3
100
AcDbLine
 10
1228.994435
 20
644.00187
 30
0.0
 11
1228.994435
 21
529.001866
 31
0.0
  0
LINE
  5
21E
330
218
100
AcDbEntity
  8
7__7
  6
Continuous
 62
     3
100
AcDbLine
 10
1231.423008
 20
644.00187
 30
0.0
 11
1234.994435
 21
644.00187
 31
0.0
  0
LINE
  5
21F
330
218
100
AcDbEntity
  8
7__7
  6
Continuous
 62
     3
100
AcDbLine
 10
1228.298008
 20
529.001866
 30
0.0
 11
1234.994435
 21
529.001866
 31
0.0
  0
TEXT
  5
220
330
218
100
AcDbEntity
  8
7__7
  6
Continuous
 62
     3
100
AcDbText
 10
1225.994464
 20
570.243829
 30
0.0
 40
18.0
  1
１１５
 50
90.000003
 41
0.743832
 51
0.0
  7
BIGFONT
 72
     1
 11
1225.994464
 21
586.501872
 31
0.0
100
AcDbText
  0
ENDBLK
  5
21A
330
218
100
AcDbEntity
  8
0
100
AcDbBlockEnd
  0
BLOCK
  5
223
330
222
100
AcDbEntity
  8
0
100
AcDbBlockBegin
  2
DIM_6
 70
     0
 10
1228.298008
 20
529.001866
 30
0.0
  3
DIM_6
  1

  0
CIRCLE
  5
225
330
222
100
AcDbEntity
  8
7__7
  6
Continuous
 62
     3
100
AcDbCircle
 10
1228.994435
 20
529.001866
 30
0.0
 40
2.4
  0
CIRCLE
  5
226
330
222
100
AcDbEntity
  8
7__7
  6
Continuous
 62
     3
100
AcDbCircle
 10
1228.994435
 20
461.00178
 30
0.0
 40
2.4
  0
LINE
  5
227
330
222
100
AcDbEntity
  8
7__7
  6
Continuous
 62
     3
100
AcDbLine
 10
1228.994435
 20
529.001866
 30
0.0
 11
1228.994435
 21
461.00178
 31
0.0
  0
LINE
  5
228
330
222
100
AcDbEntity
  8
7__7
  6
Continuous
 62
     3
100
AcDbLine
 10
1225.619436
 20
461.00178
 30
0.0
 11
1234.994435
 21
461.00178
 31
0.0
  0
TEXT
  5
229
330
222
100
AcDbEntity
  8
7__7
  6
Continuous
 62
     3
100
AcDbText
 10
1225.994464
 20
484.077302
 30
0.0
 40
18.0
  1
６８
 50
90.000003
 41
0.772441
 51
0.0
  7
BIGFONT
 72
     1
 11
1225.994464
 21
495.001824
 31
0.0
100
AcDbText
  0
ENDBLK
  5
224
330
222
100
AcDbEntity
  8
0
100
AcDbBlockEnd
  0
BLOCK
  5
419
330
418
100
AcDbEntity
  8
0
100
AcDbBlockBegin
  2
DIM_7
 70
     0
 10
0.0
 20
0.0
 30
0.0
  3
DIM_7
  1

  0
CIRCLE
  5
41B
330
418
100
AcDbEntity
  8
7__7
  6
Continuous
 62
     3
100
AcDbCircle
 10
2169.556155
 20
1247.386658
 30
0.0
 40
2.4
  0
LINE
  5
41C
330
418
100
AcDbEntity
  8
7__7
  6
Continuous
 62
     3
100
AcDbLine
 10
2169.556155
 20
1247.386658
 30
0.0
 11
2097.306155
 21
1122.245987
 31
0.0
  0
TEXT
  5
41D
330
418
100
AcDbEntity
  8
7__7
  6
Continuous
 62
     3
100
AcDbText
 10
2116.36895
 20
1160.263797
 30
0.0
 40
15.0
  1
Ｒ３００ 以上
 50
60.000002
 41
0.662092
  7
BIGFONT
 72
     1
 11
2131.266025
 21
1186.066288
 31
0.0
100
AcDbText
  0
ENDBLK
  5
41A
330
418
100
AcDbEntity
  8
0
100
AcDbBlockEnd
  0
BLOCK
  5
459
330
458
100
AcDbEntity
  8
0
100
AcDbBlockBegin
  2
DIM_8
 70
     0
 10
2039.255698
 20
1125.419377
 30
0.0
  3
DIM_8
  1

  0
CIRCLE
  5
45B
330
458
100
AcDbEntity
  8
7__7
  6
Continuous
 62
     3
100
AcDbCircle
 10
1941.74841
 20
1125.419377
 30
0.0
 40
3.0
  0
CIRCLE
  5
45C
330
458
100
AcDbEntity
  8
7__7
  6
Continuous
 62
     3
100
AcDbCircle
 10
1941.74841
 20
308.402891
 30
0.0
 40
3.0
  0
LINE
  5
45D
330
458
100
AcDbEntity
  8
7__7
  6
Continuous
 62
     3
100
AcDbLine
 10
1941.74841
 20
1125.419377
 30
0.0
 11
1941.74841
 21
308.402891
 31
0.0
  0
TEXT
  5
45E
330
458
100
AcDbEntity
  8
7__7
  6
Continuous
 62
     3
100
AcDbText
 10
1938.748325
 20
706.795945
 30
0.0
 40
15.0
  1
ＣＨ
 50
90.000003
 41
0.858268
  7
BIGFONT
 72
     1
 11
1938.748325
 21
716.911243
 31
0.0
100
AcDbText
  0
ENDBLK
  5
45A
330
458
100
AcDbEntity
  8
0
100
AcDbBlockEnd
  0
BLOCK
  5
46A
330
469
100
AcDbEntity
  8
0
100
AcDbBlockBegin
  2
DIM_9
 70
     0
 10
2152.637838
 20
686.547265
 30
0.0
  3
DIM_9
  1

  0
CIRCLE
  5
46C
330
469
100
AcDbEntity
  8
7__7
  6
Continuous
 62
     3
100
AcDbCircle
 10
2002.646503
 20
686.547265
 30
0.0
 40
3.0
  0
CIRCLE
  5
46D
330
469
100
AcDbEntity
  8
7__7
  6
Continuous
 62
     3
100
AcDbCircle
 10
2002.646503
 20
308.402891
 30
0.0
 40
3.0
  0
LINE
  5
46E
330
469
100
AcDbEntity
  8
7__7
  6
Continuous
 62
     3
100
AcDbLine
 10
2002.646503
 20
686.547265
 30
0.0
 11
2002.646503
 21
308.402891
 31
0.0
  0
LINE
  5
46F
330
469
100
AcDbEntity
  8
7__7
  6
Continuous
 62
     3
100
AcDbLine
 10
2152.637838
 20
686.547265
 30
0.0
 11
1992.646503
 21
686.547265
 31
0.0
  0
TEXT
  5
470
330
469
100
AcDbEntity
  8
7__7
  6
Continuous
 62
     3
100
AcDbText
 10
1999.646455
 20
470.807474
 30
0.0
 40
15.0
  1
約１２００
 50
90.0
 41
0.858268
  7
BIGFONT
 72
     1
 11
1999.646455
 21
497.475078
 31
0.0
100
AcDbText
  0
ENDBLK
  5
46B
330
469
100
AcDbEntity
  8
0
100
AcDbBlockEnd
  0
BLOCK
  5
479
330
478
100
AcDbEntity
  8
0
100
AcDbBlockBegin
  2
DIM_10
 70
     0
 10
2219.691782
 20
820.797265
 30
0.0
  3
DIM_10
  1

  0
CIRCLE
  5
47B
330
478
100
AcDbEntity
  8
7__7
  6
Continuous
 62
     3
100
AcDbCircle
 10
2129.341782
 20
820.797265
 30
0.0
 40
1.8
  0
CIRCLE
  5
47C
330
478
100
AcDbEntity
  8
7__7
  6
Continuous
 62
     3
100
AcDbCircle
 10
2129.341782
 20
660.797265
 30
0.0
 40
1.8
  0
LINE
  5
47D
330
478
100
AcDbEntity
  8
7__7
  6
Continuous
 62
     3
100
AcDbLine
 10
2129.341782
 20
820.797265
 30
0.0
 11
2129.341782
 21
660.797265
 31
0.0
  0
LINE
  5
47E
330
478
100
AcDbEntity
  8
7__7
  6
Continuous
 62
     3
100
AcDbLine
 10
2219.691782
 20
820.797265
 30
0.0
 11
2128.841782
 21
820.797265
 31
0.0
  0
LINE
  5
47F
330
478
100
AcDbEntity
  8
7__7
  6
Continuous
 62
     3
100
AcDbLine
 10
2219.691782
 20
660.797265
 30
0.0
 11
2128.841782
 21
660.797265
 31
0.0
  0
TEXT
  5
480
330
478
100
AcDbEntity
  8
7__7
  6
Continuous
 62
     3
100
AcDbText
 10
2127.148084
 20
733.415073
 30
0.0
 40
15.0
  1
３２０
 50
90.000003
 41
0.750092
  7
BIGFONT
100
AcDbText
  0
ENDBLK
  5
47A
330
478
100
AcDbEntity
  8
0
100
AcDbBlockEnd
  0
BLOCK
  5
483
330
482
100
AcDbEntity
  8
0
100
AcDbBlockBegin
  2
DIM_11
 70
     0
 10
2264.507288
 20
665.797265
 30
0.0
  3
DIM_11
  1

  0
CIRCLE
  5
485
330
482
100
AcDbEntity
  8
7__7
  6
Continuous
 62
     3
100
AcDbCircle
 10
2321.225443
 20
665.797265
 30
0.0
 40
1.8
  0
CIRCLE
  5
486
330
482
100
AcDbEntity
  8
7__7
  6
Continuous
 62
     3
100
AcDbCircle
 10
2321.225443
 20
815.797265
 30
0.0
 40
1.8
  0
LINE
  5
487
330
482
100
AcDbEntity
  8
7__7
  6
Continuous
 62
     3
100
AcDbLine
 10
2321.225443
 20
665.797265
 30
0.0
 11
2321.225443
 21
815.797265
 31
0.0
  0
LINE
  5
488
330
482
100
AcDbEntity
  8
7__7
  6
Continuous
 62
     3
100
AcDbLine
 10
2264.507288
 20
665.797265
 30
0.0
 11
2326.225443
 21
665.797265
 31
0.0
  0
LINE
  5
489
330
482
100
AcDbEntity
  8
7__7
  6
Continuous
 62
     3
100
AcDbLine
 10
2264.507288
 20
815.797265
 30
0.0
 11
2326.225443
 21
815.797265
 31
0.0
  0
TEXT
  5
48A
330
482
100
AcDbEntity
  8
7__7
  6
Continuous
 62
     3
100
AcDbText
 10
2319.680311
 20
723.698503
 30
0.0
 40
15.0
  1
３００
 50
90.000003
 41
0.750092
  7
BIGFONT
100
AcDbText
  0
ENDBLK
  5
484
330
482
100
AcDbEntity
  8
0
100
AcDbBlockEnd
  0
BLOCK
  5
48D
330
48C
100
AcDbEntity
  8
0
100
AcDbBlockBegin
  2
DIM_12
 70
     0
 10
2224.078247
 20
654.953375
 30
0.0
  3
DIM_12
  1

  0
CIRCLE
  5
48F
330
48C
100
AcDbEntity
  8
7__7
  6
Continuous
 62
     3
100
AcDbCircle
 10
2224.078247
 20
580.453375
 30
0.0
 40
1.8
  0
CIRCLE
  5
490
330
48C
100
AcDbEntity
  8
7__7
  6
Continuous
 62
     3
100
AcDbCircle
 10
2226.578247
 20
580.453375
 30
0.0
 40
1.8
  0
LINE
  5
491
330
48C
100
AcDbEntity
  8
7__7
  6
Continuous
 62
     3
100
AcDbLine
 10
2224.078247
 20
580.453375
 30
0.0
 11
2226.578247
 21
580.453375
 31
0.0
  0
LINE
  5
492
330
48C
100
AcDbEntity
  8
7__7
  6
Continuous
 62
     3
100
AcDbLine
 10
2224.078247
 20
654.953375
 30
0.0
 11
2224.078247
 21
579.953375
 31
0.0
  0
TEXT
  5
493
330
48C
100
AcDbEntity
  8
7__7
  6
Continuous
 62
     3
100
AcDbText
 10
2211.366688
 20
574.416218
 30
0.0
 40
15.0
  1
５
 41
0.858268
  7
BIGFONT
 72
     1
 11
2215.964551
 21
581.916218
 31
0.0
100
AcDbText
 73
     2
  0
ENDBLK
  5
48E
330
48C
100
AcDbEntity
  8
0
100
AcDbBlockEnd
  0
BLOCK
  5
496
330
495
100
AcDbEntity
  8
0
100
AcDbBlockBegin
  2
DIM_13
 70
     0
 10
2261.578247
 20
659.953375
 30
0.0
  3
DIM_13
  1

  0
CIRCLE
  5
498
330
495
100
AcDbEntity
  8
7__7
  6
Continuous
 62
     3
100
AcDbCircle
 10
2261.578247
 20
580.453375
 30
0.0
 40
1.8
  0
CIRCLE
  5
499
330
495
100
AcDbEntity
  8
7__7
  6
Continuous
 62
     3
100
AcDbCircle
 10
2226.578247
 20
580.453375
 30
0.0
 40
1.8
  0
LINE
  5
49A
330
495
100
AcDbEntity
  8
7__7
  6
Continuous
 62
     3
100
AcDbLine
 10
2261.578247
 20
580.453375
 30
0.0
 11
2226.578247
 21
580.453375
 31
0.0
  0
LINE
  5
49B
330
495
100
AcDbEntity
  8
7__7
  6
Continuous
 62
     3
100
AcDbLine
 10
2261.578247
 20
659.953375
 30
0.0
 11
2261.578247
 21
579.953375
 31
0.0
  0
TEXT
  5
49C
330
495
100
AcDbEntity
  8
7__7
  6
Continuous
 62
     3
100
AcDbText
 10
2235.6572
 20
583.294493
 30
0.0
 40
15.0
  1
７０
 41
0.777136
  7
BIGFONT
100
AcDbText
  0
ENDBLK
  5
497
330
495
100
AcDbEntity
  8
0
100
AcDbBlockEnd
  0
BLOCK
  5
49F
330
49E
100
AcDbEntity
  8
0
100
AcDbBlockBegin
  2
DIM_14
 70
     0
 10
2355.5313
 20
657.57672
 30
0.0
  3
DIM_14
  1

  0
CIRCLE
  5
4A1
330
49E
100
AcDbEntity
  8
7__7
  6
Continuous
 62
     3
100
AcDbCircle
 10
2355.5313
 20
585.797265
 30
0.0
 40
1.8
  0
CIRCLE
  5
4A2
330
49E
100
AcDbEntity
  8
7__7
  6
Continuous
 62
     3
100
AcDbCircle
 10
2420.5313
 20
585.797265
 30
0.0
 40
1.8
  0
LINE
  5
4A3
330
49E
100
AcDbEntity
  8
7__7
  6
Continuous
 62
     3
100
AcDbLine
 10
2355.5313
 20
585.797265
 30
0.0
 11
2420.5313
 21
585.797265
 31
0.0
  0
LINE
  5
4A4
330
49E
100
AcDbEntity
  8
7__7
  6
Continuous
 62
     3
100
AcDbLine
 10
2355.5313
 20
657.57672
 30
0.0
 11
2355.5313
 21
580.797265
 31
0.0
  0
LINE
  5
4A5
330
49E
100
AcDbEntity
  8
7__7
  6
Continuous
 62
     3
100
AcDbLine
 10
2420.5313
 20
657.57672
 30
0.0
 11
2420.5313
 21
580.797265
 31
0.0
  0
TEXT
  5
4A6
330
49E
100
AcDbEntity
  8
7__7
  6
Continuous
 62
     3
100
AcDbText
 10
2369.636826
 20
586.695063
 30
0.0
 40
15.0
  1
１３０
 41
0.750092
  7
BIGFONT
100
AcDbText
  0
ENDBLK
  5
4A0
330
49E
100
AcDbEntity
  8
0
100
AcDbBlockEnd
  0
BLOCK
  5
4FE
330
4FD
100
AcDbEntity
  8
0
100
AcDbBlockBegin
  2
DIM_15
 70
     0
 10
2360.5313
 20
823.141729
 30
0.0
  3
DIM_15
  1

  0
CIRCLE
  5
500
330
4FD
100
AcDbEntity
  8
7__7
  6
Continuous
 62
     3
100
AcDbCircle
 10
2360.5313
 20
897.373519
 30
0.0
 40
3.0
  0
CIRCLE
  5
501
330
4FD
100
AcDbEntity
  8
7__7
  6
Continuous
 62
     3
100
AcDbCircle
 10
2415.5313
 20
897.373519
 30
0.0
 40
3.0
  0
LINE
  5
502
330
4FD
100
AcDbEntity
  8
7__7
  6
Continuous
 62
     3
100
AcDbLine
 10
2360.5313
 20
897.373519
 30
0.0
 11
2415.5313
 21
897.373519
 31
0.0
  0
LINE
  5
503
330
4FD
100
AcDbEntity
  8
7__7
  6
Continuous
 62
     3
100
AcDbLine
 10
2360.5313
 20
823.141729
 30
0.0
 11
2360.5313
 21
902.373519
 31
0.0
  0
LINE
  5
504
330
4FD
100
AcDbEntity
  8
7__7
  6
Continuous
 62
     3
100
AcDbLine
 10
2415.5313
 20
822.364433
 30
0.0
 11
2415.5313
 21
902.373519
 31
0.0
  0
TEXT
  5
505
330
4FD
100
AcDbEntity
  8
7__7
  6
Continuous
 62
     3
100
AcDbText
 10
2382.347958
 20
904.537296
 30
0.0
 40
15.0
  1
１１０
 41
0.858268
 51
0.0
  7
BIGFONT
 72
     1
 11
2397.980691
 21
912.037296
 31
0.0
100
AcDbText
 73
     2
  0
ENDBLK
  5
4FF
330
4FD
100
AcDbEntity
  8
0
100
AcDbBlockEnd
  0
BLOCK
  5
508
330
507
100
AcDbEntity
  8
0
100
AcDbBlockBegin
  2
DIM_16
 70
     0
 10
2360.5313
 20
858.897356
 30
0.0
  3
DIM_16
  1

  0
CIRCLE
  5
50A
330
507
100
AcDbEntity
  8
7__7
  6
Continuous
 62
     3
100
AcDbCircle
 10
2360.5313
 20
858.12006
 30
0.0
 40
3.0
  0
CIRCLE
  5
50B
330
507
100
AcDbEntity
  8
7__7
  6
Continuous
 62
     3
100
AcDbCircle
 10
2373.0313
 20
858.12006
 30
0.0
 40
3.0
  0
LINE
  5
50C
330
507
100
AcDbEntity
  8
7__7
  6
Continuous
 62
     3
100
AcDbLine
 10
2360.5313
 20
858.12006
 30
0.0
 11
2373.0313
 21
858.12006
 31
0.0
  0
LINE
  5
50D
330
507
100
AcDbEntity
  8
7__7
  6
Continuous
 62
     3
100
AcDbLine
 10
2360.5313
 20
858.897356
 30
0.0
 11
2360.5313
 21
853.12006
 31
0.0
  0
LINE
  5
50E
330
507
100
AcDbEntity
  8
7__7
  6
Continuous
 62
     3
100
AcDbLine
 10
2373.0313
 20
858.897356
 30
0.0
 11
2373.0313
 21
853.12006
 31
0.0
  0
TEXT
  5
50F
330
507
100
AcDbEntity
  8
7__7
  6
Continuous
 62
     3
100
AcDbText
 10
2336.456301
 20
853.158016
 30
0.0
 40
15.0
  1
２５
 41
0.858268
 51
0.0
  7
BIGFONT
 72
     1
 11
2346.571599
 21
860.658016
 31
0.0
100
AcDbText
 73
     2
  0
ENDBLK
  5
509
330
507
100
AcDbEntity
  8
0
100
AcDbBlockEnd
  0
BLOCK
  5
51B
330
51A
100
AcDbEntity
  8
0
100
AcDbBlockBegin
  2
DIM_17
 70
     0
 10
2247.578247
 20
877.201105
 30
0.0
  3
DIM_17
  1

  0
CIRCLE
  5
51D
330
51A
100
AcDbEntity
  8
7__7
  6
Continuous
 62
     3
100
AcDbCircle
 10
2247.578247
 20
872.84825
 30
0.0
 40
3.0
  0
CIRCLE
  5
51E
330
51A
100
AcDbEntity
  8
7__7
  6
Continuous
 62
     3
100
AcDbCircle
 10
2261.578247
 20
872.84825
 30
0.0
 40
3.0
  0
LINE
  5
51F
330
51A
100
AcDbEntity
  8
7__7
  6
Continuous
 62
     3
100
AcDbLine
 10
2247.578247
 20
872.84825
 30
0.0
 11
2261.578247
 21
872.84825
 31
0.0
  0
LINE
  5
520
330
51A
100
AcDbEntity
  8
7__7
  6
Continuous
 62
     3
100
AcDbLine
 10
2247.578247
 20
877.201105
 30
0.0
 11
2247.578247
 21
867.84825
 31
0.0
  0
LINE
  5
521
330
51A
100
AcDbEntity
  8
7__7
  6
Continuous
 62
     3
100
AcDbLine
 10
2261.578247
 20
820.303074
 30
0.0
 11
2261.578247
 21
877.84825
 31
0.0
  0
TEXT
  5
522
330
51A
100
AcDbEntity
  8
7__7
  6
Continuous
 62
     3
100
AcDbText
 10
2255.345086
 20
878.068785
 30
0.0
 40
15.0
  1
２８
 41
0.858268
 51
0.0
  7
BIGFONT
 72
     1
 11
2265.460384
 21
885.568785
 31
0.0
100
AcDbText
 73
     2
  0
ENDBLK
  5
51C
330
51A
100
AcDbEntity
  8
0
100
AcDbBlockEnd
  0
BLOCK
  5
54D
330
54C
100
AcDbEntity
  8
0
100
AcDbBlockBegin
  2
DIM_18
 70
     0
 10
330.066254
 20
303.342562
 30
0.0
  3
DIM_18
  1

  0
CIRCLE
  5
54F
330
54C
100
AcDbEntity
  8
7__7
  6
Continuous
 62
     3
100
AcDbCircle
 10
330.066254
 20
314.638558
 30
0.0
 40
2.4
  0
CIRCLE
  5
550
330
54C
100
AcDbEntity
  8
7__7
  6
Continuous
 62
     3
100
AcDbCircle
 10
495.066254
 20
314.638558
 30
0.0
 40
2.4
  0
LINE
  5
551
330
54C
100
AcDbEntity
  8
7__7
  6
Continuous
 62
     3
100
AcDbLine
 10
330.066254
 20
314.638558
 30
0.0
 11
495.066254
 21
314.638558
 31
0.0
  0
LINE
  5
552
330
54C
100
AcDbEntity
  8
7__7
  6
Continuous
 62
     3
100
AcDbLine
 10
330.066254
 20
303.342562
 30
0.0
 11
330.066254
 21
320.638558
 31
0.0
  0
LINE
  5
553
330
54C
100
AcDbEntity
  8
7__7
  6
Continuous
 62
     3
100
AcDbLine
 10
495.066254
 20
454.157841
 30
0.0
 11
495.066254
 21
308.638558
 31
0.0
  0
TEXT
  5
554
330
54C
100
AcDbEntity
  8
7__7
  6
Continuous
 62
     3
100
AcDbText
 10
383.622698
 20
317.638549
 30
0.0
 40
18.0
  1
１６５
 41
0.743832
 51
0.0
  7
BIGFONT
 72
     1
 11
399.88074
 21
326.638549
 31
0.0
100
AcDbText
 73
     2
  0
ENDBLK
  5
54E
330
54C
100
AcDbEntity
  8
0
100
AcDbBlockEnd
  0
BLOCK
  5
557
330
556
100
AcDbEntity
  8
0
100
AcDbBlockBegin
  2
DIM_19
 70
     0
 10
1335.066254
 20
334.443129
 30
0.0
  3
DIM_19
  1

  0
CIRCLE
  5
559
330
556
100
AcDbEntity
  8
7__7
  6
Continuous
 62
     3
100
AcDbCircle
 10
1335.066254
 20
314.638558
 30
0.0
 40
2.4
  0
CIRCLE
  5
55A
330
556
100
AcDbEntity
  8
7__7
  6
Continuous
 62
     3
100
AcDbCircle
 10
1500.066254
 20
314.638558
 30
0.0
 40
2.4
  0
LINE
  5
55B
330
556
100
AcDbEntity
  8
7__7
  6
Continuous
 62
     3
100
AcDbLine
 10
1335.066254
 20
314.638558
 30
0.0
 11
1500.066254
 21
314.638558
 31
0.0
  0
LINE
  5
55C
330
556
100
AcDbEntity
  8
7__7
  6
Continuous
 62
     3
100
AcDbLine
 10
1335.066254
 20
334.443129
 30
0.0
 11
1335.066254
 21
308.638558
 31
0.0
  0
LINE
  5
55D
330
556
100
AcDbEntity
  8
7__7
  6
Continuous
 62
     3
100
AcDbLine
 10
1500.066254
 20
301.968427
 30
0.0
 11
1500.066254
 21
320.638558
 31
0.0
  0
TEXT
  5
55E
330
556
100
AcDbEntity
  8
7__7
  6
Continuous
 62
     3
100
AcDbText
 10
1415.299555
 20
316.300735
 30
0.0
 40
18.0
  1
１６５
 41
0.743832
 51
0.0
  7
BIGFONT
 72
     1
 11
1431.557598
 21
325.300735
 31
0.0
100
AcDbText
 73
     2
  0
ENDBLK
  5
558
330
556
100
AcDbEntity
  8
0
100
AcDbBlockEnd
  0
BLOCK
  5
561
330
560
100
AcDbEntity
  8
0
100
AcDbBlockBegin
  2
DIM_20
 70
     0
 10
315.066254
 20
401.178218
 30
0.0
  3
DIM_20
  1

  0
CIRCLE
  5
563
330
560
100
AcDbEntity
  8
7__7
  6
Continuous
 62
     3
100
AcDbCircle
 10
315.066254
 20
314.638558
 30
0.0
 40
2.4
  0
LINE
  5
564
330
560
100
AcDbEntity
  8
7__7
  6
Continuous
 62
     3
100
AcDbLine
 10
315.066254
 20
314.638558
 30
0.0
 11
330.066254
 21
314.638558
 31
0.0
  0
LINE
  5
565
330
560
100
AcDbEntity
  8
7__7
  6
Continuous
 62
     3
100
AcDbLine
 10
315.066254
 20
401.178218
 30
0.0
 11
315.066254
 21
308.638558
 31
0.0
  0
LINE
  5
566
330
560
100
AcDbEntity
  8
7__7
  6
Continuous
 62
     3
100
AcDbLine
 10
330.066254
 20
320.09954
 30
0.0
 11
330.066254
 21
308.638558
 31
0.0
  0
TEXT
  5
567
330
560
100
AcDbEntity
  8
7__7
  6
Continuous
 62
     3
100
AcDbText
 10
290.374842
 20
314.919224
 30
0.0
 40
18.0
  1
１５
 41
0.772441
  7
BIGFONT
 72
     1
 11
301.299364
 21
323.919224
 31
0.0
100
AcDbText
 73
     2
  0
ENDBLK
  5
562
330
560
100
AcDbEntity
  8
0
100
AcDbBlockEnd
  0
BLOCK
  5
56A
330
569
100
AcDbEntity
  8
0
100
AcDbBlockBegin
  2
DIM_21
 70
     0
 10
1515.066254
 20
401.329036
 30
0.0
  3
DIM_21
  1

  0
CIRCLE
  5
56C
330
569
100
AcDbEntity
  8
7__7
  6
Continuous
 62
     3
100
AcDbCircle
 10
1515.066254
 20
314.638558
 30
0.0
 40
2.4
  0
LINE
  5
56D
330
569
100
AcDbEntity
  8
7__7
  6
Continuous
 62
     3
100
AcDbLine
 10
1515.066254
 20
314.638558
 30
0.0
 11
1500.066254
 21
314.638558
 31
0.0
  0
LINE
  5
56E
330
569
100
AcDbEntity
  8
7__7
  6
Continuous
 62
     3
100
AcDbLine
 10
1515.066254
 20
401.329036
 30
0.0
 11
1515.066254
 21
308.638558
 31
0.0
  0
LINE
  5
56F
330
569
100
AcDbEntity
  8
7__7
  6
Continuous
 62
     3
100
AcDbLine
 10
1500.066254
 20
306.935841
 30
0.0
 11
1500.066254
 21
320.638558
 31
0.0
  0
TEXT
  5
570
330
569
100
AcDbEntity
  8
7__7
  6
Continuous
 62
     3
100
AcDbText
 10
1519.923367
 20
316.536805
 30
0.0
 40
18.0
  1
１５
 41
0.772441
 51
0.0
  7
BIGFONT
 72
     1
 11
1530.847889
 21
325.536805
 31
0.0
100
AcDbText
 73
     2
  0
ENDBLK
  5
56B
330
569
100
AcDbEntity
  8
0
100
AcDbBlockEnd
  0
BLOCK
  5
605
330
604
100
AcDbEntity
  8
0
100
AcDbBlockBegin
  2
DIM_22
 70
     0
 10
430.066254
 20
181.530399
 30
0.0
  3
DIM_22
  1

  0
CIRCLE
  5
607
330
604
100
AcDbEntity
  8
7__7
  6
Continuous
 62
     3
100
AcDbCircle
 10
430.066254
 20
179.781478
 30
0.0
 40
3.0
  0
CIRCLE
  5
608
330
604
100
AcDbEntity
  8
7__7
  6
Continuous
 62
     3
100
AcDbCircle
 10
490.066254
 20
179.781478
 30
0.0
 40
3.0
  0
LINE
  5
609
330
604
100
AcDbEntity
  8
7__7
  6
Continuous
 62
     3
100
AcDbLine
 10
430.066254
 20
179.781478
 30
0.0
 11
490.066254
 21
179.781478
 31
0.0
  0
LINE
  5
60A
330
604
100
AcDbEntity
  8
7__7
  6
Continuous
 62
     3
100
AcDbLine
 10
430.066254
 20
181.530399
 30
0.0
 11
430.066254
 21
173.781478
 31
0.0
  0
LINE
  5
60B
330
604
100
AcDbEntity
  8
7__7
  6
Continuous
 62
     3
100
AcDbLine
 10
490.066254
 20
181.530399
 30
0.0
 11
490.066254
 21
173.781478
 31
0.0
  0
TEXT
  5
60C
330
604
100
AcDbEntity
  8
7__7
  6
Continuous
 62
     3
100
AcDbText
 10
447.927896
 20
182.781478
 30
0.0
 40
18.0
  1
６０
 41
0.858268
 51
0.0
  7
BIGFONT
 72
     1
 11
460.066254
 21
182.781478
 31
0.0
100
AcDbText
  0
ENDBLK
  5
606
330
604
100
AcDbEntity
  8
0
100
AcDbBlockEnd
  0
BLOCK
  5
60F
330
60E
100
AcDbEntity
  8
0
100
AcDbBlockBegin
  2
DIM_23
 70
     0
 10
430.066254
 20
235.660389
 30
0.0
  3
DIM_23
  1

  0
CIRCLE
  5
611
330
60E
100
AcDbEntity
  8
7__7
  6
Continuous
 62
     3
100
AcDbCircle
 10
430.066254
 20
224.27419
 30
0.0
 40
3.0
  0
CIRCLE
  5
612
330
60E
100
AcDbEntity
  8
7__7
  6
Continuous
 62
     3
100
AcDbCircle
 10
1400.066254
 20
224.27419
 30
0.0
 40
3.0
  0
LINE
  5
613
330
60E
100
AcDbEntity
  8
7__7
  6
Continuous
 62
     3
100
AcDbLine
 10
430.066254
 20
224.27419
 30
0.0
 11
1400.066254
 21
224.27419
 31
0.0
  0
LINE
  5
614
330
60E
100
AcDbEntity
  8
7__7
  6
Continuous
 62
     3
100
AcDbLine
 10
430.066254
 20
235.660389
 30
0.0
 11
430.066254
 21
218.27419
 31
0.0
  0
LINE
  5
615
330
60E
100
AcDbEntity
  8
7__7
  6
Continuous
 62
     3
100
AcDbLine
 10
1400.066254
 20
229.96729
 30
0.0
 11
1400.066254
 21
218.27419
 31
0.0
  0
TEXT
  5
616
330
60E
100
AcDbEntity
  8
7__7
  6
Continuous
 62
     3
100
AcDbText
 10
896.848275
 20
227.27419
 30
0.0
 40
18.0
  1
Ｊ　躯体内径
 41
0.858268
  7
BIGFONT
 72
     1
 11
935.470323
 21
236.27419
 31
0.0
100
AcDbText
 73
     2
  0
ENDBLK
  5
610
330
60E
100
AcDbEntity
  8
0
100
AcDbBlockEnd
  0
ENDSEC
  0
SECTION
  2
ENTITIES
  0
LINE
  5
4F
330
1F
100
AcDbEntity
  8
1__1
  6
PLine2
 62
     3
100
AcDbLine
 10
502.093774
 20
615.321755
 30
0.0
 11
502.093774
 21
539.211774
 31
0.0
  0
LINE
  5
50
330
1F
100
AcDbEntity
  8
1__1
  6
PLine2
 62
     3
100
AcDbLine
 10
915.066254
 20
382.973461
 30
0.0
 11
915.066254
 21
1169.818387
 31
0.0
  0
LINE
  5
51
330
1F
100
AcDbEntity
  8
1__1
  6
Continuous
 62
     3
100
AcDbLine
 10
502.066254
 20
689.108021
 30
0.0
 11
416.566254
 21
689.108021
 31
0.0
  0
LINE
  5
52
330
1F
100
AcDbEntity
  8
1__1
  6
Continuous
 62
     3
100
AcDbLine
 10
1328.066254
 20
689.108021
 30
0.0
 11
1413.566254
 21
689.108021
 31
0.0
  0
LINE
  5
53
330
1F
100
AcDbEntity
  8
1__1
  6
PLine1
 62
     4
100
AcDbLine
 10
798.012545
 20
1376.981241
 30
0.0
 11
840.76325
 21
1451.026006
 31
0.0
  0
TEXT
  5
56
330
1F
100
AcDbEntity
  8
3__3
  6
Continuous
 62
     3
100
AcDbText
 10
238.03252
 20
906.340059
 30
0.0
 40
18.0
  1
Ｈ
 50
90.000003
 41
0.858268
  7
BIGFONT
 72
     1
 11
238.03252
 21
911.857494
 31
0.0
100
AcDbText
  0
TEXT
  5
79
330
1F
100
AcDbEntity
  8
3__3
  6
Continuous
 62
     3
100
AcDbText
 10
962.312418
 20
919.364178
 30
0.0
 40
18.0
  1
Ａ
 41
0.858268
  7
BIGFONT
 72
     1
 11
967.829854
 21
919.364178
 31
0.0
100
AcDbText
  0
TEXT
  5
7A
330
1F
100
AcDbEntity
  8
3__3
  6
Continuous
 62
     3
100
AcDbText
 10
982.012654
 20
919.4289
 30
0.0
 40
18.0
  1
ト゛ーム寸法
 41
0.858268
  7
BIGFONT
100
AcDbText
  0
TEXT
  5
7B
330
1F
100
AcDbEntity
  8
3__3
  6
Continuous
 62
     3
100
AcDbText
 10
572.641972
 20
777.906048
 30
0.0
 40
18.0
  1
開閉角度　６０°
 41
0.858268
  7
BIGFONT
100
AcDbText
  0
ARC
  5
7D
330
1F
100
AcDbEntity
  8
5__5
  6
Continuous
 62
     6
100
AcDbCircle
 10
432.510557
 20
649.215397
 30
0.0
 40
2.999879999997562
100
AcDbArc
 50
0.0
 51
90.0
  0
ARC
  5
7E
330
1F
100
AcDbEntity
  8
5__5
  6
Continuous
 62
     6
100
AcDbCircle
 10
432.509557
 20
641.785683
 30
0.0
 40
2.999880000032071
100
AcDbArc
 50
300.266052
 51
0.0
  0
ARC
  5
7F
330
1F
100
AcDbEntity
  8
5__5
  6
Continuous
 62
     6
100
AcDbCircle
 10
432.509557
 20
630.388139
 30
0.0
 40
2.99988000012534
100
AcDbArc
 50
358.675924
 51
50.80331
  0
ARC
  5
80
330
1F
100
AcDbEntity
  8
5__5
  6
Continuous
 62
     6
100
AcDbCircle
 10
432.510557
 20
630.214886
 30
0.0
 40
2.999879999997661
100
AcDbArc
 50
270.0
 51
1.985455
  0
ARC
  5
81
330
1F
100
AcDbEntity
  8
5__5
  6
Continuous
 62
     6
100
AcDbCircle
 10
429.209689
 20
636.881879
 30
0.0
 40
2.999880000075477
100
AcDbArc
 50
117.197182
 51
180.0
  0
ARC
  5
82
330
1F
100
AcDbEntity
  8
5__5
  6
Continuous
 62
     6
100
AcDbCircle
 10
429.210689
 20
636.522894
 30
0.0
 40
2.999880000130918
100
AcDbArc
 50
180.0
 51
230.35582
  0
LINE
  5
83
330
1F
100
AcDbEntity
  8
5__5
  6
Continuous
 62
     6
100
AcDbLine
 10
416.566254
 20
652.214253
 30
0.0
 11
432.510557
 21
652.215277
 31
0.0
  0
LINE
  5
84
330
1F
100
AcDbEntity
  8
5__5
  6
Continuous
 62
     6
100
AcDbLine
 10
435.510437
 20
649.215397
 30
0.0
 11
435.509437
 21
641.785683
 31
0.0
  0
LINE
  5
85
330
1F
100
AcDbEntity
  8
5__5
  6
Continuous
 62
     6
100
AcDbLine
 10
434.021497
 20
639.194787
 30
0.0
 11
430.429889
 21
637.099683
 31
0.0
  0
LINE
  5
86
330
1F
100
AcDbEntity
  8
5__5
  6
Continuous
 62
     6
100
AcDbLine
 10
434.405481
 20
632.713046
 30
0.0
 11
431.405312
 21
635.185653
 31
0.0
  0
LINE
  5
87
330
1F
100
AcDbEntity
  8
5__5
  6
Continuous
 62
     3
100
AcDbLine
 10
431.405312
 20
635.185653
 30
0.0
 11
430.429889
 21
637.099683
 31
0.0
  0
LINE
  5
88
330
1F
100
AcDbEntity
  8
5__5
  6
Continuous
 62
     6
100
AcDbLine
 10
416.966178
 20
627.215006
 30
0.0
 11
432.510557
 21
627.215006
 31
0.0
  0
LINE
  5
89
330
1F
100
AcDbEntity
  8
5__5
  6
Continuous
 62
     6
100
AcDbLine
 10
431.460599
 20
648.315433
 30
0.0
 11
431.460599
 21
641.411698
 31
0.0
  0
LINE
  5
8A
330
1F
100
AcDbEntity
  8
5__5
  6
Continuous
 62
     6
100
AcDbLine
 10
431.460599
 20
641.411698
 30
0.0
 11
427.838744
 21
639.549773
 31
0.0
  0
LINE
  5
8B
330
1F
100
AcDbEntity
  8
5__5
  6
Continuous
 62
     6
100
AcDbLine
 10
431.460599
 20
648.315433
 30
0.0
 11
420.961019
 21
648.315433
 31
0.0
  0
LINE
  5
8C
330
1F
100
AcDbEntity
  8
5__5
  6
Continuous
 62
     6
100
AcDbLine
 10
426.209809
 20
636.881879
 30
0.0
 11
426.210809
 21
636.522894
 31
0.0
  0
LINE
  5
8D
330
1F
100
AcDbEntity
  8
5__5
  6
Continuous
 62
     6
100
AcDbLine
 10
427.296766
 20
634.212986
 30
0.0
 11
429.550343
 21
632.125879
 31
0.0
  0
ARC
  5
8E
330
1F
100
AcDbEntity
  8
5__5
  6
Continuous
 62
     6
100
AcDbCircle
 10
1393.003117
 20
648.188694
 30
0.0
 40
1.00000000013806
100
AcDbArc
 50
180.0
 51
310.244823
  0
LINE
  5
8F
330
1F
100
AcDbEntity
  8
5__5
  6
Continuous
 62
     6
100
AcDbLine
 10
1396.972547
 20
648.242533
 30
0.0
 11
1393.649172
 21
647.425403
 31
0.0
  0
ARC
  5
90
330
1F
100
AcDbEntity
  8
5__5
  6
Continuous
 62
     6
100
AcDbCircle
 10
1398.909309
 20
645.951631
 30
0.0
 40
2.999879999837064
100
AcDbArc
 50
57.692902
 51
130.21167
  0
ARC
  5
91
330
1F
100
AcDbEntity
  8
5__5
  6
Continuous
 62
     6
100
AcDbCircle
 10
1414.301284
 20
643.973596
 30
0.0
 40
1.99991999989992
100
AcDbArc
 50
270.0
 51
8.4826
  0
ARC
  5
92
330
1F
100
AcDbEntity
  8
5__5
  6
Continuous
 62
     6
100
AcDbCircle
 10
1394.003037
 20
654.60217
 30
0.0
 40
1.999920000084994
100
AcDbArc
 50
90.0
 51
180.0
  0
LINE
  5
93
330
1F
100
AcDbEntity
  8
5__5
  6
Continuous
 62
     6
100
AcDbLine
 10
1388.566254
 20
646.002514
 30
0.0
 11
1388.537887
 21
644.003442
 31
0.0
  0
ARC
  5
94
330
1F
100
AcDbEntity
  8
5__5
  6
Continuous
 62
     6
100
AcDbCircle
 10
1390.537685
 20
643.975065
 30
0.0
 40
1.999999999981201
100
AcDbArc
 50
179.187009
 51
269.97787
  0
LINE
  5
95
330
1F
100
AcDbEntity
  8
5__5
  6
Continuous
 62
     6
100
AcDbLine
 10
1390.536913
 20
641.975065
 30
0.0
 11
1393.402846
 21
641.973958
 31
0.0
  0
LINE
  5
96
330
1F
100
AcDbEntity
  8
5__5
  6
Continuous
 62
     6
100
AcDbLine
 10
1388.566254
 20
659.714966
 30
0.0
 11
1388.566254
 21
645.716526
 31
0.0
  0
LINE
  5
97
330
1F
100
AcDbEntity
  8
5__5
  6
Continuous
 62
     6
100
AcDbLine
 10
1394.003037
 20
656.60209
 30
0.0
 11
1408.65751
 21
656.601091
 31
0.0
  0
ARC
  5
98
330
1F
100
AcDbEntity
  8
5__5
  6
Continuous
 62
     6
100
AcDbCircle
 10
1403.689615
 20
642.974786
 30
0.0
 40
0.999999998686244
100
AcDbArc
 50
240.774358
 51
269.994002
  0
LINE
  5
99
330
1F
100
AcDbEntity
  8
5__5
  6
Continuous
 62
     6
100
AcDbLine
 10
1400.2439
 20
643.756691
 30
0.0
 11
1403.201365
 21
642.102083
 31
0.0
  0
LINE
  5
9A
330
1F
100
AcDbEntity
  8
5__5
  6
Continuous
 62
     6
100
AcDbLine
 10
1414.301284
 20
641.973676
 30
0.0
 11
1403.68951
 21
641.974786
 31
0.0
  0
LINE
  5
9B
330
1F
100
AcDbEntity
  8
5__5
  6
Continuous
 62
     6
100
AcDbLine
 10
1404.62208
 20
645.890634
 30
0.0
 11
1400.512245
 21
648.48653
 31
0.0
  0
ARC
  5
9C
330
1F
100
AcDbEntity
  8
5__5
  6
Continuous
 62
     6
100
AcDbCircle
 10
1411.758599
 20
646.892233
 30
0.0
 40
0.9999999998138835
100
AcDbArc
 50
270.008589
 51
9.110101
  0
LINE
  5
9D
330
1F
100
AcDbEntity
  8
5__5
  6
Continuous
 62
     6
100
AcDbLine
 10
1404.621243
 20
645.891163
 30
0.0
 11
1411.758749
 21
645.892233
 31
0.0
  0
LINE
  5
9E
330
1F
100
AcDbEntity
  8
5__5
  6
Continuous
 62
     6
100
AcDbLine
 10
1411.619391
 20
654.076192
 30
0.0
 11
1412.745985
 21
647.050565
 31
0.0
  0
LINE
  5
9F
330
1F
100
AcDbEntity
  8
5__5
  6
Continuous
 62
     6
100
AcDbLine
 10
1392.003117
 20
654.60217
 30
0.0
 11
1392.003117
 21
648.188694
 31
0.0
  0
LINE
  5
A0
330
1F
100
AcDbEntity
  8
5__5
  6
Continuous
 62
     6
100
AcDbLine
 10
420.960019
 20
631.240845
 30
0.0
 11
420.961019
 21
648.315433
 31
0.0
  0
ARC
  5
A1
330
1F
100
AcDbEntity
  8
5__5
  6
Continuous
 62
     6
100
AcDbCircle
 10
429.231362
 20
631.740845
 30
0.0
 40
0.5000000000376216
100
AcDbArc
 50
270.0
 51
50.359887
  0
LINE
  5
A2
330
1F
100
AcDbEntity
  8
5__5
  6
Continuous
 62
     6
100
AcDbLine
 10
420.960019
 20
631.240845
 30
0.0
 11
429.231362
 21
631.240845
 31
0.0
  0
ARC
  5
A3
330
1F
100
AcDbEntity
  8
5__5
  6
Continuous
 62
     6
100
AcDbCircle
 10
1408.65751
 20
653.601211
 30
0.0
 40
2.999879999845499
100
AcDbArc
 50
9.110645
 51
90.0
  0
LINE
  5
A5
330
1F
100
AcDbEntity
  8
6__6
  6
PLine2
 62
     3
100
AcDbLine
 10
440.647232
 20
573.999351
 30
0.0
 11
545.642032
 21
574.000351
 31
0.0
  0
LINE
  5
A6
330
1F
100
AcDbEntity
  8
6__6
  6
PLine2
 62
     3
100
AcDbLine
 10
467.317165
 20
582.798999
 30
0.0
 11
467.317165
 21
550.560289
 31
0.0
  0
LINE
  5
A7
330
1F
100
AcDbEntity
  8
6__6
  6
PLine2
 62
     3
100
AcDbLine
 10
467.317165
 20
582.798999
 30
0.0
 11
467.316165
 21
592.965593
 31
0.0
  0
LINE
  5
A8
330
1F
100
AcDbEntity
  8
6__6
  6
Continuous
 62
     3
100
AcDbLine
 10
467.300166
 20
592.856597
 30
0.0
 11
467.300166
 21
596.636446
 31
0.0
  0
ARC
  5
AA
330
1F
100
AcDbEntity
  8
7__7
  6
Continuous
 62
     3
100
AcDbCircle
 10
444.647072
 20
643.001246
 30
0.0
 40
0.9999600000087615
100
AcDbArc
 50
0.0
 51
120.000725
  0
ARC
  5
AB
330
1F
100
AcDbEntity
  8
7__7
  6
Continuous
 62
     3
100
AcDbCircle
 10
444.647072
 20
621.716486
 30
0.0
 40
0.9999600000033677
100
AcDbArc
 50
270.0
 51
0.0
  0
LINE
  5
AC
330
1F
100
AcDbEntity
  8
7__7
  6
Continuous
 62
     6
100
AcDbLine
 10
430.495598
 20
636.969682
 30
0.0
 11
431.405312
 21
635.185653
 31
0.0
  0
LINE
  5
AD
330
1F
100
AcDbEntity
  8
7__7
  6
Continuous
 62
     3
100
AcDbLine
 10
443.647112
 20
641.269353
 30
0.0
 11
431.405312
 21
635.185653
 31
0.0
  0
LINE
  5
AE
330
1F
100
AcDbEntity
  8
7__7
  6
Continuous
 62
     3
100
AcDbLine
 10
430.495598
 20
636.969682
 30
0.0
 11
444.14707
 21
643.867199
 31
0.0
  0
LINE
  5
AF
330
1F
100
AcDbEntity
  8
7__7
  6
Continuous
 62
     3
100
AcDbLine
 10
443.647112
 20
622.716446
 30
0.0
 11
431.066335
 21
622.717466
 31
0.0
  0
LINE
  5
B0
330
1F
100
AcDbEntity
  8
7__7
  6
Continuous
 62
     3
100
AcDbLine
 10
443.647112
 20
622.716446
 30
0.0
 11
443.647112
 21
641.269353
 31
0.0
  0
ARC
  5
B1
330
1F
100
AcDbEntity
  8
7__7
  6
Continuous
 62
     3
100
AcDbCircle
 10
431.066254
 20
621.717466
 30
0.0
 40
0.9999999999302299
100
AcDbArc
 50
89.995353
 51
180.0
  0
LINE
  5
B2
330
1F
100
AcDbEntity
  8
7__7
  6
Continuous
 62
     3
100
AcDbLine
 10
430.066254
 20
479.001151
 30
0.0
 11
430.066254
 21
621.717466
 31
0.0
  0
LINE
  5
B3
330
1F
100
AcDbEntity
  8
7__7
  6
Continuous
 62
     3
100
AcDbLine
 10
444.647072
 20
620.716526
 30
0.0
 11
432.066174
 21
620.717542
 31
0.0
  0
ARC
  5
B4
330
1F
100
AcDbEntity
  8
7__7
  6
Continuous
 62
     3
100
AcDbCircle
 10
444.647032
 20
643.001151
 30
0.0
 40
0.9999999999706632
100
AcDbArc
 50
0.0
 51
119.997435
  0
LINE
  5
B5
330
1F
100
AcDbEntity
  8
7__7
  6
Continuous
 62
     3
100
AcDbLine
 10
445.647032
 20
643.001151
 30
0.0
 11
445.647032
 21
611.343837
 31
0.0
  0
LINE
  5
B6
330
1F
100
AcDbEntity
  8
7__7
  6
Continuous
 62
     3
100
AcDbLine
 10
432.066174
 20
477.928691
 30
0.0
 11
432.066174
 21
620.717542
 31
0.0
  0
ARC
  5
B7
330
1F
100
AcDbEntity
  8
7__7
  6
Continuous
 62
     3
100
AcDbCircle
 10
504.066254
 20
661.715025
 30
0.0
 40
0.9999999999893139
100
AcDbArc
 50
269.999403
 51
0.0
  0
CIRCLE
  5
B8
330
1F
100
AcDbEntity
  8
7__7
  6
Continuous
 62
     3
100
AcDbCircle
 10
502.029776
 20
573.871356
 30
0.0
 40
29.99880000000005
  0
LINE
  5
B9
330
1F
100
AcDbEntity
  8
7__7
  6
Continuous
 62
     3
100
AcDbLine
 10
1407.252346
 20
637.119877
 30
0.0
 11
1408.252826
 21
638.852702
 31
0.0
  0
LINE
  5
BA
330
1F
100
AcDbEntity
  8
7__7
  6
Continuous
 62
     3
100
AcDbLine
 10
1407.252346
 20
637.119877
 30
0.0
 11
1400.066254
 21
641.268822
 31
0.0
  0
LINE
  5
BB
330
1F
100
AcDbEntity
  8
7__7
  6
Continuous
 62
     3
100
AcDbLine
 10
495.066254
 20
476.004271
 30
0.0
 11
495.066254
 21
462.985792
 31
0.0
  0
ARC
  5
BC
330
1F
100
AcDbEntity
  8
7__7
  6
Continuous
 62
     3
100
AcDbCircle
 10
432.816174
 20
528.251149
 30
0.0
 40
0.7499999998355489
100
AcDbArc
 50
180.0
 51
270.001199
  0
LINE
  5
BD
330
1F
100
AcDbEntity
  8
7__7
  6
Continuous
 62
     3
100
AcDbLine
 10
480.566174
 20
527.502149
 30
0.0
 11
432.81619
 21
527.501149
 31
0.0
  0
LINE
  5
BE
330
1F
100
AcDbEntity
  8
7__7
  6
Continuous
 62
     3
100
AcDbLine
 10
465.365243
 20
498.839358
 30
0.0
 11
495.080054
 21
498.839358
 31
0.0
  0
LINE
  5
BF
330
1F
100
AcDbEntity
  8
7__7
  6
Continuous
 62
     3
100
AcDbLine
 10
495.080054
 20
498.839358
 30
0.0
 11
495.079054
 21
488.28278
 31
0.0
  0
LINE
  5
C0
330
1F
100
AcDbEntity
  8
7__7
  6
Continuous
 62
     3
100
AcDbLine
 10
495.079054
 20
488.28278
 30
0.0
 11
464.974259
 21
488.28278
 31
0.0
  0
LINE
  5
C1
330
1F
100
AcDbEntity
  8
7__7
  6
Continuous
 62
     3
100
AcDbLine
 10
495.066254
 20
476.004271
 30
0.0
 11
493.566254
 21
476.004271
 31
0.0
  0
LINE
  5
C2
330
1F
100
AcDbEntity
  8
7__7
  6
Continuous
 62
     3
100
AcDbLine
 10
495.066254
 20
476.004271
 30
0.0
 11
495.066254
 21
462.004871
 31
0.0
  0
LINE
  5
C3
330
1F
100
AcDbEntity
  8
7__7
  6
Continuous
 62
     3
100
AcDbLine
 10
433.566174
 20
549.001743
 30
0.0
 11
433.566174
 21
529.001152
 31
0.0
  0
LINE
  5
C4
330
1F
100
AcDbEntity
  8
7__7
  6
Continuous
 62
     3
100
AcDbLine
 10
495.079054
 20
498.448374
 30
0.0
 11
495.079054
 21
488.28278
 31
0.0
  0
LINE
  5
C5
330
1F
100
AcDbEntity
  8
7__7
  6
Continuous
 62
     3
100
AcDbLine
 10
475.487353
 20
559.891809
 30
0.0
 11
525.531304
 21
448.770595
 31
0.0
  0
LINE
  5
C6
330
1F
100
AcDbEntity
  8
7__7
  6
Continuous
 62
     3
100
AcDbLine
 10
472.751947
 20
583.54297
 30
0.0
 11
461.870383
 21
583.54297
 31
0.0
  0
LINE
  5
C7
330
1F
100
AcDbEntity
  8
7__7
  6
Continuous
 62
     3
100
AcDbLine
 10
478.261803
 20
573.99971
 30
0.0
 11
472.751947
 21
583.54297
 31
0.0
  0
LINE
  5
C8
330
1F
100
AcDbEntity
  8
7__7
  6
Continuous
 62
     3
100
AcDbLine
 10
456.360407
 20
573.999501
 30
0.0
 11
461.870383
 21
583.54297
 31
0.0
  0
ARC
  5
C9
330
1F
100
AcDbEntity
  8
7__7
  6
Continuous
 62
     3
100
AcDbCircle
 10
481.066214
 20
528.002191
 30
0.0
 40
0.9999600000390301
100
AcDbArc
 50
0.0
 51
90.0
  0
LINE
  5
CA
330
1F
100
AcDbEntity
  8
7__7
  6
Continuous
 62
     3
100
AcDbLine
 10
432.066174
 20
549.00066
 30
0.0
 11
433.566174
 21
549.001743
 31
0.0
  0
LINE
  5
CB
330
1F
100
AcDbEntity
  8
7__7
  6
Continuous
 62
     3
100
AcDbLine
 10
515.644232
 20
529.002151
 30
0.0
 11
433.566174
 21
529.001152
 31
0.0
  0
LINE
  5
CC
330
1F
100
AcDbEntity
  8
7__7
  6
Continuous
 62
     3
100
AcDbLine
 10
465.645232
 20
529.002151
 30
0.0
 11
481.066214
 21
529.002151
 31
0.0
  0
LINE
  5
CD
330
1F
100
AcDbEntity
  8
7__7
  6
Continuous
 62
     3
100
AcDbLine
 10
481.056215
 20
461.004871
 30
0.0
 11
494.047295
 21
461.004871
 31
0.0
  0
LINE
  5
CE
330
1F
100
AcDbEntity
  8
7__7
  6
Continuous
 62
     3
100
AcDbLine
 10
465.645232
 20
529.002151
 30
0.0
 11
558.404521
 21
529.002151
 31
0.0
  0
LINE
  5
CF
330
1F
100
AcDbEntity
  8
7__7
  6
Continuous
 62
     3
100
AcDbLine
 10
465.645232
 20
529.002151
 30
0.0
 11
558.464519
 21
529.002151
 31
0.0
  0
LINE
  5
D0
330
1F
100
AcDbEntity
  8
7__7
  6
Continuous
 62
     3
100
AcDbLine
 10
465.645232
 20
529.002151
 30
0.0
 11
558.464519
 21
529.002151
 31
0.0
  0
LINE
  5
D1
330
1F
100
AcDbEntity
  8
7__7
  6
Continuous
 62
     3
100
AcDbLine
 10
465.645232
 20
529.002151
 30
0.0
 11
558.344524
 21
529.002151
 31
0.0
  0
LINE
  5
D2
330
1F
100
AcDbEntity
  8
7__7
  6
Continuous
 62
     3
100
AcDbLine
 10
465.645232
 20
529.002151
 30
0.0
 11
558.464519
 21
529.002151
 31
0.0
  0
LINE
  5
D3
330
1F
100
AcDbEntity
  8
7__7
  6
Continuous
 62
     3
100
AcDbLine
 10
522.417998
 20
595.877002
 30
0.0
 11
642.351148
 21
487.662629
 31
0.0
  0
ARC
  5
D4
330
1F
100
AcDbEntity
  8
7__7
  6
Continuous
 62
     3
100
AcDbCircle
 10
481.566174
 20
462.004871
 30
0.0
 40
1.000000000108694
100
AcDbArc
 50
180.0
 51
270.0
  0
ARC
  5
D5
330
1F
100
AcDbEntity
  8
7__7
  6
Continuous
 62
     3
100
AcDbCircle
 10
494.066254
 20
462.004871
 30
0.0
 40
1.000000000101881
100
AcDbArc
 50
270.0
 51
0.0
  0
LINE
  5
D6
330
1F
100
AcDbEntity
  8
7__7
  6
Continuous
 62
     3
100
AcDbLine
 10
481.566174
 20
461.004871
 30
0.0
 11
494.066254
 21
461.004871
 31
0.0
  0
LINE
  5
D7
330
1F
100
AcDbEntity
  8
7__7
  6
Continuous
 62
     3
100
AcDbLine
 10
482.066174
 20
528.002191
 30
0.0
 11
482.066174
 21
462.504871
 31
0.0
  0
LINE
  5
D8
330
1F
100
AcDbEntity
  8
7__7
  6
Continuous
 62
     3
100
AcDbLine
 10
465.645232
 20
529.002151
 30
0.0
 11
558.42552
 21
529.001151
 31
0.0
  0
LINE
  5
D9
330
1F
100
AcDbEntity
  8
7__7
  6
Continuous
 62
     3
100
AcDbLine
 10
483.066134
 20
529.002151
 30
0.0
 11
558.365523
 21
529.001151
 31
0.0
  0
ARC
  5
DA
330
1F
100
AcDbEntity
  8
7__7
  6
Continuous
 62
     3
100
AcDbCircle
 10
541.739188
 20
593.999551
 30
0.0
 40
4.99979999999651
100
AcDbArc
 50
0.0
 51
90.011459
  0
LINE
  5
DB
330
1F
100
AcDbEntity
  8
7__7
  6
Continuous
 62
     3
100
AcDbLine
 10
581.779694
 20
529.002151
 30
0.0
 11
560.426427
 21
529.002151
 31
0.0
  0
LINE
  5
DC
330
1F
100
AcDbEntity
  8
7__7
  6
Continuous
 62
     3
100
AcDbLine
 10
1325.066254
 20
690.714957
 30
0.0
 11
416.066254
 21
690.714957
 31
0.0
  0
LINE
  5
DD
330
1F
100
AcDbEntity
  8
7__7
  6
Continuous
 62
     3
100
AcDbLine
 10
620.549708
 20
644.001151
 30
0.0
 11
682.440972
 21
644.001151
 31
0.0
  0
LINE
  5
DE
330
1F
100
AcDbEntity
  8
7__7
  6
Continuous
 62
     3
100
AcDbLine
 10
1294.262871
 20
644.001151
 30
0.0
 11
1388.566254
 21
644.001151
 31
0.0
  0
LINE
  5
DF
330
1F
100
AcDbEntity
  8
7__7
  6
Continuous
 62
     3
100
AcDbLine
 10
1284.000821
 20
644.001151
 30
0.0
 11
713.918223
 21
644.001151
 31
0.0
  0
CIRCLE
  5
E0
330
1F
100
AcDbEntity
  8
7__7
  6
Continuous
 62
     3
100
AcDbCircle
 10
582.269567
 20
568.824558
 30
0.0
 40
24.999
  0
CIRCLE
  5
E1
330
1F
100
AcDbEntity
  8
7__7
  6
Continuous
 62
     3
100
AcDbCircle
 10
582.269567
 20
568.824558
 30
0.0
 40
7.49969999999999
  0
CIRCLE
  5
E2
330
1F
100
AcDbEntity
  8
7__7
  6
Continuous
 62
     3
100
AcDbCircle
 10
582.269567
 20
568.824558
 30
0.0
 40
19.99920000000003
  0
LINE
  5
E3
330
1F
100
AcDbEntity
  8
7__7
  6
Continuous
 62
     3
100
AcDbLine
 10
525.531304
 20
448.770595
 30
0.0
 11
533.587755
 21
452.79882
 31
0.0
  0
LINE
  5
E4
330
1F
100
AcDbEntity
  8
7__7
  6
Continuous
 62
     3
100
AcDbLine
 10
465.645232
 20
529.002151
 30
0.0
 11
558.365523
 21
529.001151
 31
0.0
  0
ARC
  5
E5
330
1F
100
AcDbEntity
  8
7__7
  6
Continuous
 62
     3
100
AcDbCircle
 10
416.066214
 20
626.714162
 30
0.0
 40
0.999960000043974
100
AcDbArc
 50
180.0
 51
270.0
  0
ARC
  5
E6
330
1F
100
AcDbEntity
  8
7__7
  6
Continuous
 62
     3
100
AcDbCircle
 10
559.42548
 20
611.093868
 30
0.0
 40
0.9999599999013241
100
AcDbArc
 50
0.0
 51
90.0
  0
ARC
  5
E7
330
1F
100
AcDbEntity
  8
7__7
  6
Continuous
 62
     3
100
AcDbCircle
 10
1335.843422
 20
539.002003
 30
0.0
 40
9.99960000000974
100
AcDbArc
 50
180.0
 51
270.0
  0
LINE
  5
E8
330
1F
100
AcDbEntity
  8
7__7
  6
Continuous
 62
     3
100
AcDbLine
 10
416.066214
 20
625.714202
 30
0.0
 11
425.760827
 21
625.715215
 31
0.0
  0
LINE
  5
E9
330
1F
100
AcDbEntity
  8
7__7
  6
Continuous
 62
     3
100
AcDbLine
 10
519.158091
 20
529.002151
 30
0.0
 11
480.374242
 21
529.001151
 31
0.0
  0
LINE
  5
EA
330
1F
100
AcDbEntity
  8
7__7
  6
Continuous
 62
     3
100
AcDbLine
 10
445.647032
 20
637.093832
 30
0.0
 11
447.147032
 21
637.093832
 31
0.0
  0
LINE
  5
EB
330
1F
100
AcDbEntity
  8
7__7
  6
Continuous
 62
     3
100
AcDbLine
 10
559.42548
 20
612.092828
 30
0.0
 11
447.147032
 21
612.09383
 31
0.0
  0
LINE
  5
EC
330
1F
100
AcDbEntity
  8
7__7
  6
Continuous
 62
     3
100
AcDbLine
 10
482.007177
 20
508.904955
 30
0.0
 11
483.608112
 21
508.904955
 31
0.0
  0
LINE
  5
ED
330
1F
100
AcDbEntity
  8
7__7
  6
Continuous
 62
     3
100
AcDbLine
 10
483.608112
 20
508.904955
 30
0.0
 11
483.608112
 21
527.502151
 31
0.0
  0
LINE
  5
EE
330
1F
100
AcDbEntity
  8
7__7
  6
Continuous
 62
     3
100
AcDbLine
 10
465.645232
 20
529.002151
 30
0.0
 11
558.383522
 21
529.002151
 31
0.0
  0
LINE
  5
EF
330
1F
100
AcDbEntity
  8
7__7
  6
Continuous
 62
     3
100
AcDbLine
 10
560.42544
 20
611.093868
 30
0.0
 11
560.426436
 21
528.25216
 31
0.0
  0
ARC
  5
F0
330
1F
100
AcDbEntity
  8
7__7
  6
Continuous
 62
     3
100
AcDbCircle
 10
559.676436
 20
528.252151
 30
0.0
 40
0.7499999999623645
100
AcDbArc
 50
270.0
 51
0.000689
  0
LINE
  5
F1
330
1F
100
AcDbEntity
  8
7__7
  6
Continuous
 62
     3
100
AcDbLine
 10
483.608112
 20
527.502151
 30
0.0
 11
559.676436
 21
527.502151
 31
0.0
  0
LINE
  5
F2
330
1F
100
AcDbEntity
  8
7__7
  6
Continuous
 62
     3
100
AcDbLine
 10
583.101206
 20
529.001151
 30
0.0
 11
560.426427
 21
529.001151
 31
0.0
  0
LINE
  5
F3
330
1F
100
AcDbEntity
  8
7__7
  6
Continuous
 62
     3
100
AcDbLine
 10
581.94458
 20
529.001151
 30
0.0
 11
582.003577
 21
529.002151
 31
0.0
  0
LINE
  5
F4
330
1F
100
AcDbEntity
  8
7__7
  6
Continuous
 62
     3
100
AcDbLine
 10
1325.843822
 20
573.687615
 30
0.0
 11
1325.842822
 21
539.002003
 31
0.0
  0
LINE
  5
F5
330
1F
100
AcDbEntity
  8
7__7
  6
Continuous
 62
     3
100
AcDbLine
 10
503.566254
 20
682.276295
 30
0.0
 11
503.566254
 21
689.620001
 31
0.0
  0
ARC
  5
F6
330
1F
100
AcDbEntity
  8
7__7
  6
Continuous
 62
     3
100
AcDbCircle
 10
483.066134
 20
528.002191
 30
0.0
 40
0.9999599999390063
100
AcDbArc
 50
90.0
 51
180.0
  0
LINE
  5
F7
330
1F
100
AcDbEntity
  8
7__7
  6
Continuous
 62
     3
100
AcDbLine
 10
465.645232
 20
529.002151
 30
0.0
 11
481.4082
 21
529.002151
 31
0.0
  0
LINE
  5
F8
330
1F
100
AcDbEntity
  8
7__7
  6
Continuous
 62
     3
100
AcDbLine
 10
441.647192
 20
628.716206
 30
0.0
 11
449.645872
 21
628.716206
 31
0.0
  0
LINE
  5
F9
330
1F
100
AcDbEntity
  8
7__7
  6
Continuous
 62
     3
100
AcDbLine
 10
477.066374
 20
517.002631
 30
0.0
 11
487.065974
 21
517.002631
 31
0.0
  0
LINE
  5
FA
330
1F
100
AcDbEntity
  8
7__7
  6
Continuous
 62
     3
100
AcDbLine
 10
1334.983257
 20
529.001403
 30
0.0
 11
1385.869421
 21
529.003047
 31
0.0
  0
LINE
  5
FB
330
1F
100
AcDbEntity
  8
7__7
  6
Continuous
 62
     3
100
AcDbLine
 10
575.040856
 20
535.198903
 30
0.0
 11
575.035856
 21
535.177904
 31
0.0
  0
LINE
  5
FC
330
1F
100
AcDbEntity
  8
7__7
  6
Continuous
 62
     3
100
AcDbLine
 10
502.066254
 20
662.215011
 30
0.0
 11
502.066254
 21
689.108021
 31
0.0
  0
LINE
  5
FD
330
1F
100
AcDbEntity
  8
7__7
  6
Continuous
 62
     3
100
AcDbLine
 10
503.566254
 20
690.714957
 30
0.0
 11
503.566254
 21
689.488006
 31
0.0
  0
ARC
  5
FE
330
1F
100
AcDbEntity
  8
7__7
  6
Continuous
 62
     3
100
AcDbCircle
 10
417.566254
 20
661.714926
 30
0.0
 40
1.000000000037158
100
AcDbArc
 50
180.0
 51
270.0
  0
LINE
  5
FF
330
1F
100
AcDbEntity
  8
7__7
  6
Continuous
 62
     3
100
AcDbLine
 10
1412.9233
 20
660.715926
 30
0.0
 11
417.566255
 21
660.714926
 31
0.0
  0
ARC
  5
100
330
1F
100
AcDbEntity
  8
7__7
  6
Continuous
 62
     6
100
AcDbCircle
 10
1389.566214
 20
659.714966
 30
0.0
 40
0.9999600000468076
100
AcDbArc
 50
90.0
 51
180.0
  0
ARC
  5
101
330
1F
100
AcDbEntity
  8
7__7
  6
Continuous
 62
     3
100
AcDbCircle
 10
580.265647
 20
556.595048
 30
0.0
 40
19.99919999999971
100
AcDbArc
 50
261.274323
 51
347.200562
  0
ARC
  5
102
330
1F
100
AcDbEntity
  8
7__7
  6
Continuous
 62
     3
100
AcDbCircle
 10
1413.000335
 20
659.714926
 30
0.0
 40
1.000000000211933
100
AcDbArc
 50
8.229517
 51
90.0
  0
LINE
  5
103
330
1F
100
AcDbEntity
  8
7__7
  6
Continuous
 62
     3
100
AcDbLine
 10
1413.566254
 20
662.788224
 30
0.0
 11
1418.92809
 21
625.714957
 31
0.0
  0
ARC
  5
104
330
1F
100
AcDbEntity
  8
7__7
  6
Continuous
 62
     3
100
AcDbCircle
 10
540.966837
 20
597.554367
 30
0.0
 40
9.999999999993571
100
AcDbArc
 50
264.952581
 51
354.725639
  0
LINE
  5
105
330
1F
100
AcDbEntity
  8
7__7
  6
Continuous
 62
     3
100
AcDbLine
 10
468.334124
 20
593.930554
 30
0.0
 11
540.087035
 21
587.593144
 31
0.0
  0
LINE
  5
106
330
1F
100
AcDbEntity
  8
7__7
  6
Continuous
 62
     3
100
AcDbLine
 10
432.473559
 20
598.999351
 30
0.0
 11
541.739188
 21
598.999351
 31
0.0
  0
LINE
  5
107
330
1F
100
AcDbEntity
  8
7__7
  6
Continuous
 62
     3
100
AcDbLine
 10
624.34811
 20
660.714957
 30
0.0
 11
599.270098
 21
550.366177
 31
0.0
  0
LINE
  5
108
330
1F
100
AcDbEntity
  8
7__7
  6
Continuous
 62
     3
100
AcDbLine
 10
577.231768
 20
536.827838
 30
0.0
 11
463.69331
 21
554.260141
 31
0.0
  0
LINE
  5
109
330
1F
100
AcDbEntity
  8
7__7
  6
Continuous
 62
     3
100
AcDbLine
 10
556.840083
 20
660.714957
 30
0.0
 11
550.924497
 21
596.635116
 31
0.0
  0
LINE
  5
10A
330
1F
100
AcDbEntity
  8
7__7
  6
Continuous
 62
     3
100
AcDbLine
 10
1408.252826
 20
638.852702
 30
0.0
 11
1399.566284
 21
643.867206
 31
0.0
  0
LINE
  5
10B
330
1F
100
AcDbEntity
  8
7__7
  6
Continuous
 62
     3
100
AcDbLine
 10
505.066254
 20
690.714957
 30
0.0
 11
505.066254
 21
661.715025
 31
0.0
  0
ARC
  5
10C
330
1F
100
AcDbEntity
  8
7__7
  6
Continuous
 62
     3
100
AcDbCircle
 10
502.573291
 20
689.714997
 30
0.0
 40
0.9999599997953919
100
AcDbArc
 50
0.0
 51
90.0
  0
ARC
  5
10D
330
1F
100
AcDbEntity
  8
7__7
  6
Continuous
 62
     3
100
AcDbCircle
 10
541.739188
 20
593.999551
 30
0.0
 40
4.999799999984853
100
AcDbArc
 50
0.0
 51
90.0
  0
ARC
  5
10E
330
1F
100
AcDbEntity
  8
7__7
  6
Continuous
 62
     3
100
AcDbCircle
 10
467.174171
 20
574.211343
 30
0.0
 40
19.99919999999977
100
AcDbArc
 50
88.896973
 51
259.793549
  0
LINE
  5
10F
330
1F
100
AcDbEntity
  8
7__7
  6
Continuous
 62
     3
100
AcDbLine
 10
513.267897
 20
476.001151
 30
0.0
 11
493.566254
 21
476.001151
 31
0.0
  0
LINE
  5
110
330
1F
100
AcDbEntity
  8
7__7
  6
Continuous
 62
     3
100
AcDbLine
 10
425.760827
 20
627.215215
 30
0.0
 11
425.760827
 21
625.715215
 31
0.0
  0
LINE
  5
111
330
1F
100
AcDbEntity
  8
7__7
  6
Continuous
 62
     3
100
AcDbLine
 10
481.890181
 20
529.001151
 30
0.0
 11
558.926427
 21
529.001151
 31
0.0
  0
CIRCLE
  5
112
330
1F
100
AcDbEntity
  8
7__7
  6
Continuous
 62
     3
100
AcDbCircle
 10
1353.064734
 20
556.117318
 30
0.0
 40
24.99900000000008
  0
CIRCLE
  5
113
330
1F
100
AcDbEntity
  8
7__7
  6
Continuous
 62
     3
100
AcDbCircle
 10
1353.064734
 20
556.117318
 30
0.0
 40
19.99920000000003
  0
LINE
  5
114
330
1F
100
AcDbEntity
  8
7__7
  6
Continuous
 62
     3
100
AcDbLine
 10
1385.869421
 20
583.687215
 30
0.0
 11
1385.869421
 21
529.003047
 31
0.0
  0
LINE
  5
115
330
1F
100
AcDbEntity
  8
7__7
  6
Continuous
 62
     3
100
AcDbLine
 10
1382.728547
 20
529.002946
 30
0.0
 11
1382.728547
 21
583.686215
 31
0.0
  0
LINE
  5
116
330
1F
100
AcDbEntity
  8
7__7
  6
Continuous
 62
     3
100
AcDbLine
 10
1335.843422
 20
583.687215
 30
0.0
 11
1385.869421
 21
583.687215
 31
0.0
  0
CIRCLE
  5
117
330
1F
100
AcDbEntity
  8
7__7
  6
Continuous
 62
     3
100
AcDbCircle
 10
1353.064734
 20
556.117318
 30
0.0
 40
3.758849640000051
  0
ARC
  5
118
330
1F
100
AcDbEntity
  8
7__7
  6
Continuous
 62
     3
100
AcDbCircle
 10
1335.843422
 20
573.687615
 30
0.0
 40
9.999600000009318
100
AcDbArc
 50
90.0
 51
180.0
  0
LINE
  5
119
330
1F
100
AcDbEntity
  8
7__7
  6
Continuous
 62
     3
100
AcDbLine
 10
1335.843712
 20
529.001531
 30
0.0
 11
1365.924219
 21
529.002403
 31
0.0
  0
LINE
  5
11A
330
1F
100
AcDbEntity
  8
7__7
  6
Continuous
 62
     3
100
AcDbLine
 10
546.738988
 20
593.999551
 30
0.0
 11
546.738988
 21
528.607167
 31
0.0
  0
ARC
  5
11B
330
1F
100
AcDbEntity
  8
7__7
  6
Continuous
 62
     3
100
AcDbCircle
 10
1348.816334
 20
461.751151
 30
0.0
 40
0.750000000087067
100
AcDbArc
 50
270.0
 51
0.0
  0
LINE
  5
11C
330
1F
100
AcDbEntity
  8
7__7
  6
Continuous
 62
     3
100
AcDbLine
 10
495.066254
 20
461.001151
 30
0.0
 11
1348.816334
 21
461.001151
 31
0.0
  0
LINE
  5
11D
330
1F
100
AcDbEntity
  8
7__7
  6
Continuous
 62
     3
100
AcDbLine
 10
596.536059
 20
529.001084
 30
0.0
 11
1396.566334
 21
529.002084
 31
0.0
  0
ARC
  5
11E
330
1F
100
AcDbEntity
  8
7__7
  6
Continuous
 62
     3
100
AcDbCircle
 10
416.066254
 20
689.714957
 30
0.0
 40
0.999999999949102
100
AcDbArc
 50
90.0
 51
180.0
  0
LINE
  5
11F
330
1F
100
AcDbEntity
  8
7__7
  6
Continuous
 62
     3
100
AcDbLine
 10
415.066254
 20
626.714162
 30
0.0
 11
415.066254
 21
689.714957
 31
0.0
  0
LINE
  5
120
330
1F
100
AcDbEntity
  8
7__7
  6
Continuous
 62
     3
100
AcDbLine
 10
503.566254
 20
682.312293
 30
0.0
 11
503.566254
 21
662.215013
 31
0.0
  0
ARC
  5
121
330
1F
100
AcDbEntity
  8
7__7
  6
Continuous
 62
     4
100
AcDbCircle
 10
463.823733
 20
711.714957
 30
0.0
 40
6.000000000011953
100
AcDbArc
 50
270.0
 51
315.0
  0
LINE
  5
122
330
1F
100
AcDbEntity
  8
7__7
  6
Continuous
 62
     4
100
AcDbLine
 10
418.277437
 20
705.714957
 30
0.0
 11
463.823733
 21
705.714957
 31
0.0
  0
ARC
  5
123
330
1F
100
AcDbEntity
  8
7__7
  6
Continuous
 62
     4
100
AcDbCircle
 10
463.823613
 20
711.714837
 30
0.0
 40
2.999999999977824
100
AcDbArc
 50
270.0
 51
315.0
  0
LINE
  5
124
330
1F
100
AcDbEntity
  8
7__7
  6
Continuous
 62
     4
100
AcDbLine
 10
418.277357
 20
708.714837
 30
0.0
 11
463.823613
 21
708.714837
 31
0.0
  0
LINE
  5
125
330
1F
100
AcDbEntity
  8
7__7
  6
Continuous
 62
     3
100
AcDbLine
 10
555.138445
 20
644.001151
 30
0.0
 11
444.657529
 21
644.001151
 31
0.0
  0
LINE
  5
126
330
1F
100
AcDbEntity
  8
7__7
  6
Continuous
 62
     4
100
AcDbLine
 10
432.066174
 20
489.314182
 30
0.0
 11
434.366174
 21
489.314182
 31
0.0
  0
LINE
  5
127
330
1F
100
AcDbEntity
  8
7__7
  6
Continuous
 62
     4
100
AcDbLine
 10
432.066174
 20
449.001151
 30
0.0
 11
331.066254
 21
449.001151
 31
0.0
  0
ARC
  5
128
330
1F
100
AcDbEntity
  8
7__7
  6
Continuous
 62
     4
100
AcDbCircle
 10
331.066254
 20
448.001151
 30
0.0
 40
0.9999999999804534
100
AcDbArc
 50
90.0
 51
180.0
  0
LINE
  5
129
330
1F
100
AcDbEntity
  8
7__7
  6
Continuous
 62
     4
100
AcDbLine
 10
330.066254
 20
414.001151
 30
0.0
 11
330.066254
 21
448.001151
 31
0.0
  0
LINE
  5
12A
330
1F
100
AcDbEntity
  8
7__7
  6
Continuous
 62
     4
100
AcDbLine
 10
432.066174
 20
489.314182
 30
0.0
 11
432.066174
 21
449.001151
 31
0.0
  0
LINE
  5
12B
330
1F
100
AcDbEntity
  8
7__7
  6
Continuous
 62
     4
100
AcDbLine
 10
332.366254
 20
446.701151
 30
0.0
 11
332.366254
 21
415.701151
 31
0.0
  0
ARC
  5
12C
330
1F
100
AcDbEntity
  8
7__7
  6
Continuous
 62
     4
100
AcDbCircle
 10
433.366174
 20
447.701151
 30
0.0
 40
0.9999999999869952
100
AcDbArc
 50
270.0
 51
0.0
  0
LINE
  5
12D
330
1F
100
AcDbEntity
  8
7__7
  6
Continuous
 62
     4
100
AcDbLine
 10
332.366254
 20
446.701151
 30
0.0
 11
433.366174
 21
446.701151
 31
0.0
  0
LINE
  5
12E
330
1F
100
AcDbEntity
  8
7__7
  6
Continuous
 62
     4
100
AcDbLine
 10
330.066254
 20
415.701151
 30
0.0
 11
332.366254
 21
415.701151
 31
0.0
  0
LINE
  5
12F
330
1F
100
AcDbEntity
  8
7__7
  6
Continuous
 62
     4
100
AcDbLine
 10
400.066254
 20
446.701151
 30
0.0
 11
400.066254
 21
421.701151
 31
0.0
  0
LINE
  5
130
330
1F
100
AcDbEntity
  8
7__7
  6
Continuous
 62
     4
100
AcDbLine
 10
402.366254
 20
421.701151
 30
0.0
 11
402.366254
 21
444.401151
 31
0.0
  0
LINE
  5
131
330
1F
100
AcDbEntity
  8
7__7
  6
Continuous
 62
     4
100
AcDbLine
 10
402.366254
 20
444.401151
 30
0.0
 11
415.066254
 21
444.401151
 31
0.0
  0
LINE
  5
132
330
1F
100
AcDbEntity
  8
7__7
  6
Continuous
 62
     4
100
AcDbLine
 10
400.066254
 20
421.701151
 30
0.0
 11
402.366254
 21
421.701151
 31
0.0
  0
LINE
  5
133
330
1F
100
AcDbEntity
  8
7__7
  6
Continuous
 62
     4
100
AcDbLine
 10
415.066254
 20
446.701151
 30
0.0
 11
415.066254
 21
444.401151
 31
0.0
  0
LINE
  5
134
330
1F
100
AcDbEntity
  8
7__7
  6
PLine2
 62
     3
100
AcDbLine
 10
1322.37972
 20
556.117318
 30
0.0
 11
1388.973753
 21
556.117318
 31
0.0
  0
LINE
  5
135
330
1F
100
AcDbEntity
  8
7__7
  6
PLine2
 62
     3
100
AcDbLine
 10
1353.063789
 20
586.740276
 30
0.0
 11
1353.063789
 21
528.353254
 31
0.0
  0
LINE
  5
136
330
1F
100
AcDbEntity
  8
7__7
  6
PLine4
 62
     3
100
AcDbLine
 10
556.286188
 20
654.714957
 30
0.0
 11
622.984542
 21
654.714957
 31
0.0
  0
LINE
  5
137
330
1F
100
AcDbEntity
  8
7__7
  6
PLine2
 62
     3
100
AcDbLine
 10
555.371967
 20
574.328927
 30
0.0
 11
610.575493
 21
561.782897
 31
0.0
  0
LINE
  5
138
330
1F
100
AcDbEntity
  8
7__7
  6
PLine2
 62
     3
100
AcDbLine
 10
588.599977
 20
595.65835
 30
0.0
 11
576.529582
 21
541.597991
 31
0.0
  0
CIRCLE
  5
139
330
1F
100
AcDbEntity
  8
7__7
  6
Continuous
 62
     3
100
AcDbCircle
 10
502.029776
 20
573.871356
 30
0.0
 40
20.99880000000005
  0
LINE
  5
13A
330
1F
100
AcDbEntity
  8
7__7
  6
Continuous
 62
     3
100
AcDbLine
 10
516.388869
 20
589.194966
 30
0.0
 11
636.986059
 21
480.381437
 31
0.0
  0
LINE
  5
13B
330
1F
100
AcDbEntity
  8
7__7
  6
Continuous
 62
     3
100
AcDbLine
 10
642.351148
 20
487.662629
 30
0.0
 11
636.986059
 21
480.381437
 31
0.0
  0
LINE
  5
13C
330
1F
100
AcDbEntity
  8
7__7
  6
Continuous
 62
     3
100
AcDbLine
 10
1336.566254
 20
475.99956
 30
0.0
 11
523.138745
 21
476.000558
 31
0.0
  0
CIRCLE
  5
13D
330
1F
100
AcDbEntity
  8
7__7
  6
Continuous
 62
     3
100
AcDbCircle
 10
467.317165
 20
573.999605
 30
0.0
 40
9.543364238502903
  0
LINE
  5
13E
330
1F
100
AcDbEntity
  8
7__7
  6
Continuous
 62
     3
100
AcDbLine
 10
483.693557
 20
563.587511
 30
0.0
 11
533.587755
 21
452.79882
 31
0.0
  0
LINE
  5
13F
330
1F
100
AcDbEntity
  8
7__7
  6
PLine2
 62
     3
100
AcDbLine
 10
460.026083
 20
493.756561
 30
0.0
 11
508.228296
 21
493.756561
 31
0.0
  0
INSERT
  5
149
330
1F
100
AcDbEntity
  8
7__7
  6
Continuous
 62
     3
100
AcDbBlockReference
  2
DIM_0
 10
396.178084
 20
644.001151
 30
0.0
  0
LINE
  5
14A
330
1F
100
AcDbEntity
  8
7__7
  6
Continuous
 62
     6
100
AcDbLine
 10
1397.97529
 20
643.537866
 30
0.0
 11
1394.049287
 21
642.210667
 31
0.0
  0
ARC
  5
14B
330
1F
100
AcDbEntity
  8
7__7
  6
Continuous
 62
     6
100
AcDbCircle
 10
1399.2674
 20
642.011284
 30
0.0
 40
1.999999999925678
100
AcDbArc
 50
60.774358
 51
130.244823
  0
INSERT
  5
155
330
1F
100
AcDbEntity
  8
7__7
  6
Continuous
 62
     3
100
AcDbBlockReference
  2
DIM_1
 10
664.276175
 20
476.000378
 30
0.0
  0
LINE
  5
156
330
1F
100
AcDbEntity
  8
7__7
  6
Continuous
 62
     3
100
AcDbLine
 10
416.566254
 20
689.108021
 30
0.0
 11
416.566254
 21
627.214254
 31
0.0
  0
LINE
  5
157
330
1F
100
AcDbEntity
  8
7__7
  6
Continuous
 62
     3
100
AcDbLine
 10
418.066254
 20
689.108021
 30
0.0
 11
418.066254
 21
662.214927
 31
0.0
  0
LINE
  5
158
330
1F
100
AcDbEntity
  8
7__7
  6
Continuous
 62
     3
100
AcDbLine
 10
425.76067
 20
627.215215
 30
0.0
 11
416.566254
 21
627.214254
 31
0.0
  0
LINE
  5
159
330
1F
100
AcDbEntity
  8
7__7
  6
Continuous
 62
     3
100
AcDbLine
 10
418.066254
 20
662.214927
 30
0.0
 11
503.566254
 21
662.215013
 31
0.0
  0
INSERT
  5
163
330
1F
100
AcDbEntity
  8
7__7
  6
Continuous
 62
     3
100
AcDbBlockReference
  2
DIM_2
 10
415.066254
 20
617.332655
 30
0.0
  0
LINE
  5
164
330
1F
100
AcDbEntity
  8
7__7
  6
Continuous
 62
     3
100
AcDbLine
 10
1415.066254
 20
662.896134
 30
0.0
 11
1420.412644
 21
625.929665
 31
0.0
  0
ARC
  5
165
330
1F
100
AcDbEntity
  8
7__7
  6
Continuous
 62
     6
100
AcDbCircle
 10
1393.403232
 20
642.973958
 30
0.0
 40
0.9999999985745227
100
AcDbArc
 50
269.97787
 51
310.244823
  0
ARC
  5
166
330
1F
100
AcDbEntity
  8
7__7
  6
Continuous
 62
     3
100
AcDbCircle
 10
446.397032
 20
611.343837
 30
0.0
 40
0.7500000000784497
100
AcDbArc
 50
180.0
 51
269.999488
  0
LINE
  5
167
330
1F
100
AcDbEntity
  8
7__7
  6
Continuous
 62
     3
100
AcDbLine
 10
558.925446
 20
610.592832
 30
0.0
 11
446.397025
 21
610.593837
 31
0.0
  0
LINE
  5
168
330
1F
100
AcDbEntity
  8
7__7
  6
Continuous
 62
     3
100
AcDbLine
 10
558.925446
 20
610.592832
 30
0.0
 11
558.926427
 21
529.001151
 31
0.0
  0
CIRCLE
  5
169
330
1F
100
AcDbEntity
  8
7__7
  6
Continuous
 62
     3
100
AcDbCircle
 10
465.066254
 20
912.445835
 30
0.0
 40
3.0
  0
CIRCLE
  5
16A
330
1F
100
AcDbEntity
  8
7__7
  6
Continuous
 62
     3
100
AcDbCircle
 10
1365.066254
 20
912.445835
 30
0.0
 40
3.0
  0
LINE
  5
16B
330
1F
100
AcDbEntity
  8
7__7
  6
Continuous
 62
     3
100
AcDbLine
 10
465.066254
 20
912.445835
 30
0.0
 11
1365.066254
 21
912.445835
 31
0.0
  0
LINE
  5
16C
330
1F
100
AcDbEntity
  8
7__7
  6
Continuous
 62
     3
100
AcDbLine
 10
465.066254
 20
718.868331
 30
0.0
 11
465.066254
 21
918.445835
 31
0.0
  0
LINE
  5
16D
330
1F
100
AcDbEntity
  8
7__7
  6
Continuous
 62
     3
100
AcDbLine
 10
1365.066254
 20
724.496849
 30
0.0
 11
1365.066254
 21
918.445835
 31
0.0
  0
INSERT
  5
177
330
1F
100
AcDbEntity
  8
7__7
  6
Continuous
 62
     3
100
AcDbBlockReference
  2
DIM_3
 10
485.066254
 20
718.236183
 30
0.0
  0
LINE
  5
178
330
1F
100
AcDbEntity
  8
7__7
  6
PLine2
 62
     3
100
AcDbLine
 10
440.066254
 20
725.120395
 30
0.0
 11
440.066254
 21
683.876812
 31
0.0
  0
LINE
  5
179
330
1F
100
AcDbEntity
  8
7__7
  6
Continuous
 62
     3
100
AcDbLine
 10
447.147032
 20
637.093832
 30
0.0
 11
447.147032
 21
612.09383
 31
0.0
  0
LINE
  5
17A
330
1F
100
AcDbEntity
  8
7__7
  6
Continuous
 62
     3
100
AcDbLine
 10
1418.92809
 20
625.714957
 30
0.0
 11
1400.066254
 21
625.714957
 31
0.0
  0
LINE
  5
17B
330
1F
100
AcDbEntity
  8
7__7
  6
Continuous
 62
     3
100
AcDbLine
 10
1418.92809
 20
625.714957
 30
0.0
 11
1420.412644
 21
625.929665
 31
0.0
  0
LINE
  5
17C
330
1F
100
AcDbEntity
  8
7__7
  6
Continuous
 62
     3
100
AcDbLine
 10
1376.066254
 20
495.502698
 30
0.0
 11
1376.066254
 21
546.934901
 31
0.0
  0
LINE
  5
17D
330
1F
100
AcDbEntity
  8
7__7
  6
Continuous
 62
     3
100
AcDbLine
 10
1374.066254
 20
495.502698
 30
0.0
 11
1374.066254
 21
542.17729
 31
0.0
  0
LINE
  5
17E
330
1F
100
AcDbEntity
  8
7__7
  6
Continuous
 62
     3
100
AcDbLine
 10
328.066254
 20
414.001151
 30
0.0
 11
328.066254
 21
426.001151
 31
0.0
  0
ARC
  5
17F
330
1F
100
AcDbEntity
  8
7__7
  6
Continuous
 62
     3
100
AcDbCircle
 10
315.816254
 20
426.751151
 30
0.0
 40
0.7499999999825817
100
AcDbArc
 50
180.0
 51
270.0
  0
LINE
  5
180
330
1F
100
AcDbEntity
  8
7__7
  6
Continuous
 62
     3
100
AcDbLine
 10
328.066254
 20
426.001151
 30
0.0
 11
315.816254
 21
426.001151
 31
0.0
  0
ARC
  5
181
330
1F
100
AcDbEntity
  8
7__7
  6
Continuous
 62
     3
100
AcDbCircle
 10
315.816254
 20
460.670714
 30
0.0
 40
0.7499999999867621
100
AcDbArc
 50
98.743564
 51
180.0
  0
LINE
  5
182
330
1F
100
AcDbEntity
  8
7__7
  6
Continuous
 62
     3
100
AcDbLine
 10
315.066254
 20
460.670714
 30
0.0
 11
315.066254
 21
426.751151
 31
0.0
  0
LINE
  5
183
330
1F
100
AcDbEntity
  8
7__7
  6
Continuous
 62
     3
100
AcDbLine
 10
430.066254
 20
479.001151
 30
0.0
 11
315.702245
 21
461.411998
 31
0.0
  0
LINE
  5
184
330
1F
100
AcDbEntity
  8
7__7
  6
Continuous
 62
     3
100
AcDbLine
 10
317.066254
 20
459.602875
 30
0.0
 11
317.066254
 21
428.001151
 31
0.0
  0
LINE
  5
185
330
1F
100
AcDbEntity
  8
7__7
  6
Continuous
 62
     3
100
AcDbLine
 10
317.066254
 20
428.001151
 30
0.0
 11
329.316254
 21
428.001151
 31
0.0
  0
ARC
  5
186
330
1F
100
AcDbEntity
  8
7__7
  6
Continuous
 62
     3
100
AcDbCircle
 10
329.316254
 20
427.251151
 30
0.0
 40
0.7499999999622937
100
AcDbArc
 50
0.0
 51
90.0
  0
LINE
  5
187
330
1F
100
AcDbEntity
  8
7__7
  6
Continuous
 62
     3
100
AcDbLine
 10
330.066254
 20
414.001151
 30
0.0
 11
330.066254
 21
427.251151
 31
0.0
  0
LINE
  5
188
330
1F
100
AcDbEntity
  8
7__7
  6
Continuous
 62
     3
100
AcDbLine
 10
328.066254
 20
414.001151
 30
0.0
 11
330.066254
 21
414.001151
 31
0.0
  0
CIRCLE
  5
189
330
1F
100
AcDbEntity
  8
7__7
  6
Continuous
 62
     3
100
AcDbCircle
 10
239.188345
 20
1158.714837
 30
0.0
 40
3.0
  0
CIRCLE
  5
18A
330
1F
100
AcDbEntity
  8
7__7
  6
Continuous
 62
     3
100
AcDbCircle
 10
239.188345
 20
708.714837
 30
0.0
 40
3.0
  0
LINE
  5
18B
330
1F
100
AcDbEntity
  8
7__7
  6
Continuous
 62
     3
100
AcDbLine
 10
239.188345
 20
1158.714837
 30
0.0
 11
239.188345
 21
708.714837
 31
0.0
  0
LINE
  5
18C
330
1F
100
AcDbEntity
  8
7__7
  6
Continuous
 62
     3
100
AcDbLine
 10
858.578278
 20
1158.714837
 30
0.0
 11
233.188345
 21
1158.714837
 31
0.0
  0
LINE
  5
18D
330
1F
100
AcDbEntity
  8
7__7
  6
Continuous
 62
     3
100
AcDbLine
 10
401.290414
 20
708.714837
 30
0.0
 11
233.188345
 21
708.714837
 31
0.0
  0
INSERT
  5
196
330
1F
100
AcDbEntity
  8
7__7
  6
Continuous
 62
     3
100
AcDbBlockReference
  2
DIM_4
 10
401.290414
 20
708.714837
 30
0.0
  0
TEXT
  5
197
330
1F
100
AcDbEntity
  8
7__7
  6
Continuous
 62
     3
100
AcDbText
 10
1285.661758
 20
69.749469
 30
0.0
 40
18.0
  1
注、図中数字で示す寸法は全種共通です
 41
0.858268
  7
BIGFONT
100
AcDbText
  0
LINE
  5
198
330
1F
100
AcDbEntity
  8
7__7
  6
Continuous
 62
     1
100
AcDbLine
 10
1591.626811
 20
52.350609
 30
0.0
 11
1951.626811
 21
52.350609
 31
0.0
  0
LINE
  5
199
330
1F
100
AcDbEntity
  8
7__7
  6
Continuous
 62
     3
100
AcDbLine
 10
2131.571032
 20
172.350609
 30
0.0
 11
2131.571032
 21
52.350609
 31
0.0
  0
LINE
  5
19A
330
1F
100
AcDbEntity
  8
7__7
  6
Continuous
 62
     3
100
AcDbLine
 10
2071.571032
 20
172.350609
 30
0.0
 11
2071.571032
 21
52.350609
 31
0.0
  0
LINE
  5
19B
330
1F
100
AcDbEntity
  8
7__7
  6
Continuous
 62
     3
100
AcDbLine
 10
2011.571032
 20
172.350609
 30
0.0
 11
2011.571032
 21
52.350609
 31
0.0
  0
LINE
  5
19C
330
1F
100
AcDbEntity
  8
7__7
  6
Continuous
 62
     3
100
AcDbLine
 10
1951.571032
 20
172.350609
 30
0.0
 11
1951.571032
 21
52.350609
 31
0.0
  0
LINE
  5
19D
330
1F
100
AcDbEntity
  8
7__7
  6
Continuous
 62
     1
100
AcDbLine
 10
1579.571032
 20
172.350609
 30
0.0
 11
1579.571032
 21
52.350609
 31
0.0
  0
LINE
  5
19E
330
1F
100
AcDbEntity
  8
7__7
  6
Continuous
 62
     1
100
AcDbLine
 10
1579.571032
 20
52.350609
 30
0.0
 11
2461.571032
 21
52.350609
 31
0.0
  0
LINE
  5
19F
330
1F
100
AcDbEntity
  8
7__7
  6
Continuous
 62
     1
100
AcDbLine
 10
2461.571032
 20
52.350609
 30
0.0
 11
2461.571032
 21
172.350609
 31
0.0
  0
LINE
  5
1A0
330
1F
100
AcDbEntity
  8
7__7
  6
Continuous
 62
     1
100
AcDbLine
 10
2461.571032
 20
172.350609
 30
0.0
 11
1579.571032
 21
172.350609
 31
0.0
  0
LINE
  5
1A1
330
1F
100
AcDbEntity
  8
7__7
  6
Continuous
 62
     2
100
AcDbLine
 10
1622.71835
 20
138.853553
 30
0.0
 11
1633.790538
 21
149.925741
 31
0.0
  0
LINE
  5
1A2
330
1F
100
AcDbEntity
  8
7__7
  6
Continuous
 62
     2
100
AcDbLine
 10
1622.71835
 20
123.195115
 30
0.0
 11
1622.71835
 21
138.853553
 31
0.0
  0
LINE
  5
1A3
330
1F
100
AcDbEntity
  8
7__7
  6
Continuous
 62
     2
100
AcDbLine
 10
1620.31835
 20
138.853553
 30
0.0
 11
1620.31835
 21
123.195115
 31
0.0
  0
LINE
  5
1A4
330
1F
100
AcDbEntity
  8
7__7
  6
Continuous
 62
     2
100
AcDbLine
 10
1609.246162
 20
149.925741
 30
0.0
 11
1620.31835
 21
138.853553
 31
0.0
  0
LINE
  5
1A5
330
1F
100
AcDbEntity
  8
7__7
  6
Continuous
 62
     2
100
AcDbLine
 10
1645.51835
 20
139.350609
 30
0.0
 11
1641.281953
 21
138.150609
 31
0.0
  0
LINE
  5
1A6
330
1F
100
AcDbEntity
  8
7__7
  6
Continuous
 62
     2
100
AcDbLine
 10
1645.51835
 20
139.350609
 30
0.0
 11
1641.31835
 21
139.350609
 31
0.0
  0
LINE
  5
1A7
330
1F
100
AcDbEntity
  8
7__7
  6
Continuous
 62
     2
100
AcDbLine
 10
1641.281953
 20
140.550609
 30
0.0
 11
1645.51835
 21
139.350609
 31
0.0
  0
LINE
  5
1A8
330
1F
100
AcDbEntity
  8
7__7
  6
Continuous
 62
     2
100
AcDbLine
 10
1621.51835
 20
115.350609
 30
0.0
 11
1621.51835
 21
119.550609
 31
0.0
  0
LINE
  5
1A9
330
1F
100
AcDbEntity
  8
7__7
  6
Continuous
 62
     2
100
AcDbLine
 10
1621.51835
 20
115.350609
 30
0.0
 11
1622.71835
 21
119.587007
 31
0.0
  0
LINE
  5
1AA
330
1F
100
AcDbEntity
  8
7__7
  6
Continuous
 62
     2
100
AcDbLine
 10
1621.51835
 20
115.350609
 30
0.0
 11
1620.31835
 21
119.587007
 31
0.0
  0
LINE
  5
1AB
330
1F
100
AcDbEntity
  8
7__7
  6
Continuous
 62
     2
100
AcDbLine
 10
1597.51835
 20
139.350609
 30
0.0
 11
1601.754747
 21
138.150609
 31
0.0
  0
LINE
  5
1AC
330
1F
100
AcDbEntity
  8
7__7
  6
Continuous
 62
     2
100
AcDbLine
 10
1597.51835
 20
139.350609
 30
0.0
 11
1601.71835
 21
139.350609
 31
0.0
  0
LINE
  5
1AD
330
1F
100
AcDbEntity
  8
7__7
  6
Continuous
 62
     2
100
AcDbLine
 10
1597.51835
 20
139.350609
 30
0.0
 11
1601.754747
 21
140.550609
 31
0.0
  0
LINE
  5
1AE
330
1F
100
AcDbEntity
  8
7__7
  6
Continuous
 62
     2
100
AcDbLine
 10
1621.51835
 20
163.350609
 30
0.0
 11
1622.71835
 21
159.114212
 31
0.0
  0
LINE
  5
1AF
330
1F
100
AcDbEntity
  8
7__7
  6
Continuous
 62
     2
100
AcDbLine
 10
1621.51835
 20
163.350609
 30
0.0
 11
1620.31835
 21
159.114212
 31
0.0
  0
LINE
  5
1B0
330
1F
100
AcDbEntity
  8
7__7
  6
Continuous
 62
     2
100
AcDbLine
 10
1621.51835
 20
163.350609
 30
0.0
 11
1621.51835
 21
159.150609
 31
0.0
  0
LINE
  5
1B1
330
1F
100
AcDbEntity
  8
7__7
  6
Continuous
 62
     2
100
AcDbLine
 10
1621.51835
 20
141.047666
 30
0.0
 11
1610.943218
 21
151.622797
 31
0.0
  0
LINE
  5
1B2
330
1F
100
AcDbEntity
  8
7__7
  6
Continuous
 62
     2
100
AcDbLine
 10
1632.093482
 20
151.622797
 30
0.0
 11
1621.51835
 21
141.047666
 31
0.0
  0
LINE
  5
1B3
330
1F
100
AcDbEntity
  8
7__7
  6
Continuous
 62
     2
100
AcDbLine
 10
1621.51835
 20
139.350609
 30
0.0
 11
1632.97348
 21
150.805739
 31
0.0
  0
LINE
  5
1B4
330
1F
100
AcDbEntity
  8
7__7
  6
Continuous
 62
     2
100
AcDbLine
 10
1621.51835
 20
139.350609
 30
0.0
 11
1621.51835
 21
123.150609
 31
0.0
  0
LINE
  5
1B5
330
1F
100
AcDbEntity
  8
7__7
  6
Continuous
 62
     2
100
AcDbLine
 10
1610.06322
 20
150.805739
 30
0.0
 11
1621.51835
 21
139.350609
 31
0.0
  0
ARC
  5
1B6
330
1F
100
AcDbEntity
  8
7__7
  6
Continuous
 62
     2
100
AcDbCircle
 10
1621.51835
 20
139.350609
 30
0.0
 40
13.7999999999675
100
AcDbArc
 50
62.718932
 51
117.281068
  0
ARC
  5
1B7
330
1F
100
AcDbEntity
  8
7__7
  6
Continuous
 62
     2
100
AcDbCircle
 10
1621.51835
 20
139.350609
 30
0.0
 40
16.20000000003378
100
AcDbArc
 50
60.026114
 51
119.973886
  0
ARC
  5
1B8
330
1F
100
AcDbEntity
  8
7__7
  6
Continuous
 62
     2
100
AcDbCircle
 10
1621.51835
 20
139.350609
 30
0.0
 40
16.20000000003327
100
AcDbArc
 50
285.026114
 51
29.973886
  0
ARC
  5
1B9
330
1F
100
AcDbEntity
  8
7__7
  6
Continuous
 62
     2
100
AcDbCircle
 10
1621.51835
 20
139.350609
 30
0.0
 40
13.79999999999529
100
AcDbArc
 50
287.718932
 51
27.281068
  0
ARC
  5
1BA
330
1F
100
AcDbEntity
  8
7__7
  6
Continuous
 62
     2
100
AcDbCircle
 10
1621.51835
 20
139.350609
 30
0.0
 40
13.79999999999453
100
AcDbArc
 50
152.718932
 51
252.281068
  0
ARC
  5
1BB
330
1F
100
AcDbEntity
  8
7__7
  6
Continuous
 62
     2
100
AcDbCircle
 10
1621.51835
 20
139.350609
 30
0.0
 40
16.20000000001588
100
AcDbArc
 50
150.026114
 51
254.973886
  0
CIRCLE
  5
1BC
330
1F
100
AcDbEntity
  8
7__7
  6
Continuous
 62
     2
100
AcDbCircle
 10
1621.51835
 20
139.350609
 30
0.0
 40
19.80000000000007
  0
CIRCLE
  5
1BD
330
1F
100
AcDbEntity
  8
7__7
  6
Continuous
 62
     2
100
AcDbCircle
 10
1621.51835
 20
139.350609
 30
0.0
 40
22.19999999999993
  0
TEXT
  5
1BE
330
1F
100
AcDbEntity
  8
7__7
  6
Continuous
 62
     3
100
AcDbText
 10
1661.939926
 20
64.155597
 30
0.0
 40
18.0
  1
電話　０３－３６８５－３４５１（代）
 41
0.858268
  7
BIGFONT
100
AcDbText
  0
TEXT
  5
1BF
330
1F
100
AcDbEntity
  8
7__7
  6
Continuous
 62
     3
100
AcDbText
 10
1662.72307
 20
88.757103
 30
0.0
 40
18.0
  1
本社　東京都江東区亀戸６－２０－７
 41
0.858268
  7
BIGFONT
100
AcDbText
  0
ARC
  5
1C0
330
1F
100
AcDbEntity
  8
7__7
  6
Continuous
 62
     2
100
AcDbCircle
 10
1621.51835
 20
139.350609
 30
0.0
 40
15.00000000000333
100
AcDbArc
 50
151.260205
 51
253.739795
  0
ARC
  5
1C1
330
1F
100
AcDbEntity
  8
7__7
  6
Continuous
 62
     2
100
AcDbCircle
 10
1621.51835
 20
139.350609
 30
0.0
 40
14.99999999997434
100
AcDbArc
 50
286.260205
 51
28.739795
  0
ARC
  5
1C2
330
1F
100
AcDbEntity
  8
7__7
  6
Continuous
 62
     2
100
AcDbCircle
 10
1621.51835
 20
139.350609
 30
0.0
 40
14.99999999996777
100
AcDbArc
 50
61.260205
 51
118.739795
  0
CIRCLE
  5
1C3
330
1F
100
AcDbEntity
  8
7__7
  6
Continuous
 62
     2
100
AcDbCircle
 10
1621.51835
 20
139.350609
 30
0.0
 40
21.0
  0
TEXT
  5
1C4
330
1F
100
AcDbEntity
  8
7__7
  6
Continuous
 62
     1
100
AcDbText
 10
1659.18877
 20
118.366533
 30
0.0
 40
42.0
  1
三洋工業株式会社
 41
0.858268
  7
BIGFONT
100
AcDbText
  0
TEXT
  5
1C5
330
1F
100
AcDbEntity
  8
7__7
  6
Continuous
 62
     2
100
AcDbText
 10
2027.575366
 20
120.013383
 30
0.0
 40
18.0
  1
ｍｍ
 41
0.858268
  7
BIGFONT
100
AcDbText
  0
TEXT
  5
1C6
330
1F
100
AcDbEntity
  8
7__7
  6
Continuous
 62
     2
100
AcDbText
 10
2102.578542
 20
97.869711
 30
0.0
 40
18.0
  1
図番
 41
0.858268
  7
BIG VER
100
AcDbText
  0
TEXT
  5
1C7
330
1F
100
AcDbEntity
  8
7__7
  6
Continuous
 62
     2
100
AcDbText
 10
2102.578542
 20
160.111293
 30
0.0
 40
18.0
  1
形名
 41
0.858268
  7
BIG VER
100
AcDbText
  0
TEXT
  5
1C8
330
1F
100
AcDbEntity
  8
7__7
  6
Continuous
 62
     2
100
AcDbText
 10
1982.871586
 20
99.012974
 30
0.0
 40
18.0
  1
製図
 41
0.858268
  7
BIG VER
100
AcDbText
  0
TEXT
  5
1C9
330
1F
100
AcDbEntity
  8
7__7
  6
Continuous
 62
     2
100
AcDbText
 10
1983.062118
 20
159.423359
 30
0.0
 40
18.0
  1
単位
 41
0.858268
  7
BIG VER
100
AcDbText
  0
LINE
  5
1CA
330
1F
100
AcDbEntity
  8
7__7
  6
Continuous
 62
     3
100
AcDbLine
 10
1951.571032
 20
112.350609
 30
0.0
 11
2461.571032
 21
112.350609
 31
0.0
  0
TEXT
  5
1CB
330
1F
100
AcDbEntity
  8
7__7
  6
Continuous
 62
     2
100
AcDbText
 10
2139.974602
 20
142.975388
 30
0.0
 40
24.0
  1
ライトモニック標準施工図
 41
0.858268
  7
BIGFONT
100
AcDbText
  0
TEXT
  5
1CC
330
1F
100
AcDbEntity
  8
7__7
  6
Continuous
 62
     2
100
AcDbText
 10
2185.380246
 20
71.529938
 30
0.0
 40
24.0
  1
Ｈ－１２－ＬＭ－６７
 41
0.858268
  7
BIGFONT
100
AcDbText
  0
LINE
  5
1CD
330
1F
100
AcDbEntity
  8
7__7
  6
Continuous
 62
     2
100
AcDbLine
 10
123.699963
 20
1637.238545
 30
0.0
 11
123.699963
 21
1532.694545
 31
0.0
  0
TEXT
  5
1CE
330
1F
100
AcDbEntity
  8
7__7
  6
Continuous
 62
     3
100
AcDbText
 10
121.586642
 20
1589.263534
 30
0.0
 40
16.8
  1
　ＬＭ－　６００Ｓ－Ｐ
 41
0.858268
  7
BIGFONT
100
AcDbText
  0
TEXT
  5
1CF
330
1F
100
AcDbEntity
  8
7__7
  6
Continuous
 62
     3
100
AcDbText
 10
135.441429
 20
1563.227182
 30
0.0
 40
16.8
  1
ＬＭ－　９００Ｓ－Ｐ
 41
0.858268
  7
BIGFONT
100
AcDbText
  0
TEXT
  5
1D0
330
1F
100
AcDbEntity
  8
7__7
  6
Continuous
 62
     3
100
AcDbText
 10
135.903146
 20
1536.868347
 30
0.0
 40
16.8
  1
ＬＭ－１３００Ｓ－Ｐ
 41
0.858268
  7
BIGFONT
100
AcDbText
  0
TEXT
  5
1D1
330
1F
100
AcDbEntity
  8
7__7
  6
Continuous
 62
     3
100
AcDbText
 10
151.243139
 20
1628.449716
 30
0.0
 40
16.8
  1
型
 41
0.858268
  7
BIGFONT
100
AcDbText
  0
TEXT
  5
1D2
330
1F
100
AcDbEntity
  8
7__7
  6
Continuous
 62
     3
100
AcDbText
 10
248.149216
 20
1628.449716
 30
0.0
 40
16.8
  1
式
 41
0.858268
  7
BIGFONT
100
AcDbText
  0
LINE
  5
1D3
330
1F
100
AcDbEntity
  8
7__7
  6
Continuous
 62
     2
100
AcDbLine
 10
289.089787
 20
1637.238545
 30
0.0
 11
289.089787
 21
1532.694545
 31
0.0
  0
LINE
  5
1D4
330
1F
100
AcDbEntity
  8
7__7
  6
Continuous
 62
     3
100
AcDbLine
 10
365.889787
 20
1637.238545
 30
0.0
 11
365.889787
 21
1532.694545
 31
0.0
  0
LINE
  5
1D5
330
1F
100
AcDbEntity
  8
7__7
  6
Continuous
 62
     3
100
AcDbLine
 10
442.689787
 20
1637.238545
 30
0.0
 11
442.689787
 21
1532.694545
 31
0.0
  0
LINE
  5
1D6
330
1F
100
AcDbEntity
  8
7__7
  6
Continuous
 62
     3
100
AcDbLine
 10
519.489787
 20
1637.238545
 30
0.0
 11
519.489787
 21
1532.694545
 31
0.0
  0
LINE
  5
1D7
330
1F
100
AcDbEntity
  8
7__7
  6
Continuous
 62
     3
100
AcDbLine
 10
673.089787
 20
1637.238545
 30
0.0
 11
673.089787
 21
1532.694545
 31
0.0
  0
TEXT
  5
1D8
330
1F
100
AcDbEntity
  8
7__7
  6
Continuous
 62
     3
100
AcDbText
 10
323.684979
 20
1615.573375
 30
0.0
 40
16.8
  1
Ａ
 41
0.858268
  7
BIGFONT
100
AcDbText
  0
TEXT
  5
1D9
330
1F
100
AcDbEntity
  8
7__7
  6
Continuous
 62
     3
100
AcDbText
 10
397.887665
 20
1614.220371
 30
0.0
 40
16.8
  1
Ｗ
 41
0.858268
  7
BIGFONT
100
AcDbText
  0
TEXT
  5
1DA
330
1F
100
AcDbEntity
  8
7__7
  6
Continuous
 62
     3
100
AcDbText
 10
474.617269
 20
1614.150628
 30
0.0
 40
16.8
  1
Ｓ
 41
0.858268
  7
BIGFONT
100
AcDbText
  0
TEXT
  5
1DB
330
1F
100
AcDbEntity
  8
7__7
  6
Continuous
 62
     3
100
AcDbText
 10
627.533268
 20
1613.89159
 30
0.0
 40
16.8
  1
Ｈ
 41
0.858268
  7
BIGFONT
100
AcDbText
  0
TEXT
  5
1DC
330
1F
100
AcDbEntity
  8
7__7
  6
Continuous
 62
     3
100
AcDbText
 10
759.208195
 20
1628.54874
 30
0.0
 40
16.8
  1
排煙面積
 41
0.858268
  7
BIGFONT
100
AcDbText
  0
TEXT
  5
1DD
330
1F
100
AcDbEntity
  8
7__7
  6
Continuous
 62
     3
100
AcDbText
 10
313.701339
 20
1589.317956
 30
0.0
 40
16.8
  1
６００
 41
0.858268
  7
BIGFONT
100
AcDbText
  0
TEXT
  5
1DE
330
1F
100
AcDbEntity
  8
7__7
  6
Continuous
 62
     3
100
AcDbText
 10
312.800897
 20
1562.840902
 30
0.0
 40
16.8
  1
９００
 41
0.858268
  7
BIGFONT
100
AcDbText
  0
TEXT
  5
1DF
330
1F
100
AcDbEntity
  8
7__7
  6
Continuous
 62
     3
100
AcDbText
 10
298.936735
 20
1536.662388
 30
0.0
 40
16.8
  1
１３００
 41
0.858268
  7
BIGFONT
100
AcDbText
  0
TEXT
  5
1E0
330
1F
100
AcDbEntity
  8
7__7
  6
Continuous
 62
     3
100
AcDbText
 10
388.763446
 20
1589.337219
 30
0.0
 40
16.8
  1
８７０
 41
0.858268
  7
BIGFONT
100
AcDbText
  0
TEXT
  5
1E1
330
1F
100
AcDbEntity
  8
7__7
  6
Continuous
 62
     3
100
AcDbText
 10
375.154606
 20
1562.986438
 30
0.0
 40
16.8
  1
１１７０
 41
0.858268
  7
BIGFONT
100
AcDbText
  0
TEXT
  5
1E2
330
1F
100
AcDbEntity
  8
7__7
  6
Continuous
 62
     3
100
AcDbText
 10
375.121356
 20
1537.101478
 30
0.0
 40
16.8
  1
１５７０
 41
0.858268
  7
BIGFONT
100
AcDbText
  0
TEXT
  5
1E3
330
1F
100
AcDbEntity
  8
7__7
  6
Continuous
 62
     3
100
AcDbText
 10
466.444255
 20
1589.337219
 30
0.0
 40
16.8
  1
５４０
 41
0.858268
  7
BIGFONT
100
AcDbText
  0
TEXT
  5
1E4
330
1F
100
AcDbEntity
  8
7__7
  6
Continuous
 62
     3
100
AcDbText
 10
466.444255
 20
1564.014463
 30
0.0
 40
16.8
  1
８４０
 41
0.858268
  7
BIGFONT
100
AcDbText
  0
TEXT
  5
1E5
330
1F
100
AcDbEntity
  8
7__7
  6
Continuous
 62
     3
100
AcDbText
 10
451.947286
 20
1536.185364
 30
0.0
 40
16.8
  1
１２４０
 41
0.858268
  7
BIGFONT
100
AcDbText
  0
TEXT
  5
1E6
330
1F
100
AcDbEntity
  8
7__7
  6
Continuous
 62
     3
100
AcDbText
 10
614.096403
 20
1589.009676
 30
0.0
 40
16.8
  1
３００
 41
0.858268
  7
BIGFONT
100
AcDbText
  0
TEXT
  5
1E7
330
1F
100
AcDbEntity
  8
7__7
  6
Continuous
 62
     3
100
AcDbText
 10
614.096403
 20
1563.686926
 30
0.0
 40
16.8
  1
４５０
 41
0.858268
  7
BIGFONT
100
AcDbText
  0
TEXT
  5
1E8
330
1F
100
AcDbEntity
  8
7__7
  6
Continuous
 62
     3
100
AcDbText
 10
614.464375
 20
1537.377747
 30
0.0
 40
16.8
  1
６５０
 41
0.858268
  7
BIGFONT
100
AcDbText
  0
TEXT
  5
1E9
330
1F
100
AcDbEntity
  8
7__7
  6
Continuous
 62
     3
100
AcDbText
 10
768.733922
 20
1589.769348
 30
0.0
 40
16.8
  1
０．２９
 41
0.858268
  7
BIGFONT
100
AcDbText
  0
TEXT
  5
1EA
330
1F
100
AcDbEntity
  8
7__7
  6
Continuous
 62
     3
100
AcDbText
 10
768.781965
 20
1563.780675
 30
0.0
 40
16.8
  1
０．７
 41
0.858268
  7
BIGFONT
100
AcDbText
  0
TEXT
  5
1EB
330
1F
100
AcDbEntity
  8
7__7
  6
Continuous
 62
     3
100
AcDbText
 10
768.270151
 20
1537.616513
 30
0.0
 40
16.8
  1
１．５３７
 41
0.858268
  7
BIGFONT
100
AcDbText
  0
LINE
  5
1EC
330
1F
100
AcDbEntity
  8
7__7
  6
Continuous
 62
     2
100
AcDbLine
 10
289.089787
 20
1628.526545
 30
0.0
 11
289.089787
 21
1663.374545
 31
0.0
  0
TEXT
  5
1ED
330
1F
100
AcDbEntity
  8
7__7
  6
Continuous
 62
     3
100
AcDbText
 10
653.289324
 20
1637.4213
 30
0.0
 40
16.8
  1
ｍｍ
 41
0.858268
  7
BIGFONT
100
AcDbText
  0
TEXT
  5
1EE
330
1F
100
AcDbEntity
  8
7__7
  6
Continuous
 62
     2
100
AcDbText
 10
133.704823
 20
1667.290174
 30
0.0
 40
20.328
  1
ＬＭ－Ｓ－Ｐ型寸法表
 41
0.858268
  7
BIGFONT
100
AcDbText
  0
TEXT
  5
1EF
330
1F
100
AcDbEntity
  8
7__7
  6
Continuous
 62
     3
100
AcDbText
 10
684.388687
 20
1615.57579
 30
0.0
 40
16.8
  1
硝子寸法
 41
0.858268
  7
BIGFONT
100
AcDbText
  0
TEXT
  5
1F0
330
1F
100
AcDbEntity
  8
7__7
  6
Continuous
 62
     3
100
AcDbText
 10
697.350651
 20
1589.846249
 30
0.0
 40
16.8
  1
５６０
 41
0.858268
  7
BIGFONT
100
AcDbText
  0
TEXT
  5
1F1
330
1F
100
AcDbEntity
  8
7__7
  6
Continuous
 62
     3
100
AcDbText
 10
697.350651
 20
1562.736679
 30
0.0
 40
16.8
  1
８６０
 41
0.858268
  7
BIGFONT
100
AcDbText
  0
TEXT
  5
1F2
330
1F
100
AcDbEntity
  8
7__7
  6
Continuous
 62
     3
100
AcDbText
 10
683.284491
 20
1536.711828
 30
0.0
 40
16.8
  1
１２６０
 41
0.858268
  7
BIGFONT
100
AcDbText
  0
TEXT
  5
1F3
330
1F
100
AcDbEntity
  8
7__7
  6
Continuous
 62
     3
100
AcDbText
 10
492.306511
 20
1640.984019
 30
0.0
 40
16.8
  1
寸               法
 41
0.47962
  7
BIGFONT
100
AcDbText
  0
TEXT
  5
1F4
330
1F
100
AcDbEntity
  8
7__7
  6
Continuous
 62
     3
100
AcDbText
 10
852.293219
 20
1628.113069
 30
0.0
 40
16.8
  1
概算重量
 41
0.858268
  7
BIGFONT
100
AcDbText
  0
TEXT
  5
1F5
330
1F
100
AcDbEntity
  8
7__7
  6
Continuous
 62
     3
100
AcDbText
 10
912.124177
 20
1616.925176
 30
0.0
 40
16.8
  1

 41
0.858268
  7
BIGFONT
100
AcDbText
  0
TEXT
  5
1F6
330
1F
100
AcDbEntity
  8
7__7
  6
Continuous
 62
     3
100
AcDbText
 10
870.104401
 20
1589.198615
 30
0.0
 40
16.8
  1
４７
 41
0.858268
  7
BIGFONT
100
AcDbText
  0
TEXT
  5
1F7
330
1F
100
AcDbEntity
  8
7__7
  6
Continuous
 62
     3
100
AcDbText
 10
870.380064
 20
1562.931037
 30
0.0
 40
16.8
  1
６６
 41
0.858268
  7
BIGFONT
100
AcDbText
  0
TEXT
  5
1F8
330
1F
100
AcDbEntity
  8
7__7
  6
Continuous
 62
     3
100
AcDbText
 10
856.920691
 20
1536.740484
 30
0.0
 40
16.8
  1
１１１
 41
0.858268
  7
BIGFONT
100
AcDbText
  0
TEXT
  5
1F9
330
1F
100
AcDbEntity
  8
7__7
  6
Continuous
 62
     3
100
AcDbText
 10
820.685042
 20
1615.79347
 30
0.0
 40
16.8
  1

 41
0.858268
  7
BIGFONT
100
AcDbText
  0
LINE
  5
1FA
330
1F
100
AcDbEntity
  8
7__7
  6
Continuous
 62
     3
100
AcDbLine
 10
749.889787
 20
1637.238545
 30
0.0
 11
289.089787
 21
1637.238545
 31
0.0
  0
LINE
  5
1FB
330
1F
100
AcDbEntity
  8
7__7
  6
Continuous
 62
     2
100
AcDbLine
 10
932.052671
 20
1611.102545
 30
0.0
 11
123.699963
 21
1611.102545
 31
0.0
  0
LINE
  5
1FC
330
1F
100
AcDbEntity
  8
7__7
  6
Continuous
 62
     3
100
AcDbLine
 10
932.052671
 20
1584.966545
 30
0.0
 11
123.699963
 21
1584.966545
 31
0.0
  0
LINE
  5
1FD
330
1F
100
AcDbEntity
  8
7__7
  6
Continuous
 62
     3
100
AcDbLine
 10
932.052671
 20
1558.830545
 30
0.0
 11
123.699963
 21
1558.830545
 31
0.0
  0
LINE
  5
1FE
330
1F
100
AcDbEntity
  8
7__7
  6
Continuous
 62
     2
100
AcDbLine
 10
932.052671
 20
1532.694545
 30
0.0
 11
123.699963
 21
1532.694545
 31
0.0
  0
LINE
  5
1FF
330
1F
100
AcDbEntity
  8
7__7
  6
Continuous
 62
     2
100
AcDbLine
 10
123.699963
 20
1637.238545
 30
0.0
 11
123.699963
 21
1663.374545
 31
0.0
  0
LINE
  5
200
330
1F
100
AcDbEntity
  8
7__7
  6
Continuous
 62
     2
100
AcDbLine
 10
749.889787
 20
1532.694545
 30
0.0
 11
749.889787
 21
1663.374545
 31
0.0
  0
LINE
  5
201
330
1F
100
AcDbEntity
  8
7__7
  6
Continuous
 62
     2
100
AcDbLine
 10
932.052671
 20
1663.374545
 30
0.0
 11
123.699963
 21
1663.374545
 31
0.0
  0
LINE
  5
202
330
1F
100
AcDbEntity
  8
7__7
  6
Continuous
 62
     2
100
AcDbLine
 10
840.593225
 20
1532.694545
 30
0.0
 11
840.593225
 21
1663.374545
 31
0.0
  0
LINE
  5
203
330
1F
100
AcDbEntity
  8
7__7
  6
Continuous
 62
     2
100
AcDbLine
 10
932.052671
 20
1532.694545
 30
0.0
 11
932.052671
 21
1663.374545
 31
0.0
  0
LINE
  5
204
330
1F
100
AcDbEntity
  8
7__7
  6
Continuous
 62
     3
100
AcDbLine
 10
472.752129
 20
564.456345
 30
0.0
 11
461.870565
 21
564.456137
 31
0.0
  0
LINE
  5
205
330
1F
100
AcDbEntity
  8
7__7
  6
Continuous
 62
     3
100
AcDbLine
 10
478.261803
 20
573.99971
 30
0.0
 11
472.752129
 21
564.456345
 31
0.0
  0
LINE
  5
206
330
1F
100
AcDbEntity
  8
7__7
  6
Continuous
 62
     3
100
AcDbLine
 10
456.360407
 20
573.999501
 30
0.0
 11
461.870565
 21
564.456137
 31
0.0
  0
ARC
  5
207
330
1F
100
AcDbEntity
  8
7__7
  6
Continuous
 62
     3
100
AcDbCircle
 10
493.029054
 20
493.756547
 30
0.0
 40
12.0499999999755
100
AcDbArc
 50
330.138098
 51
29.863767
  0
ARC
  5
208
330
1F
100
AcDbEntity
  8
7__7
  6
Continuous
 62
     3
100
AcDbCircle
 10
501.531296
 20
484.751325
 30
0.0
 40
3.581413445273911
100
AcDbArc
 50
7.844797
 51
57.051908
  0
LINE
  5
209
330
1F
100
AcDbEntity
  8
7__7
  6
Continuous
 62
     3
100
AcDbLine
 10
505.0789
 20
503.226398
 30
0.0
 11
503.478876
 21
504.726372
 31
0.0
  0
LINE
  5
20A
330
1F
100
AcDbEntity
  8
7__7
  6
Continuous
 62
     3
100
AcDbLine
 10
505.079208
 20
484.287088
 30
0.0
 11
503.479233
 21
482.787062
 31
0.0
  0
LINE
  5
20B
330
1F
100
AcDbEntity
  8
7__7
  6
Continuous
 62
     3
100
AcDbLine
 10
503.478876
 20
504.726372
 30
0.0
 11
495.078876
 21
504.726236
 31
0.0
  0
LINE
  5
20C
330
1F
100
AcDbEntity
  8
7__7
  6
Continuous
 62
     3
100
AcDbLine
 10
495.079233
 20
482.786925
 30
0.0
 11
503.479233
 21
482.787062
 31
0.0
  0
LINE
  5
20D
330
1F
100
AcDbEntity
  8
7__7
  6
Continuous
 62
     3
100
AcDbLine
 10
495.078876
 20
504.726236
 30
0.0
 11
495.079233
 21
482.786925
 31
0.0
  0
LINE
  5
20E
330
1F
100
AcDbEntity
  8
7__7
  6
Continuous
 62
     3
100
AcDbLine
 10
505.079208
 20
484.287088
 30
0.0
 11
505.0789
 21
503.226398
 31
0.0
  0
LINE
  5
20F
330
1F
100
AcDbEntity
  8
7__7
  6
Continuous
 62
     3
100
AcDbLine
 10
495.078957
 20
499.756581
 30
0.0
 11
503.478957
 21
499.756717
 31
0.0
  0
LINE
  5
210
330
1F
100
AcDbEntity
  8
7__7
  6
Continuous
 62
     3
100
AcDbLine
 10
495.079152
 20
487.756581
 30
0.0
 11
503.479152
 21
487.756717
 31
0.0
  0
ARC
  5
211
330
1F
100
AcDbEntity
  8
7__7
  6
Continuous
 62
     3
100
AcDbCircle
 10
501.531003
 20
502.762046
 30
0.0
 40
3.581413445185444
100
AcDbArc
 50
302.949956
 51
352.157067
  0
ARC
  5
212
330
1F
100
AcDbEntity
  8
7__7
  6
Continuous
 62
     3
100
AcDbCircle
 10
431.316174
 20
477.928691
 30
0.0
 40
0.7499999999184065
100
AcDbArc
 50
278.743564
 51
0.0
  0
LINE
  5
213
330
1F
100
AcDbEntity
  8
7__7
  6
Continuous
 62
     3
100
AcDbLine
 10
317.066254
 20
459.598266
 30
0.0
 11
431.430183
 21
477.187407
 31
0.0
  0
LINE
  5
214
330
1F
100
AcDbEntity
  8
7__7
  6
Continuous
 62
     4
100
AcDbLine
 10
434.366174
 20
489.314182
 30
0.0
 11
434.366174
 21
447.701151
 31
0.0
  0
LINE
  5
215
330
1F
100
AcDbEntity
  8
7__7
  6
Continuous
 62
     3
100
AcDbLine
 10
480.566174
 20
527.502149
 30
0.0
 11
480.566174
 21
462.004871
 31
0.0
  0
LINE
  5
216
330
1F
100
AcDbEntity
  8
7__7
  6
Continuous
 62
     3
100
AcDbLine
 10
493.566254
 20
476.004271
 30
0.0
 11
493.566254
 21
462.504871
 31
0.0
  0
LINE
  5
217
330
1F
100
AcDbEntity
  8
7__7
  6
Continuous
 62
     3
100
AcDbLine
 10
482.066174
 20
462.504871
 30
0.0
 11
493.566254
 21
462.504871
 31
0.0
  0
INSERT
  5
221
330
1F
100
AcDbEntity
  8
7__7
  6
Continuous
 62
     3
100
AcDbBlockReference
  2
DIM_5
 10
1231.423008
 20
644.00187
 30
0.0
  0
INSERT
  5
22A
330
1F
100
AcDbEntity
  8
7__7
  6
Continuous
 62
     3
100
AcDbBlockReference
  2
DIM_6
 10
1228.298008
 20
529.001866
 30
0.0
  0
LINE
  5
22B
330
1F
100
AcDbEntity
  8
7__7
  6
Continuous
 62
     3
100
AcDbLine
 10
1400.066254
 20
479.001151
 30
0.0
 11
1400.066254
 21
641.268822
 31
0.0
  0
ARC
  5
22C
330
1F
100
AcDbEntity
  8
7__7
  6
Continuous
 62
     3
100
AcDbCircle
 10
1399.066334
 20
643.001151
 30
0.0
 40
0.9999999999492493
100
AcDbArc
 50
60.003332
 51
180.0
  0
LINE
  5
22D
330
1F
100
AcDbEntity
  8
7__7
  6
Continuous
 62
     3
100
AcDbLine
 10
1398.066334
 20
477.501134
 30
0.0
 11
1398.066334
 21
643.001151
 31
0.0
  0
LINE
  5
22E
330
1F
100
AcDbEntity
  8
7__7
  6
Continuous
 62
     3
100
AcDbLine
 10
1335.066254
 20
476.004271
 30
0.0
 11
1335.066254
 21
462.985792
 31
0.0
  0
LINE
  5
22F
330
1F
100
AcDbEntity
  8
7__7
  6
Continuous
 62
     3
100
AcDbLine
 10
1397.316318
 20
527.501149
 30
0.0
 11
1349.566334
 21
527.502149
 31
0.0
  0
LINE
  5
230
330
1F
100
AcDbEntity
  8
7__7
  6
Continuous
 62
     3
100
AcDbLine
 10
1335.066254
 20
476.004271
 30
0.0
 11
1336.566254
 21
476.004271
 31
0.0
  0
LINE
  5
231
330
1F
100
AcDbEntity
  8
7__7
  6
Continuous
 62
     3
100
AcDbLine
 10
1335.066254
 20
476.004271
 30
0.0
 11
1335.066254
 21
462.004871
 31
0.0
  0
LINE
  5
232
330
1F
100
AcDbEntity
  8
7__7
  6
Continuous
 62
     3
100
AcDbLine
 10
1396.566334
 20
549.001743
 30
0.0
 11
1396.566334
 21
529.001152
 31
0.0
  0
LINE
  5
233
330
1F
100
AcDbEntity
  8
7__7
  6
Continuous
 62
     3
100
AcDbLine
 10
1398.066334
 20
549.00066
 30
0.0
 11
1396.566334
 21
549.001743
 31
0.0
  0
ARC
  5
234
330
1F
100
AcDbEntity
  8
7__7
  6
Continuous
 62
     3
100
AcDbCircle
 10
1336.066254
 20
462.004871
 30
0.0
 40
1.000000000253755
100
AcDbArc
 50
180.0
 51
270.0
  0
LINE
  5
235
330
1F
100
AcDbEntity
  8
7__7
  6
Continuous
 62
     3
100
AcDbLine
 10
1348.066334
 20
528.002191
 30
0.0
 11
1348.066334
 21
462.504871
 31
0.0
  0
LINE
  5
236
330
1F
100
AcDbEntity
  8
7__7
  6
PLine1
 62
     4
100
AcDbLine
 10
1398.066334
 20
489.314182
 30
0.0
 11
1395.766334
 21
489.314182
 31
0.0
  0
LINE
  5
237
330
1F
100
AcDbEntity
  8
7__7
  6
Continuous
 62
     4
100
AcDbLine
 10
1398.066334
 20
449.001151
 30
0.0
 11
1499.066254
 21
449.001151
 31
0.0
  0
ARC
  5
238
330
1F
100
AcDbEntity
  8
7__7
  6
Continuous
 62
     4
100
AcDbCircle
 10
1499.066254
 20
448.001151
 30
0.0
 40
1.000000000036947
100
AcDbArc
 50
0.0
 51
90.0
  0
LINE
  5
239
330
1F
100
AcDbEntity
  8
7__7
  6
Continuous
 62
     4
100
AcDbLine
 10
1500.066254
 20
414.001151
 30
0.0
 11
1500.066254
 21
448.001151
 31
0.0
  0
LINE
  5
23A
330
1F
100
AcDbEntity
  8
7__7
  6
Continuous
 62
     4
100
AcDbLine
 10
1497.766254
 20
446.701151
 30
0.0
 11
1497.766254
 21
415.701151
 31
0.0
  0
ARC
  5
23B
330
1F
100
AcDbEntity
  8
7__7
  6
Continuous
 62
     4
100
AcDbCircle
 10
1396.766334
 20
447.701151
 30
0.0
 40
0.9999999996715195
100
AcDbArc
 50
180.0
 51
270.0
  0
LINE
  5
23C
330
1F
100
AcDbEntity
  8
7__7
  6
Continuous
 62
     4
100
AcDbLine
 10
1497.766254
 20
446.701151
 30
0.0
 11
1396.766334
 21
446.701151
 31
0.0
  0
LINE
  5
23D
330
1F
100
AcDbEntity
  8
7__7
  6
Continuous
 62
     4
100
AcDbLine
 10
1500.066254
 20
415.701151
 30
0.0
 11
1497.766254
 21
415.701151
 31
0.0
  0
LINE
  5
23E
330
1F
100
AcDbEntity
  8
7__7
  6
Continuous
 62
     4
100
AcDbLine
 10
1430.066254
 20
446.701151
 30
0.0
 11
1430.066254
 21
421.701151
 31
0.0
  0
LINE
  5
23F
330
1F
100
AcDbEntity
  8
7__7
  6
Continuous
 62
     4
100
AcDbLine
 10
1427.766254
 20
421.701151
 30
0.0
 11
1427.766254
 21
444.401151
 31
0.0
  0
LINE
  5
240
330
1F
100
AcDbEntity
  8
7__7
  6
Continuous
 62
     4
100
AcDbLine
 10
1427.766254
 20
444.401151
 30
0.0
 11
1415.066254
 21
444.401151
 31
0.0
  0
LINE
  5
241
330
1F
100
AcDbEntity
  8
7__7
  6
Continuous
 62
     4
100
AcDbLine
 10
1430.066254
 20
421.701151
 30
0.0
 11
1427.766254
 21
421.701151
 31
0.0
  0
LINE
  5
242
330
1F
100
AcDbEntity
  8
7__7
  6
Continuous
 62
     4
100
AcDbLine
 10
1415.066254
 20
446.701151
 30
0.0
 11
1415.066254
 21
444.401151
 31
0.0
  0
LINE
  5
243
330
1F
100
AcDbEntity
  8
7__7
  6
Continuous
 62
     4
100
AcDbLine
 10
1398.066334
 20
477.928691
 30
0.0
 11
1398.066334
 21
449.001151
 31
0.0
  0
LINE
  5
244
330
1F
100
AcDbEntity
  8
7__7
  6
Continuous
 62
     3
100
AcDbLine
 10
1502.066254
 20
414.001151
 30
0.0
 11
1502.066254
 21
426.001151
 31
0.0
  0
ARC
  5
245
330
1F
100
AcDbEntity
  8
7__7
  6
Continuous
 62
     3
100
AcDbCircle
 10
1514.316254
 20
426.751151
 30
0.0
 40
0.7499999996677695
100
AcDbArc
 50
270.0
 51
0.0
  0
LINE
  5
246
330
1F
100
AcDbEntity
  8
7__7
  6
Continuous
 62
     3
100
AcDbLine
 10
1502.066254
 20
426.001151
 30
0.0
 11
1514.316254
 21
426.001151
 31
0.0
  0
LINE
  5
247
330
1F
100
AcDbEntity
  8
7__7
  6
Continuous
 62
     3
100
AcDbLine
 10
1515.066254
 20
460.670714
 30
0.0
 11
1515.066254
 21
426.751151
 31
0.0
  0
ARC
  5
248
330
1F
100
AcDbEntity
  8
7__7
  6
Continuous
 62
     3
100
AcDbCircle
 10
1514.316254
 20
460.670714
 30
0.0
 40
0.7499999994335562
100
AcDbArc
 50
0.0
 51
81.256436
  0
LINE
  5
249
330
1F
100
AcDbEntity
  8
7__7
  6
Continuous
 62
     3
100
AcDbLine
 10
1400.066254
 20
479.001151
 30
0.0
 11
1514.430263
 21
461.411998
 31
0.0
  0
LINE
  5
24A
330
1F
100
AcDbEntity
  8
7__7
  6
Continuous
 62
     3
100
AcDbLine
 10
1513.066254
 20
459.602875
 30
0.0
 11
1513.066254
 21
428.001151
 31
0.0
  0
LINE
  5
24B
330
1F
100
AcDbEntity
  8
7__7
  6
Continuous
 62
     3
100
AcDbLine
 10
1513.066254
 20
428.001151
 30
0.0
 11
1500.816254
 21
428.001151
 31
0.0
  0
ARC
  5
24C
330
1F
100
AcDbEntity
  8
7__7
  6
Continuous
 62
     3
100
AcDbCircle
 10
1500.816254
 20
427.251151
 30
0.0
 40
0.7500000001601403
100
AcDbArc
 50
90.0
 51
180.0
  0
LINE
  5
24D
330
1F
100
AcDbEntity
  8
7__7
  6
Continuous
 62
     3
100
AcDbLine
 10
1500.066254
 20
414.001151
 30
0.0
 11
1500.066254
 21
427.251151
 31
0.0
  0
LINE
  5
24E
330
1F
100
AcDbEntity
  8
7__7
  6
Continuous
 62
     3
100
AcDbLine
 10
1502.066254
 20
414.001151
 30
0.0
 11
1500.066254
 21
414.001151
 31
0.0
  0
ARC
  5
24F
330
1F
100
AcDbEntity
  8
7__7
  6
Continuous
 62
     3
100
AcDbCircle
 10
1398.816334
 20
477.928691
 30
0.0
 40
0.7499999997668697
100
AcDbArc
 50
180.0
 51
261.256436
  0
LINE
  5
250
330
1F
100
AcDbEntity
  8
7__7
  6
Continuous
 62
     3
100
AcDbLine
 10
1513.066254
 20
459.598266
 30
0.0
 11
1398.702325
 21
477.187407
 31
0.0
  0
LINE
  5
251
330
1F
100
AcDbEntity
  8
7__7
  6
Continuous
 62
     3
100
AcDbLine
 10
1349.566334
 20
461.751151
 30
0.0
 11
1349.566334
 21
527.502149
 31
0.0
  0
LINE
  5
252
330
1F
100
AcDbEntity
  8
7__7
  6
Continuous
 62
     3
100
AcDbLine
 10
1336.566254
 20
476.004271
 30
0.0
 11
1336.566254
 21
462.504871
 31
0.0
  0
LINE
  5
253
330
1F
100
AcDbEntity
  8
7__7
  6
Continuous
 62
     3
100
AcDbLine
 10
1348.066334
 20
462.504871
 30
0.0
 11
1336.566254
 21
462.504871
 31
0.0
  0
LINE
  5
254
330
1F
100
AcDbEntity
  8
7__7
  6
Continuous
 62
     4
100
AcDbLine
 10
1395.766334
 20
479.002698
 30
0.0
 11
1395.766334
 21
447.701151
 31
0.0
  0
ARC
  5
255
330
1F
100
AcDbEntity
  8
7__7
  6
Continuous
 62
     3
100
AcDbCircle
 10
1326.066254
 20
661.715025
 30
0.0
 40
0.9999999999453006
100
AcDbArc
 50
180.0
 51
270.000597
  0
LINE
  5
256
330
1F
100
AcDbEntity
  8
7__7
  6
Continuous
 62
     3
100
AcDbLine
 10
1414.066254
 20
690.714957
 30
0.0
 11
1325.066254
 21
690.714957
 31
0.0
  0
LINE
  5
257
330
1F
100
AcDbEntity
  8
7__7
  6
Continuous
 62
     3
100
AcDbLine
 10
1326.566254
 20
682.276295
 30
0.0
 11
1326.566254
 21
689.620001
 31
0.0
  0
LINE
  5
258
330
1F
100
AcDbEntity
  8
7__7
  6
Continuous
 62
     3
100
AcDbLine
 10
1328.066254
 20
662.215011
 30
0.0
 11
1328.066254
 21
689.108021
 31
0.0
  0
LINE
  5
259
330
1F
100
AcDbEntity
  8
7__7
  6
Continuous
 62
     3
100
AcDbLine
 10
1326.566254
 20
690.714957
 30
0.0
 11
1326.566254
 21
689.488006
 31
0.0
  0
ARC
  5
25A
330
1F
100
AcDbEntity
  8
7__7
  6
Continuous
 62
     3
100
AcDbCircle
 10
1412.566254
 20
661.714926
 30
0.0
 40
1.000000000295598
100
AcDbArc
 50
270.0
 51
0.0
  0
LINE
  5
25B
330
1F
100
AcDbEntity
  8
7__7
  6
Continuous
 62
     3
100
AcDbLine
 10
1325.066254
 20
660.715837
 30
0.0
 11
1325.066254
 21
690.714957
 31
0.0
  0
ARC
  5
25C
330
1F
100
AcDbEntity
  8
7__7
  6
Continuous
 62
     3
100
AcDbCircle
 10
1327.493217
 20
689.714997
 30
0.0
 40
0.9999599998252966
100
AcDbArc
 50
90.0
 51
180.0
  0
ARC
  5
25D
330
1F
100
AcDbEntity
  8
7__7
  6
Continuous
 62
     3
100
AcDbCircle
 10
1414.066254
 20
689.714957
 30
0.0
 40
0.9999999994810586
100
AcDbArc
 50
0.0
 51
90.0
  0
LINE
  5
25E
330
1F
100
AcDbEntity
  8
7__7
  6
Continuous
 62
     3
100
AcDbLine
 10
1415.066254
 20
662.896134
 30
0.0
 11
1415.066254
 21
689.714957
 31
0.0
  0
LINE
  5
25F
330
1F
100
AcDbEntity
  8
7__7
  6
Continuous
 62
     3
100
AcDbLine
 10
1326.566254
 20
682.312293
 30
0.0
 11
1326.566254
 21
662.215013
 31
0.0
  0
LINE
  5
260
330
1F
100
AcDbEntity
  8
7__7
  6
Continuous
 62
     3
100
AcDbLine
 10
1413.566254
 20
661.714926
 30
0.0
 11
1413.566254
 21
689.108021
 31
0.0
  0
LINE
  5
261
330
1F
100
AcDbEntity
  8
7__7
  6
Continuous
 62
     3
100
AcDbLine
 10
1412.066254
 20
689.108021
 30
0.0
 11
1412.066254
 21
662.214927
 31
0.0
  0
LINE
  5
262
330
1F
100
AcDbEntity
  8
7__7
  6
Continuous
 62
     3
100
AcDbLine
 10
1412.066254
 20
662.214927
 30
0.0
 11
1326.566254
 21
662.215013
 31
0.0
  0
ARC
  5
263
330
1F
100
AcDbEntity
  8
7__7
  6
Continuous
 62
     3
100
AcDbCircle
 10
1349.066294
 20
528.002191
 30
0.0
 40
0.9999599998984904
100
AcDbArc
 50
90.0
 51
180.0
  0
ARC
  5
264
330
1F
100
AcDbEntity
  8
7__7
  6
Continuous
 62
     3
100
AcDbCircle
 10
1397.316334
 20
528.251149
 30
0.0
 40
0.7499999994440165
100
AcDbArc
 50
269.998801
 51
0.0
  0
LINE
  5
265
330
1F
100
AcDbEntity
  8
7__7
  6
Continuous
 62
     6
100
AcDbLine
 10
434.47225
 20
690.714957
 30
0.0
 11
449.47225
 21
705.714957
 31
0.0
  0
LINE
  5
266
330
1F
100
AcDbEntity
  8
7__7
  6
Continuous
 62
     6
100
AcDbLine
 10
439.431088
 20
690.714957
 30
0.0
 11
450.066254
 21
701.350123
 31
0.0
  0
LINE
  5
267
330
1F
100
AcDbEntity
  8
7__7
  6
Continuous
 62
     4
100
AcDbLine
 10
450.066254
 20
690.714957
 30
0.0
 11
450.066254
 21
705.714957
 31
0.0
  0
LINE
  5
268
330
1F
100
AcDbEntity
  8
7__7
  6
Continuous
 62
     6
100
AcDbLine
 10
430.066254
 20
690.988959
 30
0.0
 11
444.792252
 21
705.714957
 31
0.0
  0
LINE
  5
269
330
1F
100
AcDbEntity
  8
7__7
  6
Continuous
 62
     6
100
AcDbLine
 10
450.066254
 20
696.646957
 30
0.0
 11
440.998254
 21
705.714957
 31
0.0
  0
LINE
  5
26A
330
1F
100
AcDbEntity
  8
7__7
  6
Continuous
 62
     4
100
AcDbLine
 10
430.066254
 20
690.714957
 30
0.0
 11
430.066254
 21
705.771957
 31
0.0
  0
LINE
  5
26B
330
1F
100
AcDbEntity
  8
7__7
  6
Continuous
 62
     6
100
AcDbLine
 10
433.536257
 20
705.714957
 30
0.0
 11
430.066254
 21
702.244954
 31
0.0
  0
LINE
  5
26C
330
1F
100
AcDbEntity
  8
7__7
  6
Continuous
 62
     6
100
AcDbLine
 10
455.066254
 20
709.565496
 30
0.0
 11
425.065006
 21
709.565496
 31
0.0
  0
LINE
  5
26D
330
1F
100
AcDbEntity
  8
7__7
  6
Continuous
 62
     6
100
AcDbLine
 10
455.066254
 20
710.417509
 30
0.0
 11
425.065588
 21
710.416508
 31
0.0
  0
LINE
  5
26E
330
1F
100
AcDbEntity
  8
7__7
  6
Continuous
 62
     6
100
AcDbLine
 10
455.066254
 20
709.925496
 30
0.0
 11
425.063973
 21
709.925496
 31
0.0
  0
LINE
  5
26F
330
1F
100
AcDbEntity
  8
7__7
  6
Continuous
 62
     6
100
AcDbLine
 10
455.066254
 20
709.097476
 30
0.0
 11
425.064686
 21
709.097476
 31
0.0
  0
LINE
  5
270
330
1F
100
AcDbEntity
  8
7__7
  6
Continuous
 62
     6
100
AcDbLine
 10
446.014258
 20
690.714957
 30
0.0
 11
431.014258
 21
705.714957
 31
0.0
  0
LINE
  5
271
330
1F
100
AcDbEntity
  8
7__7
  6
Continuous
 62
     6
100
AcDbLine
 10
450.066254
 20
691.809011
 30
0.0
 11
436.162251
 21
705.714957
 31
0.0
  0
LINE
  5
272
330
1F
100
AcDbEntity
  8
7__7
  6
Continuous
 62
     6
100
AcDbLine
 10
445.990252
 20
705.714957
 30
0.0
 11
450.066254
 21
701.638955
 31
0.0
  0
LINE
  5
273
330
1F
100
AcDbEntity
  8
7__7
  6
Continuous
 62
     3
100
AcDbLine
 10
425.065947
 20
710.941495
 30
0.0
 11
425.066973
 21
712.441495
 31
0.0
  0
LINE
  5
274
330
1F
100
AcDbEntity
  8
7__7
  6
Continuous
 62
     3
100
AcDbLine
 10
448.375006
 20
715.685494
 30
0.0
 11
431.757502
 21
715.685494
 31
0.0
  0
LINE
  5
275
330
1F
100
AcDbEntity
  8
7__7
  6
Continuous
 62
     3
100
AcDbLine
 10
455.06551
 20
712.441495
 30
0.0
 11
425.066973
 21
712.441495
 31
0.0
  0
ARC
  5
276
330
1F
100
AcDbEntity
  8
7__7
  6
Continuous
 62
     3
100
AcDbCircle
 10
432.346861
 20
710.594496
 30
0.0
 40
5.124997950002978
100
AcDbArc
 50
96.926697
 51
158.875836
  0
LINE
  5
277
330
1F
100
AcDbEntity
  8
7__7
  6
Continuous
 62
     3
100
AcDbLine
 10
455.066536
 20
710.941495
 30
0.0
 11
425.065947
 21
710.941495
 31
0.0
  0
LINE
  5
278
330
1F
100
AcDbEntity
  8
7__7
  6
Continuous
 62
     6
100
AcDbLine
 10
425.065947
 20
710.941495
 30
0.0
 11
425.066069
 21
708.767496
 31
0.0
  0
LINE
  5
279
330
1F
100
AcDbEntity
  8
7__7
  6
Continuous
 62
     6
100
AcDbLine
 10
430.066254
 20
696.562816
 30
0.0
 11
439.218395
 21
705.714957
 31
0.0
  0
LINE
  5
27A
330
1F
100
AcDbEntity
  8
7__7
  6
Continuous
 62
     6
100
AcDbLine
 10
440.875241
 20
690.714957
 30
0.0
 11
430.066254
 21
701.523944
 31
0.0
  0
LINE
  5
27B
330
1F
100
AcDbEntity
  8
7__7
  6
Continuous
 62
     6
100
AcDbLine
 10
455.066536
 20
710.941495
 30
0.0
 11
455.066415
 21
708.767496
 31
0.0
  0
LINE
  5
27C
330
1F
100
AcDbEntity
  8
7__7
  6
Continuous
 62
     3
100
AcDbLine
 10
455.066536
 20
710.941495
 30
0.0
 11
455.06551
 21
712.441495
 31
0.0
  0
ARC
  5
27D
330
1F
100
AcDbEntity
  8
7__7
  6
Continuous
 62
     3
100
AcDbCircle
 10
447.785648
 20
710.594496
 30
0.0
 40
5.124997950027759
100
AcDbArc
 50
21.124164
 51
83.396555
  0
LINE
  5
27E
330
1F
100
AcDbEntity
  8
7__7
  6
Continuous
 62
     3
100
AcDbLine
 10
471.192428
 20
694.60131
 30
0.0
 11
471.192428
 21
686.600313
 31
0.0
  0
LINE
  5
27F
330
1F
100
AcDbEntity
  8
7__7
  6
Continuous
 62
     6
100
AcDbLine
 10
480.522162
 20
690.714957
 30
0.0
 11
484.508426
 21
694.701222
 31
0.0
  0
LINE
  5
280
330
1F
100
AcDbEntity
  8
7__7
  6
Continuous
 62
     6
100
AcDbLine
 10
484.51816
 20
690.714957
 30
0.0
 11
488.504425
 21
694.701222
 31
0.0
  0
LINE
  5
281
330
1F
100
AcDbEntity
  8
7__7
  6
Continuous
 62
     6
100
AcDbLine
 10
488.730158
 20
690.714957
 30
0.0
 11
492.716423
 21
694.701222
 31
0.0
  0
LINE
  5
282
330
1F
100
AcDbEntity
  8
7__7
  6
Continuous
 62
     6
100
AcDbLine
 10
492.978157
 20
690.714957
 30
0.0
 11
496.964421
 21
694.701222
 31
0.0
  0
LINE
  5
283
330
1F
100
AcDbEntity
  8
7__7
  6
Continuous
 62
     6
100
AcDbLine
 10
500.192428
 20
693.17723
 30
0.0
 11
497.730155
 21
690.714957
 31
0.0
  0
LINE
  5
284
330
1F
100
AcDbEntity
  8
7__7
  6
Continuous
 62
     3
100
AcDbLine
 10
503.087419
 20
702.714957
 30
0.0
 11
503.087419
 21
701.514957
 31
0.0
  0
CIRCLE
  5
285
330
1F
100
AcDbEntity
  8
7__7
  6
Continuous
 62
     3
100
AcDbCircle
 10
496.304526
 20
698.359862
 30
0.0
 40
0.3959998416000019
  0
CIRCLE
  5
286
330
1F
100
AcDbEntity
  8
7__7
  6
Continuous
 62
     3
100
AcDbCircle
 10
554.850503
 20
698.203862
 30
0.0
 40
0.3959998416000019
  0
CIRCLE
  5
287
330
1F
100
AcDbEntity
  8
7__7
  6
Continuous
 62
     3
100
AcDbCircle
 10
604.850483
 20
698.203862
 30
0.0
 40
0.3959998416000019
  0
CIRCLE
  5
288
330
1F
100
AcDbEntity
  8
7__7
  6
Continuous
 62
     3
100
AcDbCircle
 10
654.850463
 20
698.203862
 30
0.0
 40
0.3959998416000019
  0
CIRCLE
  5
289
330
1F
100
AcDbEntity
  8
7__7
  6
Continuous
 62
     3
100
AcDbCircle
 10
704.850443
 20
698.203862
 30
0.0
 40
0.3959998416000019
  0
CIRCLE
  5
28A
330
1F
100
AcDbEntity
  8
7__7
  6
Continuous
 62
     3
100
AcDbCircle
 10
754.850423
 20
698.203862
 30
0.0
 40
0.3959998416000019
  0
CIRCLE
  5
28B
330
1F
100
AcDbEntity
  8
7__7
  6
Continuous
 62
     3
100
AcDbCircle
 10
804.850403
 20
698.203862
 30
0.0
 40
0.3959998416000019
  0
CIRCLE
  5
28C
330
1F
100
AcDbEntity
  8
7__7
  6
Continuous
 62
     3
100
AcDbCircle
 10
854.849383
 20
698.203862
 30
0.0
 40
0.3959998415999166
  0
CIRCLE
  5
28D
330
1F
100
AcDbEntity
  8
7__7
  6
Continuous
 62
     3
100
AcDbCircle
 10
904.850363
 20
698.203862
 30
0.0
 40
0.3959998415999166
  0
CIRCLE
  5
28E
330
1F
100
AcDbEntity
  8
7__7
  6
Continuous
 62
     3
100
AcDbCircle
 10
954.747382
 20
698.277208
 30
0.0
 40
0.3959998415999166
  0
CIRCLE
  5
28F
330
1F
100
AcDbEntity
  8
7__7
  6
Continuous
 62
     3
100
AcDbCircle
 10
1004.747362
 20
698.277208
 30
0.0
 40
0.3959998415999166
  0
CIRCLE
  5
290
330
1F
100
AcDbEntity
  8
7__7
  6
Continuous
 62
     3
100
AcDbCircle
 10
1054.747342
 20
698.277208
 30
0.0
 40
0.3959998415999166
  0
CIRCLE
  5
291
330
1F
100
AcDbEntity
  8
7__7
  6
Continuous
 62
     3
100
AcDbCircle
 10
1104.747322
 20
698.277208
 30
0.0
 40
0.3959998415999166
  0
CIRCLE
  5
292
330
1F
100
AcDbEntity
  8
7__7
  6
Continuous
 62
     3
100
AcDbCircle
 10
1154.747302
 20
698.277208
 30
0.0
 40
0.3959998415999166
  0
CIRCLE
  5
293
330
1F
100
AcDbEntity
  8
7__7
  6
Continuous
 62
     3
100
AcDbCircle
 10
1204.747282
 20
698.277208
 30
0.0
 40
0.3959998415999166
  0
CIRCLE
  5
294
330
1F
100
AcDbEntity
  8
7__7
  6
Continuous
 62
     3
100
AcDbCircle
 10
1254.747262
 20
698.277208
 30
0.0
 40
0.3959998415999166
  0
CIRCLE
  5
295
330
1F
100
AcDbEntity
  8
7__7
  6
Continuous
 62
     3
100
AcDbCircle
 10
1304.879241
 20
698.211208
 30
0.0
 40
0.3959998415999166
  0
LINE
  5
296
330
1F
100
AcDbEntity
  8
7__7
  6
Continuous
 62
     3
100
AcDbLine
 10
478.692428
 20
692.214957
 30
0.0
 11
463.692428
 21
692.214957
 31
0.0
  0
ARC
  5
297
330
1F
100
AcDbEntity
  8
7__7
  6
Continuous
 62
     3
100
AcDbCircle
 10
479.492428
 20
703.414957
 30
0.0
 40
0.8000000000871599
100
AcDbArc
 50
90.0
 51
180.0
  0
LINE
  5
298
330
1F
100
AcDbEntity
  8
7__7
  6
Continuous
 62
     3
100
AcDbLine
 10
478.692428
 20
692.214957
 30
0.0
 11
478.692428
 21
703.414957
 31
0.0
  0
LINE
  5
299
330
1F
100
AcDbEntity
  8
7__7
  6
Continuous
 62
     3
100
AcDbLine
 10
480.239428
 20
702.714957
 30
0.0
 11
503.692428
 21
702.714957
 31
0.0
  0
LINE
  5
29A
330
1F
100
AcDbEntity
  8
7__7
  6
Continuous
 62
     3
100
AcDbLine
 10
503.692428
 20
704.214957
 30
0.0
 11
479.492428
 21
704.214957
 31
0.0
  0
LINE
  5
29B
330
1F
100
AcDbEntity
  8
7__7
  6
Continuous
 62
     3
100
AcDbLine
 10
480.192428
 20
702.713957
 30
0.0
 11
480.192428
 21
691.514957
 31
0.0
  0
ARC
  5
29C
330
1F
100
AcDbEntity
  8
7__7
  6
Continuous
 62
     3
100
AcDbCircle
 10
479.392428
 20
691.514957
 30
0.0
 40
0.7999999998317047
100
AcDbArc
 50
270.0
 51
0.0
  0
LINE
  5
29D
330
1F
100
AcDbEntity
  8
7__7
  6
Continuous
 62
     6
100
AcDbLine
 10
480.192428
 20
694.714957
 30
0.0
 11
500.192428
 21
694.714957
 31
0.0
  0
LINE
  5
29E
330
1F
100
AcDbEntity
  8
7__7
  6
Continuous
 62
     6
100
AcDbLine
 10
500.192428
 20
694.714957
 30
0.0
 11
500.192428
 21
690.714957
 31
0.0
  0
LINE
  5
29F
330
1F
100
AcDbEntity
  8
7__7
  6
Continuous
 62
     6
100
AcDbLine
 10
500.192428
 20
690.714957
 30
0.0
 11
480.192428
 21
690.714957
 31
0.0
  0
LINE
  5
2A0
330
1F
100
AcDbEntity
  8
7__7
  6
Continuous
 62
     6
100
AcDbLine
 10
480.192428
 20
690.714957
 30
0.0
 11
480.192428
 21
694.714957
 31
0.0
  0
LINE
  5
2A1
330
1F
100
AcDbEntity
  8
7__7
  6
Continuous
 62
     6
100
AcDbLine
 10
1348.899081
 20
694.714957
 30
0.0
 11
485.066254
 21
694.714957
 31
0.0
  0
LINE
  5
2A2
330
1F
100
AcDbEntity
  8
7__7
  6
Continuous
 62
     6
100
AcDbLine
 10
1345.066254
 20
701.514957
 30
0.0
 11
485.066254
 21
701.514957
 31
0.0
  0
LINE
  5
2A3
330
1F
100
AcDbEntity
  8
7__7
  6
Continuous
 62
     6
100
AcDbLine
 10
485.066254
 20
701.514957
 30
0.0
 11
485.066254
 21
694.714957
 31
0.0
  0
LINE
  5
2A4
330
1F
100
AcDbEntity
  8
7__7
  6
Continuous
 62
     3
100
AcDbLine
 10
503.692428
 20
704.214957
 30
0.0
 11
503.692428
 21
702.714957
 31
0.0
  0
LINE
  5
2A5
330
1F
100
AcDbEntity
  8
7__7
  6
Continuous
 62
     3
100
AcDbLine
 10
463.692428
 20
690.714957
 30
0.0
 11
463.692428
 21
692.214957
 31
0.0
  0
LINE
  5
2A6
330
1F
100
AcDbEntity
  8
7__7
  6
Continuous
 62
     3
100
AcDbLine
 10
1358.94008
 20
694.60131
 30
0.0
 11
1358.94008
 21
686.600313
 31
0.0
  0
LINE
  5
2A7
330
1F
100
AcDbEntity
  8
7__7
  6
Continuous
 62
     6
100
AcDbLine
 10
1349.610347
 20
690.714957
 30
0.0
 11
1345.624082
 21
694.701222
 31
0.0
  0
LINE
  5
2A8
330
1F
100
AcDbEntity
  8
7__7
  6
Continuous
 62
     6
100
AcDbLine
 10
1345.614348
 20
690.714957
 30
0.0
 11
1341.628084
 21
694.701222
 31
0.0
  0
LINE
  5
2A9
330
1F
100
AcDbEntity
  8
7__7
  6
Continuous
 62
     6
100
AcDbLine
 10
1341.40235
 20
690.714957
 30
0.0
 11
1337.416085
 21
694.701222
 31
0.0
  0
LINE
  5
2AA
330
1F
100
AcDbEntity
  8
7__7
  6
Continuous
 62
     6
100
AcDbLine
 10
1337.154352
 20
690.714957
 30
0.0
 11
1333.168087
 21
694.701222
 31
0.0
  0
LINE
  5
2AB
330
1F
100
AcDbEntity
  8
7__7
  6
Continuous
 62
     6
100
AcDbLine
 10
1329.94008
 20
693.17723
 30
0.0
 11
1332.402353
 21
690.714957
 31
0.0
  0
LINE
  5
2AC
330
1F
100
AcDbEntity
  8
7__7
  6
Continuous
 62
     3
100
AcDbLine
 10
1327.045089
 20
702.714957
 30
0.0
 11
1327.045089
 21
701.514957
 31
0.0
  0
LINE
  5
2AD
330
1F
100
AcDbEntity
  8
7__7
  6
Continuous
 62
     3
100
AcDbLine
 10
1351.44008
 20
692.214957
 30
0.0
 11
1366.44008
 21
692.214957
 31
0.0
  0
ARC
  5
2AE
330
1F
100
AcDbEntity
  8
7__7
  6
Continuous
 62
     3
100
AcDbCircle
 10
1350.64008
 20
703.414957
 30
0.0
 40
0.7999999997626708
100
AcDbArc
 50
0.0
 51
90.0
  0
LINE
  5
2AF
330
1F
100
AcDbEntity
  8
7__7
  6
Continuous
 62
     3
100
AcDbLine
 10
1351.44008
 20
692.214957
 30
0.0
 11
1351.44008
 21
703.414957
 31
0.0
  0
LINE
  5
2B0
330
1F
100
AcDbEntity
  8
7__7
  6
Continuous
 62
     3
100
AcDbLine
 10
1349.89308
 20
702.714957
 30
0.0
 11
1326.44008
 21
702.714957
 31
0.0
  0
LINE
  5
2B1
330
1F
100
AcDbEntity
  8
7__7
  6
Continuous
 62
     3
100
AcDbLine
 10
1326.44008
 20
704.214957
 30
0.0
 11
1350.64008
 21
704.214957
 31
0.0
  0
LINE
  5
2B2
330
1F
100
AcDbEntity
  8
7__7
  6
Continuous
 62
     3
100
AcDbLine
 10
1349.94008
 20
702.713957
 30
0.0
 11
1349.94008
 21
691.514957
 31
0.0
  0
ARC
  5
2B3
330
1F
100
AcDbEntity
  8
7__7
  6
Continuous
 62
     3
100
AcDbCircle
 10
1350.74008
 20
691.514957
 30
0.0
 40
0.799999999876863
100
AcDbArc
 50
180.0
 51
270.0
  0
LINE
  5
2B4
330
1F
100
AcDbEntity
  8
7__7
  6
Continuous
 62
     6
100
AcDbLine
 10
1349.94008
 20
694.714957
 30
0.0
 11
1329.94008
 21
694.714957
 31
0.0
  0
LINE
  5
2B5
330
1F
100
AcDbEntity
  8
7__7
  6
Continuous
 62
     6
100
AcDbLine
 10
1329.94008
 20
694.714957
 30
0.0
 11
1329.94008
 21
690.714957
 31
0.0
  0
LINE
  5
2B6
330
1F
100
AcDbEntity
  8
7__7
  6
Continuous
 62
     6
100
AcDbLine
 10
1329.94008
 20
690.714957
 30
0.0
 11
1349.94008
 21
690.714957
 31
0.0
  0
LINE
  5
2B7
330
1F
100
AcDbEntity
  8
7__7
  6
Continuous
 62
     6
100
AcDbLine
 10
1349.94008
 20
690.714957
 30
0.0
 11
1349.94008
 21
694.714957
 31
0.0
  0
LINE
  5
2B8
330
1F
100
AcDbEntity
  8
7__7
  6
Continuous
 62
     6
100
AcDbLine
 10
1345.066254
 20
701.514957
 30
0.0
 11
1345.066254
 21
694.714957
 31
0.0
  0
LINE
  5
2B9
330
1F
100
AcDbEntity
  8
7__7
  6
Continuous
 62
     3
100
AcDbLine
 10
1326.44008
 20
704.214957
 30
0.0
 11
1326.44008
 21
702.714957
 31
0.0
  0
LINE
  5
2BA
330
1F
100
AcDbEntity
  8
7__7
  6
Continuous
 62
     3
100
AcDbLine
 10
1366.44008
 20
690.714957
 30
0.0
 11
1366.44008
 21
692.214957
 31
0.0
  0
LINE
  5
2BB
330
1F
100
AcDbEntity
  8
7__7
  6
Continuous
 62
     3
100
AcDbLine
 10
1374.066254
 20
262.330433
 30
0.0
 11
1374.066254
 21
162.969893
 31
0.0
  0
LINE
  5
2BC
330
1F
100
AcDbEntity
  8
7__7
  6
Continuous
 62
     4
100
AcDbLine
 10
1369.566254
 20
264.451754
 30
0.0
 11
1369.566254
 21
440.502698
 31
0.0
  0
LINE
  5
2BD
330
1F
100
AcDbEntity
  8
7__7
  6
Continuous
 62
     4
100
AcDbLine
 10
1380.566254
 20
264.451754
 30
0.0
 11
1380.566254
 21
440.502698
 31
0.0
  0
LINE
  5
2BE
330
1F
100
AcDbEntity
  8
7__7
  6
Continuous
 62
     4
100
AcDbLine
 10
1351.866334
 20
527.502101
 30
0.0
 11
1351.866334
 21
481.302698
 31
0.0
  0
LINE
  5
2BF
330
1F
100
AcDbEntity
  8
7__7
  6
Continuous
 62
     4
100
AcDbLine
 10
1395.766334
 20
527.501182
 30
0.0
 11
1395.766334
 21
481.302698
 31
0.0
  0
ARC
  5
2C0
330
1F
100
AcDbEntity
  8
7__7
  6
Continuous
 62
     3
100
AcDbCircle
 10
1350.566334
 20
480.002698
 30
0.0
 40
0.9999999998519722
100
AcDbArc
 50
180.0
 51
270.0
  0
ARC
  5
2C1
330
1F
100
AcDbEntity
  8
7__7
  6
Continuous
 62
     3
100
AcDbCircle
 10
1397.066334
 20
480.002698
 30
0.0
 40
1.000000000279138
100
AcDbArc
 50
270.0
 51
0.0
  0
LINE
  5
2C2
330
1F
100
AcDbEntity
  8
7__7
  6
Continuous
 62
     4
100
AcDbLine
 10
1350.566334
 20
479.002698
 30
0.0
 11
1397.066334
 21
479.002698
 31
0.0
  0
LINE
  5
2C3
330
1F
100
AcDbEntity
  8
7__7
  6
Continuous
 62
     4
100
AcDbLine
 10
1351.866334
 20
481.302698
 30
0.0
 11
1395.766334
 21
481.302698
 31
0.0
  0
ARC
  5
2C4
330
1F
100
AcDbEntity
  8
7__7
  6
Continuous
 62
     4
100
AcDbCircle
 10
1372.316254
 20
264.451754
 30
0.0
 40
2.749999999999673
100
AcDbArc
 50
180.0
 51
0.0
  0
ARC
  5
2C5
330
1F
100
AcDbEntity
  8
7__7
  6
Continuous
 62
     4
100
AcDbCircle
 10
1377.816254
 20
264.451754
 30
0.0
 40
2.750000000024016
100
AcDbArc
 50
0.0
 51
180.0
  0
LINE
  5
2C6
330
1F
100
AcDbEntity
  8
7__7
  6
Continuous
 62
     3
100
AcDbLine
 10
1376.066254
 20
266.573074
 30
0.0
 11
1376.066254
 21
162.988715
 31
0.0
  0
LINE
  5
2C7
330
1F
100
AcDbEntity
  8
7__7
  6
Continuous
 62
     3
100
AcDbLine
 10
1367.566254
 20
527.501793
 30
0.0
 11
1367.566254
 21
529.002699
 31
0.0
  0
LINE
  5
2C8
330
1F
100
AcDbEntity
  8
7__7
  6
Continuous
 62
     3
100
AcDbLine
 10
1382.566254
 20
527.501479
 30
0.0
 11
1382.566254
 21
529.002699
 31
0.0
  0
LINE
  5
2C9
330
1F
100
AcDbEntity
  8
7__7
  6
Continuous
 62
     4
100
AcDbLine
 10
1368.316254
 20
469.002698
 30
0.0
 11
1381.816254
 21
469.002698
 31
0.0
  0
LINE
  5
2CA
330
1F
100
AcDbEntity
  8
7__7
  6
Continuous
 62
     4
100
AcDbLine
 10
1381.816254
 20
469.002698
 30
0.0
 11
1381.816254
 21
440.502698
 31
0.0
  0
LINE
  5
2CB
330
1F
100
AcDbEntity
  8
7__7
  6
Continuous
 62
     4
100
AcDbLine
 10
1381.816254
 20
440.502698
 30
0.0
 11
1368.316254
 21
440.502698
 31
0.0
  0
LINE
  5
2CC
330
1F
100
AcDbEntity
  8
7__7
  6
Continuous
 62
     4
100
AcDbLine
 10
1368.316254
 20
440.502698
 30
0.0
 11
1368.316254
 21
469.002698
 31
0.0
  0
LINE
  5
2CD
330
1F
100
AcDbEntity
  8
7__7
  6
Continuous
 62
     4
100
AcDbLine
 10
1368.316254
 20
469.002698
 30
0.0
 11
1371.066254
 21
473.502698
 31
0.0
  0
LINE
  5
2CE
330
1F
100
AcDbEntity
  8
7__7
  6
Continuous
 62
     4
100
AcDbLine
 10
1371.066254
 20
473.502698
 30
0.0
 11
1379.066254
 21
473.502698
 31
0.0
  0
LINE
  5
2CF
330
1F
100
AcDbEntity
  8
7__7
  6
Continuous
 62
     4
100
AcDbLine
 10
1379.066254
 20
473.502698
 30
0.0
 11
1381.816254
 21
469.002698
 31
0.0
  0
LINE
  5
2D0
330
1F
100
AcDbEntity
  8
7__7
  6
Continuous
 62
     4
100
AcDbLine
 10
1370.066254
 20
479.002698
 30
0.0
 11
1370.066254
 21
481.302698
 31
0.0
  0
LINE
  5
2D1
330
1F
100
AcDbEntity
  8
7__7
  6
Continuous
 62
     4
100
AcDbLine
 10
1371.066254
 20
486.802698
 30
0.0
 11
1371.066254
 21
494.502698
 31
0.0
  0
LINE
  5
2D2
330
1F
100
AcDbEntity
  8
7__7
  6
Continuous
 62
     4
100
AcDbLine
 10
1371.066254
 20
494.502698
 30
0.0
 11
1372.066254
 21
495.502698
 31
0.0
  0
LINE
  5
2D3
330
1F
100
AcDbEntity
  8
7__7
  6
Continuous
 62
     4
100
AcDbLine
 10
1372.066254
 20
495.502698
 30
0.0
 11
1378.066254
 21
495.502698
 31
0.0
  0
LINE
  5
2D4
330
1F
100
AcDbEntity
  8
7__7
  6
Continuous
 62
     4
100
AcDbLine
 10
1378.066254
 20
495.502698
 30
0.0
 11
1379.066254
 21
494.502698
 31
0.0
  0
LINE
  5
2D5
330
1F
100
AcDbEntity
  8
7__7
  6
Continuous
 62
     4
100
AcDbLine
 10
1379.066254
 20
494.502698
 30
0.0
 11
1379.066254
 21
486.802698
 31
0.0
  0
LINE
  5
2D6
330
1F
100
AcDbEntity
  8
7__7
  6
Continuous
 62
     4
100
AcDbLine
 10
1380.066254
 20
481.302698
 30
0.0
 11
1380.066254
 21
479.002698
 31
0.0
  0
ARC
  5
2D7
330
1F
100
AcDbEntity
  8
7__7
  6
Continuous
 62
     3
100
AcDbCircle
 10
1375.066254
 20
477.048283
 30
0.0
 40
9.754415587808353
100
AcDbArc
 50
65.790724
 51
114.209276
  0
ARC
  5
2D8
330
1F
100
AcDbEntity
  8
7__7
  6
Continuous
 62
     3
100
AcDbCircle
 10
1380.638371
 20
484.94135
 30
0.0
 40
1.865081654012917
100
AcDbArc
 50
93.62604
 51
147.449869
  0
LINE
  5
2D9
330
1F
100
AcDbEntity
  8
7__7
  6
Continuous
 62
     3
100
AcDbLine
 10
1367.560701
 20
481.302698
 30
0.0
 11
1382.571808
 21
481.302698
 31
0.0
  0
LINE
  5
2DA
330
1F
100
AcDbEntity
  8
7__7
  6
Continuous
 62
     3
100
AcDbLine
 10
1371.066254
 20
481.302698
 30
0.0
 11
1371.066254
 21
485.944834
 31
0.0
  0
LINE
  5
2DB
330
1F
100
AcDbEntity
  8
7__7
  6
Continuous
 62
     3
100
AcDbLine
 10
1368.566254
 20
486.802698
 30
0.0
 11
1375.066254
 21
486.802698
 31
0.0
  0
LINE
  5
2DC
330
1F
100
AcDbEntity
  8
7__7
  6
Continuous
 62
     3
100
AcDbLine
 10
1382.571808
 20
481.302698
 30
0.0
 11
1382.571808
 21
486.222142
 31
0.0
  0
LINE
  5
2DD
330
1F
100
AcDbEntity
  8
7__7
  6
Continuous
 62
     3
100
AcDbLine
 10
1379.066254
 20
481.302698
 30
0.0
 11
1379.066254
 21
485.944834
 31
0.0
  0
LINE
  5
2DE
330
1F
100
AcDbEntity
  8
7__7
  6
Continuous
 62
     3
100
AcDbLine
 10
1381.566254
 20
486.802698
 30
0.0
 11
1375.066254
 21
486.802698
 31
0.0
  0
LINE
  5
2DF
330
1F
100
AcDbEntity
  8
7__7
  6
Continuous
 62
     3
100
AcDbLine
 10
1367.560701
 20
481.302698
 30
0.0
 11
1367.560701
 21
486.222142
 31
0.0
  0
LINE
  5
2E0
330
1F
100
AcDbEntity
  8
7__7
  6
Continuous
 62
     3
100
AcDbLine
 10
1367.560701
 20
486.222142
 30
0.0
 11
1368.566254
 21
486.802698
 31
0.0
  0
LINE
  5
2E1
330
1F
100
AcDbEntity
  8
7__7
  6
Continuous
 62
     3
100
AcDbLine
 10
1382.571808
 20
486.222142
 30
0.0
 11
1381.566254
 21
486.802698
 31
0.0
  0
ARC
  5
2E2
330
1F
100
AcDbEntity
  8
7__7
  6
Continuous
 62
     3
100
AcDbCircle
 10
1369.494138
 20
484.94135
 30
0.0
 40
1.865081654008395
100
AcDbArc
 50
32.550131
 51
86.37396
  0
ARC
  5
2E3
330
1F
100
AcDbEntity
  8
7__7
  6
Continuous
 62
     3
100
AcDbCircle
 10
1375.066254
 20
483.257114
 30
0.0
 40
9.75441558765641
100
AcDbArc
 50
245.790724
 51
294.209276
  0
ARC
  5
2E4
330
1F
100
AcDbEntity
  8
7__7
  6
Continuous
 62
     3
100
AcDbCircle
 10
1380.638371
 20
475.364046
 30
0.0
 40
1.865081654250972
100
AcDbArc
 50
212.550131
 51
266.37396
  0
LINE
  5
2E5
330
1F
100
AcDbEntity
  8
7__7
  6
Continuous
 62
     3
100
AcDbLine
 10
1371.066254
 20
479.002698
 30
0.0
 11
1371.066254
 21
474.360563
 31
0.0
  0
LINE
  5
2E6
330
1F
100
AcDbEntity
  8
7__7
  6
Continuous
 62
     3
100
AcDbLine
 10
1368.566254
 20
473.502698
 30
0.0
 11
1375.066254
 21
473.502698
 31
0.0
  0
LINE
  5
2E7
330
1F
100
AcDbEntity
  8
7__7
  6
Continuous
 62
     3
100
AcDbLine
 10
1382.571808
 20
478.422142
 30
0.0
 11
1382.571808
 21
474.083255
 31
0.0
  0
LINE
  5
2E8
330
1F
100
AcDbEntity
  8
7__7
  6
Continuous
 62
     3
100
AcDbLine
 10
1379.066254
 20
479.002698
 30
0.0
 11
1379.066254
 21
474.360563
 31
0.0
  0
LINE
  5
2E9
330
1F
100
AcDbEntity
  8
7__7
  6
Continuous
 62
     3
100
AcDbLine
 10
1381.566254
 20
473.502698
 30
0.0
 11
1375.066254
 21
473.502698
 31
0.0
  0
LINE
  5
2EA
330
1F
100
AcDbEntity
  8
7__7
  6
Continuous
 62
     3
100
AcDbLine
 10
1367.560701
 20
478.422142
 30
0.0
 11
1367.560701
 21
474.083255
 31
0.0
  0
LINE
  5
2EB
330
1F
100
AcDbEntity
  8
7__7
  6
Continuous
 62
     3
100
AcDbLine
 10
1367.560701
 20
474.083255
 30
0.0
 11
1368.566254
 21
473.502698
 31
0.0
  0
LINE
  5
2EC
330
1F
100
AcDbEntity
  8
7__7
  6
Continuous
 62
     3
100
AcDbLine
 10
1382.571808
 20
474.083255
 30
0.0
 11
1381.566254
 21
473.502698
 31
0.0
  0
ARC
  5
2ED
330
1F
100
AcDbEntity
  8
7__7
  6
Continuous
 62
     3
100
AcDbCircle
 10
1369.494138
 20
475.364046
 30
0.0
 40
1.86508165424623
100
AcDbArc
 50
273.62604
 51
327.449869
  0
LINE
  5
2EE
330
1F
100
AcDbEntity
  8
7__7
  6
Continuous
 62
     4
100
AcDbLine
 10
1371.066254
 20
479.002698
 30
0.0
 11
1379.066254
 21
479.002698
 31
0.0
  0
ARC
  5
2EF
330
1F
100
AcDbEntity
  8
7__7
  6
Continuous
 62
     3
100
AcDbCircle
 10
1375.066254
 20
469.248283
 30
0.0
 40
9.75441558774466
100
AcDbArc
 50
65.790724
 51
114.209276
  0
ARC
  5
2F0
330
1F
100
AcDbEntity
  8
7__7
  6
Continuous
 62
     3
100
AcDbCircle
 10
1380.638371
 20
477.14135
 30
0.0
 40
1.865081654582795
100
AcDbArc
 50
93.62604
 51
147.449869
  0
LINE
  5
2F1
330
1F
100
AcDbEntity
  8
7__7
  6
Continuous
 62
     3
100
AcDbLine
 10
1368.566254
 20
479.002698
 30
0.0
 11
1375.066254
 21
479.002698
 31
0.0
  0
LINE
  5
2F2
330
1F
100
AcDbEntity
  8
7__7
  6
Continuous
 62
     3
100
AcDbLine
 10
1381.566254
 20
479.002698
 30
0.0
 11
1375.066254
 21
479.002698
 31
0.0
  0
LINE
  5
2F3
330
1F
100
AcDbEntity
  8
7__7
  6
Continuous
 62
     3
100
AcDbLine
 10
1367.560701
 20
478.422142
 30
0.0
 11
1368.566254
 21
479.002698
 31
0.0
  0
LINE
  5
2F4
330
1F
100
AcDbEntity
  8
7__7
  6
Continuous
 62
     3
100
AcDbLine
 10
1382.571808
 20
478.422142
 30
0.0
 11
1381.566254
 21
479.002698
 31
0.0
  0
ARC
  5
2F5
330
1F
100
AcDbEntity
  8
7__7
  6
Continuous
 62
     3
100
AcDbCircle
 10
1369.494138
 20
477.14135
 30
0.0
 40
1.8650816545782
100
AcDbArc
 50
32.550131
 51
86.37396
  0
CIRCLE
  5
2F6
330
1F
100
AcDbEntity
  8
7__7
  6
Continuous
 62
     3
100
AcDbCircle
 10
717.327221
 20
701.514957
 30
0.0
 40
2.4
  0
CIRCLE
  5
2F7
330
1F
100
AcDbEntity
  8
7__7
  6
Continuous
 62
     3
100
AcDbCircle
 10
579.07008
 20
940.985706
 30
0.0
 40
2.4
  0
ARC
  5
2F8
330
1F
100
AcDbEntity
  8
7__7
  6
Continuous
 62
     3
100
AcDbCircle
 10
440.808858
 20
701.514957
 30
0.0
 40
276.5183628779993
100
AcDbArc
 50
0.0
 51
59.999512
  0
LINE
  5
2F9
330
1F
100
AcDbEntity
  8
7__7
  6
PLine4
 62
     3
100
AcDbLine
 10
819.98747
 20
1312.125562
 30
0.0
 11
1242.618226
 21
735.82598
 31
0.0
  0
LINE
  5
2FA
330
1F
100
AcDbEntity
  8
7__7
  6
PLine2
 62
     3
100
AcDbLine
 10
695.895543
 20
630.715214
 30
0.0
 11
712.422073
 21
630.715214
 31
0.0
  0
LINE
  5
2FB
330
1F
100
AcDbEntity
  8
7__7
  6
Continuous
 62
     3
100
AcDbLine
 10
1188.066254
 20
531.301786
 30
0.0
 11
1148.066254
 21
531.301786
 31
0.0
  0
LINE
  5
2FC
330
1F
100
AcDbEntity
  8
7__7
  6
Continuous
 62
     3
100
AcDbLine
 10
1188.066254
 20
533.601786
 30
0.0
 11
1165.457304
 21
565.737688
 31
0.0
  0
LINE
  5
2FD
330
1F
100
AcDbEntity
  8
7__7
  6
Continuous
 62
     3
100
AcDbLine
 10
1148.066254
 20
559.001786
 30
0.0
 11
1148.066254
 21
529.001786
 31
0.0
  0
CIRCLE
  5
2FE
330
1F
100
AcDbEntity
  8
7__7
  6
Continuous
 62
     3
100
AcDbCircle
 10
1158.37125
 20
558.96736
 30
0.0
 40
4.764998093999964
  0
LINE
  5
2FF
330
1F
100
AcDbEntity
  8
7__7
  6
PLine2
 62
     3
100
AcDbLine
 10
684.061996
 20
633.850663
 30
0.0
 11
1178.158292
 21
555.829101
 31
0.0
  0
LINE
  5
300
330
1F
100
AcDbEntity
  8
7__7
  6
Continuous
 62
     3
100
AcDbLine
 10
1188.066254
 20
533.601786
 30
0.0
 11
1188.066254
 21
529.001786
 31
0.0
  0
LINE
  5
301
330
1F
100
AcDbEntity
  8
7__7
  6
Continuous
 62
     3
100
AcDbLine
 10
1148.066254
 20
533.601786
 30
0.0
 11
1188.066254
 21
533.601786
 31
0.0
  0
LINE
  5
302
330
1F
100
AcDbEntity
  8
7__7
  6
PLine2
 62
     3
100
AcDbLine
 10
1158.066254
 20
570.999999
 30
0.0
 11
1158.066254
 21
547.072787
 31
0.0
  0
ARC
  5
303
330
1F
100
AcDbEntity
  8
7__7
  6
Continuous
 62
     3
100
AcDbCircle
 10
1158.066254
 20
559.001786
 30
0.0
 40
10.0000000000022
100
AcDbArc
 50
42.344768
 51
180.0
  0
LINE
  5
304
330
1F
100
AcDbEntity
  8
7__7
  6
Continuous
 62
     4
100
AcDbLine
 10
714.044949
 20
641.77101
 30
0.0
 11
730.562114
 21
639.162824
 31
0.0
  0
LINE
  5
305
330
1F
100
AcDbEntity
  8
7__7
  6
Continuous
 62
     4
100
AcDbLine
 10
1131.893474
 20
575.78955
 30
0.0
 11
735.500919
 21
638.382949
 31
0.0
  0
LINE
  5
306
330
1F
100
AcDbEntity
  8
7__7
  6
Continuous
 62
     4
100
AcDbLine
 10
701.968714
 20
618.368173
 30
0.0
 11
726.66274
 21
614.468798
 31
0.0
  0
LINE
  5
307
330
1F
100
AcDbEntity
  8
7__7
  6
Continuous
 62
     4
100
AcDbLine
 10
1127.9941
 20
551.095525
 30
0.0
 11
731.601545
 21
613.688924
 31
0.0
  0
LINE
  5
308
330
1F
100
AcDbEntity
  8
7__7
  6
Continuous
 62
     4
100
AcDbLine
 10
1131.893474
 20
575.78955
 30
0.0
 11
1127.9941
 21
551.095525
 31
0.0
  0
ARC
  5
309
330
1F
100
AcDbEntity
  8
7__7
  6
Continuous
 62
     4
100
AcDbCircle
 10
1130.367589
 20
571.028072
 30
0.0
 40
4.999999999967271
100
AcDbArc
 50
351.026654
 51
72.23118
  0
ARC
  5
30A
330
1F
100
AcDbEntity
  8
7__7
  6
Continuous
 62
     4
100
AcDbCircle
 10
1128.009622
 20
556.095501
 30
0.0
 40
4.999999999955296
100
AcDbArc
 50
269.822128
 51
351.026654
  0
LINE
  5
30B
330
1F
100
AcDbEntity
  8
7__7
  6
Continuous
 62
     4
100
AcDbLine
 10
1132.177723
 20
550.434899
 30
0.0
 11
1136.077098
 21
575.128924
 31
0.0
  0
LINE
  5
30C
330
1F
100
AcDbEntity
  8
7__7
  6
Continuous
 62
     4
100
AcDbLine
 10
1136.077098
 20
575.128924
 30
0.0
 11
1160.015941
 21
571.348799
 31
0.0
  0
LINE
  5
30D
330
1F
100
AcDbEntity
  8
7__7
  6
Continuous
 62
     4
100
AcDbLine
 10
1147.939707
 20
547.945962
 30
0.0
 11
1132.177723
 21
550.434899
 31
0.0
  0
ARC
  5
30E
330
1F
100
AcDbEntity
  8
7__7
  6
Continuous
 62
     4
100
AcDbCircle
 10
1157.163335
 20
559.144364
 30
0.0
 40
12.53337906704893
100
AcDbArc
 50
2.093717
 51
85.209165
  0
LINE
  5
30F
330
1F
100
AcDbEntity
  8
7__7
  6
Continuous
 62
     4
100
AcDbLine
 10
730.562114
 20
639.162824
 30
0.0
 11
726.66274
 21
614.468798
 31
0.0
  0
ARC
  5
310
330
1F
100
AcDbEntity
  8
7__7
  6
Continuous
 62
     4
100
AcDbCircle
 10
703.918402
 20
630.715185
 30
0.0
 40
12.50000000000482
100
AcDbArc
 50
177.371215
 51
261.026654
  0
LINE
  5
311
330
1F
100
AcDbEntity
  8
7__7
  6
Continuous
 62
     4
100
AcDbLine
 10
735.500919
 20
638.382949
 30
0.0
 11
731.601545
 21
613.688924
 31
0.0
  0
LINE
  5
312
330
1F
100
AcDbEntity
  8
7__7
  6
Continuous
 62
     4
100
AcDbLine
 10
729.548277
 20
632.742377
 30
0.0
 11
734.487082
 21
631.962502
 31
0.0
  0
LINE
  5
313
330
1F
100
AcDbEntity
  8
7__7
  6
Continuous
 62
     4
100
AcDbLine
 10
727.676577
 20
620.889245
 30
0.0
 11
732.615382
 21
620.10937
 31
0.0
  0
LINE
  5
314
330
1F
100
AcDbEntity
  8
7__7
  6
PLine2
 62
     3
100
AcDbLine
 10
703.918223
 20
640.736939
 30
0.0
 11
703.918223
 21
617.524449
 31
0.0
  0
CIRCLE
  5
315
330
1F
100
AcDbEntity
  8
7__7
  6
Continuous
 62
     3
100
AcDbCircle
 10
703.918223
 20
630.715214
 30
0.0
 40
4.5
  0
LINE
  5
316
330
1F
100
AcDbEntity
  8
7__7
  6
Continuous
 62
     3
100
AcDbLine
 10
673.918223
 20
658.415214
 30
0.0
 11
713.918223
 21
658.415214
 31
0.0
  0
LINE
  5
317
330
1F
100
AcDbEntity
  8
7__7
  6
Continuous
 62
     3
100
AcDbLine
 10
673.918223
 20
656.115214
 30
0.0
 11
696.527173
 21
623.979311
 31
0.0
  0
LINE
  5
318
330
1F
100
AcDbEntity
  8
7__7
  6
Continuous
 62
     3
100
AcDbLine
 10
713.918223
 20
630.715214
 30
0.0
 11
713.918223
 21
660.715214
 31
0.0
  0
LINE
  5
319
330
1F
100
AcDbEntity
  8
7__7
  6
Continuous
 62
     3
100
AcDbLine
 10
673.918223
 20
656.115214
 30
0.0
 11
673.918223
 21
660.715214
 31
0.0
  0
LINE
  5
31A
330
1F
100
AcDbEntity
  8
7__7
  6
Continuous
 62
     3
100
AcDbLine
 10
713.918223
 20
656.115214
 30
0.0
 11
673.918223
 21
656.115214
 31
0.0
  0
ARC
  5
31B
330
1F
100
AcDbEntity
  8
7__7
  6
Continuous
 62
     3
100
AcDbCircle
 10
703.918223
 20
630.715214
 30
0.0
 40
9.999999999997991
100
AcDbArc
 50
222.344768
 51
0.0
  0
LINE
  5
31C
330
1F
100
AcDbEntity
  8
7__7
  6
Continuous
 62
     4
100
AcDbLine
 10
1325.066254
 20
660.715837
 30
0.0
 11
1275.066254
 21
660.715837
 31
0.0
  0
LINE
  5
31D
330
1F
100
AcDbEntity
  8
7__7
  6
PLine5
 62
     3
100
AcDbLine
 10
1301.336284
 20
621.94232
 30
0.0
 11
1311.907261
 21
633.348577
 31
0.0
  0
LINE
  5
31E
330
1F
100
AcDbEntity
  8
7__7
  6
Continuous
 62
     4
100
AcDbLine
 10
1319.066254
 20
685.71561
 30
0.0
 11
1325.066254
 21
685.715838
 31
0.0
  0
LINE
  5
31F
330
1F
100
AcDbEntity
  8
7__7
  6
Continuous
 62
     4
100
AcDbLine
 10
1319.066254
 20
685.71561
 30
0.0
 11
1319.066254
 21
669.715837
 31
0.0
  0
ARC
  5
320
330
1F
100
AcDbEntity
  8
7__7
  6
Continuous
 62
     4
100
AcDbCircle
 10
1316.066254
 20
669.715837
 30
0.0
 40
3.000000000013831
100
AcDbArc
 50
270.0
 51
0.0
  0
ARC
  5
321
330
1F
100
AcDbEntity
  8
7__7
  6
Continuous
 62
     4
100
AcDbCircle
 10
1316.066254
 20
669.715837
 30
0.0
 40
3.000000000013831
100
AcDbArc
 50
270.0
 51
0.0
  0
LINE
  5
322
330
1F
100
AcDbEntity
  8
7__7
  6
Continuous
 62
     4
100
AcDbLine
 10
1278.066254
 20
666.715837
 30
0.0
 11
1316.066254
 21
666.715837
 31
0.0
  0
LINE
  5
323
330
1F
100
AcDbEntity
  8
7__7
  6
Continuous
 62
     3
100
AcDbLine
 10
1291.443973
 20
643.205082
 30
0.0
 11
1355.664723
 21
583.687215
 31
0.0
  0
ARC
  5
324
330
1F
100
AcDbEntity
  8
7__7
  6
Continuous
 62
     3
100
AcDbCircle
 10
1324.289376
 20
611.401531
 30
0.0
 40
2.50000000005675
100
AcDbArc
 50
159.067349
 51
227.17657
  0
ARC
  5
325
330
1F
100
AcDbEntity
  8
7__7
  6
Continuous
 62
     3
100
AcDbCircle
 10
1324.289376
 20
611.401531
 30
0.0
 40
2.500000000056372
100
AcDbArc
 50
47.17657
 51
115.001106
  0
LINE
  5
326
330
1F
100
AcDbEntity
  8
7__7
  6
Continuous
 62
     3
100
AcDbLine
 10
1290.084491
 20
641.738178
 30
0.0
 11
1352.722427
 21
583.687215
 31
0.0
  0
LINE
  5
327
330
1F
100
AcDbEntity
  8
7__7
  6
Continuous
 62
     3
100
AcDbLine
 10
1321.910282
 20
608.834449
 30
0.0
 11
1322.590023
 21
609.567901
 31
0.0
  0
LINE
  5
328
330
1F
100
AcDbEntity
  8
7__7
  6
Continuous
 62
     3
100
AcDbLine
 10
1326.668471
 20
613.968613
 30
0.0
 11
1325.988729
 21
613.235161
 31
0.0
  0
LINE
  5
329
330
1F
100
AcDbEntity
  8
7__7
  6
Continuous
 62
     3
100
AcDbLine
 10
1284.28716
 20
643.702431
 30
0.0
 11
1321.910282
 21
608.834449
 31
0.0
  0
LINE
  5
32A
330
1F
100
AcDbEntity
  8
7__7
  6
Continuous
 62
     3
100
AcDbLine
 10
1286.763484
 20
642.770864
 30
0.0
 11
1322.590023
 21
609.567901
 31
0.0
  0
LINE
  5
32B
330
1F
100
AcDbEntity
  8
7__7
  6
Continuous
 62
     3
100
AcDbLine
 10
1290.162986
 20
646.420719
 30
0.0
 11
1325.988729
 21
613.235161
 31
0.0
  0
LINE
  5
32C
330
1F
100
AcDbEntity
  8
7__7
  6
Continuous
 62
     3
100
AcDbLine
 10
1289.045349
 20
648.836595
 30
0.0
 11
1326.668471
 21
613.968613
 31
0.0
  0
LINE
  5
32D
330
1F
100
AcDbEntity
  8
7__7
  6
Continuous
 62
     3
100
AcDbLine
 10
1281.791154
 20
650.78761
 30
0.0
 11
1291.332323
 21
641.94514
 31
0.0
  0
LINE
  5
32E
330
1F
100
AcDbEntity
  8
7__7
  6
Continuous
 62
     3
100
AcDbLine
 10
1282.598266
 20
641.880088
 30
0.0
 11
1291.516565
 21
651.503078
 31
0.0
  0
LINE
  5
32F
330
1F
100
AcDbEntity
  8
7__7
  6
Continuous
 62
     4
100
AcDbLine
 10
1285.066254
 20
649.382389
 30
0.0
 11
1285.066254
 21
658.964825
 31
0.0
  0
LINE
  5
330
330
1F
100
AcDbEntity
  8
7__7
  6
Continuous
 62
     4
100
AcDbLine
 10
1286.666254
 20
649.769513
 30
0.0
 11
1286.666254
 21
660.564825
 31
0.0
  0
LINE
  5
331
330
1F
100
AcDbEntity
  8
7__7
  6
Continuous
 62
     4
100
AcDbLine
 10
1288.266254
 20
649.382389
 30
0.0
 11
1288.266254
 21
658.964825
 31
0.0
  0
LINE
  5
332
330
1F
100
AcDbEntity
  8
7__7
  6
Continuous
 62
     4
100
AcDbLine
 10
1296.666254
 20
658.964825
 30
0.0
 11
1288.266254
 21
658.964825
 31
0.0
  0
LINE
  5
333
330
1F
100
AcDbEntity
  8
7__7
  6
Continuous
 62
     4
100
AcDbLine
 10
1296.666254
 20
660.564825
 30
0.0
 11
1296.666254
 21
658.964825
 31
0.0
  0
LINE
  5
334
330
1F
100
AcDbEntity
  8
7__7
  6
Continuous
 62
     4
100
AcDbLine
 10
1275.066254
 20
658.964825
 30
0.0
 11
1285.066254
 21
658.964825
 31
0.0
  0
ARC
  5
335
330
1F
100
AcDbEntity
  8
7__7
  6
Continuous
 62
     4
100
AcDbCircle
 10
1278.066254
 20
663.715837
 30
0.0
 40
2.999999999997432
100
AcDbArc
 50
90.0
 51
180.0
  0
LINE
  5
336
330
1F
100
AcDbEntity
  8
7__7
  6
Continuous
 62
     4
100
AcDbLine
 10
1275.066254
 20
658.964825
 30
0.0
 11
1275.066254
 21
663.715837
 31
0.0
  0
CIRCLE
  5
337
330
1F
100
AcDbEntity
  8
7__7
  6
Continuous
 62
     3
100
AcDbCircle
 10
1286.666254
 20
646.269513
 30
0.0
 40
3.500000000000057
  0
ARC
  5
338
330
1F
100
AcDbEntity
  8
7__7
  6
Continuous
 62
     3
100
AcDbCircle
 10
1289.083682
 20
644.029113
 30
0.0
 40
2.500000000089944
100
AcDbArc
 50
227.17657
 51
293.598391
  0
ARC
  5
339
330
1F
100
AcDbEntity
  8
7__7
  6
Continuous
 62
     3
100
AcDbCircle
 10
1289.083682
 20
644.029113
 30
0.0
 40
2.500000000129148
100
AcDbArc
 50
340.754748
 51
47.17657
  0
ARC
  5
33A
330
1F
100
AcDbEntity
  8
7__7
  6
Continuous
 62
     3
100
AcDbCircle
 10
1290.764232
 20
642.47163
 30
0.0
 40
0.9999999999901987
100
AcDbArc
 50
47.17657
 51
227.17657
  0
LINE
  5
33B
330
1F
100
AcDbEntity
  8
7__7
  6
Continuous
 62
     3
100
AcDbLine
 10
673.089787
 20
1637.238545
 30
0.0
 11
673.089787
 21
1532.694545
 31
0.0
  0
LINE
  5
33C
330
1F
100
AcDbEntity
  8
7__7
  6
Continuous
 62
     4
100
AcDbLine
 10
428.466254
 20
690.714957
 30
0.0
 11
428.466254
 21
705.771957
 31
0.0
  0
LINE
  5
33D
330
1F
100
AcDbEntity
  8
7__7
  6
Continuous
 62
     4
100
AcDbLine
 10
451.666254
 20
690.714957
 30
0.0
 11
451.666254
 21
705.714957
 31
0.0
  0
ARC
  5
33E
330
1F
100
AcDbEntity
  8
7__7
  6
Continuous
 62
     4
100
AcDbCircle
 10
418.277357
 20
702.714837
 30
0.0
 40
5.999999999990205
100
AcDbArc
 50
90.0
 51
146.309932
  0
LINE
  5
33F
330
1F
100
AcDbEntity
  8
7__7
  6
Continuous
 62
     4
100
AcDbLine
 10
395.066254
 20
678.714837
 30
0.0
 11
413.285055
 21
706.043038
 31
0.0
  0
ARC
  5
340
330
1F
100
AcDbEntity
  8
7__7
  6
Continuous
 62
     4
100
AcDbCircle
 10
418.277437
 20
702.714957
 30
0.0
 40
3.000000000082953
100
AcDbArc
 50
90.0
 51
146.309932
  0
LINE
  5
341
330
1F
100
AcDbEntity
  8
7__7
  6
Continuous
 62
     4
100
AcDbLine
 10
398.671805
 20
678.714837
 30
0.0
 11
415.781286
 21
704.379058
 31
0.0
  0
LINE
  5
342
330
1F
100
AcDbEntity
  8
7__7
  6
Continuous
 62
     4
100
AcDbLine
 10
415.066254
 20
678.714837
 30
0.0
 11
395.066254
 21
678.714837
 31
0.0
  0
LINE
  5
343
330
1F
100
AcDbEntity
  8
7__7
  6
Continuous
 62
     4
100
AcDbLine
 10
1364.187575
 20
709.593517
 30
0.0
 11
919.308895
 21
1154.472196
 31
0.0
  0
ARC
  5
344
330
1F
100
AcDbEntity
  8
7__7
  6
Continuous
 62
     4
100
AcDbCircle
 10
915.066254
 20
1150.229556
 30
0.0
 40
5.999999999954468
100
AcDbArc
 50
45.0
 51
135.0
  0
LINE
  5
345
330
1F
100
AcDbEntity
  8
7__7
  6
Continuous
 62
     4
100
AcDbLine
 10
465.944934
 20
709.593517
 30
0.0
 11
910.823613
 21
1154.472196
 31
0.0
  0
ARC
  5
346
330
1F
100
AcDbEntity
  8
7__7
  6
Continuous
 62
     4
100
AcDbCircle
 10
915.066254
 20
1150.229556
 30
0.0
 40
3.000000000012619
100
AcDbArc
 50
45.0
 51
135.0
  0
LINE
  5
347
330
1F
100
AcDbEntity
  8
7__7
  6
Continuous
 62
     4
100
AcDbLine
 10
1362.066134
 20
707.472316
 30
0.0
 11
917.187575
 21
1152.350876
 31
0.0
  0
LINE
  5
348
330
1F
100
AcDbEntity
  8
7__7
  6
Continuous
 62
     4
100
AcDbLine
 10
468.066374
 20
707.472316
 30
0.0
 11
912.944934
 21
1152.350876
 31
0.0
  0
LINE
  5
349
330
1F
100
AcDbEntity
  8
7__7
  6
Continuous
 62
     3
100
AcDbLine
 10
945.542159
 20
944.911393
 30
0.0
 11
954.885043
 21
944.911393
 31
0.0
  0
LINE
  5
34A
330
1F
100
AcDbEntity
  8
7__7
  6
Continuous
 62
     3
100
AcDbLine
 10
954.885043
 20
944.911393
 30
0.0
 11
954.885043
 21
936.502798
 31
0.0
  0
LINE
  5
34B
330
1F
100
AcDbEntity
  8
7__7
  6
Continuous
 62
     3
100
AcDbLine
 10
954.885043
 20
936.502798
 30
0.0
 11
945.542159
 21
936.502798
 31
0.0
  0
LINE
  5
34C
330
1F
100
AcDbEntity
  8
7__7
  6
Continuous
 62
     3
100
AcDbLine
 10
945.542159
 20
936.502798
 30
0.0
 11
945.542159
 21
944.911393
 31
0.0
  0
LINE
  5
34D
330
1F
100
AcDbEntity
  8
7__7
  6
Continuous
 62
     3
100
AcDbLine
 10
989.827428
 20
873.718619
 30
0.0
 11
1000.291458
 21
873.718619
 31
0.0
  0
LINE
  5
34E
330
1F
100
AcDbEntity
  8
7__7
  6
Continuous
 62
     3
100
AcDbLine
 10
1000.291458
 20
873.718619
 30
0.0
 11
1000.291458
 21
862.880873
 31
0.0
  0
LINE
  5
34F
330
1F
100
AcDbEntity
  8
7__7
  6
Continuous
 62
     3
100
AcDbLine
 10
1000.291458
 20
862.880873
 30
0.0
 11
989.827428
 21
862.880873
 31
0.0
  0
LINE
  5
350
330
1F
100
AcDbEntity
  8
7__7
  6
Continuous
 62
     3
100
AcDbLine
 10
989.827428
 20
862.880873
 30
0.0
 11
989.827428
 21
873.718619
 31
0.0
  0
LINE
  5
351
330
1F
100
AcDbEntity
  8
7__7
  6
Continuous
 62
     6
100
AcDbLine
 10
430.066254
 20
696.374637
 30
0.0
 11
435.725934
 21
690.714957
 31
0.0
  0
LINE
  5
352
330
1F
100
AcDbEntity
  8
7__7
  6
Continuous
 62
     6
100
AcDbLine
 10
444.36878
 20
690.714957
 30
0.0
 11
450.066254
 21
696.412432
 31
0.0
  0
ARC
  5
353
330
1F
100
AcDbEntity
  8
7__7
  6
Continuous
 62
     4
100
AcDbCircle
 10
1366.308775
 20
711.714957
 30
0.0
 40
6.000000000201155
100
AcDbArc
 50
225.0
 51
270.0
  0
LINE
  5
354
330
1F
100
AcDbEntity
  8
7__7
  6
Continuous
 62
     4
100
AcDbLine
 10
1411.855072
 20
705.714957
 30
0.0
 11
1366.308775
 21
705.714957
 31
0.0
  0
ARC
  5
355
330
1F
100
AcDbEntity
  8
7__7
  6
Continuous
 62
     4
100
AcDbCircle
 10
1366.308895
 20
711.714837
 30
0.0
 40
2.999999999679859
100
AcDbArc
 50
225.0
 51
270.0
  0
LINE
  5
356
330
1F
100
AcDbEntity
  8
7__7
  6
Continuous
 62
     4
100
AcDbLine
 10
1411.855152
 20
708.714837
 30
0.0
 11
1366.308895
 21
708.714837
 31
0.0
  0
LINE
  5
357
330
1F
100
AcDbEntity
  8
7__7
  6
PLine2
 62
     3
100
AcDbLine
 10
1390.066254
 20
725.120395
 30
0.0
 11
1390.066254
 21
683.876812
 31
0.0
  0
LINE
  5
358
330
1F
100
AcDbEntity
  8
7__7
  6
Continuous
 62
     6
100
AcDbLine
 10
1395.660258
 20
690.714957
 30
0.0
 11
1380.660258
 21
705.714957
 31
0.0
  0
LINE
  5
359
330
1F
100
AcDbEntity
  8
7__7
  6
Continuous
 62
     6
100
AcDbLine
 10
1390.70142
 20
690.714957
 30
0.0
 11
1380.066254
 21
701.350123
 31
0.0
  0
LINE
  5
35A
330
1F
100
AcDbEntity
  8
7__7
  6
Continuous
 62
     4
100
AcDbLine
 10
1380.066254
 20
690.714957
 30
0.0
 11
1380.066254
 21
705.714957
 31
0.0
  0
LINE
  5
35B
330
1F
100
AcDbEntity
  8
7__7
  6
Continuous
 62
     6
100
AcDbLine
 10
1400.066254
 20
690.988959
 30
0.0
 11
1385.340256
 21
705.714957
 31
0.0
  0
LINE
  5
35C
330
1F
100
AcDbEntity
  8
7__7
  6
Continuous
 62
     6
100
AcDbLine
 10
1380.066254
 20
696.646957
 30
0.0
 11
1389.134255
 21
705.714957
 31
0.0
  0
LINE
  5
35D
330
1F
100
AcDbEntity
  8
7__7
  6
Continuous
 62
     4
100
AcDbLine
 10
1400.066254
 20
690.714957
 30
0.0
 11
1400.066254
 21
705.771957
 31
0.0
  0
LINE
  5
35E
330
1F
100
AcDbEntity
  8
7__7
  6
Continuous
 62
     6
100
AcDbLine
 10
1396.596252
 20
705.714957
 30
0.0
 11
1400.066254
 21
702.244954
 31
0.0
  0
LINE
  5
35F
330
1F
100
AcDbEntity
  8
7__7
  6
Continuous
 62
     6
100
AcDbLine
 10
1375.066254
 20
709.565496
 30
0.0
 11
1405.067503
 21
709.565496
 31
0.0
  0
LINE
  5
360
330
1F
100
AcDbEntity
  8
7__7
  6
Continuous
 62
     6
100
AcDbLine
 10
1375.066254
 20
710.417509
 30
0.0
 11
1405.066921
 21
710.416508
 31
0.0
  0
LINE
  5
361
330
1F
100
AcDbEntity
  8
7__7
  6
Continuous
 62
     6
100
AcDbLine
 10
1375.066254
 20
709.925496
 30
0.0
 11
1405.068536
 21
709.925496
 31
0.0
  0
LINE
  5
362
330
1F
100
AcDbEntity
  8
7__7
  6
Continuous
 62
     6
100
AcDbLine
 10
1375.066254
 20
709.097476
 30
0.0
 11
1405.067823
 21
709.097476
 31
0.0
  0
LINE
  5
363
330
1F
100
AcDbEntity
  8
7__7
  6
Continuous
 62
     6
100
AcDbLine
 10
1384.118251
 20
690.714957
 30
0.0
 11
1399.118251
 21
705.714957
 31
0.0
  0
LINE
  5
364
330
1F
100
AcDbEntity
  8
7__7
  6
Continuous
 62
     6
100
AcDbLine
 10
1380.066254
 20
691.809011
 30
0.0
 11
1393.970257
 21
705.714957
 31
0.0
  0
LINE
  5
365
330
1F
100
AcDbEntity
  8
7__7
  6
Continuous
 62
     6
100
AcDbLine
 10
1384.142257
 20
705.714957
 30
0.0
 11
1380.066254
 21
701.638955
 31
0.0
  0
LINE
  5
366
330
1F
100
AcDbEntity
  8
7__7
  6
Continuous
 62
     3
100
AcDbLine
 10
1405.066562
 20
710.941495
 30
0.0
 11
1405.065536
 21
712.441495
 31
0.0
  0
LINE
  5
367
330
1F
100
AcDbEntity
  8
7__7
  6
Continuous
 62
     3
100
AcDbLine
 10
1381.757502
 20
715.685494
 30
0.0
 11
1398.375006
 21
715.685494
 31
0.0
  0
LINE
  5
368
330
1F
100
AcDbEntity
  8
7__7
  6
Continuous
 62
     3
100
AcDbLine
 10
1375.066998
 20
712.441495
 30
0.0
 11
1405.065536
 21
712.441495
 31
0.0
  0
ARC
  5
369
330
1F
100
AcDbEntity
  8
7__7
  6
Continuous
 62
     3
100
AcDbCircle
 10
1397.785648
 20
710.594496
 30
0.0
 40
5.124997949879756
100
AcDbArc
 50
21.124164
 51
83.073303
  0
LINE
  5
36A
330
1F
100
AcDbEntity
  8
7__7
  6
Continuous
 62
     3
100
AcDbLine
 10
1375.065972
 20
710.941495
 30
0.0
 11
1405.066562
 21
710.941495
 31
0.0
  0
LINE
  5
36B
330
1F
100
AcDbEntity
  8
7__7
  6
Continuous
 62
     6
100
AcDbLine
 10
1405.066562
 20
710.941495
 30
0.0
 11
1405.06644
 21
708.767496
 31
0.0
  0
LINE
  5
36C
330
1F
100
AcDbEntity
  8
7__7
  6
Continuous
 62
     6
100
AcDbLine
 10
1400.066254
 20
696.562816
 30
0.0
 11
1390.914113
 21
705.714957
 31
0.0
  0
LINE
  5
36D
330
1F
100
AcDbEntity
  8
7__7
  6
Continuous
 62
     6
100
AcDbLine
 10
1389.257268
 20
690.714957
 30
0.0
 11
1400.066254
 21
701.523944
 31
0.0
  0
LINE
  5
36E
330
1F
100
AcDbEntity
  8
7__7
  6
Continuous
 62
     6
100
AcDbLine
 10
1375.065972
 20
710.941495
 30
0.0
 11
1375.066094
 21
708.767496
 31
0.0
  0
LINE
  5
36F
330
1F
100
AcDbEntity
  8
7__7
  6
Continuous
 62
     3
100
AcDbLine
 10
1375.065972
 20
710.941495
 30
0.0
 11
1375.066998
 21
712.441495
 31
0.0
  0
ARC
  5
370
330
1F
100
AcDbEntity
  8
7__7
  6
Continuous
 62
     3
100
AcDbCircle
 10
1382.346861
 20
710.594496
 30
0.0
 40
5.124997949961954
100
AcDbArc
 50
96.603445
 51
158.875836
  0
LINE
  5
371
330
1F
100
AcDbEntity
  8
7__7
  6
Continuous
 62
     4
100
AcDbLine
 10
1401.666254
 20
690.714957
 30
0.0
 11
1401.666254
 21
705.771957
 31
0.0
  0
LINE
  5
372
330
1F
100
AcDbEntity
  8
7__7
  6
Continuous
 62
     4
100
AcDbLine
 10
1378.466254
 20
690.714957
 30
0.0
 11
1378.466254
 21
705.714957
 31
0.0
  0
ARC
  5
373
330
1F
100
AcDbEntity
  8
7__7
  6
Continuous
 62
     4
100
AcDbCircle
 10
1411.855152
 20
702.714837
 30
0.0
 40
5.999999999883928
100
AcDbArc
 50
33.690068
 51
90.0
  0
LINE
  5
374
330
1F
100
AcDbEntity
  8
7__7
  6
Continuous
 62
     4
100
AcDbLine
 10
1435.066254
 20
678.714837
 30
0.0
 11
1416.847453
 21
706.043038
 31
0.0
  0
ARC
  5
375
330
1F
100
AcDbEntity
  8
7__7
  6
Continuous
 62
     4
100
AcDbCircle
 10
1411.855072
 20
702.714957
 30
0.0
 40
2.999999999929498
100
AcDbArc
 50
33.690068
 51
90.0
  0
LINE
  5
376
330
1F
100
AcDbEntity
  8
7__7
  6
Continuous
 62
     4
100
AcDbLine
 10
1431.460703
 20
678.714837
 30
0.0
 11
1414.351223
 21
704.379058
 31
0.0
  0
LINE
  5
377
330
1F
100
AcDbEntity
  8
7__7
  6
Continuous
 62
     4
100
AcDbLine
 10
1415.066254
 20
678.714837
 30
0.0
 11
1435.066254
 21
678.714837
 31
0.0
  0
LINE
  5
378
330
1F
100
AcDbEntity
  8
7__7
  6
Continuous
 62
     6
100
AcDbLine
 10
1400.066254
 20
696.374637
 30
0.0
 11
1394.406574
 21
690.714957
 31
0.0
  0
LINE
  5
379
330
1F
100
AcDbEntity
  8
7__7
  6
Continuous
 62
     6
100
AcDbLine
 10
1385.763729
 20
690.714957
 30
0.0
 11
1380.066254
 21
696.412432
 31
0.0
  0
LINE
  5
37A
330
1F
100
AcDbEntity
  8
7__7
  6
PLine1
 62
     4
100
AcDbLine
 10
520.614553
 20
899.738212
 30
0.0
 11
795.12088
 21
1375.186661
 31
0.0
  0
LINE
  5
37B
330
1F
100
AcDbEntity
  8
7__7
  6
PLine1
 62
     4
100
AcDbLine
 10
516.570747
 20
832.735815
 30
0.0
 11
865.029908
 21
1436.272913
 31
0.0
  0
ARC
  5
37C
330
1F
100
AcDbEntity
  8
7__7
  6
PLine1
 62
     4
100
AcDbCircle
 10
865.935313
 20
1435.839118
 30
0.0
 40
0.9999999994717956
100
AcDbArc
 50
68.228971
 51
149.999454
  0
LINE
  5
37D
330
1F
100
AcDbEntity
  8
7__7
  6
PLine1
 62
     4
100
AcDbLine
 10
863.556738
 20
1437.865891
 30
0.0
 11
898.343914
 21
1423.972412
 31
0.0
  0
ARC
  5
37E
330
1F
100
AcDbEntity
  8
7__7
  6
Continuous
 62
     4
100
AcDbCircle
 10
346.306083
 20
639.833033
 30
0.0
 40
6.000000000013422
100
AcDbArc
 50
329.999454
 51
14.999454
  0
LINE
  5
37F
330
1F
100
AcDbEntity
  8
7__7
  6
PLine1
 62
     4
100
AcDbLine
 10
328.728683
 20
597.388951
 30
0.0
 11
351.502207
 21
636.832984
 31
0.0
  0
ARC
  5
380
330
1F
100
AcDbEntity
  8
7__7
  6
Continuous
 62
     4
100
AcDbCircle
 10
346.306127
 20
639.832869
 30
0.0
 40
3.000000000176431
100
AcDbArc
 50
329.999454
 51
14.999454
  0
LINE
  5
381
330
1F
100
AcDbEntity
  8
7__7
  6
PLine1
 62
     4
100
AcDbLine
 10
326.130685
 20
598.888846
 30
0.0
 11
348.904189
 21
638.332845
 31
0.0
  0
LINE
  5
382
330
1F
100
AcDbEntity
  8
7__7
  6
PLine1
 62
     4
100
AcDbLine
 10
864.213298
 20
1439.218877
 30
0.0
 11
898.900262
 21
1425.365422
 31
0.0
  0
LINE
  5
383
330
1F
100
AcDbEntity
  8
7__7
  6
Continuous
 62
     4
100
AcDbLine
 10
898.343914
 20
1423.972412
 30
0.0
 11
898.900262
 21
1425.365422
 31
0.0
  0
ARC
  5
384
330
1F
100
AcDbEntity
  8
7__7
  6
PLine1
 62
     4
100
AcDbCircle
 10
820.735429
 20
1361.552476
 30
0.0
 40
0.9999999997054392
100
AcDbArc
 50
239.999454
 51
330.000051
  0
LINE
  5
385
330
1F
100
AcDbEntity
  8
7__7
  6
PLine1
 62
     4
100
AcDbLine
 10
839.621614
 20
1452.262498
 30
0.0
 11
795.12088
 21
1375.186661
 31
0.0
  0
LINE
  5
386
330
1F
100
AcDbEntity
  8
7__7
  6
PLine1
 62
     4
100
AcDbLine
 10
803.178949
 20
1372.266291
 30
0.0
 11
796.819147
 21
1375.938205
 31
0.0
  0
LINE
  5
387
330
1F
100
AcDbEntity
  8
7__7
  6
PLine1
 62
     4
100
AcDbLine
 10
821.302446
 20
1363.534515
 30
0.0
 11
798.012545
 21
1376.981241
 31
0.0
  0
LINE
  5
388
330
1F
100
AcDbEntity
  8
7__7
  6
PLine1
 62
     4
100
AcDbLine
 10
795.870893
 20
1376.485692
 30
0.0
 11
796.933458
 21
1375.872206
 31
0.0
  0
ARC
  5
389
330
1F
100
AcDbEntity
  8
7__7
  6
PLine1
 62
     4
100
AcDbCircle
 10
863.986228
 20
1436.463212
 30
0.0
 40
0.9999999998600855
100
AcDbArc
 50
329.999454
 51
59.999454
  0
LINE
  5
38A
330
1F
100
AcDbEntity
  8
7__7
  6
PLine1
 62
     4
100
AcDbLine
 10
821.100737
 20
1360.186853
 30
0.0
 11
795.12088
 21
1375.186661
 31
0.0
  0
ARC
  5
38B
330
1F
100
AcDbEntity
  8
7__7
  6
PLine1
 62
     4
100
AcDbCircle
 10
797.200368
 20
1376.788472
 30
0.0
 40
0.9999599999723213
100
AcDbArc
 50
149.999454
 51
239.999454
  0
ARC
  5
38C
330
1F
100
AcDbEntity
  8
7__7
  6
PLine1
 62
     4
100
AcDbCircle
 10
840.487635
 20
1451.76249
 30
0.0
 40
1.000000000513865
100
AcDbArc
 50
59.999454
 51
149.999454
  0
LINE
  5
38D
330
1F
100
AcDbEntity
  8
7__7
  6
PLine1
 62
     4
100
AcDbLine
 10
864.213298
 20
1439.218877
 30
0.0
 11
840.987643
 21
1452.62851
 31
0.0
  0
LINE
  5
38E
330
1F
100
AcDbEntity
  8
7__7
  6
PLine1
 62
     4
100
AcDbLine
 10
803.147773
 20
1372.28429
 30
0.0
 11
820.552433
 21
1362.235485
 31
0.0
  0
LINE
  5
38F
330
1F
100
AcDbEntity
  8
7__7
  6
PLine1
 62
     4
100
AcDbLine
 10
864.486236
 20
1437.329233
 30
0.0
 11
840.76325
 21
1451.026006
 31
0.0
  0
LINE
  5
390
330
1F
100
AcDbEntity
  8
7__7
  6
PLine1
 62
     4
100
AcDbLine
 10
840.013237
 20
1449.726975
 30
0.0
 11
863.303213
 21
1436.280206
 31
0.0
  0
LINE
  5
391
330
1F
100
AcDbEntity
  8
7__7
  6
PLine1
 62
     4
100
AcDbLine
 10
863.303213
 20
1436.280206
 30
0.0
 11
820.552433
 21
1362.235485
 31
0.0
  0
LINE
  5
392
330
1F
100
AcDbEntity
  8
7__7
  6
PLine1
 62
     4
100
AcDbLine
 10
804.093916
 20
1398.72794
 30
0.0
 11
517.693275
 21
902.67839
 31
0.0
  0
LINE
  5
393
330
1F
100
AcDbEntity
  8
7__7
  6
PLine1
 62
     4
100
AcDbLine
 10
514.31711
 20
910.430604
 30
0.0
 11
795.768022
 21
1397.907163
 31
0.0
  0
LINE
  5
394
330
1F
100
AcDbEntity
  8
7__7
  6
PLine1
 62
     4
100
AcDbLine
 10
808.692411
 20
1406.465302
 30
0.0
 11
815.621439
 21
1402.464738
 31
0.0
  0
LINE
  5
395
330
1F
100
AcDbEntity
  8
7__7
  6
PLine1
 62
     4
100
AcDbLine
 10
807.393129
 20
1396.442351
 30
0.0
 11
801.947776
 21
1394.983329
 31
0.0
  0
LINE
  5
396
330
1F
100
AcDbEntity
  8
7__7
  6
PLine1
 62
     4
100
AcDbLine
 10
805.395097
 20
1392.981734
 30
0.0
 11
799.949744
 21
1391.522712
 31
0.0
  0
LINE
  5
397
330
1F
100
AcDbEntity
  8
7__7
  6
PLine1
 62
     4
100
AcDbLine
 10
803.289063
 20
1389.334057
 30
0.0
 11
797.84371
 21
1387.875034
 31
0.0
  0
LINE
  5
398
330
1F
100
AcDbEntity
  8
7__7
  6
PLine1
 62
     4
100
AcDbLine
 10
801.165029
 20
1385.655203
 30
0.0
 11
795.719676
 21
1384.19618
 31
0.0
  0
LINE
  5
399
330
1F
100
AcDbEntity
  8
7__7
  6
PLine1
 62
     4
100
AcDbLine
 10
795.425454
 20
1380.638652
 30
0.0
 11
798.788991
 21
1381.539874
 31
0.0
  0
LINE
  5
39A
330
1F
100
AcDbEntity
  8
7__7
  6
PLine1
 62
     4
100
AcDbLine
 10
785.718067
 20
1382.900472
 30
0.0
 11
786.757291
 21
1382.300462
 31
0.0
  0
LINE
  5
39B
330
1F
100
AcDbEntity
  8
7__7
  6
PLine1
 62
     4
100
AcDbLine
 10
807.00898
 20
1398.776951
 30
0.0
 11
814.509104
 21
1411.76726
 31
0.0
  0
ARC
  5
39C
330
1F
100
AcDbEntity
  8
7__7
  6
PLine1
 62
     4
100
AcDbCircle
 10
796.909542
 20
1403.684227
 30
0.0
 40
0.7999999996353644
100
AcDbArc
 50
59.999454
 51
149.999454
  0
LINE
  5
39D
330
1F
100
AcDbEntity
  8
7__7
  6
PLine1
 62
     4
100
AcDbLine
 10
807.00898
 20
1398.776951
 30
0.0
 11
797.309549
 21
1404.377043
 31
0.0
  0
LINE
  5
39E
330
1F
100
AcDbEntity
  8
7__7
  6
PLine1
 62
     4
100
AcDbLine
 10
797.14225
 20
1402.687303
 30
0.0
 11
785.415557
 21
1382.376521
 31
0.0
  0
LINE
  5
39F
330
1F
100
AcDbEntity
  8
7__7
  6
PLine1
 62
     4
100
AcDbLine
 10
784.116526
 20
1383.126534
 30
0.0
 11
796.216726
 21
1404.084233
 31
0.0
  0
LINE
  5
3A0
330
1F
100
AcDbEntity
  8
7__7
  6
PLine1
 62
     4
100
AcDbLine
 10
807.557999
 20
1396.727907
 30
0.0
 11
797.166617
 21
1402.727506
 31
0.0
  0
ARC
  5
3A1
330
1F
100
AcDbEntity
  8
7__7
  6
PLine1
 62
     4
100
AcDbCircle
 10
807.265189
 20
1397.820731
 30
0.0
 40
0.8000000003858765
100
AcDbArc
 50
239.999454
 51
329.999454
  0
LINE
  5
3A2
330
1F
100
AcDbEntity
  8
7__7
  6
PLine1
 62
     4
100
AcDbLine
 10
794.093751
 20
1381.407528
 30
0.0
 11
797.557834
 21
1379.407495
 31
0.0
  0
LINE
  5
3A3
330
1F
100
AcDbEntity
  8
7__7
  6
PLine1
 62
     4
100
AcDbLine
 10
795.768022
 20
1397.907163
 30
0.0
 11
801.656963
 21
1394.507106
 31
0.0
  0
LINE
  5
3A4
330
1F
100
AcDbEntity
  8
7__7
  6
PLine1
 62
     4
100
AcDbLine
 10
784.116526
 20
1383.126534
 30
0.0
 11
785.415557
 21
1382.376521
 31
0.0
  0
LINE
  5
3A5
330
1F
100
AcDbEntity
  8
7__7
  6
PLine1
 62
     4
100
AcDbLine
 10
815.808135
 20
1411.017248
 30
0.0
 11
814.509104
 21
1411.76726
 31
0.0
  0
LINE
  5
3A6
330
1F
100
AcDbEntity
  8
7__7
  6
PLine1
 62
     4
100
AcDbLine
 10
824.206648
 20
1293.042447
 30
0.0
 11
836.74716
 21
1302.239392
 31
0.0
  0
LINE
  5
3A7
330
1F
100
AcDbEntity
  8
7__7
  6
PLine1
 62
     4
100
AcDbLine
 10
796.450368
 20
1367.490822
 30
0.0
 11
799.450221
 21
1372.68706
 31
0.0
  0
LINE
  5
3A8
330
1F
100
AcDbEntity
  8
7__7
  6
PLine1
 62
     4
100
AcDbLine
 10
796.450368
 20
1367.490822
 30
0.0
 11
810.306502
 21
1359.490804
 31
0.0
  0
ARC
  5
3A9
330
1F
100
AcDbEntity
  8
7__7
  6
PLine1
 62
     4
100
AcDbCircle
 10
808.806477
 20
1356.892742
 30
0.0
 40
3.000000000068547
100
AcDbArc
 50
329.999454
 51
59.999454
  0
ARC
  5
3AA
330
1F
100
AcDbEntity
  8
7__7
  6
PLine1
 62
     4
100
AcDbCircle
 10
808.806477
 20
1356.892742
 30
0.0
 40
3.000000000068547
100
AcDbArc
 50
329.999454
 51
59.999454
  0
LINE
  5
3AB
330
1F
100
AcDbEntity
  8
7__7
  6
PLine1
 62
     4
100
AcDbLine
 10
792.404226
 20
1322.483933
 30
0.0
 11
811.404539
 21
1355.392717
 31
0.0
  0
ARC
  5
3AC
330
1F
100
AcDbEntity
  8
7__7
  6
PLine1
 62
     4
100
AcDbCircle
 10
844.747026
 20
1278.343959
 30
0.0
 40
2.49999999987243
100
AcDbArc
 50
126.255533
 51
216.255533
  0
ARC
  5
3AD
330
1F
100
AcDbEntity
  8
7__7
  6
PLine1
 62
     4
100
AcDbCircle
 10
844.747026
 20
1278.343959
 30
0.0
 40
2.499999999922319
100
AcDbArc
 50
36.255533
 51
126.255533
  0
LINE
  5
3AE
330
1F
100
AcDbEntity
  8
7__7
  6
PLine1
 62
     4
100
AcDbLine
 10
841.92467
 20
1276.274102
 30
0.0
 11
842.731057
 21
1276.86549
 31
0.0
  0
LINE
  5
3AF
330
1F
100
AcDbEntity
  8
7__7
  6
PLine1
 62
     4
100
AcDbLine
 10
847.569382
 20
1280.413815
 30
0.0
 11
846.762995
 21
1279.822427
 31
0.0
  0
LINE
  5
3B0
330
1F
100
AcDbEntity
  8
7__7
  6
PLine1
 62
     4
100
AcDbLine
 10
811.588879
 20
1317.638523
 30
0.0
 11
841.92467
 21
1276.274102
 31
0.0
  0
LINE
  5
3B1
330
1F
100
AcDbEntity
  8
7__7
  6
PLine1
 62
     4
100
AcDbLine
 10
813.843865
 20
1316.254673
 30
0.0
 11
842.731057
 21
1276.86549
 31
0.0
  0
LINE
  5
3B2
330
1F
100
AcDbEntity
  8
7__7
  6
PLine1
 62
     4
100
AcDbLine
 10
817.873286
 20
1319.19437
 30
0.0
 11
846.762995
 21
1279.822427
 31
0.0
  0
LINE
  5
3B3
330
1F
100
AcDbEntity
  8
7__7
  6
PLine1
 62
     4
100
AcDbLine
 10
817.233592
 20
1321.778236
 30
0.0
 11
847.569382
 21
1280.413815
 31
0.0
  0
LINE
  5
3B4
330
1F
100
AcDbEntity
  8
7__7
  6
PLine1
 62
     4
100
AcDbLine
 10
810.480408
 20
1325.068267
 30
0.0
 11
818.17352
 21
1314.57831
 31
0.0
  0
LINE
  5
3B5
330
1F
100
AcDbEntity
  8
7__7
  6
PLine1
 62
     4
100
AcDbLine
 10
809.58532
 20
1316.169155
 30
0.0
 11
820.165234
 21
1323.92824
 31
0.0
  0
LINE
  5
3B6
330
1F
100
AcDbEntity
  8
7__7
  6
PLine1
 62
     4
100
AcDbLine
 10
810.915407
 20
1319.87921
 30
0.0
 11
802.61682
 21
1324.670507
 31
0.0
  0
LINE
  5
3B7
330
1F
100
AcDbEntity
  8
7__7
  6
PLine1
 62
     4
100
AcDbLine
 10
811.380163
 20
1321.458408
 30
0.0
 11
802.0312
 21
1326.856154
 31
0.0
  0
LINE
  5
3B8
330
1F
100
AcDbEntity
  8
7__7
  6
PLine1
 62
     4
100
AcDbLine
 10
812.515434
 20
1322.650476
 30
0.0
 11
804.216846
 21
1327.441773
 31
0.0
  0
LINE
  5
3B9
330
1F
100
AcDbEntity
  8
7__7
  6
PLine1
 62
     4
100
AcDbLine
 10
808.416916
 20
1334.716347
 30
0.0
 11
804.216846
 21
1327.441773
 31
0.0
  0
LINE
  5
3BA
330
1F
100
AcDbEntity
  8
7__7
  6
PLine1
 62
     4
100
AcDbLine
 10
807.031282
 20
1335.51636
 30
0.0
 11
808.416916
 21
1334.716347
 31
0.0
  0
LINE
  5
3BB
330
1F
100
AcDbEntity
  8
7__7
  6
PLine1
 62
     4
100
AcDbLine
 10
797.616737
 20
1316.010301
 30
0.0
 11
802.61682
 21
1324.670507
 31
0.0
  0
ARC
  5
3BC
330
1F
100
AcDbEntity
  8
7__7
  6
PLine1
 62
     4
100
AcDbCircle
 10
795.002288
 20
1320.983908
 30
0.0
 40
2.999999999881436
100
AcDbArc
 50
149.999454
 51
239.999454
  0
LINE
  5
3BD
330
1F
100
AcDbEntity
  8
7__7
  6
PLine1
 62
     4
100
AcDbLine
 10
797.616737
 20
1316.010301
 30
0.0
 11
793.502263
 21
1318.385846
 31
0.0
  0
CIRCLE
  5
3BE
330
1F
100
AcDbEntity
  8
7__7
  6
PLine1
 62
     4
100
AcDbCircle
 10
814.411236
 20
1319.708379
 30
0.0
 40
3.499999999999972
  0
ARC
  5
3BF
330
1F
100
AcDbEntity
  8
7__7
  6
PLine1
 62
     4
100
AcDbCircle
 10
816.360425
 20
1317.050559
 30
0.0
 40
2.500000000084373
100
AcDbArc
 50
216.255533
 51
306.255533
  0
ARC
  5
3C0
330
1F
100
AcDbEntity
  8
7__7
  6
PLine1
 62
     4
100
AcDbCircle
 10
816.360425
 20
1317.050559
 30
0.0
 40
2.499999999974698
100
AcDbArc
 50
306.255533
 51
36.255533
  0
ARC
  5
3C1
330
1F
100
AcDbEntity
  8
7__7
  6
Continuous
 62
     4
100
AcDbCircle
 10
331.326809
 20
595.888797
 30
0.0
 40
6.000000000025468
100
AcDbArc
 50
149.999454
 51
206.309387
  0
LINE
  5
3C2
330
1F
100
AcDbEntity
  8
7__7
  6
PLine1
 62
     4
100
AcDbLine
 10
340.505561
 20
563.787305
 30
0.0
 11
325.948326
 21
593.229488
 31
0.0
  0
ARC
  5
3C3
330
1F
100
AcDbEntity
  8
7__7
  6
Continuous
 62
     4
100
AcDbCircle
 10
331.326745
 20
595.888926
 30
0.0
 40
2.999999999963935
100
AcDbArc
 50
149.999454
 51
206.309387
  0
LINE
  5
3C4
330
1F
100
AcDbEntity
  8
7__7
  6
PLine1
 62
     4
100
AcDbLine
 10
342.308367
 20
566.909787
 30
0.0
 11
328.637503
 21
594.559272
 31
0.0
  0
LINE
  5
3C5
330
1F
100
AcDbEntity
  8
7__7
  6
Continuous
 62
     4
100
AcDbLine
 10
342.308367
 20
566.909787
 30
0.0
 11
340.505561
 21
563.787305
 31
0.0
  0
LINE
  5
3C6
330
1F
100
AcDbEntity
  8
7__7
  6
PLine1
 62
     4
100
AcDbLine
 10
798.332641
 20
1418.505967
 30
0.0
 11
190.615512
 21
1255.674857
 31
0.0
  0
ARC
  5
3C7
330
1F
100
AcDbEntity
  8
7__7
  6
Continuous
 62
     4
100
AcDbCircle
 10
192.168371
 20
1249.879287
 30
0.0
 40
5.999999999977443
100
AcDbArc
 50
104.999454
 51
194.999454
  0
LINE
  5
3C8
330
1F
100
AcDbEntity
  8
7__7
  6
PLine1
 62
     4
100
AcDbLine
 10
349.203912
 20
640.609299
 30
0.0
 11
186.372801
 21
1248.326428
 31
0.0
  0
ARC
  5
3C9
330
1F
100
AcDbEntity
  8
7__7
  6
Continuous
 62
     4
100
AcDbCircle
 10
192.168371
 20
1249.879287
 30
0.0
 40
3.000000000017155
100
AcDbArc
 50
104.999454
 51
194.999454
  0
LINE
  5
3CA
330
1F
100
AcDbEntity
  8
7__7
  6
PLine1
 62
     4
100
AcDbLine
 10
799.108907
 20
1415.608138
 30
0.0
 11
191.391942
 21
1252.777072
 31
0.0
  0
LINE
  5
3CB
330
1F
100
AcDbEntity
  8
7__7
  6
PLine1
 62
     4
100
AcDbLine
 10
352.101653
 20
641.385892
 30
0.0
 11
189.270586
 21
1249.102857
 31
0.0
  0
ARC
  5
3CC
330
1F
100
AcDbEntity
  8
7__7
  6
PLine1
 62
     4
100
AcDbCircle
 10
797.556047
 20
1421.403708
 30
0.0
 40
6.000000000125508
100
AcDbArc
 50
284.999454
 51
329.999454
  0
LINE
  5
3CD
330
1F
100
AcDbEntity
  8
7__7
  6
PLine1
 62
     4
100
AcDbLine
 10
825.525695
 20
1457.847692
 30
0.0
 11
802.752171
 21
1418.403659
 31
0.0
  0
ARC
  5
3CE
330
1F
100
AcDbEntity
  8
7__7
  6
PLine1
 62
     4
100
AcDbCircle
 10
797.556211
 20
1421.403752
 30
0.0
 40
2.999999999956134
100
AcDbArc
 50
284.999454
 51
329.999454
  0
LINE
  5
3CF
330
1F
100
AcDbEntity
  8
7__7
  6
PLine1
 62
     4
100
AcDbLine
 10
822.927777
 20
1459.347726
 30
0.0
 11
800.154273
 21
1419.903727
 31
0.0
  0
LINE
  5
3D0
330
1F
100
AcDbEntity
  8
7__7
  6
PLine1
 62
     4
100
AcDbLine
 10
797.825597
 20
1448.681005
 30
0.0
 11
833.543391
 21
1428.058874
 31
0.0
  0
LINE
  5
3D1
330
1F
100
AcDbEntity
  8
7__7
  6
PLine1
 62
     4
100
AcDbLine
 10
830.418465
 20
1436.322525
 30
0.0
 11
809.928031
 21
1430.832339
 31
0.0
  0
LINE
  5
3D2
330
1F
100
AcDbEntity
  8
7__7
  6
PLine1
 62
     4
100
AcDbLine
 10
827.939005
 20
1432.028069
 30
0.0
 11
813.411061
 21
1428.135467
 31
0.0
  0
LINE
  5
3D3
330
1F
100
AcDbEntity
  8
7__7
  6
PLine1
 62
     4
100
AcDbLine
 10
822.621334
 20
1422.817796
 30
0.0
 11
809.631024
 21
1430.31792
 31
0.0
  0
LINE
  5
3D4
330
1F
100
AcDbEntity
  8
7__7
  6
PLine1
 62
     4
100
AcDbLine
 10
832.384208
 20
1440.275212
 30
0.0
 11
812.268069
 21
1434.885314
 31
0.0
  0
LINE
  5
3D5
330
1F
100
AcDbEntity
  8
7__7
  6
PLine1
 62
     4
100
AcDbLine
 10
817.4841
 20
1425.783845
 30
0.0
 11
814.165099
 21
1438.170995
 31
0.0
  0
LINE
  5
3D6
330
1F
100
AcDbEntity
  8
7__7
  6
PLine1
 62
     4
100
AcDbLine
 10
832.621499
 20
1440.138209
 30
0.0
 11
819.581826
 21
1447.666833
 31
0.0
  0
LINE
  5
3D7
330
1F
100
AcDbEntity
  8
7__7
  6
PLine1
 62
     4
100
AcDbLine
 10
817.896159
 20
1444.633239
 30
0.0
 11
822.636283
 21
1445.903303
 31
0.0
  0
LINE
  5
3D8
330
1F
100
AcDbEntity
  8
7__7
  6
PLine1
 62
     4
100
AcDbLine
 10
803.796337
 20
1427.913118
 30
0.0
 11
818.797209
 21
1453.894818
 31
0.0
  0
LINE
  5
3D9
330
1F
100
AcDbEntity
  8
7__7
  6
PLine1
 62
     4
100
AcDbLine
 10
803.058476
 20
1428.339131
 30
0.0
 11
818.059924
 21
1454.319827
 31
0.0
  0
LINE
  5
3DA
330
1F
100
AcDbEntity
  8
7__7
  6
PLine1
 62
     4
100
AcDbLine
 10
803.48457
 20
1428.093121
 30
0.0
 11
818.485958
 21
1454.075716
 31
0.0
  0
LINE
  5
3DB
330
1F
100
AcDbEntity
  8
7__7
  6
PLine1
 62
     4
100
AcDbLine
 10
804.201652
 20
1427.679104
 30
0.0
 11
819.202683
 21
1453.661082
 31
0.0
  0
LINE
  5
3DC
330
1F
100
AcDbEntity
  8
7__7
  6
PLine1
 62
     4
100
AcDbLine
 10
824.647366
 20
1426.326908
 30
0.0
 11
819.15718
 21
1446.817342
 31
0.0
  0
LINE
  5
3DD
330
1F
100
AcDbEntity
  8
7__7
  6
PLine1
 62
     4
100
AcDbLine
 10
821.673861
 20
1423.364832
 30
0.0
 11
816.583141
 21
1442.359073
 31
0.0
  0
LINE
  5
3DE
330
1F
100
AcDbEntity
  8
7__7
  6
PLine1
 62
     4
100
AcDbLine
 10
811.669059
 20
1433.847822
 30
0.0
 11
813.160927
 21
1428.279885
 31
0.0
  0
LINE
  5
3DF
330
1F
100
AcDbEntity
  8
7__7
  6
PLine1
 62
     4
100
AcDbLine
 10
817.605095
 20
1454.582014
 30
0.0
 11
816.305551
 21
1455.331138
 31
0.0
  0
LINE
  5
3E0
330
1F
100
AcDbEntity
  8
7__7
  6
PLine1
 62
     4
100
AcDbLine
 10
801.841972
 20
1436.767926
 30
0.0
 11
810.150861
 21
1451.159028
 31
0.0
  0
LINE
  5
3E1
330
1F
100
AcDbEntity
  8
7__7
  6
PLine1
 62
     4
100
AcDbLine
 10
801.306034
 20
1429.351785
 30
0.0
 11
816.305551
 21
1455.331138
 31
0.0
  0
ARC
  5
3E2
330
1F
100
AcDbEntity
  8
7__7
  6
PLine1
 62
     4
100
AcDbCircle
 10
814.265086
 20
1448.10309
 30
0.0
 40
5.124997949844886
100
AcDbArc
 50
81.123618
 51
143.072758
  0
LINE
  5
3E3
330
1F
100
AcDbEntity
  8
7__7
  6
PLine1
 62
     4
100
AcDbLine
 10
802.604552
 20
1428.600884
 30
0.0
 11
817.605095
 21
1454.582014
 31
0.0
  0
LINE
  5
3E4
330
1F
100
AcDbEntity
  8
7__7
  6
PLine1
 62
     4
100
AcDbLine
 10
817.605095
 20
1454.582014
 30
0.0
 11
819.487761
 21
1453.494891
 31
0.0
  0
ARC
  5
3E5
330
1F
100
AcDbEntity
  8
7__7
  6
PLine1
 62
     4
100
AcDbCircle
 10
802.910755
 20
1441.81902
 30
0.0
 40
3.600000000141032
100
AcDbArc
 50
149.999454
 51
239.999454
  0
LINE
  5
3E6
330
1F
100
AcDbEntity
  8
7__7
  6
PLine1
 62
     4
100
AcDbLine
 10
802.496359
 20
1437.901332
 30
0.0
 11
801.110726
 21
1438.701345
 31
0.0
  0
LINE
  5
3E7
330
1F
100
AcDbEntity
  8
7__7
  6
PLine1
 62
     4
100
AcDbLine
 10
803.116269
 20
1449.374854
 30
0.0
 11
799.793081
 21
1443.619049
 31
0.0
  0
ARC
  5
3E8
330
1F
100
AcDbEntity
  8
7__7
  6
PLine1
 62
     4
100
AcDbCircle
 10
806.233943
 20
1447.574824
 30
0.0
 40
3.600000000115188
100
AcDbArc
 50
64.999454
 51
149.999454
  0
LINE
  5
3E9
330
1F
100
AcDbEntity
  8
7__7
  6
PLine1
 62
     4
100
AcDbLine
 10
809.496474
 20
1450.025621
 30
0.0
 11
807.7554
 21
1450.837517
 31
0.0
  0
LINE
  5
3EA
330
1F
100
AcDbEntity
  8
7__7
  6
PLine1
 62
     4
100
AcDbLine
 10
827.557133
 20
1443.062186
 30
0.0
 11
815.055043
 21
1439.712389
 31
0.0
  0
LINE
  5
3EB
330
1F
100
AcDbEntity
  8
7__7
  6
PLine1
 62
     4
100
AcDbLine
 10
827.216917
 20
1430.777403
 30
0.0
 11
823.260693
 21
1445.542791
 31
0.0
  0
LINE
  5
3EC
330
1F
100
AcDbEntity
  8
7__7
  6
PLine1
 62
     4
100
AcDbLine
 10
802.604552
 20
1428.600884
 30
0.0
 11
804.487341
 21
1427.513972
 31
0.0
  0
LINE
  5
3ED
330
1F
100
AcDbEntity
  8
7__7
  6
PLine1
 62
     4
100
AcDbLine
 10
802.604552
 20
1428.600884
 30
0.0
 11
801.306034
 21
1429.351785
 31
0.0
  0
ARC
  5
3EE
330
1F
100
AcDbEntity
  8
7__7
  6
PLine1
 62
     4
100
AcDbCircle
 10
806.545565
 20
1434.732781
 30
0.0
 40
5.124997949841138
100
AcDbArc
 50
156.602899
 51
218.87529
  0
LINE
  5
3EF
330
1F
100
AcDbEntity
  8
7__7
  6
PLine1
 62
     4
100
AcDbLine
 10
833.421512
 20
1441.523842
 30
0.0
 11
820.381839
 21
1449.052466
 31
0.0
  0
LINE
  5
3F0
330
1F
100
AcDbEntity
  8
7__7
  6
PLine1
 62
     4
100
AcDbLine
 10
821.821321
 20
1421.432163
 30
0.0
 11
808.831011
 21
1428.932287
 31
0.0
  0
ARC
  5
3F1
330
1F
100
AcDbEntity
  8
7__7
  6
Continuous
 62
     4
100
AcDbCircle
 10
828.123901
 20
1456.347676
 30
0.0
 40
6.000000000182798
100
AcDbArc
 50
93.689522
 51
149.999454
  0
LINE
  5
3F2
330
1F
100
AcDbEntity
  8
7__7
  6
PLine1
 62
     4
100
AcDbLine
 10
860.514139
 20
1464.448772
 30
0.0
 11
827.737802
 21
1462.335241
 31
0.0
  0
ARC
  5
3F3
330
1F
100
AcDbEntity
  8
7__7
  6
PLine1
 62
     4
100
AcDbCircle
 10
828.123757
 20
1456.347667
 30
0.0
 40
3.000000000144211
100
AcDbArc
 50
93.689522
 51
149.999454
  0
LINE
  5
3F4
330
1F
100
AcDbEntity
  8
7__7
  6
PLine1
 62
     4
100
AcDbLine
 10
858.711334
 20
1461.32629
 30
0.0
 11
827.930708
 21
1459.341449
 31
0.0
  0
LINE
  5
3F5
330
1F
100
AcDbEntity
  8
7__7
  6
Continuous
 62
     4
100
AcDbLine
 10
858.711334
 20
1461.32629
 30
0.0
 11
860.514139
 21
1464.448772
 31
0.0
  0
LINE
  5
3F6
330
1F
100
AcDbEntity
  8
7__7
  6
PLine1
 62
     4
100
AcDbLine
 10
827.720099
 20
1442.968096
 30
0.0
 11
829.791612
 21
1435.236809
 31
0.0
  0
LINE
  5
3F7
330
1F
100
AcDbEntity
  8
7__7
  6
PLine1
 62
     4
100
AcDbLine
 10
825.470118
 20
1427.751927
 30
0.0
 11
817.687203
 21
1425.66658
 31
0.0
  0
ARC
  5
3F8
330
1F
100
AcDbEntity
  8
7__7
  6
Continuous
 62
     3
100
AcDbCircle
 10
1390.066254
 20
711.431078
 30
0.0
 40
9.754415587751566
100
AcDbArc
 50
65.790724
 51
114.209276
  0
ARC
  5
3F9
330
1F
100
AcDbEntity
  8
7__7
  6
Continuous
 62
     3
100
AcDbCircle
 10
1395.638371
 20
719.324146
 30
0.0
 40
1.865081654993869
100
AcDbArc
 50
93.62604
 51
147.449869
  0
LINE
  5
3FA
330
1F
100
AcDbEntity
  8
7__7
  6
Continuous
 62
     3
100
AcDbLine
 10
1382.560701
 20
715.685494
 30
0.0
 11
1397.571808
 21
715.685494
 31
0.0
  0
LINE
  5
3FB
330
1F
100
AcDbEntity
  8
7__7
  6
Continuous
 62
     3
100
AcDbLine
 10
1386.066254
 20
715.685494
 30
0.0
 11
1386.066254
 21
720.327629
 31
0.0
  0
LINE
  5
3FC
330
1F
100
AcDbEntity
  8
7__7
  6
Continuous
 62
     3
100
AcDbLine
 10
1383.566254
 20
721.185494
 30
0.0
 11
1390.066254
 21
721.185494
 31
0.0
  0
LINE
  5
3FD
330
1F
100
AcDbEntity
  8
7__7
  6
Continuous
 62
     3
100
AcDbLine
 10
1397.571808
 20
715.685494
 30
0.0
 11
1397.571808
 21
720.604937
 31
0.0
  0
LINE
  5
3FE
330
1F
100
AcDbEntity
  8
7__7
  6
Continuous
 62
     3
100
AcDbLine
 10
1394.066254
 20
715.685494
 30
0.0
 11
1394.066254
 21
720.327629
 31
0.0
  0
LINE
  5
3FF
330
1F
100
AcDbEntity
  8
7__7
  6
Continuous
 62
     3
100
AcDbLine
 10
1396.566254
 20
721.185494
 30
0.0
 11
1390.066254
 21
721.185494
 31
0.0
  0
LINE
  5
400
330
1F
100
AcDbEntity
  8
7__7
  6
Continuous
 62
     3
100
AcDbLine
 10
1382.560701
 20
715.685494
 30
0.0
 11
1382.560701
 21
720.604937
 31
0.0
  0
LINE
  5
401
330
1F
100
AcDbEntity
  8
7__7
  6
Continuous
 62
     3
100
AcDbLine
 10
1382.560701
 20
720.604937
 30
0.0
 11
1383.566254
 21
721.185494
 31
0.0
  0
LINE
  5
402
330
1F
100
AcDbEntity
  8
7__7
  6
Continuous
 62
     3
100
AcDbLine
 10
1397.571808
 20
720.604937
 30
0.0
 11
1396.566254
 21
721.185494
 31
0.0
  0
ARC
  5
403
330
1F
100
AcDbEntity
  8
7__7
  6
Continuous
 62
     3
100
AcDbCircle
 10
1384.494138
 20
719.324146
 30
0.0
 40
1.865081654485023
100
AcDbArc
 50
32.550131
 51
86.37396
  0
ARC
  5
404
330
1F
100
AcDbEntity
  8
7__7
  6
Continuous
 62
     3
100
AcDbCircle
 10
440.066254
 20
711.431078
 30
0.0
 40
9.754415587722406
100
AcDbArc
 50
65.790724
 51
114.209276
  0
ARC
  5
405
330
1F
100
AcDbEntity
  8
7__7
  6
Continuous
 62
     3
100
AcDbCircle
 10
445.638371
 20
719.324146
 30
0.0
 40
1.865081654655891
100
AcDbArc
 50
93.62604
 51
147.449869
  0
LINE
  5
406
330
1F
100
AcDbEntity
  8
7__7
  6
Continuous
 62
     3
100
AcDbLine
 10
432.560701
 20
715.685494
 30
0.0
 11
447.571808
 21
715.685494
 31
0.0
  0
LINE
  5
407
330
1F
100
AcDbEntity
  8
7__7
  6
Continuous
 62
     3
100
AcDbLine
 10
436.066254
 20
715.685494
 30
0.0
 11
436.066254
 21
720.327629
 31
0.0
  0
LINE
  5
408
330
1F
100
AcDbEntity
  8
7__7
  6
Continuous
 62
     3
100
AcDbLine
 10
433.566254
 20
721.185494
 30
0.0
 11
440.066254
 21
721.185494
 31
0.0
  0
LINE
  5
409
330
1F
100
AcDbEntity
  8
7__7
  6
Continuous
 62
     3
100
AcDbLine
 10
447.571808
 20
715.685494
 30
0.0
 11
447.571808
 21
720.604937
 31
0.0
  0
LINE
  5
40A
330
1F
100
AcDbEntity
  8
7__7
  6
Continuous
 62
     3
100
AcDbLine
 10
444.066254
 20
715.685494
 30
0.0
 11
444.066254
 21
720.327629
 31
0.0
  0
LINE
  5
40B
330
1F
100
AcDbEntity
  8
7__7
  6
Continuous
 62
     3
100
AcDbLine
 10
446.566254
 20
721.185494
 30
0.0
 11
440.066254
 21
721.185494
 31
0.0
  0
LINE
  5
40C
330
1F
100
AcDbEntity
  8
7__7
  6
Continuous
 62
     3
100
AcDbLine
 10
432.560701
 20
715.685494
 30
0.0
 11
432.560701
 21
720.604937
 31
0.0
  0
LINE
  5
40D
330
1F
100
AcDbEntity
  8
7__7
  6
Continuous
 62
     3
100
AcDbLine
 10
432.560701
 20
720.604937
 30
0.0
 11
433.566254
 21
721.185494
 31
0.0
  0
LINE
  5
40E
330
1F
100
AcDbEntity
  8
7__7
  6
Continuous
 62
     3
100
AcDbLine
 10
447.571808
 20
720.604937
 30
0.0
 11
446.566254
 21
721.185494
 31
0.0
  0
ARC
  5
40F
330
1F
100
AcDbEntity
  8
7__7
  6
Continuous
 62
     3
100
AcDbCircle
 10
434.494138
 20
719.324146
 30
0.0
 40
1.865081654588272
100
AcDbArc
 50
32.550131
 51
86.37396
  0
LINE
  5
410
330
1F
100
AcDbEntity
  8
7__7
  6
Continuous
 62
     1
100
AcDbLine
 10
61.571032
 20
52.350609
 30
0.0
 11
61.571032
 21
1732.350609
 31
0.0
  0
LINE
  5
411
330
1F
100
AcDbEntity
  8
7__7
  6
Continuous
 62
     1
100
AcDbLine
 10
61.571032
 20
52.350609
 30
0.0
 11
2461.571032
 21
52.350609
 31
0.0
  0
LINE
  5
412
330
1F
100
AcDbEntity
  8
7__7
  6
Continuous
 62
     1
100
AcDbLine
 10
2461.571032
 20
1732.350609
 30
0.0
 11
61.571032
 21
1732.350609
 31
0.0
  0
LINE
  5
413
330
1F
100
AcDbEntity
  8
7__7
  6
Continuous
 62
     1
100
AcDbLine
 10
2461.571032
 20
52.350609
 30
0.0
 11
2461.571032
 21
1732.350609
 31
0.0
  0
TEXT
  5
414
330
1F
100
AcDbEntity
  8
7__7
  6
Continuous
 62
     2
100
AcDbText
 10
2139.393137
 20
115.646549
 30
0.0
 40
22.8
  1
ＬＭ－Ｓ－Ｐ型　ステンレスタイプ
 41
0.858268
  7
BIGFONT
100
AcDbText
  0
TEXT
  5
415
330
1F
100
AcDbEntity
  8
7__7
  6
Continuous
 62
     3
100
AcDbText
 10
2102.326141
 20
216.292968
 30
0.0
 40
21.0
  1
ボックス施工例
 41
0.858268
  7
BIGFONT
100
AcDbText
  0
LINE
  5
416
330
1F
100
AcDbEntity
  8
7__7
  6
Continuous
 62
     3
100
AcDbLine
 10
2286.078247
 20
1271.08839
 30
0.0
 11
2286.078247
 21
308.228371
 31
0.0
  0
LINE
  5
417
330
1F
100
AcDbEntity
  8
7__7
  6
Continuous
 62
     3
100
AcDbLine
 10
2226.578247
 20
1124.319377
 30
0.0
 11
2226.578247
 21
1130.969377
 31
0.0
  0
INSERT
  5
41E
330
1F
100
AcDbEntity
  8
7__7
  6
Continuous
 62
     3
100
AcDbBlockReference
  2
DIM_7
 10
0.0
 20
0.0
 30
0.0
  0
LINE
  5
41F
330
1F
100
AcDbEntity
  8
7__7
  6
Continuous
 62
     4
100
AcDbLine
 10
2204.548
 20
1214.825373
 30
0.0
 11
2211.857326
 21
1220.903154
 31
0.0
  0
ARC
  5
420
330
1F
100
AcDbEntity
  8
7__7
  6
Continuous
 62
     4
100
AcDbCircle
 10
2097.306155
 20
1122.245987
 30
0.0
 40
144.5000000001363
100
AcDbArc
 50
40.782563
 51
89.215646
  0
ARC
  5
421
330
1F
100
AcDbEntity
  8
7__7
  6
Continuous
 62
     4
100
AcDbCircle
 10
2097.306155
 20
1122.245987
 30
0.0
 40
150.0000000000007
100
AcDbArc
 50
40.744474
 51
89.215646
  0
LINE
  5
422
330
1F
100
AcDbEntity
  8
7__7
  6
Continuous
 62
     3
100
AcDbLine
 10
1989.894852
 20
1254.225704
 30
0.0
 11
1993.296776
 21
1266.118009
 31
0.0
  0
LINE
  5
423
330
1F
100
AcDbEntity
  8
7__7
  6
Continuous
 62
     3
100
AcDbLine
 10
1993.296776
 20
1266.118009
 30
0.0
 11
1945.789777
 21
1183.833473
 31
0.0
  0
LINE
  5
424
330
1F
100
AcDbEntity
  8
7__7
  6
Continuous
 62
     3
100
AcDbLine
 10
1945.789777
 20
1183.833473
 30
0.0
 11
1803.889777
 21
1183.833473
 31
0.0
  0
TEXT
  5
425
330
1F
100
AcDbEntity
  8
7__7
  6
Continuous
 62
     3
100
AcDbText
 10
1826.245058
 20
1188.833543
 30
0.0
 40
15.0
  1
アウターケーブルφ１１
 41
0.858268
 51
0.0
  7
BIGFONT
 72
     2
 11
1945.78949
 21
1188.833543
 31
0.0
100
AcDbText
  0
TEXT
  5
426
330
1F
100
AcDbEntity
  8
7__7
  6
Continuous
 62
     3
100
AcDbText
 10
1877.023625
 20
1245.242468
 30
0.0
 40
15.0
  1
←本体へ
 41
0.729528
 51
0.0
  7
BIGFONT
100
AcDbText
  0
LINE
  5
427
330
1F
100
AcDbEntity
  8
7__7
  6
Continuous
 62
     6
100
AcDbLine
 10
2336.061771
 20
1331.758836
 30
0.0
 11
2276.534867
 21
1272.231932
 31
0.0
  0
LINE
  5
428
330
1F
100
AcDbEntity
  8
7__7
  6
Continuous
 62
     6
100
AcDbLine
 10
2280.466293
 20
1272.231932
 30
0.0
 11
2339.993197
 21
1331.758836
 31
0.0
  0
LINE
  5
429
330
1F
100
AcDbEntity
  8
7__7
  6
Continuous
 62
     6
100
AcDbLine
 10
2331.507916
 20
1331.758836
 30
0.0
 11
2271.981012
 21
1272.231932
 31
0.0
  0
LINE
  5
42A
330
1F
100
AcDbEntity
  8
7__7
  6
Continuous
 62
     6
100
AcDbLine
 10
2012.477972
 20
1272.231932
 30
0.0
 11
2072.004876
 21
1331.758836
 31
0.0
  0
LINE
  5
42B
330
1F
100
AcDbEntity
  8
7__7
  6
Continuous
 62
     6
100
AcDbLine
 10
2003.99269
 20
1272.231932
 30
0.0
 11
2063.519595
 21
1331.758836
 31
0.0
  0
LINE
  5
42C
330
1F
100
AcDbEntity
  8
7__7
  6
Continuous
 62
     3
100
AcDbLine
 10
1885.9297
 20
1125.419377
 30
0.0
 11
2225.178247
 21
1125.419377
 31
0.0
  0
LINE
  5
42D
330
1F
100
AcDbEntity
  8
7__7
  6
Continuous
 62
     3
100
AcDbLine
 10
1885.9297
 20
1130.169377
 30
0.0
 11
2225.178247
 21
1130.169377
 31
0.0
  0
LINE
  5
42E
330
1F
100
AcDbEntity
  8
7__7
  6
Continuous
 62
     3
100
AcDbLine
 10
2225.178247
 20
1130.169377
 30
0.0
 11
2225.178247
 21
1125.419377
 31
0.0
  0
LINE
  5
42F
330
1F
100
AcDbEntity
  8
7__7
  6
Continuous
 62
     3
100
AcDbLine
 10
2218.878247
 20
1130.469377
 30
0.0
 11
2218.878247
 21
1130.969377
 31
0.0
  0
LINE
  5
430
330
1F
100
AcDbEntity
  8
7__7
  6
Continuous
 62
     3
100
AcDbLine
 10
2226.078247
 20
1130.469377
 30
0.0
 11
2218.878247
 21
1130.469377
 31
0.0
  0
LINE
  5
431
330
1F
100
AcDbEntity
  8
7__7
  6
Continuous
 62
     3
100
AcDbLine
 10
2226.078247
 20
1124.819377
 30
0.0
 11
2226.078247
 21
1130.469377
 31
0.0
  0
LINE
  5
432
330
1F
100
AcDbEntity
  8
7__7
  6
Continuous
 62
     3
100
AcDbLine
 10
2223.678247
 20
1124.819377
 30
0.0
 11
2226.078247
 21
1124.819377
 31
0.0
  0
LINE
  5
433
330
1F
100
AcDbEntity
  8
7__7
  6
Continuous
 62
     3
100
AcDbLine
 10
2223.678247
 20
1125.419377
 30
0.0
 11
2223.678247
 21
1124.819377
 31
0.0
  0
LINE
  5
434
330
1F
100
AcDbEntity
  8
7__7
  6
Continuous
 62
     3
100
AcDbLine
 10
2223.178247
 20
1125.419377
 30
0.0
 11
2223.678247
 21
1125.419377
 31
0.0
  0
LINE
  5
435
330
1F
100
AcDbEntity
  8
7__7
  6
Continuous
 62
     3
100
AcDbLine
 10
2223.178247
 20
1124.319377
 30
0.0
 11
2223.178247
 21
1125.419377
 31
0.0
  0
LINE
  5
436
330
1F
100
AcDbEntity
  8
7__7
  6
Continuous
 62
     3
100
AcDbLine
 10
2223.178247
 20
1124.319377
 30
0.0
 11
2226.578247
 21
1124.319377
 31
0.0
  0
LINE
  5
437
330
1F
100
AcDbEntity
  8
7__7
  6
Continuous
 62
     3
100
AcDbLine
 10
2218.878247
 20
1130.969377
 30
0.0
 11
2226.578247
 21
1130.969377
 31
0.0
  0
TEXT
  5
438
330
1F
100
AcDbEntity
  8
7__7
  6
Continuous
 62
     3
100
AcDbText
 10
2001.7598
 20
1108.605428
 30
0.0
 40
15.0
  1
ＣＬ
 41
0.858268
 51
0.0
  7
BIGFONT
100
AcDbText
  0
TEXT
  5
439
330
1F
100
AcDbEntity
  8
7__7
  6
Continuous
 62
     3
100
AcDbText
 10
1989.35196
 20
1109.168628
 30
0.0
 40
15.0
  1
△
 41
0.858268
 51
0.0
  7
BIGFONT
100
AcDbText
  0
TEXT
  5
43A
330
1F
100
AcDbEntity
  8
7__7
  6
Continuous
 62
     3
100
AcDbText
 10
2101.038971
 20
1015.73933
 30
0.0
 40
15.0
  1
φ１９　電線管
 41
0.858268
  7
BIGFONT
100
AcDbText
  0
LINE
  5
43B
330
1F
100
AcDbEntity
  8
7__7
  6
Continuous
 62
     3
100
AcDbLine
 10
2238.299347
 20
972.283666
 30
0.0
 11
2246.897423
 21
963.391361
 31
0.0
  0
LINE
  5
43C
330
1F
100
AcDbEntity
  8
7__7
  6
Continuous
 62
     3
100
AcDbLine
 10
2246.897423
 20
963.391361
 30
0.0
 11
2206.57322
 21
1033.23493
 31
0.0
  0
LINE
  5
43D
330
1F
100
AcDbEntity
  8
7__7
  6
Continuous
 62
     3
100
AcDbLine
 10
2206.57322
 20
1033.23493
 30
0.0
 11
2098.88198
 21
1033.23493
 31
0.0
  0
TEXT
  5
43E
330
1F
100
AcDbEntity
  8
7__7
  6
Continuous
 62
     3
100
AcDbText
 10
2116.756022
 20
1035.734905
 30
0.0
 40
15.0
  1
ワイヤー通路
 41
0.858268
 51
0.0
  7
BIGFONT
 72
     2
 11
2181.126101
 21
1035.734905
 31
0.0
100
AcDbText
  0
TEXT
  5
43F
330
1F
100
AcDbEntity
  8
7__7
  6
Continuous
 62
     3
100
AcDbText
 10
2027.061143
 20
905.02822
 30
0.0
 40
15.0
  1
（ＨＭ１型－埋込）
 41
0.858268
  7
BIGFONT
100
AcDbText
  0
LINE
  5
440
330
1F
100
AcDbEntity
  8
7__7
  6
Continuous
 62
     2
100
AcDbLine
 10
1927.5014
 20
1331.758836
 30
0.0
 11
2371.138883
 21
1331.758836
 31
0.0
  0
LINE
  5
441
330
1F
100
AcDbEntity
  8
7__7
  6
Continuous
 62
     3
100
AcDbLine
 10
2078.879311
 20
1276.744391
 30
0.0
 11
2078.879311
 21
1267.314926
 31
0.0
  0
LINE
  5
442
330
1F
100
AcDbEntity
  8
7__7
  6
Continuous
 62
     3
100
AcDbLine
 10
2071.379311
 20
1271.481932
 30
0.0
 11
2086.379311
 21
1271.481932
 31
0.0
  0
LINE
  5
443
330
1F
100
AcDbEntity
  8
7__7
  6
Continuous
 62
     3
100
AcDbLine
 10
2071.379311
 20
1264.659699
 30
0.0
 11
2086.379311
 21
1264.659699
 31
0.0
  0
LINE
  5
444
330
1F
100
AcDbEntity
  8
7__7
  6
Continuous
 62
     3
100
AcDbLine
 10
2086.379311
 20
1272.231932
 30
0.0
 11
2086.379311
 21
1264.659699
 31
0.0
  0
LINE
  5
445
330
1F
100
AcDbEntity
  8
7__7
  6
Continuous
 62
     3
100
AcDbLine
 10
2071.379311
 20
1272.231932
 30
0.0
 11
2071.379311
 21
1264.659699
 31
0.0
  0
LINE
  5
446
330
1F
100
AcDbEntity
  8
7__7
  6
Continuous
 62
     2
100
AcDbLine
 10
2099.359524
 20
1272.231932
 30
0.0
 11
2371.138883
 21
1272.231932
 31
0.0
  0
LINE
  5
447
330
1F
100
AcDbEntity
  8
7__7
  6
PLine3
 62
     3
100
AcDbLine
 10
1885.9297
 20
1269.981932
 30
0.0
 11
1927.343731
 21
1269.981932
 31
0.0
  0
LINE
  5
448
330
1F
100
AcDbEntity
  8
7__7
  6
PLine2
 62
     3
100
AcDbLine
 10
1885.9297
 20
1268.981932
 30
0.0
 11
1927.569745
 21
1268.981932
 31
0.0
  0
LINE
  5
449
330
1F
100
AcDbEntity
  8
7__7
  6
Continuous
 62
     4
100
AcDbLine
 10
2099.321526
 20
1266.731932
 30
0.0
 11
2086.379311
 21
1266.731932
 31
0.0
  0
LINE
  5
44A
330
1F
100
AcDbEntity
  8
7__7
  6
Continuous
 62
     4
100
AcDbLine
 10
2099.359524
 20
1272.231932
 30
0.0
 11
1927.5014
 21
1272.231932
 31
0.0
  0
LINE
  5
44B
330
1F
100
AcDbEntity
  8
7__7
  6
Continuous
 62
     3
100
AcDbLine
 10
2103.80211
 20
1242.37509
 30
0.0
 11
2113.204034
 21
1264.659699
 31
0.0
  0
LINE
  5
44C
330
1F
100
AcDbEntity
  8
7__7
  6
Continuous
 62
     3
100
AcDbLine
 10
2113.204034
 20
1264.659699
 30
0.0
 11
2077.591295
 21
1202.976626
 31
0.0
  0
LINE
  5
44D
330
1F
100
AcDbEntity
  8
7__7
  6
Continuous
 62
     3
100
AcDbLine
 10
2077.591295
 20
1202.976626
 30
0.0
 11
2000.191295
 21
1202.976626
 31
0.0
  0
TEXT
  5
44E
330
1F
100
AcDbEntity
  8
7__7
  6
Continuous
 62
     3
100
AcDbText
 10
2013.221171
 20
1207.976613
 30
0.0
 40
15.0
  1
クリップ止め
 41
0.858268
 51
0.0
  7
BIGFONT
 72
     2
 11
2077.59125
 21
1207.976613
 31
0.0
100
AcDbText
  0
LINE
  5
44F
330
1F
100
AcDbEntity
  8
7__7
  6
Continuous
 62
     4
100
AcDbLine
 10
2071.379311
 20
1266.731932
 30
0.0
 11
1927.416644
 21
1266.731932
 31
0.0
  0
LINE
  5
450
330
1F
100
AcDbEntity
  8
7__7
  6
Continuous
 62
     6
100
AcDbLine
 10
2118.76069
 20
308.402891
 30
0.0
 11
2085.492191
 21
275.134392
 31
0.0
  0
LINE
  5
451
330
1F
100
AcDbEntity
  8
7__7
  6
Continuous
 62
     6
100
AcDbLine
 10
2083.266431
 20
275.134392
 30
0.0
 11
2116.534931
 21
308.402891
 31
0.0
  0
LINE
  5
452
330
1F
100
AcDbEntity
  8
7__7
  6
Continuous
 62
     6
100
AcDbLine
 10
2311.2009
 20
275.134392
 30
0.0
 11
2344.469399
 21
308.402891
 31
0.0
  0
LINE
  5
453
330
1F
100
AcDbEntity
  8
7__7
  6
Continuous
 62
     6
100
AcDbLine
 10
2346.889036
 20
308.402891
 30
0.0
 11
2313.620537
 21
275.134392
 31
0.0
  0
LINE
  5
454
330
1F
100
AcDbEntity
  8
7__7
  6
Continuous
 62
     3
100
AcDbLine
 10
2215.376409
 20
801.731277
 30
0.0
 11
2223.974485
 21
792.838972
 31
0.0
  0
LINE
  5
455
330
1F
100
AcDbEntity
  8
7__7
  6
Continuous
 62
     3
100
AcDbLine
 10
2223.974485
 20
792.838972
 30
0.0
 11
2148.343042
 21
923.836474
 31
0.0
  0
LINE
  5
456
330
1F
100
AcDbEntity
  8
7__7
  6
Continuous
 62
     3
100
AcDbLine
 10
2148.343042
 20
923.836474
 30
0.0
 11
2035.05651
 21
923.836474
 31
0.0
  0
TEXT
  5
457
330
1F
100
AcDbEntity
  8
7__7
  6
Continuous
 62
     3
100
AcDbText
 10
2054.769665
 20
926.33651
 30
0.0
 40
15.0
  1
ハンドルＢＯＸ
 41
0.858268
 51
0.0
  7
BIGFONT
 72
     2
 11
2130.174615
 21
926.33651
 31
0.0
100
AcDbText
  0
INSERT
  5
45F
330
1F
100
AcDbEntity
  8
7__7
  6
Continuous
 62
     3
100
AcDbBlockReference
  2
DIM_8
 10
2039.255698
 20
1125.419377
 30
0.0
  0
LINE
  5
460
330
1F
100
AcDbEntity
  8
7__7
  6
Continuous
 62
     3
100
AcDbLine
 10
2281.328247
 20
1271.08839
 30
0.0
 11
2281.328247
 21
308.228371
 31
0.0
  0
TEXT
  5
461
330
1F
100
AcDbEntity
  8
7__7
  6
Continuous
 62
     3
100
AcDbText
 10
2060.23636
 20
311.786808
 30
0.0
 40
15.0
  1
ＦＬ
 41
0.858268
 51
0.0
  7
BIGFONT
100
AcDbText
  0
TEXT
  5
462
330
1F
100
AcDbEntity
  8
7__7
  6
Continuous
 62
     3
100
AcDbText
 10
2047.461095
 20
311.090398
 30
0.0
 40
15.0
  1
▽
 41
0.858268
 51
0.0
  7
BIGFONT
100
AcDbText
  0
LINE
  5
463
330
1F
100
AcDbEntity
  8
7__7
  6
Continuous
 62
     3
100
AcDbLine
 10
2220.030171
 20
488.690799
 30
0.0
 11
2228.628247
 21
479.798494
 31
0.0
  0
LINE
  5
464
330
1F
100
AcDbEntity
  8
7__7
  6
Continuous
 62
     3
100
AcDbLine
 10
2228.628247
 20
479.798494
 30
0.0
 11
2192.039024
 21
543.172888
 31
0.0
  0
LINE
  5
465
330
1F
100
AcDbEntity
  8
7__7
  6
Continuous
 62
     3
100
AcDbLine
 10
2192.039024
 20
543.172888
 30
0.0
 11
2083.502099
 21
543.172888
 31
0.0
  0
TEXT
  5
466
330
1F
100
AcDbEntity
  8
7__7
  6
Continuous
 62
     3
100
AcDbText
 10
2106.893444
 20
545.672878
 30
0.0
 40
15.0
  1
内装ボード（別途）
 41
0.858268
 51
0.0
  7
BIGFONT
 72
     2
 11
2204.368135
 21
545.672878
 31
0.0
100
AcDbText
  0
LINE
  5
467
330
1F
100
AcDbEntity
  8
7__7
  6
Continuous
 62
     3
100
AcDbLine
 10
2231.328247
 20
665.797265
 30
0.0
 11
2231.328247
 21
308.402891
 31
0.0
  0
LINE
  5
468
330
1F
100
AcDbEntity
  8
7__7
  6
Continuous
 62
     3
100
AcDbLine
 10
2226.578247
 20
665.797265
 30
0.0
 11
2226.578247
 21
308.402891
 31
0.0
  0
INSERT
  5
471
330
1F
100
AcDbEntity
  8
7__7
  6
Continuous
 62
     3
100
AcDbBlockReference
  2
DIM_9
 10
2152.637838
 20
686.547265
 30
0.0
  0
LINE
  5
472
330
1F
100
AcDbEntity
  8
7__7
  6
Continuous
 62
     2
100
AcDbLine
 10
1908.309294
 20
308.402891
 30
0.0
 11
2371.138883
 21
308.402891
 31
0.0
  0
LINE
  5
473
330
1F
100
AcDbEntity
  8
7__7
  6
Continuous
 62
     3
100
AcDbLine
 10
2231.328247
 20
815.797265
 30
0.0
 11
2231.328247
 21
1272.231932
 31
0.0
  0
LINE
  5
474
330
1F
100
AcDbEntity
  8
7__7
  6
Continuous
 62
     3
100
AcDbLine
 10
2226.578247
 20
1272.231932
 30
0.0
 11
2226.578247
 21
768.297265
 31
0.0
  0
LINE
  5
475
330
1F
100
AcDbEntity
  8
7__7
  6
Continuous
 62
     4
100
AcDbLine
 10
2224.078247
 20
660.797265
 30
0.0
 11
2226.578247
 21
660.797265
 31
0.0
  0
LINE
  5
476
330
1F
100
AcDbEntity
  8
7__7
  6
Continuous
 62
     4
100
AcDbLine
 10
2226.578247
 20
660.797265
 30
0.0
 11
2226.578247
 21
820.797265
 31
0.0
  0
LINE
  5
477
330
1F
100
AcDbEntity
  8
7__7
  6
Continuous
 62
     4
100
AcDbLine
 10
2226.578247
 20
820.797265
 30
0.0
 11
2224.078247
 21
820.797265
 31
0.0
  0
INSERT
  5
481
330
1F
100
AcDbEntity
  8
7__7
  6
Continuous
 62
     3
100
AcDbBlockReference
  2
DIM_10
 10
2219.691782
 20
820.797265
 30
0.0
  0
INSERT
  5
48B
330
1F
100
AcDbEntity
  8
7__7
  6
Continuous
 62
     3
100
AcDbBlockReference
  2
DIM_11
 10
2264.507288
 20
665.797265
 30
0.0
  0
INSERT
  5
494
330
1F
100
AcDbEntity
  8
7__7
  6
Continuous
 62
     3
100
AcDbBlockReference
  2
DIM_12
 10
2224.078247
 20
654.953375
 30
0.0
  0
INSERT
  5
49D
330
1F
100
AcDbEntity
  8
7__7
  6
Continuous
 62
     3
100
AcDbBlockReference
  2
DIM_13
 10
2261.578247
 20
659.953375
 30
0.0
  0
INSERT
  5
4A7
330
1F
100
AcDbEntity
  8
7__7
  6
Continuous
 62
     3
100
AcDbBlockReference
  2
DIM_14
 10
2355.5313
 20
657.57672
 30
0.0
  0
LINE
  5
4A8
330
1F
100
AcDbEntity
  8
7__7
  6
Continuous
 62
     4
100
AcDbLine
 10
2355.5313
 20
820.797265
 30
0.0
 11
2355.5313
 21
660.797265
 31
0.0
  0
LINE
  5
4A9
330
1F
100
AcDbEntity
  8
7__7
  6
Continuous
 62
     4
100
AcDbLine
 10
2420.5313
 20
820.797265
 30
0.0
 11
2420.5313
 21
660.797265
 31
0.0
  0
LINE
  5
4AA
330
1F
100
AcDbEntity
  8
7__7
  6
Continuous
 62
     4
100
AcDbLine
 10
2355.5313
 20
820.797265
 30
0.0
 11
2420.5313
 21
820.797265
 31
0.0
  0
LINE
  5
4AB
330
1F
100
AcDbEntity
  8
7__7
  6
Continuous
 62
     4
100
AcDbLine
 10
2355.5313
 20
660.797265
 30
0.0
 11
2420.5313
 21
660.797265
 31
0.0
  0
LINE
  5
4AC
330
1F
100
AcDbEntity
  8
7__7
  6
Continuous
 62
     4
100
AcDbLine
 10
2395.5313
 20
686.547265
 30
0.0
 11
2395.5313
 21
808.389798
 31
0.0
  0
ARC
  5
4AD
330
1F
100
AcDbEntity
  8
7__7
  6
Continuous
 62
     4
100
AcDbCircle
 10
2382.6813
 20
773.625392
 30
0.0
 40
0.8500000108123358
100
AcDbArc
 50
90.0
 51
180.0
  0
ARC
  5
4AE
330
1F
100
AcDbEntity
  8
7__7
  6
Continuous
 62
     4
100
AcDbCircle
 10
2393.3813
 20
773.625392
 30
0.0
 40
0.8500000037864408
100
AcDbArc
 50
0.0
 51
90.0
  0
ARC
  5
4AF
330
1F
100
AcDbEntity
  8
7__7
  6
Continuous
 62
     4
100
AcDbCircle
 10
2382.6813
 20
762.925393
 30
0.0
 40
0.850000000693002
100
AcDbArc
 50
180.0
 51
270.0
  0
ARC
  5
4B0
330
1F
100
AcDbEntity
  8
7__7
  6
Continuous
 62
     4
100
AcDbCircle
 10
2393.3813
 20
762.925393
 30
0.0
 40
0.8499999988774426
100
AcDbArc
 50
270.0
 51
0.0
  0
LINE
  5
4B1
330
1F
100
AcDbEntity
  8
7__7
  6
Continuous
 62
     4
100
AcDbLine
 10
2381.8313
 20
773.625392
 30
0.0
 11
2381.8313
 21
762.925393
 31
0.0
  0
LINE
  5
4B2
330
1F
100
AcDbEntity
  8
7__7
  6
Continuous
 62
     4
100
AcDbLine
 10
2394.2313
 20
773.625392
 30
0.0
 11
2394.2313
 21
762.925393
 31
0.0
  0
LINE
  5
4B3
330
1F
100
AcDbEntity
  8
7__7
  6
Continuous
 62
     4
100
AcDbLine
 10
2382.6813
 20
762.075393
 30
0.0
 11
2393.3813
 21
762.075393
 31
0.0
  0
LINE
  5
4B4
330
1F
100
AcDbEntity
  8
7__7
  6
Continuous
 62
     4
100
AcDbLine
 10
2382.6813
 20
774.475392
 30
0.0
 11
2393.3813
 21
774.475392
 31
0.0
  0
LINE
  5
4B5
330
1F
100
AcDbEntity
  8
7__7
  6
Continuous
 62
     4
100
AcDbLine
 10
2380.5313
 20
686.547265
 30
0.0
 11
2380.5313
 21
808.389798
 31
0.0
  0
LINE
  5
4B6
330
1F
100
AcDbEntity
  8
7__7
  6
Continuous
 62
     4
100
AcDbLine
 10
2263.178238
 20
801.547265
 30
0.0
 11
2261.578247
 21
801.547265
 31
0.0
  0
LINE
  5
4B7
330
1F
100
AcDbEntity
  8
7__7
  6
Continuous
 62
     4
100
AcDbLine
 10
2263.178238
 20
809.547265
 30
0.0
 11
2261.578247
 21
809.547265
 31
0.0
  0
LINE
  5
4B8
330
1F
100
AcDbEntity
  8
7__7
  6
Continuous
 62
     4
100
AcDbLine
 10
2263.178238
 20
801.547265
 30
0.0
 11
2263.178238
 21
809.547265
 31
0.0
  0
LINE
  5
4B9
330
1F
100
AcDbEntity
  8
7__7
  6
Continuous
 62
     4
100
AcDbLine
 10
2263.178238
 20
779.047265
 30
0.0
 11
2261.578247
 21
779.047265
 31
0.0
  0
LINE
  5
4BA
330
1F
100
AcDbEntity
  8
7__7
  6
Continuous
 62
     4
100
AcDbLine
 10
2263.178238
 20
771.047265
 30
0.0
 11
2261.578247
 21
771.047265
 31
0.0
  0
LINE
  5
4BB
330
1F
100
AcDbEntity
  8
7__7
  6
Continuous
 62
     4
100
AcDbLine
 10
2263.178238
 20
686.547265
 30
0.0
 11
2261.578247
 21
686.547265
 31
0.0
  0
LINE
  5
4BC
330
1F
100
AcDbEntity
  8
7__7
  6
Continuous
 62
     4
100
AcDbLine
 10
2263.178238
 20
771.047265
 30
0.0
 11
2263.178238
 21
779.047265
 31
0.0
  0
LINE
  5
4BD
330
1F
100
AcDbEntity
  8
7__7
  6
Continuous
 62
     4
100
AcDbLine
 10
2263.178238
 20
667.297265
 30
0.0
 11
2261.578247
 21
667.297265
 31
0.0
  0
LINE
  5
4BE
330
1F
100
AcDbEntity
  8
7__7
  6
Continuous
 62
     4
100
AcDbLine
 10
2263.178238
 20
667.297265
 30
0.0
 11
2263.178238
 21
686.547265
 31
0.0
  0
ARC
  5
4BF
330
1F
100
AcDbEntity
  8
7__7
  6
Continuous
 62
     4
100
AcDbCircle
 10
2260.978241
 20
815.197267
 30
0.0
 40
0.6000000047387639
100
AcDbArc
 50
0.0
 51
90.0
  0
ARC
  5
4C0
330
1F
100
AcDbEntity
  8
7__7
  6
Continuous
 62
     4
100
AcDbCircle
 10
2260.978241
 20
666.397264
 30
0.0
 40
0.5999999925973721
100
AcDbArc
 50
270.0
 51
0.0
  0
ARC
  5
4C1
330
1F
100
AcDbEntity
  8
7__7
  6
Continuous
 62
     4
100
AcDbCircle
 10
2227.178238
 20
809.372266
 30
0.0
 40
0.6000000079243886
100
AcDbArc
 50
90.0
 51
180.0
  0
ARC
  5
4C2
330
1F
100
AcDbEntity
  8
7__7
  6
Continuous
 62
     4
100
AcDbCircle
 10
2227.428238
 20
812.472265
 30
0.0
 40
0.2500000055758048
100
AcDbArc
 50
180.0
 51
270.0
  0
ARC
  5
4C3
330
1F
100
AcDbEntity
  8
7__7
  6
Continuous
 62
     4
100
AcDbCircle
 10
2227.428238
 20
809.122266
 30
0.0
 40
0.2499999946939034
100
AcDbArc
 50
90.0
 51
180.0
  0
ARC
  5
4C4
330
1F
100
AcDbEntity
  8
7__7
  6
Continuous
 62
     4
100
AcDbCircle
 10
2227.428238
 20
669.122262
 30
0.0
 40
0.2500000185818377
100
AcDbArc
 50
90.0
 51
180.0
  0
ARC
  5
4C5
330
1F
100
AcDbEntity
  8
7__7
  6
Continuous
 62
     4
100
AcDbCircle
 10
2227.428238
 20
672.472269
 30
0.0
 40
0.2500000011712056
100
AcDbArc
 50
180.0
 51
270.0
  0
ARC
  5
4C6
330
1F
100
AcDbEntity
  8
7__7
  6
Continuous
 62
     4
100
AcDbCircle
 10
2227.178238
 20
812.222265
 30
0.0
 40
0.5999999987026754
100
AcDbArc
 50
180.0
 51
270.0
  0
LINE
  5
4C7
330
1F
100
AcDbEntity
  8
7__7
  6
Continuous
 62
     4
100
AcDbLine
 10
2228.178238
 20
669.372262
 30
0.0
 11
2227.428238
 21
669.372262
 31
0.0
  0
LINE
  5
4C8
330
1F
100
AcDbEntity
  8
7__7
  6
Continuous
 62
     4
100
AcDbLine
 10
2227.178238
 20
807.797265
 30
0.0
 11
2227.178238
 21
809.122266
 31
0.0
  0
LINE
  5
4C9
330
1F
100
AcDbEntity
  8
7__7
  6
Continuous
 62
     4
100
AcDbLine
 10
2227.178238
 20
807.797265
 30
0.0
 11
2226.578247
 21
807.797265
 31
0.0
  0
LINE
  5
4CA
330
1F
100
AcDbEntity
  8
7__7
  6
Continuous
 62
     4
100
AcDbLine
 10
2227.178238
 20
673.797265
 30
0.0
 11
2227.178238
 21
666.397264
 31
0.0
  0
LINE
  5
4CB
330
1F
100
AcDbEntity
  8
7__7
  6
Continuous
 62
     4
100
AcDbLine
 10
2260.978241
 20
666.397264
 30
0.0
 11
2260.978241
 21
815.197267
 31
0.0
  0
LINE
  5
4CC
330
1F
100
AcDbEntity
  8
7__7
  6
Continuous
 62
     4
100
AcDbLine
 10
2260.978241
 20
815.197267
 30
0.0
 11
2227.178238
 21
815.197267
 31
0.0
  0
LINE
  5
4CD
330
1F
100
AcDbEntity
  8
7__7
  6
Continuous
 62
     4
100
AcDbLine
 10
2228.178238
 20
809.972265
 30
0.0
 11
2227.178238
 21
809.972265
 31
0.0
  0
LINE
  5
4CE
330
1F
100
AcDbEntity
  8
7__7
  6
Continuous
 62
     4
100
AcDbLine
 10
2260.978241
 20
666.397264
 30
0.0
 11
2226.578247
 21
666.397264
 31
0.0
  0
LINE
  5
4CF
330
1F
100
AcDbEntity
  8
7__7
  6
Continuous
 62
     4
100
AcDbLine
 10
2261.578247
 20
666.397264
 30
0.0
 11
2261.578247
 21
815.197267
 31
0.0
  0
LINE
  5
4D0
330
1F
100
AcDbEntity
  8
7__7
  6
Continuous
 62
     4
100
AcDbLine
 10
2260.978241
 20
815.797265
 30
0.0
 11
2226.578247
 21
815.797265
 31
0.0
  0
LINE
  5
4D1
330
1F
100
AcDbEntity
  8
7__7
  6
Continuous
 62
     4
100
AcDbLine
 10
2260.978241
 20
665.797265
 30
0.0
 11
2226.578247
 21
665.797265
 31
0.0
  0
LINE
  5
4D2
330
1F
100
AcDbEntity
  8
7__7
  6
Continuous
 62
     4
100
AcDbLine
 10
2227.178238
 20
673.797265
 30
0.0
 11
2226.578247
 21
673.797265
 31
0.0
  0
LINE
  5
4D3
330
1F
100
AcDbEntity
  8
7__7
  6
Continuous
 62
     4
100
AcDbLine
 10
2228.178238
 20
809.372266
 30
0.0
 11
2228.178238
 21
812.222265
 31
0.0
  0
LINE
  5
4D4
330
1F
100
AcDbEntity
  8
7__7
  6
Continuous
 62
     4
100
AcDbLine
 10
2227.178238
 20
812.472265
 30
0.0
 11
2227.178238
 21
815.197267
 31
0.0
  0
LINE
  5
4D5
330
1F
100
AcDbEntity
  8
7__7
  6
Continuous
 62
     4
100
AcDbLine
 10
2228.178238
 20
672.222269
 30
0.0
 11
2227.428238
 21
672.222269
 31
0.0
  0
LINE
  5
4D6
330
1F
100
AcDbEntity
  8
7__7
  6
Continuous
 62
     4
100
AcDbLine
 10
2228.178238
 20
809.372266
 30
0.0
 11
2227.428238
 21
809.372266
 31
0.0
  0
LINE
  5
4D7
330
1F
100
AcDbEntity
  8
7__7
  6
Continuous
 62
     4
100
AcDbLine
 10
2228.178238
 20
811.622266
 30
0.0
 11
2227.178238
 21
811.622266
 31
0.0
  0
LINE
  5
4D8
330
1F
100
AcDbEntity
  8
7__7
  6
Continuous
 62
     4
100
AcDbLine
 10
2228.178238
 20
672.222269
 30
0.0
 11
2228.178238
 21
669.372262
 31
0.0
  0
LINE
  5
4D9
330
1F
100
AcDbEntity
  8
7__7
  6
Continuous
 62
     4
100
AcDbLine
 10
2228.178238
 20
812.222265
 30
0.0
 11
2227.428238
 21
812.222265
 31
0.0
  0
LINE
  5
4DA
330
1F
100
AcDbEntity
  8
7__7
  6
Continuous
 62
     4
100
AcDbLine
 10
2226.578247
 20
780.497265
 30
0.0
 11
2226.578247
 21
820.797265
 31
0.0
  0
LINE
  5
4DB
330
1F
100
AcDbEntity
  8
7__7
  6
Continuous
 62
     4
100
AcDbLine
 10
2226.578247
 20
660.797265
 30
0.0
 11
2226.578247
 21
780.497265
 31
0.0
  0
LINE
  5
4DC
330
1F
100
AcDbEntity
  8
7__7
  6
Continuous
 62
     4
100
AcDbLine
 10
2224.078247
 20
660.797265
 30
0.0
 11
2224.078247
 21
820.797265
 31
0.0
  0
LINE
  5
4DD
330
1F
100
AcDbEntity
  8
7__7
  6
Continuous
 62
     4
100
AcDbLine
 10
2219.078247
 20
682.547265
 30
0.0
 11
2236.578247
 21
682.547265
 31
0.0
  0
LINE
  5
4DE
330
1F
100
AcDbEntity
  8
7__7
  6
Continuous
 62
     4
100
AcDbLine
 10
2236.578247
 20
690.547265
 30
0.0
 11
2219.078247
 21
690.547265
 31
0.0
  0
LINE
  5
4DF
330
1F
100
AcDbEntity
  8
7__7
  6
Continuous
 62
     4
100
AcDbLine
 10
2220.578247
 20
781.797265
 30
0.0
 11
2220.578247
 21
770.797265
 31
0.0
  0
LINE
  5
4E0
330
1F
100
AcDbEntity
  8
7__7
  6
Continuous
 62
     4
100
AcDbLine
 10
2220.578247
 20
770.797265
 30
0.0
 11
2219.078247
 21
770.797265
 31
0.0
  0
LINE
  5
4E1
330
1F
100
AcDbEntity
  8
7__7
  6
Continuous
 62
     4
100
AcDbLine
 10
2219.078247
 20
770.797265
 30
0.0
 11
2219.078247
 21
681.047265
 31
0.0
  0
LINE
  5
4E2
330
1F
100
AcDbEntity
  8
7__7
  6
Continuous
 62
     4
100
AcDbLine
 10
2215.078247
 20
768.797265
 30
0.0
 11
2213.578247
 21
770.297265
 31
0.0
  0
LINE
  5
4E3
330
1F
100
AcDbEntity
  8
7__7
  6
Continuous
 62
     4
100
AcDbLine
 10
2213.578247
 20
770.297265
 30
0.0
 11
2213.578247
 21
781.797265
 31
0.0
  0
LINE
  5
4E4
330
1F
100
AcDbEntity
  8
7__7
  6
Continuous
 62
     4
100
AcDbLine
 10
2213.578247
 20
781.797265
 30
0.0
 11
2220.578247
 21
781.797265
 31
0.0
  0
LINE
  5
4E5
330
1F
100
AcDbEntity
  8
7__7
  6
Continuous
 62
     4
100
AcDbLine
 10
2216.078247
 20
681.047265
 30
0.0
 11
2219.078247
 21
681.047265
 31
0.0
  0
LINE
  5
4E6
330
1F
100
AcDbEntity
  8
7__7
  6
Continuous
 62
     4
100
AcDbLine
 10
2201.078247
 20
770.797265
 30
0.0
 11
2213.078247
 21
771.297265
 31
0.0
  0
LINE
  5
4E7
330
1F
100
AcDbEntity
  8
7__7
  6
Continuous
 62
     4
100
AcDbLine
 10
2213.078247
 20
771.297265
 30
0.0
 11
2213.078247
 21
781.297265
 31
0.0
  0
LINE
  5
4E8
330
1F
100
AcDbEntity
  8
7__7
  6
Continuous
 62
     4
100
AcDbLine
 10
2213.078247
 20
781.297265
 30
0.0
 11
2201.078247
 21
781.797265
 31
0.0
  0
LINE
  5
4E9
330
1F
100
AcDbEntity
  8
7__7
  6
Continuous
 62
     4
100
AcDbLine
 10
2201.078247
 20
781.797265
 30
0.0
 11
2201.078247
 21
770.797265
 31
0.0
  0
LINE
  5
4EA
330
1F
100
AcDbEntity
  8
7__7
  6
Continuous
 62
     4
100
AcDbLine
 10
2213.078247
 20
771.797265
 30
0.0
 11
2213.578247
 21
771.797265
 31
0.0
  0
LINE
  5
4EB
330
1F
100
AcDbEntity
  8
7__7
  6
Continuous
 62
     4
100
AcDbLine
 10
2213.578247
 20
780.797265
 30
0.0
 11
2213.078247
 21
780.797265
 31
0.0
  0
LINE
  5
4EC
330
1F
100
AcDbEntity
  8
7__7
  6
PLine2
 62
     4
100
AcDbLine
 10
2259.957993
 20
686.547265
 30
0.0
 11
2182.207993
 21
686.547265
 31
0.0
  0
LINE
  5
4ED
330
1F
100
AcDbEntity
  8
7__7
  6
Continuous
 62
     4
100
AcDbLine
 10
2236.578247
 20
682.547265
 30
0.0
 11
2236.578247
 21
690.547265
 31
0.0
  0
LINE
  5
4EE
330
1F
100
AcDbEntity
  8
7__7
  6
Continuous
 62
     4
100
AcDbLine
 10
2216.078247
 20
681.047265
 30
0.0
 11
2214.042713
 21
683.082799
 31
0.0
  0
LINE
  5
4EF
330
1F
100
AcDbEntity
  8
7__7
  6
Continuous
 62
     4
100
AcDbLine
 10
2215.078247
 20
768.797265
 30
0.0
 11
2215.078247
 21
693.047265
 31
0.0
  0
TEXT
  5
4F0
330
1F
100
AcDbEntity
  8
7__7
  6
Continuous
 62
     1
100
AcDbText
 10
2383.438441
 20
761.84478
 30
0.0
 40
12.5
  1
押
 41
0.858268
  7
BIGFONT
100
AcDbText
  0
ARC
  5
4F1
330
1F
100
AcDbEntity
  8
7__7
  6
Continuous
 62
     4
100
AcDbCircle
 10
2388.0313
 20
686.547265
 30
0.0
 40
7.49999999988745
100
AcDbArc
 50
138.189685
 51
41.810315
  0
LINE
  5
4F2
330
1F
100
AcDbEntity
  8
7__7
  6
Continuous
 62
     4
100
AcDbLine
 10
2380.5313
 20
691.547265
 30
0.0
 11
2395.5313
 21
691.547265
 31
0.0
  0
ARC
  5
4F3
330
1F
100
AcDbEntity
  8
7__7
  6
Continuous
 62
     4
100
AcDbCircle
 10
2388.0313
 20
790.389798
 30
0.0
 40
19.49999999909551
100
AcDbArc
 50
67.380135
 51
112.619865
  0
LINE
  5
4F4
330
1F
100
AcDbEntity
  8
7__7
  6
PLine1
 62
     4
100
AcDbLine
 10
2360.5313
 20
785.238334
 30
0.0
 11
2360.5313
 21
815.797265
 31
0.0
  0
LINE
  5
4F5
330
1F
100
AcDbEntity
  8
7__7
  6
PLine1
 62
     4
100
AcDbLine
 10
2360.5313
 20
815.797265
 30
0.0
 11
2415.5313
 21
815.797265
 31
0.0
  0
LINE
  5
4F6
330
1F
100
AcDbEntity
  8
7__7
  6
PLine1
 62
     4
100
AcDbLine
 10
2415.5313
 20
815.797265
 30
0.0
 11
2415.5313
 21
782.452502
 31
0.0
  0
LINE
  5
4F7
330
1F
100
AcDbEntity
  8
7__7
  6
Continuous
 62
     4
100
AcDbLine
 10
2367.5313
 20
820.797265
 30
0.0
 11
2367.5313
 21
825.797265
 31
0.0
  0
LINE
  5
4F8
330
1F
100
AcDbEntity
  8
7__7
  6
Continuous
 62
     4
100
AcDbLine
 10
2367.5313
 20
825.797265
 30
0.0
 11
2378.5313
 21
825.797265
 31
0.0
  0
LINE
  5
4F9
330
1F
100
AcDbEntity
  8
7__7
  6
Continuous
 62
     4
100
AcDbLine
 10
2378.5313
 20
825.797265
 30
0.0
 11
2378.5313
 21
820.797265
 31
0.0
  0
LINE
  5
4FA
330
1F
100
AcDbEntity
  8
7__7
  6
Continuous
 62
     4
100
AcDbLine
 10
2368.2813
 20
825.797265
 30
0.0
 11
2368.2813
 21
930.407652
 31
0.0
  0
LINE
  5
4FB
330
1F
100
AcDbEntity
  8
7__7
  6
Continuous
 62
     4
100
AcDbLine
 10
2377.7813
 20
825.797265
 30
0.0
 11
2377.7813
 21
930.407652
 31
0.0
  0
LINE
  5
4FC
330
1F
100
AcDbEntity
  8
7__7
  6
PLine2
 62
     4
100
AcDbLine
 10
2373.0313
 20
954.908032
 30
0.0
 11
2373.0313
 21
805.66713
 31
0.0
  0
INSERT
  5
506
330
1F
100
AcDbEntity
  8
7__7
  6
Continuous
 62
     3
100
AcDbBlockReference
  2
DIM_15
 10
2360.5313
 20
823.141729
 30
0.0
  0
INSERT
  5
510
330
1F
100
AcDbEntity
  8
7__7
  6
Continuous
 62
     3
100
AcDbBlockReference
  2
DIM_16
 10
2360.5313
 20
858.897356
 30
0.0
  0
LINE
  5
511
330
1F
100
AcDbEntity
  8
7__7
  6
Continuous
 62
     4
100
AcDbLine
 10
2242.078247
 20
825.797265
 30
0.0
 11
2253.078247
 21
825.797265
 31
0.0
  0
LINE
  5
512
330
1F
100
AcDbEntity
  8
7__7
  6
Continuous
 62
     4
100
AcDbLine
 10
2253.078247
 20
825.797265
 30
0.0
 11
2253.078247
 21
816.797265
 31
0.0
  0
LINE
  5
513
330
1F
100
AcDbEntity
  8
7__7
  6
Continuous
 62
     4
100
AcDbLine
 10
2242.078247
 20
816.797265
 30
0.0
 11
2242.078247
 21
825.797265
 31
0.0
  0
LINE
  5
514
330
1F
100
AcDbEntity
  8
7__7
  6
Continuous
 62
     4
100
AcDbLine
 10
2242.078247
 20
816.797265
 30
0.0
 11
2253.078247
 21
816.797265
 31
0.0
  0
LINE
  5
515
330
1F
100
AcDbEntity
  8
7__7
  6
Continuous
 62
     4
100
AcDbLine
 10
2253.078247
 20
816.797265
 30
0.0
 11
2253.831064
 21
815.797265
 31
0.0
  0
LINE
  5
516
330
1F
100
AcDbEntity
  8
7__7
  6
Continuous
 62
     4
100
AcDbLine
 10
2242.078247
 20
816.797265
 30
0.0
 11
2241.325431
 21
815.797265
 31
0.0
  0
LINE
  5
517
330
1F
100
AcDbEntity
  8
7__7
  6
Continuous
 62
     4
100
AcDbLine
 10
2242.828247
 20
825.797265
 30
0.0
 11
2242.828247
 21
1114.731932
 31
0.0
  0
LINE
  5
518
330
1F
100
AcDbEntity
  8
7__7
  6
Continuous
 62
     4
100
AcDbLine
 10
2252.328247
 20
825.797265
 30
0.0
 11
2252.328247
 21
1114.731932
 31
0.0
  0
LINE
  5
519
330
1F
100
AcDbEntity
  8
7__7
  6
PLine2
 62
     4
100
AcDbLine
 10
2247.578247
 20
954.908032
 30
0.0
 11
2247.578247
 21
805.66713
 31
0.0
  0
INSERT
  5
523
330
1F
100
AcDbEntity
  8
7__7
  6
Continuous
 62
     3
100
AcDbBlockReference
  2
DIM_17
 10
2247.578247
 20
877.201105
 30
0.0
  0
LINE
  5
524
330
1F
100
AcDbEntity
  8
7__7
  6
Continuous
 62
     4
100
AcDbLine
 10
2212.578247
 20
686.618333
 30
0.0
 11
2212.578247
 21
691.047265
 31
0.0
  0
ARC
  5
525
330
1F
100
AcDbEntity
  8
7__7
  6
Continuous
 62
     4
100
AcDbCircle
 10
2217.578247
 20
686.618333
 30
0.0
 40
5.000000000585073
100
AcDbArc
 50
180.0
 51
225.0
  0
LINE
  5
526
330
1F
100
AcDbEntity
  8
7__7
  6
Continuous
 62
     4
100
AcDbLine
 10
2213.078247
 20
691.547265
 30
0.0
 11
2213.578247
 21
691.547265
 31
0.0
  0
ARC
  5
527
330
1F
100
AcDbEntity
  8
7__7
  6
Continuous
 62
     4
100
AcDbCircle
 10
2213.078247
 20
691.047265
 30
0.0
 40
0.4999999918848418
100
AcDbArc
 50
90.0
 51
180.0
  0
ARC
  5
528
330
1F
100
AcDbEntity
  8
7__7
  6
Continuous
 62
     4
100
AcDbCircle
 10
2213.578247
 20
693.047265
 30
0.0
 40
1.500000004079338
100
AcDbArc
 50
270.0
 51
0.0
  0
ARC
  5
529
330
1F
100
AcDbEntity
  8
7__7
  6
Continuous
 62
     4
100
AcDbCircle
 10
2092.828247
 20
1114.731932
 30
0.0
 40
149.9999999998619
100
AcDbArc
 50
0.0
 51
41.858218
  0
ARC
  5
52A
330
1F
100
AcDbEntity
  8
7__7
  6
Continuous
 62
     4
100
AcDbCircle
 10
2092.828247
 20
1114.731932
 30
0.0
 40
159.5000000000697
100
AcDbArc
 50
0.0
 51
41.732234
  0
LINE
  5
52B
330
1F
100
AcDbEntity
  8
7__7
  6
Continuous
 62
     6
100
AcDbLine
 10
2008.498258
 20
1272.231932
 30
0.0
 11
2068.025162
 21
1331.758836
 31
0.0
  0
LINE
  5
52C
330
1F
100
AcDbEntity
  8
7__7
  6
Continuous
 62
     6
100
AcDbLine
 10
2081.23534
 20
275.134392
 30
0.0
 11
2114.503839
 21
308.402891
 31
0.0
  0
LINE
  5
52D
330
1F
100
AcDbEntity
  8
7__7
  6
Continuous
 62
     6
100
AcDbLine
 10
2316.200555
 20
275.134392
 30
0.0
 11
2349.469055
 21
308.402891
 31
0.0
  0
LINE
  5
52E
330
1F
100
AcDbEntity
  8
7__7
  6
Continuous
 62
     2
100
AcDbLine
 10
2094.740009
 20
241.694922
 30
0.0
 11
2232.318761
 21
241.694922
 31
0.0
  0
LINE
  5
52F
330
1F
100
AcDbEntity
  8
7__7
  6
Continuous
 62
     2
100
AcDbLine
 10
2232.318761
 20
241.694922
 30
0.0
 11
2232.318761
 21
210.797999
 31
0.0
  0
LINE
  5
530
330
1F
100
AcDbEntity
  8
7__7
  6
Continuous
 62
     2
100
AcDbLine
 10
2232.318761
 20
210.797999
 30
0.0
 11
2094.740009
 21
210.797999
 31
0.0
  0
LINE
  5
531
330
1F
100
AcDbEntity
  8
7__7
  6
Continuous
 62
     2
100
AcDbLine
 10
2094.740009
 20
210.797999
 30
0.0
 11
2094.740009
 21
241.694922
 31
0.0
  0
TEXT
  5
532
330
1F
100
AcDbEntity
  8
7__7
  6
Continuous
 62
     3
100
AcDbText
 10
891.407197
 20
328.136821
 30
0.0
 40
18.0
  1
Ｓ
 41
0.858268
  7
BIGFONT
 72
     1
 11
896.924632
 21
328.136821
 31
0.0
100
AcDbText
  0
TEXT
  5
533
330
1F
100
AcDbEntity
  8
7__7
  6
Continuous
 62
     3
100
AcDbText
 10
892.101816
 20
119.606865
 30
0.0
 40
18.0
  1
Ｗ
 41
0.858268
  7
BIGFONT
 72
     1
 11
897.619252
 21
119.606865
 31
0.0
100
AcDbText
  0
LINE
  5
534
330
1F
100
AcDbEntity
  8
7__7
  6
Continuous
 62
     3
100
AcDbLine
 10
867.969035
 20
351.169152
 30
0.0
 11
867.969035
 21
341.149552
 31
0.0
  0
LINE
  5
535
330
1F
100
AcDbEntity
  8
7__7
  6
Continuous
 62
     3
100
AcDbLine
 10
867.969035
 20
341.149552
 30
0.0
 11
877.988634
 21
341.149552
 31
0.0
  0
LINE
  5
536
330
1F
100
AcDbEntity
  8
7__7
  6
Continuous
 62
     3
100
AcDbLine
 10
877.988634
 20
341.149552
 30
0.0
 11
877.988634
 21
351.169152
 31
0.0
  0
LINE
  5
537
330
1F
100
AcDbEntity
  8
7__7
  6
Continuous
 62
     3
100
AcDbLine
 10
877.988634
 20
351.169152
 30
0.0
 11
867.969035
 21
351.169152
 31
0.0
  0
LINE
  5
538
330
1F
100
AcDbEntity
  8
7__7
  6
Continuous
 62
     3
100
AcDbLine
 10
866.993706
 20
145.543756
 30
0.0
 11
866.993706
 21
135.524157
 31
0.0
  0
LINE
  5
539
330
1F
100
AcDbEntity
  8
7__7
  6
Continuous
 62
     3
100
AcDbLine
 10
866.993706
 20
135.524157
 30
0.0
 11
877.013305
 21
135.524157
 31
0.0
  0
LINE
  5
53A
330
1F
100
AcDbEntity
  8
7__7
  6
Continuous
 62
     3
100
AcDbLine
 10
877.013305
 20
135.524157
 30
0.0
 11
877.013305
 21
145.543756
 31
0.0
  0
LINE
  5
53B
330
1F
100
AcDbEntity
  8
7__7
  6
Continuous
 62
     3
100
AcDbLine
 10
877.013305
 20
145.543756
 30
0.0
 11
866.993706
 21
145.543756
 31
0.0
  0
TEXT
  5
53C
330
1F
100
AcDbEntity
  8
7__7
  6
Continuous
 62
     3
100
AcDbText
 10
918.22804
 20
329.163721
 30
0.0
 40
18.0
  1
有効開口
 41
0.858268
  7
BIGFONT
100
AcDbText
  0
TEXT
  5
53D
330
1F
100
AcDbEntity
  8
7__7
  6
Continuous
 62
     3
100
AcDbText
 10
920.20192
 20
118.825647
 30
0.0
 40
18.0
  1
ヘ゛ース外径
 41
0.858268
  7
BIGFONT
100
AcDbText
  0
LINE
  5
53E
330
1F
100
AcDbEntity
  8
7__7
  6
Continuous
 62
     3
100
AcDbLine
 10
873.798769
 20
254.39557
 30
0.0
 11
873.798769
 21
244.37597
 31
0.0
  0
LINE
  5
53F
330
1F
100
AcDbEntity
  8
7__7
  6
Continuous
 62
     3
100
AcDbLine
 10
873.798769
 20
244.37597
 30
0.0
 11
883.818368
 21
244.37597
 31
0.0
  0
LINE
  5
540
330
1F
100
AcDbEntity
  8
7__7
  6
Continuous
 62
     3
100
AcDbLine
 10
883.818368
 20
244.37597
 30
0.0
 11
883.818368
 21
254.39557
 31
0.0
  0
LINE
  5
541
330
1F
100
AcDbEntity
  8
7__7
  6
Continuous
 62
     3
100
AcDbLine
 10
883.818368
 20
254.39557
 30
0.0
 11
873.798769
 21
254.39557
 31
0.0
  0
CIRCLE
  5
542
330
1F
100
AcDbEntity
  8
7__7
  6
Continuous
 62
     3
100
AcDbCircle
 10
330.066254
 20
112.693381
 30
0.0
 40
2.4
  0
CIRCLE
  5
543
330
1F
100
AcDbEntity
  8
7__7
  6
Continuous
 62
     3
100
AcDbCircle
 10
1500.066254
 20
112.693381
 30
0.0
 40
2.4
  0
LINE
  5
544
330
1F
100
AcDbEntity
  8
7__7
  6
Continuous
 62
     3
100
AcDbLine
 10
330.066254
 20
112.693381
 30
0.0
 11
1500.066254
 21
112.693381
 31
0.0
  0
LINE
  5
545
330
1F
100
AcDbEntity
  8
7__7
  6
Continuous
 62
     3
100
AcDbLine
 10
330.066254
 20
403.243816
 30
0.0
 11
330.066254
 21
106.693381
 31
0.0
  0
LINE
  5
546
330
1F
100
AcDbEntity
  8
7__7
  6
Continuous
 62
     3
100
AcDbLine
 10
1500.066254
 20
409.804752
 30
0.0
 11
1500.066254
 21
106.693381
 31
0.0
  0
CIRCLE
  5
547
330
1F
100
AcDbEntity
  8
7__7
  6
Continuous
 62
     3
100
AcDbCircle
 10
495.066254
 20
314.638558
 30
0.0
 40
2.4
  0
CIRCLE
  5
548
330
1F
100
AcDbEntity
  8
7__7
  6
Continuous
 62
     3
100
AcDbCircle
 10
1335.066254
 20
314.638558
 30
0.0
 40
2.4
  0
LINE
  5
549
330
1F
100
AcDbEntity
  8
7__7
  6
Continuous
 62
     3
100
AcDbLine
 10
495.066254
 20
314.638558
 30
0.0
 11
1335.066254
 21
314.638558
 31
0.0
  0
LINE
  5
54A
330
1F
100
AcDbEntity
  8
7__7
  6
Continuous
 62
     3
100
AcDbLine
 10
495.066254
 20
339.673882
 30
0.0
 11
495.066254
 21
308.638558
 31
0.0
  0
LINE
  5
54B
330
1F
100
AcDbEntity
  8
7__7
  6
Continuous
 62
     3
100
AcDbLine
 10
1335.066254
 20
449.317422
 30
0.0
 11
1335.066254
 21
308.638558
 31
0.0
  0
INSERT
  5
555
330
1F
100
AcDbEntity
  8
7__7
  6
Continuous
 62
     3
100
AcDbBlockReference
  2
DIM_18
 10
330.066254
 20
303.342562
 30
0.0
  0
INSERT
  5
55F
330
1F
100
AcDbEntity
  8
7__7
  6
Continuous
 62
     3
100
AcDbBlockReference
  2
DIM_19
 10
1335.066254
 20
334.443129
 30
0.0
  0
INSERT
  5
568
330
1F
100
AcDbEntity
  8
7__7
  6
Continuous
 62
     3
100
AcDbBlockReference
  2
DIM_20
 10
315.066254
 20
401.178218
 30
0.0
  0
INSERT
  5
571
330
1F
100
AcDbEntity
  8
7__7
  6
Continuous
 62
     3
100
AcDbBlockReference
  2
DIM_21
 10
1515.066254
 20
401.329036
 30
0.0
  0
LINE
  5
572
330
1F
100
AcDbEntity
  8
7__7
  6
Continuous
 62
     4
100
AcDbLine
 10
290.098049
 20
287.641365
 30
0.0
 11
300.066254
 21
287.641365
 31
0.0
  0
LINE
  5
573
330
1F
100
AcDbEntity
  8
7__7
  6
Continuous
 62
     4
100
AcDbLine
 10
300.066254
 20
287.641365
 30
0.0
 11
300.066254
 21
257.73675
 31
0.0
  0
LINE
  5
574
330
1F
100
AcDbEntity
  8
7__7
  6
Continuous
 62
     4
100
AcDbLine
 10
298.072613
 20
257.73675
 30
0.0
 11
300.066254
 21
257.73675
 31
0.0
  0
LINE
  5
575
330
1F
100
AcDbEntity
  8
7__7
  6
Continuous
 62
     4
100
AcDbLine
 10
290.098049
 20
285.647724
 30
0.0
 11
298.072613
 21
285.647724
 31
0.0
  0
LINE
  5
576
330
1F
100
AcDbEntity
  8
7__7
  6
Continuous
 62
     4
100
AcDbLine
 10
298.072613
 20
285.647724
 30
0.0
 11
298.072613
 21
257.73675
 31
0.0
  0
LINE
  5
577
330
1F
100
AcDbEntity
  8
7__7
  6
Continuous
 62
     4
100
AcDbLine
 10
290.098049
 20
287.641365
 30
0.0
 11
290.098049
 21
285.647724
 31
0.0
  0
LINE
  5
578
330
1F
100
AcDbEntity
  8
7__7
  6
Continuous
 62
     2
100
AcDbLine
 10
310.066254
 20
297.60957
 30
0.0
 11
262.180635
 21
297.60957
 31
0.0
  0
LINE
  5
579
330
1F
100
AcDbEntity
  8
7__7
  6
Continuous
 62
     2
100
AcDbLine
 10
262.180635
 20
382.075446
 30
0.0
 11
262.180635
 21
297.60957
 31
0.0
  0
LINE
  5
57A
330
1F
100
AcDbEntity
  8
7__7
  6
Continuous
 62
     2
100
AcDbLine
 10
430.066254
 20
411.677631
 30
0.0
 11
262.180635
 21
382.075446
 31
0.0
  0
LINE
  5
57B
330
1F
100
AcDbEntity
  8
7__7
  6
Continuous
 62
     2
100
AcDbLine
 10
430.066254
 20
411.677631
 30
0.0
 11
430.066254
 21
144.652571
 31
0.0
  0
LINE
  5
57C
330
1F
100
AcDbEntity
  8
7__7
  6
Continuous
 62
     2
100
AcDbLine
 10
310.066254
 20
297.60957
 30
0.0
 11
310.066254
 21
144.652571
 31
0.0
  0
LINE
  5
57D
330
1F
100
AcDbEntity
  8
7__7
  6
Continuous
 62
     3
100
AcDbLine
 10
300.066254
 20
297.60957
 30
0.0
 11
300.066254
 21
144.652571
 31
0.0
  0
LINE
  5
57E
330
1F
100
AcDbEntity
  8
7__7
  6
Continuous
 62
     6
100
AcDbLine
 10
430.066254
 20
280.74507
 30
0.0
 11
310.066254
 21
160.74507
 31
0.0
  0
LINE
  5
57F
330
1F
100
AcDbEntity
  8
7__7
  6
Continuous
 62
     6
100
AcDbLine
 10
430.066254
 20
290.936562
 30
0.0
 11
310.066254
 21
170.936562
 31
0.0
  0
LINE
  5
580
330
1F
100
AcDbEntity
  8
7__7
  6
Continuous
 62
     4
100
AcDbLine
 10
385.066254
 20
351.847817
 30
0.0
 11
385.066254
 21
437.899015
 31
0.0
  0
LINE
  5
581
330
1F
100
AcDbEntity
  8
7__7
  6
Continuous
 62
     4
100
AcDbLine
 10
385.066254
 20
437.899015
 30
0.0
 11
395.066254
 21
437.899015
 31
0.0
  0
LINE
  5
582
330
1F
100
AcDbEntity
  8
7__7
  6
Continuous
 62
     4
100
AcDbLine
 10
395.066254
 20
437.899015
 30
0.0
 11
395.066254
 21
351.847817
 31
0.0
  0
LINE
  5
583
330
1F
100
AcDbEntity
  8
7__7
  6
Continuous
 62
     4
100
AcDbLine
 10
242.180635
 20
338.857496
 30
0.0
 11
242.180635
 21
398.018393
 31
0.0
  0
LINE
  5
584
330
1F
100
AcDbEntity
  8
7__7
  6
Continuous
 62
     4
100
AcDbLine
 10
326.066254
 20
413.648504
 30
0.0
 11
243.00699
 21
399.003202
 31
0.0
  0
ARC
  5
585
330
1F
100
AcDbEntity
  8
7__7
  6
Continuous
 62
     4
100
AcDbCircle
 10
243.180635
 20
398.018393
 30
0.0
 40
1.000000000807739
100
AcDbArc
 50
99.999808
 51
180.0
  0
LINE
  5
586
330
1F
100
AcDbEntity
  8
7__7
  6
Continuous
 62
     4
100
AcDbLine
 10
244.180635
 20
338.857496
 30
0.0
 11
244.180635
 21
397.179291
 31
0.0
  0
LINE
  5
587
330
1F
100
AcDbEntity
  8
7__7
  6
Continuous
 62
     4
100
AcDbLine
 10
244.180635
 20
397.179291
 30
0.0
 11
327.239899
 21
411.824593
 31
0.0
  0
ARC
  5
588
330
1F
100
AcDbEntity
  8
7__7
  6
Continuous
 62
     4
100
AcDbCircle
 10
327.066254
 20
412.809402
 30
0.0
 40
0.9999999964411674
100
AcDbArc
 50
279.999808
 51
0.0
  0
LINE
  5
589
330
1F
100
AcDbEntity
  8
7__7
  6
Continuous
 62
     4
100
AcDbLine
 10
242.180635
 20
338.857496
 30
0.0
 11
244.180635
 21
338.857496
 31
0.0
  0
LINE
  5
58A
330
1F
100
AcDbEntity
  8
7__7
  6
Continuous
 62
     4
100
AcDbLine
 10
257.180635
 20
353.857496
 30
0.0
 11
257.180635
 21
386.270959
 31
0.0
  0
LINE
  5
58B
330
1F
100
AcDbEntity
  8
7__7
  6
Continuous
 62
     4
100
AcDbLine
 10
257.180635
 20
386.270959
 30
0.0
 11
330.323638
 21
399.167791
 31
0.0
  0
LINE
  5
58C
330
1F
100
AcDbEntity
  8
7__7
  6
PLine1
 62
     4
100
AcDbLine
 10
255.180635
 20
353.857496
 30
0.0
 11
255.180635
 21
387.949164
 31
0.0
  0
LINE
  5
58D
330
1F
100
AcDbEntity
  8
7__7
  6
PLine1
 62
     4
100
AcDbLine
 10
255.180635
 20
387.949164
 30
0.0
 11
329.976348
 21
401.137408
 31
0.0
  0
LINE
  5
58E
330
1F
100
AcDbEntity
  8
7__7
  6
Continuous
 62
     4
100
AcDbLine
 10
257.180635
 20
386.270959
 30
0.0
 11
244.180635
 21
397.179291
 31
0.0
  0
LINE
  5
58F
330
1F
100
AcDbEntity
  8
7__7
  6
Continuous
 62
     4
100
AcDbLine
 10
327.987067
 20
412.419398
 30
0.0
 11
330.323638
 21
399.167791
 31
0.0
  0
LINE
  5
590
330
1F
100
AcDbEntity
  8
7__7
  6
Continuous
 62
     6
100
AcDbLine
 10
244.180635
 20
353.857496
 30
0.0
 11
262.180635
 21
353.857496
 31
0.0
  0
LINE
  5
591
330
1F
100
AcDbEntity
  8
7__7
  6
PLine2
 62
     3
100
AcDbLine
 10
293.970394
 20
272.641365
 30
0.0
 11
310.983769
 21
272.641365
 31
0.0
  0
LINE
  5
592
330
1F
100
AcDbEntity
  8
7__7
  6
Continuous
 62
     6
100
AcDbLine
 10
244.180635
 20
338.857496
 30
0.0
 11
262.180635
 21
337.325479
 31
0.0
  0
LINE
  5
593
330
1F
100
AcDbEntity
  8
7__7
  6
Continuous
 62
     6
100
AcDbLine
 10
247.635071
 20
338.563482
 30
0.0
 11
257.327171
 21
348.255581
 31
0.0
  0
LINE
  5
594
330
1F
100
AcDbEntity
  8
7__7
  6
Continuous
 62
     6
100
AcDbLine
 10
244.173274
 20
342.314859
 30
0.0
 11
250.113996
 21
348.255581
 31
0.0
  0
LINE
  5
595
330
1F
100
AcDbEntity
  8
7__7
  6
Continuous
 62
     6
100
AcDbLine
 10
252.628669
 20
338.138466
 30
0.0
 11
244.180635
 21
346.5865
 31
0.0
  0
LINE
  5
596
330
1F
100
AcDbEntity
  8
7__7
  6
Continuous
 62
     6
100
AcDbLine
 10
254.291067
 20
337.996976
 30
0.0
 11
262.180635
 21
345.886544
 31
0.0
  0
LINE
  5
597
330
1F
100
AcDbEntity
  8
7__7
  6
Continuous
 62
     6
100
AcDbLine
 10
260.282807
 20
337.487007
 30
0.0
 11
262.180635
 21
339.384835
 31
0.0
  0
LINE
  5
598
330
1F
100
AcDbEntity
  8
7__7
  6
Continuous
 62
     6
100
AcDbLine
 10
259.812661
 20
337.527022
 30
0.0
 11
249.084101
 21
348.255581
 31
0.0
  0
LINE
  5
599
330
1F
100
AcDbEntity
  8
7__7
  6
Continuous
 62
     6
100
AcDbLine
 10
262.180635
 20
341.919382
 30
0.0
 11
255.844436
 21
348.255581
 31
0.0
  0
LINE
  5
59A
330
1F
100
AcDbEntity
  8
7__7
  6
Continuous
 62
     4
100
AcDbLine
 10
379.809731
 20
412.474428
 30
0.0
 11
374.930589
 21
420.037098
 31
0.0
  0
LINE
  5
59B
330
1F
100
AcDbEntity
  8
7__7
  6
Continuous
 62
     4
100
AcDbLine
 10
406.283122
 20
440.264538
 30
0.0
 11
411.162264
 21
432.701868
 31
0.0
  0
LINE
  5
59C
330
1F
100
AcDbEntity
  8
7__7
  6
Continuous
 62
     4
100
AcDbLine
 10
374.930589
 20
420.037098
 30
0.0
 11
385.066254
 21
426.576237
 31
0.0
  0
LINE
  5
59D
330
1F
100
AcDbEntity
  8
7__7
  6
Continuous
 62
     4
100
AcDbLine
 10
395.066254
 20
433.027849
 30
0.0
 11
400.066254
 21
436.253656
 31
0.0
  0
LINE
  5
59E
330
1F
100
AcDbEntity
  8
7__7
  6
Continuous
 62
     4
100
AcDbLine
 10
402.366254
 20
437.737527
 30
0.0
 11
406.283122
 21
440.264538
 31
0.0
  0
LINE
  5
59F
330
1F
100
AcDbEntity
  8
7__7
  6
Continuous
 62
     4
100
AcDbLine
 10
411.162264
 20
432.701868
 30
0.0
 11
402.366254
 21
427.027024
 31
0.0
  0
LINE
  5
5A0
330
1F
100
AcDbEntity
  8
7__7
  6
Continuous
 62
     4
100
AcDbLine
 10
400.066254
 20
425.543153
 30
0.0
 11
395.066254
 21
422.317346
 31
0.0
  0
LINE
  5
5A1
330
1F
100
AcDbEntity
  8
7__7
  6
Continuous
 62
     4
100
AcDbLine
 10
385.066254
 20
415.865733
 30
0.0
 11
379.809731
 21
412.474428
 31
0.0
  0
LINE
  5
5A2
330
1F
100
AcDbEntity
  8
7__7
  6
PLine2
 62
     3
100
AcDbLine
 10
373.68952
 20
413.881157
 30
0.0
 11
411.321589
 21
438.159911
 31
0.0
  0
LINE
  5
5A3
330
1F
100
AcDbEntity
  8
7__7
  6
Continuous
 62
     4
100
AcDbLine
 10
326.066254
 20
426.001151
 30
0.0
 11
326.066254
 21
413.648504
 31
0.0
  0
LINE
  5
5A4
330
1F
100
AcDbEntity
  8
7__7
  6
Continuous
 62
     6
100
AcDbLine
 10
430.066254
 20
411.677631
 30
0.0
 11
430.066254
 21
446.701151
 31
0.0
  0
CIRCLE
  5
5A5
330
1F
100
AcDbEntity
  8
7__7
  6
Continuous
 62
     6
100
AcDbCircle
 10
421.731993
 20
434.930205
 30
0.0
 40
0.9999999999999858
  0
CIRCLE
  5
5A6
330
1F
100
AcDbEntity
  8
7__7
  6
Continuous
 62
     6
100
AcDbCircle
 10
416.508556
 20
425.229536
 30
0.0
 40
0.9999999999999858
  0
CIRCLE
  5
5A7
330
1F
100
AcDbEntity
  8
7__7
  6
Continuous
 62
     6
100
AcDbCircle
 10
421.35889
 20
418.140586
 30
0.0
 40
0.9999999999999858
  0
CIRCLE
  5
5A8
330
1F
100
AcDbEntity
  8
7__7
  6
Continuous
 62
     6
100
AcDbCircle
 10
415.016145
 20
439.780539
 30
0.0
 40
0.9999999999999858
  0
CIRCLE
  5
5A9
330
1F
100
AcDbEntity
  8
7__7
  6
Continuous
 62
     6
100
AcDbCircle
 10
363.901082
 20
438.661231
 30
0.0
 40
0.9999999999999858
  0
CIRCLE
  5
5AA
330
1F
100
AcDbEntity
  8
7__7
  6
Continuous
 62
     6
100
AcDbCircle
 10
363.154877
 20
421.871612
 30
0.0
 40
0.9999999999999858
  0
CIRCLE
  5
5AB
330
1F
100
AcDbEntity
  8
7__7
  6
Continuous
 62
     6
100
AcDbCircle
 10
347.857668
 20
409.559225
 30
0.0
 40
0.9999999999999858
  0
CIRCLE
  5
5AC
330
1F
100
AcDbEntity
  8
7__7
  6
Continuous
 62
     6
100
AcDbCircle
 10
347.111463
 20
429.333665
 30
0.0
 40
0.9999999999999858
  0
CIRCLE
  5
5AD
330
1F
100
AcDbEntity
  8
7__7
  6
Continuous
 62
     6
100
AcDbCircle
 10
365.766595
 20
407.693711
 30
0.0
 40
0.9999999999999858
  0
LINE
  5
5AE
330
1F
100
AcDbEntity
  8
7__7
  6
PLine2
 62
     3
100
AcDbLine
 10
390.066254
 20
442.858876
 30
0.0
 11
390.066254
 21
352.43852
 31
0.0
  0
LINE
  5
5AF
330
1F
100
AcDbEntity
  8
7__7
  6
PLine2
 62
     3
100
AcDbLine
 10
324.575877
 20
420.001151
 30
0.0
 11
333.539576
 21
420.001151
 31
0.0
  0
LINE
  5
5B0
330
1F
100
AcDbEntity
  8
7__7
  6
Continuous
 62
     6
100
AcDbLine
 10
315.066254
 20
426.751151
 30
0.0
 11
313.235813
 21
411.386196
 31
0.0
  0
LINE
  5
5B1
330
1F
100
AcDbEntity
  8
7__7
  6
Continuous
 62
     6
100
AcDbLine
 10
320.453721
 20
425.751151
 30
0.0
 11
314.202397
 21
419.499827
 31
0.0
  0
LINE
  5
5B2
330
1F
100
AcDbEntity
  8
7__7
  6
Continuous
 62
     6
100
AcDbLine
 10
313.398166
 20
412.749009
 30
0.0
 11
320.835647
 21
420.186489
 31
0.0
  0
LINE
  5
5B3
330
1F
100
AcDbEntity
  8
7__7
  6
Continuous
 62
     6
100
AcDbLine
 10
319.306935
 20
412.456677
 30
0.0
 11
313.996033
 21
417.767579
 31
0.0
  0
LINE
  5
5B4
330
1F
100
AcDbEntity
  8
7__7
  6
Continuous
 62
     6
100
AcDbLine
 10
313.879212
 20
411.499642
 30
0.0
 11
313.316379
 21
412.062476
 31
0.0
  0
LINE
  5
5B5
330
1F
100
AcDbEntity
  8
7__7
  6
Continuous
 62
     6
100
AcDbLine
 10
319.377917
 20
412.469193
 30
0.0
 11
320.835647
 21
413.926924
 31
0.0
  0
LINE
  5
5B6
330
1F
100
AcDbEntity
  8
7__7
  6
Continuous
 62
     6
100
AcDbLine
 10
320.835647
 20
422.883733
 30
0.0
 11
317.968229
 21
425.751151
 31
0.0
  0
LINE
  5
5B7
330
1F
100
AcDbEntity
  8
7__7
  6
Continuous
 62
     6
100
AcDbLine
 10
320.835647
 20
416.924629
 30
0.0
 11
314.634375
 21
423.125901
 31
0.0
  0
LINE
  5
5B8
330
1F
100
AcDbEntity
  8
7__7
  6
Continuous
 62
     6
100
AcDbLine
 10
430.066254
 20
285.520728
 30
0.0
 11
310.066254
 21
165.520728
 31
0.0
  0
LINE
  5
5B9
330
1F
100
AcDbEntity
  8
7__7
  6
Continuous
 62
     4
100
AcDbLine
 10
1540.034459
 20
287.641365
 30
0.0
 11
1530.066254
 21
287.641365
 31
0.0
  0
LINE
  5
5BA
330
1F
100
AcDbEntity
  8
7__7
  6
Continuous
 62
     4
100
AcDbLine
 10
1530.066254
 20
287.641365
 30
0.0
 11
1530.066254
 21
257.73675
 31
0.0
  0
LINE
  5
5BB
330
1F
100
AcDbEntity
  8
7__7
  6
Continuous
 62
     4
100
AcDbLine
 10
1532.059895
 20
257.73675
 30
0.0
 11
1530.066254
 21
257.73675
 31
0.0
  0
LINE
  5
5BC
330
1F
100
AcDbEntity
  8
7__7
  6
Continuous
 62
     4
100
AcDbLine
 10
1540.034459
 20
285.647724
 30
0.0
 11
1532.059895
 21
285.647724
 31
0.0
  0
LINE
  5
5BD
330
1F
100
AcDbEntity
  8
7__7
  6
Continuous
 62
     4
100
AcDbLine
 10
1532.059895
 20
285.647724
 30
0.0
 11
1532.059895
 21
257.73675
 31
0.0
  0
LINE
  5
5BE
330
1F
100
AcDbEntity
  8
7__7
  6
Continuous
 62
     4
100
AcDbLine
 10
1540.034459
 20
287.641365
 30
0.0
 11
1540.034459
 21
285.647724
 31
0.0
  0
LINE
  5
5BF
330
1F
100
AcDbEntity
  8
7__7
  6
Continuous
 62
     2
100
AcDbLine
 10
1520.066254
 20
297.60957
 30
0.0
 11
1567.951873
 21
297.60957
 31
0.0
  0
LINE
  5
5C0
330
1F
100
AcDbEntity
  8
7__7
  6
Continuous
 62
     2
100
AcDbLine
 10
1567.951873
 20
382.075446
 30
0.0
 11
1567.951873
 21
297.60957
 31
0.0
  0
LINE
  5
5C1
330
1F
100
AcDbEntity
  8
7__7
  6
Continuous
 62
     2
100
AcDbLine
 10
1400.066254
 20
411.677631
 30
0.0
 11
1567.951873
 21
382.075446
 31
0.0
  0
LINE
  5
5C2
330
1F
100
AcDbEntity
  8
7__7
  6
Continuous
 62
     2
100
AcDbLine
 10
1400.066254
 20
411.677631
 30
0.0
 11
1400.066254
 21
144.652571
 31
0.0
  0
LINE
  5
5C3
330
1F
100
AcDbEntity
  8
7__7
  6
Continuous
 62
     2
100
AcDbLine
 10
1520.066254
 20
297.60957
 30
0.0
 11
1520.066254
 21
144.652571
 31
0.0
  0
LINE
  5
5C4
330
1F
100
AcDbEntity
  8
7__7
  6
Continuous
 62
     3
100
AcDbLine
 10
1530.066254
 20
297.60957
 30
0.0
 11
1530.066254
 21
144.652571
 31
0.0
  0
LINE
  5
5C5
330
1F
100
AcDbEntity
  8
7__7
  6
Continuous
 62
     6
100
AcDbLine
 10
1400.066254
 20
280.74507
 30
0.0
 11
1520.066254
 21
160.74507
 31
0.0
  0
LINE
  5
5C6
330
1F
100
AcDbEntity
  8
7__7
  6
Continuous
 62
     6
100
AcDbLine
 10
1400.066254
 20
290.936562
 30
0.0
 11
1520.066254
 21
170.936562
 31
0.0
  0
LINE
  5
5C7
330
1F
100
AcDbEntity
  8
7__7
  6
Continuous
 62
     4
100
AcDbLine
 10
1445.066254
 20
351.847817
 30
0.0
 11
1445.066254
 21
437.899015
 31
0.0
  0
LINE
  5
5C8
330
1F
100
AcDbEntity
  8
7__7
  6
Continuous
 62
     4
100
AcDbLine
 10
1445.066254
 20
437.899015
 30
0.0
 11
1435.066254
 21
437.899015
 31
0.0
  0
LINE
  5
5C9
330
1F
100
AcDbEntity
  8
7__7
  6
Continuous
 62
     4
100
AcDbLine
 10
1435.066254
 20
437.899015
 30
0.0
 11
1435.066254
 21
351.847817
 31
0.0
  0
LINE
  5
5CA
330
1F
100
AcDbEntity
  8
7__7
  6
Continuous
 62
     4
100
AcDbLine
 10
1587.951873
 20
338.857496
 30
0.0
 11
1587.951873
 21
398.018393
 31
0.0
  0
LINE
  5
5CB
330
1F
100
AcDbEntity
  8
7__7
  6
Continuous
 62
     4
100
AcDbLine
 10
1504.066254
 20
413.648504
 30
0.0
 11
1587.125518
 21
399.003202
 31
0.0
  0
ARC
  5
5CC
330
1F
100
AcDbEntity
  8
7__7
  6
Continuous
 62
     4
100
AcDbCircle
 10
1586.951873
 20
398.018393
 30
0.0
 40
1.000000000788603
100
AcDbArc
 50
0.0
 51
80.000192
  0
LINE
  5
5CD
330
1F
100
AcDbEntity
  8
7__7
  6
Continuous
 62
     4
100
AcDbLine
 10
1585.951873
 20
338.857496
 30
0.0
 11
1585.951873
 21
397.179291
 31
0.0
  0
LINE
  5
5CE
330
1F
100
AcDbEntity
  8
7__7
  6
Continuous
 62
     4
100
AcDbLine
 10
1585.951873
 20
397.179291
 30
0.0
 11
1502.892609
 21
411.824593
 31
0.0
  0
ARC
  5
5CF
330
1F
100
AcDbEntity
  8
7__7
  6
Continuous
 62
     4
100
AcDbCircle
 10
1503.066254
 20
412.809402
 30
0.0
 40
0.9999999986600813
100
AcDbArc
 50
180.0
 51
260.000192
  0
LINE
  5
5D0
330
1F
100
AcDbEntity
  8
7__7
  6
Continuous
 62
     4
100
AcDbLine
 10
1587.951873
 20
338.857496
 30
0.0
 11
1585.951873
 21
338.857496
 31
0.0
  0
LINE
  5
5D1
330
1F
100
AcDbEntity
  8
7__7
  6
Continuous
 62
     4
100
AcDbLine
 10
1572.951873
 20
353.857496
 30
0.0
 11
1572.951873
 21
386.270959
 31
0.0
  0
LINE
  5
5D2
330
1F
100
AcDbEntity
  8
7__7
  6
Continuous
 62
     4
100
AcDbLine
 10
1572.951873
 20
386.270959
 30
0.0
 11
1499.808871
 21
399.167791
 31
0.0
  0
LINE
  5
5D3
330
1F
100
AcDbEntity
  8
7__7
  6
PLine1
 62
     4
100
AcDbLine
 10
1574.951873
 20
353.857496
 30
0.0
 11
1574.951873
 21
387.949164
 31
0.0
  0
LINE
  5
5D4
330
1F
100
AcDbEntity
  8
7__7
  6
PLine1
 62
     4
100
AcDbLine
 10
1574.951873
 20
387.949164
 30
0.0
 11
1500.15616
 21
401.137408
 31
0.0
  0
LINE
  5
5D5
330
1F
100
AcDbEntity
  8
7__7
  6
Continuous
 62
     4
100
AcDbLine
 10
1572.951873
 20
386.270959
 30
0.0
 11
1585.951873
 21
397.179291
 31
0.0
  0
LINE
  5
5D6
330
1F
100
AcDbEntity
  8
7__7
  6
Continuous
 62
     4
100
AcDbLine
 10
1502.145441
 20
412.419398
 30
0.0
 11
1499.808871
 21
399.167791
 31
0.0
  0
LINE
  5
5D7
330
1F
100
AcDbEntity
  8
7__7
  6
Continuous
 62
     6
100
AcDbLine
 10
1585.951873
 20
353.857496
 30
0.0
 11
1567.951873
 21
353.857496
 31
0.0
  0
LINE
  5
5D8
330
1F
100
AcDbEntity
  8
7__7
  6
PLine2
 62
     3
100
AcDbLine
 10
1536.162114
 20
272.641365
 30
0.0
 11
1519.148739
 21
272.641365
 31
0.0
  0
LINE
  5
5D9
330
1F
100
AcDbEntity
  8
7__7
  6
Continuous
 62
     6
100
AcDbLine
 10
1585.951873
 20
338.857496
 30
0.0
 11
1567.951873
 21
337.325479
 31
0.0
  0
LINE
  5
5DA
330
1F
100
AcDbEntity
  8
7__7
  6
Continuous
 62
     6
100
AcDbLine
 10
1582.497437
 20
338.563482
 30
0.0
 11
1572.805337
 21
348.255581
 31
0.0
  0
LINE
  5
5DB
330
1F
100
AcDbEntity
  8
7__7
  6
Continuous
 62
     6
100
AcDbLine
 10
1585.959234
 20
342.314859
 30
0.0
 11
1580.018512
 21
348.255581
 31
0.0
  0
LINE
  5
5DC
330
1F
100
AcDbEntity
  8
7__7
  6
Continuous
 62
     6
100
AcDbLine
 10
1577.503839
 20
338.138466
 30
0.0
 11
1585.951873
 21
346.5865
 31
0.0
  0
LINE
  5
5DD
330
1F
100
AcDbEntity
  8
7__7
  6
Continuous
 62
     6
100
AcDbLine
 10
1575.841441
 20
337.996976
 30
0.0
 11
1567.951873
 21
345.886544
 31
0.0
  0
LINE
  5
5DE
330
1F
100
AcDbEntity
  8
7__7
  6
Continuous
 62
     6
100
AcDbLine
 10
1569.849702
 20
337.487007
 30
0.0
 11
1567.951873
 21
339.384835
 31
0.0
  0
LINE
  5
5DF
330
1F
100
AcDbEntity
  8
7__7
  6
Continuous
 62
     6
100
AcDbLine
 10
1570.319848
 20
337.527022
 30
0.0
 11
1581.048407
 21
348.255581
 31
0.0
  0
LINE
  5
5E0
330
1F
100
AcDbEntity
  8
7__7
  6
Continuous
 62
     6
100
AcDbLine
 10
1567.951873
 20
341.919382
 30
0.0
 11
1574.288073
 21
348.255581
 31
0.0
  0
LINE
  5
5E1
330
1F
100
AcDbEntity
  8
7__7
  6
Continuous
 62
     4
100
AcDbLine
 10
1450.322777
 20
412.474428
 30
0.0
 11
1455.201919
 21
420.037098
 31
0.0
  0
LINE
  5
5E2
330
1F
100
AcDbEntity
  8
7__7
  6
Continuous
 62
     4
100
AcDbLine
 10
1423.849387
 20
440.264538
 30
0.0
 11
1418.970245
 21
432.701868
 31
0.0
  0
LINE
  5
5E3
330
1F
100
AcDbEntity
  8
7__7
  6
Continuous
 62
     4
100
AcDbLine
 10
1455.201919
 20
420.037098
 30
0.0
 11
1445.066254
 21
426.576237
 31
0.0
  0
LINE
  5
5E4
330
1F
100
AcDbEntity
  8
7__7
  6
Continuous
 62
     4
100
AcDbLine
 10
1435.066254
 20
433.027849
 30
0.0
 11
1430.066254
 21
436.253656
 31
0.0
  0
LINE
  5
5E5
330
1F
100
AcDbEntity
  8
7__7
  6
Continuous
 62
     4
100
AcDbLine
 10
1427.766254
 20
437.737527
 30
0.0
 11
1423.849387
 21
440.264538
 31
0.0
  0
LINE
  5
5E6
330
1F
100
AcDbEntity
  8
7__7
  6
Continuous
 62
     4
100
AcDbLine
 10
1418.970245
 20
432.701868
 30
0.0
 11
1427.766254
 21
427.027024
 31
0.0
  0
LINE
  5
5E7
330
1F
100
AcDbEntity
  8
7__7
  6
Continuous
 62
     4
100
AcDbLine
 10
1430.066254
 20
425.543153
 30
0.0
 11
1435.066254
 21
422.317346
 31
0.0
  0
LINE
  5
5E8
330
1F
100
AcDbEntity
  8
7__7
  6
Continuous
 62
     4
100
AcDbLine
 10
1445.066254
 20
415.865733
 30
0.0
 11
1450.322777
 21
412.474428
 31
0.0
  0
LINE
  5
5E9
330
1F
100
AcDbEntity
  8
7__7
  6
PLine2
 62
     3
100
AcDbLine
 10
1456.442988
 20
413.881157
 30
0.0
 11
1418.810919
 21
438.159911
 31
0.0
  0
LINE
  5
5EA
330
1F
100
AcDbEntity
  8
7__7
  6
Continuous
 62
     4
100
AcDbLine
 10
1504.066254
 20
426.001151
 30
0.0
 11
1504.066254
 21
413.648504
 31
0.0
  0
LINE
  5
5EB
330
1F
100
AcDbEntity
  8
7__7
  6
Continuous
 62
     6
100
AcDbLine
 10
1400.066254
 20
411.677631
 30
0.0
 11
1400.066254
 21
446.701151
 31
0.0
  0
CIRCLE
  5
5EC
330
1F
100
AcDbEntity
  8
7__7
  6
Continuous
 62
     6
100
AcDbCircle
 10
1408.400516
 20
434.930205
 30
0.0
 40
1.000000000000114
  0
CIRCLE
  5
5ED
330
1F
100
AcDbEntity
  8
7__7
  6
Continuous
 62
     6
100
AcDbCircle
 10
1413.623953
 20
425.229536
 30
0.0
 40
0.9999999999999432
  0
CIRCLE
  5
5EE
330
1F
100
AcDbEntity
  8
7__7
  6
Continuous
 62
     6
100
AcDbCircle
 10
1408.773618
 20
418.140586
 30
0.0
 40
0.9999999999999432
  0
CIRCLE
  5
5EF
330
1F
100
AcDbEntity
  8
7__7
  6
Continuous
 62
     6
100
AcDbCircle
 10
1415.116363
 20
439.780539
 30
0.0
 40
0.9999999999999432
  0
CIRCLE
  5
5F0
330
1F
100
AcDbEntity
  8
7__7
  6
Continuous
 62
     6
100
AcDbCircle
 10
1466.231426
 20
438.661231
 30
0.0
 40
0.9999999999999432
  0
CIRCLE
  5
5F1
330
1F
100
AcDbEntity
  8
7__7
  6
Continuous
 62
     6
100
AcDbCircle
 10
1466.977632
 20
421.871612
 30
0.0
 40
0.9999999999999432
  0
CIRCLE
  5
5F2
330
1F
100
AcDbEntity
  8
7__7
  6
Continuous
 62
     6
100
AcDbCircle
 10
1482.27484
 20
409.559225
 30
0.0
 40
1.000000000000114
  0
CIRCLE
  5
5F3
330
1F
100
AcDbEntity
  8
7__7
  6
Continuous
 62
     6
100
AcDbCircle
 10
1483.021046
 20
429.333665
 30
0.0
 40
0.9999999999999432
  0
CIRCLE
  5
5F4
330
1F
100
AcDbEntity
  8
7__7
  6
Continuous
 62
     6
100
AcDbCircle
 10
1464.365913
 20
407.693711
 30
0.0
 40
0.9999999999999432
  0
LINE
  5
5F5
330
1F
100
AcDbEntity
  8
7__7
  6
PLine2
 62
     3
100
AcDbLine
 10
1440.066254
 20
442.858876
 30
0.0
 11
1440.066254
 21
352.43852
 31
0.0
  0
LINE
  5
5F6
330
1F
100
AcDbEntity
  8
7__7
  6
PLine2
 62
     3
100
AcDbLine
 10
1505.556631
 20
420.001151
 30
0.0
 11
1496.592932
 21
420.001151
 31
0.0
  0
LINE
  5
5F7
330
1F
100
AcDbEntity
  8
7__7
  6
Continuous
 62
     6
100
AcDbLine
 10
1515.066254
 20
426.751151
 30
0.0
 11
1516.896695
 21
411.386196
 31
0.0
  0
LINE
  5
5F8
330
1F
100
AcDbEntity
  8
7__7
  6
Continuous
 62
     6
100
AcDbLine
 10
1509.678787
 20
425.751151
 30
0.0
 11
1515.930111
 21
419.499827
 31
0.0
  0
LINE
  5
5F9
330
1F
100
AcDbEntity
  8
7__7
  6
Continuous
 62
     6
100
AcDbLine
 10
1516.734342
 20
412.749009
 30
0.0
 11
1509.296861
 21
420.186489
 31
0.0
  0
LINE
  5
5FA
330
1F
100
AcDbEntity
  8
7__7
  6
Continuous
 62
     6
100
AcDbLine
 10
1510.825574
 20
412.456677
 30
0.0
 11
1516.136475
 21
417.767579
 31
0.0
  0
LINE
  5
5FB
330
1F
100
AcDbEntity
  8
7__7
  6
Continuous
 62
     6
100
AcDbLine
 10
1516.253296
 20
411.499642
 30
0.0
 11
1516.816129
 21
412.062476
 31
0.0
  0
LINE
  5
5FC
330
1F
100
AcDbEntity
  8
7__7
  6
Continuous
 62
     6
100
AcDbLine
 10
1510.754592
 20
412.469193
 30
0.0
 11
1509.296861
 21
413.926924
 31
0.0
  0
LINE
  5
5FD
330
1F
100
AcDbEntity
  8
7__7
  6
Continuous
 62
     6
100
AcDbLine
 10
1509.296861
 20
422.883733
 30
0.0
 11
1512.164279
 21
425.751151
 31
0.0
  0
LINE
  5
5FE
330
1F
100
AcDbEntity
  8
7__7
  6
Continuous
 62
     6
100
AcDbLine
 10
1509.296861
 20
416.924629
 30
0.0
 11
1515.498133
 21
423.125901
 31
0.0
  0
LINE
  5
5FF
330
1F
100
AcDbEntity
  8
7__7
  6
Continuous
 62
     6
100
AcDbLine
 10
1400.066254
 20
285.520728
 30
0.0
 11
1520.066254
 21
165.520728
 31
0.0
  0
LINE
  5
600
330
1F
100
AcDbEntity
  8
7__7
  6
Continuous
 62
     4
100
AcDbLine
 10
490.066254
 20
144.652571
 30
0.0
 11
490.066254
 21
461.004871
 31
0.0
  0
LINE
  5
601
330
1F
100
AcDbEntity
  8
7__7
  6
Continuous
 62
     4
100
AcDbLine
 10
481.066254
 20
144.652571
 30
0.0
 11
481.066254
 21
461.004871
 31
0.0
  0
LINE
  5
602
330
1F
100
AcDbEntity
  8
7__7
  6
Continuous
 62
     4
100
AcDbLine
 10
1340.066254
 20
144.652571
 30
0.0
 11
1340.066254
 21
461.004871
 31
0.0
  0
LINE
  5
603
330
1F
100
AcDbEntity
  8
7__7
  6
Continuous
 62
     4
100
AcDbLine
 10
1349.066254
 20
144.652571
 30
0.0
 11
1349.066254
 21
461.004871
 31
0.0
  0
INSERT
  5
60D
330
1F
100
AcDbEntity
  8
7__7
  6
Continuous
 62
     3
100
AcDbBlockReference
  2
DIM_22
 10
430.066254
 20
181.530399
 30
0.0
  0
INSERT
  5
617
330
1F
100
AcDbEntity
  8
7__7
  6
Continuous
 62
     3
100
AcDbBlockReference
  2
DIM_23
 10
430.066254
 20
235.660389
 30
0.0
  0
LINE
  5
618
330
1F
100
AcDbEntity
  8
7__7
  6
Continuous
 62
     3
100
AcDbLine
 10
1562.620311
 20
415.905797
 30
0.0
 11
1559.218387
 21
404.013493
 31
0.0
  0
LINE
  5
619
330
1F
100
AcDbEntity
  8
7__7
  6
Continuous
 62
     3
100
AcDbLine
 10
1559.218387
 20
404.013493
 30
0.0
 11
1573.680671
 21
429.062904
 31
0.0
  0
LINE
  5
61A
330
1F
100
AcDbEntity
  8
7__7
  6
Continuous
 62
     3
100
AcDbLine
 10
1573.680671
 20
429.062904
 30
0.0
 11
1759.066498
 21
429.062904
 31
0.0
  0
TEXT
  5
61B
330
1F
100
AcDbEntity
  8
7__7
  6
Continuous
 62
     3
100
AcDbText
 10
1573.680671
 20
432.062904
 30
0.0
 40
18.0
  1
２段水切り（オプション）
 41
0.858268
  7
BIGFONT
100
AcDbText
  0
LINE
  5
61C
330
1F
100
AcDbEntity
  8
7__7
  6
Continuous
 62
     3
100
AcDbLine
 10
1585.945261
 20
328.957297
 30
0.0
 11
1577.347185
 21
337.849602
 31
0.0
  0
LINE
  5
61D
330
1F
100
AcDbEntity
  8
7__7
  6
Continuous
 62
     3
100
AcDbLine
 10
1577.347185
 20
337.849602
 30
0.0
 11
1598.961077
 21
300.413242
 31
0.0
  0
LINE
  5
61E
330
1F
100
AcDbEntity
  8
7__7
  6
Continuous
 62
     3
100
AcDbLine
 10
1598.961077
 20
300.413242
 30
0.0
 11
1768.898085
 21
300.413242
 31
0.0
  0
TEXT
  5
61F
330
1F
100
AcDbEntity
  8
7__7
  6
Continuous
 62
     3
100
AcDbText
 10
1598.961077
 20
303.413242
 30
0.0
 40
18.0
  1
シーリング処理（別途）
 41
0.858268
  7
BIGFONT
100
AcDbText
  0
LINE
  5
620
330
1F
100
AcDbEntity
  8
7__7
  6
Continuous
 62
     3
100
AcDbLine
 10
1518.591214
 20
431.208344
 30
0.0
 11
1515.18929
 21
419.316039
 31
0.0
  0
LINE
  5
621
330
1F
100
AcDbEntity
  8
7__7
  6
Continuous
 62
     3
100
AcDbLine
 10
1515.18929
 20
419.316039
 30
0.0
 11
1543.798305
 21
468.868306
 31
0.0
  0
LINE
  5
622
330
1F
100
AcDbEntity
  8
7__7
  6
Continuous
 62
     3
100
AcDbLine
 10
1543.798305
 20
468.868306
 30
0.0
 11
1713.735312
 21
468.868306
 31
0.0
  0
TEXT
  5
623
330
1F
100
AcDbEntity
  8
7__7
  6
Continuous
 62
     3
100
AcDbText
 10
1543.798305
 20
471.868306
 30
0.0
 40
18.0
  1
シーリング処理（別途）
 41
0.858268
  7
BIGFONT
100
AcDbText
  0
LINE
  5
624
330
1F
100
AcDbEntity
  8
7__7
  6
Continuous
 62
     3
100
AcDbLine
 10
1453.381845
 20
370.64664
 30
0.0
 11
1444.783769
 21
379.538945
 31
0.0
  0
LINE
  5
625
330
1F
100
AcDbEntity
  8
7__7
  6
Continuous
 62
     3
100
AcDbLine
 10
1444.783769
 20
379.538945
 30
0.0
 11
1550.019326
 21
197.265613
 31
0.0
  0
LINE
  5
626
330
1F
100
AcDbEntity
  8
7__7
  6
Continuous
 62
     3
100
AcDbLine
 10
1550.019326
 20
197.265613
 30
0.0
 11
1642.712239
 21
197.265613
 31
0.0
  0
TEXT
  5
627
330
1F
100
AcDbEntity
  8
7__7
  6
Continuous
 62
     3
100
AcDbText
 10
1550.019326
 20
200.265613
 30
0.0
 40
18.0
  1
差筋（別途）
 41
0.858268
  7
BIGFONT
100
AcDbText
  0
LINE
  5
628
330
1F
100
AcDbEntity
  8
7__7
  6
Continuous
 62
     3
100
AcDbLine
 10
498.436017
 20
199.662681
 30
0.0
 11
489.837941
 21
208.554986
 31
0.0
  0
LINE
  5
629
330
1F
100
AcDbEntity
  8
7__7
  6
Continuous
 62
     3
100
AcDbLine
 10
489.837941
 20
208.554986
 30
0.0
 11
519.814321
 21
156.634373
 31
0.0
  0
LINE
  5
62A
330
1F
100
AcDbEntity
  8
7__7
  6
Continuous
 62
     3
100
AcDbLine
 10
519.814321
 20
156.634373
 30
0.0
 11
658.853691
 21
156.634373
 31
0.0
  0
TEXT
  5
62B
330
1F
100
AcDbEntity
  8
7__7
  6
Continuous
 62
     3
100
AcDbText
 10
519.814321
 20
159.634373
 30
0.0
 40
18.0
  1
内装仕上げ（別途）
 41
0.858268
  7
BIGFONT
100
AcDbText
  0
LINE
  5
62C
330
1F
100
AcDbEntity
  8
7__7
  6
Continuous
 62
     3
100
AcDbLine
 10
596.289787
 20
1637.238545
 30
0.0
 11
596.289787
 21
1532.694545
 31
0.0
  0
TEXT
  5
62D
330
1F
100
AcDbEntity
  8
7__7
  6
Continuous
 62
     3
100
AcDbText
 10
551.044166
 20
1614.523732
 30
0.0
 40
16.8
  1
Ｊ
 41
0.858268
  7
BIGFONT
100
AcDbText
  0
TEXT
  5
62E
330
1F
100
AcDbEntity
  8
7__7
  6
Continuous
 62
     3
100
AcDbText
 10
543.244255
 20
1589.337219
 30
0.0
 40
16.8
  1
６７０
 41
0.858268
  7
BIGFONT
100
AcDbText
  0
TEXT
  5
62F
330
1F
100
AcDbEntity
  8
7__7
  6
Continuous
 62
     3
100
AcDbText
 10
543.244255
 20
1564.014463
 30
0.0
 40
16.8
  1
９７０
 41
0.858268
  7
BIGFONT
100
AcDbText
  0
TEXT
  5
630
330
1F
100
AcDbEntity
  8
7__7
  6
Continuous
 62
     3
100
AcDbText
 10
528.747286
 20
1536.185364
 30
0.0
 40
16.8
  1
１３７０
 41
0.858268
  7
BIGFONT
100
AcDbText
  0
LINE
  5
631
330
1F
100
AcDbEntity
  8
7__7
  6
Continuous
 62
     3
370
   211
100
AcDbLine
 10
1130.932434
 20
958.767831
 30
0.0
 11
1127.53051
 21
946.875527
 31
0.0
  0
LINE
  5
632
330
1F
100
AcDbEntity
  8
7__7
  6
Continuous
 62
     3
370
   211
100
AcDbLine
 10
1127.53051
 20
946.875527
 30
0.0
 11
1180.326627
 21
1038.321085
 31
0.0
  0
LINE
  5
633
330
1F
100
AcDbEntity
  8
7__7
  6
Continuous
 62
     3
370
   211
100
AcDbLine
 10
1180.326627
 20
1038.321085
 30
0.0
 11
1334.814816
 21
1038.321085
 31
0.0
  0
TEXT
  5
634
330
1F
100
AcDbEntity
  8
7__7
  6
Continuous
 62
     3
100
AcDbText
 10
1180.326627
 20
1041.321085
 30
0.0
 40
18.0
  1
サントップドームＰ型
 41
0.858268
  7
BIGFONT
100
AcDbText
  0
LINE
  5
635
330
1F
100
AcDbEntity
  8
7__7
  6
Continuous
 62
     3
370
   211
100
AcDbLine
 10
1196.716083
 20
713.579437
 30
0.0
 11
1193.314159
 21
701.687132
 31
0.0
  0
LINE
  5
636
330
1F
100
AcDbEntity
  8
7__7
  6
Continuous
 62
     3
370
   211
100
AcDbLine
 10
1193.314159
 20
701.687132
 30
0.0
 11
1347.082847
 21
968.022313
 31
0.0
  0
LINE
  5
637
330
1F
100
AcDbEntity
  8
7__7
  6
Continuous
 62
     3
370
   211
100
AcDbLine
 10
1347.082847
 20
968.022313
 30
0.0
 11
1455.224579
 21
968.022313
 31
0.0
  0
TEXT
  5
638
330
1F
100
AcDbEntity
  8
7__7
  6
Continuous
 62
     3
100
AcDbText
 10
1347.082847
 20
971.022313
 30
0.0
 40
18.0
  1
６．８網入り硝子
 41
0.858268
  7
BIGFONT
100
AcDbText
  0
LINE
  5
639
330
1F
100
AcDbEntity
  8
7__7
  6
Continuous
 62
     3
370
   211
100
AcDbLine
 10
1419.749751
 20
663.945772
 30
0.0
 11
1416.347827
 21
652.053467
 31
0.0
  0
LINE
  5
63A
330
1F
100
AcDbEntity
  8
7__7
  6
Continuous
 62
     3
370
   211
100
AcDbLine
 10
1416.347827
 20
652.053467
 30
0.0
 11
1487.643698
 21
775.541538
 31
0.0
  0
LINE
  5
63B
330
1F
100
AcDbEntity
  8
7__7
  6
Continuous
 62
     3
370
   211
100
AcDbLine
 10
1487.643698
 20
775.541538
 30
0.0
 11
1580.336612
 21
775.541538
 31
0.0
  0
TEXT
  5
63C
330
1F
100
AcDbEntity
  8
7__7
  6
Continuous
 62
     3
100
AcDbText
 10
1487.643698
 20
778.541538
 30
0.0
 40
18.0
  1
ドアフレーム
 41
0.858268
  7
BIGFONT
100
AcDbText
  0
LINE
  5
63D
330
1F
100
AcDbEntity
  8
7__7
  6
Continuous
 62
     3
370
   211
100
AcDbLine
 10
1435.364397
 20
485.999989
 30
0.0
 11
1431.962473
 21
474.107684
 31
0.0
  0
LINE
  5
63E
330
1F
100
AcDbEntity
  8
7__7
  6
Continuous
 62
     3
370
   211
100
AcDbLine
 10
1431.962473
 20
474.107684
 30
0.0
 11
1526.573078
 21
637.978058
 31
0.0
  0
LINE
  5
63F
330
1F
100
AcDbEntity
  8
7__7
  6
Continuous
 62
     3
370
   211
100
AcDbLine
 10
1526.573078
 20
637.978058
 30
0.0
 11
1557.470715
 21
637.978058
 31
0.0
  0
TEXT
  5
640
330
1F
100
AcDbEntity
  8
7__7
  6
Continuous
 62
     3
100
AcDbText
 10
1526.573078
 20
640.978058
 30
0.0
 40
18.0
  1
台部
 41
0.858268
  7
BIGFONT
100
AcDbText
  0
LINE
  5
641
330
1F
100
AcDbEntity
  8
7__7
  6
Continuous
 62
     3
370
   211
100
AcDbLine
 10
1365.863799
 20
280.309117
 30
0.0
 11
1369.265723
 21
292.201422
 31
0.0
  0
LINE
  5
642
330
1F
100
AcDbEntity
  8
7__7
  6
Continuous
 62
     3
370
   211
100
AcDbLine
 10
1369.265723
 20
292.201422
 30
0.0
 11
1293.661725
 21
161.251456
 31
0.0
  0
LINE
  5
643
330
1F
100
AcDbEntity
  8
7__7
  6
Continuous
 62
     3
370
   211
100
AcDbLine
 10
1293.661725
 20
161.251456
 30
0.0
 11
1170.071174
 21
161.251456
 31
0.0
  0
TEXT
  5
644
330
1F
100
AcDbEntity
  8
7__7
  6
Continuous
 62
     3
100
AcDbText
 10
1189.933941
 20
164.251456
 30
0.0
 40
18.0
  1
アウターケーブル
 41
0.858268
  7
BIGFONT
 72
     2
 11
1293.661725
 21
164.251456
 31
0.0
100
AcDbText
  0
LINE
  5
645
330
1F
100
AcDbEntity
  8
7__7
  6
Continuous
 62
     3
370
   211
100
AcDbLine
 10
528.745852
 20
543.266246
 30
0.0
 11
520.147775
 21
552.158551
 31
0.0
  0
LINE
  5
646
330
1F
100
AcDbEntity
  8
7__7
  6
Continuous
 62
     3
370
   211
100
AcDbLine
 10
520.147775
 20
552.158551
 30
0.0
 11
618.813075
 21
381.265239
 31
0.0
  0
LINE
  5
647
330
1F
100
AcDbEntity
  8
7__7
  6
Continuous
 62
     3
370
   211
100
AcDbLine
 10
618.813075
 20
381.265239
 30
0.0
 11
773.301264
 21
381.265239
 31
0.0
  0
TEXT
  5
648
330
1F
100
AcDbEntity
  8
7__7
  6
Continuous
 62
     3
100
AcDbText
 10
618.813075
 20
384.265239
 30
0.0
 40
18.0
  1
トーションスプリング
 41
0.858268
  7
BIGFONT
100
AcDbText
  0
LINE
  5
649
330
1F
100
AcDbEntity
  8
7__7
  6
Continuous
 62
     3
370
   211
100
AcDbLine
 10
992.783627
 20
564.234693
 30
0.0
 11
984.185551
 21
573.126998
 31
0.0
  0
LINE
  5
64A
330
1F
100
AcDbEntity
  8
7__7
  6
Continuous
 62
     3
370
   211
100
AcDbLine
 10
984.185551
 20
573.126998
 30
0.0
 11
1091.044794
 21
388.041359
 31
0.0
  0
LINE
  5
64B
330
1F
100
AcDbEntity
  8
7__7
  6
Continuous
 62
     3
370
   211
100
AcDbLine
 10
1091.044794
 20
388.041359
 30
0.0
 11
1183.737708
 21
388.041359
 31
0.0
  0
TEXT
  5
64C
330
1F
100
AcDbEntity
  8
7__7
  6
Continuous
 62
     3
100
AcDbText
 10
1091.044794
 20
391.041359
 30
0.0
 40
18.0
  1
オートステー
 41
0.858268
  7
BIGFONT
100
AcDbText
  0
LINE
  5
64D
330
1F
100
AcDbEntity
  8
7__7
  6
Continuous
 62
     3
370
   211
100
AcDbLine
 10
410.400974
 20
413.500319
 30
0.0
 11
401.802898
 21
422.392624
 31
0.0
  0
LINE
  5
64E
330
1F
100
AcDbEntity
  8
7__7
  6
Continuous
 62
     3
370
   211
100
AcDbLine
 10
401.802898
 20
422.392624
 30
0.0
 11
504.016066
 21
245.354224
 31
0.0
  0
LINE
  5
64F
330
1F
100
AcDbEntity
  8
7__7
  6
Continuous
 62
     3
370
   211
100
AcDbLine
 10
504.016066
 20
245.354224
 30
0.0
 11
596.70898
 21
245.354224
 31
0.0
  0
TEXT
  5
650
330
1F
100
AcDbEntity
  8
7__7
  6
Continuous
 62
     3
100
AcDbText
 10
504.016066
 20
248.354224
 30
0.0
 40
18.0
  1
アンカー金具
 41
0.858268
  7
BIGFONT
100
AcDbText
  0
ENDSEC
  0
SECTION
  2
OBJECTS
  0
DICTIONARY
  5
C
330
0
100
AcDbDictionary
281
     1
  3
ACAD_GROUP
350
D
  3
ACAD_LAYOUT
350
1A
  3
ACAD_MLEADERSTYLE
350
653
  3
ACAD_MLINESTYLE
350
17
  3
ACAD_PLOTSETTINGS
350
19
  3
ACAD_PLOTSTYLENAME
350
E
  3
ACAD_SCALELIST
350
57
  3
ACAD_VISUALSTYLE
350
2A
  3
AcDbVariableDictionary
350
651
  0
DICTIONARY
  5
D
102
{ACAD_REACTORS
330
C
102
}
330
C
100
AcDbDictionary
281
     1
  0
DICTIONARY
  5
1A
102
{ACAD_REACTORS
330
C
102
}
330
C
100
AcDbDictionary
281
     1
  3
Layout1
350
1E
  3
Layout2
350
26
  3
Model
350
22
  0
DICTIONARY
  5
653
102
{ACAD_REACTORS
330
C
102
}
330
C
100
AcDbDictionary
281
     1
  0
DICTIONARY
  5
17
102
{ACAD_REACTORS
330
C
102
}
330
C
100
AcDbDictionary
281
     1
  3
Standard
350
18
  0
DICTIONARY
  5
19
102
{ACAD_REACTORS
330
C
102
}
330
C
100
AcDbDictionary
281
     1
  0
ACDBDICTIONARYWDFLT
  5
E
102
{ACAD_REACTORS
330
C
102
}
330
C
100
AcDbDictionary
281
     1
  3
Normal
350
F
100
AcDbDictionaryWithDefault
340
F
  0
DICTIONARY
  5
57
102
{ACAD_REACTORS
330
C
102
}
330
C
100
AcDbDictionary
281
     1
  3
A0
350
58
  3
A1
350
59
  3
A2
350
5A
  3
A3
350
5B
  3
A4
350
5C
  3
A5
350
5D
  3
A6
350
5E
  3
A7
350
5F
  3
A8
350
60
  3
A9
350
61
  3
B0
350
62
  3
B1
350
63
  3
B2
350
64
  3
B3
350
65
  3
B4
350
66
  3
B5
350
67
  3
B6
350
68
  3
B7
350
69
  3
B8
350
6A
  3
B9
350
6B
  3
C0
350
6C
  3
C1
350
6D
  3
C2
350
6E
  3
C3
350
6F
  3
C4
350
70
  3
C5
350
71
  3
C6
350
72
  3
C7
350
73
  3
C8
350
74
  3
C9
350
75
  3
D0
350
76
  3
D1
350
77
  3
D2
350
78
  0
DICTIONARY
  5
2A
102
{ACAD_REACTORS
330
C
102
}
330
C
100
AcDbDictionary
281
     1
  3
2dWireframe
350
2F
  3
3D Hidden
350
31
  3
3dWireframe
350
30
  3
Basic
350
32
  3
Brighten
350
36
  3
ColorChange
350
3A
  3
Conceptual
350
34
  3
Dim
350
35
  3
Facepattern
350
39
  3
Flat
350
2B
  3
FlatWithEdges
350
2C
  3
Gouraud
350
2D
  3
GouraudWithEdges
350
2E
  3
Linepattern
350
38
  3
Realistic
350
33
  3
Thicken
350
37
  0
DICTIONARY
  5
651
102
{ACAD_REACTORS
330
C
102
}
330
C
100
AcDbDictionary
281
     1
  3
CANNOSCALE
350
654
  3
DIMASSOC
350
655
  3
HIDETEXT
350
656
  0
LAYOUT
  5
1E
102
{ACAD_REACTORS
330
1A
102
}
330
1A
100
AcDbPlotSettings
  1

  2
none_device
  4

  6

 40
0.0
 41
0.0
 42
0.0
 43
0.0
 44
0.0
 45
0.0
 46
0.0
 47
0.0
 48
0.0
 49
0.0
140
0.0
141
0.0
142
1.0
143
1.0
 70
   688
 72
     0
 73
     0
 74
     5
  7

 75
    16
147
1.0
148
0.0
149
0.0
100
AcDbLayout
  1
Layout1
 70
     1
 71
     1
 10
0.0
 20
0.0
 11
12.0
 21
9.0
 12
0.0
 22
0.0
 32
0.0
 14
1.000000E+20
 24
1.000000E+20
 34
1.000000E+20
 15
-1.000000E+20
 25
-1.000000E+20
 35
-1.000000E+20
146
0.0
 13
0.0
 23
0.0
 33
0.0
 16
1.0
 26
0.0
 36
0.0
 17
0.0
 27
1.0
 37
0.0
 76
     0
330
1B
  0
LAYOUT
  5
26
102
{ACAD_REACTORS
330
1A
102
}
330
1A
100
AcDbPlotSettings
  1

  2
none_device
  4

  6

 40
0.0
 41
0.0
 42
0.0
 43
0.0
 44
0.0
 45
0.0
 46
0.0
 47
0.0
 48
0.0
 49
0.0
140
0.0
141
0.0
142
1.0
143
1.0
 70
   688
 72
     0
 73
     0
 74
     5
  7

 75
    16
147
1.0
148
0.0
149
0.0
100
AcDbLayout
  1
Layout2
 70
     1
 71
     2
 10
0.0
 20
0.0
 11
0.0
 21
0.0
 12
0.0
 22
0.0
 32
0.0
 14
0.0
 24
0.0
 34
0.0
 15
0.0
 25
0.0
 35
0.0
146
0.0
 13
0.0
 23
0.0
 33
0.0
 16
1.0
 26
0.0
 36
0.0
 17
0.0
 27
1.0
 37
0.0
 76
     0
330
23
  0
LAYOUT
  5
22
102
{ACAD_REACTORS
330
1A
102
}
330
1A
100
AcDbPlotSettings
  1

  2
none_device
  4

  6

 40
0.0
 41
0.0
 42
0.0
 43
0.0
 44
0.0
 45
0.0
 46
0.0
 47
0.0
 48
0.0
 49
0.0
140
0.0
141
0.0
142
1.0
143
1.0
 70
  1712
 72
     0
 73
     0
 74
     0
  7

 75
     0
147
1.0
148
0.0
149
0.0
100
AcDbLayout
  1
Model
 70
     1
 71
     0
 10
0.0
 20
0.0
 11
12.0
 21
9.0
 12
0.0
 22
0.0
 32
0.0
 14
0.0
 24
0.0
 34
0.0
 15
2520.0
 25
1782.0
 35
0.0
146
0.0
 13
0.0
 23
0.0
 33
0.0
 16
1.0
 26
0.0
 36
0.0
 17
0.0
 27
1.0
 37
0.0
 76
     0
330
1F
331
29
  0
MLINESTYLE
  5
18
102
{ACAD_REACTORS
330
17
102
}
330
17
100
AcDbMlineStyle
  2
Standard
 70
     0
  3

 62
   256
 51
90.0
 52
90.0
 71
     2
 49
0.5
 62
   256
  6
BYLAYER
 49
-0.5
 62
   256
  6
BYLAYER
  0
ACDBPLACEHOLDER
  5
F
102
{ACAD_REACTORS
330
E
102
}
330
E
  0
SCALE
  5
58
102
{ACAD_REACTORS
330
57
102
}
330
57
100
AcDbScale
 70
     0
300
1:1
140
1.0
141
1.0
290
     1
  0
SCALE
  5
59
102
{ACAD_REACTORS
330
57
102
}
330
57
100
AcDbScale
 70
     0
300
1:2
140
1.0
141
2.0
290
     0
  0
SCALE
  5
5A
102
{ACAD_REACTORS
330
57
102
}
330
57
100
AcDbScale
 70
     0
300
1:4
140
1.0
141
4.0
290
     0
  0
SCALE
  5
5B
102
{ACAD_REACTORS
330
57
102
}
330
57
100
AcDbScale
 70
     0
300
1:5
140
1.0
141
5.0
290
     0
  0
SCALE
  5
5C
102
{ACAD_REACTORS
330
57
102
}
330
57
100
AcDbScale
 70
     0
300
1:8
140
1.0
141
8.0
290
     0
  0
SCALE
  5
5D
102
{ACAD_REACTORS
330
57
102
}
330
57
100
AcDbScale
 70
     0
300
1:10
140
1.0
141
10.0
290
     0
  0
SCALE
  5
5E
102
{ACAD_REACTORS
330
57
102
}
330
57
100
AcDbScale
 70
     0
300
1:16
140
1.0
141
16.0
290
     0
  0
SCALE
  5
5F
102
{ACAD_REACTORS
330
57
102
}
330
57
100
AcDbScale
 70
     0
300
1:20
140
1.0
141
20.0
290
     0
  0
SCALE
  5
60
102
{ACAD_REACTORS
330
57
102
}
330
57
100
AcDbScale
 70
     0
300
1:30
140
1.0
141
30.0
290
     0
  0
SCALE
  5
61
102
{ACAD_REACTORS
330
57
102
}
330
57
100
AcDbScale
 70
     0
300
1:40
140
1.0
141
40.0
290
     0
  0
SCALE
  5
62
102
{ACAD_REACTORS
330
57
102
}
330
57
100
AcDbScale
 70
     0
300
1:50
140
1.0
141
50.0
290
     0
  0
SCALE
  5
63
102
{ACAD_REACTORS
330
57
102
}
330
57
100
AcDbScale
 70
     0
300
1:100
140
1.0
141
100.0
290
     0
  0
SCALE
  5
64
102
{ACAD_REACTORS
330
57
102
}
330
57
100
AcDbScale
 70
     0
300
2:1
140
2.0
141
1.0
290
     0
  0
SCALE
  5
65
102
{ACAD_REACTORS
330
57
102
}
330
57
100
AcDbScale
 70
     0
300
4:1
140
4.0
141
1.0
290
     0
  0
SCALE
  5
66
102
{ACAD_REACTORS
330
57
102
}
330
57
100
AcDbScale
 70
     0
300
8:1
140
8.0
141
1.0
290
     0
  0
SCALE
  5
67
102
{ACAD_REACTORS
330
57
102
}
330
57
100
AcDbScale
 70
     0
300
10:1
140
10.0
141
1.0
290
     0
  0
SCALE
  5
68
102
{ACAD_REACTORS
330
57
102
}
330
57
100
AcDbScale
 70
     0
300
100:1
140
100.0
141
1.0
290
     0
  0
SCALE
  5
69
102
{ACAD_REACTORS
330
57
102
}
330
57
100
AcDbScale
 70
     0
300
1/128" = 1'-0"
140
0.007812
141
12.0
290
     0
  0
SCALE
  5
6A
102
{ACAD_REACTORS
330
57
102
}
330
57
100
AcDbScale
 70
     0
300
1/64" = 1'-0"
140
0.015625
141
12.0
290
     0
  0
SCALE
  5
6B
102
{ACAD_REACTORS
330
57
102
}
330
57
100
AcDbScale
 70
     0
300
1/32" = 1'-0"
140
0.03125
141
12.0
290
     0
  0
SCALE
  5
6C
102
{ACAD_REACTORS
330
57
102
}
330
57
100
AcDbScale
 70
     0
300
1/16" = 1'-0"
140
0.0625
141
12.0
290
     0
  0
SCALE
  5
6D
102
{ACAD_REACTORS
330
57
102
}
330
57
100
AcDbScale
 70
     0
300
3/32" = 1'-0"
140
0.09375
141
12.0
290
     0
  0
SCALE
  5
6E
102
{ACAD_REACTORS
330
57
102
}
330
57
100
AcDbScale
 70
     0
300
1/8" = 1'-0"
140
0.125
141
12.0
290
     0
  0
SCALE
  5
6F
102
{ACAD_REACTORS
330
57
102
}
330
57
100
AcDbScale
 70
     0
300
3/16" = 1'-0"
140
0.1875
141
12.0
290
     0
  0
SCALE
  5
70
102
{ACAD_REACTORS
330
57
102
}
330
57
100
AcDbScale
 70
     0
300
1/4" = 1'-0"
140
0.25
141
12.0
290
     0
  0
SCALE
  5
71
102
{ACAD_REACTORS
330
57
102
}
330
57
100
AcDbScale
 70
     0
300
3/8" = 1'-0"
140
0.375
141
12.0
290
     0
  0
SCALE
  5
72
102
{ACAD_REACTORS
330
57
102
}
330
57
100
AcDbScale
 70
     0
300
1/2" = 1'-0"
140
0.5
141
12.0
290
     0
  0
SCALE
  5
73
102
{ACAD_REACTORS
330
57
102
}
330
57
100
AcDbScale
 70
     0
300
3/4" = 1'-0"
140
0.75
141
12.0
290
     0
  0
SCALE
  5
74
102
{ACAD_REACTORS
330
57
102
}
330
57
100
AcDbScale
 70
     0
300
1" = 1'-0"
140
1.0
141
12.0
290
     0
  0
SCALE
  5
75
102
{ACAD_REACTORS
330
57
102
}
330
57
100
AcDbScale
 70
     0
300
1-1/2" = 1'-0"
140
1.5
141
12.0
290
     0
  0
SCALE
  5
76
102
{ACAD_REACTORS
330
57
102
}
330
57
100
AcDbScale
 70
     0
300
3" = 1'-0"
140
3.0
141
12.0
290
     0
  0
SCALE
  5
77
102
{ACAD_REACTORS
330
57
102
}
330
57
100
AcDbScale
 70
     0
300
6" = 1'-0"
140
6.0
141
12.0
290
     0
  0
SCALE
  5
78
102
{ACAD_REACTORS
330
57
102
}
330
57
100
AcDbScale
 70
     0
300
1'-0" = 1'-0"
140
12.0
141
12.0
290
     0
  0
VISUALSTYLE
  5
2F
102
{ACAD_REACTORS
330
2A
102
}
102
{ACAD_XDICTIONARY
360
65F
102
}
330
2A
100
AcDbVisualStyle
  2
2dWireframe
 70
     4
 71
     0
 72
     2
 73
     0
 90
        0
 40
-0.6
 41
-30.0
 62
     5
 63
     7
 74
     1
 91
        4
 64
     7
 65
   257
 75
     1
175
     1
 42
1.0
 92
        0
 66
   257
 43
1.0
 76
     1
 77
     6
 78
     2
 67
     7
 79
     5
170
     0
171
     0
290
     0
174
     0
 93
        1
 44
0.0
173
     0
291
     0
 45
0.0
1001
ACAD
1000
AcDbSavedByObjectVersion
1070
     0
  0
VISUALSTYLE
  5
31
102
{ACAD_REACTORS
330
2A
102
}
102
{ACAD_XDICTIONARY
360
663
102
}
330
2A
100
AcDbVisualStyle
  2
3D Hidden
 70
     6
 71
     1
 72
     2
 73
     2
 90
        0
 40
-0.6
 41
-30.0
 62
     5
 63
     7
 74
     2
 91
        2
 64
     7
 65
   257
 75
     2
175
     1
 42
40.0
 92
        0
 66
   257
 43
1.0
 76
     1
 77
     6
 78
     2
 67
     7
 79
     3
170
     0
171
     0
290
     0
174
     0
 93
        1
 44
0.0
173
     0
291
     0
 45
0.0
1001
ACAD
1000
AcDbSavedByObjectVersion
1070
     0
  0
VISUALSTYLE
  5
30
102
{ACAD_REACTORS
330
2A
102
}
102
{ACAD_XDICTIONARY
360
661
102
}
330
2A
100
AcDbVisualStyle
  2
3dWireframe
 70
     5
 71
     0
 72
     2
 73
     0
 90
        0
 40
-0.6
 41
-30.0
 62
     5
 63
     7
 74
     1
 91
        4
 64
     7
 65
   257
 75
     1
175
     1
 42
1.0
 92
        0
 66
   257
 43
1.0
 76
     1
 77
     6
 78
     2
 67
     7
 79
     5
170
     0
171
     0
290
     0
174
     0
 93
        1
 44
0.0
173
     0
291
     0
 45
0.0
1001
ACAD
1000
AcDbSavedByObjectVersion
1070
     0
  0
VISUALSTYLE
  5
32
102
{ACAD_REACTORS
330
2A
102
}
102
{ACAD_XDICTIONARY
360
665
102
}
330
2A
100
AcDbVisualStyle
  2
Basic
 70
     7
 71
     1
 72
     0
 73
     1
 90
        0
 40
-0.6
 41
-30.0
 62
     5
 63
     7
 74
     0
 91
        4
 64
     7
 65
   257
 75
     1
175
     1
 42
1.0
 92
        8
 66
     7
 43
1.0
 76
     1
 77
     6
 78
     2
 67
     7
 79
     5
170
     0
171
     0
290
     0
174
     0
 93
        1
 44
0.0
173
     0
291
     1
 45
0.0
1001
ACAD
1000
AcDbSavedByObjectVersion
1070
     0
  0
VISUALSTYLE
  5
36
102
{ACAD_REACTORS
330
2A
102
}
102
{ACAD_XDICTIONARY
360
66D
102
}
330
2A
100
AcDbVisualStyle
  2
Brighten
 70
    12
 71
     2
 72
     2
 73
     0
 90
        0
 40
-0.6
 41
-30.0
 62
     5
 63
     7
 74
     1
 91
        4
 64
     7
 65
   257
 75
     1
175
     1
 42
1.0
 92
        8
 66
     7
 43
1.0
 76
     1
 77
     6
 78
     2
 67
     7
 79
     5
170
     0
171
     0
290
     0
174
     0
 93
        1
 44
50.0
173
     0
291
     1
 45
0.0
1001
ACAD
1000
AcDbSavedByObjectVersion
1070
     0
  0
VISUALSTYLE
  5
3A
102
{ACAD_REACTORS
330
2A
102
}
102
{ACAD_XDICTIONARY
360
675
102
}
330
2A
100
AcDbVisualStyle
  2
ColorChange
 70
    16
 71
     2
 72
     2
 73
     3
 90
        0
 40
-0.6
 41
-30.0
 62
     5
 63
     8
 74
     1
 91
        4
 64
     7
 65
   257
 75
     1
175
     1
 42
1.0
 92
        8
 66
     8
 43
1.0
 76
     1
 77
     6
 78
     2
 67
     7
 79
     5
170
     0
171
     0
290
     0
174
     0
 93
        1
 44
0.0
173
     0
291
     1
 45
0.0
1001
ACAD
1000
AcDbSavedByObjectVersion
1070
     0
  0
VISUALSTYLE
  5
34
102
{ACAD_REACTORS
330
2A
102
}
102
{ACAD_XDICTIONARY
360
669
102
}
330
2A
100
AcDbVisualStyle
  2
Conceptual
 70
     9
 71
     3
 72
     2
 73
     0
 90
        0
 40
-0.6
 41
-30.0
 62
     5
 63
     7
 74
     2
 91
        2
 64
     7
 65
   257
 75
     1
175
     1
 42
40.0
 92
        8
 66
     7
 43
1.0
 76
     1
 77
     6
 78
     2
 67
     7
 79
     3
170
     0
171
     0
290
     0
174
     0
 93
        1
 44
0.0
173
     0
291
     0
 45
0.0
1001
ACAD
1000
AcDbSavedByObjectVersion
1070
     0
  0
VISUALSTYLE
  5
35
102
{ACAD_REACTORS
330
2A
102
}
102
{ACAD_XDICTIONARY
360
66B
102
}
330
2A
100
AcDbVisualStyle
  2
Dim
 70
    11
 71
     2
 72
     2
 73
     0
 90
        0
 40
-0.6
 41
-30.0
 62
     5
 63
     7
 74
     1
 91
        4
 64
     7
 65
   257
 75
     1
175
     1
 42
1.0
 92
        8
 66
     7
 43
1.0
 76
     1
 77
     6
 78
     2
 67
     7
 79
     5
170
     0
171
     0
290
     0
174
     0
 93
        1
 44
-50.0
173
     0
291
     1
 45
0.0
1001
ACAD
1000
AcDbSavedByObjectVersion
1070
     0
  0
VISUALSTYLE
  5
39
102
{ACAD_REACTORS
330
2A
102
}
102
{ACAD_XDICTIONARY
360
673
102
}
330
2A
100
AcDbVisualStyle
  2
Facepattern
 70
    15
 71
     2
 72
     2
 73
     0
 90
        0
 40
-0.6
 41
-30.0
 62
     5
 63
     7
 74
     1
 91
        4
 64
     7
 65
   257
 75
     1
175
     1
 42
1.0
 92
        8
 66
     7
 43
1.0
 76
     1
 77
     6
 78
     2
 67
     7
 79
     5
170
     0
171
     0
290
     0
174
     0
 93
        1
 44
0.0
173
     0
291
     1
 45
0.0
1001
ACAD
1000
AcDbSavedByObjectVersion
1070
     0
  0
VISUALSTYLE
  5
2B
102
{ACAD_REACTORS
330
2A
102
}
102
{ACAD_XDICTIONARY
360
657
102
}
330
2A
100
AcDbVisualStyle
  2
Flat
 70
     0
 71
     2
 72
     1
 73
     1
 90
        2
 40
-0.6
 41
30.0
 62
     5
 63
     7
 74
     0
 91
        4
 64
     7
 65
   257
 75
     1
175
     1
 42
1.0
 92
        8
 66
     7
 43
1.0
 76
     1
 77
     6
 78
     2
 67
     7
 79
     5
170
     0
171
     0
290
     0
174
     0
 93
       13
 44
0.0
173
     0
291
     1
 45
0.0
1001
ACAD
1000
AcDbSavedByObjectVersion
1070
     0
  0
VISUALSTYLE
  5
2C
102
{ACAD_REACTORS
330
2A
102
}
102
{ACAD_XDICTIONARY
360
659
102
}
330
2A
100
AcDbVisualStyle
  2
FlatWithEdges
 70
     1
 71
     2
 72
     1
 73
     1
 90
        2
 40
-0.6
 41
30.0
 62
     5
 63
     7
 74
     1
 91
        4
 64
     7
 65
   257
 75
     1
175
     1
 42
1.0
 92
        0
 66
   257
 43
1.0
 76
     1
 77
     6
 78
     2
 67
     7
 79
     5
170
     0
171
     0
290
     0
174
     0
 93
       13
 44
0.0
173
     0
291
     1
 45
0.0
1001
ACAD
1000
AcDbSavedByObjectVersion
1070
     0
  0
VISUALSTYLE
  5
2D
102
{ACAD_REACTORS
330
2A
102
}
102
{ACAD_XDICTIONARY
360
65B
102
}
330
2A
100
AcDbVisualStyle
  2
Gouraud
 70
     2
 71
     2
 72
     2
 73
     1
 90
        2
 40
-0.6
 41
30.0
 62
     5
 63
     7
 74
     0
 91
        4
 64
     7
 65
   257
 75
     1
175
     1
 42
1.0
 92
        0
 66
     7
 43
1.0
 76
     1
 77
     6
 78
     2
 67
     7
 79
     5
170
     0
171
     0
290
     0
174
     0
 93
       13
 44
0.0
173
     0
291
     1
 45
0.0
1001
ACAD
1000
AcDbSavedByObjectVersion
1070
     0
  0
VISUALSTYLE
  5
2E
102
{ACAD_REACTORS
330
2A
102
}
102
{ACAD_XDICTIONARY
360
65D
102
}
330
2A
100
AcDbVisualStyle
  2
GouraudWithEdges
 70
     3
 71
     2
 72
     2
 73
     1
 90
        2
 40
-0.6
 41
30.0
 62
     5
 63
     7
 74
     1
 91
        4
 64
     7
 65
   257
 75
     1
175
     1
 42
1.0
 92
        0
 66
   257
 43
1.0
 76
     1
 77
     6
 78
     2
 67
     7
 79
     5
170
     0
171
     0
290
     0
174
     0
 93
       13
 44
0.0
173
     0
291
     1
 45
0.0
1001
ACAD
1000
AcDbSavedByObjectVersion
1070
     0
  0
VISUALSTYLE
  5
38
102
{ACAD_REACTORS
330
2A
102
}
102
{ACAD_XDICTIONARY
360
671
102
}
330
2A
100
AcDbVisualStyle
  2
Linepattern
 70
    14
 71
     2
 72
     2
 73
     0
 90
        0
 40
-0.6
 41
-30.0
 62
     5
 63
     7
 74
     1
 91
        4
 64
     7
 65
   257
 75
     7
175
     7
 42
1.0
 92
        8
 66
     7
 43
1.0
 76
     1
 77
     6
 78
     2
 67
     7
 79
     5
170
     0
171
     0
290
     0
174
     0
 93
        1
 44
0.0
173
     0
291
     1
 45
0.0
1001
ACAD
1000
AcDbSavedByObjectVersion
1070
     0
  0
VISUALSTYLE
  5
33
102
{ACAD_REACTORS
330
2A
102
}
102
{ACAD_XDICTIONARY
360
667
102
}
330
2A
100
AcDbVisualStyle
  2
Realistic
 70
     8
 71
     2
 72
     2
 73
     0
 90
        0
 40
-0.6
 41
-30.0
 62
     5
 63
     7
 74
     1
 91
        0
 64
     7
 65
   257
 75
     1
175
     1
 42
1.0
 92
        8
 66
     8
 43
1.0
 76
     1
 77
     6
 78
     2
 67
     7
 79
     5
170
     0
171
     0
290
     0
174
     0
 93
       13
 44
0.0
173
     0
291
     0
 45
0.0
1001
ACAD
1000
AcDbSavedByObjectVersion
1070
     0
  0
VISUALSTYLE
  5
37
102
{ACAD_REACTORS
330
2A
102
}
102
{ACAD_XDICTIONARY
360
66F
102
}
330
2A
100
AcDbVisualStyle
  2
Thicken
 70
    13
 71
     2
 72
     2
 73
     0
 90
        0
 40
-0.6
 41
-30.0
 62
     5
 63
     7
 74
     1
 91
        4
 64
     7
 65
   257
 75
     1
175
     1
 42
1.0
 92
       12
 66
     7
 43
1.0
 76
     1
 77
     6
 78
     2
 67
     7
 79
     5
170
     0
171
     0
290
     0
174
     0
 93
        1
 44
0.0
173
     0
291
     1
 45
0.0
1001
ACAD
1000
AcDbSavedByObjectVersion
1070
     0
  0
DICTIONARYVAR
  5
654
102
{ACAD_REACTORS
330
651
102
}
330
651
100
DictionaryVariables
280
     0
  1
1:1
  0
DICTIONARYVAR
  5
655
102
{ACAD_REACTORS
330
651
102
}
330
651
100
DictionaryVariables
280
     0
  1
2
  0
DICTIONARYVAR
  5
656
102
{ACAD_REACTORS
330
651
102
}
330
651
100
DictionaryVariables
280
     0
  1
1
  0
DICTIONARY
  5
65F
330
2F
100
AcDbDictionary
280
     1
281
     1
  3
ACAD_XREC_ROUNDTRIP
360
660
  0
DICTIONARY
  5
663
330
31
100
AcDbDictionary
280
     1
281
     1
  3
ACAD_XREC_ROUNDTRIP
360
664
  0
DICTIONARY
  5
661
330
30
100
AcDbDictionary
280
     1
281
     1
  3
ACAD_XREC_ROUNDTRIP
360
662
  0
DICTIONARY
  5
665
330
32
100
AcDbDictionary
280
     1
281
     1
  3
ACAD_XREC_ROUNDTRIP
360
666
  0
DICTIONARY
  5
66D
330
36
100
AcDbDictionary
280
     1
281
     1
  3
ACAD_XREC_ROUNDTRIP
360
66E
  0
DICTIONARY
  5
675
330
3A
100
AcDbDictionary
280
     1
281
     1
  3
ACAD_XREC_ROUNDTRIP
360
676
  0
DICTIONARY
  5
669
330
34
100
AcDbDictionary
280
     1
281
     1
  3
ACAD_XREC_ROUNDTRIP
360
66A
  0
DICTIONARY
  5
66B
330
35
100
AcDbDictionary
280
     1
281
     1
  3
ACAD_XREC_ROUNDTRIP
360
66C
  0
DICTIONARY
  5
673
330
39
100
AcDbDictionary
280
     1
281
     1
  3
ACAD_XREC_ROUNDTRIP
360
674
  0
DICTIONARY
  5
657
330
2B
100
AcDbDictionary
280
     1
281
     1
  3
ACAD_XREC_ROUNDTRIP
360
658
  0
DICTIONARY
  5
659
330
2C
100
AcDbDictionary
280
     1
281
     1
  3
ACAD_XREC_ROUNDTRIP
360
65A
  0
DICTIONARY
  5
65B
330
2D
100
AcDbDictionary
280
     1
281
     1
  3
ACAD_XREC_ROUNDTRIP
360
65C
  0
DICTIONARY
  5
65D
330
2E
100
AcDbDictionary
280
     1
281
     1
  3
ACAD_XREC_ROUNDTRIP
360
65E
  0
DICTIONARY
  5
671
330
38
100
AcDbDictionary
280
     1
281
     1
  3
ACAD_XREC_ROUNDTRIP
360
672
  0
DICTIONARY
  5
667
330
33
100
AcDbDictionary
280
     1
281
     1
  3
ACAD_XREC_ROUNDTRIP
360
668
  0
DICTIONARY
  5
66F
330
37
100
AcDbDictionary
280
     1
281
     1
  3
ACAD_XREC_ROUNDTRIP
360
670
  0
XRECORD
  5
660
102
{ACAD_REACTORS
330
65F
102
}
330
65F
100
AcDbXrecord
280
     1
102
RTVSPropertyOp0
 70
     1
102
RTVSPropertyOp1
 70
     1
102
RTVSPropertyOp2
 70
     1
102
RTVSPropertyOp3
 70
     1
102
RTVSPropertyOp4
 70
     1
102
RTVSPropertyOp5
 70
     1
102
RTVSPropertyOp6
 70
     1
102
RTVSPropertyOp7
 70
     1
102
RTVSPropertyOp8
 70
     1
102
RTVSPropertyOp9
 70
     1
102
RTVSPropertyOp10
 70
     1
102
RTVSPropertyOp11
 70
     1
102
RTVSPropertyOp12
 70
     1
102
RTVSPropertyOp13
 70
     1
102
RTVSPropertyOp14
 70
     1
102
RTVSPropertyOp15
 70
     1
102
RTVSPropertyOp16
 70
     1
102
RTVSPropertyOp17
 70
     1
102
RTVSPropertyOp18
 70
     1
102
RTVSPropertyOp19
 70
     1
102
RTVSPropertyOp20
 70
     1
102
RTVSPropertyOp21
 70
     1
102
RTVSPropertyOp22
 70
     1
102
RTVSPropertyOp23
 70
     1
102
RTVSPropertyOp24
 70
     1
102
RTVSPropertyOp25
 70
     1
102
RTVSPropertyOp26
 70
     1
102
RTVSPropertyOp27
 70
     1
  0
XRECORD
  5
664
102
{ACAD_REACTORS
330
663
102
}
330
663
100
AcDbXrecord
280
     1
102
RTVSPropertyOp0
 70
     1
102
RTVSPropertyOp1
 70
     1
102
RTVSPropertyOp2
 70
     1
102
RTVSPropertyOp3
 70
     1
102
RTVSPropertyOp4
 70
     1
102
RTVSPropertyOp5
 70
     1
102
RTVSPropertyOp6
 70
     1
102
RTVSPropertyOp7
 70
     1
102
RTVSPropertyOp8
 70
     1
102
RTVSPropertyOp9
 70
     1
102
RTVSPropertyOp10
 70
     1
102
RTVSPropertyOp11
 70
     1
102
RTVSPropertyOp12
 70
     1
102
RTVSPropertyOp13
 70
     1
102
RTVSPropertyOp14
 70
     1
102
RTVSPropertyOp15
 70
     1
102
RTVSPropertyOp16
 70
     1
102
RTVSPropertyOp17
 70
     1
102
RTVSPropertyOp18
 70
     1
102
RTVSPropertyOp19
 70
     1
102
RTVSPropertyOp20
 70
     1
102
RTVSPropertyOp21
 70
     1
102
RTVSPropertyOp22
 70
     1
102
RTVSPropertyOp23
 70
     1
102
RTVSPropertyOp24
 70
     1
102
RTVSPropertyOp25
 70
     1
102
RTVSPropertyOp26
 70
     1
102
RTVSPropertyOp27
 70
     1
  0
XRECORD
  5
662
102
{ACAD_REACTORS
330
661
102
}
330
661
100
AcDbXrecord
280
     1
102
RTVSPropertyOp0
 70
     1
102
RTVSPropertyOp1
 70
     1
102
RTVSPropertyOp2
 70
     1
102
RTVSPropertyOp3
 70
     1
102
RTVSPropertyOp4
 70
     1
102
RTVSPropertyOp5
 70
     1
102
RTVSPropertyOp6
 70
     1
102
RTVSPropertyOp7
 70
     1
102
RTVSPropertyOp8
 70
     1
102
RTVSPropertyOp9
 70
     1
102
RTVSPropertyOp10
 70
     1
102
RTVSPropertyOp11
 70
     1
102
RTVSPropertyOp12
 70
     1
102
RTVSPropertyOp13
 70
     1
102
RTVSPropertyOp14
 70
     1
102
RTVSPropertyOp15
 70
     1
102
RTVSPropertyOp16
 70
     1
102
RTVSPropertyOp17
 70
     1
102
RTVSPropertyOp18
 70
     1
102
RTVSPropertyOp19
 70
     1
102
RTVSPropertyOp20
 70
     1
102
RTVSPropertyOp21
 70
     1
102
RTVSPropertyOp22
 70
     1
102
RTVSPropertyOp23
 70
     1
102
RTVSPropertyOp24
 70
     1
102
RTVSPropertyOp25
 70
     1
102
RTVSPropertyOp26
 70
     1
102
RTVSPropertyOp27
 70
     1
  0
XRECORD
  5
666
102
{ACAD_REACTORS
330
665
102
}
330
665
100
AcDbXrecord
280
     1
102
RTVSPropertyOp0
 70
     1
102
RTVSPropertyOp1
 70
     1
102
RTVSPropertyOp2
 70
     1
102
RTVSPropertyOp3
 70
     1
102
RTVSPropertyOp4
 70
     1
102
RTVSPropertyOp5
 70
     1
102
RTVSPropertyOp6
 70
     1
102
RTVSPropertyOp7
 70
     1
102
RTVSPropertyOp8
 70
     1
102
RTVSPropertyOp9
 70
     1
102
RTVSPropertyOp10
 70
     1
102
RTVSPropertyOp11
 70
     1
102
RTVSPropertyOp12
 70
     1
102
RTVSPropertyOp13
 70
     1
102
RTVSPropertyOp14
 70
     1
102
RTVSPropertyOp15
 70
     1
102
RTVSPropertyOp16
 70
     1
102
RTVSPropertyOp17
 70
     1
102
RTVSPropertyOp18
 70
     1
102
RTVSPropertyOp19
 70
     1
102
RTVSPropertyOp20
 70
     1
102
RTVSPropertyOp21
 70
     1
102
RTVSPropertyOp22
 70
     1
102
RTVSPropertyOp23
 70
     1
102
RTVSPropertyOp24
 70
     1
102
RTVSPropertyOp25
 70
     1
102
RTVSPropertyOp26
 70
     1
102
RTVSPropertyOp27
 70
     1
  0
XRECORD
  5
66E
102
{ACAD_REACTORS
330
66D
102
}
330
66D
100
AcDbXrecord
280
     1
102
RTVSPropertyOp0
 70
     1
102
RTVSPropertyOp1
 70
     1
102
RTVSPropertyOp2
 70
     1
102
RTVSPropertyOp3
 70
     1
102
RTVSPropertyOp4
 70
     1
102
RTVSPropertyOp5
 70
     1
102
RTVSPropertyOp6
 70
     1
102
RTVSPropertyOp7
 70
     1
102
RTVSPropertyOp8
 70
     1
102
RTVSPropertyOp9
 70
     1
102
RTVSPropertyOp10
 70
     1
102
RTVSPropertyOp11
 70
     1
102
RTVSPropertyOp12
 70
     1
102
RTVSPropertyOp13
 70
     1
102
RTVSPropertyOp14
 70
     1
102
RTVSPropertyOp15
 70
     1
102
RTVSPropertyOp16
 70
     1
102
RTVSPropertyOp17
 70
     1
102
RTVSPropertyOp18
 70
     1
102
RTVSPropertyOp19
 70
     1
102
RTVSPropertyOp20
 70
     1
102
RTVSPropertyOp21
 70
     1
102
RTVSPropertyOp22
 70
     1
102
RTVSPropertyOp23
 70
     1
102
RTVSPropertyOp24
 70
     1
102
RTVSPropertyOp25
 70
     1
102
RTVSPropertyOp26
 70
     1
102
RTVSPropertyOp27
 70
     1
  0
XRECORD
  5
676
102
{ACAD_REACTORS
330
675
102
}
330
675
100
AcDbXrecord
280
     1
102
RTVSPropertyOp0
 70
     1
102
RTVSPropertyOp1
 70
     1
102
RTVSPropertyOp2
 70
     1
102
RTVSPropertyOp3
 70
     1
102
RTVSPropertyOp4
 70
     1
102
RTVSPropertyOp5
 70
     1
102
RTVSPropertyOp6
 70
     1
102
RTVSPropertyOp7
 70
     1
102
RTVSPropertyOp8
 70
     1
102
RTVSPropertyOp9
 70
     1
102
RTVSPropertyOp10
 70
     1
102
RTVSPropertyOp11
 70
     1
102
RTVSPropertyOp12
 70
     1
102
RTVSPropertyOp13
 70
     1
102
RTVSPropertyOp14
 70
     1
102
RTVSPropertyOp15
 70
     1
102
RTVSPropertyOp16
 70
     1
102
RTVSPropertyOp17
 70
     1
102
RTVSPropertyOp18
 70
     1
102
RTVSPropertyOp19
 70
     1
102
RTVSPropertyOp20
 70
     1
102
RTVSPropertyOp21
 70
     1
102
RTVSPropertyOp22
 70
     1
102
RTVSPropertyOp23
 70
     1
102
RTVSPropertyOp24
 70
     1
102
RTVSPropertyOp25
 70
     1
102
RTVSPropertyOp26
 70
     1
102
RTVSPropertyOp27
 70
     1
  0
XRECORD
  5
66A
102
{ACAD_REACTORS
330
669
102
}
330
669
100
AcDbXrecord
280
     1
102
RTVSPropertyOp0
 70
     1
102
RTVSPropertyOp1
 70
     1
102
RTVSPropertyOp2
 70
     1
102
RTVSPropertyOp3
 70
     1
102
RTVSPropertyOp4
 70
     1
102
RTVSPropertyOp5
 70
     1
102
RTVSPropertyOp6
 70
     1
102
RTVSPropertyOp7
 70
     1
102
RTVSPropertyOp8
 70
     1
102
RTVSPropertyOp9
 70
     1
102
RTVSPropertyOp10
 70
     1
102
RTVSPropertyOp11
 70
     1
102
RTVSPropertyOp12
 70
     1
102
RTVSPropertyOp13
 70
     1
102
RTVSPropertyOp14
 70
     1
102
RTVSPropertyOp15
 70
     1
102
RTVSPropertyOp16
 70
     1
102
RTVSPropertyOp17
 70
     1
102
RTVSPropertyOp18
 70
     1
102
RTVSPropertyOp19
 70
     1
102
RTVSPropertyOp20
 70
     1
102
RTVSPropertyOp21
 70
     1
102
RTVSPropertyOp22
 70
     1
102
RTVSPropertyOp23
 70
     1
102
RTVSPropertyOp24
 70
     1
102
RTVSPropertyOp25
 70
     1
102
RTVSPropertyOp26
 70
     1
102
RTVSPropertyOp27
 70
     1
  0
XRECORD
  5
66C
102
{ACAD_REACTORS
330
66B
102
}
330
66B
100
AcDbXrecord
280
     1
102
RTVSPropertyOp0
 70
     1
102
RTVSPropertyOp1
 70
     1
102
RTVSPropertyOp2
 70
     1
102
RTVSPropertyOp3
 70
     1
102
RTVSPropertyOp4
 70
     1
102
RTVSPropertyOp5
 70
     1
102
RTVSPropertyOp6
 70
     1
102
RTVSPropertyOp7
 70
     1
102
RTVSPropertyOp8
 70
     1
102
RTVSPropertyOp9
 70
     1
102
RTVSPropertyOp10
 70
     1
102
RTVSPropertyOp11
 70
     1
102
RTVSPropertyOp12
 70
     1
102
RTVSPropertyOp13
 70
     1
102
RTVSPropertyOp14
 70
     1
102
RTVSPropertyOp15
 70
     1
102
RTVSPropertyOp16
 70
     1
102
RTVSPropertyOp17
 70
     1
102
RTVSPropertyOp18
 70
     1
102
RTVSPropertyOp19
 70
     1
102
RTVSPropertyOp20
 70
     1
102
RTVSPropertyOp21
 70
     1
102
RTVSPropertyOp22
 70
     1
102
RTVSPropertyOp23
 70
     1
102
RTVSPropertyOp24
 70
     1
102
RTVSPropertyOp25
 70
     1
102
RTVSPropertyOp26
 70
     1
102
RTVSPropertyOp27
 70
     1
  0
XRECORD
  5
674
102
{ACAD_REACTORS
330
673
102
}
330
673
100
AcDbXrecord
280
     1
102
RTVSPropertyOp0
 70
     1
102
RTVSPropertyOp1
 70
     1
102
RTVSPropertyOp2
 70
     1
102
RTVSPropertyOp3
 70
     1
102
RTVSPropertyOp4
 70
     1
102
RTVSPropertyOp5
 70
     1
102
RTVSPropertyOp6
 70
     1
102
RTVSPropertyOp7
 70
     1
102
RTVSPropertyOp8
 70
     1
102
RTVSPropertyOp9
 70
     1
102
RTVSPropertyOp10
 70
     1
102
RTVSPropertyOp11
 70
     1
102
RTVSPropertyOp12
 70
     1
102
RTVSPropertyOp13
 70
     1
102
RTVSPropertyOp14
 70
     1
102
RTVSPropertyOp15
 70
     1
102
RTVSPropertyOp16
 70
     1
102
RTVSPropertyOp17
 70
     1
102
RTVSPropertyOp18
 70
     1
102
RTVSPropertyOp19
 70
     1
102
RTVSPropertyOp20
 70
     1
102
RTVSPropertyOp21
 70
     1
102
RTVSPropertyOp22
 70
     1
102
RTVSPropertyOp23
 70
     1
102
RTVSPropertyOp24
 70
     1
102
RTVSPropertyOp25
 70
     1
102
RTVSPropertyOp26
 70
     1
102
RTVSPropertyOp27
 70
     1
  0
XRECORD
  5
658
102
{ACAD_REACTORS
330
657
102
}
330
657
100
AcDbXrecord
280
     1
102
RTVSPropertyOp0
 70
     1
102
RTVSPropertyOp1
 70
     1
102
RTVSPropertyOp2
 70
     1
102
RTVSPropertyOp3
 70
     1
102
RTVSPropertyOp4
 70
     1
102
RTVSPropertyOp5
 70
     1
102
RTVSPropertyOp6
 70
     1
102
RTVSPropertyOp7
 70
     1
102
RTVSPropertyOp8
 70
     1
102
RTVSPropertyOp9
 70
     1
102
RTVSPropertyOp10
 70
     1
102
RTVSPropertyOp11
 70
     1
102
RTVSPropertyOp12
 70
     1
102
RTVSPropertyOp13
 70
     1
102
RTVSPropertyOp14
 70
     1
102
RTVSPropertyOp15
 70
     1
102
RTVSPropertyOp16
 70
     1
102
RTVSPropertyOp17
 70
     1
102
RTVSPropertyOp18
 70
     1
102
RTVSPropertyOp19
 70
     1
102
RTVSPropertyOp20
 70
     1
102
RTVSPropertyOp21
 70
     1
102
RTVSPropertyOp22
 70
     1
102
RTVSPropertyOp23
 70
     1
102
RTVSPropertyOp24
 70
     1
102
RTVSPropertyOp25
 70
     1
102
RTVSPropertyOp26
 70
     1
102
RTVSPropertyOp27
 70
     1
  0
XRECORD
  5
65A
102
{ACAD_REACTORS
330
659
102
}
330
659
100
AcDbXrecord
280
     1
102
RTVSPropertyOp0
 70
     1
102
RTVSPropertyOp1
 70
     1
102
RTVSPropertyOp2
 70
     1
102
RTVSPropertyOp3
 70
     1
102
RTVSPropertyOp4
 70
     1
102
RTVSPropertyOp5
 70
     1
102
RTVSPropertyOp6
 70
     1
102
RTVSPropertyOp7
 70
     1
102
RTVSPropertyOp8
 70
     1
102
RTVSPropertyOp9
 70
     1
102
RTVSPropertyOp10
 70
     1
102
RTVSPropertyOp11
 70
     1
102
RTVSPropertyOp12
 70
     1
102
RTVSPropertyOp13
 70
     1
102
RTVSPropertyOp14
 70
     1
102
RTVSPropertyOp15
 70
     1
102
RTVSPropertyOp16
 70
     1
102
RTVSPropertyOp17
 70
     1
102
RTVSPropertyOp18
 70
     1
102
RTVSPropertyOp19
 70
     1
102
RTVSPropertyOp20
 70
     1
102
RTVSPropertyOp21
 70
     1
102
RTVSPropertyOp22
 70
     1
102
RTVSPropertyOp23
 70
     1
102
RTVSPropertyOp24
 70
     1
102
RTVSPropertyOp25
 70
     1
102
RTVSPropertyOp26
 70
     1
102
RTVSPropertyOp27
 70
     1
  0
XRECORD
  5
65C
102
{ACAD_REACTORS
330
65B
102
}
330
65B
100
AcDbXrecord
280
     1
102
RTVSPropertyOp0
 70
     1
102
RTVSPropertyOp1
 70
     1
102
RTVSPropertyOp2
 70
     1
102
RTVSPropertyOp3
 70
     1
102
RTVSPropertyOp4
 70
     1
102
RTVSPropertyOp5
 70
     1
102
RTVSPropertyOp6
 70
     1
102
RTVSPropertyOp7
 70
     1
102
RTVSPropertyOp8
 70
     1
102
RTVSPropertyOp9
 70
     1
102
RTVSPropertyOp10
 70
     1
102
RTVSPropertyOp11
 70
     1
102
RTVSPropertyOp12
 70
     1
102
RTVSPropertyOp13
 70
     1
102
RTVSPropertyOp14
 70
     1
102
RTVSPropertyOp15
 70
     1
102
RTVSPropertyOp16
 70
     1
102
RTVSPropertyOp17
 70
     1
102
RTVSPropertyOp18
 70
     1
102
RTVSPropertyOp19
 70
     1
102
RTVSPropertyOp20
 70
     1
102
RTVSPropertyOp21
 70
     1
102
RTVSPropertyOp22
 70
     1
102
RTVSPropertyOp23
 70
     1
102
RTVSPropertyOp24
 70
     1
102
RTVSPropertyOp25
 70
     1
102
RTVSPropertyOp26
 70
     1
102
RTVSPropertyOp27
 70
     1
  0
XRECORD
  5
65E
102
{ACAD_REACTORS
330
65D
102
}
330
65D
100
AcDbXrecord
280
     1
102
RTVSPropertyOp0
 70
     1
102
RTVSPropertyOp1
 70
     1
102
RTVSPropertyOp2
 70
     1
102
RTVSPropertyOp3
 70
     1
102
RTVSPropertyOp4
 70
     1
102
RTVSPropertyOp5
 70
     1
102
RTVSPropertyOp6
 70
     1
102
RTVSPropertyOp7
 70
     1
102
RTVSPropertyOp8
 70
     1
102
RTVSPropertyOp9
 70
     1
102
RTVSPropertyOp10
 70
     1
102
RTVSPropertyOp11
 70
     1
102
RTVSPropertyOp12
 70
     1
102
RTVSPropertyOp13
 70
     1
102
RTVSPropertyOp14
 70
     1
102
RTVSPropertyOp15
 70
     1
102
RTVSPropertyOp16
 70
     1
102
RTVSPropertyOp17
 70
     1
102
RTVSPropertyOp18
 70
     1
102
RTVSPropertyOp19
 70
     1
102
RTVSPropertyOp20
 70
     1
102
RTVSPropertyOp21
 70
     1
102
RTVSPropertyOp22
 70
     1
102
RTVSPropertyOp23
 70
     1
102
RTVSPropertyOp24
 70
     1
102
RTVSPropertyOp25
 70
     1
102
RTVSPropertyOp26
 70
     1
102
RTVSPropertyOp27
 70
     1
  0
XRECORD
  5
672
102
{ACAD_REACTORS
330
671
102
}
330
671
100
AcDbXrecord
280
     1
102
RTVSPropertyOp0
 70
     1
102
RTVSPropertyOp1
 70
     1
102
RTVSPropertyOp2
 70
     1
102
RTVSPropertyOp3
 70
     1
102
RTVSPropertyOp4
 70
     1
102
RTVSPropertyOp5
 70
     1
102
RTVSPropertyOp6
 70
     1
102
RTVSPropertyOp7
 70
     1
102
RTVSPropertyOp8
 70
     1
102
RTVSPropertyOp9
 70
     1
102
RTVSPropertyOp10
 70
     1
102
RTVSPropertyOp11
 70
     1
102
RTVSPropertyOp12
 70
     1
102
RTVSPropertyOp13
 70
     1
102
RTVSPropertyOp14
 70
     1
102
RTVSPropertyOp15
 70
     1
102
RTVSPropertyOp16
 70
     1
102
RTVSPropertyOp17
 70
     1
102
RTVSPropertyOp18
 70
     1
102
RTVSPropertyOp19
 70
     1
102
RTVSPropertyOp20
 70
     1
102
RTVSPropertyOp21
 70
     1
102
RTVSPropertyOp22
 70
     1
102
RTVSPropertyOp23
 70
     1
102
RTVSPropertyOp24
 70
     1
102
RTVSPropertyOp25
 70
     1
102
RTVSPropertyOp26
 70
     1
102
RTVSPropertyOp27
 70
     1
  0
XRECORD
  5
668
102
{ACAD_REACTORS
330
667
102
}
330
667
100
AcDbXrecord
280
     1
102
RTVSPropertyOp0
 70
     1
102
RTVSPropertyOp1
 70
     1
102
RTVSPropertyOp2
 70
     1
102
RTVSPropertyOp3
 70
     1
102
RTVSPropertyOp4
 70
     1
102
RTVSPropertyOp5
 70
     1
102
RTVSPropertyOp6
 70
     1
102
RTVSPropertyOp7
 70
     1
102
RTVSPropertyOp8
 70
     1
102
RTVSPropertyOp9
 70
     1
102
RTVSPropertyOp10
 70
     1
102
RTVSPropertyOp11
 70
     1
102
RTVSPropertyOp12
 70
     1
102
RTVSPropertyOp13
 70
     1
102
RTVSPropertyOp14
 70
     1
102
RTVSPropertyOp15
 70
     1
102
RTVSPropertyOp16
 70
     1
102
RTVSPropertyOp17
 70
     1
102
RTVSPropertyOp18
 70
     1
102
RTVSPropertyOp19
 70
     1
102
RTVSPropertyOp20
 70
     1
102
RTVSPropertyOp21
 70
     1
102
RTVSPropertyOp22
 70
     1
102
RTVSPropertyOp23
 70
     1
102
RTVSPropertyOp24
 70
     1
102
RTVSPropertyOp25
 70
     1
102
RTVSPropertyOp26
 70
     1
102
RTVSPropertyOp27
 70
     1
  0
XRECORD
  5
670
102
{ACAD_REACTORS
330
66F
102
}
330
66F
100
AcDbXrecord
280
     1
102
RTVSPropertyOp0
 70
     1
102
RTVSPropertyOp1
 70
     1
102
RTVSPropertyOp2
 70
     1
102
RTVSPropertyOp3
 70
     1
102
RTVSPropertyOp4
 70
     1
102
RTVSPropertyOp5
 70
     1
102
RTVSPropertyOp6
 70
     1
102
RTVSPropertyOp7
 70
     1
102
RTVSPropertyOp8
 70
     1
102
RTVSPropertyOp9
 70
     1
102
RTVSPropertyOp10
 70
     1
102
RTVSPropertyOp11
 70
     1
102
RTVSPropertyOp12
 70
     1
102
RTVSPropertyOp13
 70
     1
102
RTVSPropertyOp14
 70
     1
102
RTVSPropertyOp15
 70
     1
102
RTVSPropertyOp16
 70
     1
102
RTVSPropertyOp17
 70
     1
102
RTVSPropertyOp18
 70
     1
102
RTVSPropertyOp19
 70
     1
102
RTVSPropertyOp20
 70
     1
102
RTVSPropertyOp21
 70
     1
102
RTVSPropertyOp22
 70
     1
102
RTVSPropertyOp23
 70
     1
102
RTVSPropertyOp24
 70
     1
102
RTVSPropertyOp25
 70
     1
102
RTVSPropertyOp26
 70
     1
102
RTVSPropertyOp27
 70
     1
  0
ENDSEC
  0
EOF
