  0
SECTION
  2
HEADER
  9
$ACADVER
  1
AC1015
  9
$ACADMAINTVER
 70
     6
  9
$DWGCODEPAGE
  3
ANSI_932
  9
$INSBASE
 10
0.0
 20
0.0
 30
0.0
  9
$EXTMIN
 10
0.0
 20
0.0
 30
0.0
  9
$EXTMAX
 10
2520.0
 20
1782.0
 30
0.0
  9
$LIMMIN
 10
0.0
 20
0.0
  9
$LIMMAX
 10
12.0
 20
9.0
  9
$ORTHOMODE
 70
     0
  9
$REGENMODE
 70
     1
  9
$FILLMODE
 70
     1
  9
$QTEXTMODE
 70
     0
  9
$MIRRTEXT
 70
     1
  9
$LTSCALE
 40
6.0
  9
$ATTMODE
 70
     1
  9
$TEXTSIZE
 40
0.2
  9
$TRACEWID
 40
0.05
  9
$TEXTSTYLE
  7
Standard
  9
$CLAYER
  8
0
  9
$CELTYPE
  6
ByLayer
  9
$CECOLOR
 62
   256
  9
$CELTSCALE
 40
1.0
  9
$DISPSILH
 70
     0
  9
$DIMSCALE
 40
1.0
  9
$DIMASZ
 40
0.18
  9
$DIMEXO
 40
0.0625
  9
$DIMDLI
 40
0.38
  9
$DIMRND
 40
0.0
  9
$DIMDLE
 40
0.0
  9
$DIMEXE
 40
0.18
  9
$DIMTP
 40
0.0
  9
$DIMTM
 40
0.0
  9
$DIMTXT
 40
0.18
  9
$DIMCEN
 40
0.09
  9
$DIMTSZ
 40
0.0
  9
$DIMTOL
 70
     0
  9
$DIMLIM
 70
     0
  9
$DIMTIH
 70
     1
  9
$DIMTOH
 70
     1
  9
$DIMSE1
 70
     0
  9
$DIMSE2
 70
     0
  9
$DIMTAD
 70
     0
  9
$DIMZIN
 70
     0
  9
$DIMBLK
  1

  9
$DIMASO
 70
     1
  9
$DIMSHO
 70
     1
  9
$DIMPOST
  1

  9
$DIMAPOST
  1

  9
$DIMALT
 70
     0
  9
$DIMALTD
 70
     2
  9
$DIMALTF
 40
25.4
  9
$DIMLFAC
 40
1.0
  9
$DIMTOFL
 70
     0
  9
$DIMTVP
 40
0.0
  9
$DIMTIX
 70
     0
  9
$DIMSOXD
 70
     0
  9
$DIMSAH
 70
     0
  9
$DIMBLK1
  1

  9
$DIMBLK2
  1

  9
$DIMSTYLE
  2
Standard
  9
$DIMCLRD
 70
     0
  9
$DIMCLRE
 70
     0
  9
$DIMCLRT
 70
     0
  9
$DIMTFAC
 40
1.0
  9
$DIMGAP
 40
0.09
  9
$DIMJUST
 70
     0
  9
$DIMSD1
 70
     0
  9
$DIMSD2
 70
     0
  9
$DIMTOLJ
 70
     1
  9
$DIMTZIN
 70
     0
  9
$DIMALTZ
 70
     0
  9
$DIMALTTZ
 70
     0
  9
$DIMUPT
 70
     0
  9
$DIMDEC
 70
     4
  9
$DIMTDEC
 70
     4
  9
$DIMALTU
 70
     2
  9
$DIMALTTD
 70
     2
  9
$DIMTXSTY
  7
Standard
  9
$DIMAUNIT
 70
     0
  9
$DIMADEC
 70
     0
  9
$DIMALTRND
 40
0.0
  9
$DIMAZIN
 70
     0
  9
$DIMDSEP
 70
    46
  9
$DIMATFIT
 70
     3
  9
$DIMFRAC
 70
     0
  9
$DIMLDRBLK
  1

  9
$DIMLUNIT
 70
     2
  9
$DIMLWD
 70
    -2
  9
$DIMLWE
 70
    -2
  9
$DIMTMOVE
 70
     0
  9
$LUNITS
 70
     2
  9
$LUPREC
 70
     4
  9
$SKETCHINC
 40
0.1
  9
$FILLETRAD
 40
0.5
  9
$AUNITS
 70
     0
  9
$AUPREC
 70
     0
  9
$MENU
  1
.
  9
$ELEVATION
 40
0.0
  9
$PELEVATION
 40
0.0
  9
$THICKNESS
 40
0.0
  9
$LIMCHECK
 70
     0
  9
$CHAMFERA
 40
0.5
  9
$CHAMFERB
 40
0.5
  9
$CHAMFERC
 40
1.0
  9
$CHAMFERD
 40
0.0
  9
$SKPOLY
 70
     0
  9
$TDCREATE
 40
2456819.746025776
  9
$TDUCREATE
 40
2456819.371025776
  9
$TDUPDATE
 40
2456819.746025787
  9
$TDUUPDATE
 40
2456819.371025787
  9
$TDINDWG
 40
0.0000000116
  9
$TDUSRTIMER
 40
0.0000000116
  9
$USRTIMER
 70
     1
  9
$ANGBASE
 50
0.0
  9
$ANGDIR
 70
     0
  9
$PDMODE
 70
     0
  9
$PDSIZE
 40
0.0
  9
$PLINEWID
 40
0.0
  9
$SPLFRAME
 70
     0
  9
$SPLINETYPE
 70
     6
  9
$SPLINESEGS
 70
     8
  9
$HANDSEED
  5
65A
  9
$SURFTAB1
 70
     6
  9
$SURFTAB2
 70
     6
  9
$SURFTYPE
 70
     6
  9
$SURFU
 70
     6
  9
$SURFV
 70
     6
  9
$UCSBASE
  2

  9
$UCSNAME
  2

  9
$UCSORG
 10
0.0
 20
0.0
 30
0.0
  9
$UCSXDIR
 10
1.0
 20
0.0
 30
0.0
  9
$UCSYDIR
 10
0.0
 20
1.0
 30
0.0
  9
$UCSORTHOREF
  2

  9
$UCSORTHOVIEW
 70
     0
  9
$UCSORGTOP
 10
0.0
 20
0.0
 30
0.0
  9
$UCSORGBOTTOM
 10
0.0
 20
0.0
 30
0.0
  9
$UCSORGLEFT
 10
0.0
 20
0.0
 30
0.0
  9
$UCSORGRIGHT
 10
0.0
 20
0.0
 30
0.0
  9
$UCSORGFRONT
 10
0.0
 20
0.0
 30
0.0
  9
$UCSORGBACK
 10
0.0
 20
0.0
 30
0.0
  9
$PUCSBASE
  2

  9
$PUCSNAME
  2

  9
$PUCSORG
 10
0.0
 20
0.0
 30
0.0
  9
$PUCSXDIR
 10
1.0
 20
0.0
 30
0.0
  9
$PUCSYDIR
 10
0.0
 20
1.0
 30
0.0
  9
$PUCSORTHOREF
  2

  9
$PUCSORTHOVIEW
 70
     0
  9
$PUCSORGTOP
 10
0.0
 20
0.0
 30
0.0
  9
$PUCSORGBOTTOM
 10
0.0
 20
0.0
 30
0.0
  9
$PUCSORGLEFT
 10
0.0
 20
0.0
 30
0.0
  9
$PUCSORGRIGHT
 10
0.0
 20
0.0
 30
0.0
  9
$PUCSORGFRONT
 10
0.0
 20
0.0
 30
0.0
  9
$PUCSORGBACK
 10
0.0
 20
0.0
 30
0.0
  9
$USERI1
 70
     0
  9
$USERI2
 70
     0
  9
$USERI3
 70
     0
  9
$USERI4
 70
     0
  9
$USERI5
 70
     0
  9
$USERR1
 40
0.0
  9
$USERR2
 40
0.0
  9
$USERR3
 40
0.0
  9
$USERR4
 40
0.0
  9
$USERR5
 40
0.0
  9
$WORLDVIEW
 70
     1
  9
$SHADEDGE
 70
     3
  9
$SHADEDIF
 70
    70
  9
$TILEMODE
 70
     1
  9
$MAXACTVP
 70
    64
  9
$PINSBASE
 10
0.0
 20
0.0
 30
0.0
  9
$PLIMCHECK
 70
     0
  9
$PEXTMIN
 10
1.000000E+20
 20
1.000000E+20
 30
1.000000E+20
  9
$PEXTMAX
 10
-1.000000E+20
 20
-1.000000E+20
 30
-1.000000E+20
  9
$PLIMMIN
 10
0.0
 20
0.0
  9
$PLIMMAX
 10
12.0
 20
9.0
  9
$UNITMODE
 70
     0
  9
$VISRETAIN
 70
     1
  9
$PLINEGEN
 70
     0
  9
$PSLTSCALE
 70
     1
  9
$TREEDEPTH
 70
  3020
  9
$CMLSTYLE
  2
Standard
  9
$CMLJUST
 70
     0
  9
$CMLSCALE
 40
1.0
  9
$PROXYGRAPHICS
 70
     1
  9
$MEASUREMENT
 70
     0
  9
$CELWEIGHT
370
    -1
  9
$ENDCAPS
280
     0
  9
$JOINSTYLE
280
     0
  9
$LWDISPLAY
290
     0
  9
$INSUNITS
 70
     1
  9
$HYPERLINKBASE
  1

  9
$STYLESHEET
  1

  9
$XEDIT
290
     1
  9
$CEPSNTYPE
380
     0
  9
$PSTYLEMODE
290
     1
  9
$FINGERPRINTGUID
  2
{0DD92889-8625-4B3F-8E99-C76052947A00}
  9
$VERSIONGUID
  2
{FAEB1C32-E019-11D5-929B-00C0DF256EC4}
  9
$EXTNAMES
290
     1
  9
$PSVPSCALE
 40
0.0
  9
$OLESTARTUP
290
     0
  0
ENDSEC
  0
SECTION
  2
CLASSES
  0
CLASS
  1
ACDBDICTIONARYWDFLT
  2
AcDbDictionaryWithDefault
  3
ObjectDBX Classes
 90
        0
280
     0
281
     0
  0
CLASS
  1
VISUALSTYLE
  2
AcDbVisualStyle
  3
ObjectDBX Classes
 90
     4095
280
     0
281
     0
  0
CLASS
  1
SCALE
  2
AcDbScale
  3
ObjectDBX Classes
 90
     1153
280
     0
281
     0
  0
CLASS
  1
DICTIONARYVAR
  2
AcDbDictionaryVar
  3
ObjectDBX Classes
 90
        0
280
     0
281
     0
  0
CLASS
  1
ACDBPLACEHOLDER
  2
AcDbPlaceHolder
  3
ObjectDBX Classes
 90
        0
280
     0
281
     0
  0
CLASS
  1
LAYOUT
  2
AcDbLayout
  3
ObjectDBX Classes
 90
        0
280
     0
281
     0
  0
ENDSEC
  0
SECTION
  2
TABLES
  0
TABLE
  2
VPORT
  5
8
330
0
100
AcDbSymbolTable
 70
     1
  0
VPORT
  5
29
330
8
100
AcDbSymbolTableRecord
100
AcDbViewportTableRecord
  2
*Active
 70
     0
 10
0.0
 20
0.0
 11
1.0
 21
1.0
 12
10.429907
 22
4.5
 13
0.0
 23
0.0
 14
0.5
 24
0.5
 15
0.5
 25
0.5
 16
0.0
 26
0.0
 36
1.0
 17
0.0
 27
0.0
 37
0.0
 40
9.0
 41
1.972973
 42
50.0
 43
0.0
 44
0.0
 50
0.0
 51
0.0
 71
     0
 72
   100
 73
     1
 74
     3
 75
     0
 76
     0
 77
     0
 78
     0
281
     0
 65
     1
110
0.0
120
0.0
130
0.0
111
1.0
121
0.0
131
0.0
112
0.0
122
1.0
132
0.0
 79
     0
146
0.0
  0
ENDTAB
  0
TABLE
  2
LTYPE
  5
5
330
0
100
AcDbSymbolTable
 70
    16
  0
LTYPE
  5
14
330
5
100
AcDbSymbolTableRecord
100
AcDbLinetypeTableRecord
  2
ByBlock
 70
     0
  3

 72
    65
 73
     0
 40
0.0
  0
LTYPE
  5
15
330
5
100
AcDbSymbolTableRecord
100
AcDbLinetypeTableRecord
  2
ByLayer
 70
     0
  3

 72
    65
 73
     0
 40
0.0
  0
LTYPE
  5
16
330
5
100
AcDbSymbolTableRecord
100
AcDbLinetypeTableRecord
  2
Continuous
 70
     0
  3
Solid line
 72
    65
 73
     0
 40
0.0
  0
LTYPE
  5
3B
330
5
100
AcDbSymbolTableRecord
100
AcDbLinetypeTableRecord
  2
PLine1
 70
     0
  3
破線
 72
    65
 73
     2
 40
18.0
 49
12.6
 74
     0
 49
-5.4
 74
     0
  0
LTYPE
  5
3C
330
5
100
AcDbSymbolTableRecord
100
AcDbLinetypeTableRecord
  2
PLine2
 70
     0
  3
一点鎖線
 72
    65
 73
     4
 40
60.0
 49
42.0
 74
     0
 49
-6.0
 74
     0
 49
6.0
 74
     0
 49
-6.0
 74
     0
  0
LTYPE
  5
3D
330
5
100
AcDbSymbolTableRecord
100
AcDbLinetypeTableRecord
  2
PLine3
 70
     0
  3
二点鎖線
 72
    65
 73
     6
 40
60.0
 49
30.0
 74
     0
 49
-6.0
 74
     0
 49
6.0
 74
     0
 49
-6.0
 74
     0
 49
6.0
 74
     0
 49
-6.0
 74
     0
  0
LTYPE
  5
3E
330
5
100
AcDbSymbolTableRecord
100
AcDbLinetypeTableRecord
  2
PLine4
 70
     0
  3
破線1
 72
    65
 73
     2
 40
30.0
 49
21.0
 74
     0
 49
-9.0
 74
     0
  0
LTYPE
  5
3F
330
5
100
AcDbSymbolTableRecord
100
AcDbLinetypeTableRecord
  2
PLine5
 70
     0
  3
一点鎖線1
 72
    65
 73
     4
 40
90.0
 49
63.0
 74
     0
 49
-9.0
 74
     0
 49
9.0
 74
     0
 49
-9.0
 74
     0
  0
LTYPE
  5
40
330
5
100
AcDbSymbolTableRecord
100
AcDbLinetypeTableRecord
  2
PLine6
 70
     0
  3
二点鎖線1
 72
    65
 73
     6
 40
90.0
 49
45.0
 74
     0
 49
-9.0
 74
     0
 49
9.0
 74
     0
 49
-9.0
 74
     0
 49
9.0
 74
     0
 49
-9.0
 74
     0
  0
LTYPE
  5
41
330
5
100
AcDbSymbolTableRecord
100
AcDbLinetypeTableRecord
  2
PLine7
 70
     0
  3
破線2
 72
    65
 73
     2
 40
42.0
 49
29.4
 74
     0
 49
-12.6
 74
     0
  0
LTYPE
  5
42
330
5
100
AcDbSymbolTableRecord
100
AcDbLinetypeTableRecord
  2
PLine8
 70
     0
  3
一点鎖線2
 72
    65
 73
     4
 40
120.0
 49
84.0
 74
     0
 49
-12.0
 74
     0
 49
12.0
 74
     0
 49
-12.0
 74
     0
  0
LTYPE
  5
43
330
5
100
AcDbSymbolTableRecord
100
AcDbLinetypeTableRecord
  2
PLine9
 70
     0
  3
二点鎖線2
 72
    65
 73
     6
 40
120.0
 49
60.0
 74
     0
 49
-12.0
 74
     0
 49
12.0
 74
     0
 49
-12.0
 74
     0
 49
12.0
 74
     0
 49
-12.0
 74
     0
  0
LTYPE
  5
44
330
5
100
AcDbSymbolTableRecord
100
AcDbLinetypeTableRecord
  2
PLine10
 70
     0
  3
破線3
 72
    65
 73
     2
 40
54.0
 49
37.8
 74
     0
 49
-16.2
 74
     0
  0
LTYPE
  5
45
330
5
100
AcDbSymbolTableRecord
100
AcDbLinetypeTableRecord
  2
PLine11
 70
     0
  3
一点鎖線3
 72
    65
 73
     4
 40
150.0
 49
105.0
 74
     0
 49
-15.0
 74
     0
 49
15.0
 74
     0
 49
-15.0
 74
     0
  0
LTYPE
  5
46
330
5
100
AcDbSymbolTableRecord
100
AcDbLinetypeTableRecord
  2
PLine12
 70
     0
  3
二点鎖線3
 72
    65
 73
     6
 40
150.0
 49
75.0
 74
     0
 49
-15.0
 74
     0
 49
15.0
 74
     0
 49
-15.0
 74
     0
 49
15.0
 74
     0
 49
-15.0
 74
     0
  0
LTYPE
  5
47
330
5
100
AcDbSymbolTableRecord
100
AcDbLinetypeTableRecord
  2
PLine13
 70
     0
  3
破線4
 72
    65
 73
     2
 40
66.0
 49
46.2
 74
     0
 49
-19.8
 74
     0
  0
LTYPE
  5
48
330
5
100
AcDbSymbolTableRecord
100
AcDbLinetypeTableRecord
  2
PLine14
 70
     0
  3
一点鎖線4
 72
    65
 73
     4
 40
180.0
 49
126.0
 74
     0
 49
-18.0
 74
     0
 49
18.0
 74
     0
 49
-18.0
 74
     0
  0
LTYPE
  5
49
330
5
100
AcDbSymbolTableRecord
100
AcDbLinetypeTableRecord
  2
PLine15
 70
     0
  3
二点鎖線4
 72
    65
 73
     6
 40
180.0
 49
90.0
 74
     0
 49
-18.0
 74
     0
 49
18.0
 74
     0
 49
-18.0
 74
     0
 49
18.0
 74
     0
 49
-18.0
 74
     0
  0
ENDTAB
  0
TABLE
  2
LAYER
  5
2
330
0
100
AcDbSymbolTable
 70
     7
  0
LAYER
  5
10
330
2
100
AcDbSymbolTableRecord
100
AcDbLayerTableRecord
  2
0
 70
     0
 62
     7
  6
Continuous
370
    -3
390
F
  0
LAYER
  5
4E
330
2
100
AcDbSymbolTableRecord
100
AcDbLayerTableRecord
  2
1__1
 70
     0
 62
     7
  6
Continuous
370
    -3
390
F
  0
LAYER
  5
55
330
2
100
AcDbSymbolTableRecord
100
AcDbLayerTableRecord
  2
2__2
 70
     0
 62
     7
  6
Continuous
370
    -3
390
F
  0
LAYER
  5
56
330
2
100
AcDbSymbolTableRecord
100
AcDbLayerTableRecord
  2
3__3
 70
     0
 62
     7
  6
Continuous
370
    -3
390
F
  0
LAYER
  5
88
330
2
100
AcDbSymbolTableRecord
100
AcDbLayerTableRecord
  2
5__5
 70
     0
 62
     7
  6
Continuous
370
    -3
390
F
  0
LAYER
  5
B0
330
2
100
AcDbSymbolTableRecord
100
AcDbLayerTableRecord
  2
6__6
 70
     0
 62
     7
  6
Continuous
370
    -3
390
F
  0
LAYER
  5
B5
330
2
100
AcDbSymbolTableRecord
100
AcDbLayerTableRecord
  2
7__7
 70
     0
 62
     7
  6
Continuous
370
    -3
390
F
  0
ENDTAB
  0
TABLE
  2
STYLE
  5
3
330
0
100
AcDbSymbolTable
 70
     5
  0
STYLE
  5
11
330
3
100
AcDbSymbolTableRecord
100
AcDbTextStyleTableRecord
  2
Standard
 70
     0
 40
0.0
 41
1.0
 50
0.0
 71
     0
 42
0.2
  3
txt
  4
bigfont
  0
STYLE
  5
4A
330
3
100
AcDbSymbolTableRecord
100
AcDbTextStyleTableRecord
  2
BIGFONT
 70
     0
 40
0.2
 41
1.0
 50
0.0
 71
     0
 42
3.5
  3
monotxt
  4
bigfont
  0
STYLE
  5
4B
330
3
100
AcDbSymbolTableRecord
100
AcDbTextStyleTableRecord
  2
BIG VER
 70
     4
 40
0.2
 41
1.0
 50
0.0
 71
     0
 42
3.5
  3
monotxt
  4
bigfont
  0
STYLE
  5
4C
330
3
100
AcDbSymbolTableRecord
100
AcDbTextStyleTableRecord
  2
EXTFONT
 70
     0
 40
0.2
 41
1.0
 50
0.0
 71
     0
 42
3.5
  3
monotxt
  4
extfont
  0
STYLE
  5
4D
330
3
100
AcDbSymbolTableRecord
100
AcDbTextStyleTableRecord
  2
EXT VER
 70
     4
 40
0.2
 41
1.0
 50
0.0
 71
     0
 42
3.5
  3
monotxt
  4
extfont
  0
ENDTAB
  0
TABLE
  2
VIEW
  5
6
330
0
100
AcDbSymbolTable
 70
     0
  0
ENDTAB
  0
TABLE
  2
UCS
  5
7
330
0
100
AcDbSymbolTable
 70
     0
  0
ENDTAB
  0
TABLE
  2
APPID
  5
9
330
0
100
AcDbSymbolTable
 70
     1
  0
APPID
  5
12
330
9
100
AcDbSymbolTableRecord
100
AcDbRegAppTableRecord
  2
ACAD
 70
     0
  0
ENDTAB
  0
TABLE
  2
DIMSTYLE
  5
A
330
0
100
AcDbSymbolTable
 70
     1
100
AcDbDimStyleTable
  0
DIMSTYLE
105
27
330
A
100
AcDbSymbolTableRecord
100
AcDbDimStyleTableRecord
  2
Standard
 70
     0
340
11
  0
ENDTAB
  0
TABLE
  2
BLOCK_RECORD
  5
1
330
0
100
AcDbSymbolTable
 70
    23
  0
BLOCK_RECORD
  5
1F
330
1
100
AcDbSymbolTableRecord
100
AcDbBlockTableRecord
  2
*Model_Space
340
22
  0
BLOCK_RECORD
  5
1B
330
1
100
AcDbSymbolTableRecord
100
AcDbBlockTableRecord
  2
*Paper_Space
340
1E
  0
BLOCK_RECORD
  5
23
330
1
100
AcDbSymbolTableRecord
100
AcDbBlockTableRecord
  2
*Paper_Space0
340
26
  0
BLOCK_RECORD
  5
156
330
1
100
AcDbSymbolTableRecord
100
AcDbBlockTableRecord
  2
DIM_0
340
0
102
{BLKREFS
331
15F
102
}
  0
BLOCK_RECORD
  5
162
330
1
100
AcDbSymbolTableRecord
100
AcDbBlockTableRecord
  2
DIM_1
340
0
102
{BLKREFS
331
16B
102
}
  0
BLOCK_RECORD
  5
17A
330
1
100
AcDbSymbolTableRecord
100
AcDbBlockTableRecord
  2
DIM_2
340
0
102
{BLKREFS
331
183
102
}
  0
BLOCK_RECORD
  5
19F
330
1
100
AcDbSymbolTableRecord
100
AcDbBlockTableRecord
  2
DIM_3
340
0
102
{BLKREFS
331
1A7
102
}
  0
BLOCK_RECORD
  5
1A8
330
1
100
AcDbSymbolTableRecord
100
AcDbBlockTableRecord
  2
DIM_4
340
0
102
{BLKREFS
331
1B0
102
}
  0
BLOCK_RECORD
  5
1B1
330
1
100
AcDbSymbolTableRecord
100
AcDbBlockTableRecord
  2
DIM_5
340
0
102
{BLKREFS
331
1B9
102
}
  0
BLOCK_RECORD
  5
1BA
330
1
100
AcDbSymbolTableRecord
100
AcDbBlockTableRecord
  2
DIM_6
340
0
102
{BLKREFS
331
1C2
102
}
  0
BLOCK_RECORD
  5
23F
330
1
100
AcDbSymbolTableRecord
100
AcDbBlockTableRecord
  2
DIM_7
340
0
102
{BLKREFS
331
248
102
}
  0
BLOCK_RECORD
  5
249
330
1
100
AcDbSymbolTableRecord
100
AcDbBlockTableRecord
  2
DIM_8
340
0
102
{BLKREFS
331
251
102
}
  0
BLOCK_RECORD
  5
43B
330
1
100
AcDbSymbolTableRecord
100
AcDbBlockTableRecord
  2
DIM_9
340
0
102
{BLKREFS
331
441
102
}
  0
BLOCK_RECORD
  5
47B
330
1
100
AcDbSymbolTableRecord
100
AcDbBlockTableRecord
  2
DIM_10
340
0
102
{BLKREFS
331
482
102
}
  0
BLOCK_RECORD
  5
48C
330
1
100
AcDbSymbolTableRecord
100
AcDbBlockTableRecord
  2
DIM_11
340
0
102
{BLKREFS
331
494
102
}
  0
BLOCK_RECORD
  5
49B
330
1
100
AcDbSymbolTableRecord
100
AcDbBlockTableRecord
  2
DIM_12
340
0
102
{BLKREFS
331
4A4
102
}
  0
BLOCK_RECORD
  5
4A5
330
1
100
AcDbSymbolTableRecord
100
AcDbBlockTableRecord
  2
DIM_13
340
0
102
{BLKREFS
331
4AE
102
}
  0
BLOCK_RECORD
  5
4AF
330
1
100
AcDbSymbolTableRecord
100
AcDbBlockTableRecord
  2
DIM_14
340
0
102
{BLKREFS
331
4B7
102
}
  0
BLOCK_RECORD
  5
4B8
330
1
100
AcDbSymbolTableRecord
100
AcDbBlockTableRecord
  2
DIM_15
340
0
102
{BLKREFS
331
4C0
102
}
  0
BLOCK_RECORD
  5
4C1
330
1
100
AcDbSymbolTableRecord
100
AcDbBlockTableRecord
  2
DIM_16
340
0
102
{BLKREFS
331
4CA
102
}
  0
BLOCK_RECORD
  5
520
330
1
100
AcDbSymbolTableRecord
100
AcDbBlockTableRecord
  2
DIM_17
340
0
102
{BLKREFS
331
529
102
}
  0
BLOCK_RECORD
  5
52A
330
1
100
AcDbSymbolTableRecord
100
AcDbBlockTableRecord
  2
DIM_18
340
0
102
{BLKREFS
331
533
102
}
  0
BLOCK_RECORD
  5
53D
330
1
100
AcDbSymbolTableRecord
100
AcDbBlockTableRecord
  2
DIM_19
340
0
102
{BLKREFS
331
546
102
}
  0
BLOCK_RECORD
  5
5E5
330
1
100
AcDbSymbolTableRecord
100
AcDbBlockTableRecord
  2
DIM_20
340
0
102
{BLKREFS
331
5EE
102
}
  0
BLOCK_RECORD
  5
607
330
1
100
AcDbSymbolTableRecord
100
AcDbBlockTableRecord
  2
DIM_21
340
0
102
{BLKREFS
331
610
102
}
  0
ENDTAB
  0
ENDSEC
  0
SECTION
  2
BLOCKS
  0
BLOCK
  5
20
330
1F
100
AcDbEntity
  8
0
100
AcDbBlockBegin
  2
*Model_Space
 70
     0
 10
0.0
 20
0.0
 30
0.0
  3
*Model_Space
  1

  0
ENDBLK
  5
21
330
1F
100
AcDbEntity
  8
0
100
AcDbBlockEnd
  0
BLOCK
  5
1C
330
1B
100
AcDbEntity
 67
     1
  8
0
100
AcDbBlockBegin
  2
*Paper_Space
 70
     0
 10
0.0
 20
0.0
 30
0.0
  3
*Paper_Space
  1

  0
ENDBLK
  5
1D
330
1B
100
AcDbEntity
 67
     1
  8
0
100
AcDbBlockEnd
  0
BLOCK
  5
24
330
23
100
AcDbEntity
  8
0
100
AcDbBlockBegin
  2
*Paper_Space0
 70
     0
 10
0.0
 20
0.0
 30
0.0
  3
*Paper_Space0
  1

  0
ENDBLK
  5
25
330
23
100
AcDbEntity
  8
0
100
AcDbBlockEnd
  0
BLOCK
  5
157
330
156
100
AcDbEntity
  8
0
100
AcDbBlockBegin
  2
DIM_0
 70
     0
 10
390.204917
 20
647.958698
 30
0.0
  3
DIM_0
  1

  0
CIRCLE
  5
159
330
156
100
AcDbEntity
  8
7__7
  6
Continuous
 62
     3
100
AcDbCircle
 10
214.731281
 20
647.958698
 30
0.0
 40
3.0
  0
CIRCLE
  5
15A
330
156
100
AcDbEntity
  8
7__7
  6
Continuous
 62
     3
100
AcDbCircle
 10
214.731281
 20
417.958698
 30
0.0
 40
3.0
  0
LINE
  5
15B
330
156
100
AcDbEntity
  8
7__7
  6
Continuous
 62
     3
100
AcDbLine
 10
214.731281
 20
647.958698
 30
0.0
 11
214.731281
 21
417.958698
 31
0.0
  0
LINE
  5
15C
330
156
100
AcDbEntity
  8
7__7
  6
Continuous
 62
     3
100
AcDbLine
 10
390.204917
 20
647.958698
 30
0.0
 11
208.731281
 21
647.958698
 31
0.0
  0
LINE
  5
15D
330
156
100
AcDbEntity
  8
7__7
  6
Continuous
 62
     3
100
AcDbLine
 10
287.996776
 20
417.958698
 30
0.0
 11
208.731281
 21
417.958698
 31
0.0
  0
TEXT
  5
15E
330
156
100
AcDbEntity
  8
7__7
  6
Continuous
 62
     3
100
AcDbText
 10
211.731285
 20
516.700655
 30
0.0
 40
18.0
  1
２３０
 50
90.000003
 41
0.743832
 51
0.0
  7
BIGFONT
 72
     1
 11
211.731284
 21
532.958698
 31
0.0
100
AcDbText
  0
ENDBLK
  5
158
330
156
100
AcDbEntity
  8
0
100
AcDbBlockEnd
  0
BLOCK
  5
163
330
162
100
AcDbEntity
  8
0
100
AcDbBlockBegin
  2
DIM_1
 70
     0
 10
662.967051
 20
479.957925
 30
0.0
  3
DIM_1
  1

  0
CIRCLE
  5
165
330
162
100
AcDbEntity
  8
7__7
  6
Continuous
 62
     3
100
AcDbCircle
 10
667.627764
 20
479.957925
 30
0.0
 40
2.4
  0
CIRCLE
  5
166
330
162
100
AcDbEntity
  8
7__7
  6
Continuous
 62
     3
100
AcDbCircle
 10
667.627764
 20
464.958698
 30
0.0
 40
2.4
  0
LINE
  5
167
330
162
100
AcDbEntity
  8
7__7
  6
Continuous
 62
     3
100
AcDbLine
 10
667.627764
 20
479.957925
 30
0.0
 11
667.627764
 21
464.958698
 31
0.0
  0
LINE
  5
168
330
162
100
AcDbEntity
  8
7__7
  6
Continuous
 62
     3
100
AcDbLine
 10
662.967051
 20
479.957925
 30
0.0
 11
661.627764
 21
479.957925
 31
0.0
  0
LINE
  5
169
330
162
100
AcDbEntity
  8
7__7
  6
Continuous
 62
     3
100
AcDbLine
 10
673.181335
 20
464.958698
 30
0.0
 11
673.627764
 21
464.958698
 31
0.0
  0
TEXT
  5
16A
330
162
100
AcDbEntity
  8
7__7
  6
Continuous
 62
     3
100
AcDbText
 10
674.953959
 20
485.170524
 30
0.0
 40
18.0
  1
１５
 50
90.000003
 41
0.772441
 51
0.0
  7
BIGFONT
 72
     1
 11
665.953959
 21
496.095046
 31
0.0
100
AcDbText
 73
     2
  0
ENDBLK
  5
164
330
162
100
AcDbEntity
  8
0
100
AcDbBlockEnd
  0
BLOCK
  5
17B
330
17A
100
AcDbEntity
  8
0
100
AcDbBlockBegin
  2
DIM_2
 70
     0
 10
483.757129
 20
722.19373
 30
0.0
  3
DIM_2
  1

  0
CIRCLE
  5
17D
330
17A
100
AcDbEntity
  8
7__7
  6
Continuous
 62
     3
100
AcDbCircle
 10
483.757129
 20
834.419888
 30
0.0
 40
3.0
  0
CIRCLE
  5
17E
330
17A
100
AcDbEntity
  8
7__7
  6
Continuous
 62
     3
100
AcDbCircle
 10
1343.757129
 20
834.419888
 30
0.0
 40
3.0
  0
LINE
  5
17F
330
17A
100
AcDbEntity
  8
7__7
  6
Continuous
 62
     3
100
AcDbLine
 10
483.757129
 20
834.419888
 30
0.0
 11
1343.757129
 21
834.419888
 31
0.0
  0
LINE
  5
180
330
17A
100
AcDbEntity
  8
7__7
  6
Continuous
 62
     3
100
AcDbLine
 10
483.757129
 20
722.19373
 30
0.0
 11
483.757129
 21
840.419888
 31
0.0
  0
LINE
  5
181
330
17A
100
AcDbEntity
  8
7__7
  6
Continuous
 62
     3
100
AcDbLine
 10
1343.757129
 20
721.386719
 30
0.0
 11
1343.757129
 21
840.419888
 31
0.0
  0
TEXT
  5
182
330
17A
100
AcDbEntity
  8
7__7
  6
Continuous
 62
     3
100
AcDbText
 10
892.183977
 20
837.419803
 30
0.0
 40
18.0
  1
硝子寸法
 41
0.729528
  7
BIGFONT
 72
     1
 11
913.757149
 21
837.419803
 31
0.0
100
AcDbText
  0
ENDBLK
  5
17C
330
17A
100
AcDbEntity
  8
0
100
AcDbBlockEnd
  0
BLOCK
  5
1A0
330
19F
100
AcDbEntity
  8
0
100
AcDbBlockBegin
  2
DIM_3
 70
     0
 10
313.757129
 20
421.485816
 30
0.0
  3
DIM_3
  1

  0
CIRCLE
  5
1A2
330
19F
100
AcDbEntity
  8
7__7
  6
Continuous
 62
     3
100
AcDbCircle
 10
313.757129
 20
317.706829
 30
0.0
 40
2.4
  0
LINE
  5
1A3
330
19F
100
AcDbEntity
  8
7__7
  6
Continuous
 62
     3
100
AcDbLine
 10
313.757129
 20
317.706829
 30
0.0
 11
328.757129
 21
317.706829
 31
0.0
  0
LINE
  5
1A4
330
19F
100
AcDbEntity
  8
7__7
  6
Continuous
 62
     3
100
AcDbLine
 10
313.757129
 20
421.485816
 30
0.0
 11
313.757129
 21
311.706829
 31
0.0
  0
LINE
  5
1A5
330
19F
100
AcDbEntity
  8
7__7
  6
Continuous
 62
     3
100
AcDbLine
 10
328.757129
 20
324.057087
 30
0.0
 11
328.757129
 21
311.706829
 31
0.0
  0
TEXT
  5
1A6
330
19F
100
AcDbEntity
  8
7__7
  6
Continuous
 62
     3
100
AcDbText
 10
288.179757
 20
319.316672
 30
0.0
 40
18.0
  1
１５
 41
0.772441
 51
0.0
  7
BIGFONT
 72
     1
 11
299.104279
 21
328.316672
 31
0.0
100
AcDbText
 73
     2
  0
ENDBLK
  5
1A1
330
19F
100
AcDbEntity
  8
0
100
AcDbBlockEnd
  0
BLOCK
  5
1A9
330
1A8
100
AcDbEntity
  8
0
100
AcDbBlockBegin
  2
DIM_4
 70
     0
 10
328.757129
 20
324.057087
 30
0.0
  3
DIM_4
  1

  0
CIRCLE
  5
1AB
330
1A8
100
AcDbEntity
  8
7__7
  6
Continuous
 62
     3
100
AcDbCircle
 10
328.757129
 20
317.706829
 30
0.0
 40
2.4
  0
CIRCLE
  5
1AC
330
1A8
100
AcDbEntity
  8
7__7
  6
Continuous
 62
     3
100
AcDbCircle
 10
493.757129
 20
317.706829
 30
0.0
 40
2.4
  0
LINE
  5
1AD
330
1A8
100
AcDbEntity
  8
7__7
  6
Continuous
 62
     3
100
AcDbLine
 10
328.757129
 20
317.706829
 30
0.0
 11
493.757129
 21
317.706829
 31
0.0
  0
LINE
  5
1AE
330
1A8
100
AcDbEntity
  8
7__7
  6
Continuous
 62
     3
100
AcDbLine
 10
493.757129
 20
458.738292
 30
0.0
 11
493.757129
 21
311.706829
 31
0.0
  0
TEXT
  5
1AF
330
1A8
100
AcDbEntity
  8
7__7
  6
Continuous
 62
     3
100
AcDbText
 10
382.756722
 20
320.70682
 30
0.0
 40
18.0
  1
１６５
 41
0.743832
 51
0.0
  7
BIGFONT
 72
     1
 11
399.014765
 21
329.70682
 31
0.0
100
AcDbText
 73
     2
  0
ENDBLK
  5
1AA
330
1A8
100
AcDbEntity
  8
0
100
AcDbBlockEnd
  0
BLOCK
  5
1B2
330
1B1
100
AcDbEntity
  8
0
100
AcDbBlockBegin
  2
DIM_5
 70
     0
 10
1513.757129
 20
418.011241
 30
0.0
  3
DIM_5
  1

  0
CIRCLE
  5
1B4
330
1B1
100
AcDbEntity
  8
7__7
  6
Continuous
 62
     3
100
AcDbCircle
 10
1513.757129
 20
317.706829
 30
0.0
 40
2.4
  0
LINE
  5
1B5
330
1B1
100
AcDbEntity
  8
7__7
  6
Continuous
 62
     3
100
AcDbLine
 10
1513.757129
 20
317.706829
 30
0.0
 11
1498.757129
 21
317.706829
 31
0.0
  0
LINE
  5
1B6
330
1B1
100
AcDbEntity
  8
7__7
  6
Continuous
 62
     3
100
AcDbLine
 10
1513.757129
 20
418.011241
 30
0.0
 11
1513.757129
 21
311.706829
 31
0.0
  0
LINE
  5
1B7
330
1B1
100
AcDbEntity
  8
7__7
  6
Continuous
 62
     3
100
AcDbLine
 10
1498.757129
 20
310.893388
 30
0.0
 11
1498.757129
 21
323.706829
 31
0.0
  0
TEXT
  5
1B8
330
1B1
100
AcDbEntity
  8
7__7
  6
Continuous
 62
     3
100
AcDbText
 10
1517.718642
 20
318.560393
 30
0.0
 40
18.0
  1
１５
 41
0.772441
 51
0.0
  7
BIGFONT
 72
     1
 11
1528.643164
 21
327.560393
 31
0.0
100
AcDbText
 73
     2
  0
ENDBLK
  5
1B3
330
1B1
100
AcDbEntity
  8
0
100
AcDbBlockEnd
  0
BLOCK
  5
1BB
330
1BA
100
AcDbEntity
  8
0
100
AcDbBlockBegin
  2
DIM_6
 70
     0
 10
1498.757129
 20
310.893388
 30
0.0
  3
DIM_6
  1

  0
CIRCLE
  5
1BD
330
1BA
100
AcDbEntity
  8
7__7
  6
Continuous
 62
     3
100
AcDbCircle
 10
1498.757129
 20
317.706829
 30
0.0
 40
2.4
  0
CIRCLE
  5
1BE
330
1BA
100
AcDbEntity
  8
7__7
  6
Continuous
 62
     3
100
AcDbCircle
 10
1333.757129
 20
317.706829
 30
0.0
 40
2.4
  0
LINE
  5
1BF
330
1BA
100
AcDbEntity
  8
7__7
  6
Continuous
 62
     3
100
AcDbLine
 10
1498.757129
 20
317.706829
 30
0.0
 11
1333.757129
 21
317.706829
 31
0.0
  0
LINE
  5
1C0
330
1BA
100
AcDbEntity
  8
7__7
  6
Continuous
 62
     3
100
AcDbLine
 10
1333.757129
 20
311.765913
 30
0.0
 11
1333.757129
 21
323.706829
 31
0.0
  0
TEXT
  5
1C1
330
1BA
100
AcDbEntity
  8
7__7
  6
Continuous
 62
     3
100
AcDbText
 10
1411.565205
 20
320.70682
 30
0.0
 40
18.0
  1
１６５
 41
0.743832
 51
0.0
  7
BIGFONT
 72
     1
 11
1427.823247
 21
329.70682
 31
0.0
100
AcDbText
 73
     2
  0
ENDBLK
  5
1BC
330
1BA
100
AcDbEntity
  8
0
100
AcDbBlockEnd
  0
BLOCK
  5
240
330
23F
100
AcDbEntity
  8
0
100
AcDbBlockBegin
  2
DIM_7
 70
     0
 10
1220.727208
 20
647.959405
 30
0.0
  3
DIM_7
  1

  0
CIRCLE
  5
242
330
23F
100
AcDbEntity
  8
7__7
  6
Continuous
 62
     3
100
AcDbCircle
 10
1218.298635
 20
647.959405
 30
0.0
 40
2.4
  0
CIRCLE
  5
243
330
23F
100
AcDbEntity
  8
7__7
  6
Continuous
 62
     3
100
AcDbCircle
 10
1218.298635
 20
532.959401
 30
0.0
 40
2.4
  0
LINE
  5
244
330
23F
100
AcDbEntity
  8
7__7
  6
Continuous
 62
     3
100
AcDbLine
 10
1218.298635
 20
647.959405
 30
0.0
 11
1218.298635
 21
532.959401
 31
0.0
  0
LINE
  5
245
330
23F
100
AcDbEntity
  8
7__7
  6
Continuous
 62
     3
100
AcDbLine
 10
1220.727208
 20
647.959405
 30
0.0
 11
1224.298635
 21
647.959405
 31
0.0
  0
LINE
  5
246
330
23F
100
AcDbEntity
  8
7__7
  6
Continuous
 62
     3
100
AcDbLine
 10
1217.602208
 20
532.959401
 30
0.0
 11
1224.298635
 21
532.959401
 31
0.0
  0
TEXT
  5
247
330
23F
100
AcDbEntity
  8
7__7
  6
Continuous
 62
     3
100
AcDbText
 10
1215.298622
 20
574.201328
 30
0.0
 40
18.0
  1
１１５
 50
90.000003
 41
0.743832
 51
0.0
  7
BIGFONT
 72
     1
 11
1215.298621
 21
590.459371
 31
0.0
100
AcDbText
  0
ENDBLK
  5
241
330
23F
100
AcDbEntity
  8
0
100
AcDbBlockEnd
  0
BLOCK
  5
24A
330
249
100
AcDbEntity
  8
0
100
AcDbBlockBegin
  2
DIM_8
 70
     0
 10
1217.602208
 20
532.959401
 30
0.0
  3
DIM_8
  1

  0
CIRCLE
  5
24C
330
249
100
AcDbEntity
  8
7__7
  6
Continuous
 62
     3
100
AcDbCircle
 10
1218.298635
 20
532.959401
 30
0.0
 40
2.4
  0
CIRCLE
  5
24D
330
249
100
AcDbEntity
  8
7__7
  6
Continuous
 62
     3
100
AcDbCircle
 10
1218.298635
 20
464.959315
 30
0.0
 40
2.4
  0
LINE
  5
24E
330
249
100
AcDbEntity
  8
7__7
  6
Continuous
 62
     3
100
AcDbLine
 10
1218.298635
 20
532.959401
 30
0.0
 11
1218.298635
 21
464.959315
 31
0.0
  0
LINE
  5
24F
330
249
100
AcDbEntity
  8
7__7
  6
Continuous
 62
     3
100
AcDbLine
 10
1214.923636
 20
464.959315
 30
0.0
 11
1224.298635
 21
464.959315
 31
0.0
  0
TEXT
  5
250
330
249
100
AcDbEntity
  8
7__7
  6
Continuous
 62
     3
100
AcDbText
 10
1215.298621
 20
488.034801
 30
0.0
 40
18.0
  1
６８
 50
90.000003
 41
0.772441
 51
0.0
  7
BIGFONT
 72
     1
 11
1215.298621
 21
498.959323
 31
0.0
100
AcDbText
  0
ENDBLK
  5
24B
330
249
100
AcDbEntity
  8
0
100
AcDbBlockEnd
  0
BLOCK
  5
43C
330
43B
100
AcDbEntity
  8
0
100
AcDbBlockBegin
  2
DIM_9
 70
     0
 10
0.0
 20
0.0
 30
0.0
  3
DIM_9
  1

  0
CIRCLE
  5
43E
330
43B
100
AcDbEntity
  8
7__7
  6
Continuous
 62
     3
100
AcDbCircle
 10
2168.24703
 20
1237.573865
 30
0.0
 40
2.4
  0
LINE
  5
43F
330
43B
100
AcDbEntity
  8
7__7
  6
Continuous
 62
     3
100
AcDbLine
 10
2168.24703
 20
1237.573865
 30
0.0
 11
2095.99703
 21
1112.433194
 31
0.0
  0
TEXT
  5
440
330
43B
100
AcDbEntity
  8
7__7
  6
Continuous
 62
     3
100
AcDbText
 10
2115.059826
 20
1150.451004
 30
0.0
 40
15.0
  1
Ｒ３００ 以上
 50
60.000002
 41
0.662092
  7
BIGFONT
 72
     1
 11
2129.9569
 21
1176.253496
 31
0.0
100
AcDbText
  0
ENDBLK
  5
43D
330
43B
100
AcDbEntity
  8
0
100
AcDbBlockEnd
  0
BLOCK
  5
47C
330
47B
100
AcDbEntity
  8
0
100
AcDbBlockBegin
  2
DIM_10
 70
     0
 10
2037.946573
 20
1115.606584
 30
0.0
  3
DIM_10
  1

  0
CIRCLE
  5
47E
330
47B
100
AcDbEntity
  8
7__7
  6
Continuous
 62
     3
100
AcDbCircle
 10
1940.439285
 20
1115.606584
 30
0.0
 40
3.0
  0
CIRCLE
  5
47F
330
47B
100
AcDbEntity
  8
7__7
  6
Continuous
 62
     3
100
AcDbCircle
 10
1940.439285
 20
298.590098
 30
0.0
 40
3.0
  0
LINE
  5
480
330
47B
100
AcDbEntity
  8
7__7
  6
Continuous
 62
     3
100
AcDbLine
 10
1940.439285
 20
1115.606584
 30
0.0
 11
1940.439285
 21
298.590098
 31
0.0
  0
TEXT
  5
481
330
47B
100
AcDbEntity
  8
7__7
  6
Continuous
 62
     3
100
AcDbText
 10
1937.439201
 20
696.983153
 30
0.0
 40
15.0
  1
ＣＨ
 50
90.000003
 41
0.858268
  7
BIGFONT
 72
     1
 11
1937.4392
 21
707.098451
 31
0.0
100
AcDbText
  0
ENDBLK
  5
47D
330
47B
100
AcDbEntity
  8
0
100
AcDbBlockEnd
  0
BLOCK
  5
48D
330
48C
100
AcDbEntity
  8
0
100
AcDbBlockBegin
  2
DIM_11
 70
     0
 10
2151.328714
 20
676.734473
 30
0.0
  3
DIM_11
  1

  0
CIRCLE
  5
48F
330
48C
100
AcDbEntity
  8
7__7
  6
Continuous
 62
     3
100
AcDbCircle
 10
2001.337378
 20
676.734473
 30
0.0
 40
3.0
  0
CIRCLE
  5
490
330
48C
100
AcDbEntity
  8
7__7
  6
Continuous
 62
     3
100
AcDbCircle
 10
2001.337378
 20
298.590098
 30
0.0
 40
3.0
  0
LINE
  5
491
330
48C
100
AcDbEntity
  8
7__7
  6
Continuous
 62
     3
100
AcDbLine
 10
2001.337378
 20
676.734473
 30
0.0
 11
2001.337378
 21
298.590098
 31
0.0
  0
LINE
  5
492
330
48C
100
AcDbEntity
  8
7__7
  6
Continuous
 62
     3
100
AcDbLine
 10
2151.328714
 20
676.734473
 30
0.0
 11
1991.337378
 21
676.734473
 31
0.0
  0
TEXT
  5
493
330
48C
100
AcDbEntity
  8
7__7
  6
Continuous
 62
     3
100
AcDbText
 10
1998.33733
 20
460.994681
 30
0.0
 40
15.0
  1
約１２００
 50
90.0
 41
0.858268
  7
BIGFONT
 72
     1
 11
1998.33733
 21
487.662286
 31
0.0
100
AcDbText
  0
ENDBLK
  5
48E
330
48C
100
AcDbEntity
  8
0
100
AcDbBlockEnd
  0
BLOCK
  5
49C
330
49B
100
AcDbEntity
  8
0
100
AcDbBlockBegin
  2
DIM_12
 70
     0
 10
2218.382657
 20
810.984473
 30
0.0
  3
DIM_12
  1

  0
CIRCLE
  5
49E
330
49B
100
AcDbEntity
  8
7__7
  6
Continuous
 62
     3
100
AcDbCircle
 10
2128.032657
 20
810.984473
 30
0.0
 40
1.8
  0
CIRCLE
  5
49F
330
49B
100
AcDbEntity
  8
7__7
  6
Continuous
 62
     3
100
AcDbCircle
 10
2128.032657
 20
650.984473
 30
0.0
 40
1.8
  0
LINE
  5
4A0
330
49B
100
AcDbEntity
  8
7__7
  6
Continuous
 62
     3
100
AcDbLine
 10
2128.032657
 20
810.984473
 30
0.0
 11
2128.032657
 21
650.984473
 31
0.0
  0
LINE
  5
4A1
330
49B
100
AcDbEntity
  8
7__7
  6
Continuous
 62
     3
100
AcDbLine
 10
2218.382657
 20
810.984473
 30
0.0
 11
2127.532657
 21
810.984473
 31
0.0
  0
LINE
  5
4A2
330
49B
100
AcDbEntity
  8
7__7
  6
Continuous
 62
     3
100
AcDbLine
 10
2218.382657
 20
650.984473
 30
0.0
 11
2127.532657
 21
650.984473
 31
0.0
  0
TEXT
  5
4A3
330
49B
100
AcDbEntity
  8
7__7
  6
Continuous
 62
     3
100
AcDbText
 10
2125.838959
 20
723.602281
 30
0.0
 40
15.0
  1
３２０
 50
90.000003
 41
0.750092
  7
BIGFONT
100
AcDbText
  0
ENDBLK
  5
49D
330
49B
100
AcDbEntity
  8
0
100
AcDbBlockEnd
  0
BLOCK
  5
4A6
330
4A5
100
AcDbEntity
  8
0
100
AcDbBlockBegin
  2
DIM_13
 70
     0
 10
2263.198163
 20
655.984473
 30
0.0
  3
DIM_13
  1

  0
CIRCLE
  5
4A8
330
4A5
100
AcDbEntity
  8
7__7
  6
Continuous
 62
     3
100
AcDbCircle
 10
2319.916318
 20
655.984473
 30
0.0
 40
1.8
  0
CIRCLE
  5
4A9
330
4A5
100
AcDbEntity
  8
7__7
  6
Continuous
 62
     3
100
AcDbCircle
 10
2319.916318
 20
805.984473
 30
0.0
 40
1.8
  0
LINE
  5
4AA
330
4A5
100
AcDbEntity
  8
7__7
  6
Continuous
 62
     3
100
AcDbLine
 10
2319.916318
 20
655.984473
 30
0.0
 11
2319.916318
 21
805.984473
 31
0.0
  0
LINE
  5
4AB
330
4A5
100
AcDbEntity
  8
7__7
  6
Continuous
 62
     3
100
AcDbLine
 10
2263.198163
 20
655.984473
 30
0.0
 11
2324.916318
 21
655.984473
 31
0.0
  0
LINE
  5
4AC
330
4A5
100
AcDbEntity
  8
7__7
  6
Continuous
 62
     3
100
AcDbLine
 10
2263.198163
 20
805.984473
 30
0.0
 11
2324.916318
 21
805.984473
 31
0.0
  0
TEXT
  5
4AD
330
4A5
100
AcDbEntity
  8
7__7
  6
Continuous
 62
     3
100
AcDbText
 10
2318.371186
 20
713.885711
 30
0.0
 40
15.0
  1
３００
 50
90.000003
 41
0.750092
  7
BIGFONT
100
AcDbText
  0
ENDBLK
  5
4A7
330
4A5
100
AcDbEntity
  8
0
100
AcDbBlockEnd
  0
BLOCK
  5
4B0
330
4AF
100
AcDbEntity
  8
0
100
AcDbBlockBegin
  2
DIM_14
 70
     0
 10
2222.769123
 20
645.140583
 30
0.0
  3
DIM_14
  1

  0
CIRCLE
  5
4B2
330
4AF
100
AcDbEntity
  8
7__7
  6
Continuous
 62
     3
100
AcDbCircle
 10
2222.769123
 20
570.640583
 30
0.0
 40
1.8
  0
CIRCLE
  5
4B3
330
4AF
100
AcDbEntity
  8
7__7
  6
Continuous
 62
     3
100
AcDbCircle
 10
2225.269123
 20
570.640583
 30
0.0
 40
1.8
  0
LINE
  5
4B4
330
4AF
100
AcDbEntity
  8
7__7
  6
Continuous
 62
     3
100
AcDbLine
 10
2222.769123
 20
570.640583
 30
0.0
 11
2225.269123
 21
570.640583
 31
0.0
  0
LINE
  5
4B5
330
4AF
100
AcDbEntity
  8
7__7
  6
Continuous
 62
     3
100
AcDbLine
 10
2222.769123
 20
645.140583
 30
0.0
 11
2222.769123
 21
570.140583
 31
0.0
  0
TEXT
  5
4B6
330
4AF
100
AcDbEntity
  8
7__7
  6
Continuous
 62
     3
100
AcDbText
 10
2210.057563
 20
564.603425
 30
0.0
 40
15.0
  1
５
 41
0.858268
  7
BIGFONT
 72
     1
 11
2214.655426
 21
572.103425
 31
0.0
100
AcDbText
 73
     2
  0
ENDBLK
  5
4B1
330
4AF
100
AcDbEntity
  8
0
100
AcDbBlockEnd
  0
BLOCK
  5
4B9
330
4B8
100
AcDbEntity
  8
0
100
AcDbBlockBegin
  2
DIM_15
 70
     0
 10
2260.269123
 20
650.140583
 30
0.0
  3
DIM_15
  1

  0
CIRCLE
  5
4BB
330
4B8
100
AcDbEntity
  8
7__7
  6
Continuous
 62
     3
100
AcDbCircle
 10
2260.269123
 20
570.640583
 30
0.0
 40
1.8
  0
CIRCLE
  5
4BC
330
4B8
100
AcDbEntity
  8
7__7
  6
Continuous
 62
     3
100
AcDbCircle
 10
2225.269123
 20
570.640583
 30
0.0
 40
1.8
  0
LINE
  5
4BD
330
4B8
100
AcDbEntity
  8
7__7
  6
Continuous
 62
     3
100
AcDbLine
 10
2260.269123
 20
570.640583
 30
0.0
 11
2225.269123
 21
570.640583
 31
0.0
  0
LINE
  5
4BE
330
4B8
100
AcDbEntity
  8
7__7
  6
Continuous
 62
     3
100
AcDbLine
 10
2260.269123
 20
650.140583
 30
0.0
 11
2260.269123
 21
570.140583
 31
0.0
  0
TEXT
  5
4BF
330
4B8
100
AcDbEntity
  8
7__7
  6
Continuous
 62
     3
100
AcDbText
 10
2234.348075
 20
573.4817
 30
0.0
 40
15.0
  1
７０
 41
0.777136
  7
BIGFONT
100
AcDbText
  0
ENDBLK
  5
4BA
330
4B8
100
AcDbEntity
  8
0
100
AcDbBlockEnd
  0
BLOCK
  5
4C2
330
4C1
100
AcDbEntity
  8
0
100
AcDbBlockBegin
  2
DIM_16
 70
     0
 10
2354.222175
 20
647.763927
 30
0.0
  3
DIM_16
  1

  0
CIRCLE
  5
4C4
330
4C1
100
AcDbEntity
  8
7__7
  6
Continuous
 62
     3
100
AcDbCircle
 10
2354.222175
 20
575.984473
 30
0.0
 40
1.8
  0
CIRCLE
  5
4C5
330
4C1
100
AcDbEntity
  8
7__7
  6
Continuous
 62
     3
100
AcDbCircle
 10
2419.222175
 20
575.984473
 30
0.0
 40
1.8
  0
LINE
  5
4C6
330
4C1
100
AcDbEntity
  8
7__7
  6
Continuous
 62
     3
100
AcDbLine
 10
2354.222175
 20
575.984473
 30
0.0
 11
2419.222175
 21
575.984473
 31
0.0
  0
LINE
  5
4C7
330
4C1
100
AcDbEntity
  8
7__7
  6
Continuous
 62
     3
100
AcDbLine
 10
2354.222175
 20
647.763927
 30
0.0
 11
2354.222175
 21
570.984473
 31
0.0
  0
LINE
  5
4C8
330
4C1
100
AcDbEntity
  8
7__7
  6
Continuous
 62
     3
100
AcDbLine
 10
2419.222175
 20
647.763927
 30
0.0
 11
2419.222175
 21
570.984473
 31
0.0
  0
TEXT
  5
4C9
330
4C1
100
AcDbEntity
  8
7__7
  6
Continuous
 62
     3
100
AcDbText
 10
2368.327702
 20
576.882271
 30
0.0
 40
15.0
  1
１３０
 41
0.750092
  7
BIGFONT
100
AcDbText
  0
ENDBLK
  5
4C3
330
4C1
100
AcDbEntity
  8
0
100
AcDbBlockEnd
  0
BLOCK
  5
521
330
520
100
AcDbEntity
  8
0
100
AcDbBlockBegin
  2
DIM_17
 70
     0
 10
2359.222175
 20
813.328937
 30
0.0
  3
DIM_17
  1

  0
CIRCLE
  5
523
330
520
100
AcDbEntity
  8
7__7
  6
Continuous
 62
     3
100
AcDbCircle
 10
2359.222175
 20
887.560726
 30
0.0
 40
3.0
  0
CIRCLE
  5
524
330
520
100
AcDbEntity
  8
7__7
  6
Continuous
 62
     3
100
AcDbCircle
 10
2414.222175
 20
887.560726
 30
0.0
 40
3.0
  0
LINE
  5
525
330
520
100
AcDbEntity
  8
7__7
  6
Continuous
 62
     3
100
AcDbLine
 10
2359.222175
 20
887.560726
 30
0.0
 11
2414.222175
 21
887.560726
 31
0.0
  0
LINE
  5
526
330
520
100
AcDbEntity
  8
7__7
  6
Continuous
 62
     3
100
AcDbLine
 10
2359.222175
 20
813.328937
 30
0.0
 11
2359.222175
 21
892.560726
 31
0.0
  0
LINE
  5
527
330
520
100
AcDbEntity
  8
7__7
  6
Continuous
 62
     3
100
AcDbLine
 10
2414.222175
 20
812.55164
 30
0.0
 11
2414.222175
 21
892.560726
 31
0.0
  0
TEXT
  5
528
330
520
100
AcDbEntity
  8
7__7
  6
Continuous
 62
     3
100
AcDbText
 10
2381.038833
 20
894.724503
 30
0.0
 40
15.0
  1
１１０
 41
0.858268
 51
0.0
  7
BIGFONT
 72
     1
 11
2396.671566
 21
902.224503
 31
0.0
100
AcDbText
 73
     2
  0
ENDBLK
  5
522
330
520
100
AcDbEntity
  8
0
100
AcDbBlockEnd
  0
BLOCK
  5
52B
330
52A
100
AcDbEntity
  8
0
100
AcDbBlockBegin
  2
DIM_18
 70
     0
 10
2359.222175
 20
849.084563
 30
0.0
  3
DIM_18
  1

  0
CIRCLE
  5
52D
330
52A
100
AcDbEntity
  8
7__7
  6
Continuous
 62
     3
100
AcDbCircle
 10
2359.222175
 20
848.307267
 30
0.0
 40
3.0
  0
CIRCLE
  5
52E
330
52A
100
AcDbEntity
  8
7__7
  6
Continuous
 62
     3
100
AcDbCircle
 10
2371.722175
 20
848.307267
 30
0.0
 40
3.0
  0
LINE
  5
52F
330
52A
100
AcDbEntity
  8
7__7
  6
Continuous
 62
     3
100
AcDbLine
 10
2359.222175
 20
848.307267
 30
0.0
 11
2371.722175
 21
848.307267
 31
0.0
  0
LINE
  5
530
330
52A
100
AcDbEntity
  8
7__7
  6
Continuous
 62
     3
100
AcDbLine
 10
2359.222175
 20
849.084563
 30
0.0
 11
2359.222175
 21
843.307267
 31
0.0
  0
LINE
  5
531
330
52A
100
AcDbEntity
  8
7__7
  6
Continuous
 62
     3
100
AcDbLine
 10
2371.722175
 20
849.084563
 30
0.0
 11
2371.722175
 21
843.307267
 31
0.0
  0
TEXT
  5
532
330
52A
100
AcDbEntity
  8
7__7
  6
Continuous
 62
     3
100
AcDbText
 10
2335.147176
 20
843.345223
 30
0.0
 40
15.0
  1
２５
 41
0.858268
 51
0.0
  7
BIGFONT
 72
     1
 11
2345.262474
 21
850.845223
 31
0.0
100
AcDbText
 73
     2
  0
ENDBLK
  5
52C
330
52A
100
AcDbEntity
  8
0
100
AcDbBlockEnd
  0
BLOCK
  5
53E
330
53D
100
AcDbEntity
  8
0
100
AcDbBlockBegin
  2
DIM_19
 70
     0
 10
2246.269123
 20
867.388313
 30
0.0
  3
DIM_19
  1

  0
CIRCLE
  5
540
330
53D
100
AcDbEntity
  8
7__7
  6
Continuous
 62
     3
100
AcDbCircle
 10
2246.269123
 20
863.035458
 30
0.0
 40
3.0
  0
CIRCLE
  5
541
330
53D
100
AcDbEntity
  8
7__7
  6
Continuous
 62
     3
100
AcDbCircle
 10
2260.269123
 20
863.035458
 30
0.0
 40
3.0
  0
LINE
  5
542
330
53D
100
AcDbEntity
  8
7__7
  6
Continuous
 62
     3
100
AcDbLine
 10
2246.269123
 20
863.035458
 30
0.0
 11
2260.269123
 21
863.035458
 31
0.0
  0
LINE
  5
543
330
53D
100
AcDbEntity
  8
7__7
  6
Continuous
 62
     3
100
AcDbLine
 10
2246.269123
 20
867.388313
 30
0.0
 11
2246.269123
 21
858.035458
 31
0.0
  0
LINE
  5
544
330
53D
100
AcDbEntity
  8
7__7
  6
Continuous
 62
     3
100
AcDbLine
 10
2260.269123
 20
810.490281
 30
0.0
 11
2260.269123
 21
868.035458
 31
0.0
  0
TEXT
  5
545
330
53D
100
AcDbEntity
  8
7__7
  6
Continuous
 62
     3
100
AcDbText
 10
2254.035961
 20
868.255992
 30
0.0
 40
15.0
  1
２８
 41
0.858268
 51
0.0
  7
BIGFONT
 72
     1
 11
2264.151259
 21
875.755992
 31
0.0
100
AcDbText
 73
     2
  0
ENDBLK
  5
53F
330
53D
100
AcDbEntity
  8
0
100
AcDbBlockEnd
  0
BLOCK
  5
5E6
330
5E5
100
AcDbEntity
  8
0
100
AcDbBlockBegin
  2
DIM_20
 70
     0
 10
428.757129
 20
185.487945
 30
0.0
  3
DIM_20
  1

  0
CIRCLE
  5
5E8
330
5E5
100
AcDbEntity
  8
7__7
  6
Continuous
 62
     3
100
AcDbCircle
 10
428.757129
 20
183.739025
 30
0.0
 40
3.0
  0
CIRCLE
  5
5E9
330
5E5
100
AcDbEntity
  8
7__7
  6
Continuous
 62
     3
100
AcDbCircle
 10
488.757129
 20
183.739025
 30
0.0
 40
3.0
  0
LINE
  5
5EA
330
5E5
100
AcDbEntity
  8
7__7
  6
Continuous
 62
     3
100
AcDbLine
 10
428.757129
 20
183.739025
 30
0.0
 11
488.757129
 21
183.739025
 31
0.0
  0
LINE
  5
5EB
330
5E5
100
AcDbEntity
  8
7__7
  6
Continuous
 62
     3
100
AcDbLine
 10
428.757129
 20
185.487945
 30
0.0
 11
428.757129
 21
177.739025
 31
0.0
  0
LINE
  5
5EC
330
5E5
100
AcDbEntity
  8
7__7
  6
Continuous
 62
     3
100
AcDbLine
 10
488.757129
 20
185.487945
 30
0.0
 11
488.757129
 21
177.739025
 31
0.0
  0
TEXT
  5
5ED
330
5E5
100
AcDbEntity
  8
7__7
  6
Continuous
 62
     3
100
AcDbText
 10
446.618772
 20
186.739025
 30
0.0
 40
18.0
  1
６０
 41
0.858268
 51
0.0
  7
BIGFONT
 72
     1
 11
458.757129
 21
186.739025
 31
0.0
100
AcDbText
  0
ENDBLK
  5
5E7
330
5E5
100
AcDbEntity
  8
0
100
AcDbBlockEnd
  0
BLOCK
  5
608
330
607
100
AcDbEntity
  8
0
100
AcDbBlockBegin
  2
DIM_21
 70
     0
 10
428.757129
 20
231.224993
 30
0.0
  3
DIM_21
  1

  0
CIRCLE
  5
60A
330
607
100
AcDbEntity
  8
7__7
  6
Continuous
 62
     3
100
AcDbCircle
 10
428.757129
 20
219.838794
 30
0.0
 40
3.0
  0
CIRCLE
  5
60B
330
607
100
AcDbEntity
  8
7__7
  6
Continuous
 62
     3
100
AcDbCircle
 10
1398.757129
 20
219.838794
 30
0.0
 40
3.0
  0
LINE
  5
60C
330
607
100
AcDbEntity
  8
7__7
  6
Continuous
 62
     3
100
AcDbLine
 10
428.757129
 20
219.838794
 30
0.0
 11
1398.757129
 21
219.838794
 31
0.0
  0
LINE
  5
60D
330
607
100
AcDbEntity
  8
7__7
  6
Continuous
 62
     3
100
AcDbLine
 10
428.757129
 20
231.224993
 30
0.0
 11
428.757129
 21
213.838794
 31
0.0
  0
LINE
  5
60E
330
607
100
AcDbEntity
  8
7__7
  6
Continuous
 62
     3
100
AcDbLine
 10
1398.757129
 20
225.531894
 30
0.0
 11
1398.757129
 21
213.838794
 31
0.0
  0
TEXT
  5
60F
330
607
100
AcDbEntity
  8
7__7
  6
Continuous
 62
     3
100
AcDbText
 10
895.539151
 20
222.838794
 30
0.0
 40
18.0
  1
Ｊ　躯体内径
 41
0.858268
  7
BIGFONT
 72
     1
 11
934.161198
 21
231.838794
 31
0.0
100
AcDbText
 73
     2
  0
ENDBLK
  5
609
330
607
100
AcDbEntity
  8
0
100
AcDbBlockEnd
  0
ENDSEC
  0
SECTION
  2
ENTITIES
  0
LINE
  5
4F
330
1F
100
AcDbEntity
  8
1__1
  6
PLine2
 62
     3
100
AcDbLine
 10
913.757129
 20
797.453898
 30
0.0
 11
913.757129
 21
386.931007
 31
0.0
  0
LINE
  5
50
330
1F
100
AcDbEntity
  8
1__1
  6
PLine2
 62
     3
100
AcDbLine
 10
500.784649
 20
619.279302
 30
0.0
 11
500.784649
 21
543.169321
 31
0.0
  0
LINE
  5
51
330
1F
100
AcDbEntity
  8
1__1
  6
Continuous
 62
     3
100
AcDbLine
 10
500.757129
 20
693.172552
 30
0.0
 11
415.257129
 21
693.172552
 31
0.0
  0
LINE
  5
52
330
1F
100
AcDbEntity
  8
1__1
  6
Continuous
 62
     3
100
AcDbLine
 10
1326.757129
 20
693.173392
 30
0.0
 11
1412.257129
 21
693.173392
 31
0.0
  0
LINE
  5
53
330
1F
100
AcDbEntity
  8
1__1
  6
PLine1
 62
     3
100
AcDbLine
 10
796.70342
 20
1380.938788
 30
0.0
 11
839.454125
 21
1454.983553
 31
0.0
  0
LINE
  5
54
330
1F
100
AcDbEntity
  8
1__1
  6
PLine1
 62
     3
100
AcDbLine
 10
391.445155
 20
679.240286
 30
0.0
 11
340.853252
 21
591.614466
 31
0.0
  0
TEXT
  5
57
330
1F
100
AcDbEntity
  8
3__3
  6
Continuous
 62
     3
100
AcDbText
 10
891.730379
 20
321.134708
 30
0.0
 40
18.0
  1
Ｓ
 41
0.858268
  7
BIGFONT
 72
     1
 11
897.247815
 21
321.134708
 31
0.0
100
AcDbText
  0
TEXT
  5
7A
330
1F
100
AcDbEntity
  8
3__3
  6
Continuous
 62
     3
100
AcDbText
 10
889.654077
 20
126.979628
 30
0.0
 40
18.0
  1
Ｗ
 41
0.858268
  7
BIGFONT
 72
     1
 11
895.171512
 21
126.979628
 31
0.0
100
AcDbText
  0
TEXT
  5
7B
330
1F
100
AcDbEntity
  8
3__3
  6
Continuous
 62
     3
100
AcDbText
 10
862.740202
 20
933.622321
 30
0.0
 40
18.0
  1
Ａ
 41
0.858268
  7
BIGFONT
 72
     1
 11
868.257637
 21
933.622321
 31
0.0
100
AcDbText
  0
LINE
  5
7C
330
1F
100
AcDbEntity
  8
3__3
  6
Continuous
 62
     3
100
AcDbLine
 10
868.292217
 20
344.167038
 30
0.0
 11
868.292217
 21
334.147439
 31
0.0
  0
LINE
  5
7D
330
1F
100
AcDbEntity
  8
3__3
  6
Continuous
 62
     3
100
AcDbLine
 10
868.292217
 20
334.147439
 30
0.0
 11
878.311817
 21
334.147439
 31
0.0
  0
LINE
  5
7E
330
1F
100
AcDbEntity
  8
3__3
  6
Continuous
 62
     3
100
AcDbLine
 10
878.311817
 20
334.147439
 30
0.0
 11
878.311817
 21
344.167038
 31
0.0
  0
LINE
  5
7F
330
1F
100
AcDbEntity
  8
3__3
  6
Continuous
 62
     3
100
AcDbLine
 10
878.311817
 20
344.167038
 30
0.0
 11
868.292217
 21
344.167038
 31
0.0
  0
LINE
  5
80
330
1F
100
AcDbEntity
  8
3__3
  6
Continuous
 62
     3
100
AcDbLine
 10
864.545966
 20
152.91652
 30
0.0
 11
864.545966
 21
142.896921
 31
0.0
  0
LINE
  5
81
330
1F
100
AcDbEntity
  8
3__3
  6
Continuous
 62
     3
100
AcDbLine
 10
864.545966
 20
142.896921
 30
0.0
 11
874.565565
 21
142.896921
 31
0.0
  0
LINE
  5
82
330
1F
100
AcDbEntity
  8
3__3
  6
Continuous
 62
     3
100
AcDbLine
 10
874.565565
 20
142.896921
 30
0.0
 11
874.565565
 21
152.91652
 31
0.0
  0
LINE
  5
83
330
1F
100
AcDbEntity
  8
3__3
  6
Continuous
 62
     3
100
AcDbLine
 10
874.565565
 20
152.91652
 30
0.0
 11
864.545966
 21
152.91652
 31
0.0
  0
TEXT
  5
84
330
1F
100
AcDbEntity
  8
3__3
  6
Continuous
 62
     3
100
AcDbText
 10
882.440437
 20
933.687049
 30
0.0
 40
18.0
  1
ドア部外径
 41
0.858268
  7
BIGFONT
100
AcDbText
  0
TEXT
  5
85
330
1F
100
AcDbEntity
  8
3__3
  6
Continuous
 62
     3
100
AcDbText
 10
918.551223
 20
322.161608
 30
0.0
 40
18.0
  1
有効開口
 41
0.858268
  7
BIGFONT
100
AcDbText
  0
TEXT
  5
86
330
1F
100
AcDbEntity
  8
3__3
  6
Continuous
 62
     3
100
AcDbText
 10
917.75418
 20
126.19841
 30
0.0
 40
18.0
  1
ヘ゛ース外径
 41
0.858268
  7
BIGFONT
100
AcDbText
  0
TEXT
  5
87
330
1F
100
AcDbEntity
  8
3__3
  6
Continuous
 62
     3
100
AcDbText
 10
605.742895
 20
777.234457
 30
0.0
 40
18.0
  1
開閉角度　６０°
 41
0.858268
  7
BIGFONT
100
AcDbText
  0
ARC
  5
89
330
1F
100
AcDbEntity
  8
5__5
  6
Continuous
 62
     6
100
AcDbCircle
 10
431.201432
 20
653.172943
 30
0.0
 40
2.999880000000001
100
AcDbArc
 50
0.0
 51
90.0
  0
ARC
  5
8A
330
1F
100
AcDbEntity
  8
5__5
  6
Continuous
 62
     6
100
AcDbCircle
 10
431.200432
 20
645.74323
 30
0.0
 40
2.999880000000001
100
AcDbArc
 50
300.266052
 51
0.0
  0
ARC
  5
8B
330
1F
100
AcDbEntity
  8
5__5
  6
Continuous
 62
     6
100
AcDbCircle
 10
431.200432
 20
634.345686
 30
0.0
 40
2.999880000000001
100
AcDbArc
 50
358.675924
 51
50.80331
  0
ARC
  5
8C
330
1F
100
AcDbEntity
  8
5__5
  6
Continuous
 62
     6
100
AcDbCircle
 10
431.201432
 20
634.172433
 30
0.0
 40
2.999880000000001
100
AcDbArc
 50
270.0
 51
1.985455
  0
ARC
  5
8D
330
1F
100
AcDbEntity
  8
5__5
  6
Continuous
 62
     6
100
AcDbCircle
 10
427.900564
 20
640.839426
 30
0.0
 40
2.999880000000001
100
AcDbArc
 50
117.197182
 51
180.0
  0
ARC
  5
8E
330
1F
100
AcDbEntity
  8
5__5
  6
Continuous
 62
     6
100
AcDbCircle
 10
427.901564
 20
640.48044
 30
0.0
 40
2.999880000000001
100
AcDbArc
 50
180.0
 51
230.35582
  0
LINE
  5
8F
330
1F
100
AcDbEntity
  8
5__5
  6
Continuous
 62
     6
100
AcDbLine
 10
415.257129
 20
656.1718
 30
0.0
 11
431.201432
 21
656.172823
 31
0.0
  0
LINE
  5
90
330
1F
100
AcDbEntity
  8
5__5
  6
Continuous
 62
     6
100
AcDbLine
 10
434.201312
 20
653.172943
 30
0.0
 11
434.200312
 21
645.74323
 31
0.0
  0
LINE
  5
91
330
1F
100
AcDbEntity
  8
5__5
  6
Continuous
 62
     6
100
AcDbLine
 10
432.712372
 20
643.152334
 30
0.0
 11
429.120765
 21
641.057229
 31
0.0
  0
LINE
  5
92
330
1F
100
AcDbEntity
  8
5__5
  6
Continuous
 62
     6
100
AcDbLine
 10
433.096357
 20
636.670593
 30
0.0
 11
430.096187
 21
639.1432
 31
0.0
  0
LINE
  5
93
330
1F
100
AcDbEntity
  8
5__5
  6
Continuous
 62
     3
100
AcDbLine
 10
430.096187
 20
639.1432
 30
0.0
 11
429.120765
 21
641.057229
 31
0.0
  0
LINE
  5
94
330
1F
100
AcDbEntity
  8
5__5
  6
Continuous
 62
     6
100
AcDbLine
 10
415.657053
 20
631.172553
 30
0.0
 11
431.201432
 21
631.172553
 31
0.0
  0
LINE
  5
95
330
1F
100
AcDbEntity
  8
5__5
  6
Continuous
 62
     6
100
AcDbLine
 10
430.151474
 20
652.272979
 30
0.0
 11
430.151474
 21
645.369245
 31
0.0
  0
LINE
  5
96
330
1F
100
AcDbEntity
  8
5__5
  6
Continuous
 62
     6
100
AcDbLine
 10
430.151474
 20
645.369245
 30
0.0
 11
426.529619
 21
643.507319
 31
0.0
  0
LINE
  5
97
330
1F
100
AcDbEntity
  8
5__5
  6
Continuous
 62
     6
100
AcDbLine
 10
430.151474
 20
652.272979
 30
0.0
 11
419.651894
 21
652.272979
 31
0.0
  0
LINE
  5
98
330
1F
100
AcDbEntity
  8
5__5
  6
Continuous
 62
     6
100
AcDbLine
 10
424.900684
 20
640.839426
 30
0.0
 11
424.901684
 21
640.48044
 31
0.0
  0
LINE
  5
99
330
1F
100
AcDbEntity
  8
5__5
  6
Continuous
 62
     6
100
AcDbLine
 10
425.987641
 20
638.170533
 30
0.0
 11
428.241219
 21
636.083425
 31
0.0
  0
ARC
  5
9A
330
1F
100
AcDbEntity
  8
5__5
  6
Continuous
 62
     6
100
AcDbCircle
 10
1391.693992
 20
652.146241
 30
0.0
 40
1.0
100
AcDbArc
 50
180.0
 51
310.244823
  0
LINE
  5
9B
330
1F
100
AcDbEntity
  8
5__5
  6
Continuous
 62
     6
100
AcDbLine
 10
1395.663422
 20
652.20008
 30
0.0
 11
1392.340047
 21
651.38295
 31
0.0
  0
ARC
  5
9C
330
1F
100
AcDbEntity
  8
5__5
  6
Continuous
 62
     6
100
AcDbCircle
 10
1397.600184
 20
649.909178
 30
0.0
 40
2.999880000000001
100
AcDbArc
 50
57.692902
 51
130.21167
  0
ARC
  5
9D
330
1F
100
AcDbEntity
  8
5__5
  6
Continuous
 62
     6
100
AcDbCircle
 10
1412.992159
 20
647.931142
 30
0.0
 40
1.99992
100
AcDbArc
 50
270.0
 51
8.4826
  0
ARC
  5
9E
330
1F
100
AcDbEntity
  8
5__5
  6
Continuous
 62
     6
100
AcDbCircle
 10
1392.693912
 20
658.559717
 30
0.0
 40
1.99992
100
AcDbArc
 50
90.0
 51
180.0
  0
LINE
  5
9F
330
1F
100
AcDbEntity
  8
5__5
  6
Continuous
 62
     6
100
AcDbLine
 10
1387.257129
 20
649.960061
 30
0.0
 11
1387.228762
 21
647.960989
 31
0.0
  0
ARC
  5
A0
330
1F
100
AcDbEntity
  8
5__5
  6
Continuous
 62
     6
100
AcDbCircle
 10
1389.228561
 20
647.932611
 30
0.0
 40
2.0
100
AcDbArc
 50
179.187009
 51
269.97787
  0
LINE
  5
A1
330
1F
100
AcDbEntity
  8
5__5
  6
Continuous
 62
     6
100
AcDbLine
 10
1389.227788
 20
645.932612
 30
0.0
 11
1392.093721
 21
645.931505
 31
0.0
  0
LINE
  5
A2
330
1F
100
AcDbEntity
  8
5__5
  6
Continuous
 62
     6
100
AcDbLine
 10
1387.257129
 20
663.672513
 30
0.0
 11
1387.257129
 21
649.674073
 31
0.0
  0
LINE
  5
A3
330
1F
100
AcDbEntity
  8
5__5
  6
Continuous
 62
     6
100
AcDbLine
 10
1392.693912
 20
660.559637
 30
0.0
 11
1407.348385
 21
660.558637
 31
0.0
  0
ARC
  5
A4
330
1F
100
AcDbEntity
  8
5__5
  6
Continuous
 62
     6
100
AcDbCircle
 10
1402.38049
 20
646.932333
 30
0.0
 40
1.0
100
AcDbArc
 50
240.774358
 51
269.994002
  0
LINE
  5
A5
330
1F
100
AcDbEntity
  8
5__5
  6
Continuous
 62
     6
100
AcDbLine
 10
1398.934776
 20
647.714238
 30
0.0
 11
1401.89224
 21
646.05963
 31
0.0
  0
LINE
  5
A6
330
1F
100
AcDbEntity
  8
5__5
  6
Continuous
 62
     6
100
AcDbLine
 10
1412.992159
 20
645.931222
 30
0.0
 11
1402.380385
 21
645.932333
 31
0.0
  0
LINE
  5
A7
330
1F
100
AcDbEntity
  8
5__5
  6
Continuous
 62
     6
100
AcDbLine
 10
1403.312956
 20
649.848181
 30
0.0
 11
1399.20312
 21
652.444077
 31
0.0
  0
ARC
  5
A8
330
1F
100
AcDbEntity
  8
5__5
  6
Continuous
 62
     6
100
AcDbCircle
 10
1410.449474
 20
650.84978
 30
0.0
 40
1.0
100
AcDbArc
 50
270.008589
 51
9.110101
  0
LINE
  5
A9
330
1F
100
AcDbEntity
  8
5__5
  6
Continuous
 62
     6
100
AcDbLine
 10
1403.312118
 20
649.84871
 30
0.0
 11
1410.449624
 21
649.84978
 31
0.0
  0
LINE
  5
AA
330
1F
100
AcDbEntity
  8
5__5
  6
Continuous
 62
     6
100
AcDbLine
 10
1410.310266
 20
658.033738
 30
0.0
 11
1411.43686
 21
651.008112
 31
0.0
  0
LINE
  5
AB
330
1F
100
AcDbEntity
  8
5__5
  6
Continuous
 62
     6
100
AcDbLine
 10
1390.693992
 20
658.559717
 30
0.0
 11
1390.693992
 21
652.146241
 31
0.0
  0
LINE
  5
AC
330
1F
100
AcDbEntity
  8
5__5
  6
Continuous
 62
     6
100
AcDbLine
 10
419.650894
 20
635.198392
 30
0.0
 11
419.651894
 21
652.272979
 31
0.0
  0
ARC
  5
AD
330
1F
100
AcDbEntity
  8
5__5
  6
Continuous
 62
     6
100
AcDbCircle
 10
427.922237
 20
635.698392
 30
0.0
 40
0.5
100
AcDbArc
 50
270.0
 51
50.359887
  0
LINE
  5
AE
330
1F
100
AcDbEntity
  8
5__5
  6
Continuous
 62
     6
100
AcDbLine
 10
419.650894
 20
635.198392
 30
0.0
 11
427.922237
 21
635.198392
 31
0.0
  0
ARC
  5
AF
330
1F
100
AcDbEntity
  8
5__5
  6
Continuous
 62
     6
100
AcDbCircle
 10
1407.348385
 20
657.558757
 30
0.0
 40
2.999880000000001
100
AcDbArc
 50
9.110645
 51
90.0
  0
LINE
  5
B1
330
1F
100
AcDbEntity
  8
6__6
  6
PLine2
 62
     3
100
AcDbLine
 10
439.338107
 20
577.956898
 30
0.0
 11
544.332907
 21
577.957898
 31
0.0
  0
LINE
  5
B2
330
1F
100
AcDbEntity
  8
6__6
  6
PLine2
 62
     3
100
AcDbLine
 10
466.00804
 20
586.756546
 30
0.0
 11
466.00804
 21
554.517836
 31
0.0
  0
LINE
  5
B3
330
1F
100
AcDbEntity
  8
6__6
  6
PLine2
 62
     3
100
AcDbLine
 10
466.00804
 20
586.756546
 30
0.0
 11
466.00704
 21
596.923139
 31
0.0
  0
LINE
  5
B4
330
1F
100
AcDbEntity
  8
6__6
  6
Continuous
 62
     3
100
AcDbLine
 10
465.991041
 20
596.814144
 30
0.0
 11
465.991041
 21
600.593993
 31
0.0
  0
LINE
  5
B6
330
1F
100
AcDbEntity
  8
7__7
  6
Continuous
 62
     6
100
AcDbLine
 10
1343.757129
 20
711.472504
 30
0.0
 11
483.757129
 21
711.472504
 31
0.0
  0
LINE
  5
B7
330
1F
100
AcDbEntity
  8
7__7
  6
Continuous
 62
     6
100
AcDbLine
 10
1347.257129
 20
716.472504
 30
0.0
 11
480.257129
 21
716.472504
 31
0.0
  0
LINE
  5
B8
330
1F
100
AcDbEntity
  8
7__7
  6
Continuous
 62
     6
100
AcDbLine
 10
498.757129
 20
711.472504
 30
0.0
 11
498.757129
 21
705.472504
 31
0.0
  0
LINE
  5
B9
330
1F
100
AcDbEntity
  8
7__7
  6
Continuous
 62
     6
100
AcDbLine
 10
498.757129
 20
705.472504
 30
0.0
 11
483.757129
 21
711.472504
 31
0.0
  0
LINE
  5
BA
330
1F
100
AcDbEntity
  8
7__7
  6
Continuous
 62
     6
100
AcDbLine
 10
483.757129
 20
705.472504
 30
0.0
 11
498.757129
 21
711.472504
 31
0.0
  0
LINE
  5
BB
330
1F
100
AcDbEntity
  8
7__7
  6
Continuous
 62
     6
100
AcDbLine
 10
1328.757129
 20
711.472504
 30
0.0
 11
1328.757129
 21
705.472504
 31
0.0
  0
LINE
  5
BC
330
1F
100
AcDbEntity
  8
7__7
  6
Continuous
 62
     6
100
AcDbLine
 10
1328.757129
 20
705.472504
 30
0.0
 11
1343.757129
 21
711.472504
 31
0.0
  0
LINE
  5
BD
330
1F
100
AcDbEntity
  8
7__7
  6
Continuous
 62
     6
100
AcDbLine
 10
1343.757129
 20
705.472504
 30
0.0
 11
1328.757129
 21
711.472504
 31
0.0
  0
LINE
  5
BE
330
1F
100
AcDbEntity
  8
7__7
  6
PLine1
 62
     3
100
AcDbLine
 10
789.262745
 20
1404.864709
 30
0.0
 11
479.212705
 21
867.854099
 31
0.0
  0
LINE
  5
BF
330
1F
100
AcDbEntity
  8
7__7
  6
PLine1
 62
     3
100
AcDbLine
 10
474.882602
 20
870.35414
 30
0.0
 11
784.932618
 21
1407.364709
 31
0.0
  0
LINE
  5
C0
330
1F
100
AcDbEntity
  8
7__7
  6
PLine1
 62
     3
100
AcDbLine
 10
781.762621
 20
1391.8744
 30
0.0
 11
786.958774
 21
1388.8744
 31
0.0
  0
LINE
  5
C1
330
1F
100
AcDbEntity
  8
7__7
  6
PLine1
 62
     3
100
AcDbLine
 10
359.255226
 20
660.086219
 30
0.0
 11
451.117112
 21
819.192174
 31
0.0
  0
LINE
  5
C2
330
1F
100
AcDbEntity
  8
7__7
  6
PLine1
 62
     3
100
AcDbLine
 10
353.17557
 20
659.556013
 30
0.0
 11
446.787009
 21
821.692215
 31
0.0
  0
LINE
  5
C3
330
1F
100
AcDbEntity
  8
7__7
  6
PLine1
 62
     3
100
AcDbLine
 10
366.75535
 20
673.076529
 30
0.0
 11
371.951502
 21
670.076529
 31
0.0
  0
ARC
  5
C4
330
1F
100
AcDbEntity
  8
7__7
  6
Continuous
 62
     3
100
AcDbCircle
 10
443.337947
 20
646.958793
 30
0.0
 40
0.9999600000000002
100
AcDbArc
 50
0.0
 51
120.000725
  0
ARC
  5
C5
330
1F
100
AcDbEntity
  8
7__7
  6
Continuous
 62
     3
100
AcDbCircle
 10
443.337947
 20
625.674033
 30
0.0
 40
0.9999600000000002
100
AcDbArc
 50
270.0
 51
0.0
  0
LINE
  5
C6
330
1F
100
AcDbEntity
  8
7__7
  6
Continuous
 62
     6
100
AcDbLine
 10
429.186473
 20
640.927229
 30
0.0
 11
430.096187
 21
639.1432
 31
0.0
  0
LINE
  5
C7
330
1F
100
AcDbEntity
  8
7__7
  6
Continuous
 62
     3
100
AcDbLine
 10
442.337987
 20
645.2269
 30
0.0
 11
430.096187
 21
639.1432
 31
0.0
  0
LINE
  5
C8
330
1F
100
AcDbEntity
  8
7__7
  6
Continuous
 62
     3
100
AcDbLine
 10
429.186473
 20
640.927229
 30
0.0
 11
442.837946
 21
647.824746
 31
0.0
  0
LINE
  5
C9
330
1F
100
AcDbEntity
  8
7__7
  6
Continuous
 62
     3
100
AcDbLine
 10
442.337987
 20
626.673993
 30
0.0
 11
429.75721
 21
626.675013
 31
0.0
  0
LINE
  5
CA
330
1F
100
AcDbEntity
  8
7__7
  6
Continuous
 62
     3
100
AcDbLine
 10
442.337987
 20
626.673993
 30
0.0
 11
442.337987
 21
645.2269
 31
0.0
  0
ARC
  5
CB
330
1F
100
AcDbEntity
  8
7__7
  6
Continuous
 62
     3
100
AcDbCircle
 10
429.757129
 20
625.675013
 30
0.0
 40
1.0
100
AcDbArc
 50
89.995353
 51
180.0
  0
LINE
  5
CC
330
1F
100
AcDbEntity
  8
7__7
  6
Continuous
 62
     3
100
AcDbLine
 10
428.757129
 20
482.958698
 30
0.0
 11
428.757129
 21
625.675013
 31
0.0
  0
LINE
  5
CD
330
1F
100
AcDbEntity
  8
7__7
  6
Continuous
 62
     3
100
AcDbLine
 10
443.337947
 20
624.674073
 30
0.0
 11
430.757049
 21
624.675088
 31
0.0
  0
ARC
  5
CE
330
1F
100
AcDbEntity
  8
7__7
  6
Continuous
 62
     3
100
AcDbCircle
 10
443.337907
 20
646.958698
 30
0.0
 40
1.0
100
AcDbArc
 50
0.0
 51
119.997435
  0
LINE
  5
CF
330
1F
100
AcDbEntity
  8
7__7
  6
Continuous
 62
     3
100
AcDbLine
 10
444.337907
 20
646.958698
 30
0.0
 11
444.337907
 21
615.301384
 31
0.0
  0
LINE
  5
D0
330
1F
100
AcDbEntity
  8
7__7
  6
Continuous
 62
     3
100
AcDbLine
 10
430.757049
 20
481.886238
 30
0.0
 11
430.757049
 21
624.675088
 31
0.0
  0
ARC
  5
D1
330
1F
100
AcDbEntity
  8
7__7
  6
Continuous
 62
     3
100
AcDbCircle
 10
502.757129
 20
665.672572
 30
0.0
 40
1.0
100
AcDbArc
 50
269.999403
 51
0.0
  0
CIRCLE
  5
D2
330
1F
100
AcDbEntity
  8
7__7
  6
Continuous
 62
     3
100
AcDbCircle
 10
500.720652
 20
577.828903
 30
0.0
 40
29.9988
  0
LINE
  5
D3
330
1F
100
AcDbEntity
  8
7__7
  6
Continuous
 62
     3
100
AcDbLine
 10
1405.943222
 20
641.077423
 30
0.0
 11
1406.943701
 21
642.810249
 31
0.0
  0
LINE
  5
D4
330
1F
100
AcDbEntity
  8
7__7
  6
Continuous
 62
     3
100
AcDbLine
 10
1405.943222
 20
641.077423
 30
0.0
 11
1398.757129
 21
645.226369
 31
0.0
  0
LINE
  5
D5
330
1F
100
AcDbEntity
  8
7__7
  6
Continuous
 62
     3
100
AcDbLine
 10
493.757129
 20
479.961818
 30
0.0
 11
493.757129
 21
466.943339
 31
0.0
  0
ARC
  5
D6
330
1F
100
AcDbEntity
  8
7__7
  6
Continuous
 62
     3
100
AcDbCircle
 10
431.507049
 20
532.208696
 30
0.0
 40
0.75
100
AcDbArc
 50
180.0
 51
270.001199
  0
LINE
  5
D7
330
1F
100
AcDbEntity
  8
7__7
  6
Continuous
 62
     3
100
AcDbLine
 10
479.257049
 20
531.459696
 30
0.0
 11
431.507065
 21
531.458696
 31
0.0
  0
LINE
  5
D8
330
1F
100
AcDbEntity
  8
7__7
  6
Continuous
 62
     3
100
AcDbLine
 10
464.056118
 20
502.796905
 30
0.0
 11
493.77093
 21
502.796905
 31
0.0
  0
LINE
  5
D9
330
1F
100
AcDbEntity
  8
7__7
  6
Continuous
 62
     3
100
AcDbLine
 10
493.77093
 20
502.796905
 30
0.0
 11
493.76993
 21
492.240327
 31
0.0
  0
LINE
  5
DA
330
1F
100
AcDbEntity
  8
7__7
  6
Continuous
 62
     3
100
AcDbLine
 10
493.76993
 20
492.240327
 30
0.0
 11
463.665134
 21
492.240327
 31
0.0
  0
LINE
  5
DB
330
1F
100
AcDbEntity
  8
7__7
  6
Continuous
 62
     3
100
AcDbLine
 10
493.757129
 20
479.961818
 30
0.0
 11
492.257129
 21
479.961818
 31
0.0
  0
LINE
  5
DC
330
1F
100
AcDbEntity
  8
7__7
  6
Continuous
 62
     3
100
AcDbLine
 10
493.757129
 20
479.961818
 30
0.0
 11
493.757129
 21
465.962418
 31
0.0
  0
LINE
  5
DD
330
1F
100
AcDbEntity
  8
7__7
  6
Continuous
 62
     3
100
AcDbLine
 10
432.257049
 20
552.959289
 30
0.0
 11
432.257049
 21
532.958699
 31
0.0
  0
LINE
  5
DE
330
1F
100
AcDbEntity
  8
7__7
  6
Continuous
 62
     3
100
AcDbLine
 10
493.76993
 20
502.40592
 30
0.0
 11
493.76993
 21
492.240327
 31
0.0
  0
LINE
  5
DF
330
1F
100
AcDbEntity
  8
7__7
  6
Continuous
 62
     3
100
AcDbLine
 10
474.178228
 20
563.849356
 30
0.0
 11
524.222179
 21
452.728141
 31
0.0
  0
LINE
  5
E0
330
1F
100
AcDbEntity
  8
7__7
  6
Continuous
 62
     3
100
AcDbLine
 10
471.442823
 20
587.500516
 30
0.0
 11
460.561258
 21
587.500516
 31
0.0
  0
LINE
  5
E1
330
1F
100
AcDbEntity
  8
7__7
  6
Continuous
 62
     3
100
AcDbLine
 10
476.952678
 20
577.957256
 30
0.0
 11
471.442823
 21
587.500516
 31
0.0
  0
LINE
  5
E2
330
1F
100
AcDbEntity
  8
7__7
  6
Continuous
 62
     3
100
AcDbLine
 10
455.051282
 20
577.957048
 30
0.0
 11
460.561258
 21
587.500516
 31
0.0
  0
ARC
  5
E3
330
1F
100
AcDbEntity
  8
7__7
  6
Continuous
 62
     3
100
AcDbCircle
 10
479.757089
 20
531.959738
 30
0.0
 40
0.9999600000000002
100
AcDbArc
 50
0.0
 51
90.0
  0
LINE
  5
E4
330
1F
100
AcDbEntity
  8
7__7
  6
Continuous
 62
     3
100
AcDbLine
 10
430.757049
 20
552.958206
 30
0.0
 11
432.257049
 21
552.959289
 31
0.0
  0
LINE
  5
E5
330
1F
100
AcDbEntity
  8
7__7
  6
Continuous
 62
     3
100
AcDbLine
 10
514.335107
 20
532.959698
 30
0.0
 11
432.257049
 21
532.958699
 31
0.0
  0
LINE
  5
E6
330
1F
100
AcDbEntity
  8
7__7
  6
Continuous
 62
     3
100
AcDbLine
 10
464.336107
 20
532.959698
 30
0.0
 11
479.757089
 21
532.959698
 31
0.0
  0
LINE
  5
E7
330
1F
100
AcDbEntity
  8
7__7
  6
Continuous
 62
     3
100
AcDbLine
 10
464.336107
 20
532.959698
 30
0.0
 11
557.095396
 21
532.959698
 31
0.0
  0
LINE
  5
E8
330
1F
100
AcDbEntity
  8
7__7
  6
Continuous
 62
     3
100
AcDbLine
 10
464.336107
 20
532.959698
 30
0.0
 11
557.155394
 21
532.959698
 31
0.0
  0
LINE
  5
E9
330
1F
100
AcDbEntity
  8
7__7
  6
Continuous
 62
     3
100
AcDbLine
 10
464.336107
 20
532.959698
 30
0.0
 11
557.155394
 21
532.959698
 31
0.0
  0
LINE
  5
EA
330
1F
100
AcDbEntity
  8
7__7
  6
Continuous
 62
     3
100
AcDbLine
 10
464.336107
 20
532.959698
 30
0.0
 11
557.035399
 21
532.959698
 31
0.0
  0
LINE
  5
EB
330
1F
100
AcDbEntity
  8
7__7
  6
Continuous
 62
     3
100
AcDbLine
 10
464.336107
 20
532.959698
 30
0.0
 11
557.155394
 21
532.959698
 31
0.0
  0
LINE
  5
EC
330
1F
100
AcDbEntity
  8
7__7
  6
Continuous
 62
     3
100
AcDbLine
 10
521.108873
 20
599.834549
 30
0.0
 11
641.042023
 21
491.620176
 31
0.0
  0
ARC
  5
ED
330
1F
100
AcDbEntity
  8
7__7
  6
Continuous
 62
     3
100
AcDbCircle
 10
492.757129
 20
465.962418
 30
0.0
 40
1.0
100
AcDbArc
 50
270.0
 51
0.0
  0
LINE
  5
EE
330
1F
100
AcDbEntity
  8
7__7
  6
Continuous
 62
     3
100
AcDbLine
 10
480.757049
 20
531.959738
 30
0.0
 11
480.757049
 21
466.462418
 31
0.0
  0
LINE
  5
EF
330
1F
100
AcDbEntity
  8
7__7
  6
Continuous
 62
     3
100
AcDbLine
 10
464.336107
 20
532.959698
 30
0.0
 11
557.116396
 21
532.958698
 31
0.0
  0
LINE
  5
F0
330
1F
100
AcDbEntity
  8
7__7
  6
Continuous
 62
     3
100
AcDbLine
 10
481.757009
 20
532.959698
 30
0.0
 11
557.056398
 21
532.958698
 31
0.0
  0
ARC
  5
F1
330
1F
100
AcDbEntity
  8
7__7
  6
Continuous
 62
     3
100
AcDbCircle
 10
540.430063
 20
597.957098
 30
0.0
 40
4.9998
100
AcDbArc
 50
0.0
 51
90.011459
  0
LINE
  5
F2
330
1F
100
AcDbEntity
  8
7__7
  6
Continuous
 62
     3
100
AcDbLine
 10
580.47057
 20
532.959698
 30
0.0
 11
559.117302
 21
532.959698
 31
0.0
  0
LINE
  5
F3
330
1F
100
AcDbEntity
  8
7__7
  6
Continuous
 62
     3
100
AcDbLine
 10
397.757129
 20
694.672504
 30
0.0
 11
1429.757129
 21
694.672504
 31
0.0
  0
LINE
  5
F4
330
1F
100
AcDbEntity
  8
7__7
  6
Continuous
 62
     3
100
AcDbLine
 10
619.240583
 20
647.958698
 30
0.0
 11
681.131847
 21
647.958698
 31
0.0
  0
LINE
  5
F5
330
1F
100
AcDbEntity
  8
7__7
  6
Continuous
 62
     3
100
AcDbLine
 10
1293.57152
 20
647.958698
 30
0.0
 11
1387.257129
 21
647.958698
 31
0.0
  0
LINE
  5
F6
330
1F
100
AcDbEntity
  8
7__7
  6
Continuous
 62
     3
100
AcDbLine
 10
1282.691696
 20
647.958698
 30
0.0
 11
712.609098
 21
647.958698
 31
0.0
  0
CIRCLE
  5
F7
330
1F
100
AcDbEntity
  8
7__7
  6
Continuous
 62
     3
100
AcDbCircle
 10
580.960442
 20
572.782105
 30
0.0
 40
24.999
  0
CIRCLE
  5
F8
330
1F
100
AcDbEntity
  8
7__7
  6
Continuous
 62
     3
100
AcDbCircle
 10
580.960442
 20
572.782105
 30
0.0
 40
7.499700000000001
  0
CIRCLE
  5
F9
330
1F
100
AcDbEntity
  8
7__7
  6
Continuous
 62
     3
100
AcDbCircle
 10
580.960442
 20
572.782105
 30
0.0
 40
19.9992
  0
LINE
  5
FA
330
1F
100
AcDbEntity
  8
7__7
  6
Continuous
 62
     3
100
AcDbLine
 10
524.222179
 20
452.728141
 30
0.0
 11
532.27863
 21
456.756367
 31
0.0
  0
LINE
  5
FB
330
1F
100
AcDbEntity
  8
7__7
  6
Continuous
 62
     3
100
AcDbLine
 10
464.336107
 20
532.959698
 30
0.0
 11
557.056398
 21
532.958698
 31
0.0
  0
ARC
  5
FC
330
1F
100
AcDbEntity
  8
7__7
  6
Continuous
 62
     3
100
AcDbCircle
 10
414.757089
 20
630.671709
 30
0.0
 40
0.9999600000000002
100
AcDbArc
 50
180.0
 51
270.0
  0
ARC
  5
FD
330
1F
100
AcDbEntity
  8
7__7
  6
Continuous
 62
     3
100
AcDbCircle
 10
558.116356
 20
615.051414
 30
0.0
 40
0.9999600000000002
100
AcDbArc
 50
0.0
 51
90.0
  0
ARC
  5
FE
330
1F
100
AcDbEntity
  8
7__7
  6
Continuous
 62
     3
100
AcDbCircle
 10
1334.534298
 20
542.95955
 30
0.0
 40
9.999600000000001
100
AcDbArc
 50
180.0
 51
270.0
  0
LINE
  5
FF
330
1F
100
AcDbEntity
  8
7__7
  6
Continuous
 62
     3
100
AcDbLine
 10
414.757089
 20
629.671749
 30
0.0
 11
424.451702
 21
629.672761
 31
0.0
  0
LINE
  5
100
330
1F
100
AcDbEntity
  8
7__7
  6
Continuous
 62
     3
100
AcDbLine
 10
517.848966
 20
532.959698
 30
0.0
 11
479.065117
 21
532.958698
 31
0.0
  0
LINE
  5
101
330
1F
100
AcDbEntity
  8
7__7
  6
Continuous
 62
     3
100
AcDbLine
 10
444.337907
 20
641.051378
 30
0.0
 11
445.837907
 21
641.051378
 31
0.0
  0
LINE
  5
102
330
1F
100
AcDbEntity
  8
7__7
  6
Continuous
 62
     3
100
AcDbLine
 10
558.116356
 20
616.050374
 30
0.0
 11
445.837907
 21
616.051377
 31
0.0
  0
LINE
  5
103
330
1F
100
AcDbEntity
  8
7__7
  6
Continuous
 62
     3
100
AcDbLine
 10
480.698052
 20
512.862502
 30
0.0
 11
482.298988
 21
512.862502
 31
0.0
  0
LINE
  5
104
330
1F
100
AcDbEntity
  8
7__7
  6
Continuous
 62
     3
100
AcDbLine
 10
482.298988
 20
512.862502
 30
0.0
 11
482.298988
 21
531.459698
 31
0.0
  0
LINE
  5
105
330
1F
100
AcDbEntity
  8
7__7
  6
Continuous
 62
     3
100
AcDbLine
 10
464.336107
 20
532.959698
 30
0.0
 11
557.074397
 21
532.959698
 31
0.0
  0
LINE
  5
106
330
1F
100
AcDbEntity
  8
7__7
  6
Continuous
 62
     3
100
AcDbLine
 10
559.116316
 20
615.051414
 30
0.0
 11
559.117311
 21
532.209707
 31
0.0
  0
ARC
  5
107
330
1F
100
AcDbEntity
  8
7__7
  6
Continuous
 62
     3
100
AcDbCircle
 10
558.367311
 20
532.209698
 30
0.0
 40
0.75
100
AcDbArc
 50
270.0
 51
0.000689
  0
LINE
  5
108
330
1F
100
AcDbEntity
  8
7__7
  6
Continuous
 62
     3
100
AcDbLine
 10
482.298988
 20
531.459698
 30
0.0
 11
558.367311
 21
531.459698
 31
0.0
  0
LINE
  5
109
330
1F
100
AcDbEntity
  8
7__7
  6
Continuous
 62
     3
100
AcDbLine
 10
581.792082
 20
532.958698
 30
0.0
 11
559.117302
 21
532.958698
 31
0.0
  0
LINE
  5
10A
330
1F
100
AcDbEntity
  8
7__7
  6
Continuous
 62
     3
100
AcDbLine
 10
580.635455
 20
532.958698
 30
0.0
 11
580.694452
 21
532.959698
 31
0.0
  0
LINE
  5
10B
330
1F
100
AcDbEntity
  8
7__7
  6
Continuous
 62
     3
100
AcDbLine
 10
1324.534698
 20
577.645162
 30
0.0
 11
1324.533698
 21
542.95955
 31
0.0
  0
ARC
  5
10C
330
1F
100
AcDbEntity
  8
7__7
  6
Continuous
 62
     3
100
AcDbCircle
 10
501.507129
 20
693.922504
 30
0.0
 40
0.75
100
AcDbArc
 50
0.0
 51
90.0
  0
LINE
  5
10D
330
1F
100
AcDbEntity
  8
7__7
  6
Continuous
 62
     3
100
AcDbLine
 10
502.257129
 20
686.233841
 30
0.0
 11
502.257129
 21
693.922504
 31
0.0
  0
ARC
  5
10E
330
1F
100
AcDbEntity
  8
7__7
  6
Continuous
 62
     3
100
AcDbCircle
 10
481.757009
 20
531.959738
 30
0.0
 40
0.9999600000000002
100
AcDbArc
 50
90.0
 51
180.0
  0
LINE
  5
10F
330
1F
100
AcDbEntity
  8
7__7
  6
Continuous
 62
     3
100
AcDbLine
 10
464.336107
 20
532.959698
 30
0.0
 11
480.099076
 21
532.959698
 31
0.0
  0
LINE
  5
110
330
1F
100
AcDbEntity
  8
7__7
  6
Continuous
 62
     3
100
AcDbLine
 10
440.338067
 20
632.673753
 30
0.0
 11
448.336747
 21
632.673753
 31
0.0
  0
LINE
  5
111
330
1F
100
AcDbEntity
  8
7__7
  6
Continuous
 62
     3
100
AcDbLine
 10
475.757249
 20
520.960178
 30
0.0
 11
485.756849
 21
520.960178
 31
0.0
  0
LINE
  5
112
330
1F
100
AcDbEntity
  8
7__7
  6
Continuous
 62
     3
100
AcDbLine
 10
1333.674133
 20
532.95895
 30
0.0
 11
1384.560297
 21
532.960594
 31
0.0
  0
LINE
  5
113
330
1F
100
AcDbEntity
  8
7__7
  6
Continuous
 62
     3
100
AcDbLine
 10
573.731731
 20
539.15645
 30
0.0
 11
573.726731
 21
539.135451
 31
0.0
  0
LINE
  5
114
330
1F
100
AcDbEntity
  8
7__7
  6
Continuous
 62
     3
100
AcDbLine
 10
500.757129
 20
666.172558
 30
0.0
 11
500.757129
 21
693.172552
 31
0.0
  0
LINE
  5
115
330
1F
100
AcDbEntity
  8
7__7
  6
Continuous
 62
     3
100
AcDbLine
 10
502.257129
 20
694.672504
 30
0.0
 11
502.257129
 21
693.445553
 31
0.0
  0
ARC
  5
116
330
1F
100
AcDbEntity
  8
7__7
  6
Continuous
 62
     3
100
AcDbCircle
 10
416.257129
 20
665.672473
 30
0.0
 40
1.0
100
AcDbArc
 50
180.0
 51
270.0
  0
LINE
  5
117
330
1F
100
AcDbEntity
  8
7__7
  6
Continuous
 62
     3
100
AcDbLine
 10
1411.614175
 20
664.673472
 30
0.0
 11
416.25713
 21
664.672473
 31
0.0
  0
ARC
  5
118
330
1F
100
AcDbEntity
  8
7__7
  6
Continuous
 62
     6
100
AcDbCircle
 10
1388.257089
 20
663.672513
 30
0.0
 40
0.9999600000000002
100
AcDbArc
 50
90.0
 51
180.0
  0
ARC
  5
119
330
1F
100
AcDbEntity
  8
7__7
  6
Continuous
 62
     3
100
AcDbCircle
 10
578.956522
 20
560.552594
 30
0.0
 40
19.9992
100
AcDbArc
 50
261.274323
 51
347.200562
  0
ARC
  5
11A
330
1F
100
AcDbEntity
  8
7__7
  6
Continuous
 62
     3
100
AcDbCircle
 10
1411.69121
 20
663.672473
 30
0.0
 40
1.0
100
AcDbArc
 50
8.229517
 51
90.0
  0
LINE
  5
11B
330
1F
100
AcDbEntity
  8
7__7
  6
Continuous
 62
     3
100
AcDbLine
 10
1412.257129
 20
666.745771
 30
0.0
 11
1417.618965
 21
629.672504
 31
0.0
  0
ARC
  5
11C
330
1F
100
AcDbEntity
  8
7__7
  6
Continuous
 62
     3
100
AcDbCircle
 10
539.657712
 20
601.511913
 30
0.0
 40
10.0
100
AcDbArc
 50
264.952581
 51
354.725639
  0
LINE
  5
11D
330
1F
100
AcDbEntity
  8
7__7
  6
Continuous
 62
     3
100
AcDbLine
 10
467.024999
 20
597.888101
 30
0.0
 11
538.777911
 21
591.550691
 31
0.0
  0
LINE
  5
11E
330
1F
100
AcDbEntity
  8
7__7
  6
Continuous
 62
     3
100
AcDbLine
 10
623.038985
 20
664.672504
 30
0.0
 11
597.960973
 21
554.323724
 31
0.0
  0
LINE
  5
11F
330
1F
100
AcDbEntity
  8
7__7
  6
Continuous
 62
     3
100
AcDbLine
 10
575.922643
 20
540.785385
 30
0.0
 11
462.384185
 21
558.217688
 31
0.0
  0
LINE
  5
120
330
1F
100
AcDbEntity
  8
7__7
  6
Continuous
 62
     3
100
AcDbLine
 10
555.530959
 20
664.672504
 30
0.0
 11
549.615372
 21
600.592663
 31
0.0
  0
LINE
  5
121
330
1F
100
AcDbEntity
  8
7__7
  6
Continuous
 62
     3
100
AcDbLine
 10
1406.943701
 20
642.810249
 30
0.0
 11
1398.257159
 21
647.824753
 31
0.0
  0
LINE
  5
122
330
1F
100
AcDbEntity
  8
7__7
  6
Continuous
 62
     3
100
AcDbLine
 10
503.757129
 20
694.672504
 30
0.0
 11
503.757129
 21
665.672572
 31
0.0
  0
ARC
  5
123
330
1F
100
AcDbEntity
  8
7__7
  6
Continuous
 62
     3
100
AcDbCircle
 10
540.430063
 20
597.957098
 30
0.0
 40
4.9998
100
AcDbArc
 50
0.0
 51
90.0
  0
ARC
  5
124
330
1F
100
AcDbEntity
  8
7__7
  6
Continuous
 62
     3
100
AcDbCircle
 10
465.865046
 20
578.16889
 30
0.0
 40
19.9992
100
AcDbArc
 50
88.896973
 51
259.793549
  0
LINE
  5
125
330
1F
100
AcDbEntity
  8
7__7
  6
Continuous
 62
     3
100
AcDbLine
 10
511.958772
 20
479.958698
 30
0.0
 11
492.257129
 21
479.958698
 31
0.0
  0
LINE
  5
126
330
1F
100
AcDbEntity
  8
7__7
  6
Continuous
 62
     3
100
AcDbLine
 10
424.451702
 20
631.172761
 30
0.0
 11
424.451702
 21
629.672761
 31
0.0
  0
LINE
  5
127
330
1F
100
AcDbEntity
  8
7__7
  6
Continuous
 62
     3
100
AcDbLine
 10
480.581056
 20
532.958698
 30
0.0
 11
557.617302
 21
532.958698
 31
0.0
  0
CIRCLE
  5
128
330
1F
100
AcDbEntity
  8
7__7
  6
Continuous
 62
     3
100
AcDbCircle
 10
1351.755609
 20
560.074865
 30
0.0
 40
24.999
  0
CIRCLE
  5
129
330
1F
100
AcDbEntity
  8
7__7
  6
Continuous
 62
     3
100
AcDbCircle
 10
1351.755609
 20
560.074865
 30
0.0
 40
19.9992
  0
LINE
  5
12A
330
1F
100
AcDbEntity
  8
7__7
  6
Continuous
 62
     3
100
AcDbLine
 10
1384.560297
 20
587.644762
 30
0.0
 11
1384.560297
 21
532.960594
 31
0.0
  0
LINE
  5
12B
330
1F
100
AcDbEntity
  8
7__7
  6
Continuous
 62
     3
100
AcDbLine
 10
1381.419422
 20
532.960493
 30
0.0
 11
1381.419422
 21
587.643762
 31
0.0
  0
LINE
  5
12C
330
1F
100
AcDbEntity
  8
7__7
  6
Continuous
 62
     3
100
AcDbLine
 10
1334.534298
 20
587.644762
 30
0.0
 11
1384.560297
 21
587.644762
 31
0.0
  0
CIRCLE
  5
12D
330
1F
100
AcDbEntity
  8
7__7
  6
Continuous
 62
     3
100
AcDbCircle
 10
1351.755609
 20
560.074865
 30
0.0
 40
3.75884964
  0
ARC
  5
12E
330
1F
100
AcDbEntity
  8
7__7
  6
Continuous
 62
     3
100
AcDbCircle
 10
1334.534298
 20
577.645162
 30
0.0
 40
9.999600000000001
100
AcDbArc
 50
90.0
 51
180.0
  0
LINE
  5
12F
330
1F
100
AcDbEntity
  8
7__7
  6
Continuous
 62
     3
100
AcDbLine
 10
1334.534587
 20
532.959078
 30
0.0
 11
1364.615094
 21
532.95995
 31
0.0
  0
ARC
  5
130
330
1F
100
AcDbEntity
  8
7__7
  6
Continuous
 62
     3
100
AcDbCircle
 10
1347.507209
 20
465.708698
 30
0.0
 40
0.75
100
AcDbArc
 50
270.0
 51
0.0
  0
LINE
  5
131
330
1F
100
AcDbEntity
  8
7__7
  6
Continuous
 62
     3
100
AcDbLine
 10
595.226934
 20
532.958631
 30
0.0
 11
1395.257209
 21
532.959631
 31
0.0
  0
ARC
  5
132
330
1F
100
AcDbEntity
  8
7__7
  6
Continuous
 62
     3
100
AcDbCircle
 10
414.757129
 20
693.672504
 30
0.0
 40
1.0
100
AcDbArc
 50
90.0
 51
180.0
  0
LINE
  5
133
330
1F
100
AcDbEntity
  8
7__7
  6
Continuous
 62
     3
100
AcDbLine
 10
413.757129
 20
630.671709
 30
0.0
 11
413.757129
 21
693.672504
 31
0.0
  0
LINE
  5
134
330
1F
100
AcDbEntity
  8
7__7
  6
Continuous
 62
     3
100
AcDbLine
 10
502.257129
 20
686.26984
 30
0.0
 11
502.257129
 21
666.17256
 31
0.0
  0
LINE
  5
135
330
1F
100
AcDbEntity
  8
7__7
  6
Continuous
 62
     3
100
AcDbLine
 10
1313.792127
 20
664.673473
 30
0.0
 11
1316.167032
 21
664.673473
 31
0.0
  0
LINE
  5
136
330
1F
100
AcDbEntity
  8
7__7
  6
Continuous
 62
     3
100
AcDbLine
 10
553.82932
 20
647.958698
 30
0.0
 11
443.348405
 21
647.958698
 31
0.0
  0
CIRCLE
  5
137
330
1F
100
AcDbEntity
  8
7__7
  6
Continuous
 62
     3
100
AcDbCircle
 10
328.757129
 20
122.98222
 30
0.0
 40
3.0
  0
CIRCLE
  5
138
330
1F
100
AcDbEntity
  8
7__7
  6
Continuous
 62
     3
100
AcDbCircle
 10
1498.757129
 20
122.98222
 30
0.0
 40
3.0
  0
LINE
  5
139
330
1F
100
AcDbEntity
  8
7__7
  6
Continuous
 62
     3
100
AcDbLine
 10
328.757129
 20
122.98222
 30
0.0
 11
1498.757129
 21
122.98222
 31
0.0
  0
LINE
  5
13A
330
1F
100
AcDbEntity
  8
7__7
  6
Continuous
 62
     3
100
AcDbLine
 10
328.757129
 20
407.201363
 30
0.0
 11
328.757129
 21
116.98222
 31
0.0
  0
LINE
  5
13B
330
1F
100
AcDbEntity
  8
7__7
  6
Continuous
 62
     3
100
AcDbLine
 10
1498.757129
 20
413.762299
 30
0.0
 11
1498.757129
 21
116.98222
 31
0.0
  0
LINE
  5
13C
330
1F
100
AcDbEntity
  8
7__7
  6
Continuous
 62
     4
100
AcDbLine
 10
430.757049
 20
493.271729
 30
0.0
 11
433.057049
 21
493.271729
 31
0.0
  0
LINE
  5
13D
330
1F
100
AcDbEntity
  8
7__7
  6
Continuous
 62
     4
100
AcDbLine
 10
430.757049
 20
452.958698
 30
0.0
 11
329.757129
 21
452.958698
 31
0.0
  0
ARC
  5
13E
330
1F
100
AcDbEntity
  8
7__7
  6
Continuous
 62
     4
100
AcDbCircle
 10
329.757129
 20
451.958698
 30
0.0
 40
1.0
100
AcDbArc
 50
90.0
 51
180.0
  0
LINE
  5
13F
330
1F
100
AcDbEntity
  8
7__7
  6
Continuous
 62
     4
100
AcDbLine
 10
328.757129
 20
417.958698
 30
0.0
 11
328.757129
 21
451.958698
 31
0.0
  0
LINE
  5
140
330
1F
100
AcDbEntity
  8
7__7
  6
Continuous
 62
     4
100
AcDbLine
 10
430.757049
 20
493.271729
 30
0.0
 11
430.757049
 21
452.958698
 31
0.0
  0
LINE
  5
141
330
1F
100
AcDbEntity
  8
7__7
  6
Continuous
 62
     4
100
AcDbLine
 10
331.057129
 20
450.658698
 30
0.0
 11
331.057129
 21
419.658698
 31
0.0
  0
ARC
  5
142
330
1F
100
AcDbEntity
  8
7__7
  6
Continuous
 62
     4
100
AcDbCircle
 10
432.057049
 20
451.658698
 30
0.0
 40
1.0
100
AcDbArc
 50
270.0
 51
0.0
  0
LINE
  5
143
330
1F
100
AcDbEntity
  8
7__7
  6
Continuous
 62
     4
100
AcDbLine
 10
331.057129
 20
450.658698
 30
0.0
 11
432.057049
 21
450.658698
 31
0.0
  0
LINE
  5
144
330
1F
100
AcDbEntity
  8
7__7
  6
Continuous
 62
     4
100
AcDbLine
 10
328.757129
 20
419.658698
 30
0.0
 11
331.057129
 21
419.658698
 31
0.0
  0
LINE
  5
145
330
1F
100
AcDbEntity
  8
7__7
  6
Continuous
 62
     4
100
AcDbLine
 10
398.757129
 20
450.658698
 30
0.0
 11
398.757129
 21
425.658698
 31
0.0
  0
LINE
  5
146
330
1F
100
AcDbEntity
  8
7__7
  6
Continuous
 62
     4
100
AcDbLine
 10
401.057129
 20
425.658698
 30
0.0
 11
401.057129
 21
448.358698
 31
0.0
  0
LINE
  5
147
330
1F
100
AcDbEntity
  8
7__7
  6
Continuous
 62
     4
100
AcDbLine
 10
401.057129
 20
448.358698
 30
0.0
 11
413.757129
 21
448.358698
 31
0.0
  0
LINE
  5
148
330
1F
100
AcDbEntity
  8
7__7
  6
Continuous
 62
     4
100
AcDbLine
 10
398.757129
 20
425.658698
 30
0.0
 11
401.057129
 21
425.658698
 31
0.0
  0
LINE
  5
149
330
1F
100
AcDbEntity
  8
7__7
  6
Continuous
 62
     4
100
AcDbLine
 10
413.757129
 20
450.658698
 30
0.0
 11
413.757129
 21
448.358698
 31
0.0
  0
LINE
  5
14A
330
1F
100
AcDbEntity
  8
7__7
  6
PLine2
 62
     3
100
AcDbLine
 10
1321.070596
 20
560.074865
 30
0.0
 11
1387.664629
 21
560.074865
 31
0.0
  0
LINE
  5
14B
330
1F
100
AcDbEntity
  8
7__7
  6
PLine2
 62
     3
100
AcDbLine
 10
1351.754665
 20
590.697823
 30
0.0
 11
1351.754665
 21
532.310801
 31
0.0
  0
LINE
  5
14C
330
1F
100
AcDbEntity
  8
7__7
  6
PLine4
 62
     3
100
AcDbLine
 10
554.977063
 20
658.672504
 30
0.0
 11
621.675417
 21
658.672504
 31
0.0
  0
LINE
  5
14D
330
1F
100
AcDbEntity
  8
7__7
  6
PLine2
 62
     3
100
AcDbLine
 10
554.062843
 20
578.286474
 30
0.0
 11
609.266368
 21
565.740444
 31
0.0
  0
LINE
  5
14E
330
1F
100
AcDbEntity
  8
7__7
  6
PLine2
 62
     3
100
AcDbLine
 10
587.290852
 20
599.615897
 30
0.0
 11
575.220457
 21
545.555538
 31
0.0
  0
CIRCLE
  5
14F
330
1F
100
AcDbEntity
  8
7__7
  6
Continuous
 62
     3
100
AcDbCircle
 10
500.720652
 20
577.828903
 30
0.0
 40
20.99880000000005
  0
LINE
  5
150
330
1F
100
AcDbEntity
  8
7__7
  6
Continuous
 62
     3
100
AcDbLine
 10
515.079744
 20
593.152512
 30
0.0
 11
635.676934
 21
484.338984
 31
0.0
  0
LINE
  5
151
330
1F
100
AcDbEntity
  8
7__7
  6
Continuous
 62
     3
100
AcDbLine
 10
641.042023
 20
491.620176
 30
0.0
 11
635.676934
 21
484.338984
 31
0.0
  0
LINE
  5
152
330
1F
100
AcDbEntity
  8
7__7
  6
Continuous
 62
     3
100
AcDbLine
 10
1335.257129
 20
479.957107
 30
0.0
 11
521.82962
 21
479.958105
 31
0.0
  0
CIRCLE
  5
153
330
1F
100
AcDbEntity
  8
7__7
  6
Continuous
 62
     3
100
AcDbCircle
 10
466.00804
 20
577.957152
 30
0.0
 40
9.543364238502921
  0
LINE
  5
154
330
1F
100
AcDbEntity
  8
7__7
  6
Continuous
 62
     3
100
AcDbLine
 10
482.384432
 20
567.545058
 30
0.0
 11
532.27863
 21
456.756367
 31
0.0
  0
LINE
  5
155
330
1F
100
AcDbEntity
  8
7__7
  6
PLine2
 62
     3
100
AcDbLine
 10
458.716958
 20
497.714108
 30
0.0
 11
506.919171
 21
497.714108
 31
0.0
  0
INSERT
  5
15F
330
1F
100
AcDbEntity
  8
7__7
  6
Continuous
 62
     3
100
AcDbBlockReference
  2
DIM_0
 10
390.204917
 20
647.958698
 30
0.0
  0
LINE
  5
160
330
1F
100
AcDbEntity
  8
7__7
  6
Continuous
 62
     6
100
AcDbLine
 10
1396.666165
 20
647.495412
 30
0.0
 11
1392.740162
 21
646.168214
 31
0.0
  0
ARC
  5
161
330
1F
100
AcDbEntity
  8
7__7
  6
Continuous
 62
     6
100
AcDbCircle
 10
1397.958275
 20
645.968831
 30
0.0
 40
2.0
100
AcDbArc
 50
60.774358
 51
130.244823
  0
INSERT
  5
16B
330
1F
100
AcDbEntity
  8
7__7
  6
Continuous
 62
     3
100
AcDbBlockReference
  2
DIM_1
 10
662.967051
 20
479.957925
 30
0.0
  0
LINE
  5
16C
330
1F
100
AcDbEntity
  8
7__7
  6
Continuous
 62
     3
100
AcDbLine
 10
415.257129
 20
631.171801
 30
0.0
 11
415.257129
 21
693.172552
 31
0.0
  0
LINE
  5
16D
330
1F
100
AcDbEntity
  8
7__7
  6
Continuous
 62
     3
100
AcDbLine
 10
416.757129
 20
693.172552
 30
0.0
 11
416.757129
 21
666.172473
 31
0.0
  0
LINE
  5
16E
330
1F
100
AcDbEntity
  8
7__7
  6
Continuous
 62
     3
100
AcDbLine
 10
424.451546
 20
631.172761
 30
0.0
 11
415.257129
 21
631.171801
 31
0.0
  0
LINE
  5
16F
330
1F
100
AcDbEntity
  8
7__7
  6
Continuous
 62
     3
100
AcDbLine
 10
416.757129
 20
666.172473
 30
0.0
 11
502.257129
 21
666.17256
 31
0.0
  0
LINE
  5
170
330
1F
100
AcDbEntity
  8
7__7
  6
Continuous
 62
     3
100
AcDbLine
 10
1413.757129
 20
666.85368
 30
0.0
 11
1419.103519
 21
629.887212
 31
0.0
  0
ARC
  5
171
330
1F
100
AcDbEntity
  8
7__7
  6
Continuous
 62
     6
100
AcDbCircle
 10
1392.094107
 20
646.931504
 30
0.0
 40
1.0
100
AcDbArc
 50
269.97787
 51
310.244823
  0
ARC
  5
172
330
1F
100
AcDbEntity
  8
7__7
  6
Continuous
 62
     3
100
AcDbCircle
 10
445.087907
 20
615.301384
 30
0.0
 40
0.75
100
AcDbArc
 50
180.0
 51
269.999488
  0
LINE
  5
173
330
1F
100
AcDbEntity
  8
7__7
  6
Continuous
 62
     3
100
AcDbLine
 10
557.616322
 20
614.550379
 30
0.0
 11
445.0879
 21
614.551384
 31
0.0
  0
LINE
  5
174
330
1F
100
AcDbEntity
  8
7__7
  6
Continuous
 62
     3
100
AcDbLine
 10
557.616322
 20
614.550379
 30
0.0
 11
557.617302
 21
532.958698
 31
0.0
  0
CIRCLE
  5
175
330
1F
100
AcDbEntity
  8
7__7
  6
Continuous
 62
     3
100
AcDbCircle
 10
396.257129
 20
930.465086
 30
0.0
 40
3.0
  0
CIRCLE
  5
176
330
1F
100
AcDbEntity
  8
7__7
  6
Continuous
 62
     3
100
AcDbCircle
 10
1431.257129
 20
930.465086
 30
0.0
 40
3.0
  0
LINE
  5
177
330
1F
100
AcDbEntity
  8
7__7
  6
Continuous
 62
     3
100
AcDbLine
 10
396.257129
 20
930.465086
 30
0.0
 11
1431.257129
 21
930.465086
 31
0.0
  0
LINE
  5
178
330
1F
100
AcDbEntity
  8
7__7
  6
Continuous
 62
     3
100
AcDbLine
 10
396.257129
 20
713.515933
 30
0.0
 11
396.257129
 21
936.465086
 31
0.0
  0
LINE
  5
179
330
1F
100
AcDbEntity
  8
7__7
  6
Continuous
 62
     3
100
AcDbLine
 10
1431.257129
 20
720.295594
 30
0.0
 11
1431.257129
 21
936.465086
 31
0.0
  0
INSERT
  5
183
330
1F
100
AcDbEntity
  8
7__7
  6
Continuous
 62
     3
100
AcDbBlockReference
  2
DIM_2
 10
483.757129
 20
722.19373
 30
0.0
  0
LINE
  5
184
330
1F
100
AcDbEntity
  8
7__7
  6
Continuous
 62
     3
100
AcDbLine
 10
445.837907
 20
641.051378
 30
0.0
 11
445.837907
 21
616.051377
 31
0.0
  0
LINE
  5
185
330
1F
100
AcDbEntity
  8
7__7
  6
Continuous
 62
     3
100
AcDbLine
 10
1417.618965
 20
629.672504
 30
0.0
 11
1398.757129
 21
629.672504
 31
0.0
  0
LINE
  5
186
330
1F
100
AcDbEntity
  8
7__7
  6
Continuous
 62
     3
100
AcDbLine
 10
1417.618965
 20
629.672504
 30
0.0
 11
1419.103519
 21
629.887212
 31
0.0
  0
LINE
  5
187
330
1F
100
AcDbEntity
  8
7__7
  6
Continuous
 62
     3
100
AcDbLine
 10
1375.007129
 20
499.460245
 30
0.0
 11
1375.007129
 21
550.892447
 31
0.0
  0
LINE
  5
188
330
1F
100
AcDbEntity
  8
7__7
  6
Continuous
 62
     3
100
AcDbLine
 10
1372.507129
 20
499.460245
 30
0.0
 11
1372.507129
 21
546.134836
 31
0.0
  0
LINE
  5
189
330
1F
100
AcDbEntity
  8
7__7
  6
PLine1
 62
     3
100
AcDbLine
 10
800.208446
 20
1398.545206
 30
0.0
 11
784.932618
 21
1407.364709
 31
0.0
  0
LINE
  5
18A
330
1F
100
AcDbEntity
  8
7__7
  6
Continuous
 62
     3
100
AcDbLine
 10
528.584672
 20
464.958698
 30
0.0
 11
1347.507209
 21
464.958698
 31
0.0
  0
LINE
  5
18B
330
1F
100
AcDbEntity
  8
7__7
  6
Continuous
 62
     3
100
AcDbLine
 10
540.430063
 20
602.956898
 30
0.0
 11
430.757049
 21
602.956898
 31
0.0
  0
LINE
  5
18C
330
1F
100
AcDbEntity
  8
7__7
  6
Continuous
 62
     3
100
AcDbLine
 10
545.429863
 20
597.957098
 30
0.0
 11
545.429863
 21
532.959698
 31
0.0
  0
ARC
  5
18D
330
1F
100
AcDbEntity
  8
7__7
  6
Continuous
 62
     3
100
AcDbCircle
 10
480.257049
 20
465.962418
 30
0.0
 40
1.0
100
AcDbArc
 50
180.0
 51
270.0
  0
LINE
  5
18E
330
1F
100
AcDbEntity
  8
7__7
  6
Continuous
 62
     3
100
AcDbLine
 10
480.257049
 20
464.962418
 30
0.0
 11
518.712416
 21
464.962418
 31
0.0
  0
CIRCLE
  5
18F
330
1F
100
AcDbEntity
  8
7__7
  6
Continuous
 62
     3
100
AcDbCircle
 10
493.757129
 20
317.706829
 30
0.0
 40
3.0
  0
CIRCLE
  5
190
330
1F
100
AcDbEntity
  8
7__7
  6
Continuous
 62
     3
100
AcDbCircle
 10
1333.757129
 20
317.706829
 30
0.0
 40
3.0
  0
LINE
  5
191
330
1F
100
AcDbEntity
  8
7__7
  6
Continuous
 62
     3
100
AcDbLine
 10
493.757129
 20
317.706829
 30
0.0
 11
1333.757129
 21
317.706829
 31
0.0
  0
LINE
  5
192
330
1F
100
AcDbEntity
  8
7__7
  6
Continuous
 62
     3
100
AcDbLine
 10
493.757129
 20
307.310462
 30
0.0
 11
493.757129
 21
323.706829
 31
0.0
  0
LINE
  5
193
330
1F
100
AcDbEntity
  8
7__7
  6
Continuous
 62
     3
100
AcDbLine
 10
1333.757129
 20
453.274969
 30
0.0
 11
1333.757129
 21
311.706829
 31
0.0
  0
ARC
  5
194
330
1F
100
AcDbEntity
  8
7__7
  6
Continuous
 62
     3
100
AcDbCircle
 10
314.507129
 20
430.708698
 30
0.0
 40
0.75
100
AcDbArc
 50
180.0
 51
270.0
  0
LINE
  5
195
330
1F
100
AcDbEntity
  8
7__7
  6
Continuous
 62
     3
100
AcDbLine
 10
326.757129
 20
429.958698
 30
0.0
 11
314.507129
 21
429.958698
 31
0.0
  0
ARC
  5
196
330
1F
100
AcDbEntity
  8
7__7
  6
Continuous
 62
     3
100
AcDbCircle
 10
314.507129
 20
464.62826
 30
0.0
 40
0.75
100
AcDbArc
 50
98.743564
 51
180.0
  0
LINE
  5
197
330
1F
100
AcDbEntity
  8
7__7
  6
Continuous
 62
     3
100
AcDbLine
 10
313.757129
 20
464.62826
 30
0.0
 11
313.757129
 21
430.708698
 31
0.0
  0
LINE
  5
198
330
1F
100
AcDbEntity
  8
7__7
  6
Continuous
 62
     3
100
AcDbLine
 10
428.757129
 20
482.958698
 30
0.0
 11
314.39312
 21
465.369544
 31
0.0
  0
LINE
  5
199
330
1F
100
AcDbEntity
  8
7__7
  6
Continuous
 62
     3
100
AcDbLine
 10
315.757129
 20
463.560422
 30
0.0
 11
315.757129
 21
431.958698
 31
0.0
  0
LINE
  5
19A
330
1F
100
AcDbEntity
  8
7__7
  6
Continuous
 62
     3
100
AcDbLine
 10
315.757129
 20
431.958698
 30
0.0
 11
328.007129
 21
431.958698
 31
0.0
  0
ARC
  5
19B
330
1F
100
AcDbEntity
  8
7__7
  6
Continuous
 62
     3
100
AcDbCircle
 10
328.007129
 20
431.208698
 30
0.0
 40
0.75
100
AcDbArc
 50
0.0
 51
90.0
  0
LINE
  5
19C
330
1F
100
AcDbEntity
  8
7__7
  6
Continuous
 62
     3
100
AcDbLine
 10
328.757129
 20
417.958698
 30
0.0
 11
328.757129
 21
431.208698
 31
0.0
  0
LINE
  5
19D
330
1F
100
AcDbEntity
  8
7__7
  6
Continuous
 62
     3
100
AcDbLine
 10
326.757129
 20
417.958698
 30
0.0
 11
328.757129
 21
417.958698
 31
0.0
  0
LINE
  5
19E
330
1F
100
AcDbEntity
  8
7__7
  6
Continuous
 62
     3
100
AcDbLine
 10
326.757129
 20
429.958698
 30
0.0
 11
326.757129
 21
416.766949
 31
0.0
  0
INSERT
  5
1A7
330
1F
100
AcDbEntity
  8
7__7
  6
Continuous
 62
     3
100
AcDbBlockReference
  2
DIM_3
 10
313.757129
 20
421.485816
 30
0.0
  0
INSERT
  5
1B0
330
1F
100
AcDbEntity
  8
7__7
  6
Continuous
 62
     3
100
AcDbBlockReference
  2
DIM_4
 10
328.757129
 20
324.057087
 30
0.0
  0
INSERT
  5
1B9
330
1F
100
AcDbEntity
  8
7__7
  6
Continuous
 62
     3
100
AcDbBlockReference
  2
DIM_5
 10
1513.757129
 20
418.011241
 30
0.0
  0
INSERT
  5
1C2
330
1F
100
AcDbEntity
  8
7__7
  6
Continuous
 62
     3
100
AcDbBlockReference
  2
DIM_6
 10
1498.757129
 20
310.893388
 30
0.0
  0
TEXT
  5
1C3
330
1F
100
AcDbEntity
  8
7__7
  6
Continuous
 62
     3
100
AcDbText
 10
1284.352633
 20
59.936677
 30
0.0
 40
18.0
  1
注、図中数字で示す寸法は全種共通です
 41
0.858268
  7
BIGFONT
100
AcDbText
  0
LINE
  5
1C4
330
1F
100
AcDbEntity
  8
7__7
  6
Continuous
 62
     1
100
AcDbLine
 10
1590.317686
 20
42.537817
 30
0.0
 11
1950.317686
 21
42.537817
 31
0.0
  0
LINE
  5
1C5
330
1F
100
AcDbEntity
  8
7__7
  6
Continuous
 62
     3
100
AcDbLine
 10
2130.261907
 20
162.537817
 30
0.0
 11
2130.261907
 21
42.537817
 31
0.0
  0
LINE
  5
1C6
330
1F
100
AcDbEntity
  8
7__7
  6
Continuous
 62
     3
100
AcDbLine
 10
2070.261907
 20
162.537817
 30
0.0
 11
2070.261907
 21
42.537817
 31
0.0
  0
LINE
  5
1C7
330
1F
100
AcDbEntity
  8
7__7
  6
Continuous
 62
     3
100
AcDbLine
 10
2010.261907
 20
162.537817
 30
0.0
 11
2010.261907
 21
42.537817
 31
0.0
  0
LINE
  5
1C8
330
1F
100
AcDbEntity
  8
7__7
  6
Continuous
 62
     3
100
AcDbLine
 10
1950.261907
 20
162.537817
 30
0.0
 11
1950.261907
 21
42.537817
 31
0.0
  0
LINE
  5
1C9
330
1F
100
AcDbEntity
  8
7__7
  6
Continuous
 62
     1
100
AcDbLine
 10
1578.261907
 20
162.537817
 30
0.0
 11
1578.261907
 21
42.537817
 31
0.0
  0
LINE
  5
1CA
330
1F
100
AcDbEntity
  8
7__7
  6
Continuous
 62
     1
100
AcDbLine
 10
1578.261907
 20
42.537817
 30
0.0
 11
2460.261907
 21
42.537817
 31
0.0
  0
LINE
  5
1CB
330
1F
100
AcDbEntity
  8
7__7
  6
Continuous
 62
     1
100
AcDbLine
 10
2460.261907
 20
42.537817
 30
0.0
 11
2460.261907
 21
162.537817
 31
0.0
  0
LINE
  5
1CC
330
1F
100
AcDbEntity
  8
7__7
  6
Continuous
 62
     1
100
AcDbLine
 10
2460.261907
 20
162.537817
 30
0.0
 11
1578.261907
 21
162.537817
 31
0.0
  0
LINE
  5
1CD
330
1F
100
AcDbEntity
  8
7__7
  6
Continuous
 62
     2
100
AcDbLine
 10
1621.409225
 20
129.04076
 30
0.0
 11
1632.481413
 21
140.112948
 31
0.0
  0
LINE
  5
1CE
330
1F
100
AcDbEntity
  8
7__7
  6
Continuous
 62
     2
100
AcDbLine
 10
1621.409225
 20
113.382322
 30
0.0
 11
1621.409225
 21
129.04076
 31
0.0
  0
LINE
  5
1CF
330
1F
100
AcDbEntity
  8
7__7
  6
Continuous
 62
     2
100
AcDbLine
 10
1619.009225
 20
129.04076
 30
0.0
 11
1619.009225
 21
113.382322
 31
0.0
  0
LINE
  5
1D0
330
1F
100
AcDbEntity
  8
7__7
  6
Continuous
 62
     2
100
AcDbLine
 10
1607.937037
 20
140.112948
 30
0.0
 11
1619.009225
 21
129.04076
 31
0.0
  0
LINE
  5
1D1
330
1F
100
AcDbEntity
  8
7__7
  6
Continuous
 62
     2
100
AcDbLine
 10
1644.209225
 20
129.537817
 30
0.0
 11
1639.972828
 21
128.337817
 31
0.0
  0
LINE
  5
1D2
330
1F
100
AcDbEntity
  8
7__7
  6
Continuous
 62
     2
100
AcDbLine
 10
1644.209225
 20
129.537817
 30
0.0
 11
1640.009225
 21
129.537817
 31
0.0
  0
LINE
  5
1D3
330
1F
100
AcDbEntity
  8
7__7
  6
Continuous
 62
     2
100
AcDbLine
 10
1639.972828
 20
130.737817
 30
0.0
 11
1644.209225
 21
129.537817
 31
0.0
  0
LINE
  5
1D4
330
1F
100
AcDbEntity
  8
7__7
  6
Continuous
 62
     2
100
AcDbLine
 10
1620.209225
 20
105.537817
 30
0.0
 11
1620.209225
 21
109.737817
 31
0.0
  0
LINE
  5
1D5
330
1F
100
AcDbEntity
  8
7__7
  6
Continuous
 62
     2
100
AcDbLine
 10
1620.209225
 20
105.537817
 30
0.0
 11
1621.409225
 21
109.774214
 31
0.0
  0
LINE
  5
1D6
330
1F
100
AcDbEntity
  8
7__7
  6
Continuous
 62
     2
100
AcDbLine
 10
1620.209225
 20
105.537817
 30
0.0
 11
1619.009225
 21
109.774214
 31
0.0
  0
LINE
  5
1D7
330
1F
100
AcDbEntity
  8
7__7
  6
Continuous
 62
     2
100
AcDbLine
 10
1596.209225
 20
129.537817
 30
0.0
 11
1600.445622
 21
128.337817
 31
0.0
  0
LINE
  5
1D8
330
1F
100
AcDbEntity
  8
7__7
  6
Continuous
 62
     2
100
AcDbLine
 10
1596.209225
 20
129.537817
 30
0.0
 11
1600.409225
 21
129.537817
 31
0.0
  0
LINE
  5
1D9
330
1F
100
AcDbEntity
  8
7__7
  6
Continuous
 62
     2
100
AcDbLine
 10
1596.209225
 20
129.537817
 30
0.0
 11
1600.445622
 21
130.737817
 31
0.0
  0
LINE
  5
1DA
330
1F
100
AcDbEntity
  8
7__7
  6
Continuous
 62
     2
100
AcDbLine
 10
1620.209225
 20
153.537817
 30
0.0
 11
1621.409225
 21
149.30142
 31
0.0
  0
LINE
  5
1DB
330
1F
100
AcDbEntity
  8
7__7
  6
Continuous
 62
     2
100
AcDbLine
 10
1620.209225
 20
153.537817
 30
0.0
 11
1619.009225
 21
149.30142
 31
0.0
  0
LINE
  5
1DC
330
1F
100
AcDbEntity
  8
7__7
  6
Continuous
 62
     2
100
AcDbLine
 10
1620.209225
 20
153.537817
 30
0.0
 11
1620.209225
 21
149.337817
 31
0.0
  0
LINE
  5
1DD
330
1F
100
AcDbEntity
  8
7__7
  6
Continuous
 62
     2
100
AcDbLine
 10
1620.209225
 20
131.234873
 30
0.0
 11
1609.634094
 21
141.810004
 31
0.0
  0
LINE
  5
1DE
330
1F
100
AcDbEntity
  8
7__7
  6
Continuous
 62
     2
100
AcDbLine
 10
1630.784357
 20
141.810004
 30
0.0
 11
1620.209225
 21
131.234873
 31
0.0
  0
LINE
  5
1DF
330
1F
100
AcDbEntity
  8
7__7
  6
Continuous
 62
     2
100
AcDbLine
 10
1620.209225
 20
129.537817
 30
0.0
 11
1631.664355
 21
140.992946
 31
0.0
  0
LINE
  5
1E0
330
1F
100
AcDbEntity
  8
7__7
  6
Continuous
 62
     2
100
AcDbLine
 10
1620.209225
 20
129.537817
 30
0.0
 11
1620.209225
 21
113.337817
 31
0.0
  0
LINE
  5
1E1
330
1F
100
AcDbEntity
  8
7__7
  6
Continuous
 62
     2
100
AcDbLine
 10
1608.754095
 20
140.992946
 30
0.0
 11
1620.209225
 21
129.537817
 31
0.0
  0
ARC
  5
1E2
330
1F
100
AcDbEntity
  8
7__7
  6
Continuous
 62
     2
100
AcDbCircle
 10
1620.209225
 20
129.537817
 30
0.0
 40
13.7999999999675
100
AcDbArc
 50
62.718932
 51
117.281068
  0
ARC
  5
1E3
330
1F
100
AcDbEntity
  8
7__7
  6
Continuous
 62
     2
100
AcDbCircle
 10
1620.209225
 20
129.537817
 30
0.0
 40
16.20000000003378
100
AcDbArc
 50
60.026114
 51
119.973886
  0
ARC
  5
1E4
330
1F
100
AcDbEntity
  8
7__7
  6
Continuous
 62
     2
100
AcDbCircle
 10
1620.209225
 20
129.537817
 30
0.0
 40
16.20000000003327
100
AcDbArc
 50
285.026114
 51
29.973886
  0
ARC
  5
1E5
330
1F
100
AcDbEntity
  8
7__7
  6
Continuous
 62
     2
100
AcDbCircle
 10
1620.209225
 20
129.537817
 30
0.0
 40
13.79999999999529
100
AcDbArc
 50
287.718932
 51
27.281068
  0
ARC
  5
1E6
330
1F
100
AcDbEntity
  8
7__7
  6
Continuous
 62
     2
100
AcDbCircle
 10
1620.209225
 20
129.537817
 30
0.0
 40
13.79999999999453
100
AcDbArc
 50
152.718932
 51
252.281068
  0
ARC
  5
1E7
330
1F
100
AcDbEntity
  8
7__7
  6
Continuous
 62
     2
100
AcDbCircle
 10
1620.209225
 20
129.537817
 30
0.0
 40
16.20000000001588
100
AcDbArc
 50
150.026114
 51
254.973886
  0
CIRCLE
  5
1E8
330
1F
100
AcDbEntity
  8
7__7
  6
Continuous
 62
     2
100
AcDbCircle
 10
1620.209225
 20
129.537817
 30
0.0
 40
19.80000000000007
  0
CIRCLE
  5
1E9
330
1F
100
AcDbEntity
  8
7__7
  6
Continuous
 62
     2
100
AcDbCircle
 10
1620.209225
 20
129.537817
 30
0.0
 40
22.19999999999993
  0
TEXT
  5
1EA
330
1F
100
AcDbEntity
  8
7__7
  6
Continuous
 62
     3
100
AcDbText
 10
1660.630801
 20
54.342805
 30
0.0
 40
18.0
  1
電話　０３－３６８５－３４５１（代）
 41
0.858268
  7
BIGFONT
100
AcDbText
  0
TEXT
  5
1EB
330
1F
100
AcDbEntity
  8
7__7
  6
Continuous
 62
     3
100
AcDbText
 10
1661.413945
 20
78.944311
 30
0.0
 40
18.0
  1
本社　東京都江東区亀戸６－２０－７
 41
0.858268
  7
BIGFONT
100
AcDbText
  0
ARC
  5
1EC
330
1F
100
AcDbEntity
  8
7__7
  6
Continuous
 62
     2
100
AcDbCircle
 10
1620.209225
 20
129.537817
 30
0.0
 40
15.00000000000333
100
AcDbArc
 50
151.260205
 51
253.739795
  0
ARC
  5
1ED
330
1F
100
AcDbEntity
  8
7__7
  6
Continuous
 62
     2
100
AcDbCircle
 10
1620.209225
 20
129.537817
 30
0.0
 40
14.99999999997434
100
AcDbArc
 50
286.260205
 51
28.739795
  0
ARC
  5
1EE
330
1F
100
AcDbEntity
  8
7__7
  6
Continuous
 62
     2
100
AcDbCircle
 10
1620.209225
 20
129.537817
 30
0.0
 40
14.99999999996777
100
AcDbArc
 50
61.260205
 51
118.739795
  0
CIRCLE
  5
1EF
330
1F
100
AcDbEntity
  8
7__7
  6
Continuous
 62
     2
100
AcDbCircle
 10
1620.209225
 20
129.537817
 30
0.0
 40
21.0
  0
TEXT
  5
1F0
330
1F
100
AcDbEntity
  8
7__7
  6
Continuous
 62
     1
100
AcDbText
 10
1657.879645
 20
108.553741
 30
0.0
 40
42.0
  1
三洋工業株式会社
 41
0.858268
  7
BIGFONT
100
AcDbText
  0
TEXT
  5
1F1
330
1F
100
AcDbEntity
  8
7__7
  6
Continuous
 62
     2
100
AcDbText
 10
2026.266241
 20
110.200591
 30
0.0
 40
18.0
  1
ｍｍ
 41
0.858268
  7
BIGFONT
100
AcDbText
  0
TEXT
  5
1F2
330
1F
100
AcDbEntity
  8
7__7
  6
Continuous
 62
     2
100
AcDbText
 10
2099.687833
 20
88.522091
 30
0.0
 40
18.0
  1
図番
 41
0.858268
  7
BIG VER
100
AcDbText
  0
TEXT
  5
1F3
330
1F
100
AcDbEntity
  8
7__7
  6
Continuous
 62
     2
100
AcDbText
 10
2099.687833
 20
150.763673
 30
0.0
 40
18.0
  1
形名
 41
0.858268
  7
BIG VER
100
AcDbText
  0
TEXT
  5
1F4
330
1F
100
AcDbEntity
  8
7__7
  6
Continuous
 62
     2
100
AcDbText
 10
1981.190324
 20
89.38625
 30
0.0
 40
18.0
  1
製図
 41
0.858268
  7
BIG VER
100
AcDbText
  0
TEXT
  5
1F5
330
1F
100
AcDbEntity
  8
7__7
  6
Continuous
 62
     2
100
AcDbText
 10
1981.190324
 20
149.034506
 30
0.0
 40
18.0
  1
単位
 41
0.858268
  7
BIG VER
100
AcDbText
  0
LINE
  5
1F6
330
1F
100
AcDbEntity
  8
7__7
  6
Continuous
 62
     3
100
AcDbLine
 10
1950.261907
 20
102.537817
 30
0.0
 11
2460.261907
 21
102.537817
 31
0.0
  0
TEXT
  5
1F7
330
1F
100
AcDbEntity
  8
7__7
  6
Continuous
 62
     2
100
AcDbText
 10
2194.793719
 20
133.764235
 30
0.0
 40
24.0
  1
ライトモニック
 41
0.858268
  7
BIGFONT
100
AcDbText
  0
TEXT
  5
1F8
330
1F
100
AcDbEntity
  8
7__7
  6
Continuous
 62
     2
100
AcDbText
 10
2188.11595
 20
61.484563
 30
0.0
 40
24.0
  1
Ｈ－１２－ＬＭ－７２
 41
0.858268
  7
BIGFONT
100
AcDbText
  0
LINE
  5
1F9
330
1F
100
AcDbEntity
  8
7__7
  6
Continuous
 62
     2
100
AcDbLine
 10
859.55094
 20
1603.999711
 30
0.0
 11
106.862295
 21
1603.999711
 31
0.0
  0
LINE
  5
1FA
330
1F
100
AcDbEntity
  8
7__7
  6
Continuous
 62
     2
100
AcDbLine
 10
106.862295
 20
1631.769211
 30
0.0
 11
106.862295
 21
1520.691211
 31
0.0
  0
TEXT
  5
1FB
330
1F
100
AcDbEntity
  8
7__7
  6
Continuous
 62
     3
100
AcDbText
 10
106.933086
 20
1581.931777
 30
0.0
 40
17.85
  1
　ＬＭ－　６００Ｓ－ＮＰ
 41
0.858268
  7
BIGFONT
100
AcDbText
  0
TEXT
  5
1FC
330
1F
100
AcDbEntity
  8
7__7
  6
Continuous
 62
     3
100
AcDbText
 10
122.094957
 20
1553.852829
 30
0.0
 40
17.85
  1
ＬＭ－　９００Ｓ－ＮＰ
 41
0.858268
  7
BIGFONT
100
AcDbText
  0
TEXT
  5
1FD
330
1F
100
AcDbEntity
  8
7__7
  6
Continuous
 62
     3
100
AcDbText
 10
122.788644
 20
1524.600667
 30
0.0
 40
17.85
  1
ＬＭ－１３００Ｓ－ＮＰ
 41
0.858268
  7
BIGFONT
100
AcDbText
  0
TEXT
  5
1FE
330
1F
100
AcDbEntity
  8
7__7
  6
Continuous
 62
     3
100
AcDbText
 10
152.631457
 20
1622.431081
 30
0.0
 40
17.85
  1
型
 41
0.858268
  7
BIGFONT
100
AcDbText
  0
TEXT
  5
1FF
330
1F
100
AcDbEntity
  8
7__7
  6
Continuous
 62
     3
100
AcDbText
 10
255.594164
 20
1622.431081
 30
0.0
 40
17.85
  1
式
 41
0.858268
  7
BIGFONT
100
AcDbText
  0
LINE
  5
200
330
1F
100
AcDbEntity
  8
7__7
  6
Continuous
 62
     3
100
AcDbLine
 10
859.55094
 20
1576.230211
 30
0.0
 11
106.862295
 21
1576.230211
 31
0.0
  0
LINE
  5
201
330
1F
100
AcDbEntity
  8
7__7
  6
Continuous
 62
     3
100
AcDbLine
 10
859.55094
 20
1548.460711
 30
0.0
 11
106.862295
 21
1548.460711
 31
0.0
  0
LINE
  5
202
330
1F
100
AcDbEntity
  8
7__7
  6
Continuous
 62
     2
100
AcDbLine
 10
859.55094
 20
1520.691211
 30
0.0
 11
106.862295
 21
1520.691211
 31
0.0
  0
LINE
  5
203
330
1F
100
AcDbEntity
  8
7__7
  6
Continuous
 62
     2
100
AcDbLine
 10
310.862295
 20
1631.769211
 30
0.0
 11
310.862295
 21
1520.691211
 31
0.0
  0
LINE
  5
204
330
1F
100
AcDbEntity
  8
7__7
  6
Continuous
 62
     3
100
AcDbLine
 10
392.462295
 20
1631.769211
 30
0.0
 11
392.462295
 21
1520.691211
 31
0.0
  0
LINE
  5
205
330
1F
100
AcDbEntity
  8
7__7
  6
Continuous
 62
     3
100
AcDbLine
 10
474.062295
 20
1631.769211
 30
0.0
 11
474.062295
 21
1520.691211
 31
0.0
  0
LINE
  5
206
330
1F
100
AcDbEntity
  8
7__7
  6
Continuous
 62
     3
100
AcDbLine
 10
555.662295
 20
1631.769211
 30
0.0
 11
555.662295
 21
1520.691211
 31
0.0
  0
TEXT
  5
207
330
1F
100
AcDbEntity
  8
7__7
  6
Continuous
 62
     3
100
AcDbText
 10
347.619686
 20
1608.749969
 30
0.0
 40
17.85
  1
Ａ
 41
0.858268
  7
BIGFONT
100
AcDbText
  0
TEXT
  5
208
330
1F
100
AcDbEntity
  8
7__7
  6
Continuous
 62
     3
100
AcDbText
 10
426.46004
 20
1607.312401
 30
0.0
 40
17.85
  1
Ｗ
 41
0.858268
  7
BIGFONT
100
AcDbText
  0
TEXT
  5
209
330
1F
100
AcDbEntity
  8
7__7
  6
Continuous
 62
     3
100
AcDbText
 10
504.417447
 20
1608.031144
 30
0.0
 40
17.85
  1
Ｓ
 41
0.858268
  7
BIGFONT
100
AcDbText
  0
TEXT
  5
20A
330
1F
100
AcDbEntity
  8
7__7
  6
Continuous
 62
     3
100
AcDbText
 10
657.975224
 20
1621.745502
 30
0.0
 40
17.85
  1
排煙面積
 41
0.858268
  7
BIGFONT
100
AcDbText
  0
TEXT
  5
20B
330
1F
100
AcDbEntity
  8
7__7
  6
Continuous
 62
     3
100
AcDbText
 10
336.377521
 20
1580.853586
 30
0.0
 40
17.85
  1
７３５
 41
0.858268
  7
BIGFONT
100
AcDbText
  0
TEXT
  5
20C
330
1F
100
AcDbEntity
  8
7__7
  6
Continuous
 62
     3
100
AcDbText
 10
321.064761
 20
1552.721716
 30
0.0
 40
17.85
  1
１０３５
 41
0.858268
  7
BIGFONT
100
AcDbText
  0
TEXT
  5
20D
330
1F
100
AcDbEntity
  8
7__7
  6
Continuous
 62
     3
100
AcDbText
 10
321.324677
 20
1524.907045
 30
0.0
 40
17.85
  1
１４３５
 41
0.858268
  7
BIGFONT
100
AcDbText
  0
TEXT
  5
20E
330
1F
100
AcDbEntity
  8
7__7
  6
Continuous
 62
     3
100
AcDbText
 10
416.765557
 20
1580.874052
 30
0.0
 40
17.85
  1
８７０
 41
0.858268
  7
BIGFONT
100
AcDbText
  0
TEXT
  5
20F
330
1F
100
AcDbEntity
  8
7__7
  6
Continuous
 62
     3
100
AcDbText
 10
402.306165
 20
1552.876348
 30
0.0
 40
17.85
  1
１１７０
 41
0.858268
  7
BIGFONT
100
AcDbText
  0
TEXT
  5
210
330
1F
100
AcDbEntity
  8
7__7
  6
Continuous
 62
     3
100
AcDbText
 10
402.270837
 20
1525.373578
 30
0.0
 40
17.85
  1
１５７０
 41
0.858268
  7
BIGFONT
100
AcDbText
  0
TEXT
  5
211
330
1F
100
AcDbEntity
  8
7__7
  6
Continuous
 62
     3
100
AcDbText
 10
499.301417
 20
1580.874052
 30
0.0
 40
17.85
  1
５４０
 41
0.858268
  7
BIGFONT
100
AcDbText
  0
TEXT
  5
212
330
1F
100
AcDbEntity
  8
7__7
  6
Continuous
 62
     3
100
AcDbText
 10
499.301417
 20
1553.968625
 30
0.0
 40
17.85
  1
８４０
 41
0.858268
  7
BIGFONT
100
AcDbText
  0
TEXT
  5
213
330
1F
100
AcDbEntity
  8
7__7
  6
Continuous
 62
     3
100
AcDbText
 10
483.898387
 20
1524.400207
 30
0.0
 40
17.85
  1
１２４０
 41
0.858268
  7
BIGFONT
100
AcDbText
  0
TEXT
  5
214
330
1F
100
AcDbEntity
  8
7__7
  6
Continuous
 62
     3
100
AcDbText
 10
667.194733
 20
1581.33319
 30
0.0
 40
17.85
  1
０．２９
 41
0.858268
  7
BIGFONT
100
AcDbText
  0
TEXT
  5
215
330
1F
100
AcDbEntity
  8
7__7
  6
Continuous
 62
     3
100
AcDbText
 10
667.245779
 20
1553.720224
 30
0.0
 40
17.85
  1
０．７
 41
0.858268
  7
BIGFONT
100
AcDbText
  0
TEXT
  5
216
330
1F
100
AcDbEntity
  8
7__7
  6
Continuous
 62
     3
100
AcDbText
 10
666.701976
 20
1525.920802
 30
0.0
 40
17.85
  1
１．５３７
 41
0.858268
  7
BIGFONT
100
AcDbText
  0
LINE
  5
217
330
1F
100
AcDbEntity
  8
7__7
  6
Continuous
 62
     2
100
AcDbLine
 10
310.862295
 20
1622.512711
 30
0.0
 11
310.862295
 21
1659.538711
 31
0.0
  0
LINE
  5
218
330
1F
100
AcDbEntity
  8
7__7
  6
Continuous
 62
     3
100
AcDbLine
 10
637.262295
 20
1631.769211
 30
0.0
 11
310.862295
 21
1631.769211
 31
0.0
  0
TEXT
  5
219
330
1F
100
AcDbEntity
  8
7__7
  6
Continuous
 62
     3
100
AcDbText
 10
540.190601
 20
1630.801226
 30
0.0
 40
17.85
  1
ｍｍ
 41
0.858268
  7
BIGFONT
100
AcDbText
  0
TEXT
  5
21A
330
1F
100
AcDbEntity
  8
7__7
  6
Continuous
 62
     2
100
AcDbText
 10
113.805023
 20
1666.023463
 30
0.0
 40
21.5985
  1
ＬＭ－Ｓ－ＮＰ型寸法表
 41
0.858268
  7
BIGFONT
100
AcDbText
  0
TEXT
  5
21B
330
1F
100
AcDbEntity
  8
7__7
  6
Continuous
 62
     3
100
AcDbText
 10
567.667376
 20
1608.752534
 30
0.0
 40
17.85
  1
硝子寸法
 41
0.858268
  7
BIGFONT
100
AcDbText
  0
TEXT
  5
21C
330
1F
100
AcDbEntity
  8
7__7
  6
Continuous
 62
     3
100
AcDbText
 10
581.439462
 20
1581.414897
 30
0.0
 40
17.85
  1
５６０
 41
0.858268
  7
BIGFONT
100
AcDbText
  0
TEXT
  5
21D
330
1F
100
AcDbEntity
  8
7__7
  6
Continuous
 62
     3
100
AcDbText
 10
581.439462
 20
1552.610979
 30
0.0
 40
17.85
  1
８６０
 41
0.858268
  7
BIGFONT
100
AcDbText
  0
TEXT
  5
21E
330
1F
100
AcDbEntity
  8
7__7
  6
Continuous
 62
     3
100
AcDbText
 10
566.494167
 20
1524.959575
 30
0.0
 40
17.85
  1
１２６０
 41
0.858268
  7
BIGFONT
100
AcDbText
  0
TEXT
  5
21F
330
1F
100
AcDbEntity
  8
7__7
  6
Continuous
 62
     3
100
AcDbText
 10
417.0717
 20
1635.842082
 30
0.0
 40
17.85
  1
寸          法
 41
0.500656
  7
BIGFONT
100
AcDbText
  0
TEXT
  5
220
330
1F
100
AcDbEntity
  8
7__7
  6
Continuous
 62
     3
100
AcDbText
 10
770.346777
 20
1621.577866
 30
0.0
 40
17.85
  1
概算重量
 41
0.858268
  7
BIGFONT
100
AcDbText
  0
TEXT
  5
221
330
1F
100
AcDbEntity
  8
7__7
  6
Continuous
 62
     3
100
AcDbText
 10
833.917171
 20
1609.69073
 30
0.0
 40
17.85
  1

 41
0.858268
  7
BIGFONT
100
AcDbText
  0
TEXT
  5
222
330
1F
100
AcDbEntity
  8
7__7
  6
Continuous
 62
     3
100
AcDbText
 10
789.271159
 20
1580.231258
 30
0.0
 40
17.85
  1
４８
 41
0.858268
  7
BIGFONT
100
AcDbText
  0
TEXT
  5
223
330
1F
100
AcDbEntity
  8
7__7
  6
Continuous
 62
     3
100
AcDbText
 10
790.019545
 20
1552.321957
 30
0.0
 40
17.85
  1
７２
 41
0.858268
  7
BIGFONT
100
AcDbText
  0
TEXT
  5
224
330
1F
100
AcDbEntity
  8
7__7
  6
Continuous
 62
     3
100
AcDbText
 10
775.802911
 20
1525.681352
 30
0.0
 40
17.85
  1
１１６
 41
0.858268
  7
BIGFONT
100
AcDbText
  0
TEXT
  5
225
330
1F
100
AcDbEntity
  8
7__7
  6
Continuous
 62
     3
100
AcDbText
 10
722.392798
 20
1608.983819
 30
0.0
 40
17.85
  1

 41
0.858268
  7
BIGFONT
100
AcDbText
  0
LINE
  5
226
330
1F
100
AcDbEntity
  8
7__7
  6
Continuous
 62
     2
100
AcDbLine
 10
106.862295
 20
1631.769211
 30
0.0
 11
106.862295
 21
1659.538711
 31
0.0
  0
LINE
  5
227
330
1F
100
AcDbEntity
  8
7__7
  6
Continuous
 62
     2
100
AcDbLine
 10
859.55094
 20
1659.538711
 30
0.0
 11
106.862295
 21
1659.538711
 31
0.0
  0
LINE
  5
228
330
1F
100
AcDbEntity
  8
7__7
  6
Continuous
 62
     2
100
AcDbLine
 10
637.262295
 20
1520.691211
 30
0.0
 11
637.262295
 21
1659.538711
 31
0.0
  0
LINE
  5
229
330
1F
100
AcDbEntity
  8
7__7
  6
Continuous
 62
     2
100
AcDbLine
 10
747.509461
 20
1520.691211
 30
0.0
 11
747.509461
 21
1659.538711
 31
0.0
  0
LINE
  5
22A
330
1F
100
AcDbEntity
  8
7__7
  6
Continuous
 62
     2
100
AcDbLine
 10
859.55094
 20
1520.691211
 30
0.0
 11
859.55094
 21
1659.538711
 31
0.0
  0
LINE
  5
22B
330
1F
100
AcDbEntity
  8
7__7
  6
Continuous
 62
     3
100
AcDbLine
 10
471.443004
 20
568.413891
 30
0.0
 11
460.56144
 21
568.413684
 31
0.0
  0
LINE
  5
22C
330
1F
100
AcDbEntity
  8
7__7
  6
Continuous
 62
     3
100
AcDbLine
 10
476.952678
 20
577.957256
 30
0.0
 11
471.443004
 21
568.413891
 31
0.0
  0
LINE
  5
22D
330
1F
100
AcDbEntity
  8
7__7
  6
Continuous
 62
     3
100
AcDbLine
 10
455.051282
 20
577.957048
 30
0.0
 11
460.56144
 21
568.413684
 31
0.0
  0
ARC
  5
22E
330
1F
100
AcDbEntity
  8
7__7
  6
Continuous
 62
     3
100
AcDbCircle
 10
491.71993
 20
497.714094
 30
0.0
 40
12.04999999999993
100
AcDbArc
 50
330.138098
 51
29.863767
  0
ARC
  5
22F
330
1F
100
AcDbEntity
  8
7__7
  6
Continuous
 62
     3
100
AcDbCircle
 10
500.222172
 20
488.708872
 30
0.0
 40
3.581413445213627
100
AcDbArc
 50
7.844797
 51
57.051908
  0
LINE
  5
230
330
1F
100
AcDbEntity
  8
7__7
  6
Continuous
 62
     3
100
AcDbLine
 10
503.769775
 20
507.183945
 30
0.0
 11
502.169751
 21
508.683919
 31
0.0
  0
LINE
  5
231
330
1F
100
AcDbEntity
  8
7__7
  6
Continuous
 62
     3
100
AcDbLine
 10
503.770084
 20
488.244635
 30
0.0
 11
502.170108
 21
486.744609
 31
0.0
  0
LINE
  5
232
330
1F
100
AcDbEntity
  8
7__7
  6
Continuous
 62
     3
100
AcDbLine
 10
502.169751
 20
508.683919
 30
0.0
 11
493.769751
 21
508.683782
 31
0.0
  0
LINE
  5
233
330
1F
100
AcDbEntity
  8
7__7
  6
Continuous
 62
     3
100
AcDbLine
 10
493.770108
 20
486.744472
 30
0.0
 11
502.170108
 21
486.744609
 31
0.0
  0
LINE
  5
234
330
1F
100
AcDbEntity
  8
7__7
  6
Continuous
 62
     3
100
AcDbLine
 10
493.769751
 20
508.683782
 30
0.0
 11
493.770108
 21
486.744472
 31
0.0
  0
LINE
  5
235
330
1F
100
AcDbEntity
  8
7__7
  6
Continuous
 62
     3
100
AcDbLine
 10
503.770084
 20
488.244635
 30
0.0
 11
503.769775
 21
507.183945
 31
0.0
  0
LINE
  5
236
330
1F
100
AcDbEntity
  8
7__7
  6
Continuous
 62
     3
100
AcDbLine
 10
493.769832
 20
503.714127
 30
0.0
 11
502.169832
 21
503.714264
 31
0.0
  0
LINE
  5
237
330
1F
100
AcDbEntity
  8
7__7
  6
Continuous
 62
     3
100
AcDbLine
 10
493.770027
 20
491.714127
 30
0.0
 11
502.170027
 21
491.714264
 31
0.0
  0
ARC
  5
238
330
1F
100
AcDbEntity
  8
7__7
  6
Continuous
 62
     3
100
AcDbCircle
 10
500.221879
 20
506.719593
 30
0.0
 40
3.581413445213627
100
AcDbArc
 50
302.949956
 51
352.157067
  0
ARC
  5
239
330
1F
100
AcDbEntity
  8
7__7
  6
Continuous
 62
     3
100
AcDbCircle
 10
430.007049
 20
481.886238
 30
0.0
 40
0.75
100
AcDbArc
 50
278.743564
 51
0.0
  0
LINE
  5
23A
330
1F
100
AcDbEntity
  8
7__7
  6
Continuous
 62
     3
100
AcDbLine
 10
315.757129
 20
463.555812
 30
0.0
 11
430.121059
 21
481.144954
 31
0.0
  0
LINE
  5
23B
330
1F
100
AcDbEntity
  8
7__7
  6
Continuous
 62
     4
100
AcDbLine
 10
433.057049
 20
493.271729
 30
0.0
 11
433.057049
 21
451.658698
 31
0.0
  0
LINE
  5
23C
330
1F
100
AcDbEntity
  8
7__7
  6
Continuous
 62
     3
100
AcDbLine
 10
479.257049
 20
531.459696
 30
0.0
 11
479.257049
 21
465.962418
 31
0.0
  0
LINE
  5
23D
330
1F
100
AcDbEntity
  8
7__7
  6
Continuous
 62
     3
100
AcDbLine
 10
492.257129
 20
479.961818
 30
0.0
 11
492.257129
 21
466.462418
 31
0.0
  0
LINE
  5
23E
330
1F
100
AcDbEntity
  8
7__7
  6
Continuous
 62
     3
100
AcDbLine
 10
480.757049
 20
466.462418
 30
0.0
 11
492.257129
 21
466.462418
 31
0.0
  0
INSERT
  5
248
330
1F
100
AcDbEntity
  8
7__7
  6
Continuous
 62
     3
100
AcDbBlockReference
  2
DIM_7
 10
1220.727208
 20
647.959405
 30
0.0
  0
INSERT
  5
251
330
1F
100
AcDbEntity
  8
7__7
  6
Continuous
 62
     3
100
AcDbBlockReference
  2
DIM_8
 10
1217.602208
 20
532.959401
 30
0.0
  0
LINE
  5
252
330
1F
100
AcDbEntity
  8
7__7
  6
Continuous
 62
     3
100
AcDbLine
 10
1398.757129
 20
482.958698
 30
0.0
 11
1398.757129
 21
645.226369
 31
0.0
  0
ARC
  5
253
330
1F
100
AcDbEntity
  8
7__7
  6
Continuous
 62
     3
100
AcDbCircle
 10
1397.757209
 20
646.958698
 30
0.0
 40
1.0
100
AcDbArc
 50
60.003332
 51
180.0
  0
LINE
  5
254
330
1F
100
AcDbEntity
  8
7__7
  6
Continuous
 62
     3
100
AcDbLine
 10
1396.757209
 20
481.458681
 30
0.0
 11
1396.757209
 21
646.958698
 31
0.0
  0
LINE
  5
255
330
1F
100
AcDbEntity
  8
7__7
  6
Continuous
 62
     3
100
AcDbLine
 10
1333.757129
 20
479.961818
 30
0.0
 11
1333.757129
 21
466.943339
 31
0.0
  0
LINE
  5
256
330
1F
100
AcDbEntity
  8
7__7
  6
Continuous
 62
     3
100
AcDbLine
 10
1396.007194
 20
531.458696
 30
0.0
 11
1348.257209
 21
531.459696
 31
0.0
  0
LINE
  5
257
330
1F
100
AcDbEntity
  8
7__7
  6
Continuous
 62
     3
100
AcDbLine
 10
1333.757129
 20
479.961818
 30
0.0
 11
1335.257129
 21
479.961818
 31
0.0
  0
LINE
  5
258
330
1F
100
AcDbEntity
  8
7__7
  6
Continuous
 62
     3
100
AcDbLine
 10
1333.757129
 20
479.961818
 30
0.0
 11
1333.757129
 21
465.962418
 31
0.0
  0
LINE
  5
259
330
1F
100
AcDbEntity
  8
7__7
  6
Continuous
 62
     3
100
AcDbLine
 10
1395.257209
 20
552.959289
 30
0.0
 11
1395.257209
 21
532.958699
 31
0.0
  0
LINE
  5
25A
330
1F
100
AcDbEntity
  8
7__7
  6
Continuous
 62
     3
100
AcDbLine
 10
1396.757209
 20
552.958206
 30
0.0
 11
1395.257209
 21
552.959289
 31
0.0
  0
ARC
  5
25B
330
1F
100
AcDbEntity
  8
7__7
  6
Continuous
 62
     3
100
AcDbCircle
 10
1334.757129
 20
465.962418
 30
0.0
 40
1.0
100
AcDbArc
 50
180.0
 51
270.0
  0
LINE
  5
25C
330
1F
100
AcDbEntity
  8
7__7
  6
Continuous
 62
     3
100
AcDbLine
 10
1346.757209
 20
531.959738
 30
0.0
 11
1346.757209
 21
466.462418
 31
0.0
  0
LINE
  5
25D
330
1F
100
AcDbEntity
  8
7__7
  6
PLine1
 62
     4
100
AcDbLine
 10
1396.757209
 20
493.271729
 30
0.0
 11
1394.457209
 21
493.271729
 31
0.0
  0
LINE
  5
25E
330
1F
100
AcDbEntity
  8
7__7
  6
Continuous
 62
     4
100
AcDbLine
 10
1396.757209
 20
452.958698
 30
0.0
 11
1497.757129
 21
452.958698
 31
0.0
  0
ARC
  5
25F
330
1F
100
AcDbEntity
  8
7__7
  6
Continuous
 62
     4
100
AcDbCircle
 10
1497.757129
 20
451.958698
 30
0.0
 40
1.0
100
AcDbArc
 50
0.0
 51
90.0
  0
LINE
  5
260
330
1F
100
AcDbEntity
  8
7__7
  6
Continuous
 62
     4
100
AcDbLine
 10
1498.757129
 20
417.958698
 30
0.0
 11
1498.757129
 21
451.958698
 31
0.0
  0
LINE
  5
261
330
1F
100
AcDbEntity
  8
7__7
  6
Continuous
 62
     4
100
AcDbLine
 10
1496.457129
 20
450.658698
 30
0.0
 11
1496.457129
 21
419.658698
 31
0.0
  0
ARC
  5
262
330
1F
100
AcDbEntity
  8
7__7
  6
Continuous
 62
     4
100
AcDbCircle
 10
1395.457209
 20
451.658698
 30
0.0
 40
1.0
100
AcDbArc
 50
180.0
 51
270.0
  0
LINE
  5
263
330
1F
100
AcDbEntity
  8
7__7
  6
Continuous
 62
     4
100
AcDbLine
 10
1496.457129
 20
450.658698
 30
0.0
 11
1395.457209
 21
450.658698
 31
0.0
  0
LINE
  5
264
330
1F
100
AcDbEntity
  8
7__7
  6
Continuous
 62
     4
100
AcDbLine
 10
1498.757129
 20
419.658698
 30
0.0
 11
1496.457129
 21
419.658698
 31
0.0
  0
LINE
  5
265
330
1F
100
AcDbEntity
  8
7__7
  6
Continuous
 62
     4
100
AcDbLine
 10
1428.757129
 20
450.658698
 30
0.0
 11
1428.757129
 21
425.658698
 31
0.0
  0
LINE
  5
266
330
1F
100
AcDbEntity
  8
7__7
  6
Continuous
 62
     4
100
AcDbLine
 10
1426.457129
 20
425.658698
 30
0.0
 11
1426.457129
 21
448.358698
 31
0.0
  0
LINE
  5
267
330
1F
100
AcDbEntity
  8
7__7
  6
Continuous
 62
     4
100
AcDbLine
 10
1426.457129
 20
448.358698
 30
0.0
 11
1413.757129
 21
448.358698
 31
0.0
  0
LINE
  5
268
330
1F
100
AcDbEntity
  8
7__7
  6
Continuous
 62
     4
100
AcDbLine
 10
1428.757129
 20
425.658698
 30
0.0
 11
1426.457129
 21
425.658698
 31
0.0
  0
LINE
  5
269
330
1F
100
AcDbEntity
  8
7__7
  6
Continuous
 62
     4
100
AcDbLine
 10
1413.757129
 20
450.658698
 30
0.0
 11
1413.757129
 21
448.358698
 31
0.0
  0
LINE
  5
26A
330
1F
100
AcDbEntity
  8
7__7
  6
Continuous
 62
     4
100
AcDbLine
 10
1396.757209
 20
481.886238
 30
0.0
 11
1396.757209
 21
452.958698
 31
0.0
  0
ARC
  5
26B
330
1F
100
AcDbEntity
  8
7__7
  6
Continuous
 62
     3
100
AcDbCircle
 10
1513.007129
 20
430.708698
 30
0.0
 40
0.75
100
AcDbArc
 50
270.0
 51
0.0
  0
LINE
  5
26C
330
1F
100
AcDbEntity
  8
7__7
  6
Continuous
 62
     3
100
AcDbLine
 10
1500.757129
 20
429.958698
 30
0.0
 11
1513.007129
 21
429.958698
 31
0.0
  0
LINE
  5
26D
330
1F
100
AcDbEntity
  8
7__7
  6
Continuous
 62
     3
100
AcDbLine
 10
1513.757129
 20
464.62826
 30
0.0
 11
1513.757129
 21
430.708698
 31
0.0
  0
ARC
  5
26E
330
1F
100
AcDbEntity
  8
7__7
  6
Continuous
 62
     3
100
AcDbCircle
 10
1513.007129
 20
464.62826
 30
0.0
 40
0.75
100
AcDbArc
 50
0.0
 51
81.256436
  0
LINE
  5
26F
330
1F
100
AcDbEntity
  8
7__7
  6
Continuous
 62
     3
100
AcDbLine
 10
1398.757129
 20
482.958698
 30
0.0
 11
1513.121139
 21
465.369544
 31
0.0
  0
LINE
  5
270
330
1F
100
AcDbEntity
  8
7__7
  6
Continuous
 62
     3
100
AcDbLine
 10
1511.757129
 20
463.560422
 30
0.0
 11
1511.757129
 21
431.958698
 31
0.0
  0
LINE
  5
271
330
1F
100
AcDbEntity
  8
7__7
  6
Continuous
 62
     3
100
AcDbLine
 10
1511.757129
 20
431.958698
 30
0.0
 11
1499.507129
 21
431.958698
 31
0.0
  0
ARC
  5
272
330
1F
100
AcDbEntity
  8
7__7
  6
Continuous
 62
     3
100
AcDbCircle
 10
1499.507129
 20
431.208698
 30
0.0
 40
0.75
100
AcDbArc
 50
90.0
 51
180.0
  0
LINE
  5
273
330
1F
100
AcDbEntity
  8
7__7
  6
Continuous
 62
     3
100
AcDbLine
 10
1498.757129
 20
417.958698
 30
0.0
 11
1498.757129
 21
431.208698
 31
0.0
  0
LINE
  5
274
330
1F
100
AcDbEntity
  8
7__7
  6
Continuous
 62
     3
100
AcDbLine
 10
1500.757129
 20
417.958698
 30
0.0
 11
1498.757129
 21
417.958698
 31
0.0
  0
LINE
  5
275
330
1F
100
AcDbEntity
  8
7__7
  6
Continuous
 62
     3
100
AcDbLine
 10
1500.757129
 20
429.958698
 30
0.0
 11
1500.757129
 21
416.766949
 31
0.0
  0
ARC
  5
276
330
1F
100
AcDbEntity
  8
7__7
  6
Continuous
 62
     3
100
AcDbCircle
 10
1397.507209
 20
481.886238
 30
0.0
 40
0.75
100
AcDbArc
 50
180.0
 51
261.256436
  0
LINE
  5
277
330
1F
100
AcDbEntity
  8
7__7
  6
Continuous
 62
     3
100
AcDbLine
 10
1511.757129
 20
463.555812
 30
0.0
 11
1397.3932
 21
481.144954
 31
0.0
  0
LINE
  5
278
330
1F
100
AcDbEntity
  8
7__7
  6
Continuous
 62
     3
100
AcDbLine
 10
1348.257209
 20
465.708698
 30
0.0
 11
1348.257209
 21
531.459696
 31
0.0
  0
LINE
  5
279
330
1F
100
AcDbEntity
  8
7__7
  6
Continuous
 62
     3
100
AcDbLine
 10
1335.257129
 20
479.961818
 30
0.0
 11
1335.257129
 21
466.462418
 31
0.0
  0
LINE
  5
27A
330
1F
100
AcDbEntity
  8
7__7
  6
Continuous
 62
     3
100
AcDbLine
 10
1346.757209
 20
466.462418
 30
0.0
 11
1335.257129
 21
466.462418
 31
0.0
  0
LINE
  5
27B
330
1F
100
AcDbEntity
  8
7__7
  6
Continuous
 62
     4
100
AcDbLine
 10
1394.457209
 20
482.960245
 30
0.0
 11
1394.457209
 21
451.658698
 31
0.0
  0
ARC
  5
27C
330
1F
100
AcDbEntity
  8
7__7
  6
Continuous
 62
     3
100
AcDbCircle
 10
1324.757129
 20
665.672572
 30
0.0
 40
1.0
100
AcDbArc
 50
180.0
 51
270.000597
  0
ARC
  5
27D
330
1F
100
AcDbEntity
  8
7__7
  6
Continuous
 62
     3
100
AcDbCircle
 10
1326.007129
 20
693.922504
 30
0.0
 40
0.75
100
AcDbArc
 50
90.0
 51
180.0
  0
LINE
  5
27E
330
1F
100
AcDbEntity
  8
7__7
  6
Continuous
 62
     3
100
AcDbLine
 10
1325.257129
 20
686.233841
 30
0.0
 11
1325.257129
 21
693.922504
 31
0.0
  0
LINE
  5
27F
330
1F
100
AcDbEntity
  8
7__7
  6
Continuous
 62
     3
100
AcDbLine
 10
1326.757129
 20
666.172558
 30
0.0
 11
1326.757129
 21
693.173392
 31
0.0
  0
LINE
  5
280
330
1F
100
AcDbEntity
  8
7__7
  6
Continuous
 62
     3
100
AcDbLine
 10
1325.257129
 20
694.672504
 30
0.0
 11
1325.257129
 21
693.445553
 31
0.0
  0
ARC
  5
281
330
1F
100
AcDbEntity
  8
7__7
  6
Continuous
 62
     3
100
AcDbCircle
 10
1411.257129
 20
665.672473
 30
0.0
 40
1.0
100
AcDbArc
 50
270.0
 51
0.0
  0
LINE
  5
282
330
1F
100
AcDbEntity
  8
7__7
  6
Continuous
 62
     3
100
AcDbLine
 10
1323.757129
 20
664.673384
 30
0.0
 11
1323.757129
 21
694.672504
 31
0.0
  0
ARC
  5
283
330
1F
100
AcDbEntity
  8
7__7
  6
Continuous
 62
     3
100
AcDbCircle
 10
1412.757129
 20
693.672504
 30
0.0
 40
1.0
100
AcDbArc
 50
0.0
 51
90.0
  0
LINE
  5
284
330
1F
100
AcDbEntity
  8
7__7
  6
Continuous
 62
     3
100
AcDbLine
 10
1413.757129
 20
666.85368
 30
0.0
 11
1413.757129
 21
693.672504
 31
0.0
  0
LINE
  5
285
330
1F
100
AcDbEntity
  8
7__7
  6
Continuous
 62
     3
100
AcDbLine
 10
1325.257129
 20
686.26984
 30
0.0
 11
1325.257129
 21
666.17256
 31
0.0
  0
LINE
  5
286
330
1F
100
AcDbEntity
  8
7__7
  6
Continuous
 62
     3
100
AcDbLine
 10
1412.257129
 20
665.672473
 30
0.0
 11
1412.257129
 21
693.173392
 31
0.0
  0
LINE
  5
287
330
1F
100
AcDbEntity
  8
7__7
  6
Continuous
 62
     3
100
AcDbLine
 10
1410.757129
 20
693.173472
 30
0.0
 11
1410.757129
 21
666.172473
 31
0.0
  0
LINE
  5
288
330
1F
100
AcDbEntity
  8
7__7
  6
Continuous
 62
     3
100
AcDbLine
 10
1410.757129
 20
666.172473
 30
0.0
 11
1325.257129
 21
666.17256
 31
0.0
  0
ARC
  5
289
330
1F
100
AcDbEntity
  8
7__7
  6
Continuous
 62
     3
100
AcDbCircle
 10
1347.757169
 20
531.959738
 30
0.0
 40
0.9999600000000002
100
AcDbArc
 50
90.0
 51
180.0
  0
ARC
  5
28A
330
1F
100
AcDbEntity
  8
7__7
  6
Continuous
 62
     3
100
AcDbCircle
 10
1396.007209
 20
532.208696
 30
0.0
 40
0.75
100
AcDbArc
 50
269.998801
 51
0.0
  0
LINE
  5
28B
330
1F
100
AcDbEntity
  8
7__7
  6
Continuous
 62
     6
100
AcDbLine
 10
485.560573
 20
694.672504
 30
0.0
 11
489.546838
 21
698.658768
 31
0.0
  0
LINE
  5
28C
330
1F
100
AcDbEntity
  8
7__7
  6
Continuous
 62
     6
100
AcDbLine
 10
489.772572
 20
694.672504
 30
0.0
 11
493.758836
 21
698.658768
 31
0.0
  0
LINE
  5
28D
330
1F
100
AcDbEntity
  8
7__7
  6
Continuous
 62
     6
100
AcDbLine
 10
494.02057
 20
694.672504
 30
0.0
 11
498.006834
 21
698.658768
 31
0.0
  0
LINE
  5
28E
330
1F
100
AcDbEntity
  8
7__7
  6
Continuous
 62
     6
100
AcDbLine
 10
500.257129
 20
697.134777
 30
0.0
 11
497.794856
 21
694.672504
 31
0.0
  0
LINE
  5
28F
330
1F
100
AcDbEntity
  8
7__7
  6
Continuous
 62
     6
100
AcDbLine
 10
502.257129
 20
716.472504
 30
0.0
 11
502.257129
 21
719.172504
 31
0.0
  0
CIRCLE
  5
290
330
1F
100
AcDbEntity
  8
7__7
  6
Continuous
 62
     3
100
AcDbCircle
 10
494.995401
 20
702.317409
 30
0.0
 40
0.3959998416000001
  0
CIRCLE
  5
291
330
1F
100
AcDbEntity
  8
7__7
  6
Continuous
 62
     3
100
AcDbCircle
 10
553.541378
 20
702.161409
 30
0.0
 40
0.3959998416000001
  0
CIRCLE
  5
292
330
1F
100
AcDbEntity
  8
7__7
  6
Continuous
 62
     3
100
AcDbCircle
 10
603.541358
 20
702.161409
 30
0.0
 40
0.3959998416000001
  0
CIRCLE
  5
293
330
1F
100
AcDbEntity
  8
7__7
  6
Continuous
 62
     3
100
AcDbCircle
 10
653.541338
 20
702.161409
 30
0.0
 40
0.3959998416000001
  0
CIRCLE
  5
294
330
1F
100
AcDbEntity
  8
7__7
  6
Continuous
 62
     3
100
AcDbCircle
 10
703.541318
 20
702.161409
 30
0.0
 40
0.3959998416000001
  0
CIRCLE
  5
295
330
1F
100
AcDbEntity
  8
7__7
  6
Continuous
 62
     3
100
AcDbCircle
 10
753.541298
 20
702.161409
 30
0.0
 40
0.3959998416000001
  0
CIRCLE
  5
296
330
1F
100
AcDbEntity
  8
7__7
  6
Continuous
 62
     3
100
AcDbCircle
 10
803.541278
 20
702.161409
 30
0.0
 40
0.3959998416000001
  0
CIRCLE
  5
297
330
1F
100
AcDbEntity
  8
7__7
  6
Continuous
 62
     3
100
AcDbCircle
 10
853.540258
 20
702.161409
 30
0.0
 40
0.3959998416000001
  0
CIRCLE
  5
298
330
1F
100
AcDbEntity
  8
7__7
  6
Continuous
 62
     3
100
AcDbCircle
 10
903.541238
 20
702.161409
 30
0.0
 40
0.3959998416000001
  0
CIRCLE
  5
299
330
1F
100
AcDbEntity
  8
7__7
  6
Continuous
 62
     3
100
AcDbCircle
 10
953.438257
 20
702.234755
 30
0.0
 40
0.3959998416000001
  0
CIRCLE
  5
29A
330
1F
100
AcDbEntity
  8
7__7
  6
Continuous
 62
     3
100
AcDbCircle
 10
1003.438237
 20
702.234755
 30
0.0
 40
0.3959998416000001
  0
CIRCLE
  5
29B
330
1F
100
AcDbEntity
  8
7__7
  6
Continuous
 62
     3
100
AcDbCircle
 10
1053.438217
 20
702.234755
 30
0.0
 40
0.3959998416000001
  0
CIRCLE
  5
29C
330
1F
100
AcDbEntity
  8
7__7
  6
Continuous
 62
     3
100
AcDbCircle
 10
1103.438197
 20
702.234755
 30
0.0
 40
0.3959998416000001
  0
CIRCLE
  5
29D
330
1F
100
AcDbEntity
  8
7__7
  6
Continuous
 62
     3
100
AcDbCircle
 10
1153.438177
 20
702.234755
 30
0.0
 40
0.3959998416000001
  0
CIRCLE
  5
29E
330
1F
100
AcDbEntity
  8
7__7
  6
Continuous
 62
     3
100
AcDbCircle
 10
1203.438157
 20
702.234755
 30
0.0
 40
0.3959998416000001
  0
CIRCLE
  5
29F
330
1F
100
AcDbEntity
  8
7__7
  6
Continuous
 62
     3
100
AcDbCircle
 10
1253.438137
 20
702.234755
 30
0.0
 40
0.3959998416000001
  0
CIRCLE
  5
2A0
330
1F
100
AcDbEntity
  8
7__7
  6
Continuous
 62
     3
100
AcDbCircle
 10
1303.570117
 20
702.168755
 30
0.0
 40
0.3959998416000001
  0
ARC
  5
2A1
330
1F
100
AcDbEntity
  8
7__7
  6
Continuous
 62
     3
100
AcDbCircle
 10
397.007129
 20
695.422504
 30
0.0
 40
0.75
100
AcDbArc
 50
90.0
 51
180.0
  0
LINE
  5
2A2
330
1F
100
AcDbEntity
  8
7__7
  6
Continuous
 62
     3
100
AcDbLine
 10
478.757129
 20
696.172504
 30
0.0
 11
397.007129
 21
696.172504
 31
0.0
  0
ARC
  5
2A3
330
1F
100
AcDbEntity
  8
7__7
  6
Continuous
 62
     3
100
AcDbCircle
 10
479.557129
 20
719.872504
 30
0.0
 40
0.8
100
AcDbArc
 50
90.0
 51
180.0
  0
LINE
  5
2A4
330
1F
100
AcDbEntity
  8
7__7
  6
Continuous
 62
     3
100
AcDbLine
 10
478.757129
 20
719.872504
 30
0.0
 11
478.757129
 21
696.172504
 31
0.0
  0
LINE
  5
2A5
330
1F
100
AcDbEntity
  8
7__7
  6
Continuous
 62
     3
100
AcDbLine
 10
508.757129
 20
719.172504
 30
0.0
 11
480.257129
 21
719.172504
 31
0.0
  0
LINE
  5
2A6
330
1F
100
AcDbEntity
  8
7__7
  6
Continuous
 62
     3
100
AcDbLine
 10
508.757129
 20
720.672504
 30
0.0
 11
479.557129
 21
720.672504
 31
0.0
  0
LINE
  5
2A7
330
1F
100
AcDbEntity
  8
7__7
  6
Continuous
 62
     3
100
AcDbLine
 10
480.257129
 20
695.472504
 30
0.0
 11
480.257129
 21
719.172504
 31
0.0
  0
ARC
  5
2A8
330
1F
100
AcDbEntity
  8
7__7
  6
Continuous
 62
     3
100
AcDbCircle
 10
479.457129
 20
695.472504
 30
0.0
 40
0.8
100
AcDbArc
 50
270.0
 51
0.0
  0
LINE
  5
2A9
330
1F
100
AcDbEntity
  8
7__7
  6
Continuous
 62
     6
100
AcDbLine
 10
480.257129
 20
698.672504
 30
0.0
 11
500.257129
 21
698.672504
 31
0.0
  0
LINE
  5
2AA
330
1F
100
AcDbEntity
  8
7__7
  6
Continuous
 62
     6
100
AcDbLine
 10
500.257129
 20
698.672504
 30
0.0
 11
500.257129
 21
694.672504
 31
0.0
  0
LINE
  5
2AB
330
1F
100
AcDbEntity
  8
7__7
  6
Continuous
 62
     6
100
AcDbLine
 10
480.257129
 20
694.672504
 30
0.0
 11
480.257129
 21
698.672504
 31
0.0
  0
LINE
  5
2AC
330
1F
100
AcDbEntity
  8
7__7
  6
Continuous
 62
     6
100
AcDbLine
 10
1346.21613
 20
698.672504
 30
0.0
 11
483.757129
 21
698.672504
 31
0.0
  0
LINE
  5
2AD
330
1F
100
AcDbEntity
  8
7__7
  6
Continuous
 62
     6
100
AcDbLine
 10
1343.757129
 20
705.472504
 30
0.0
 11
483.757129
 21
705.472504
 31
0.0
  0
LINE
  5
2AE
330
1F
100
AcDbEntity
  8
7__7
  6
Continuous
 62
     6
100
AcDbLine
 10
483.757129
 20
716.472504
 30
0.0
 11
483.757129
 21
698.672504
 31
0.0
  0
LINE
  5
2AF
330
1F
100
AcDbEntity
  8
7__7
  6
Continuous
 62
     3
100
AcDbLine
 10
508.757129
 20
720.672504
 30
0.0
 11
508.757129
 21
719.172504
 31
0.0
  0
LINE
  5
2B0
330
1F
100
AcDbEntity
  8
7__7
  6
Continuous
 62
     6
100
AcDbLine
 10
1346.927396
 20
694.672504
 30
0.0
 11
1342.941131
 21
698.658768
 31
0.0
  0
LINE
  5
2B1
330
1F
100
AcDbEntity
  8
7__7
  6
Continuous
 62
     6
100
AcDbLine
 10
1342.931397
 20
694.672504
 30
0.0
 11
1338.945133
 21
698.658768
 31
0.0
  0
LINE
  5
2B2
330
1F
100
AcDbEntity
  8
7__7
  6
Continuous
 62
     6
100
AcDbLine
 10
1338.719399
 20
694.672504
 30
0.0
 11
1334.733134
 21
698.658768
 31
0.0
  0
LINE
  5
2B3
330
1F
100
AcDbEntity
  8
7__7
  6
Continuous
 62
     6
100
AcDbLine
 10
1334.471401
 20
694.672504
 30
0.0
 11
1330.485136
 21
698.658768
 31
0.0
  0
LINE
  5
2B4
330
1F
100
AcDbEntity
  8
7__7
  6
Continuous
 62
     6
100
AcDbLine
 10
1327.257129
 20
697.134777
 30
0.0
 11
1329.719403
 21
694.672504
 31
0.0
  0
LINE
  5
2B5
330
1F
100
AcDbEntity
  8
7__7
  6
Continuous
 62
     3
100
AcDbLine
 10
1348.757129
 20
696.172504
 30
0.0
 11
1430.507129
 21
696.172504
 31
0.0
  0
ARC
  5
2B6
330
1F
100
AcDbEntity
  8
7__7
  6
Continuous
 62
     3
100
AcDbCircle
 10
1347.957129
 20
719.872504
 30
0.0
 40
0.8
100
AcDbArc
 50
0.0
 51
90.0
  0
LINE
  5
2B7
330
1F
100
AcDbEntity
  8
7__7
  6
Continuous
 62
     3
100
AcDbLine
 10
1348.757129
 20
719.872504
 30
0.0
 11
1348.757129
 21
696.172504
 31
0.0
  0
LINE
  5
2B8
330
1F
100
AcDbEntity
  8
7__7
  6
Continuous
 62
     3
100
AcDbLine
 10
1318.757129
 20
719.172504
 30
0.0
 11
1347.257129
 21
719.172504
 31
0.0
  0
LINE
  5
2B9
330
1F
100
AcDbEntity
  8
7__7
  6
Continuous
 62
     3
100
AcDbLine
 10
1318.757129
 20
720.672504
 30
0.0
 11
1347.957129
 21
720.672504
 31
0.0
  0
LINE
  5
2BA
330
1F
100
AcDbEntity
  8
7__7
  6
Continuous
 62
     3
100
AcDbLine
 10
1347.257129
 20
695.472504
 30
0.0
 11
1347.257129
 21
719.172504
 31
0.0
  0
ARC
  5
2BB
330
1F
100
AcDbEntity
  8
7__7
  6
Continuous
 62
     3
100
AcDbCircle
 10
1348.057129
 20
695.472504
 30
0.0
 40
0.8
100
AcDbArc
 50
180.0
 51
270.0
  0
LINE
  5
2BC
330
1F
100
AcDbEntity
  8
7__7
  6
Continuous
 62
     6
100
AcDbLine
 10
1347.257129
 20
698.672504
 30
0.0
 11
1327.257129
 21
698.672504
 31
0.0
  0
LINE
  5
2BD
330
1F
100
AcDbEntity
  8
7__7
  6
Continuous
 62
     6
100
AcDbLine
 10
1327.257129
 20
698.672504
 30
0.0
 11
1327.257129
 21
694.672504
 31
0.0
  0
LINE
  5
2BE
330
1F
100
AcDbEntity
  8
7__7
  6
Continuous
 62
     6
100
AcDbLine
 10
1347.257129
 20
694.672504
 30
0.0
 11
1347.257129
 21
698.672504
 31
0.0
  0
LINE
  5
2BF
330
1F
100
AcDbEntity
  8
7__7
  6
Continuous
 62
     6
100
AcDbLine
 10
1343.757129
 20
698.672504
 30
0.0
 11
1343.757129
 21
716.472504
 31
0.0
  0
LINE
  5
2C0
330
1F
100
AcDbEntity
  8
7__7
  6
Continuous
 62
     3
100
AcDbLine
 10
1318.757129
 20
720.672504
 30
0.0
 11
1318.757129
 21
719.172504
 31
0.0
  0
LINE
  5
2C1
330
1F
100
AcDbEntity
  8
7__7
  6
Continuous
 62
     3
100
AcDbLine
 10
1372.507129
 20
166.908618
 30
0.0
 11
1372.507129
 21
268.4093
 31
0.0
  0
LINE
  5
2C2
330
1F
100
AcDbEntity
  8
7__7
  6
Continuous
 62
     4
100
AcDbLine
 10
1368.257129
 20
268.4093
 30
0.0
 11
1368.257129
 21
444.460245
 31
0.0
  0
LINE
  5
2C3
330
1F
100
AcDbEntity
  8
7__7
  6
Continuous
 62
     4
100
AcDbLine
 10
1379.257129
 20
268.4093
 30
0.0
 11
1379.257129
 21
444.460245
 31
0.0
  0
LINE
  5
2C4
330
1F
100
AcDbEntity
  8
7__7
  6
Continuous
 62
     4
100
AcDbLine
 10
1350.557209
 20
531.459648
 30
0.0
 11
1350.557209
 21
485.260245
 31
0.0
  0
LINE
  5
2C5
330
1F
100
AcDbEntity
  8
7__7
  6
Continuous
 62
     4
100
AcDbLine
 10
1394.457209
 20
531.458729
 30
0.0
 11
1394.457209
 21
485.260245
 31
0.0
  0
ARC
  5
2C6
330
1F
100
AcDbEntity
  8
7__7
  6
Continuous
 62
     3
100
AcDbCircle
 10
1349.257209
 20
483.960245
 30
0.0
 40
1.0
100
AcDbArc
 50
180.0
 51
270.0
  0
ARC
  5
2C7
330
1F
100
AcDbEntity
  8
7__7
  6
Continuous
 62
     3
100
AcDbCircle
 10
1395.757209
 20
483.960245
 30
0.0
 40
1.0
100
AcDbArc
 50
270.0
 51
0.0
  0
LINE
  5
2C8
330
1F
100
AcDbEntity
  8
7__7
  6
Continuous
 62
     4
100
AcDbLine
 10
1349.257209
 20
482.960245
 30
0.0
 11
1395.757209
 21
482.960245
 31
0.0
  0
LINE
  5
2C9
330
1F
100
AcDbEntity
  8
7__7
  6
Continuous
 62
     4
100
AcDbLine
 10
1350.557209
 20
485.260245
 30
0.0
 11
1394.457209
 21
485.260245
 31
0.0
  0
ARC
  5
2CA
330
1F
100
AcDbEntity
  8
7__7
  6
Continuous
 62
     4
100
AcDbCircle
 10
1371.007129
 20
268.4093
 30
0.0
 40
2.749999999999972
100
AcDbArc
 50
180.0
 51
0.0
  0
ARC
  5
2CB
330
1F
100
AcDbEntity
  8
7__7
  6
Continuous
 62
     4
100
AcDbCircle
 10
1376.507129
 20
268.4093
 30
0.0
 40
2.749999999999972
100
AcDbArc
 50
0.0
 51
180.0
  0
LINE
  5
2CC
330
1F
100
AcDbEntity
  8
7__7
  6
Continuous
 62
     3
100
AcDbLine
 10
1375.007129
 20
166.908618
 30
0.0
 11
1375.007129
 21
270.714187
 31
0.0
  0
LINE
  5
2CD
330
1F
100
AcDbEntity
  8
7__7
  6
Continuous
 62
     3
100
AcDbLine
 10
1366.257129
 20
531.459339
 30
0.0
 11
1366.257129
 21
532.960246
 31
0.0
  0
LINE
  5
2CE
330
1F
100
AcDbEntity
  8
7__7
  6
Continuous
 62
     3
100
AcDbLine
 10
1381.257129
 20
531.459025
 30
0.0
 11
1381.257129
 21
532.960246
 31
0.0
  0
LINE
  5
2CF
330
1F
100
AcDbEntity
  8
7__7
  6
Continuous
 62
     4
100
AcDbLine
 10
1367.007129
 20
472.960245
 30
0.0
 11
1380.507129
 21
472.960245
 31
0.0
  0
LINE
  5
2D0
330
1F
100
AcDbEntity
  8
7__7
  6
Continuous
 62
     4
100
AcDbLine
 10
1380.507129
 20
472.960245
 30
0.0
 11
1380.507129
 21
444.460245
 31
0.0
  0
LINE
  5
2D1
330
1F
100
AcDbEntity
  8
7__7
  6
Continuous
 62
     4
100
AcDbLine
 10
1380.507129
 20
444.460245
 30
0.0
 11
1367.007129
 21
444.460245
 31
0.0
  0
LINE
  5
2D2
330
1F
100
AcDbEntity
  8
7__7
  6
Continuous
 62
     4
100
AcDbLine
 10
1367.007129
 20
444.460245
 30
0.0
 11
1367.007129
 21
472.960245
 31
0.0
  0
LINE
  5
2D3
330
1F
100
AcDbEntity
  8
7__7
  6
Continuous
 62
     4
100
AcDbLine
 10
1367.007129
 20
472.960245
 30
0.0
 11
1369.757129
 21
477.460245
 31
0.0
  0
LINE
  5
2D4
330
1F
100
AcDbEntity
  8
7__7
  6
Continuous
 62
     4
100
AcDbLine
 10
1369.757129
 20
477.460245
 30
0.0
 11
1377.757129
 21
477.460245
 31
0.0
  0
LINE
  5
2D5
330
1F
100
AcDbEntity
  8
7__7
  6
Continuous
 62
     4
100
AcDbLine
 10
1377.757129
 20
477.460245
 30
0.0
 11
1380.507129
 21
472.960245
 31
0.0
  0
LINE
  5
2D6
330
1F
100
AcDbEntity
  8
7__7
  6
Continuous
 62
     4
100
AcDbLine
 10
1368.757129
 20
482.960245
 30
0.0
 11
1368.757129
 21
485.260245
 31
0.0
  0
LINE
  5
2D7
330
1F
100
AcDbEntity
  8
7__7
  6
Continuous
 62
     4
100
AcDbLine
 10
1369.757129
 20
490.760245
 30
0.0
 11
1369.757129
 21
498.460245
 31
0.0
  0
LINE
  5
2D8
330
1F
100
AcDbEntity
  8
7__7
  6
Continuous
 62
     4
100
AcDbLine
 10
1369.757129
 20
498.460245
 30
0.0
 11
1370.757129
 21
499.460245
 31
0.0
  0
LINE
  5
2D9
330
1F
100
AcDbEntity
  8
7__7
  6
Continuous
 62
     4
100
AcDbLine
 10
1370.757129
 20
499.460245
 30
0.0
 11
1376.757129
 21
499.460245
 31
0.0
  0
LINE
  5
2DA
330
1F
100
AcDbEntity
  8
7__7
  6
Continuous
 62
     4
100
AcDbLine
 10
1376.757129
 20
499.460245
 30
0.0
 11
1377.757129
 21
498.460245
 31
0.0
  0
LINE
  5
2DB
330
1F
100
AcDbEntity
  8
7__7
  6
Continuous
 62
     4
100
AcDbLine
 10
1377.757129
 20
498.460245
 30
0.0
 11
1377.757129
 21
490.760245
 31
0.0
  0
LINE
  5
2DC
330
1F
100
AcDbEntity
  8
7__7
  6
Continuous
 62
     4
100
AcDbLine
 10
1378.757129
 20
485.260245
 30
0.0
 11
1378.757129
 21
482.960245
 31
0.0
  0
ARC
  5
2DD
330
1F
100
AcDbEntity
  8
7__7
  6
Continuous
 62
     3
100
AcDbCircle
 10
1373.757129
 20
481.005829
 30
0.0
 40
9.754415587707356
100
AcDbArc
 50
65.790724
 51
114.209276
  0
ARC
  5
2DE
330
1F
100
AcDbEntity
  8
7__7
  6
Continuous
 62
     3
100
AcDbCircle
 10
1379.329246
 20
488.898897
 30
0.0
 40
1.865081654395928
100
AcDbArc
 50
93.62604
 51
147.449869
  0
LINE
  5
2DF
330
1F
100
AcDbEntity
  8
7__7
  6
Continuous
 62
     3
100
AcDbLine
 10
1366.251576
 20
485.260245
 30
0.0
 11
1381.262683
 21
485.260245
 31
0.0
  0
LINE
  5
2E0
330
1F
100
AcDbEntity
  8
7__7
  6
Continuous
 62
     3
100
AcDbLine
 10
1369.757129
 20
485.260245
 30
0.0
 11
1369.757129
 21
489.902381
 31
0.0
  0
LINE
  5
2E1
330
1F
100
AcDbEntity
  8
7__7
  6
Continuous
 62
     3
100
AcDbLine
 10
1367.257129
 20
490.760245
 30
0.0
 11
1373.757129
 21
490.760245
 31
0.0
  0
LINE
  5
2E2
330
1F
100
AcDbEntity
  8
7__7
  6
Continuous
 62
     3
100
AcDbLine
 10
1381.262683
 20
485.260245
 30
0.0
 11
1381.262683
 21
490.179688
 31
0.0
  0
LINE
  5
2E3
330
1F
100
AcDbEntity
  8
7__7
  6
Continuous
 62
     3
100
AcDbLine
 10
1377.757129
 20
485.260245
 30
0.0
 11
1377.757129
 21
489.902381
 31
0.0
  0
LINE
  5
2E4
330
1F
100
AcDbEntity
  8
7__7
  6
Continuous
 62
     3
100
AcDbLine
 10
1380.257129
 20
490.760245
 30
0.0
 11
1373.757129
 21
490.760245
 31
0.0
  0
LINE
  5
2E5
330
1F
100
AcDbEntity
  8
7__7
  6
Continuous
 62
     3
100
AcDbLine
 10
1366.251576
 20
485.260245
 30
0.0
 11
1366.251576
 21
490.179688
 31
0.0
  0
LINE
  5
2E6
330
1F
100
AcDbEntity
  8
7__7
  6
Continuous
 62
     3
100
AcDbLine
 10
1366.251576
 20
490.179688
 30
0.0
 11
1367.257129
 21
490.760245
 31
0.0
  0
LINE
  5
2E7
330
1F
100
AcDbEntity
  8
7__7
  6
Continuous
 62
     3
100
AcDbLine
 10
1381.262683
 20
490.179688
 30
0.0
 11
1380.257129
 21
490.760245
 31
0.0
  0
ARC
  5
2E8
330
1F
100
AcDbEntity
  8
7__7
  6
Continuous
 62
     3
100
AcDbCircle
 10
1368.185013
 20
488.898897
 30
0.0
 40
1.865081654395928
100
AcDbArc
 50
32.550131
 51
86.37396
  0
ARC
  5
2E9
330
1F
100
AcDbEntity
  8
7__7
  6
Continuous
 62
     3
100
AcDbCircle
 10
1373.757129
 20
487.214661
 30
0.0
 40
9.754415587707356
100
AcDbArc
 50
245.790724
 51
294.209276
  0
ARC
  5
2EA
330
1F
100
AcDbEntity
  8
7__7
  6
Continuous
 62
     3
100
AcDbCircle
 10
1379.329246
 20
479.321593
 30
0.0
 40
1.865081654395928
100
AcDbArc
 50
212.550131
 51
266.37396
  0
LINE
  5
2EB
330
1F
100
AcDbEntity
  8
7__7
  6
Continuous
 62
     3
100
AcDbLine
 10
1369.757129
 20
482.960245
 30
0.0
 11
1369.757129
 21
478.318109
 31
0.0
  0
LINE
  5
2EC
330
1F
100
AcDbEntity
  8
7__7
  6
Continuous
 62
     3
100
AcDbLine
 10
1367.257129
 20
477.460245
 30
0.0
 11
1373.757129
 21
477.460245
 31
0.0
  0
LINE
  5
2ED
330
1F
100
AcDbEntity
  8
7__7
  6
Continuous
 62
     3
100
AcDbLine
 10
1381.262683
 20
482.379688
 30
0.0
 11
1381.262683
 21
478.040802
 31
0.0
  0
LINE
  5
2EE
330
1F
100
AcDbEntity
  8
7__7
  6
Continuous
 62
     3
100
AcDbLine
 10
1377.757129
 20
482.960245
 30
0.0
 11
1377.757129
 21
478.318109
 31
0.0
  0
LINE
  5
2EF
330
1F
100
AcDbEntity
  8
7__7
  6
Continuous
 62
     3
100
AcDbLine
 10
1380.257129
 20
477.460245
 30
0.0
 11
1373.757129
 21
477.460245
 31
0.0
  0
LINE
  5
2F0
330
1F
100
AcDbEntity
  8
7__7
  6
Continuous
 62
     3
100
AcDbLine
 10
1366.251576
 20
482.379688
 30
0.0
 11
1366.251576
 21
478.040802
 31
0.0
  0
LINE
  5
2F1
330
1F
100
AcDbEntity
  8
7__7
  6
Continuous
 62
     3
100
AcDbLine
 10
1366.251576
 20
478.040802
 30
0.0
 11
1367.257129
 21
477.460245
 31
0.0
  0
LINE
  5
2F2
330
1F
100
AcDbEntity
  8
7__7
  6
Continuous
 62
     3
100
AcDbLine
 10
1381.262683
 20
478.040802
 30
0.0
 11
1380.257129
 21
477.460245
 31
0.0
  0
ARC
  5
2F3
330
1F
100
AcDbEntity
  8
7__7
  6
Continuous
 62
     3
100
AcDbCircle
 10
1368.185013
 20
479.321593
 30
0.0
 40
1.865081654395928
100
AcDbArc
 50
273.62604
 51
327.449869
  0
LINE
  5
2F4
330
1F
100
AcDbEntity
  8
7__7
  6
Continuous
 62
     4
100
AcDbLine
 10
1369.757129
 20
482.960245
 30
0.0
 11
1377.757129
 21
482.960245
 31
0.0
  0
ARC
  5
2F5
330
1F
100
AcDbEntity
  8
7__7
  6
Continuous
 62
     3
100
AcDbCircle
 10
1373.757129
 20
473.205829
 30
0.0
 40
9.754415587707356
100
AcDbArc
 50
65.790724
 51
114.209276
  0
ARC
  5
2F6
330
1F
100
AcDbEntity
  8
7__7
  6
Continuous
 62
     3
100
AcDbCircle
 10
1379.329246
 20
481.098897
 30
0.0
 40
1.865081654395928
100
AcDbArc
 50
93.62604
 51
147.449869
  0
LINE
  5
2F7
330
1F
100
AcDbEntity
  8
7__7
  6
Continuous
 62
     3
100
AcDbLine
 10
1367.257129
 20
482.960245
 30
0.0
 11
1373.757129
 21
482.960245
 31
0.0
  0
LINE
  5
2F8
330
1F
100
AcDbEntity
  8
7__7
  6
Continuous
 62
     3
100
AcDbLine
 10
1380.257129
 20
482.960245
 30
0.0
 11
1373.757129
 21
482.960245
 31
0.0
  0
LINE
  5
2F9
330
1F
100
AcDbEntity
  8
7__7
  6
Continuous
 62
     3
100
AcDbLine
 10
1366.251576
 20
482.379688
 30
0.0
 11
1367.257129
 21
482.960245
 31
0.0
  0
LINE
  5
2FA
330
1F
100
AcDbEntity
  8
7__7
  6
Continuous
 62
     3
100
AcDbLine
 10
1381.262683
 20
482.379688
 30
0.0
 11
1380.257129
 21
482.960245
 31
0.0
  0
ARC
  5
2FB
330
1F
100
AcDbEntity
  8
7__7
  6
Continuous
 62
     3
100
AcDbCircle
 10
1368.185013
 20
481.098897
 30
0.0
 40
1.865081654395928
100
AcDbArc
 50
32.550131
 51
86.37396
  0
CIRCLE
  5
2FC
330
1F
100
AcDbEntity
  8
7__7
  6
Continuous
 62
     3
100
AcDbCircle
 10
744.225534
 20
705.472504
 30
0.0
 40
2.4
  0
CIRCLE
  5
2FD
330
1F
100
AcDbEntity
  8
7__7
  6
Continuous
 62
     3
100
AcDbCircle
 10
591.864882
 20
969.37149
 30
0.0
 40
2.4
  0
ARC
  5
2FE
330
1F
100
AcDbEntity
  8
7__7
  6
Continuous
 62
     3
100
AcDbCircle
 10
439.499733
 20
705.472504
 30
0.0
 40
304.7258001981862
100
AcDbArc
 50
0.0
 51
59.999512
  0
LINE
  5
2FF
330
1F
100
AcDbEntity
  8
7__7
  6
PLine1
 62
     3
100
AcDbLine
 10
496.879664
 20
864.854049
 30
0.0
 11
793.811756
 21
1379.144207
 31
0.0
  0
LINE
  5
300
330
1F
100
AcDbEntity
  8
7__7
  6
PLine1
 62
     3
100
AcDbLine
 10
330.804136
 20
577.209124
 30
0.0
 11
391.445155
 21
682.240141
 31
0.0
  0
LINE
  5
301
330
1F
100
AcDbEntity
  8
7__7
  6
PLine1
 62
     3
100
AcDbLine
 10
531.520522
 20
864.854049
 30
0.0
 11
863.564607
 21
1439.959959
 31
0.0
  0
LINE
  5
302
330
1F
100
AcDbEntity
  8
7__7
  6
PLine1
 62
     3
100
AcDbLine
 10
862.247613
 20
1441.823437
 30
0.0
 11
897.03479
 21
1427.929959
 31
0.0
  0
LINE
  5
303
330
1F
100
AcDbEntity
  8
7__7
  6
PLine1
 62
     3
100
AcDbLine
 10
862.904173
 20
1443.176424
 30
0.0
 11
897.591137
 21
1429.322969
 31
0.0
  0
LINE
  5
304
330
1F
100
AcDbEntity
  8
7__7
  6
PLine1
 62
     3
100
AcDbLine
 10
897.03479
 20
1427.929959
 30
0.0
 11
897.591137
 21
1429.322969
 31
0.0
  0
ARC
  5
305
330
1F
100
AcDbEntity
  8
7__7
  6
PLine1
 62
     3
100
AcDbCircle
 10
819.426304
 20
1365.510023
 30
0.0
 40
1.0
100
AcDbArc
 50
239.999454
 51
330.000051
  0
LINE
  5
306
330
1F
100
AcDbEntity
  8
7__7
  6
PLine1
 62
     3
100
AcDbLine
 10
793.811756
 20
1379.144207
 30
0.0
 11
846.812648
 21
1470.942427
 31
0.0
  0
LINE
  5
307
330
1F
100
AcDbEntity
  8
7__7
  6
PLine1
 62
     3
100
AcDbLine
 10
801.869824
 20
1376.223838
 30
0.0
 11
795.510023
 21
1379.895751
 31
0.0
  0
LINE
  5
308
330
1F
100
AcDbEntity
  8
7__7
  6
PLine1
 62
     3
100
AcDbLine
 10
819.993322
 20
1367.492061
 30
0.0
 11
796.70342
 21
1380.938788
 31
0.0
  0
LINE
  5
309
330
1F
100
AcDbEntity
  8
7__7
  6
PLine1
 62
     3
100
AcDbLine
 10
794.561768
 20
1380.443238
 30
0.0
 11
795.624333
 21
1379.829753
 31
0.0
  0
ARC
  5
30A
330
1F
100
AcDbEntity
  8
7__7
  6
PLine1
 62
     3
100
AcDbCircle
 10
862.677103
 20
1440.420759
 30
0.0
 40
1.0
100
AcDbArc
 50
329.999454
 51
59.999454
  0
LINE
  5
30B
330
1F
100
AcDbEntity
  8
7__7
  6
PLine1
 62
     3
100
AcDbLine
 10
819.791612
 20
1364.1444
 30
0.0
 11
793.811756
 21
1379.144207
 31
0.0
  0
ARC
  5
30C
330
1F
100
AcDbEntity
  8
7__7
  6
PLine1
 62
     3
100
AcDbCircle
 10
795.891243
 20
1380.746019
 30
0.0
 40
0.9999600000000002
100
AcDbArc
 50
149.999454
 51
239.999454
  0
ARC
  5
30D
330
1F
100
AcDbEntity
  8
7__7
  6
PLine1
 62
     3
100
AcDbCircle
 10
839.17851
 20
1455.720036
 30
0.0
 40
1.0
100
AcDbArc
 50
59.999454
 51
149.999454
  0
LINE
  5
30E
330
1F
100
AcDbEntity
  8
7__7
  6
PLine1
 62
     3
100
AcDbLine
 10
862.904173
 20
1443.176424
 30
0.0
 11
839.678519
 21
1456.586057
 31
0.0
  0
LINE
  5
30F
330
1F
100
AcDbEntity
  8
7__7
  6
PLine1
 62
     3
100
AcDbLine
 10
801.838648
 20
1376.241837
 30
0.0
 11
819.243308
 21
1366.193031
 31
0.0
  0
LINE
  5
310
330
1F
100
AcDbEntity
  8
7__7
  6
PLine1
 62
     3
100
AcDbLine
 10
863.177111
 20
1441.28678
 30
0.0
 11
839.454125
 21
1454.983553
 31
0.0
  0
LINE
  5
311
330
1F
100
AcDbEntity
  8
7__7
  6
PLine1
 62
     3
100
AcDbLine
 10
838.704113
 20
1453.684522
 30
0.0
 11
861.994088
 21
1440.237753
 31
0.0
  0
LINE
  5
312
330
1F
100
AcDbEntity
  8
7__7
  6
PLine1
 62
     3
100
AcDbLine
 10
861.994088
 20
1440.237753
 30
0.0
 11
819.243308
 21
1366.193031
 31
0.0
  0
LINE
  5
313
330
1F
100
AcDbEntity
  8
7__7
  6
PLine1
 62
     3
100
AcDbLine
 10
802.097885
 20
1401.495758
 30
0.0
 11
493.415581
 21
866.854082
 31
0.0
  0
LINE
  5
314
330
1F
100
AcDbEntity
  8
7__7
  6
PLine1
 62
     3
100
AcDbLine
 10
368.590735
 20
650.655861
 30
0.0
 11
462.202176
 21
812.792068
 31
0.0
  0
LINE
  5
315
330
1F
100
AcDbEntity
  8
7__7
  6
PLine1
 62
     3
100
AcDbLine
 10
364.451378
 20
657.086219
 30
0.0
 11
456.313236
 21
816.192125
 31
0.0
  0
LINE
  5
316
330
1F
100
AcDbEntity
  8
7__7
  6
PLine1
 62
     3
100
AcDbLine
 10
794.458898
 20
1401.864709
 30
0.0
 11
484.408829
 21
864.854049
 31
0.0
  0
LINE
  5
317
330
1F
100
AcDbEntity
  8
7__7
  6
PLine4
 62
     3
100
AcDbLine
 10
820.682146
 20
1313.45402
 30
0.0
 11
1237.225828
 21
752.281784
 31
0.0
  0
LINE
  5
318
330
1F
100
AcDbEntity
  8
7__7
  6
Continuous
 62
     3
100
AcDbLine
 10
396.257129
 20
621.172504
 30
0.0
 11
396.257129
 21
695.422504
 31
0.0
  0
LINE
  5
319
330
1F
100
AcDbEntity
  8
7__7
  6
Continuous
 62
     3
100
AcDbLine
 10
397.757129
 20
621.172504
 30
0.0
 11
397.757129
 21
694.672504
 31
0.0
  0
LINE
  5
31A
330
1F
100
AcDbEntity
  8
7__7
  6
Continuous
 62
     3
100
AcDbLine
 10
428.757129
 20
621.172504
 30
0.0
 11
396.257129
 21
621.172504
 31
0.0
  0
LINE
  5
31B
330
1F
100
AcDbEntity
  8
7__7
  6
Continuous
 62
     6
100
AcDbLine
 10
524.431743
 20
716.472504
 30
0.0
 11
508.757129
 21
720.672504
 31
0.0
  0
ARC
  5
31C
330
1F
100
AcDbEntity
  8
7__7
  6
Continuous
 62
     3
100
AcDbCircle
 10
1430.507129
 20
695.422504
 30
0.0
 40
0.75
100
AcDbArc
 50
0.0
 51
90.0
  0
LINE
  5
31D
330
1F
100
AcDbEntity
  8
7__7
  6
Continuous
 62
     3
100
AcDbLine
 10
1431.257129
 20
621.172504
 30
0.0
 11
1431.257129
 21
695.422504
 31
0.0
  0
LINE
  5
31E
330
1F
100
AcDbEntity
  8
7__7
  6
Continuous
 62
     3
100
AcDbLine
 10
1429.757129
 20
621.172504
 30
0.0
 11
1429.757129
 21
694.672504
 31
0.0
  0
LINE
  5
31F
330
1F
100
AcDbEntity
  8
7__7
  6
Continuous
 62
     3
100
AcDbLine
 10
1398.757129
 20
621.172504
 30
0.0
 11
1431.257129
 21
621.172504
 31
0.0
  0
LINE
  5
320
330
1F
100
AcDbEntity
  8
7__7
  6
Continuous
 62
     6
100
AcDbLine
 10
1325.257129
 20
719.172504
 30
0.0
 11
1325.257129
 21
716.472504
 31
0.0
  0
LINE
  5
321
330
1F
100
AcDbEntity
  8
7__7
  6
Continuous
 62
     6
100
AcDbLine
 10
1318.757129
 20
720.672504
 30
0.0
 11
1311.450712
 21
716.454142
 31
0.0
  0
LINE
  5
322
330
1F
100
AcDbEntity
  8
7__7
  6
Continuous
 62
     6
100
AcDbLine
 10
481.540873
 20
694.672504
 30
0.0
 11
485.540873
 21
698.672504
 31
0.0
  0
LINE
  5
323
330
1F
100
AcDbEntity
  8
7__7
  6
Continuous
 62
     6
100
AcDbLine
 10
456.757129
 20
698.472504
 30
0.0
 11
456.757129
 21
696.172504
 31
0.0
  0
LINE
  5
324
330
1F
100
AcDbEntity
  8
7__7
  6
Continuous
 62
     6
100
AcDbLine
 10
466.757129
 20
696.172504
 30
0.0
 11
466.757129
 21
698.472504
 31
0.0
  0
LINE
  5
325
330
1F
100
AcDbEntity
  8
7__7
  6
Continuous
 62
     3
100
AcDbLine
 10
455.757129
 20
698.472504
 30
0.0
 11
455.757129
 21
698.972504
 31
0.0
  0
ARC
  5
326
330
1F
100
AcDbEntity
  8
7__7
  6
Continuous
 62
     3
100
AcDbCircle
 10
456.257129
 20
698.972504
 30
0.0
 40
0.5
100
AcDbArc
 50
90.0
 51
180.0
  0
LINE
  5
327
330
1F
100
AcDbEntity
  8
7__7
  6
Continuous
 62
     3
100
AcDbLine
 10
456.257129
 20
699.472504
 30
0.0
 11
467.257129
 21
699.472504
 31
0.0
  0
ARC
  5
328
330
1F
100
AcDbEntity
  8
7__7
  6
Continuous
 62
     3
100
AcDbCircle
 10
467.257129
 20
698.972504
 30
0.0
 40
0.5
100
AcDbArc
 50
0.0
 51
90.0
  0
LINE
  5
329
330
1F
100
AcDbEntity
  8
7__7
  6
Continuous
 62
     3
100
AcDbLine
 10
467.757129
 20
698.972504
 30
0.0
 11
467.757129
 21
698.472504
 31
0.0
  0
LINE
  5
32A
330
1F
100
AcDbEntity
  8
7__7
  6
Continuous
 62
     3
100
AcDbLine
 10
467.757129
 20
698.472504
 30
0.0
 11
455.757129
 21
698.472504
 31
0.0
  0
LINE
  5
32B
330
1F
100
AcDbEntity
  8
7__7
  6
Continuous
 62
     3
100
AcDbLine
 10
463.257129
 20
688.472504
 30
0.0
 11
461.757129
 21
683.472504
 31
0.0
  0
LINE
  5
32C
330
1F
100
AcDbEntity
  8
7__7
  6
PLine2
 62
     3
100
AcDbLine
 10
461.757129
 20
705.472504
 30
0.0
 11
461.757129
 21
681.521948
 31
0.0
  0
LINE
  5
32D
330
1F
100
AcDbEntity
  8
7__7
  6
Continuous
 62
     3
100
AcDbLine
 10
460.257129
 20
690.339604
 30
0.0
 11
460.257129
 21
689.480404
 31
0.0
  0
LINE
  5
32E
330
1F
100
AcDbEntity
  8
7__7
  6
Continuous
 62
     3
100
AcDbLine
 10
460.257129
 20
688.839604
 30
0.0
 11
460.257129
 21
684.972504
 31
0.0
  0
LINE
  5
32F
330
1F
100
AcDbEntity
  8
7__7
  6
Continuous
 62
     3
100
AcDbLine
 10
460.257129
 20
684.972504
 30
0.0
 11
461.757129
 21
683.472504
 31
0.0
  0
LINE
  5
330
330
1F
100
AcDbEntity
  8
7__7
  6
Continuous
 62
     3
100
AcDbLine
 10
461.757129
 20
683.472504
 30
0.0
 11
463.257129
 21
684.972504
 31
0.0
  0
LINE
  5
331
330
1F
100
AcDbEntity
  8
7__7
  6
Continuous
 62
     3
100
AcDbLine
 10
463.257129
 20
684.972504
 30
0.0
 11
463.257129
 21
689.964604
 31
0.0
  0
LINE
  5
332
330
1F
100
AcDbEntity
  8
7__7
  6
Continuous
 62
     3
100
AcDbLine
 10
460.257129
 20
692.480404
 30
0.0
 11
463.257129
 21
693.605404
 31
0.0
  0
LINE
  5
333
330
1F
100
AcDbEntity
  8
7__7
  6
Continuous
 62
     3
100
AcDbLine
 10
463.257129
 20
693.605404
 30
0.0
 11
463.757129
 21
693.472504
 31
0.0
  0
LINE
  5
334
330
1F
100
AcDbEntity
  8
7__7
  6
Continuous
 62
     3
100
AcDbLine
 10
463.757129
 20
693.472504
 30
0.0
 11
463.257129
 21
692.964604
 31
0.0
  0
LINE
  5
335
330
1F
100
AcDbEntity
  8
7__7
  6
Continuous
 62
     3
100
AcDbLine
 10
463.257129
 20
692.964604
 30
0.0
 11
460.257129
 21
691.839604
 31
0.0
  0
LINE
  5
336
330
1F
100
AcDbEntity
  8
7__7
  6
Continuous
 62
     3
100
AcDbLine
 10
460.257129
 20
691.839604
 30
0.0
 11
459.757129
 21
691.972504
 31
0.0
  0
LINE
  5
337
330
1F
100
AcDbEntity
  8
7__7
  6
Continuous
 62
     3
100
AcDbLine
 10
459.757129
 20
691.972504
 30
0.0
 11
460.257129
 21
692.480404
 31
0.0
  0
LINE
  5
338
330
1F
100
AcDbEntity
  8
7__7
  6
Continuous
 62
     3
100
AcDbLine
 10
463.757129
 20
693.472504
 30
0.0
 11
459.757129
 21
691.972504
 31
0.0
  0
LINE
  5
339
330
1F
100
AcDbEntity
  8
7__7
  6
Continuous
 62
     3
100
AcDbLine
 10
463.257129
 20
692.964604
 30
0.0
 11
463.257129
 21
692.105404
 31
0.0
  0
LINE
  5
33A
330
1F
100
AcDbEntity
  8
7__7
  6
Continuous
 62
     3
100
AcDbLine
 10
465.757129
 20
700.272504
 30
0.0
 11
465.295249
 21
699.472504
 31
0.0
  0
ARC
  5
33B
330
1F
100
AcDbEntity
  8
7__7
  6
Continuous
 62
     3
100
AcDbCircle
 10
461.757129
 20
696.472504
 30
0.0
 40
6.000000000001985
100
AcDbArc
 50
52.533782
 51
90.0
  0
LINE
  5
33C
330
1F
100
AcDbEntity
  8
7__7
  6
Continuous
 62
     3
100
AcDbLine
 10
465.406891
 20
701.234777
 30
0.0
 11
465.757129
 21
700.272504
 31
0.0
  0
ARC
  5
33D
330
1F
100
AcDbEntity
  8
7__7
  6
Continuous
 62
     3
100
AcDbCircle
 10
461.757129
 20
696.472504
 30
0.0
 40
6.000000000001985
100
AcDbArc
 50
90.0
 51
127.466218
  0
LINE
  5
33E
330
1F
100
AcDbEntity
  8
7__7
  6
Continuous
 62
     3
100
AcDbLine
 10
458.107368
 20
701.234777
 30
0.0
 11
457.757129
 21
700.272504
 31
0.0
  0
LINE
  5
33F
330
1F
100
AcDbEntity
  8
7__7
  6
Continuous
 62
     3
100
AcDbLine
 10
457.757129
 20
700.272504
 30
0.0
 11
458.21901
 21
699.472504
 31
0.0
  0
LINE
  5
340
330
1F
100
AcDbEntity
  8
7__7
  6
Continuous
 62
     3
100
AcDbLine
 10
460.257129
 20
696.172504
 30
0.0
 11
460.257129
 21
695.480404
 31
0.0
  0
LINE
  5
341
330
1F
100
AcDbEntity
  8
7__7
  6
Continuous
 62
     3
100
AcDbLine
 10
463.257129
 20
695.964604
 30
0.0
 11
463.257129
 21
695.105404
 31
0.0
  0
LINE
  5
342
330
1F
100
AcDbEntity
  8
7__7
  6
Continuous
 62
     3
100
AcDbLine
 10
460.257129
 20
694.785004
 30
0.0
 11
460.257129
 21
693.980404
 31
0.0
  0
LINE
  5
343
330
1F
100
AcDbEntity
  8
7__7
  6
Continuous
 62
     3
100
AcDbLine
 10
463.257129
 20
694.464604
 30
0.0
 11
463.257129
 21
693.605404
 31
0.0
  0
LINE
  5
344
330
1F
100
AcDbEntity
  8
7__7
  6
Continuous
 62
     3
100
AcDbLine
 10
460.257129
 20
693.339604
 30
0.0
 11
460.257129
 21
692.480404
 31
0.0
  0
LINE
  5
345
330
1F
100
AcDbEntity
  8
7__7
  6
Continuous
 62
     3
100
AcDbLine
 10
457.757129
 20
700.272504
 30
0.0
 11
465.757129
 21
700.272504
 31
0.0
  0
LINE
  5
346
330
1F
100
AcDbEntity
  8
7__7
  6
Continuous
 62
     3
100
AcDbLine
 10
460.257129
 20
684.972504
 30
0.0
 11
462.207129
 21
684.972504
 31
0.0
  0
LINE
  5
347
330
1F
100
AcDbEntity
  8
7__7
  6
Continuous
 62
     3
100
AcDbLine
 10
460.257129
 20
691.839604
 30
0.0
 11
460.257129
 21
690.980404
 31
0.0
  0
LINE
  5
348
330
1F
100
AcDbEntity
  8
7__7
  6
Continuous
 62
     3
100
AcDbLine
 10
463.257129
 20
691.464604
 30
0.0
 11
463.257129
 21
690.605404
 31
0.0
  0
LINE
  5
349
330
1F
100
AcDbEntity
  8
7__7
  6
Continuous
 62
     3
100
AcDbLine
 10
462.957129
 20
696.172504
 30
0.0
 11
459.757129
 21
694.972504
 31
0.0
  0
LINE
  5
34A
330
1F
100
AcDbEntity
  8
7__7
  6
Continuous
 62
     3
100
AcDbLine
 10
460.257129
 20
693.980404
 30
0.0
 11
463.257129
 21
695.105404
 31
0.0
  0
LINE
  5
34B
330
1F
100
AcDbEntity
  8
7__7
  6
Continuous
 62
     3
100
AcDbLine
 10
463.257129
 20
695.105404
 30
0.0
 11
463.757129
 21
694.972504
 31
0.0
  0
LINE
  5
34C
330
1F
100
AcDbEntity
  8
7__7
  6
Continuous
 62
     3
100
AcDbLine
 10
463.757129
 20
694.972504
 30
0.0
 11
463.257129
 21
694.464604
 31
0.0
  0
LINE
  5
34D
330
1F
100
AcDbEntity
  8
7__7
  6
Continuous
 62
     3
100
AcDbLine
 10
463.257129
 20
694.464604
 30
0.0
 11
460.257129
 21
693.339604
 31
0.0
  0
LINE
  5
34E
330
1F
100
AcDbEntity
  8
7__7
  6
Continuous
 62
     3
100
AcDbLine
 10
460.257129
 20
693.339604
 30
0.0
 11
459.757129
 21
693.472504
 31
0.0
  0
LINE
  5
34F
330
1F
100
AcDbEntity
  8
7__7
  6
Continuous
 62
     3
100
AcDbLine
 10
459.757129
 20
693.472504
 30
0.0
 11
460.257129
 21
693.980404
 31
0.0
  0
LINE
  5
350
330
1F
100
AcDbEntity
  8
7__7
  6
Continuous
 62
     3
100
AcDbLine
 10
463.757129
 20
694.972504
 30
0.0
 11
459.757129
 21
693.472504
 31
0.0
  0
LINE
  5
351
330
1F
100
AcDbEntity
  8
7__7
  6
Continuous
 62
     3
100
AcDbLine
 10
460.257129
 20
690.980404
 30
0.0
 11
463.257129
 21
692.105404
 31
0.0
  0
LINE
  5
352
330
1F
100
AcDbEntity
  8
7__7
  6
Continuous
 62
     3
100
AcDbLine
 10
463.257129
 20
692.105404
 30
0.0
 11
463.757129
 21
691.972504
 31
0.0
  0
LINE
  5
353
330
1F
100
AcDbEntity
  8
7__7
  6
Continuous
 62
     3
100
AcDbLine
 10
463.757129
 20
691.972504
 30
0.0
 11
463.257129
 21
691.464604
 31
0.0
  0
LINE
  5
354
330
1F
100
AcDbEntity
  8
7__7
  6
Continuous
 62
     3
100
AcDbLine
 10
463.257129
 20
691.464604
 30
0.0
 11
460.257129
 21
690.339604
 31
0.0
  0
LINE
  5
355
330
1F
100
AcDbEntity
  8
7__7
  6
Continuous
 62
     3
100
AcDbLine
 10
460.257129
 20
690.339604
 30
0.0
 11
459.757129
 21
690.472504
 31
0.0
  0
LINE
  5
356
330
1F
100
AcDbEntity
  8
7__7
  6
Continuous
 62
     3
100
AcDbLine
 10
459.757129
 20
690.472504
 30
0.0
 11
460.257129
 21
690.980404
 31
0.0
  0
LINE
  5
357
330
1F
100
AcDbEntity
  8
7__7
  6
Continuous
 62
     3
100
AcDbLine
 10
463.757129
 20
691.972504
 30
0.0
 11
459.757129
 21
690.472504
 31
0.0
  0
LINE
  5
358
330
1F
100
AcDbEntity
  8
7__7
  6
Continuous
 62
     3
100
AcDbLine
 10
460.257129
 20
695.480404
 30
0.0
 11
462.102729
 21
696.172504
 31
0.0
  0
LINE
  5
359
330
1F
100
AcDbEntity
  8
7__7
  6
Continuous
 62
     3
100
AcDbLine
 10
463.461796
 20
696.172504
 30
0.0
 11
463.257129
 21
695.964604
 31
0.0
  0
LINE
  5
35A
330
1F
100
AcDbEntity
  8
7__7
  6
Continuous
 62
     3
100
AcDbLine
 10
463.257129
 20
695.964604
 30
0.0
 11
460.257129
 21
694.839604
 31
0.0
  0
LINE
  5
35B
330
1F
100
AcDbEntity
  8
7__7
  6
Continuous
 62
     3
100
AcDbLine
 10
460.257129
 20
694.839604
 30
0.0
 11
459.757129
 21
694.972504
 31
0.0
  0
LINE
  5
35C
330
1F
100
AcDbEntity
  8
7__7
  6
Continuous
 62
     3
100
AcDbLine
 10
459.757129
 20
694.972504
 30
0.0
 11
460.257129
 21
695.480404
 31
0.0
  0
LINE
  5
35D
330
1F
100
AcDbEntity
  8
7__7
  6
Continuous
 62
     3
100
AcDbLine
 10
463.257129
 20
688.972504
 30
0.0
 11
460.61153
 21
688.972504
 31
0.0
  0
LINE
  5
35E
330
1F
100
AcDbEntity
  8
7__7
  6
Continuous
 62
     3
100
AcDbLine
 10
460.257129
 20
689.480404
 30
0.0
 11
463.257129
 21
690.605404
 31
0.0
  0
LINE
  5
35F
330
1F
100
AcDbEntity
  8
7__7
  6
Continuous
 62
     3
100
AcDbLine
 10
463.257129
 20
690.605404
 30
0.0
 11
463.757129
 21
690.472504
 31
0.0
  0
LINE
  5
360
330
1F
100
AcDbEntity
  8
7__7
  6
Continuous
 62
     3
100
AcDbLine
 10
463.757129
 20
690.472504
 30
0.0
 11
463.257129
 21
689.964604
 31
0.0
  0
LINE
  5
361
330
1F
100
AcDbEntity
  8
7__7
  6
Continuous
 62
     3
100
AcDbLine
 10
463.257129
 20
689.964604
 30
0.0
 11
460.257129
 21
688.839604
 31
0.0
  0
LINE
  5
362
330
1F
100
AcDbEntity
  8
7__7
  6
Continuous
 62
     3
100
AcDbLine
 10
460.257129
 20
688.839604
 30
0.0
 11
459.757129
 21
688.972504
 31
0.0
  0
LINE
  5
363
330
1F
100
AcDbEntity
  8
7__7
  6
Continuous
 62
     3
100
AcDbLine
 10
459.757129
 20
688.972504
 30
0.0
 11
460.257129
 21
689.480404
 31
0.0
  0
LINE
  5
364
330
1F
100
AcDbEntity
  8
7__7
  6
Continuous
 62
     3
100
AcDbLine
 10
463.757129
 20
690.472504
 30
0.0
 11
459.757129
 21
688.972504
 31
0.0
  0
LINE
  5
365
330
1F
100
AcDbEntity
  8
7__7
  6
Continuous
 62
     6
100
AcDbLine
 10
1370.757129
 20
698.472504
 30
0.0
 11
1370.757129
 21
696.172504
 31
0.0
  0
LINE
  5
366
330
1F
100
AcDbEntity
  8
7__7
  6
Continuous
 62
     6
100
AcDbLine
 10
1360.757129
 20
696.172504
 30
0.0
 11
1360.757129
 21
698.472504
 31
0.0
  0
LINE
  5
367
330
1F
100
AcDbEntity
  8
7__7
  6
Continuous
 62
     3
100
AcDbLine
 10
1371.757129
 20
698.472504
 30
0.0
 11
1371.757129
 21
698.972504
 31
0.0
  0
ARC
  5
368
330
1F
100
AcDbEntity
  8
7__7
  6
Continuous
 62
     3
100
AcDbCircle
 10
1371.257129
 20
698.972504
 30
0.0
 40
0.5
100
AcDbArc
 50
0.0
 51
90.0
  0
LINE
  5
369
330
1F
100
AcDbEntity
  8
7__7
  6
Continuous
 62
     3
100
AcDbLine
 10
1371.257129
 20
699.472504
 30
0.0
 11
1360.257129
 21
699.472504
 31
0.0
  0
ARC
  5
36A
330
1F
100
AcDbEntity
  8
7__7
  6
Continuous
 62
     3
100
AcDbCircle
 10
1360.257129
 20
698.972504
 30
0.0
 40
0.5
100
AcDbArc
 50
90.0
 51
180.0
  0
LINE
  5
36B
330
1F
100
AcDbEntity
  8
7__7
  6
Continuous
 62
     3
100
AcDbLine
 10
1359.757129
 20
698.972504
 30
0.0
 11
1359.757129
 21
698.472504
 31
0.0
  0
LINE
  5
36C
330
1F
100
AcDbEntity
  8
7__7
  6
Continuous
 62
     3
100
AcDbLine
 10
1359.757129
 20
698.472504
 30
0.0
 11
1371.757129
 21
698.472504
 31
0.0
  0
LINE
  5
36D
330
1F
100
AcDbEntity
  8
7__7
  6
Continuous
 62
     3
100
AcDbLine
 10
1364.257129
 20
688.472504
 30
0.0
 11
1365.757129
 21
683.472504
 31
0.0
  0
LINE
  5
36E
330
1F
100
AcDbEntity
  8
7__7
  6
PLine2
 62
     3
100
AcDbLine
 10
1365.757129
 20
705.472504
 30
0.0
 11
1365.757129
 21
681.521948
 31
0.0
  0
LINE
  5
36F
330
1F
100
AcDbEntity
  8
7__7
  6
Continuous
 62
     3
100
AcDbLine
 10
1367.257129
 20
690.339604
 30
0.0
 11
1367.257129
 21
689.480404
 31
0.0
  0
LINE
  5
370
330
1F
100
AcDbEntity
  8
7__7
  6
Continuous
 62
     3
100
AcDbLine
 10
1367.257129
 20
688.839604
 30
0.0
 11
1367.257129
 21
684.972504
 31
0.0
  0
LINE
  5
371
330
1F
100
AcDbEntity
  8
7__7
  6
Continuous
 62
     3
100
AcDbLine
 10
1367.257129
 20
684.972504
 30
0.0
 11
1365.757129
 21
683.472504
 31
0.0
  0
LINE
  5
372
330
1F
100
AcDbEntity
  8
7__7
  6
Continuous
 62
     3
100
AcDbLine
 10
1365.757129
 20
683.472504
 30
0.0
 11
1364.257129
 21
684.972504
 31
0.0
  0
LINE
  5
373
330
1F
100
AcDbEntity
  8
7__7
  6
Continuous
 62
     3
100
AcDbLine
 10
1364.257129
 20
684.972504
 30
0.0
 11
1364.257129
 21
689.964604
 31
0.0
  0
LINE
  5
374
330
1F
100
AcDbEntity
  8
7__7
  6
Continuous
 62
     3
100
AcDbLine
 10
1367.257129
 20
692.480404
 30
0.0
 11
1364.257129
 21
693.605404
 31
0.0
  0
LINE
  5
375
330
1F
100
AcDbEntity
  8
7__7
  6
Continuous
 62
     3
100
AcDbLine
 10
1364.257129
 20
693.605404
 30
0.0
 11
1363.757129
 21
693.472504
 31
0.0
  0
LINE
  5
376
330
1F
100
AcDbEntity
  8
7__7
  6
Continuous
 62
     3
100
AcDbLine
 10
1363.757129
 20
693.472504
 30
0.0
 11
1364.257129
 21
692.964604
 31
0.0
  0
LINE
  5
377
330
1F
100
AcDbEntity
  8
7__7
  6
Continuous
 62
     3
100
AcDbLine
 10
1364.257129
 20
692.964604
 30
0.0
 11
1367.257129
 21
691.839604
 31
0.0
  0
LINE
  5
378
330
1F
100
AcDbEntity
  8
7__7
  6
Continuous
 62
     3
100
AcDbLine
 10
1367.257129
 20
691.839604
 30
0.0
 11
1367.757129
 21
691.972504
 31
0.0
  0
LINE
  5
379
330
1F
100
AcDbEntity
  8
7__7
  6
Continuous
 62
     3
100
AcDbLine
 10
1367.757129
 20
691.972504
 30
0.0
 11
1367.257129
 21
692.480404
 31
0.0
  0
LINE
  5
37A
330
1F
100
AcDbEntity
  8
7__7
  6
Continuous
 62
     3
100
AcDbLine
 10
1363.757129
 20
693.472504
 30
0.0
 11
1367.757129
 21
691.972504
 31
0.0
  0
LINE
  5
37B
330
1F
100
AcDbEntity
  8
7__7
  6
Continuous
 62
     3
100
AcDbLine
 10
1364.257129
 20
692.964604
 30
0.0
 11
1364.257129
 21
692.105404
 31
0.0
  0
LINE
  5
37C
330
1F
100
AcDbEntity
  8
7__7
  6
Continuous
 62
     3
100
AcDbLine
 10
1361.757129
 20
700.272504
 30
0.0
 11
1362.21901
 21
699.472504
 31
0.0
  0
ARC
  5
37D
330
1F
100
AcDbEntity
  8
7__7
  6
Continuous
 62
     3
100
AcDbCircle
 10
1365.757129
 20
696.472504
 30
0.0
 40
6.000000000001985
100
AcDbArc
 50
90.0
 51
127.466218
  0
LINE
  5
37E
330
1F
100
AcDbEntity
  8
7__7
  6
Continuous
 62
     3
100
AcDbLine
 10
1362.107368
 20
701.234777
 30
0.0
 11
1361.757129
 21
700.272504
 31
0.0
  0
ARC
  5
37F
330
1F
100
AcDbEntity
  8
7__7
  6
Continuous
 62
     3
100
AcDbCircle
 10
1365.757129
 20
696.472504
 30
0.0
 40
6.000000000001985
100
AcDbArc
 50
52.533782
 51
90.0
  0
LINE
  5
380
330
1F
100
AcDbEntity
  8
7__7
  6
Continuous
 62
     3
100
AcDbLine
 10
1369.406891
 20
701.234777
 30
0.0
 11
1369.757129
 21
700.272504
 31
0.0
  0
LINE
  5
381
330
1F
100
AcDbEntity
  8
7__7
  6
Continuous
 62
     3
100
AcDbLine
 10
1369.757129
 20
700.272504
 30
0.0
 11
1369.295249
 21
699.472504
 31
0.0
  0
LINE
  5
382
330
1F
100
AcDbEntity
  8
7__7
  6
Continuous
 62
     3
100
AcDbLine
 10
1367.257129
 20
696.172504
 30
0.0
 11
1367.257129
 21
695.480404
 31
0.0
  0
LINE
  5
383
330
1F
100
AcDbEntity
  8
7__7
  6
Continuous
 62
     3
100
AcDbLine
 10
1364.257129
 20
695.964604
 30
0.0
 11
1364.257129
 21
695.105404
 31
0.0
  0
LINE
  5
384
330
1F
100
AcDbEntity
  8
7__7
  6
Continuous
 62
     3
100
AcDbLine
 10
1367.257129
 20
694.785004
 30
0.0
 11
1367.257129
 21
693.980404
 31
0.0
  0
LINE
  5
385
330
1F
100
AcDbEntity
  8
7__7
  6
Continuous
 62
     3
100
AcDbLine
 10
1364.257129
 20
694.464604
 30
0.0
 11
1364.257129
 21
693.605404
 31
0.0
  0
LINE
  5
386
330
1F
100
AcDbEntity
  8
7__7
  6
Continuous
 62
     3
100
AcDbLine
 10
1367.257129
 20
693.339604
 30
0.0
 11
1367.257129
 21
692.480404
 31
0.0
  0
LINE
  5
387
330
1F
100
AcDbEntity
  8
7__7
  6
Continuous
 62
     3
100
AcDbLine
 10
1369.757129
 20
700.272504
 30
0.0
 11
1361.757129
 21
700.272504
 31
0.0
  0
LINE
  5
388
330
1F
100
AcDbEntity
  8
7__7
  6
Continuous
 62
     3
100
AcDbLine
 10
1367.257129
 20
684.972504
 30
0.0
 11
1365.307129
 21
684.972504
 31
0.0
  0
LINE
  5
389
330
1F
100
AcDbEntity
  8
7__7
  6
Continuous
 62
     3
100
AcDbLine
 10
1367.257129
 20
691.839604
 30
0.0
 11
1367.257129
 21
690.980404
 31
0.0
  0
LINE
  5
38A
330
1F
100
AcDbEntity
  8
7__7
  6
Continuous
 62
     3
100
AcDbLine
 10
1364.257129
 20
691.464604
 30
0.0
 11
1364.257129
 21
690.605404
 31
0.0
  0
LINE
  5
38B
330
1F
100
AcDbEntity
  8
7__7
  6
Continuous
 62
     3
100
AcDbLine
 10
1364.557129
 20
696.172504
 30
0.0
 11
1367.757129
 21
694.972504
 31
0.0
  0
LINE
  5
38C
330
1F
100
AcDbEntity
  8
7__7
  6
Continuous
 62
     3
100
AcDbLine
 10
1367.257129
 20
693.980404
 30
0.0
 11
1364.257129
 21
695.105404
 31
0.0
  0
LINE
  5
38D
330
1F
100
AcDbEntity
  8
7__7
  6
Continuous
 62
     3
100
AcDbLine
 10
1364.257129
 20
695.105404
 30
0.0
 11
1363.757129
 21
694.972504
 31
0.0
  0
LINE
  5
38E
330
1F
100
AcDbEntity
  8
7__7
  6
Continuous
 62
     3
100
AcDbLine
 10
1363.757129
 20
694.972504
 30
0.0
 11
1364.257129
 21
694.464604
 31
0.0
  0
LINE
  5
38F
330
1F
100
AcDbEntity
  8
7__7
  6
Continuous
 62
     3
100
AcDbLine
 10
1364.257129
 20
694.464604
 30
0.0
 11
1367.257129
 21
693.339604
 31
0.0
  0
LINE
  5
390
330
1F
100
AcDbEntity
  8
7__7
  6
Continuous
 62
     3
100
AcDbLine
 10
1367.257129
 20
693.339604
 30
0.0
 11
1367.757129
 21
693.472504
 31
0.0
  0
LINE
  5
391
330
1F
100
AcDbEntity
  8
7__7
  6
Continuous
 62
     3
100
AcDbLine
 10
1367.757129
 20
693.472504
 30
0.0
 11
1367.257129
 21
693.980404
 31
0.0
  0
LINE
  5
392
330
1F
100
AcDbEntity
  8
7__7
  6
Continuous
 62
     3
100
AcDbLine
 10
1363.757129
 20
694.972504
 30
0.0
 11
1367.757129
 21
693.472504
 31
0.0
  0
LINE
  5
393
330
1F
100
AcDbEntity
  8
7__7
  6
Continuous
 62
     3
100
AcDbLine
 10
1367.257129
 20
690.980404
 30
0.0
 11
1364.257129
 21
692.105404
 31
0.0
  0
LINE
  5
394
330
1F
100
AcDbEntity
  8
7__7
  6
Continuous
 62
     3
100
AcDbLine
 10
1364.257129
 20
692.105404
 30
0.0
 11
1363.757129
 21
691.972504
 31
0.0
  0
LINE
  5
395
330
1F
100
AcDbEntity
  8
7__7
  6
Continuous
 62
     3
100
AcDbLine
 10
1363.757129
 20
691.972504
 30
0.0
 11
1364.257129
 21
691.464604
 31
0.0
  0
LINE
  5
396
330
1F
100
AcDbEntity
  8
7__7
  6
Continuous
 62
     3
100
AcDbLine
 10
1364.257129
 20
691.464604
 30
0.0
 11
1367.257129
 21
690.339604
 31
0.0
  0
LINE
  5
397
330
1F
100
AcDbEntity
  8
7__7
  6
Continuous
 62
     3
100
AcDbLine
 10
1367.257129
 20
690.339604
 30
0.0
 11
1367.757129
 21
690.472504
 31
0.0
  0
LINE
  5
398
330
1F
100
AcDbEntity
  8
7__7
  6
Continuous
 62
     3
100
AcDbLine
 10
1367.757129
 20
690.472504
 30
0.0
 11
1367.257129
 21
690.980404
 31
0.0
  0
LINE
  5
399
330
1F
100
AcDbEntity
  8
7__7
  6
Continuous
 62
     3
100
AcDbLine
 10
1363.757129
 20
691.972504
 30
0.0
 11
1367.757129
 21
690.472504
 31
0.0
  0
LINE
  5
39A
330
1F
100
AcDbEntity
  8
7__7
  6
Continuous
 62
     3
100
AcDbLine
 10
1367.257129
 20
695.480404
 30
0.0
 11
1365.41153
 21
696.172504
 31
0.0
  0
LINE
  5
39B
330
1F
100
AcDbEntity
  8
7__7
  6
Continuous
 62
     3
100
AcDbLine
 10
1364.052463
 20
696.172504
 30
0.0
 11
1364.257129
 21
695.964604
 31
0.0
  0
LINE
  5
39C
330
1F
100
AcDbEntity
  8
7__7
  6
Continuous
 62
     3
100
AcDbLine
 10
1364.257129
 20
695.964604
 30
0.0
 11
1367.257129
 21
694.839604
 31
0.0
  0
LINE
  5
39D
330
1F
100
AcDbEntity
  8
7__7
  6
Continuous
 62
     3
100
AcDbLine
 10
1367.257129
 20
694.839604
 30
0.0
 11
1367.757129
 21
694.972504
 31
0.0
  0
LINE
  5
39E
330
1F
100
AcDbEntity
  8
7__7
  6
Continuous
 62
     3
100
AcDbLine
 10
1367.757129
 20
694.972504
 30
0.0
 11
1367.257129
 21
695.480404
 31
0.0
  0
LINE
  5
39F
330
1F
100
AcDbEntity
  8
7__7
  6
Continuous
 62
     3
100
AcDbLine
 10
1364.257129
 20
688.972504
 30
0.0
 11
1366.902729
 21
688.972504
 31
0.0
  0
LINE
  5
3A0
330
1F
100
AcDbEntity
  8
7__7
  6
Continuous
 62
     3
100
AcDbLine
 10
1367.257129
 20
689.480404
 30
0.0
 11
1364.257129
 21
690.605404
 31
0.0
  0
LINE
  5
3A1
330
1F
100
AcDbEntity
  8
7__7
  6
Continuous
 62
     3
100
AcDbLine
 10
1364.257129
 20
690.605404
 30
0.0
 11
1363.757129
 21
690.472504
 31
0.0
  0
LINE
  5
3A2
330
1F
100
AcDbEntity
  8
7__7
  6
Continuous
 62
     3
100
AcDbLine
 10
1363.757129
 20
690.472504
 30
0.0
 11
1364.257129
 21
689.964604
 31
0.0
  0
LINE
  5
3A3
330
1F
100
AcDbEntity
  8
7__7
  6
Continuous
 62
     3
100
AcDbLine
 10
1364.257129
 20
689.964604
 30
0.0
 11
1367.257129
 21
688.839604
 31
0.0
  0
LINE
  5
3A4
330
1F
100
AcDbEntity
  8
7__7
  6
Continuous
 62
     3
100
AcDbLine
 10
1367.257129
 20
688.839604
 30
0.0
 11
1367.757129
 21
688.972504
 31
0.0
  0
LINE
  5
3A5
330
1F
100
AcDbEntity
  8
7__7
  6
Continuous
 62
     3
100
AcDbLine
 10
1367.757129
 20
688.972504
 30
0.0
 11
1367.257129
 21
689.480404
 31
0.0
  0
LINE
  5
3A6
330
1F
100
AcDbEntity
  8
7__7
  6
Continuous
 62
     3
100
AcDbLine
 10
1363.757129
 20
690.472504
 30
0.0
 11
1367.757129
 21
688.972504
 31
0.0
  0
LINE
  5
3A7
330
1F
100
AcDbEntity
  8
7__7
  6
Continuous
 62
     6
100
AcDbLine
 10
364.175753
 20
678.608466
 30
0.0
 11
361.837498
 21
679.958489
 31
0.0
  0
ARC
  5
3A8
330
1F
100
AcDbEntity
  8
7__7
  6
Continuous
 62
     3
100
AcDbCircle
 10
329.779596
 20
576.934626
 30
0.0
 40
0.75
100
AcDbArc
 50
149.999437
 51
239.999437
  0
LINE
  5
3A9
330
1F
100
AcDbEntity
  8
7__7
  6
PLine1
 62
     3
100
AcDbLine
 10
370.005777
 20
648.106807
 30
0.0
 11
329.130081
 21
577.309632
 31
0.0
  0
ARC
  5
3AA
330
1F
100
AcDbEntity
  8
7__7
  6
Continuous
 62
     3
100
AcDbCircle
 10
349.881091
 20
660.64983
 30
0.0
 40
0.8
100
AcDbArc
 50
149.999437
 51
239.999437
  0
LINE
  5
3AB
330
1F
100
AcDbEntity
  8
7__7
  6
PLine1
 62
     3
100
AcDbLine
 10
349.481084
 20
659.957013
 30
0.0
 11
370.005777
 21
648.106807
 31
0.0
  0
LINE
  5
3AC
330
1F
100
AcDbEntity
  8
7__7
  6
PLine1
 62
     3
100
AcDbLine
 10
365.087553
 20
685.587622
 30
0.0
 11
350.837311
 21
660.906038
 31
0.0
  0
LINE
  5
3AD
330
1F
100
AcDbEntity
  8
7__7
  6
PLine1
 62
     3
100
AcDbLine
 10
363.788523
 20
686.337635
 30
0.0
 11
349.188274
 21
661.049836
 31
0.0
  0
LINE
  5
3AE
330
1F
100
AcDbEntity
  8
7__7
  6
PLine1
 62
     3
100
AcDbLine
 10
371.362004
 20
649.055832
 30
0.0
 11
350.837311
 21
660.906038
 31
0.0
  0
ARC
  5
3AF
330
1F
100
AcDbEntity
  8
7__7
  6
Continuous
 62
     3
100
AcDbCircle
 10
370.961997
 20
648.363015
 30
0.0
 40
0.8
100
AcDbArc
 50
329.999437
 51
59.999437
  0
LINE
  5
3B0
330
1F
100
AcDbEntity
  8
7__7
  6
Continuous
 62
     3
100
AcDbLine
 10
363.788523
 20
686.337635
 30
0.0
 11
365.087553
 21
685.587622
 31
0.0
  0
LINE
  5
3B1
330
1F
100
AcDbEntity
  8
7__7
  6
PLine1
 62
     3
100
AcDbLine
 10
805.013184
 20
1401.544631
 30
0.0
 11
845.88888
 21
1472.341806
 31
0.0
  0
ARC
  5
3B2
330
1F
100
AcDbEntity
  8
7__7
  6
Continuous
 62
     3
100
AcDbCircle
 10
784.088259
 20
1412.702147
 30
0.0
 40
0.8
100
AcDbArc
 50
59.999437
 51
149.999437
  0
LINE
  5
3B3
330
1F
100
AcDbEntity
  8
7__7
  6
PLine1
 62
     3
100
AcDbLine
 10
784.488268
 20
1413.394967
 30
0.0
 11
805.013184
 21
1401.544631
 31
0.0
  0
LINE
  5
3B4
330
1F
100
AcDbEntity
  8
7__7
  6
PLine1
 62
     3
100
AcDbLine
 10
770.094225
 20
1387.064343
 30
0.0
 11
784.344469
 21
1411.74593
 31
0.0
  0
LINE
  5
3B5
330
1F
100
AcDbEntity
  8
7__7
  6
PLine1
 62
     3
100
AcDbLine
 10
768.795194
 20
1387.814356
 30
0.0
 11
783.395443
 21
1413.102154
 31
0.0
  0
ARC
  5
3B6
330
1F
100
AcDbEntity
  8
7__7
  6
Continuous
 62
     3
100
AcDbCircle
 10
805.269393
 20
1400.588411
 30
0.0
 40
0.8
100
AcDbArc
 50
239.999437
 51
329.999437
  0
LINE
  5
3B7
330
1F
100
AcDbEntity
  8
7__7
  6
Continuous
 62
     3
100
AcDbLine
 10
768.795194
 20
1387.814356
 30
0.0
 11
770.094225
 21
1387.064343
 31
0.0
  0
LINE
  5
3B8
330
1F
100
AcDbEntity
  8
7__7
  6
PLine1
 62
     3
100
AcDbLine
 10
784.344469
 20
1411.74593
 30
0.0
 11
805.561967
 21
1399.495724
 31
0.0
  0
LINE
  5
3B9
330
1F
100
AcDbEntity
  8
7__7
  6
PLine1
 62
     3
100
AcDbLine
 10
393.706611
 20
539.159478
 30
0.0
 11
329.40459
 21
576.28511
 31
0.0
  0
LINE
  5
3BA
330
1F
100
AcDbEntity
  8
7__7
  6
PLine1
 62
     3
100
AcDbLine
 10
394.456624
 20
540.458509
 30
0.0
 11
330.804118
 21
577.209135
 31
0.0
  0
LINE
  5
3BB
330
1F
100
AcDbEntity
  8
7__7
  6
Continuous
 62
     3
100
AcDbLine
 10
393.706611
 20
539.159478
 30
0.0
 11
394.456624
 21
540.458509
 31
0.0
  0
ARC
  5
3BC
330
1F
100
AcDbEntity
  8
7__7
  6
Continuous
 62
     3
100
AcDbCircle
 10
846.538396
 20
1471.9668
 30
0.0
 40
0.75
100
AcDbArc
 50
59.999437
 51
149.999437
  0
LINE
  5
3BD
330
1F
100
AcDbEntity
  8
7__7
  6
PLine1
 62
     3
100
AcDbLine
 10
911.215423
 20
1435.490683
 30
0.0
 11
846.913402
 21
1472.616315
 31
0.0
  0
LINE
  5
3BE
330
1F
100
AcDbEntity
  8
7__7
  6
PLine1
 62
     3
100
AcDbLine
 10
910.465411
 20
1434.191652
 30
0.0
 11
846.812905
 21
1470.942278
 31
0.0
  0
LINE
  5
3BF
330
1F
100
AcDbEntity
  8
7__7
  6
Continuous
 62
     3
100
AcDbLine
 10
911.215423
 20
1435.490683
 30
0.0
 11
910.465411
 21
1434.191652
 31
0.0
  0
LINE
  5
3C0
330
1F
100
AcDbEntity
  8
7__7
  6
Continuous
 62
     6
100
AcDbLine
 10
773.34428
 20
1392.693476
 30
0.0
 11
775.682536
 21
1391.343453
 31
0.0
  0
ARC
  5
3C1
330
1F
100
AcDbEntity
  8
7__7
  6
Continuous
 62
     3
100
AcDbCircle
 10
394.730248
 20
559.930484
 30
0.0
 40
0.9999600000000002
100
AcDbArc
 50
239.999454
 51
329.999454
  0
LINE
  5
3C2
330
1F
100
AcDbEntity
  8
7__7
  6
PLine1
 62
     3
100
AcDbLine
 10
395.596234
 20
559.430496
 30
0.0
 11
400.442743
 21
567.826737
 31
0.0
  0
ARC
  5
3C3
330
1F
100
AcDbEntity
  8
7__7
  6
Continuous
 62
     3
100
AcDbCircle
 10
365.168896
 20
578.73022
 30
0.0
 40
1.0
100
AcDbArc
 50
239.999454
 51
329.999454
  0
LINE
  5
3C4
330
1F
100
AcDbEntity
  8
7__7
  6
PLine1
 62
     3
100
AcDbLine
 10
391.445155
 20
622.24117
 30
0.0
 11
366.034917
 21
578.230213
 31
0.0
  0
LINE
  5
3C5
330
1F
100
AcDbEntity
  8
7__7
  6
Continuous
 62
     3
100
AcDbLine
 10
399.143712
 20
568.576749
 30
0.0
 11
400.442743
 21
567.826737
 31
0.0
  0
ARC
  5
3C6
330
1F
100
AcDbEntity
  8
7__7
  6
Continuous
 62
     3
100
AcDbCircle
 10
340.170279
 20
591.431436
 30
0.0
 40
1.0
100
AcDbArc
 50
149.999454
 51
239.999454
  0
LINE
  5
3C7
330
1F
100
AcDbEntity
  8
7__7
  6
PLine1
 62
     3
100
AcDbLine
 10
394.23026
 20
559.064498
 30
0.0
 11
339.670271
 21
590.565415
 31
0.0
  0
LINE
  5
3C8
330
1F
100
AcDbEntity
  8
7__7
  6
PLine1
 62
     3
100
AcDbLine
 10
394.547182
 20
560.613579
 30
0.0
 11
340.853252
 21
591.614466
 31
0.0
  0
LINE
  5
3C9
330
1F
100
AcDbEntity
  8
7__7
  6
PLine1
 62
     3
100
AcDbLine
 10
341.603264
 20
592.913497
 30
0.0
 11
364.985889
 21
579.413235
 31
0.0
  0
LINE
  5
3CA
330
1F
100
AcDbEntity
  8
7__7
  6
PLine1
 62
     3
100
AcDbLine
 10
399.143634
 20
568.576614
 30
0.0
 11
394.547182
 21
560.613579
 31
0.0
  0
LINE
  5
3CB
330
1F
100
AcDbEntity
  8
7__7
  6
PLine1
 62
     3
100
AcDbLine
 10
391.445155
 20
625.241127
 30
0.0
 11
364.985889
 21
579.413235
 31
0.0
  0
LINE
  5
3CC
330
1F
100
AcDbEntity
  8
7__7
  6
PLine1
 62
     3
100
AcDbLine
 10
354.925326
 20
662.586088
 30
0.0
 11
370.340351
 21
653.686219
 31
0.0
  0
LINE
  5
3CD
330
1F
100
AcDbEntity
  8
7__7
  6
PLine2
 62
     3
100
AcDbLine
 10
694.586419
 20
634.67276
 30
0.0
 11
711.112948
 21
634.67276
 31
0.0
  0
LINE
  5
3CE
330
1F
100
AcDbEntity
  8
7__7
  6
Continuous
 62
     3
100
AcDbLine
 10
1186.757129
 20
535.259333
 30
0.0
 11
1146.757129
 21
535.259333
 31
0.0
  0
LINE
  5
3CF
330
1F
100
AcDbEntity
  8
7__7
  6
Continuous
 62
     3
100
AcDbLine
 10
1186.757129
 20
537.559333
 30
0.0
 11
1164.14818
 21
569.695235
 31
0.0
  0
LINE
  5
3D0
330
1F
100
AcDbEntity
  8
7__7
  6
Continuous
 62
     3
100
AcDbLine
 10
1146.757129
 20
562.959333
 30
0.0
 11
1146.757129
 21
532.959333
 31
0.0
  0
CIRCLE
  5
3D1
330
1F
100
AcDbEntity
  8
7__7
  6
Continuous
 62
     3
100
AcDbCircle
 10
1157.062125
 20
562.924907
 30
0.0
 40
4.764998093999999
  0
LINE
  5
3D2
330
1F
100
AcDbEntity
  8
7__7
  6
PLine2
 62
     3
100
AcDbLine
 10
682.752871
 20
637.80821
 30
0.0
 11
1176.849167
 21
559.786647
 31
0.0
  0
LINE
  5
3D3
330
1F
100
AcDbEntity
  8
7__7
  6
Continuous
 62
     3
100
AcDbLine
 10
1186.757129
 20
537.559333
 30
0.0
 11
1186.757129
 21
532.959333
 31
0.0
  0
LINE
  5
3D4
330
1F
100
AcDbEntity
  8
7__7
  6
Continuous
 62
     3
100
AcDbLine
 10
1146.757129
 20
537.559333
 30
0.0
 11
1186.757129
 21
537.559333
 31
0.0
  0
LINE
  5
3D5
330
1F
100
AcDbEntity
  8
7__7
  6
PLine2
 62
     3
100
AcDbLine
 10
1156.757129
 20
574.957546
 30
0.0
 11
1156.757129
 21
551.030334
 31
0.0
  0
ARC
  5
3D6
330
1F
100
AcDbEntity
  8
7__7
  6
Continuous
 62
     3
100
AcDbCircle
 10
1156.757129
 20
562.959333
 30
0.0
 40
10.0
100
AcDbArc
 50
42.344768
 51
180.0
  0
LINE
  5
3D7
330
1F
100
AcDbEntity
  8
7__7
  6
Continuous
 62
     4
100
AcDbLine
 10
712.735824
 20
645.728556
 30
0.0
 11
729.252989
 21
643.12037
 31
0.0
  0
LINE
  5
3D8
330
1F
100
AcDbEntity
  8
7__7
  6
Continuous
 62
     4
100
AcDbLine
 10
1130.58435
 20
579.747097
 30
0.0
 11
734.191794
 21
642.340496
 31
0.0
  0
LINE
  5
3D9
330
1F
100
AcDbEntity
  8
7__7
  6
Continuous
 62
     4
100
AcDbLine
 10
700.65959
 20
622.32572
 30
0.0
 11
725.353615
 21
618.426345
 31
0.0
  0
LINE
  5
3DA
330
1F
100
AcDbEntity
  8
7__7
  6
Continuous
 62
     4
100
AcDbLine
 10
1126.684975
 20
555.053072
 30
0.0
 11
730.29242
 21
617.64647
 31
0.0
  0
LINE
  5
3DB
330
1F
100
AcDbEntity
  8
7__7
  6
Continuous
 62
     4
100
AcDbLine
 10
1130.58435
 20
579.747097
 30
0.0
 11
1126.684975
 21
555.053072
 31
0.0
  0
ARC
  5
3DC
330
1F
100
AcDbEntity
  8
7__7
  6
Continuous
 62
     4
100
AcDbCircle
 10
1129.058464
 20
574.985619
 30
0.0
 40
5.0
100
AcDbArc
 50
351.026654
 51
72.23118
  0
ARC
  5
3DD
330
1F
100
AcDbEntity
  8
7__7
  6
Continuous
 62
     4
100
AcDbCircle
 10
1126.700498
 20
560.053048
 30
0.0
 40
5.0
100
AcDbArc
 50
269.822128
 51
351.026654
  0
LINE
  5
3DE
330
1F
100
AcDbEntity
  8
7__7
  6
Continuous
 62
     4
100
AcDbLine
 10
1130.868599
 20
554.392446
 30
0.0
 11
1134.767973
 21
579.086471
 31
0.0
  0
LINE
  5
3DF
330
1F
100
AcDbEntity
  8
7__7
  6
Continuous
 62
     4
100
AcDbLine
 10
1134.767973
 20
579.086471
 30
0.0
 11
1158.706817
 21
575.306346
 31
0.0
  0
LINE
  5
3E0
330
1F
100
AcDbEntity
  8
7__7
  6
Continuous
 62
     4
100
AcDbLine
 10
1146.630582
 20
551.903509
 30
0.0
 11
1130.868599
 21
554.392446
 31
0.0
  0
ARC
  5
3E1
330
1F
100
AcDbEntity
  8
7__7
  6
Continuous
 62
     4
100
AcDbCircle
 10
1155.854211
 20
563.101911
 30
0.0
 40
12.53337906706985
100
AcDbArc
 50
2.093717
 51
85.209165
  0
LINE
  5
3E2
330
1F
100
AcDbEntity
  8
7__7
  6
Continuous
 62
     4
100
AcDbLine
 10
729.252989
 20
643.12037
 30
0.0
 11
725.353615
 21
618.426345
 31
0.0
  0
ARC
  5
3E3
330
1F
100
AcDbEntity
  8
7__7
  6
Continuous
 62
     4
100
AcDbCircle
 10
702.609277
 20
634.672732
 30
0.0
 40
12.49999999999996
100
AcDbArc
 50
177.371215
 51
261.026654
  0
LINE
  5
3E4
330
1F
100
AcDbEntity
  8
7__7
  6
Continuous
 62
     4
100
AcDbLine
 10
734.191794
 20
642.340496
 30
0.0
 11
730.29242
 21
617.64647
 31
0.0
  0
LINE
  5
3E5
330
1F
100
AcDbEntity
  8
7__7
  6
Continuous
 62
     4
100
AcDbLine
 10
728.239152
 20
636.699924
 30
0.0
 11
733.177957
 21
635.920049
 31
0.0
  0
LINE
  5
3E6
330
1F
100
AcDbEntity
  8
7__7
  6
Continuous
 62
     4
100
AcDbLine
 10
726.367452
 20
624.846792
 30
0.0
 11
731.306257
 21
624.066917
 31
0.0
  0
LINE
  5
3E7
330
1F
100
AcDbEntity
  8
7__7
  6
PLine2
 62
     3
100
AcDbLine
 10
702.609098
 20
644.694486
 30
0.0
 11
702.609098
 21
621.481996
 31
0.0
  0
CIRCLE
  5
3E8
330
1F
100
AcDbEntity
  8
7__7
  6
Continuous
 62
     3
100
AcDbCircle
 10
702.609098
 20
634.67276
 30
0.0
 40
4.5
  0
LINE
  5
3E9
330
1F
100
AcDbEntity
  8
7__7
  6
Continuous
 62
     3
100
AcDbLine
 10
672.609098
 20
662.37276
 30
0.0
 11
712.609098
 21
662.37276
 31
0.0
  0
LINE
  5
3EA
330
1F
100
AcDbEntity
  8
7__7
  6
Continuous
 62
     3
100
AcDbLine
 10
672.609098
 20
660.07276
 30
0.0
 11
695.218048
 21
627.936858
 31
0.0
  0
LINE
  5
3EB
330
1F
100
AcDbEntity
  8
7__7
  6
Continuous
 62
     3
100
AcDbLine
 10
712.609098
 20
634.67276
 30
0.0
 11
712.609098
 21
664.67276
 31
0.0
  0
LINE
  5
3EC
330
1F
100
AcDbEntity
  8
7__7
  6
Continuous
 62
     3
100
AcDbLine
 10
672.609098
 20
660.07276
 30
0.0
 11
672.609098
 21
664.67276
 31
0.0
  0
LINE
  5
3ED
330
1F
100
AcDbEntity
  8
7__7
  6
Continuous
 62
     3
100
AcDbLine
 10
712.609098
 20
660.07276
 30
0.0
 11
672.609098
 21
660.07276
 31
0.0
  0
ARC
  5
3EE
330
1F
100
AcDbEntity
  8
7__7
  6
Continuous
 62
     3
100
AcDbCircle
 10
702.609098
 20
634.67276
 30
0.0
 40
10.0
100
AcDbArc
 50
222.344768
 51
0.0
  0
LINE
  5
3EF
330
1F
100
AcDbEntity
  8
7__7
  6
Continuous
 62
     4
100
AcDbLine
 10
1323.757129
 20
664.673384
 30
0.0
 11
1273.757129
 21
664.673384
 31
0.0
  0
LINE
  5
3F0
330
1F
100
AcDbEntity
  8
7__7
  6
PLine5
 62
     3
100
AcDbLine
 10
1301.336364
 20
626.73906
 30
0.0
 11
1311.267352
 21
638.70667
 31
0.0
  0
LINE
  5
3F1
330
1F
100
AcDbEntity
  8
7__7
  6
Continuous
 62
     4
100
AcDbLine
 10
1317.757129
 20
689.673157
 30
0.0
 11
1323.757129
 21
689.673384
 31
0.0
  0
LINE
  5
3F2
330
1F
100
AcDbEntity
  8
7__7
  6
Continuous
 62
     4
100
AcDbLine
 10
1317.757129
 20
689.673157
 30
0.0
 11
1317.757129
 21
673.673384
 31
0.0
  0
ARC
  5
3F3
330
1F
100
AcDbEntity
  8
7__7
  6
Continuous
 62
     4
100
AcDbCircle
 10
1314.757129
 20
673.673384
 30
0.0
 40
3.0
100
AcDbArc
 50
270.0
 51
0.0
  0
ARC
  5
3F4
330
1F
100
AcDbEntity
  8
7__7
  6
Continuous
 62
     4
100
AcDbCircle
 10
1314.757129
 20
673.673384
 30
0.0
 40
3.0
100
AcDbArc
 50
270.0
 51
0.0
  0
LINE
  5
3F5
330
1F
100
AcDbEntity
  8
7__7
  6
Continuous
 62
     4
100
AcDbLine
 10
1276.757129
 20
670.673384
 30
0.0
 11
1314.757129
 21
670.673384
 31
0.0
  0
LINE
  5
3F6
330
1F
100
AcDbEntity
  8
7__7
  6
Continuous
 62
     3
100
AcDbLine
 10
1362.569474
 20
587.644762
 30
0.0
 11
1290.295376
 21
647.428657
 31
0.0
  0
ARC
  5
3F7
330
1F
100
AcDbEntity
  8
7__7
  6
Continuous
 62
     3
100
AcDbCircle
 10
1324.831858
 20
617.470056
 30
0.0
 40
2.499999999999906
100
AcDbArc
 50
162.204141
 51
230.313361
  0
ARC
  5
3F8
330
1F
100
AcDbEntity
  8
7__7
  6
Continuous
 62
     3
100
AcDbCircle
 10
1324.831858
 20
617.470056
 30
0.0
 40
2.499999999999906
100
AcDbArc
 50
50.313361
 51
118.137898
  0
LINE
  5
3F9
330
1F
100
AcDbEntity
  8
7__7
  6
Continuous
 62
     3
100
AcDbLine
 10
1359.431645
 20
587.644762
 30
0.0
 11
1289.018199
 21
645.88956
 31
0.0
  0
LINE
  5
3FA
330
1F
100
AcDbEntity
  8
7__7
  6
Continuous
 62
     3
100
AcDbLine
 10
1322.596799
 20
614.776636
 30
0.0
 11
1323.235387
 21
615.546185
 31
0.0
  0
LINE
  5
3FB
330
1F
100
AcDbEntity
  8
7__7
  6
Continuous
 62
     3
100
AcDbLine
 10
1327.066917
 20
620.163476
 30
0.0
 11
1326.428329
 21
619.393927
 31
0.0
  0
LINE
  5
3FC
330
1F
100
AcDbEntity
  8
7__7
  6
Continuous
 62
     3
100
AcDbLine
 10
1283.12207
 20
647.53364
 30
0.0
 11
1322.596799
 21
614.776636
 31
0.0
  0
LINE
  5
3FD
330
1F
100
AcDbEntity
  8
7__7
  6
Continuous
 62
     3
100
AcDbLine
 10
1285.64566
 20
646.738973
 30
0.0
 11
1323.235387
 21
615.546185
 31
0.0
  0
LINE
  5
3FE
330
1F
100
AcDbEntity
  8
7__7
  6
Continuous
 62
     3
100
AcDbLine
 10
1288.840349
 20
650.56938
 30
0.0
 11
1326.428329
 21
619.393927
 31
0.0
  0
LINE
  5
3FF
330
1F
100
AcDbEntity
  8
7__7
  6
Continuous
 62
     3
100
AcDbLine
 10
1287.592189
 20
652.920479
 30
0.0
 11
1327.066917
 21
620.163476
 31
0.0
  0
LINE
  5
400
330
1F
100
AcDbEntity
  8
7__7
  6
Continuous
 62
     3
100
AcDbLine
 10
1280.242103
 20
654.471622
 30
0.0
 11
1290.252837
 21
646.164493
 31
0.0
  0
LINE
  5
401
330
1F
100
AcDbEntity
  8
7__7
  6
Continuous
 62
     3
100
AcDbLine
 10
1281.535426
 20
645.621611
 30
0.0
 11
1289.913793
 21
655.718193
 31
0.0
  0
LINE
  5
402
330
1F
100
AcDbEntity
  8
7__7
  6
Continuous
 62
     4
100
AcDbLine
 10
1283.757129
 20
653.339936
 30
0.0
 11
1283.757129
 21
662.922372
 31
0.0
  0
LINE
  5
403
330
1F
100
AcDbEntity
  8
7__7
  6
Continuous
 62
     4
100
AcDbLine
 10
1285.357129
 20
664.673346
 30
0.0
 11
1285.357129
 21
653.72706
 31
0.0
  0
LINE
  5
404
330
1F
100
AcDbEntity
  8
7__7
  6
Continuous
 62
     4
100
AcDbLine
 10
1286.957129
 20
653.339936
 30
0.0
 11
1286.957129
 21
662.922372
 31
0.0
  0
LINE
  5
405
330
1F
100
AcDbEntity
  8
7__7
  6
Continuous
 62
     4
100
AcDbLine
 10
1295.357129
 20
662.922372
 30
0.0
 11
1286.957129
 21
662.922372
 31
0.0
  0
LINE
  5
406
330
1F
100
AcDbEntity
  8
7__7
  6
Continuous
 62
     4
100
AcDbLine
 10
1295.357129
 20
664.673356
 30
0.0
 11
1295.357129
 21
662.922372
 31
0.0
  0
LINE
  5
407
330
1F
100
AcDbEntity
  8
7__7
  6
Continuous
 62
     4
100
AcDbLine
 10
1273.757129
 20
662.922372
 30
0.0
 11
1283.757129
 21
662.922372
 31
0.0
  0
ARC
  5
408
330
1F
100
AcDbEntity
  8
7__7
  6
Continuous
 62
     4
100
AcDbCircle
 10
1276.757129
 20
667.673384
 30
0.0
 40
3.0
100
AcDbArc
 50
90.0
 51
180.0
  0
LINE
  5
409
330
1F
100
AcDbEntity
  8
7__7
  6
Continuous
 62
     4
100
AcDbLine
 10
1273.757129
 20
662.922372
 30
0.0
 11
1273.757129
 21
667.673384
 31
0.0
  0
CIRCLE
  5
40A
330
1F
100
AcDbEntity
  8
7__7
  6
Continuous
 62
     3
100
AcDbCircle
 10
1285.357129
 20
650.22706
 30
0.0
 40
3.49999999999999
  0
ARC
  5
40B
330
1F
100
AcDbEntity
  8
7__7
  6
Continuous
 62
     3
100
AcDbCircle
 10
1287.89353
 20
648.122298
 30
0.0
 40
2.499999999999906
100
AcDbArc
 50
230.313361
 51
296.735183
  0
ARC
  5
40C
330
1F
100
AcDbEntity
  8
7__7
  6
Continuous
 62
     3
100
AcDbCircle
 10
1287.89353
 20
648.122298
 30
0.0
 40
2.499999999999906
100
AcDbArc
 50
343.89154
 51
50.313361
  0
ARC
  5
40D
330
1F
100
AcDbEntity
  8
7__7
  6
Continuous
 62
     3
100
AcDbCircle
 10
1289.656787
 20
646.659108
 30
0.0
 40
0.9999999999999428
100
AcDbArc
 50
50.313361
 51
230.313361
  0
LINE
  5
40E
330
1F
100
AcDbEntity
  8
7__7
  6
PLine1
 62
     3
100
AcDbLine
 10
823.050951
 20
1297.056855
 30
0.0
 11
835.538282
 21
1306.325879
 31
0.0
  0
LINE
  5
40F
330
1F
100
AcDbEntity
  8
7__7
  6
PLine1
 62
     3
100
AcDbLine
 10
795.141244
 20
1371.448369
 30
0.0
 11
798.141096
 21
1376.644606
 31
0.0
  0
LINE
  5
410
330
1F
100
AcDbEntity
  8
7__7
  6
PLine1
 62
     3
100
AcDbLine
 10
795.141244
 20
1371.448369
 30
0.0
 11
808.997377
 21
1363.448351
 31
0.0
  0
ARC
  5
411
330
1F
100
AcDbEntity
  8
7__7
  6
PLine1
 62
     3
100
AcDbCircle
 10
807.497352
 20
1360.850289
 30
0.0
 40
3.0
100
AcDbArc
 50
329.999454
 51
59.999454
  0
ARC
  5
412
330
1F
100
AcDbEntity
  8
7__7
  6
PLine1
 62
     3
100
AcDbCircle
 10
807.497352
 20
1360.850289
 30
0.0
 40
3.0
100
AcDbArc
 50
329.999454
 51
59.999454
  0
LINE
  5
413
330
1F
100
AcDbEntity
  8
7__7
  6
PLine1
 62
     3
100
AcDbLine
 10
791.095101
 20
1326.44148
 30
0.0
 11
810.095414
 21
1359.350264
 31
0.0
  0
ARC
  5
414
330
1F
100
AcDbEntity
  8
7__7
  6
PLine1
 62
     3
100
AcDbCircle
 10
843.675649
 20
1282.476919
 30
0.0
 40
2.499999999999906
100
AcDbArc
 50
148.476326
 51
216.585546
  0
ARC
  5
415
330
1F
100
AcDbEntity
  8
7__7
  6
PLine1
 62
     3
100
AcDbCircle
 10
843.675649
 20
1282.476919
 30
0.0
 40
2.499999999999906
100
AcDbArc
 50
36.585546
 51
104.410083
  0
LINE
  5
416
330
1F
100
AcDbEntity
  8
7__7
  6
PLine1
 62
     3
100
AcDbLine
 10
840.865261
 20
1280.390841
 30
0.0
 11
841.668229
 21
1280.986864
 31
0.0
  0
LINE
  5
417
330
1F
100
AcDbEntity
  8
7__7
  6
PLine1
 62
     3
100
AcDbLine
 10
846.486036
 20
1284.562998
 30
0.0
 11
845.683068
 21
1283.966975
 31
0.0
  0
LINE
  5
418
330
1F
100
AcDbEntity
  8
7__7
  6
PLine1
 62
     3
100
AcDbLine
 10
810.291723
 20
1321.579848
 30
0.0
 11
840.865261
 21
1280.390841
 31
0.0
  0
LINE
  5
419
330
1F
100
AcDbEntity
  8
7__7
  6
PLine1
 62
     3
100
AcDbLine
 10
812.554642
 20
1320.209009
 30
0.0
 11
841.668229
 21
1280.986864
 31
0.0
  0
LINE
  5
41A
330
1F
100
AcDbEntity
  8
7__7
  6
PLine1
 62
     3
100
AcDbLine
 10
816.567065
 20
1323.171866
 30
0.0
 11
845.683068
 21
1283.966975
 31
0.0
  0
LINE
  5
41B
330
1F
100
AcDbEntity
  8
7__7
  6
PLine1
 62
     3
100
AcDbLine
 10
815.912498
 20
1325.752004
 30
0.0
 11
846.486036
 21
1284.562998
 31
0.0
  0
LINE
  5
41C
330
1F
100
AcDbEntity
  8
7__7
  6
PLine1
 62
     3
100
AcDbLine
 10
809.140476
 20
1329.003084
 30
0.0
 11
816.893881
 21
1318.557612
 31
0.0
  0
LINE
  5
41D
330
1F
100
AcDbEntity
  8
7__7
  6
PLine1
 62
     3
100
AcDbLine
 10
808.29666
 20
1320.098964
 30
0.0
 11
818.831708
 21
1327.918859
 31
0.0
  0
LINE
  5
41E
330
1F
100
AcDbEntity
  8
7__7
  6
PLine1
 62
     3
100
AcDbLine
 10
809.606282
 20
1323.836757
 30
0.0
 11
801.307695
 21
1328.628054
 31
0.0
  0
LINE
  5
41F
330
1F
100
AcDbEntity
  8
7__7
  6
PLine1
 62
     3
100
AcDbLine
 10
800.591329
 20
1330.889188
 30
0.0
 11
810.071039
 21
1325.415955
 31
0.0
  0
LINE
  5
420
330
1F
100
AcDbEntity
  8
7__7
  6
PLine1
 62
     3
100
AcDbLine
 10
811.206309
 20
1326.608023
 30
0.0
 11
802.907721
 21
1331.39932
 31
0.0
  0
LINE
  5
421
330
1F
100
AcDbEntity
  8
7__7
  6
PLine1
 62
     3
100
AcDbLine
 10
807.107791
 20
1338.673894
 30
0.0
 11
802.907721
 21
1331.39932
 31
0.0
  0
LINE
  5
422
330
1F
100
AcDbEntity
  8
7__7
  6
PLine1
 62
     3
100
AcDbLine
 10
805.591403
 20
1339.5494
 30
0.0
 11
807.107791
 21
1338.673894
 31
0.0
  0
LINE
  5
423
330
1F
100
AcDbEntity
  8
7__7
  6
PLine1
 62
     3
100
AcDbLine
 10
796.307613
 20
1319.967848
 30
0.0
 11
801.307695
 21
1328.628054
 31
0.0
  0
ARC
  5
424
330
1F
100
AcDbEntity
  8
7__7
  6
PLine1
 62
     3
100
AcDbCircle
 10
793.693163
 20
1324.941455
 30
0.0
 40
3.0
100
AcDbArc
 50
149.999454
 51
239.999454
  0
LINE
  5
425
330
1F
100
AcDbEntity
  8
7__7
  6
PLine1
 62
     3
100
AcDbLine
 10
796.307613
 20
1319.967848
 30
0.0
 11
792.193138
 21
1322.343393
 31
0.0
  0
CIRCLE
  5
426
330
1F
100
AcDbEntity
  8
7__7
  6
PLine1
 62
     3
100
AcDbCircle
 10
813.102111
 20
1323.665926
 30
0.0
 40
3.49999999999999
  0
ARC
  5
427
330
1F
100
AcDbEntity
  8
7__7
  6
PLine1
 62
     3
100
AcDbCircle
 10
815.066576
 20
1321.019376
 30
0.0
 40
2.499999999999906
100
AcDbArc
 50
216.585546
 51
283.007368
  0
ARC
  5
428
330
1F
100
AcDbEntity
  8
7__7
  6
PLine1
 62
     3
100
AcDbCircle
 10
815.066576
 20
1321.019376
 30
0.0
 40
2.499999999999906
100
AcDbArc
 50
330.163725
 51
36.585546
  0
ARC
  5
429
330
1F
100
AcDbEntity
  8
7__7
  6
PLine1
 62
     3
100
AcDbCircle
 10
816.432235
 20
1319.179546
 30
0.0
 40
0.9999999999999428
100
AcDbArc
 50
36.585546
 51
216.585546
  0
LINE
  5
42A
330
1F
100
AcDbEntity
  8
7__7
  6
Continuous
 62
     1
100
AcDbLine
 10
60.261907
 20
42.537817
 30
0.0
 11
60.261907
 21
1722.537817
 31
0.0
  0
LINE
  5
42B
330
1F
100
AcDbEntity
  8
7__7
  6
Continuous
 62
     1
100
AcDbLine
 10
60.261907
 20
42.537817
 30
0.0
 11
2460.261907
 21
42.537817
 31
0.0
  0
LINE
  5
42C
330
1F
100
AcDbEntity
  8
7__7
  6
Continuous
 62
     1
100
AcDbLine
 10
2460.261907
 20
1722.537817
 30
0.0
 11
60.261907
 21
1722.537817
 31
0.0
  0
LINE
  5
42D
330
1F
100
AcDbEntity
  8
7__7
  6
Continuous
 62
     1
100
AcDbLine
 10
2460.261907
 20
42.537817
 30
0.0
 11
2460.261907
 21
1722.537817
 31
0.0
  0
TEXT
  5
42E
330
1F
100
AcDbEntity
  8
7__7
  6
Continuous
 62
     2
100
AcDbText
 10
2195.258891
 20
106.784259
 30
0.0
 40
24.0
  1
ＬＭ－Ｓ－ＮＰ型
 41
0.858268
  7
BIGFONT
100
AcDbText
  0
LINE
  5
42F
330
1F
100
AcDbEntity
  8
7__7
  6
PLine1
 62
     3
100
AcDbLine
 10
795.561802
 20
1382.175311
 30
0.0
 11
792.09772
 21
1384.175345
 31
0.0
  0
LINE
  5
430
330
1F
100
AcDbEntity
  8
7__7
  6
Continuous
 62
     3
100
AcDbLine
 10
870.576366
 20
863.804127
 30
0.0
 11
880.293528
 21
863.804127
 31
0.0
  0
LINE
  5
431
330
1F
100
AcDbEntity
  8
7__7
  6
Continuous
 62
     3
100
AcDbLine
 10
880.293528
 20
863.804127
 30
0.0
 11
880.293528
 21
854.086965
 31
0.0
  0
LINE
  5
432
330
1F
100
AcDbEntity
  8
7__7
  6
Continuous
 62
     3
100
AcDbLine
 10
880.293528
 20
854.086965
 30
0.0
 11
870.576366
 21
854.086965
 31
0.0
  0
LINE
  5
433
330
1F
100
AcDbEntity
  8
7__7
  6
Continuous
 62
     3
100
AcDbLine
 10
870.576366
 20
854.086965
 30
0.0
 11
870.576366
 21
863.804127
 31
0.0
  0
LINE
  5
434
330
1F
100
AcDbEntity
  8
7__7
  6
Continuous
 62
     3
100
AcDbLine
 10
846.098439
 20
959.427455
 30
0.0
 11
855.815601
 21
959.427455
 31
0.0
  0
LINE
  5
435
330
1F
100
AcDbEntity
  8
7__7
  6
Continuous
 62
     3
100
AcDbLine
 10
855.815601
 20
959.427455
 30
0.0
 11
855.815601
 21
949.710294
 31
0.0
  0
LINE
  5
436
330
1F
100
AcDbEntity
  8
7__7
  6
Continuous
 62
     3
100
AcDbLine
 10
855.815601
 20
949.710294
 30
0.0
 11
846.098439
 21
949.710294
 31
0.0
  0
LINE
  5
437
330
1F
100
AcDbEntity
  8
7__7
  6
Continuous
 62
     3
100
AcDbLine
 10
846.098439
 20
949.710294
 30
0.0
 11
846.098439
 21
959.427455
 31
0.0
  0
TEXT
  5
438
330
1F
100
AcDbEntity
  8
7__7
  6
Continuous
 62
     3
100
AcDbText
 10
2101.017017
 20
206.480176
 30
0.0
 40
21.0
  1
ボックス施工例
 41
0.858268
  7
BIGFONT
100
AcDbText
  0
LINE
  5
439
330
1F
100
AcDbEntity
  8
7__7
  6
Continuous
 62
     3
100
AcDbLine
 10
2284.769123
 20
1261.275597
 30
0.0
 11
2284.769123
 21
298.415578
 31
0.0
  0
LINE
  5
43A
330
1F
100
AcDbEntity
  8
7__7
  6
Continuous
 62
     3
100
AcDbLine
 10
2225.269123
 20
1114.506584
 30
0.0
 11
2225.269123
 21
1121.156584
 31
0.0
  0
INSERT
  5
441
330
1F
100
AcDbEntity
  8
7__7
  6
Continuous
 62
     3
100
AcDbBlockReference
  2
DIM_9
 10
0.0
 20
0.0
 30
0.0
  0
LINE
  5
442
330
1F
100
AcDbEntity
  8
7__7
  6
Continuous
 62
     4
100
AcDbLine
 10
2203.238875
 20
1205.01258
 30
0.0
 11
2210.548201
 21
1211.090361
 31
0.0
  0
ARC
  5
443
330
1F
100
AcDbEntity
  8
7__7
  6
Continuous
 62
     4
100
AcDbCircle
 10
2095.99703
 20
1112.433194
 30
0.0
 40
144.5000000001358
100
AcDbArc
 50
40.782563
 51
89.215646
  0
ARC
  5
444
330
1F
100
AcDbEntity
  8
7__7
  6
Continuous
 62
     4
100
AcDbCircle
 10
2095.99703
 20
1112.433194
 30
0.0
 40
149.9999999998048
100
AcDbArc
 50
40.744474
 51
89.215646
  0
LINE
  5
445
330
1F
100
AcDbEntity
  8
7__7
  6
Continuous
 62
     3
100
AcDbLine
 10
1988.585727
 20
1244.412911
 30
0.0
 11
1991.987651
 21
1256.305216
 31
0.0
  0
LINE
  5
446
330
1F
100
AcDbEntity
  8
7__7
  6
Continuous
 62
     3
100
AcDbLine
 10
1991.987651
 20
1256.305216
 30
0.0
 11
1944.480652
 21
1174.02068
 31
0.0
  0
LINE
  5
447
330
1F
100
AcDbEntity
  8
7__7
  6
Continuous
 62
     3
100
AcDbLine
 10
1944.480652
 20
1174.02068
 30
0.0
 11
1802.580652
 21
1174.02068
 31
0.0
  0
TEXT
  5
448
330
1F
100
AcDbEntity
  8
7__7
  6
Continuous
 62
     3
100
AcDbText
 10
1824.935933
 20
1179.020751
 30
0.0
 40
15.0
  1
アウターケーブルφ１１
 41
0.858268
 51
0.0
  7
BIGFONT
 72
     2
 11
1944.480365
 21
1179.020751
 31
0.0
100
AcDbText
  0
TEXT
  5
449
330
1F
100
AcDbEntity
  8
7__7
  6
Continuous
 62
     3
100
AcDbText
 10
1875.7145
 20
1235.429676
 30
0.0
 40
15.0
  1
←本体へ
 41
0.729528
 51
0.0
  7
BIGFONT
100
AcDbText
  0
LINE
  5
44A
330
1F
100
AcDbEntity
  8
7__7
  6
Continuous
 62
     6
100
AcDbLine
 10
2334.752647
 20
1321.946043
 30
0.0
 11
2275.225742
 21
1262.419139
 31
0.0
  0
LINE
  5
44B
330
1F
100
AcDbEntity
  8
7__7
  6
Continuous
 62
     6
100
AcDbLine
 10
2279.157168
 20
1262.419139
 30
0.0
 11
2338.684072
 21
1321.946043
 31
0.0
  0
LINE
  5
44C
330
1F
100
AcDbEntity
  8
7__7
  6
Continuous
 62
     6
100
AcDbLine
 10
2330.198791
 20
1321.946043
 30
0.0
 11
2270.671887
 21
1262.419139
 31
0.0
  0
LINE
  5
44D
330
1F
100
AcDbEntity
  8
7__7
  6
Continuous
 62
     6
100
AcDbLine
 10
2011.168847
 20
1262.419139
 30
0.0
 11
2070.695751
 21
1321.946043
 31
0.0
  0
LINE
  5
44E
330
1F
100
AcDbEntity
  8
7__7
  6
Continuous
 62
     6
100
AcDbLine
 10
2002.683566
 20
1262.419139
 30
0.0
 11
2062.21047
 21
1321.946043
 31
0.0
  0
LINE
  5
44F
330
1F
100
AcDbEntity
  8
7__7
  6
Continuous
 62
     3
100
AcDbLine
 10
1884.620575
 20
1115.606584
 30
0.0
 11
2223.869123
 21
1115.606584
 31
0.0
  0
LINE
  5
450
330
1F
100
AcDbEntity
  8
7__7
  6
Continuous
 62
     3
100
AcDbLine
 10
1884.620575
 20
1120.356584
 30
0.0
 11
2223.869123
 21
1120.356584
 31
0.0
  0
LINE
  5
451
330
1F
100
AcDbEntity
  8
7__7
  6
Continuous
 62
     3
100
AcDbLine
 10
2223.869123
 20
1120.356584
 30
0.0
 11
2223.869123
 21
1115.606584
 31
0.0
  0
LINE
  5
452
330
1F
100
AcDbEntity
  8
7__7
  6
Continuous
 62
     3
100
AcDbLine
 10
2217.569123
 20
1120.656584
 30
0.0
 11
2217.569123
 21
1121.156584
 31
0.0
  0
LINE
  5
453
330
1F
100
AcDbEntity
  8
7__7
  6
Continuous
 62
     3
100
AcDbLine
 10
2224.769123
 20
1120.656584
 30
0.0
 11
2217.569123
 21
1120.656584
 31
0.0
  0
LINE
  5
454
330
1F
100
AcDbEntity
  8
7__7
  6
Continuous
 62
     3
100
AcDbLine
 10
2224.769123
 20
1115.006584
 30
0.0
 11
2224.769123
 21
1120.656584
 31
0.0
  0
LINE
  5
455
330
1F
100
AcDbEntity
  8
7__7
  6
Continuous
 62
     3
100
AcDbLine
 10
2222.369123
 20
1115.006584
 30
0.0
 11
2224.769123
 21
1115.006584
 31
0.0
  0
LINE
  5
456
330
1F
100
AcDbEntity
  8
7__7
  6
Continuous
 62
     3
100
AcDbLine
 10
2222.369123
 20
1115.606584
 30
0.0
 11
2222.369123
 21
1115.006584
 31
0.0
  0
LINE
  5
457
330
1F
100
AcDbEntity
  8
7__7
  6
Continuous
 62
     3
100
AcDbLine
 10
2221.869123
 20
1115.606584
 30
0.0
 11
2222.369123
 21
1115.606584
 31
0.0
  0
LINE
  5
458
330
1F
100
AcDbEntity
  8
7__7
  6
Continuous
 62
     3
100
AcDbLine
 10
2221.869123
 20
1114.506584
 30
0.0
 11
2221.869123
 21
1115.606584
 31
0.0
  0
LINE
  5
459
330
1F
100
AcDbEntity
  8
7__7
  6
Continuous
 62
     3
100
AcDbLine
 10
2221.869123
 20
1114.506584
 30
0.0
 11
2225.269123
 21
1114.506584
 31
0.0
  0
LINE
  5
45A
330
1F
100
AcDbEntity
  8
7__7
  6
Continuous
 62
     3
100
AcDbLine
 10
2217.569123
 20
1121.156584
 30
0.0
 11
2225.269123
 21
1121.156584
 31
0.0
  0
TEXT
  5
45B
330
1F
100
AcDbEntity
  8
7__7
  6
Continuous
 62
     3
100
AcDbText
 10
2000.450675
 20
1098.792636
 30
0.0
 40
15.0
  1
ＣＬ
 41
0.858268
 51
0.0
  7
BIGFONT
100
AcDbText
  0
TEXT
  5
45C
330
1F
100
AcDbEntity
  8
7__7
  6
Continuous
 62
     3
100
AcDbText
 10
1988.042835
 20
1099.355836
 30
0.0
 40
15.0
  1
△
 41
0.858268
 51
0.0
  7
BIGFONT
100
AcDbText
  0
TEXT
  5
45D
330
1F
100
AcDbEntity
  8
7__7
  6
Continuous
 62
     3
100
AcDbText
 10
2099.729846
 20
1005.926538
 30
0.0
 40
15.0
  1
φ１９　電線管
 41
0.858268
  7
BIGFONT
100
AcDbText
  0
LINE
  5
45E
330
1F
100
AcDbEntity
  8
7__7
  6
Continuous
 62
     3
100
AcDbLine
 10
2236.990222
 20
962.470873
 30
0.0
 11
2245.588299
 21
953.578569
 31
0.0
  0
LINE
  5
45F
330
1F
100
AcDbEntity
  8
7__7
  6
Continuous
 62
     3
100
AcDbLine
 10
2245.588299
 20
953.578569
 30
0.0
 11
2205.264096
 21
1023.422137
 31
0.0
  0
LINE
  5
460
330
1F
100
AcDbEntity
  8
7__7
  6
Continuous
 62
     3
100
AcDbLine
 10
2205.264096
 20
1023.422137
 30
0.0
 11
2097.572855
 21
1023.422137
 31
0.0
  0
TEXT
  5
461
330
1F
100
AcDbEntity
  8
7__7
  6
Continuous
 62
     3
100
AcDbText
 10
2115.446897
 20
1025.922113
 30
0.0
 40
15.0
  1
ワイヤー通路
 41
0.858268
 51
0.0
  7
BIGFONT
 72
     2
 11
2179.816976
 21
1025.922113
 31
0.0
100
AcDbText
  0
TEXT
  5
462
330
1F
100
AcDbEntity
  8
7__7
  6
Continuous
 62
     3
100
AcDbText
 10
2025.752019
 20
895.215427
 30
0.0
 40
15.0
  1
（ＨＭ１型－埋込）
 41
0.858268
  7
BIGFONT
100
AcDbText
  0
LINE
  5
463
330
1F
100
AcDbEntity
  8
7__7
  6
Continuous
 62
     2
100
AcDbLine
 10
1926.192275
 20
1321.946043
 30
0.0
 11
2369.829759
 21
1321.946043
 31
0.0
  0
LINE
  5
464
330
1F
100
AcDbEntity
  8
7__7
  6
Continuous
 62
     3
100
AcDbLine
 10
2077.570186
 20
1266.931598
 30
0.0
 11
2077.570186
 21
1257.502133
 31
0.0
  0
LINE
  5
465
330
1F
100
AcDbEntity
  8
7__7
  6
Continuous
 62
     3
100
AcDbLine
 10
2070.070186
 20
1261.669139
 30
0.0
 11
2085.070186
 21
1261.669139
 31
0.0
  0
LINE
  5
466
330
1F
100
AcDbEntity
  8
7__7
  6
Continuous
 62
     3
100
AcDbLine
 10
2070.070186
 20
1254.846907
 30
0.0
 11
2085.070186
 21
1254.846907
 31
0.0
  0
LINE
  5
467
330
1F
100
AcDbEntity
  8
7__7
  6
Continuous
 62
     3
100
AcDbLine
 10
2085.070186
 20
1262.419139
 30
0.0
 11
2085.070186
 21
1254.846907
 31
0.0
  0
LINE
  5
468
330
1F
100
AcDbEntity
  8
7__7
  6
Continuous
 62
     3
100
AcDbLine
 10
2070.070186
 20
1262.419139
 30
0.0
 11
2070.070186
 21
1254.846907
 31
0.0
  0
LINE
  5
469
330
1F
100
AcDbEntity
  8
7__7
  6
Continuous
 62
     2
100
AcDbLine
 10
2098.050399
 20
1262.419139
 30
0.0
 11
2369.829759
 21
1262.419139
 31
0.0
  0
LINE
  5
46A
330
1F
100
AcDbEntity
  8
7__7
  6
PLine3
 62
     3
100
AcDbLine
 10
1884.620575
 20
1260.169139
 30
0.0
 11
1926.034606
 21
1260.169139
 31
0.0
  0
LINE
  5
46B
330
1F
100
AcDbEntity
  8
7__7
  6
PLine2
 62
     3
100
AcDbLine
 10
1884.620575
 20
1259.169139
 30
0.0
 11
1926.26062
 21
1259.169139
 31
0.0
  0
LINE
  5
46C
330
1F
100
AcDbEntity
  8
7__7
  6
Continuous
 62
     4
100
AcDbLine
 10
2098.012401
 20
1256.919139
 30
0.0
 11
2085.070186
 21
1256.919139
 31
0.0
  0
LINE
  5
46D
330
1F
100
AcDbEntity
  8
7__7
  6
Continuous
 62
     4
100
AcDbLine
 10
2098.050399
 20
1262.419139
 30
0.0
 11
1926.192275
 21
1262.419139
 31
0.0
  0
LINE
  5
46E
330
1F
100
AcDbEntity
  8
7__7
  6
Continuous
 62
     3
100
AcDbLine
 10
2102.492985
 20
1232.562297
 30
0.0
 11
2111.894909
 21
1254.846907
 31
0.0
  0
LINE
  5
46F
330
1F
100
AcDbEntity
  8
7__7
  6
Continuous
 62
     3
100
AcDbLine
 10
2111.894909
 20
1254.846907
 30
0.0
 11
2076.28217
 21
1193.163834
 31
0.0
  0
LINE
  5
470
330
1F
100
AcDbEntity
  8
7__7
  6
Continuous
 62
     3
100
AcDbLine
 10
2076.28217
 20
1193.163834
 30
0.0
 11
1998.88217
 21
1193.163834
 31
0.0
  0
TEXT
  5
471
330
1F
100
AcDbEntity
  8
7__7
  6
Continuous
 62
     3
100
AcDbText
 10
2011.912046
 20
1198.163821
 30
0.0
 40
15.0
  1
クリップ止め
 41
0.858268
 51
0.0
  7
BIGFONT
 72
     2
 11
2076.282125
 21
1198.163821
 31
0.0
100
AcDbText
  0
LINE
  5
472
330
1F
100
AcDbEntity
  8
7__7
  6
Continuous
 62
     4
100
AcDbLine
 10
2070.070186
 20
1256.919139
 30
0.0
 11
1926.10752
 21
1256.919139
 31
0.0
  0
LINE
  5
473
330
1F
100
AcDbEntity
  8
7__7
  6
Continuous
 62
     6
100
AcDbLine
 10
2117.451566
 20
298.590098
 30
0.0
 11
2084.183066
 21
265.321599
 31
0.0
  0
LINE
  5
474
330
1F
100
AcDbEntity
  8
7__7
  6
Continuous
 62
     6
100
AcDbLine
 10
2081.957307
 20
265.321599
 30
0.0
 11
2115.225806
 21
298.590098
 31
0.0
  0
LINE
  5
475
330
1F
100
AcDbEntity
  8
7__7
  6
Continuous
 62
     6
100
AcDbLine
 10
2309.891775
 20
265.321599
 30
0.0
 11
2343.160275
 21
298.590098
 31
0.0
  0
LINE
  5
476
330
1F
100
AcDbEntity
  8
7__7
  6
Continuous
 62
     6
100
AcDbLine
 10
2345.579912
 20
298.590098
 30
0.0
 11
2312.311412
 21
265.321599
 31
0.0
  0
LINE
  5
477
330
1F
100
AcDbEntity
  8
7__7
  6
Continuous
 62
     3
100
AcDbLine
 10
2214.067284
 20
791.918485
 30
0.0
 11
2222.66536
 21
783.02618
 31
0.0
  0
LINE
  5
478
330
1F
100
AcDbEntity
  8
7__7
  6
Continuous
 62
     3
100
AcDbLine
 10
2222.66536
 20
783.02618
 30
0.0
 11
2147.033917
 21
914.023681
 31
0.0
  0
LINE
  5
479
330
1F
100
AcDbEntity
  8
7__7
  6
Continuous
 62
     3
100
AcDbLine
 10
2147.033917
 20
914.023681
 30
0.0
 11
2033.747386
 21
914.023681
 31
0.0
  0
TEXT
  5
47A
330
1F
100
AcDbEntity
  8
7__7
  6
Continuous
 62
     3
100
AcDbText
 10
2053.46054
 20
916.523717
 30
0.0
 40
15.0
  1
ハンドルＢＯＸ
 41
0.858268
 51
0.0
  7
BIGFONT
 72
     2
 11
2128.86549
 21
916.523717
 31
0.0
100
AcDbText
  0
INSERT
  5
482
330
1F
100
AcDbEntity
  8
7__7
  6
Continuous
 62
     3
100
AcDbBlockReference
  2
DIM_10
 10
2037.946573
 20
1115.606584
 30
0.0
  0
LINE
  5
483
330
1F
100
AcDbEntity
  8
7__7
  6
Continuous
 62
     3
100
AcDbLine
 10
2280.019123
 20
1261.275597
 30
0.0
 11
2280.019123
 21
298.415578
 31
0.0
  0
TEXT
  5
484
330
1F
100
AcDbEntity
  8
7__7
  6
Continuous
 62
     3
100
AcDbText
 10
2058.927235
 20
301.974016
 30
0.0
 40
15.0
  1
ＦＬ
 41
0.858268
 51
0.0
  7
BIGFONT
100
AcDbText
  0
TEXT
  5
485
330
1F
100
AcDbEntity
  8
7__7
  6
Continuous
 62
     3
100
AcDbText
 10
2046.15197
 20
301.277606
 30
0.0
 40
15.0
  1
▽
 41
0.858268
 51
0.0
  7
BIGFONT
100
AcDbText
  0
LINE
  5
486
330
1F
100
AcDbEntity
  8
7__7
  6
Continuous
 62
     3
100
AcDbLine
 10
2218.721046
 20
478.878006
 30
0.0
 11
2227.319123
 21
469.985701
 31
0.0
  0
LINE
  5
487
330
1F
100
AcDbEntity
  8
7__7
  6
Continuous
 62
     3
100
AcDbLine
 10
2227.319123
 20
469.985701
 30
0.0
 11
2190.729899
 21
533.360095
 31
0.0
  0
LINE
  5
488
330
1F
100
AcDbEntity
  8
7__7
  6
Continuous
 62
     3
100
AcDbLine
 10
2190.729899
 20
533.360095
 30
0.0
 11
2082.192974
 21
533.360095
 31
0.0
  0
TEXT
  5
489
330
1F
100
AcDbEntity
  8
7__7
  6
Continuous
 62
     3
100
AcDbText
 10
2105.584319
 20
535.860086
 30
0.0
 40
15.0
  1
内装ボード（別途）
 41
0.858268
 51
0.0
  7
BIGFONT
 72
     2
 11
2203.05901
 21
535.860086
 31
0.0
100
AcDbText
  0
LINE
  5
48A
330
1F
100
AcDbEntity
  8
7__7
  6
Continuous
 62
     3
100
AcDbLine
 10
2230.019123
 20
655.984473
 30
0.0
 11
2230.019123
 21
298.590098
 31
0.0
  0
LINE
  5
48B
330
1F
100
AcDbEntity
  8
7__7
  6
Continuous
 62
     3
100
AcDbLine
 10
2225.269123
 20
655.984473
 30
0.0
 11
2225.269123
 21
298.590098
 31
0.0
  0
INSERT
  5
494
330
1F
100
AcDbEntity
  8
7__7
  6
Continuous
 62
     3
100
AcDbBlockReference
  2
DIM_11
 10
2151.328714
 20
676.734473
 30
0.0
  0
LINE
  5
495
330
1F
100
AcDbEntity
  8
7__7
  6
Continuous
 62
     2
100
AcDbLine
 10
1907.000169
 20
298.590098
 30
0.0
 11
2369.829759
 21
298.590098
 31
0.0
  0
LINE
  5
496
330
1F
100
AcDbEntity
  8
7__7
  6
Continuous
 62
     3
100
AcDbLine
 10
2230.019123
 20
805.984473
 30
0.0
 11
2230.019123
 21
1262.419139
 31
0.0
  0
LINE
  5
497
330
1F
100
AcDbEntity
  8
7__7
  6
Continuous
 62
     3
100
AcDbLine
 10
2225.269123
 20
1262.419139
 30
0.0
 11
2225.269123
 21
758.484473
 31
0.0
  0
LINE
  5
498
330
1F
100
AcDbEntity
  8
7__7
  6
Continuous
 62
     4
100
AcDbLine
 10
2222.769123
 20
650.984473
 30
0.0
 11
2225.269123
 21
650.984473
 31
0.0
  0
LINE
  5
499
330
1F
100
AcDbEntity
  8
7__7
  6
Continuous
 62
     4
100
AcDbLine
 10
2225.269123
 20
650.984473
 30
0.0
 11
2225.269123
 21
810.984473
 31
0.0
  0
LINE
  5
49A
330
1F
100
AcDbEntity
  8
7__7
  6
Continuous
 62
     4
100
AcDbLine
 10
2225.269123
 20
810.984473
 30
0.0
 11
2222.769123
 21
810.984473
 31
0.0
  0
INSERT
  5
4A4
330
1F
100
AcDbEntity
  8
7__7
  6
Continuous
 62
     3
100
AcDbBlockReference
  2
DIM_12
 10
2218.382657
 20
810.984473
 30
0.0
  0
INSERT
  5
4AE
330
1F
100
AcDbEntity
  8
7__7
  6
Continuous
 62
     3
100
AcDbBlockReference
  2
DIM_13
 10
2263.198163
 20
655.984473
 30
0.0
  0
INSERT
  5
4B7
330
1F
100
AcDbEntity
  8
7__7
  6
Continuous
 62
     3
100
AcDbBlockReference
  2
DIM_14
 10
2222.769123
 20
645.140583
 30
0.0
  0
INSERT
  5
4C0
330
1F
100
AcDbEntity
  8
7__7
  6
Continuous
 62
     3
100
AcDbBlockReference
  2
DIM_15
 10
2260.269123
 20
650.140583
 30
0.0
  0
INSERT
  5
4CA
330
1F
100
AcDbEntity
  8
7__7
  6
Continuous
 62
     3
100
AcDbBlockReference
  2
DIM_16
 10
2354.222175
 20
647.763927
 30
0.0
  0
LINE
  5
4CB
330
1F
100
AcDbEntity
  8
7__7
  6
Continuous
 62
     4
100
AcDbLine
 10
2354.222175
 20
810.984473
 30
0.0
 11
2354.222175
 21
650.984473
 31
0.0
  0
LINE
  5
4CC
330
1F
100
AcDbEntity
  8
7__7
  6
Continuous
 62
     4
100
AcDbLine
 10
2419.222175
 20
810.984473
 30
0.0
 11
2419.222175
 21
650.984473
 31
0.0
  0
LINE
  5
4CD
330
1F
100
AcDbEntity
  8
7__7
  6
Continuous
 62
     4
100
AcDbLine
 10
2354.222175
 20
810.984473
 30
0.0
 11
2419.222175
 21
810.984473
 31
0.0
  0
LINE
  5
4CE
330
1F
100
AcDbEntity
  8
7__7
  6
Continuous
 62
     4
100
AcDbLine
 10
2354.222175
 20
650.984473
 30
0.0
 11
2419.222175
 21
650.984473
 31
0.0
  0
LINE
  5
4CF
330
1F
100
AcDbEntity
  8
7__7
  6
Continuous
 62
     4
100
AcDbLine
 10
2394.222175
 20
676.734473
 30
0.0
 11
2394.222175
 21
798.577005
 31
0.0
  0
ARC
  5
4D0
330
1F
100
AcDbEntity
  8
7__7
  6
Continuous
 62
     4
100
AcDbCircle
 10
2381.372175
 20
763.8126
 30
0.0
 40
0.850000008082877
100
AcDbArc
 50
90.0
 51
180.0
  0
ARC
  5
4D1
330
1F
100
AcDbEntity
  8
7__7
  6
Continuous
 62
     4
100
AcDbCircle
 10
2392.072175
 20
763.8126
 30
0.0
 40
0.850000004235432
100
AcDbArc
 50
0.0
 51
90.0
  0
ARC
  5
4D2
330
1F
100
AcDbEntity
  8
7__7
  6
Continuous
 62
     4
100
AcDbCircle
 10
2381.372175
 20
753.1126
 30
0.0
 40
0.8500000012781315
100
AcDbArc
 50
180.0
 51
270.0
  0
ARC
  5
4D3
330
1F
100
AcDbEntity
  8
7__7
  6
Continuous
 62
     4
100
AcDbCircle
 10
2392.072175
 20
753.1126
 30
0.0
 40
0.8500000024338603
100
AcDbArc
 50
270.0
 51
0.0
  0
LINE
  5
4D4
330
1F
100
AcDbEntity
  8
7__7
  6
Continuous
 62
     4
100
AcDbLine
 10
2380.522175
 20
763.8126
 30
0.0
 11
2380.522175
 21
753.1126
 31
0.0
  0
LINE
  5
4D5
330
1F
100
AcDbEntity
  8
7__7
  6
Continuous
 62
     4
100
AcDbLine
 10
2392.922175
 20
763.8126
 30
0.0
 11
2392.922175
 21
753.1126
 31
0.0
  0
LINE
  5
4D6
330
1F
100
AcDbEntity
  8
7__7
  6
Continuous
 62
     4
100
AcDbLine
 10
2381.372175
 20
752.2626
 30
0.0
 11
2392.072175
 21
752.2626
 31
0.0
  0
LINE
  5
4D7
330
1F
100
AcDbEntity
  8
7__7
  6
Continuous
 62
     4
100
AcDbLine
 10
2381.372175
 20
764.6626
 30
0.0
 11
2392.072175
 21
764.6626
 31
0.0
  0
LINE
  5
4D8
330
1F
100
AcDbEntity
  8
7__7
  6
Continuous
 62
     4
100
AcDbLine
 10
2379.222175
 20
676.734473
 30
0.0
 11
2379.222175
 21
798.577005
 31
0.0
  0
LINE
  5
4D9
330
1F
100
AcDbEntity
  8
7__7
  6
Continuous
 62
     4
100
AcDbLine
 10
2261.869114
 20
791.734473
 30
0.0
 11
2260.269123
 21
791.734473
 31
0.0
  0
LINE
  5
4DA
330
1F
100
AcDbEntity
  8
7__7
  6
Continuous
 62
     4
100
AcDbLine
 10
2261.869114
 20
799.734473
 30
0.0
 11
2260.269123
 21
799.734473
 31
0.0
  0
LINE
  5
4DB
330
1F
100
AcDbEntity
  8
7__7
  6
Continuous
 62
     4
100
AcDbLine
 10
2261.869114
 20
791.734473
 30
0.0
 11
2261.869114
 21
799.734473
 31
0.0
  0
LINE
  5
4DC
330
1F
100
AcDbEntity
  8
7__7
  6
Continuous
 62
     4
100
AcDbLine
 10
2261.869114
 20
769.234473
 30
0.0
 11
2260.269123
 21
769.234473
 31
0.0
  0
LINE
  5
4DD
330
1F
100
AcDbEntity
  8
7__7
  6
Continuous
 62
     4
100
AcDbLine
 10
2261.869114
 20
761.234473
 30
0.0
 11
2260.269123
 21
761.234473
 31
0.0
  0
LINE
  5
4DE
330
1F
100
AcDbEntity
  8
7__7
  6
Continuous
 62
     4
100
AcDbLine
 10
2261.869114
 20
676.734473
 30
0.0
 11
2260.269123
 21
676.734473
 31
0.0
  0
LINE
  5
4DF
330
1F
100
AcDbEntity
  8
7__7
  6
Continuous
 62
     4
100
AcDbLine
 10
2261.869114
 20
761.234473
 30
0.0
 11
2261.869114
 21
769.234473
 31
0.0
  0
LINE
  5
4E0
330
1F
100
AcDbEntity
  8
7__7
  6
Continuous
 62
     4
100
AcDbLine
 10
2261.869114
 20
657.484473
 30
0.0
 11
2260.269123
 21
657.484473
 31
0.0
  0
LINE
  5
4E1
330
1F
100
AcDbEntity
  8
7__7
  6
Continuous
 62
     4
100
AcDbLine
 10
2261.869114
 20
657.484473
 30
0.0
 11
2261.869114
 21
676.734473
 31
0.0
  0
ARC
  5
4E2
330
1F
100
AcDbEntity
  8
7__7
  6
Continuous
 62
     4
100
AcDbCircle
 10
2259.669117
 20
805.384475
 30
0.0
 40
0.6000000100409235
100
AcDbArc
 50
0.0
 51
90.0
  0
ARC
  5
4E3
330
1F
100
AcDbEntity
  8
7__7
  6
Continuous
 62
     4
100
AcDbCircle
 10
2259.669117
 20
656.584471
 30
0.0
 40
0.5999999960069798
100
AcDbArc
 50
270.0
 51
0.0
  0
ARC
  5
4E4
330
1F
100
AcDbEntity
  8
7__7
  6
Continuous
 62
     4
100
AcDbCircle
 10
2225.869114
 20
799.559474
 30
0.0
 40
0.6000000101218951
100
AcDbArc
 50
90.0
 51
180.0
  0
ARC
  5
4E5
330
1F
100
AcDbEntity
  8
7__7
  6
Continuous
 62
     4
100
AcDbCircle
 10
2226.119114
 20
802.659472
 30
0.0
 40
0.2500000073393327
100
AcDbArc
 50
180.0
 51
270.0
  0
ARC
  5
4E6
330
1F
100
AcDbEntity
  8
7__7
  6
Continuous
 62
     4
100
AcDbCircle
 10
2226.119114
 20
799.309474
 30
0.0
 40
0.249999997305432
100
AcDbArc
 50
90.0
 51
180.0
  0
ARC
  5
4E7
330
1F
100
AcDbEntity
  8
7__7
  6
Continuous
 62
     4
100
AcDbCircle
 10
2226.119114
 20
659.30947
 30
0.0
 40
0.2500000175371058
100
AcDbArc
 50
90.0
 51
180.0
  0
ARC
  5
4E8
330
1F
100
AcDbEntity
  8
7__7
  6
Continuous
 62
     4
100
AcDbCircle
 10
2226.119114
 20
662.659476
 30
0.0
 40
0.2499999906944634
100
AcDbArc
 50
180.0
 51
270.0
  0
ARC
  5
4E9
330
1F
100
AcDbEntity
  8
7__7
  6
Continuous
 62
     4
100
AcDbCircle
 10
2225.869114
 20
802.409472
 30
0.0
 40
0.5999999994236418
100
AcDbArc
 50
180.0
 51
270.0
  0
LINE
  5
4EA
330
1F
100
AcDbEntity
  8
7__7
  6
Continuous
 62
     4
100
AcDbLine
 10
2226.869114
 20
659.55947
 30
0.0
 11
2226.119114
 21
659.55947
 31
0.0
  0
LINE
  5
4EB
330
1F
100
AcDbEntity
  8
7__7
  6
Continuous
 62
     4
100
AcDbLine
 10
2225.869114
 20
797.984473
 30
0.0
 11
2225.869114
 21
799.309474
 31
0.0
  0
LINE
  5
4EC
330
1F
100
AcDbEntity
  8
7__7
  6
Continuous
 62
     4
100
AcDbLine
 10
2225.869114
 20
797.984473
 30
0.0
 11
2225.269123
 21
797.984473
 31
0.0
  0
LINE
  5
4ED
330
1F
100
AcDbEntity
  8
7__7
  6
Continuous
 62
     4
100
AcDbLine
 10
2225.869114
 20
663.984473
 30
0.0
 11
2225.869114
 21
656.584471
 31
0.0
  0
LINE
  5
4EE
330
1F
100
AcDbEntity
  8
7__7
  6
Continuous
 62
     4
100
AcDbLine
 10
2259.669117
 20
656.584471
 30
0.0
 11
2259.669117
 21
805.384475
 31
0.0
  0
LINE
  5
4EF
330
1F
100
AcDbEntity
  8
7__7
  6
Continuous
 62
     4
100
AcDbLine
 10
2259.669117
 20
805.384475
 30
0.0
 11
2225.869114
 21
805.384475
 31
0.0
  0
LINE
  5
4F0
330
1F
100
AcDbEntity
  8
7__7
  6
Continuous
 62
     4
100
AcDbLine
 10
2226.869114
 20
800.159472
 30
0.0
 11
2225.869114
 21
800.159472
 31
0.0
  0
LINE
  5
4F1
330
1F
100
AcDbEntity
  8
7__7
  6
Continuous
 62
     4
100
AcDbLine
 10
2259.669117
 20
656.584471
 30
0.0
 11
2225.269123
 21
656.584471
 31
0.0
  0
LINE
  5
4F2
330
1F
100
AcDbEntity
  8
7__7
  6
Continuous
 62
     4
100
AcDbLine
 10
2260.269123
 20
656.584471
 30
0.0
 11
2260.269123
 21
805.384475
 31
0.0
  0
LINE
  5
4F3
330
1F
100
AcDbEntity
  8
7__7
  6
Continuous
 62
     4
100
AcDbLine
 10
2259.669117
 20
805.984473
 30
0.0
 11
2225.269123
 21
805.984473
 31
0.0
  0
LINE
  5
4F4
330
1F
100
AcDbEntity
  8
7__7
  6
Continuous
 62
     4
100
AcDbLine
 10
2259.669117
 20
655.984473
 30
0.0
 11
2225.269123
 21
655.984473
 31
0.0
  0
LINE
  5
4F5
330
1F
100
AcDbEntity
  8
7__7
  6
Continuous
 62
     4
100
AcDbLine
 10
2225.869114
 20
663.984473
 30
0.0
 11
2225.269123
 21
663.984473
 31
0.0
  0
LINE
  5
4F6
330
1F
100
AcDbEntity
  8
7__7
  6
Continuous
 62
     4
100
AcDbLine
 10
2226.869114
 20
799.559474
 30
0.0
 11
2226.869114
 21
802.409472
 31
0.0
  0
LINE
  5
4F7
330
1F
100
AcDbEntity
  8
7__7
  6
Continuous
 62
     4
100
AcDbLine
 10
2225.869114
 20
802.659472
 30
0.0
 11
2225.869114
 21
805.384475
 31
0.0
  0
LINE
  5
4F8
330
1F
100
AcDbEntity
  8
7__7
  6
Continuous
 62
     4
100
AcDbLine
 10
2226.869114
 20
662.409476
 30
0.0
 11
2226.119114
 21
662.409476
 31
0.0
  0
LINE
  5
4F9
330
1F
100
AcDbEntity
  8
7__7
  6
Continuous
 62
     4
100
AcDbLine
 10
2226.869114
 20
799.559474
 30
0.0
 11
2226.119114
 21
799.559474
 31
0.0
  0
LINE
  5
4FA
330
1F
100
AcDbEntity
  8
7__7
  6
Continuous
 62
     4
100
AcDbLine
 10
2226.869114
 20
801.809474
 30
0.0
 11
2225.869114
 21
801.809474
 31
0.0
  0
LINE
  5
4FB
330
1F
100
AcDbEntity
  8
7__7
  6
Continuous
 62
     4
100
AcDbLine
 10
2226.869114
 20
662.409476
 30
0.0
 11
2226.869114
 21
659.55947
 31
0.0
  0
LINE
  5
4FC
330
1F
100
AcDbEntity
  8
7__7
  6
Continuous
 62
     4
100
AcDbLine
 10
2226.869114
 20
802.409472
 30
0.0
 11
2226.119114
 21
802.409472
 31
0.0
  0
LINE
  5
4FD
330
1F
100
AcDbEntity
  8
7__7
  6
Continuous
 62
     4
100
AcDbLine
 10
2225.269123
 20
770.684473
 30
0.0
 11
2225.269123
 21
810.984473
 31
0.0
  0
LINE
  5
4FE
330
1F
100
AcDbEntity
  8
7__7
  6
Continuous
 62
     4
100
AcDbLine
 10
2225.269123
 20
650.984473
 30
0.0
 11
2225.269123
 21
770.684473
 31
0.0
  0
LINE
  5
4FF
330
1F
100
AcDbEntity
  8
7__7
  6
Continuous
 62
     4
100
AcDbLine
 10
2222.769123
 20
650.984473
 30
0.0
 11
2222.769123
 21
810.984473
 31
0.0
  0
LINE
  5
500
330
1F
100
AcDbEntity
  8
7__7
  6
Continuous
 62
     4
100
AcDbLine
 10
2217.769123
 20
672.734473
 30
0.0
 11
2235.269123
 21
672.734473
 31
0.0
  0
LINE
  5
501
330
1F
100
AcDbEntity
  8
7__7
  6
Continuous
 62
     4
100
AcDbLine
 10
2235.269123
 20
680.734473
 30
0.0
 11
2217.769123
 21
680.734473
 31
0.0
  0
LINE
  5
502
330
1F
100
AcDbEntity
  8
7__7
  6
Continuous
 62
     4
100
AcDbLine
 10
2219.269123
 20
771.984473
 30
0.0
 11
2219.269123
 21
760.984473
 31
0.0
  0
LINE
  5
503
330
1F
100
AcDbEntity
  8
7__7
  6
Continuous
 62
     4
100
AcDbLine
 10
2219.269123
 20
760.984473
 30
0.0
 11
2217.769123
 21
760.984473
 31
0.0
  0
LINE
  5
504
330
1F
100
AcDbEntity
  8
7__7
  6
Continuous
 62
     4
100
AcDbLine
 10
2217.769123
 20
760.984473
 30
0.0
 11
2217.769123
 21
671.234473
 31
0.0
  0
LINE
  5
505
330
1F
100
AcDbEntity
  8
7__7
  6
Continuous
 62
     4
100
AcDbLine
 10
2213.769123
 20
758.984473
 30
0.0
 11
2212.269123
 21
760.484473
 31
0.0
  0
LINE
  5
506
330
1F
100
AcDbEntity
  8
7__7
  6
Continuous
 62
     4
100
AcDbLine
 10
2212.269123
 20
760.484473
 30
0.0
 11
2212.269123
 21
771.984473
 31
0.0
  0
LINE
  5
507
330
1F
100
AcDbEntity
  8
7__7
  6
Continuous
 62
     4
100
AcDbLine
 10
2212.269123
 20
771.984473
 30
0.0
 11
2219.269123
 21
771.984473
 31
0.0
  0
LINE
  5
508
330
1F
100
AcDbEntity
  8
7__7
  6
Continuous
 62
     4
100
AcDbLine
 10
2214.769123
 20
671.234473
 30
0.0
 11
2217.769123
 21
671.234473
 31
0.0
  0
LINE
  5
509
330
1F
100
AcDbEntity
  8
7__7
  6
Continuous
 62
     4
100
AcDbLine
 10
2199.769123
 20
760.984473
 30
0.0
 11
2211.769123
 21
761.484473
 31
0.0
  0
LINE
  5
50A
330
1F
100
AcDbEntity
  8
7__7
  6
Continuous
 62
     4
100
AcDbLine
 10
2211.769123
 20
761.484473
 30
0.0
 11
2211.769123
 21
771.484473
 31
0.0
  0
LINE
  5
50B
330
1F
100
AcDbEntity
  8
7__7
  6
Continuous
 62
     4
100
AcDbLine
 10
2211.769123
 20
771.484473
 30
0.0
 11
2199.769123
 21
771.984473
 31
0.0
  0
LINE
  5
50C
330
1F
100
AcDbEntity
  8
7__7
  6
Continuous
 62
     4
100
AcDbLine
 10
2199.769123
 20
771.984473
 30
0.0
 11
2199.769123
 21
760.984473
 31
0.0
  0
LINE
  5
50D
330
1F
100
AcDbEntity
  8
7__7
  6
Continuous
 62
     4
100
AcDbLine
 10
2211.769123
 20
761.984473
 30
0.0
 11
2212.269123
 21
761.984473
 31
0.0
  0
LINE
  5
50E
330
1F
100
AcDbEntity
  8
7__7
  6
Continuous
 62
     4
100
AcDbLine
 10
2212.269123
 20
770.984473
 30
0.0
 11
2211.769123
 21
770.984473
 31
0.0
  0
LINE
  5
50F
330
1F
100
AcDbEntity
  8
7__7
  6
PLine2
 62
     4
100
AcDbLine
 10
2258.648868
 20
676.734473
 30
0.0
 11
2180.898868
 21
676.734473
 31
0.0
  0
LINE
  5
510
330
1F
100
AcDbEntity
  8
7__7
  6
Continuous
 62
     4
100
AcDbLine
 10
2235.269123
 20
672.734473
 30
0.0
 11
2235.269123
 21
680.734473
 31
0.0
  0
LINE
  5
511
330
1F
100
AcDbEntity
  8
7__7
  6
Continuous
 62
     4
100
AcDbLine
 10
2214.769123
 20
671.234473
 30
0.0
 11
2212.733589
 21
673.270007
 31
0.0
  0
LINE
  5
512
330
1F
100
AcDbEntity
  8
7__7
  6
Continuous
 62
     4
100
AcDbLine
 10
2213.769123
 20
758.984473
 30
0.0
 11
2213.769123
 21
683.234473
 31
0.0
  0
TEXT
  5
513
330
1F
100
AcDbEntity
  8
7__7
  6
Continuous
 62
     1
100
AcDbText
 10
2382.129316
 20
752.031987
 30
0.0
 40
12.5
  1
押
 41
0.858268
  7
BIGFONT
100
AcDbText
  0
ARC
  5
514
330
1F
100
AcDbEntity
  8
7__7
  6
Continuous
 62
     4
100
AcDbCircle
 10
2386.722175
 20
676.734473
 30
0.0
 40
7.499999999999744
100
AcDbArc
 50
138.189685
 51
41.810315
  0
LINE
  5
515
330
1F
100
AcDbEntity
  8
7__7
  6
Continuous
 62
     4
100
AcDbLine
 10
2379.222175
 20
681.734473
 30
0.0
 11
2394.222175
 21
681.734473
 31
0.0
  0
ARC
  5
516
330
1F
100
AcDbEntity
  8
7__7
  6
Continuous
 62
     4
100
AcDbCircle
 10
2386.722175
 20
780.577005
 30
0.0
 40
19.49999999846207
100
AcDbArc
 50
67.380135
 51
112.619865
  0
LINE
  5
517
330
1F
100
AcDbEntity
  8
7__7
  6
PLine1
 62
     4
100
AcDbLine
 10
2359.222175
 20
775.425541
 30
0.0
 11
2359.222175
 21
805.984473
 31
0.0
  0
LINE
  5
518
330
1F
100
AcDbEntity
  8
7__7
  6
PLine1
 62
     4
100
AcDbLine
 10
2359.222175
 20
805.984473
 30
0.0
 11
2414.222175
 21
805.984473
 31
0.0
  0
LINE
  5
519
330
1F
100
AcDbEntity
  8
7__7
  6
PLine1
 62
     4
100
AcDbLine
 10
2414.222175
 20
805.984473
 30
0.0
 11
2414.222175
 21
772.639709
 31
0.0
  0
LINE
  5
51A
330
1F
100
AcDbEntity
  8
7__7
  6
Continuous
 62
     4
100
AcDbLine
 10
2366.222175
 20
810.984473
 30
0.0
 11
2366.222175
 21
815.984473
 31
0.0
  0
LINE
  5
51B
330
1F
100
AcDbEntity
  8
7__7
  6
Continuous
 62
     4
100
AcDbLine
 10
2366.222175
 20
815.984473
 30
0.0
 11
2377.222175
 21
815.984473
 31
0.0
  0
LINE
  5
51C
330
1F
100
AcDbEntity
  8
7__7
  6
Continuous
 62
     4
100
AcDbLine
 10
2377.222175
 20
815.984473
 30
0.0
 11
2377.222175
 21
810.984473
 31
0.0
  0
LINE
  5
51D
330
1F
100
AcDbEntity
  8
7__7
  6
Continuous
 62
     4
100
AcDbLine
 10
2366.972175
 20
815.984473
 30
0.0
 11
2366.972175
 21
920.59486
 31
0.0
  0
LINE
  5
51E
330
1F
100
AcDbEntity
  8
7__7
  6
Continuous
 62
     4
100
AcDbLine
 10
2376.472175
 20
815.984473
 30
0.0
 11
2376.472175
 21
920.59486
 31
0.0
  0
LINE
  5
51F
330
1F
100
AcDbEntity
  8
7__7
  6
PLine2
 62
     4
100
AcDbLine
 10
2371.722175
 20
945.09524
 30
0.0
 11
2371.722175
 21
795.854337
 31
0.0
  0
INSERT
  5
529
330
1F
100
AcDbEntity
  8
7__7
  6
Continuous
 62
     3
100
AcDbBlockReference
  2
DIM_17
 10
2359.222175
 20
813.328937
 30
0.0
  0
INSERT
  5
533
330
1F
100
AcDbEntity
  8
7__7
  6
Continuous
 62
     3
100
AcDbBlockReference
  2
DIM_18
 10
2359.222175
 20
849.084563
 30
0.0
  0
LINE
  5
534
330
1F
100
AcDbEntity
  8
7__7
  6
Continuous
 62
     4
100
AcDbLine
 10
2240.769123
 20
815.984473
 30
0.0
 11
2251.769123
 21
815.984473
 31
0.0
  0
LINE
  5
535
330
1F
100
AcDbEntity
  8
7__7
  6
Continuous
 62
     4
100
AcDbLine
 10
2251.769123
 20
815.984473
 30
0.0
 11
2251.769123
 21
806.984473
 31
0.0
  0
LINE
  5
536
330
1F
100
AcDbEntity
  8
7__7
  6
Continuous
 62
     4
100
AcDbLine
 10
2240.769123
 20
806.984473
 30
0.0
 11
2240.769123
 21
815.984473
 31
0.0
  0
LINE
  5
537
330
1F
100
AcDbEntity
  8
7__7
  6
Continuous
 62
     4
100
AcDbLine
 10
2240.769123
 20
806.984473
 30
0.0
 11
2251.769123
 21
806.984473
 31
0.0
  0
LINE
  5
538
330
1F
100
AcDbEntity
  8
7__7
  6
Continuous
 62
     4
100
AcDbLine
 10
2251.769123
 20
806.984473
 30
0.0
 11
2252.521939
 21
805.984473
 31
0.0
  0
LINE
  5
539
330
1F
100
AcDbEntity
  8
7__7
  6
Continuous
 62
     4
100
AcDbLine
 10
2240.769123
 20
806.984473
 30
0.0
 11
2240.016306
 21
805.984473
 31
0.0
  0
LINE
  5
53A
330
1F
100
AcDbEntity
  8
7__7
  6
Continuous
 62
     4
100
AcDbLine
 10
2241.519123
 20
815.984473
 30
0.0
 11
2241.519123
 21
1104.919139
 31
0.0
  0
LINE
  5
53B
330
1F
100
AcDbEntity
  8
7__7
  6
Continuous
 62
     4
100
AcDbLine
 10
2251.019123
 20
815.984473
 30
0.0
 11
2251.019123
 21
1104.919139
 31
0.0
  0
LINE
  5
53C
330
1F
100
AcDbEntity
  8
7__7
  6
PLine2
 62
     4
100
AcDbLine
 10
2246.269123
 20
945.09524
 30
0.0
 11
2246.269123
 21
795.854337
 31
0.0
  0
INSERT
  5
546
330
1F
100
AcDbEntity
  8
7__7
  6
Continuous
 62
     3
100
AcDbBlockReference
  2
DIM_19
 10
2246.269123
 20
867.388313
 30
0.0
  0
LINE
  5
547
330
1F
100
AcDbEntity
  8
7__7
  6
Continuous
 62
     4
100
AcDbLine
 10
2211.269123
 20
676.805541
 30
0.0
 11
2211.269123
 21
681.234473
 31
0.0
  0
ARC
  5
548
330
1F
100
AcDbEntity
  8
7__7
  6
Continuous
 62
     4
100
AcDbCircle
 10
2216.269123
 20
676.805541
 30
0.0
 40
5.000000001307828
100
AcDbArc
 50
180.0
 51
225.0
  0
LINE
  5
549
330
1F
100
AcDbEntity
  8
7__7
  6
Continuous
 62
     4
100
AcDbLine
 10
2211.769123
 20
681.734473
 30
0.0
 11
2212.269123
 21
681.734473
 31
0.0
  0
ARC
  5
54A
330
1F
100
AcDbEntity
  8
7__7
  6
Continuous
 62
     4
100
AcDbCircle
 10
2211.769123
 20
681.234473
 30
0.0
 40
0.4999999843061939
100
AcDbArc
 50
90.0
 51
180.0
  0
ARC
  5
54B
330
1F
100
AcDbEntity
  8
7__7
  6
Continuous
 62
     4
100
AcDbCircle
 10
2212.269123
 20
683.234473
 30
0.0
 40
1.499999999916086
100
AcDbArc
 50
270.0
 51
0.0
  0
ARC
  5
54C
330
1F
100
AcDbEntity
  8
7__7
  6
Continuous
 62
     4
100
AcDbCircle
 10
2091.519123
 20
1104.919139
 30
0.0
 40
149.9999999999471
100
AcDbArc
 50
0.0
 51
41.858218
  0
ARC
  5
54D
330
1F
100
AcDbEntity
  8
7__7
  6
Continuous
 62
     4
100
AcDbCircle
 10
2091.519123
 20
1104.919139
 30
0.0
 40
159.4999999999676
100
AcDbArc
 50
0.0
 51
41.732234
  0
LINE
  5
54E
330
1F
100
AcDbEntity
  8
7__7
  6
Continuous
 62
     6
100
AcDbLine
 10
2007.189133
 20
1262.419139
 30
0.0
 11
2066.716037
 21
1321.946043
 31
0.0
  0
LINE
  5
54F
330
1F
100
AcDbEntity
  8
7__7
  6
Continuous
 62
     6
100
AcDbLine
 10
2079.926215
 20
265.321599
 30
0.0
 11
2113.194714
 21
298.590098
 31
0.0
  0
LINE
  5
550
330
1F
100
AcDbEntity
  8
7__7
  6
Continuous
 62
     6
100
AcDbLine
 10
2314.891431
 20
265.321599
 30
0.0
 11
2348.15993
 21
298.590098
 31
0.0
  0
LINE
  5
551
330
1F
100
AcDbEntity
  8
7__7
  6
Continuous
 62
     2
100
AcDbLine
 10
2093.430884
 20
231.882129
 30
0.0
 11
2231.009637
 21
231.882129
 31
0.0
  0
LINE
  5
552
330
1F
100
AcDbEntity
  8
7__7
  6
Continuous
 62
     2
100
AcDbLine
 10
2231.009637
 20
231.882129
 30
0.0
 11
2231.009637
 21
200.985206
 31
0.0
  0
LINE
  5
553
330
1F
100
AcDbEntity
  8
7__7
  6
Continuous
 62
     2
100
AcDbLine
 10
2231.009637
 20
200.985206
 30
0.0
 11
2093.430884
 21
200.985206
 31
0.0
  0
LINE
  5
554
330
1F
100
AcDbEntity
  8
7__7
  6
Continuous
 62
     2
100
AcDbLine
 10
2093.430884
 20
200.985206
 30
0.0
 11
2093.430884
 21
231.882129
 31
0.0
  0
LINE
  5
555
330
1F
100
AcDbEntity
  8
7__7
  6
Continuous
 62
     4
100
AcDbLine
 10
288.788925
 20
291.598912
 30
0.0
 11
298.757129
 21
291.598912
 31
0.0
  0
LINE
  5
556
330
1F
100
AcDbEntity
  8
7__7
  6
Continuous
 62
     4
100
AcDbLine
 10
298.757129
 20
291.598912
 30
0.0
 11
298.757129
 21
261.694297
 31
0.0
  0
LINE
  5
557
330
1F
100
AcDbEntity
  8
7__7
  6
Continuous
 62
     4
100
AcDbLine
 10
296.763488
 20
261.694297
 30
0.0
 11
298.757129
 21
261.694297
 31
0.0
  0
LINE
  5
558
330
1F
100
AcDbEntity
  8
7__7
  6
Continuous
 62
     4
100
AcDbLine
 10
288.788925
 20
289.605271
 30
0.0
 11
296.763488
 21
289.605271
 31
0.0
  0
LINE
  5
559
330
1F
100
AcDbEntity
  8
7__7
  6
Continuous
 62
     4
100
AcDbLine
 10
296.763488
 20
289.605271
 30
0.0
 11
296.763488
 21
261.694297
 31
0.0
  0
LINE
  5
55A
330
1F
100
AcDbEntity
  8
7__7
  6
Continuous
 62
     4
100
AcDbLine
 10
288.788925
 20
291.598912
 30
0.0
 11
288.788925
 21
289.605271
 31
0.0
  0
LINE
  5
55B
330
1F
100
AcDbEntity
  8
7__7
  6
Continuous
 62
     2
100
AcDbLine
 10
308.757129
 20
301.567116
 30
0.0
 11
260.87151
 21
301.567116
 31
0.0
  0
LINE
  5
55C
330
1F
100
AcDbEntity
  8
7__7
  6
Continuous
 62
     2
100
AcDbLine
 10
260.87151
 20
386.032993
 30
0.0
 11
260.87151
 21
301.567116
 31
0.0
  0
LINE
  5
55D
330
1F
100
AcDbEntity
  8
7__7
  6
Continuous
 62
     2
100
AcDbLine
 10
428.757129
 20
415.635178
 30
0.0
 11
260.87151
 21
386.032993
 31
0.0
  0
LINE
  5
55E
330
1F
100
AcDbEntity
  8
7__7
  6
Continuous
 62
     2
100
AcDbLine
 10
428.757129
 20
415.635178
 30
0.0
 11
428.757129
 21
148.610118
 31
0.0
  0
LINE
  5
55F
330
1F
100
AcDbEntity
  8
7__7
  6
Continuous
 62
     2
100
AcDbLine
 10
308.757129
 20
301.567116
 30
0.0
 11
308.757129
 21
148.610118
 31
0.0
  0
LINE
  5
560
330
1F
100
AcDbEntity
  8
7__7
  6
Continuous
 62
     3
100
AcDbLine
 10
298.757129
 20
301.567116
 30
0.0
 11
298.757129
 21
148.610118
 31
0.0
  0
LINE
  5
561
330
1F
100
AcDbEntity
  8
7__7
  6
Continuous
 62
     6
100
AcDbLine
 10
428.757129
 20
284.702617
 30
0.0
 11
308.757129
 21
164.702617
 31
0.0
  0
LINE
  5
562
330
1F
100
AcDbEntity
  8
7__7
  6
Continuous
 62
     6
100
AcDbLine
 10
428.757129
 20
294.894109
 30
0.0
 11
308.757129
 21
174.894109
 31
0.0
  0
LINE
  5
563
330
1F
100
AcDbEntity
  8
7__7
  6
Continuous
 62
     4
100
AcDbLine
 10
383.757129
 20
355.805363
 30
0.0
 11
383.757129
 21
441.856562
 31
0.0
  0
LINE
  5
564
330
1F
100
AcDbEntity
  8
7__7
  6
Continuous
 62
     4
100
AcDbLine
 10
383.757129
 20
441.856562
 30
0.0
 11
393.757129
 21
441.856562
 31
0.0
  0
LINE
  5
565
330
1F
100
AcDbEntity
  8
7__7
  6
Continuous
 62
     4
100
AcDbLine
 10
393.757129
 20
441.856562
 30
0.0
 11
393.757129
 21
355.805363
 31
0.0
  0
LINE
  5
566
330
1F
100
AcDbEntity
  8
7__7
  6
Continuous
 62
     4
100
AcDbLine
 10
240.87151
 20
342.815043
 30
0.0
 11
240.87151
 21
401.97594
 31
0.0
  0
LINE
  5
567
330
1F
100
AcDbEntity
  8
7__7
  6
Continuous
 62
     4
100
AcDbLine
 10
324.757129
 20
417.606051
 30
0.0
 11
241.697865
 21
402.960748
 31
0.0
  0
ARC
  5
568
330
1F
100
AcDbEntity
  8
7__7
  6
Continuous
 62
     4
100
AcDbCircle
 10
241.87151
 20
401.97594
 30
0.0
 40
1.000000000358451
100
AcDbArc
 50
99.999808
 51
180.0
  0
LINE
  5
569
330
1F
100
AcDbEntity
  8
7__7
  6
Continuous
 62
     4
100
AcDbLine
 10
242.87151
 20
342.815043
 30
0.0
 11
242.87151
 21
401.136838
 31
0.0
  0
LINE
  5
56A
330
1F
100
AcDbEntity
  8
7__7
  6
Continuous
 62
     4
100
AcDbLine
 10
242.87151
 20
401.136838
 30
0.0
 11
325.930774
 21
415.78214
 31
0.0
  0
ARC
  5
56B
330
1F
100
AcDbEntity
  8
7__7
  6
Continuous
 62
     4
100
AcDbCircle
 10
325.757129
 20
416.766949
 30
0.0
 40
0.999999998454876
100
AcDbArc
 50
279.999808
 51
0.0
  0
LINE
  5
56C
330
1F
100
AcDbEntity
  8
7__7
  6
Continuous
 62
     4
100
AcDbLine
 10
240.87151
 20
342.815043
 30
0.0
 11
242.87151
 21
342.815043
 31
0.0
  0
LINE
  5
56D
330
1F
100
AcDbEntity
  8
7__7
  6
Continuous
 62
     4
100
AcDbLine
 10
255.87151
 20
357.815043
 30
0.0
 11
255.87151
 21
390.228505
 31
0.0
  0
LINE
  5
56E
330
1F
100
AcDbEntity
  8
7__7
  6
Continuous
 62
     4
100
AcDbLine
 10
255.87151
 20
390.228505
 30
0.0
 11
329.014513
 21
403.125338
 31
0.0
  0
LINE
  5
56F
330
1F
100
AcDbEntity
  8
7__7
  6
PLine1
 62
     4
100
AcDbLine
 10
253.87151
 20
357.815043
 30
0.0
 11
253.87151
 21
391.90671
 31
0.0
  0
LINE
  5
570
330
1F
100
AcDbEntity
  8
7__7
  6
PLine1
 62
     4
100
AcDbLine
 10
253.87151
 20
391.90671
 30
0.0
 11
328.667223
 21
405.094954
 31
0.0
  0
LINE
  5
571
330
1F
100
AcDbEntity
  8
7__7
  6
Continuous
 62
     4
100
AcDbLine
 10
255.87151
 20
390.228505
 30
0.0
 11
242.87151
 21
401.136838
 31
0.0
  0
LINE
  5
572
330
1F
100
AcDbEntity
  8
7__7
  6
Continuous
 62
     4
100
AcDbLine
 10
326.677943
 20
416.376945
 30
0.0
 11
329.014513
 21
403.125338
 31
0.0
  0
LINE
  5
573
330
1F
100
AcDbEntity
  8
7__7
  6
Continuous
 62
     6
100
AcDbLine
 10
242.87151
 20
357.815043
 30
0.0
 11
260.87151
 21
357.815043
 31
0.0
  0
LINE
  5
574
330
1F
100
AcDbEntity
  8
7__7
  6
PLine2
 62
     3
100
AcDbLine
 10
292.66127
 20
276.598912
 30
0.0
 11
309.674644
 21
276.598912
 31
0.0
  0
LINE
  5
575
330
1F
100
AcDbEntity
  8
7__7
  6
Continuous
 62
     6
100
AcDbLine
 10
242.87151
 20
342.815043
 30
0.0
 11
260.87151
 21
341.283025
 31
0.0
  0
LINE
  5
576
330
1F
100
AcDbEntity
  8
7__7
  6
Continuous
 62
     6
100
AcDbLine
 10
246.325946
 20
342.521028
 30
0.0
 11
256.018046
 21
352.213128
 31
0.0
  0
LINE
  5
577
330
1F
100
AcDbEntity
  8
7__7
  6
Continuous
 62
     6
100
AcDbLine
 10
242.864149
 20
346.272406
 30
0.0
 11
248.804871
 21
352.213128
 31
0.0
  0
LINE
  5
578
330
1F
100
AcDbEntity
  8
7__7
  6
Continuous
 62
     6
100
AcDbLine
 10
251.319544
 20
342.096013
 30
0.0
 11
242.87151
 21
350.544047
 31
0.0
  0
LINE
  5
579
330
1F
100
AcDbEntity
  8
7__7
  6
Continuous
 62
     6
100
AcDbLine
 10
252.981943
 20
341.954523
 30
0.0
 11
260.87151
 21
349.84409
 31
0.0
  0
LINE
  5
57A
330
1F
100
AcDbEntity
  8
7__7
  6
Continuous
 62
     6
100
AcDbLine
 10
258.973682
 20
341.444554
 30
0.0
 11
260.87151
 21
343.342382
 31
0.0
  0
LINE
  5
57B
330
1F
100
AcDbEntity
  8
7__7
  6
Continuous
 62
     6
100
AcDbLine
 10
258.503536
 20
341.484569
 30
0.0
 11
247.774976
 21
352.213128
 31
0.0
  0
LINE
  5
57C
330
1F
100
AcDbEntity
  8
7__7
  6
Continuous
 62
     6
100
AcDbLine
 10
260.87151
 20
345.876929
 30
0.0
 11
254.535311
 21
352.213128
 31
0.0
  0
LINE
  5
57D
330
1F
100
AcDbEntity
  8
7__7
  6
Continuous
 62
     4
100
AcDbLine
 10
378.500606
 20
416.431975
 30
0.0
 11
373.621464
 21
423.994645
 31
0.0
  0
LINE
  5
57E
330
1F
100
AcDbEntity
  8
7__7
  6
Continuous
 62
     4
100
AcDbLine
 10
404.973997
 20
444.222085
 30
0.0
 11
409.853139
 21
436.659415
 31
0.0
  0
LINE
  5
57F
330
1F
100
AcDbEntity
  8
7__7
  6
Continuous
 62
     4
100
AcDbLine
 10
373.621464
 20
423.994645
 30
0.0
 11
383.757129
 21
430.533783
 31
0.0
  0
LINE
  5
580
330
1F
100
AcDbEntity
  8
7__7
  6
Continuous
 62
     4
100
AcDbLine
 10
393.757129
 20
436.985396
 30
0.0
 11
398.757129
 21
440.211203
 31
0.0
  0
LINE
  5
581
330
1F
100
AcDbEntity
  8
7__7
  6
Continuous
 62
     4
100
AcDbLine
 10
401.057129
 20
441.695074
 30
0.0
 11
404.973997
 21
444.222085
 31
0.0
  0
LINE
  5
582
330
1F
100
AcDbEntity
  8
7__7
  6
Continuous
 62
     4
100
AcDbLine
 10
409.853139
 20
436.659415
 30
0.0
 11
401.057129
 21
430.98457
 31
0.0
  0
LINE
  5
583
330
1F
100
AcDbEntity
  8
7__7
  6
Continuous
 62
     4
100
AcDbLine
 10
398.757129
 20
429.500699
 30
0.0
 11
393.757129
 21
426.274893
 31
0.0
  0
LINE
  5
584
330
1F
100
AcDbEntity
  8
7__7
  6
Continuous
 62
     4
100
AcDbLine
 10
383.757129
 20
419.82328
 30
0.0
 11
378.500606
 21
416.431975
 31
0.0
  0
LINE
  5
585
330
1F
100
AcDbEntity
  8
7__7
  6
PLine2
 62
     3
100
AcDbLine
 10
372.380395
 20
417.838703
 30
0.0
 11
410.012464
 21
442.117457
 31
0.0
  0
LINE
  5
586
330
1F
100
AcDbEntity
  8
7__7
  6
Continuous
 62
     4
100
AcDbLine
 10
324.757129
 20
429.958698
 30
0.0
 11
324.757129
 21
417.606051
 31
0.0
  0
LINE
  5
587
330
1F
100
AcDbEntity
  8
7__7
  6
Continuous
 62
     6
100
AcDbLine
 10
428.757129
 20
415.635178
 30
0.0
 11
428.757129
 21
450.658698
 31
0.0
  0
CIRCLE
  5
588
330
1F
100
AcDbEntity
  8
7__7
  6
Continuous
 62
     6
100
AcDbCircle
 10
420.422868
 20
438.887752
 30
0.0
 40
1.000000000000028
  0
CIRCLE
  5
589
330
1F
100
AcDbEntity
  8
7__7
  6
Continuous
 62
     6
100
AcDbCircle
 10
415.199431
 20
429.187083
 30
0.0
 40
1.000000000000028
  0
CIRCLE
  5
58A
330
1F
100
AcDbEntity
  8
7__7
  6
Continuous
 62
     6
100
AcDbCircle
 10
420.049765
 20
422.098132
 30
0.0
 40
0.9999999999999432
  0
CIRCLE
  5
58B
330
1F
100
AcDbEntity
  8
7__7
  6
Continuous
 62
     6
100
AcDbCircle
 10
413.70702
 20
443.738086
 30
0.0
 40
0.9999999999999432
  0
CIRCLE
  5
58C
330
1F
100
AcDbEntity
  8
7__7
  6
Continuous
 62
     6
100
AcDbCircle
 10
362.591957
 20
442.618778
 30
0.0
 40
0.9999999999999858
  0
CIRCLE
  5
58D
330
1F
100
AcDbEntity
  8
7__7
  6
Continuous
 62
     6
100
AcDbCircle
 10
361.845752
 20
425.829159
 30
0.0
 40
0.9999999999999858
  0
CIRCLE
  5
58E
330
1F
100
AcDbEntity
  8
7__7
  6
Continuous
 62
     6
100
AcDbCircle
 10
346.548543
 20
413.516771
 30
0.0
 40
0.9999999999999858
  0
CIRCLE
  5
58F
330
1F
100
AcDbEntity
  8
7__7
  6
Continuous
 62
     6
100
AcDbCircle
 10
345.802338
 20
433.291212
 30
0.0
 40
0.9999999999999858
  0
CIRCLE
  5
590
330
1F
100
AcDbEntity
  8
7__7
  6
Continuous
 62
     6
100
AcDbCircle
 10
364.45747
 20
411.651258
 30
0.0
 40
0.9999999999999858
  0
LINE
  5
591
330
1F
100
AcDbEntity
  8
7__7
  6
PLine2
 62
     3
100
AcDbLine
 10
388.757129
 20
446.816423
 30
0.0
 11
388.757129
 21
356.396067
 31
0.0
  0
LINE
  5
592
330
1F
100
AcDbEntity
  8
7__7
  6
PLine2
 62
     3
100
AcDbLine
 10
323.266753
 20
423.958698
 30
0.0
 11
332.230452
 21
423.958698
 31
0.0
  0
LINE
  5
593
330
1F
100
AcDbEntity
  8
7__7
  6
Continuous
 62
     6
100
AcDbLine
 10
313.757129
 20
430.708698
 30
0.0
 11
311.926688
 21
415.343742
 31
0.0
  0
LINE
  5
594
330
1F
100
AcDbEntity
  8
7__7
  6
Continuous
 62
     6
100
AcDbLine
 10
319.144597
 20
429.708698
 30
0.0
 11
312.893273
 21
423.457374
 31
0.0
  0
LINE
  5
595
330
1F
100
AcDbEntity
  8
7__7
  6
Continuous
 62
     6
100
AcDbLine
 10
312.089041
 20
416.706555
 30
0.0
 11
319.526522
 21
424.144036
 31
0.0
  0
LINE
  5
596
330
1F
100
AcDbEntity
  8
7__7
  6
Continuous
 62
     6
100
AcDbLine
 10
317.99781
 20
416.414224
 30
0.0
 11
312.686908
 21
421.725125
 31
0.0
  0
LINE
  5
597
330
1F
100
AcDbEntity
  8
7__7
  6
Continuous
 62
     6
100
AcDbLine
 10
312.570088
 20
415.457189
 30
0.0
 11
312.007254
 21
416.020022
 31
0.0
  0
LINE
  5
598
330
1F
100
AcDbEntity
  8
7__7
  6
Continuous
 62
     6
100
AcDbLine
 10
318.068792
 20
416.42674
 30
0.0
 11
319.526522
 21
417.88447
 31
0.0
  0
LINE
  5
599
330
1F
100
AcDbEntity
  8
7__7
  6
Continuous
 62
     6
100
AcDbLine
 10
319.526522
 20
426.84128
 30
0.0
 11
316.659104
 21
429.708698
 31
0.0
  0
LINE
  5
59A
330
1F
100
AcDbEntity
  8
7__7
  6
Continuous
 62
     6
100
AcDbLine
 10
319.526522
 20
420.882176
 30
0.0
 11
313.32525
 21
427.083448
 31
0.0
  0
LINE
  5
59B
330
1F
100
AcDbEntity
  8
7__7
  6
Continuous
 62
     6
100
AcDbLine
 10
428.757129
 20
289.478275
 30
0.0
 11
308.757129
 21
169.478275
 31
0.0
  0
LINE
  5
59C
330
1F
100
AcDbEntity
  8
7__7
  6
Continuous
 62
     4
100
AcDbLine
 10
1538.725334
 20
291.598912
 30
0.0
 11
1528.757129
 21
291.598912
 31
0.0
  0
LINE
  5
59D
330
1F
100
AcDbEntity
  8
7__7
  6
Continuous
 62
     4
100
AcDbLine
 10
1528.757129
 20
291.598912
 30
0.0
 11
1528.757129
 21
261.694297
 31
0.0
  0
LINE
  5
59E
330
1F
100
AcDbEntity
  8
7__7
  6
Continuous
 62
     4
100
AcDbLine
 10
1530.75077
 20
261.694297
 30
0.0
 11
1528.757129
 21
261.694297
 31
0.0
  0
LINE
  5
59F
330
1F
100
AcDbEntity
  8
7__7
  6
Continuous
 62
     4
100
AcDbLine
 10
1538.725334
 20
289.605271
 30
0.0
 11
1530.75077
 21
289.605271
 31
0.0
  0
LINE
  5
5A0
330
1F
100
AcDbEntity
  8
7__7
  6
Continuous
 62
     4
100
AcDbLine
 10
1530.75077
 20
289.605271
 30
0.0
 11
1530.75077
 21
261.694297
 31
0.0
  0
LINE
  5
5A1
330
1F
100
AcDbEntity
  8
7__7
  6
Continuous
 62
     4
100
AcDbLine
 10
1538.725334
 20
291.598912
 30
0.0
 11
1538.725334
 21
289.605271
 31
0.0
  0
LINE
  5
5A2
330
1F
100
AcDbEntity
  8
7__7
  6
Continuous
 62
     2
100
AcDbLine
 10
1518.757129
 20
301.567116
 30
0.0
 11
1566.642749
 21
301.567116
 31
0.0
  0
LINE
  5
5A3
330
1F
100
AcDbEntity
  8
7__7
  6
Continuous
 62
     2
100
AcDbLine
 10
1566.642749
 20
386.032993
 30
0.0
 11
1566.642749
 21
301.567116
 31
0.0
  0
LINE
  5
5A4
330
1F
100
AcDbEntity
  8
7__7
  6
Continuous
 62
     2
100
AcDbLine
 10
1398.757129
 20
415.635178
 30
0.0
 11
1566.642749
 21
386.032993
 31
0.0
  0
LINE
  5
5A5
330
1F
100
AcDbEntity
  8
7__7
  6
Continuous
 62
     2
100
AcDbLine
 10
1398.757129
 20
415.635178
 30
0.0
 11
1398.757129
 21
148.610118
 31
0.0
  0
LINE
  5
5A6
330
1F
100
AcDbEntity
  8
7__7
  6
Continuous
 62
     2
100
AcDbLine
 10
1518.757129
 20
301.567116
 30
0.0
 11
1518.757129
 21
148.610118
 31
0.0
  0
LINE
  5
5A7
330
1F
100
AcDbEntity
  8
7__7
  6
Continuous
 62
     3
100
AcDbLine
 10
1528.757129
 20
301.567116
 30
0.0
 11
1528.757129
 21
148.610118
 31
0.0
  0
LINE
  5
5A8
330
1F
100
AcDbEntity
  8
7__7
  6
Continuous
 62
     6
100
AcDbLine
 10
1398.757129
 20
284.702617
 30
0.0
 11
1518.757129
 21
164.702617
 31
0.0
  0
LINE
  5
5A9
330
1F
100
AcDbEntity
  8
7__7
  6
Continuous
 62
     6
100
AcDbLine
 10
1398.757129
 20
294.894109
 30
0.0
 11
1518.757129
 21
174.894109
 31
0.0
  0
LINE
  5
5AA
330
1F
100
AcDbEntity
  8
7__7
  6
Continuous
 62
     4
100
AcDbLine
 10
1443.757129
 20
355.805363
 30
0.0
 11
1443.757129
 21
441.856562
 31
0.0
  0
LINE
  5
5AB
330
1F
100
AcDbEntity
  8
7__7
  6
Continuous
 62
     4
100
AcDbLine
 10
1443.757129
 20
441.856562
 30
0.0
 11
1433.757129
 21
441.856562
 31
0.0
  0
LINE
  5
5AC
330
1F
100
AcDbEntity
  8
7__7
  6
Continuous
 62
     4
100
AcDbLine
 10
1433.757129
 20
441.856562
 30
0.0
 11
1433.757129
 21
355.805363
 31
0.0
  0
LINE
  5
5AD
330
1F
100
AcDbEntity
  8
7__7
  6
Continuous
 62
     4
100
AcDbLine
 10
1586.642749
 20
342.815043
 30
0.0
 11
1586.642749
 21
401.97594
 31
0.0
  0
LINE
  5
5AE
330
1F
100
AcDbEntity
  8
7__7
  6
Continuous
 62
     4
100
AcDbLine
 10
1502.757129
 20
417.606051
 30
0.0
 11
1585.816393
 21
402.960748
 31
0.0
  0
ARC
  5
5AF
330
1F
100
AcDbEntity
  8
7__7
  6
Continuous
 62
     4
100
AcDbCircle
 10
1585.642749
 20
401.97594
 30
0.0
 40
1.000000001504403
100
AcDbArc
 50
0.0
 51
80.000192
  0
LINE
  5
5B0
330
1F
100
AcDbEntity
  8
7__7
  6
Continuous
 62
     4
100
AcDbLine
 10
1584.642749
 20
342.815043
 30
0.0
 11
1584.642749
 21
401.136838
 31
0.0
  0
LINE
  5
5B1
330
1F
100
AcDbEntity
  8
7__7
  6
Continuous
 62
     4
100
AcDbLine
 10
1584.642749
 20
401.136838
 30
0.0
 11
1501.583485
 21
415.78214
 31
0.0
  0
ARC
  5
5B2
330
1F
100
AcDbEntity
  8
7__7
  6
Continuous
 62
     4
100
AcDbCircle
 10
1501.757129
 20
416.766949
 30
0.0
 40
0.9999999983852985
100
AcDbArc
 50
180.0
 51
260.000192
  0
LINE
  5
5B3
330
1F
100
AcDbEntity
  8
7__7
  6
Continuous
 62
     4
100
AcDbLine
 10
1586.642749
 20
342.815043
 30
0.0
 11
1584.642749
 21
342.815043
 31
0.0
  0
LINE
  5
5B4
330
1F
100
AcDbEntity
  8
7__7
  6
Continuous
 62
     4
100
AcDbLine
 10
1571.642749
 20
357.815043
 30
0.0
 11
1571.642749
 21
390.228505
 31
0.0
  0
LINE
  5
5B5
330
1F
100
AcDbEntity
  8
7__7
  6
Continuous
 62
     4
100
AcDbLine
 10
1571.642749
 20
390.228505
 30
0.0
 11
1498.499746
 21
403.125338
 31
0.0
  0
LINE
  5
5B6
330
1F
100
AcDbEntity
  8
7__7
  6
PLine1
 62
     4
100
AcDbLine
 10
1573.642749
 20
357.815043
 30
0.0
 11
1573.642749
 21
391.90671
 31
0.0
  0
LINE
  5
5B7
330
1F
100
AcDbEntity
  8
7__7
  6
PLine1
 62
     4
100
AcDbLine
 10
1573.642749
 20
391.90671
 30
0.0
 11
1498.847036
 21
405.094954
 31
0.0
  0
LINE
  5
5B8
330
1F
100
AcDbEntity
  8
7__7
  6
Continuous
 62
     4
100
AcDbLine
 10
1571.642749
 20
390.228505
 30
0.0
 11
1584.642749
 21
401.136838
 31
0.0
  0
LINE
  5
5B9
330
1F
100
AcDbEntity
  8
7__7
  6
Continuous
 62
     4
100
AcDbLine
 10
1500.836316
 20
416.376945
 30
0.0
 11
1498.499746
 21
403.125338
 31
0.0
  0
LINE
  5
5BA
330
1F
100
AcDbEntity
  8
7__7
  6
Continuous
 62
     6
100
AcDbLine
 10
1584.642749
 20
357.815043
 30
0.0
 11
1566.642749
 21
357.815043
 31
0.0
  0
LINE
  5
5BB
330
1F
100
AcDbEntity
  8
7__7
  6
PLine2
 62
     3
100
AcDbLine
 10
1534.852989
 20
276.598912
 30
0.0
 11
1517.839615
 21
276.598912
 31
0.0
  0
LINE
  5
5BC
330
1F
100
AcDbEntity
  8
7__7
  6
Continuous
 62
     6
100
AcDbLine
 10
1584.642749
 20
342.815043
 30
0.0
 11
1566.642749
 21
341.283025
 31
0.0
  0
LINE
  5
5BD
330
1F
100
AcDbEntity
  8
7__7
  6
Continuous
 62
     6
100
AcDbLine
 10
1581.188312
 20
342.521028
 30
0.0
 11
1571.496213
 21
352.213128
 31
0.0
  0
LINE
  5
5BE
330
1F
100
AcDbEntity
  8
7__7
  6
Continuous
 62
     6
100
AcDbLine
 10
1584.65011
 20
346.272406
 30
0.0
 11
1578.709388
 21
352.213128
 31
0.0
  0
LINE
  5
5BF
330
1F
100
AcDbEntity
  8
7__7
  6
Continuous
 62
     6
100
AcDbLine
 10
1576.194714
 20
342.096013
 30
0.0
 11
1584.642749
 21
350.544047
 31
0.0
  0
LINE
  5
5C0
330
1F
100
AcDbEntity
  8
7__7
  6
Continuous
 62
     6
100
AcDbLine
 10
1574.532316
 20
341.954523
 30
0.0
 11
1566.642749
 21
349.84409
 31
0.0
  0
LINE
  5
5C1
330
1F
100
AcDbEntity
  8
7__7
  6
Continuous
 62
     6
100
AcDbLine
 10
1568.540577
 20
341.444554
 30
0.0
 11
1566.642749
 21
343.342382
 31
0.0
  0
LINE
  5
5C2
330
1F
100
AcDbEntity
  8
7__7
  6
Continuous
 62
     6
100
AcDbLine
 10
1569.010723
 20
341.484569
 30
0.0
 11
1579.739282
 21
352.213128
 31
0.0
  0
LINE
  5
5C3
330
1F
100
AcDbEntity
  8
7__7
  6
Continuous
 62
     6
100
AcDbLine
 10
1566.642749
 20
345.876929
 30
0.0
 11
1572.978948
 21
352.213128
 31
0.0
  0
LINE
  5
5C4
330
1F
100
AcDbEntity
  8
7__7
  6
Continuous
 62
     4
100
AcDbLine
 10
1449.013653
 20
416.431975
 30
0.0
 11
1453.892794
 21
423.994645
 31
0.0
  0
LINE
  5
5C5
330
1F
100
AcDbEntity
  8
7__7
  6
Continuous
 62
     4
100
AcDbLine
 10
1422.540262
 20
444.222085
 30
0.0
 11
1417.66112
 21
436.659415
 31
0.0
  0
LINE
  5
5C6
330
1F
100
AcDbEntity
  8
7__7
  6
Continuous
 62
     4
100
AcDbLine
 10
1453.892794
 20
423.994645
 30
0.0
 11
1443.757129
 21
430.533783
 31
0.0
  0
LINE
  5
5C7
330
1F
100
AcDbEntity
  8
7__7
  6
Continuous
 62
     4
100
AcDbLine
 10
1433.757129
 20
436.985396
 30
0.0
 11
1428.757129
 21
440.211203
 31
0.0
  0
LINE
  5
5C8
330
1F
100
AcDbEntity
  8
7__7
  6
Continuous
 62
     4
100
AcDbLine
 10
1426.457129
 20
441.695074
 30
0.0
 11
1422.540262
 21
444.222085
 31
0.0
  0
LINE
  5
5C9
330
1F
100
AcDbEntity
  8
7__7
  6
Continuous
 62
     4
100
AcDbLine
 10
1417.66112
 20
436.659415
 30
0.0
 11
1426.457129
 21
430.98457
 31
0.0
  0
LINE
  5
5CA
330
1F
100
AcDbEntity
  8
7__7
  6
Continuous
 62
     4
100
AcDbLine
 10
1428.757129
 20
429.500699
 30
0.0
 11
1433.757129
 21
426.274893
 31
0.0
  0
LINE
  5
5CB
330
1F
100
AcDbEntity
  8
7__7
  6
Continuous
 62
     4
100
AcDbLine
 10
1443.757129
 20
419.82328
 30
0.0
 11
1449.013653
 21
416.431975
 31
0.0
  0
LINE
  5
5CC
330
1F
100
AcDbEntity
  8
7__7
  6
PLine2
 62
     3
100
AcDbLine
 10
1455.133863
 20
417.838703
 30
0.0
 11
1417.501795
 21
442.117457
 31
0.0
  0
LINE
  5
5CD
330
1F
100
AcDbEntity
  8
7__7
  6
Continuous
 62
     4
100
AcDbLine
 10
1502.757129
 20
429.958698
 30
0.0
 11
1502.757129
 21
417.606051
 31
0.0
  0
LINE
  5
5CE
330
1F
100
AcDbEntity
  8
7__7
  6
Continuous
 62
     6
100
AcDbLine
 10
1398.757129
 20
415.635178
 30
0.0
 11
1398.757129
 21
450.658698
 31
0.0
  0
CIRCLE
  5
5CF
330
1F
100
AcDbEntity
  8
7__7
  6
Continuous
 62
     6
100
AcDbCircle
 10
1407.091391
 20
438.887752
 30
0.0
 40
1.000000000000114
  0
CIRCLE
  5
5D0
330
1F
100
AcDbEntity
  8
7__7
  6
Continuous
 62
     6
100
AcDbCircle
 10
1412.314828
 20
429.187083
 30
0.0
 40
0.9999999999999432
  0
CIRCLE
  5
5D1
330
1F
100
AcDbEntity
  8
7__7
  6
Continuous
 62
     6
100
AcDbCircle
 10
1407.464493
 20
422.098132
 30
0.0
 40
0.9999999999999432
  0
CIRCLE
  5
5D2
330
1F
100
AcDbEntity
  8
7__7
  6
Continuous
 62
     6
100
AcDbCircle
 10
1413.807239
 20
443.738086
 30
0.0
 40
0.9999999999999432
  0
CIRCLE
  5
5D3
330
1F
100
AcDbEntity
  8
7__7
  6
Continuous
 62
     6
100
AcDbCircle
 10
1464.922302
 20
442.618778
 30
0.0
 40
0.9999999999999432
  0
CIRCLE
  5
5D4
330
1F
100
AcDbEntity
  8
7__7
  6
Continuous
 62
     6
100
AcDbCircle
 10
1465.668507
 20
425.829159
 30
0.0
 40
0.9999999999999432
  0
CIRCLE
  5
5D5
330
1F
100
AcDbEntity
  8
7__7
  6
Continuous
 62
     6
100
AcDbCircle
 10
1480.965716
 20
413.516771
 30
0.0
 40
1.000000000000114
  0
CIRCLE
  5
5D6
330
1F
100
AcDbEntity
  8
7__7
  6
Continuous
 62
     6
100
AcDbCircle
 10
1481.711921
 20
433.291212
 30
0.0
 40
0.9999999999999432
  0
CIRCLE
  5
5D7
330
1F
100
AcDbEntity
  8
7__7
  6
Continuous
 62
     6
100
AcDbCircle
 10
1463.056788
 20
411.651258
 30
0.0
 40
0.9999999999999432
  0
LINE
  5
5D8
330
1F
100
AcDbEntity
  8
7__7
  6
PLine2
 62
     3
100
AcDbLine
 10
1438.757129
 20
446.816423
 30
0.0
 11
1438.757129
 21
356.396067
 31
0.0
  0
LINE
  5
5D9
330
1F
100
AcDbEntity
  8
7__7
  6
PLine2
 62
     3
100
AcDbLine
 10
1504.247506
 20
423.958698
 30
0.0
 11
1495.283807
 21
423.958698
 31
0.0
  0
LINE
  5
5DA
330
1F
100
AcDbEntity
  8
7__7
  6
Continuous
 62
     6
100
AcDbLine
 10
1513.757129
 20
430.708698
 30
0.0
 11
1515.58757
 21
415.343742
 31
0.0
  0
LINE
  5
5DB
330
1F
100
AcDbEntity
  8
7__7
  6
Continuous
 62
     6
100
AcDbLine
 10
1508.369662
 20
429.708698
 30
0.0
 11
1514.620986
 21
423.457374
 31
0.0
  0
LINE
  5
5DC
330
1F
100
AcDbEntity
  8
7__7
  6
Continuous
 62
     6
100
AcDbLine
 10
1515.425217
 20
416.706555
 30
0.0
 11
1507.987736
 21
424.144036
 31
0.0
  0
LINE
  5
5DD
330
1F
100
AcDbEntity
  8
7__7
  6
Continuous
 62
     6
100
AcDbLine
 10
1509.516449
 20
416.414224
 30
0.0
 11
1514.827351
 21
421.725125
 31
0.0
  0
LINE
  5
5DE
330
1F
100
AcDbEntity
  8
7__7
  6
Continuous
 62
     6
100
AcDbLine
 10
1514.944171
 20
415.457189
 30
0.0
 11
1515.507005
 21
416.020022
 31
0.0
  0
LINE
  5
5DF
330
1F
100
AcDbEntity
  8
7__7
  6
Continuous
 62
     6
100
AcDbLine
 10
1509.445467
 20
416.42674
 30
0.0
 11
1507.987736
 21
417.88447
 31
0.0
  0
LINE
  5
5E0
330
1F
100
AcDbEntity
  8
7__7
  6
Continuous
 62
     6
100
AcDbLine
 10
1507.987736
 20
426.84128
 30
0.0
 11
1510.855154
 21
429.708698
 31
0.0
  0
LINE
  5
5E1
330
1F
100
AcDbEntity
  8
7__7
  6
Continuous
 62
     6
100
AcDbLine
 10
1507.987736
 20
420.882176
 30
0.0
 11
1514.189009
 21
427.083448
 31
0.0
  0
LINE
  5
5E2
330
1F
100
AcDbEntity
  8
7__7
  6
Continuous
 62
     6
100
AcDbLine
 10
1398.757129
 20
289.478275
 30
0.0
 11
1518.757129
 21
169.478275
 31
0.0
  0
LINE
  5
5E3
330
1F
100
AcDbEntity
  8
7__7
  6
Continuous
 62
     4
100
AcDbLine
 10
488.757129
 20
148.610118
 30
0.0
 11
488.757129
 21
464.962418
 31
0.0
  0
LINE
  5
5E4
330
1F
100
AcDbEntity
  8
7__7
  6
Continuous
 62
     4
100
AcDbLine
 10
479.757129
 20
148.610118
 30
0.0
 11
479.757129
 21
464.962418
 31
0.0
  0
INSERT
  5
5EE
330
1F
100
AcDbEntity
  8
7__7
  6
Continuous
 62
     3
100
AcDbBlockReference
  2
DIM_20
 10
428.757129
 20
185.487945
 30
0.0
  0
LINE
  5
5EF
330
1F
100
AcDbEntity
  8
7__7
  6
Continuous
 62
     3
100
AcDbLine
 10
1561.311186
 20
419.863344
 30
0.0
 11
1557.909262
 21
407.971039
 31
0.0
  0
LINE
  5
5F0
330
1F
100
AcDbEntity
  8
7__7
  6
Continuous
 62
     3
100
AcDbLine
 10
1557.909262
 20
407.971039
 30
0.0
 11
1572.371546
 21
433.02045
 31
0.0
  0
LINE
  5
5F1
330
1F
100
AcDbEntity
  8
7__7
  6
Continuous
 62
     3
100
AcDbLine
 10
1572.371546
 20
433.02045
 30
0.0
 11
1757.757373
 21
433.02045
 31
0.0
  0
TEXT
  5
5F2
330
1F
100
AcDbEntity
  8
7__7
  6
Continuous
 62
     3
100
AcDbText
 10
1572.371546
 20
436.02045
 30
0.0
 40
18.0
  1
２段水切り（オプション）
 41
0.858268
  7
BIGFONT
100
AcDbText
  0
LINE
  5
5F3
330
1F
100
AcDbEntity
  8
7__7
  6
Continuous
 62
     3
100
AcDbLine
 10
1584.636136
 20
332.914844
 30
0.0
 11
1576.03806
 21
341.807149
 31
0.0
  0
LINE
  5
5F4
330
1F
100
AcDbEntity
  8
7__7
  6
Continuous
 62
     3
100
AcDbLine
 10
1576.03806
 20
341.807149
 30
0.0
 11
1597.651952
 21
304.370789
 31
0.0
  0
LINE
  5
5F5
330
1F
100
AcDbEntity
  8
7__7
  6
Continuous
 62
     3
100
AcDbLine
 10
1597.651952
 20
304.370789
 30
0.0
 11
1767.58896
 21
304.370789
 31
0.0
  0
TEXT
  5
5F6
330
1F
100
AcDbEntity
  8
7__7
  6
Continuous
 62
     3
100
AcDbText
 10
1597.651952
 20
307.370789
 30
0.0
 40
18.0
  1
シーリング処理（別途）
 41
0.858268
  7
BIGFONT
100
AcDbText
  0
LINE
  5
5F7
330
1F
100
AcDbEntity
  8
7__7
  6
Continuous
 62
     3
100
AcDbLine
 10
1517.282089
 20
435.165891
 30
0.0
 11
1513.880165
 21
423.273586
 31
0.0
  0
LINE
  5
5F8
330
1F
100
AcDbEntity
  8
7__7
  6
Continuous
 62
     3
100
AcDbLine
 10
1513.880165
 20
423.273586
 30
0.0
 11
1542.48918
 21
472.825853
 31
0.0
  0
LINE
  5
5F9
330
1F
100
AcDbEntity
  8
7__7
  6
Continuous
 62
     3
100
AcDbLine
 10
1542.48918
 20
472.825853
 30
0.0
 11
1712.426188
 21
472.825853
 31
0.0
  0
TEXT
  5
5FA
330
1F
100
AcDbEntity
  8
7__7
  6
Continuous
 62
     3
100
AcDbText
 10
1542.48918
 20
475.825853
 30
0.0
 40
18.0
  1
シーリング処理（別途）
 41
0.858268
  7
BIGFONT
100
AcDbText
  0
LINE
  5
5FB
330
1F
100
AcDbEntity
  8
7__7
  6
Continuous
 62
     3
100
AcDbLine
 10
1452.07272
 20
374.604186
 30
0.0
 11
1443.474644
 21
383.496491
 31
0.0
  0
LINE
  5
5FC
330
1F
100
AcDbEntity
  8
7__7
  6
Continuous
 62
     3
100
AcDbLine
 10
1443.474644
 20
383.496491
 30
0.0
 11
1548.710201
 21
201.223159
 31
0.0
  0
LINE
  5
5FD
330
1F
100
AcDbEntity
  8
7__7
  6
Continuous
 62
     3
100
AcDbLine
 10
1548.710201
 20
201.223159
 30
0.0
 11
1641.403115
 21
201.223159
 31
0.0
  0
TEXT
  5
5FE
330
1F
100
AcDbEntity
  8
7__7
  6
Continuous
 62
     3
100
AcDbText
 10
1548.710201
 20
204.223159
 30
0.0
 40
18.0
  1
差筋（別途）
 41
0.858268
  7
BIGFONT
100
AcDbText
  0
LINE
  5
5FF
330
1F
100
AcDbEntity
  8
7__7
  6
Continuous
 62
     3
100
AcDbLine
 10
497.126893
 20
203.620228
 30
0.0
 11
488.528816
 21
212.512533
 31
0.0
  0
LINE
  5
600
330
1F
100
AcDbEntity
  8
7__7
  6
Continuous
 62
     3
100
AcDbLine
 10
488.528816
 20
212.512533
 30
0.0
 11
518.505196
 21
160.59192
 31
0.0
  0
LINE
  5
601
330
1F
100
AcDbEntity
  8
7__7
  6
Continuous
 62
     3
100
AcDbLine
 10
518.505196
 20
160.59192
 30
0.0
 11
657.544566
 21
160.59192
 31
0.0
  0
TEXT
  5
602
330
1F
100
AcDbEntity
  8
7__7
  6
Continuous
 62
     3
100
AcDbText
 10
518.505196
 20
163.59192
 30
0.0
 40
18.0
  1
内装仕上げ（別途）
 41
0.858268
  7
BIGFONT
100
AcDbText
  0
LINE
  5
603
330
1F
100
AcDbEntity
  8
7__7
  6
Continuous
 62
     3
100
AcDbLine
 10
872.489644
 20
249.960173
 30
0.0
 11
872.489644
 21
239.940574
 31
0.0
  0
LINE
  5
604
330
1F
100
AcDbEntity
  8
7__7
  6
Continuous
 62
     3
100
AcDbLine
 10
872.489644
 20
239.940574
 30
0.0
 11
882.509243
 21
239.940574
 31
0.0
  0
LINE
  5
605
330
1F
100
AcDbEntity
  8
7__7
  6
Continuous
 62
     3
100
AcDbLine
 10
882.509243
 20
239.940574
 30
0.0
 11
882.509243
 21
249.960173
 31
0.0
  0
LINE
  5
606
330
1F
100
AcDbEntity
  8
7__7
  6
Continuous
 62
     3
100
AcDbLine
 10
882.509243
 20
249.960173
 30
0.0
 11
872.489644
 21
249.960173
 31
0.0
  0
INSERT
  5
610
330
1F
100
AcDbEntity
  8
7__7
  6
Continuous
 62
     3
100
AcDbBlockReference
  2
DIM_21
 10
428.757129
 20
231.224993
 30
0.0
  0
TEXT
  5
611
330
1F
100
AcDbEntity
  8
7__7
  6
Continuous
 62
     3
100
AcDbText
 10
17.451401
 20
-48.576177
 30
0.0
 40
18.0
  1
Ｓ１：６
 41
0.858268
  7
BIGFONT
100
AcDbText
  0
TEXT
  5
612
330
1F
100
AcDbEntity
  8
7__7
  6
Continuous
 62
     3
100
AcDbText
 10
16.165974
 20
-75.95665
 30
0.0
 40
18.0
  1
Ｓ１：１２
 41
0.858268
  7
BIGFONT
100
AcDbText
  0
LINE
  5
613
330
1F
100
AcDbEntity
  8
7__7
  6
Continuous
 62
     3
100
AcDbLine
 10
1447.053167
 20
487.733485
 30
0.0
 11
1443.651243
 21
475.84118
 31
0.0
  0
LINE
  5
614
330
1F
100
AcDbEntity
  8
7__7
  6
Continuous
 62
     3
100
AcDbLine
 10
1443.651243
 20
475.84118
 30
0.0
 11
1475.32888
 21
530.708457
 31
0.0
  0
LINE
  5
615
330
1F
100
AcDbEntity
  8
7__7
  6
Continuous
 62
     3
100
AcDbLine
 10
1475.32888
 20
530.708457
 30
0.0
 11
1506.226518
 21
530.708457
 31
0.0
  0
TEXT
  5
616
330
1F
100
AcDbEntity
  8
7__7
  6
Continuous
 62
     3
100
AcDbText
 10
1475.32888
 20
533.708457
 30
0.0
 40
18.0
  1
台部
 41
0.858268
  7
BIGFONT
100
AcDbText
  0
LINE
  5
617
330
1F
100
AcDbEntity
  8
7__7
  6
Continuous
 62
     3
100
AcDbLine
 10
1187.602434
 20
727.532038
 30
0.0
 11
1184.200511
 21
715.639733
 31
0.0
  0
LINE
  5
618
330
1F
100
AcDbEntity
  8
7__7
  6
Continuous
 62
     3
100
AcDbLine
 10
1184.200511
 20
715.639733
 30
0.0
 11
1341.829043
 21
988.660359
 31
0.0
  0
LINE
  5
619
330
1F
100
AcDbEntity
  8
7__7
  6
Continuous
 62
     3
100
AcDbLine
 10
1341.829043
 20
988.660359
 30
0.0
 11
1388.175499
 21
988.660359
 31
0.0
  0
TEXT
  5
61A
330
1F
100
AcDbEntity
  8
7__7
  6
Continuous
 62
     3
100
AcDbText
 10
1341.829043
 20
991.660359
 30
0.0
 40
18.0
  1
採光部
 41
0.858268
  7
BIGFONT
100
AcDbText
  0
LINE
  5
61B
330
1F
100
AcDbEntity
  8
7__7
  6
Continuous
 62
     3
100
AcDbLine
 10
1418.147843
 20
670.092865
 30
0.0
 11
1414.74592
 21
658.200561
 31
0.0
  0
LINE
  5
61C
330
1F
100
AcDbEntity
  8
7__7
  6
Continuous
 62
     3
100
AcDbLine
 10
1414.74592
 20
658.200561
 30
0.0
 11
1475.144605
 21
762.814153
 31
0.0
  0
LINE
  5
61D
330
1F
100
AcDbEntity
  8
7__7
  6
Continuous
 62
     3
100
AcDbLine
 10
1475.144605
 20
762.814153
 30
0.0
 11
1567.837519
 21
762.814153
 31
0.0
  0
TEXT
  5
61E
330
1F
100
AcDbEntity
  8
7__7
  6
Continuous
 62
     3
100
AcDbText
 10
1475.144605
 20
765.814153
 30
0.0
 40
18.0
  1
ドアフレーム
 41
0.858268
  7
BIGFONT
100
AcDbText
  0
LINE
  5
61F
330
1F
100
AcDbEntity
  8
7__7
  6
Continuous
 62
     3
100
AcDbLine
 10
1365.280975
 20
280.548712
 30
0.0
 11
1368.682899
 21
292.441017
 31
0.0
  0
LINE
  5
620
330
1F
100
AcDbEntity
  8
7__7
  6
Continuous
 62
     3
100
AcDbLine
 10
1368.682899
 20
292.441017
 30
0.0
 11
1294.108483
 21
163.274339
 31
0.0
  0
LINE
  5
621
330
1F
100
AcDbEntity
  8
7__7
  6
Continuous
 62
     3
100
AcDbLine
 10
1294.108483
 20
163.274339
 30
0.0
 11
1170.517932
 21
163.274339
 31
0.0
  0
TEXT
  5
622
330
1F
100
AcDbEntity
  8
7__7
  6
Continuous
 62
     3
100
AcDbText
 10
1190.380699
 20
166.274339
 30
0.0
 40
18.0
  1
アウターケーブル
 41
0.858268
  7
BIGFONT
 72
     2
 11
1294.108483
 21
166.274339
 31
0.0
100
AcDbText
  0
LINE
  5
623
330
1F
100
AcDbEntity
  8
7__7
  6
Continuous
 62
     3
100
AcDbLine
 10
1026.3817
 20
563.912437
 30
0.0
 11
1017.783623
 21
572.804742
 31
0.0
  0
LINE
  5
624
330
1F
100
AcDbEntity
  8
7__7
  6
Continuous
 62
     3
100
AcDbLine
 10
1017.783623
 20
572.804742
 30
0.0
 11
1123.90367
 21
388.99943
 31
0.0
  0
LINE
  5
625
330
1F
100
AcDbEntity
  8
7__7
  6
Continuous
 62
     3
100
AcDbLine
 10
1123.90367
 20
388.99943
 30
0.0
 11
1216.596583
 21
388.99943
 31
0.0
  0
TEXT
  5
626
330
1F
100
AcDbEntity
  8
7__7
  6
Continuous
 62
     3
100
AcDbText
 10
1123.90367
 20
391.99943
 30
0.0
 40
18.0
  1
オートステー
 41
0.858268
  7
BIGFONT
100
AcDbText
  0
LINE
  5
627
330
1F
100
AcDbEntity
  8
7__7
  6
Continuous
 62
     3
100
AcDbLine
 10
528.089876
 20
546.294897
 30
0.0
 11
519.491799
 21
555.187202
 31
0.0
  0
LINE
  5
628
330
1F
100
AcDbEntity
  8
7__7
  6
Continuous
 62
     3
100
AcDbLine
 10
519.491799
 20
555.187202
 30
0.0
 11
634.323188
 21
356.293403
 31
0.0
  0
LINE
  5
629
330
1F
100
AcDbEntity
  8
7__7
  6
Continuous
 62
     3
100
AcDbLine
 10
634.323188
 20
356.293403
 30
0.0
 11
788.811377
 21
356.293403
 31
0.0
  0
TEXT
  5
62A
330
1F
100
AcDbEntity
  8
7__7
  6
Continuous
 62
     3
100
AcDbText
 10
634.323188
 20
359.293403
 30
0.0
 40
18.0
  1
トーションスプリング
 41
0.858268
  7
BIGFONT
100
AcDbText
  0
LINE
  5
62B
330
1F
100
AcDbEntity
  8
7__7
  6
Continuous
 62
     3
100
AcDbLine
 10
409.300855
 20
416.908621
 30
0.0
 11
400.702779
 21
425.800926
 31
0.0
  0
LINE
  5
62C
330
1F
100
AcDbEntity
  8
7__7
  6
Continuous
 62
     3
100
AcDbLine
 10
400.702779
 20
425.800926
 30
0.0
 11
503.583777
 21
247.60581
 31
0.0
  0
LINE
  5
62D
330
1F
100
AcDbEntity
  8
7__7
  6
Continuous
 62
     3
100
AcDbLine
 10
503.583777
 20
247.60581
 30
0.0
 11
596.27669
 21
247.60581
 31
0.0
  0
TEXT
  5
62E
330
1F
100
AcDbEntity
  8
7__7
  6
Continuous
 62
     3
100
AcDbText
 10
503.583777
 20
250.60581
 30
0.0
 40
18.0
  1
アンカー金具
 41
0.858268
  7
BIGFONT
100
AcDbText
  0
LINE
  5
62F
330
1F
100
AcDbEntity
  8
7__7
  6
Continuous
 62
     3
100
AcDbLine
 10
1435.201622
 20
652.843737
 30
0.0
 11
1431.799699
 21
640.951432
 31
0.0
  0
LINE
  5
630
330
1F
100
AcDbEntity
  8
7__7
  6
Continuous
 62
     3
100
AcDbLine
 10
1431.799699
 20
640.951432
 30
0.0
 11
1462.949353
 21
694.904216
 31
0.0
  0
LINE
  5
631
330
1F
100
AcDbEntity
  8
7__7
  6
Continuous
 62
     3
100
AcDbLine
 10
1462.949353
 20
694.904216
 30
0.0
 11
1540.193447
 21
694.904216
 31
0.0
  0
TEXT
  5
632
330
1F
100
AcDbEntity
  8
7__7
  6
Continuous
 62
     3
100
AcDbText
 10
1462.949353
 20
697.904216
 30
0.0
 40
18.0
  1
ドアパネル
 41
0.858268
  7
BIGFONT
100
AcDbText
  0
TEXT
  5
633
330
1F
100
AcDbEntity
  8
7__7
  6
Continuous
 62
     3
100
AcDbText
 10
113.485333
 20
1495.692284
 30
0.0
 40
18.0
  1
＊　概算重里はＮＰ型を示す。
 41
0.858268
  7
BIGFONT
100
AcDbText
  0
ENDSEC
  0
SECTION
  2
OBJECTS
  0
DICTIONARY
  5
C
330
0
100
AcDbDictionary
281
     1
  3
ACAD_GROUP
350
D
  3
ACAD_LAYOUT
350
1A
  3
ACAD_MLEADERSTYLE
350
636
  3
ACAD_MLINESTYLE
350
17
  3
ACAD_PLOTSETTINGS
350
19
  3
ACAD_PLOTSTYLENAME
350
E
  3
ACAD_SCALELIST
350
58
  3
ACAD_VISUALSTYLE
350
2A
  3
AcDbVariableDictionary
350
634
  0
DICTIONARY
  5
D
102
{ACAD_REACTORS
330
C
102
}
330
C
100
AcDbDictionary
281
     1
  0
DICTIONARY
  5
1A
102
{ACAD_REACTORS
330
C
102
}
330
C
100
AcDbDictionary
281
     1
  3
Layout1
350
1E
  3
Layout2
350
26
  3
Model
350
22
  0
DICTIONARY
  5
636
102
{ACAD_REACTORS
330
C
102
}
330
C
100
AcDbDictionary
281
     1
  0
DICTIONARY
  5
17
102
{ACAD_REACTORS
330
C
102
}
330
C
100
AcDbDictionary
281
     1
  3
Standard
350
18
  0
DICTIONARY
  5
19
102
{ACAD_REACTORS
330
C
102
}
330
C
100
AcDbDictionary
281
     1
  0
ACDBDICTIONARYWDFLT
  5
E
102
{ACAD_REACTORS
330
C
102
}
330
C
100
AcDbDictionary
281
     1
  3
Normal
350
F
100
AcDbDictionaryWithDefault
340
F
  0
DICTIONARY
  5
58
102
{ACAD_REACTORS
330
C
102
}
330
C
100
AcDbDictionary
281
     1
  3
A0
350
59
  3
A1
350
5A
  3
A2
350
5B
  3
A3
350
5C
  3
A4
350
5D
  3
A5
350
5E
  3
A6
350
5F
  3
A7
350
60
  3
A8
350
61
  3
A9
350
62
  3
B0
350
63
  3
B1
350
64
  3
B2
350
65
  3
B3
350
66
  3
B4
350
67
  3
B5
350
68
  3
B6
350
69
  3
B7
350
6A
  3
B8
350
6B
  3
B9
350
6C
  3
C0
350
6D
  3
C1
350
6E
  3
C2
350
6F
  3
C3
350
70
  3
C4
350
71
  3
C5
350
72
  3
C6
350
73
  3
C7
350
74
  3
C8
350
75
  3
C9
350
76
  3
D0
350
77
  3
D1
350
78
  3
D2
350
79
  0
DICTIONARY
  5
2A
102
{ACAD_REACTORS
330
C
102
}
330
C
100
AcDbDictionary
281
     1
  3
2dWireframe
350
2F
  3
3D Hidden
350
31
  3
3dWireframe
350
30
  3
Basic
350
32
  3
Brighten
350
36
  3
ColorChange
350
3A
  3
Conceptual
350
34
  3
Dim
350
35
  3
Facepattern
350
39
  3
Flat
350
2B
  3
FlatWithEdges
350
2C
  3
Gouraud
350
2D
  3
GouraudWithEdges
350
2E
  3
Linepattern
350
38
  3
Realistic
350
33
  3
Thicken
350
37
  0
DICTIONARY
  5
634
102
{ACAD_REACTORS
330
C
102
}
330
C
100
AcDbDictionary
281
     1
  3
CANNOSCALE
350
637
  3
DIMASSOC
350
638
  3
HIDETEXT
350
639
  0
LAYOUT
  5
1E
102
{ACAD_REACTORS
330
1A
102
}
330
1A
100
AcDbPlotSettings
  1

  2
none_device
  4

  6

 40
0.0
 41
0.0
 42
0.0
 43
0.0
 44
0.0
 45
0.0
 46
0.0
 47
0.0
 48
0.0
 49
0.0
140
0.0
141
0.0
142
1.0
143
1.0
 70
   688
 72
     0
 73
     0
 74
     5
  7

 75
    16
147
1.0
148
0.0
149
0.0
100
AcDbLayout
  1
Layout1
 70
     1
 71
     1
 10
0.0
 20
0.0
 11
12.0
 21
9.0
 12
0.0
 22
0.0
 32
0.0
 14
1.000000E+20
 24
1.000000E+20
 34
1.000000E+20
 15
-1.000000E+20
 25
-1.000000E+20
 35
-1.000000E+20
146
0.0
 13
0.0
 23
0.0
 33
0.0
 16
1.0
 26
0.0
 36
0.0
 17
0.0
 27
1.0
 37
0.0
 76
     0
330
1B
  0
LAYOUT
  5
26
102
{ACAD_REACTORS
330
1A
102
}
330
1A
100
AcDbPlotSettings
  1

  2
none_device
  4

  6

 40
0.0
 41
0.0
 42
0.0
 43
0.0
 44
0.0
 45
0.0
 46
0.0
 47
0.0
 48
0.0
 49
0.0
140
0.0
141
0.0
142
1.0
143
1.0
 70
   688
 72
     0
 73
     0
 74
     5
  7

 75
    16
147
1.0
148
0.0
149
0.0
100
AcDbLayout
  1
Layout2
 70
     1
 71
     2
 10
0.0
 20
0.0
 11
0.0
 21
0.0
 12
0.0
 22
0.0
 32
0.0
 14
0.0
 24
0.0
 34
0.0
 15
0.0
 25
0.0
 35
0.0
146
0.0
 13
0.0
 23
0.0
 33
0.0
 16
1.0
 26
0.0
 36
0.0
 17
0.0
 27
1.0
 37
0.0
 76
     0
330
23
  0
LAYOUT
  5
22
102
{ACAD_REACTORS
330
1A
102
}
330
1A
100
AcDbPlotSettings
  1

  2
none_device
  4

  6

 40
0.0
 41
0.0
 42
0.0
 43
0.0
 44
0.0
 45
0.0
 46
0.0
 47
0.0
 48
0.0
 49
0.0
140
0.0
141
0.0
142
1.0
143
1.0
 70
  1712
 72
     0
 73
     0
 74
     0
  7

 75
     0
147
1.0
148
0.0
149
0.0
100
AcDbLayout
  1
Model
 70
     1
 71
     0
 10
0.0
 20
0.0
 11
12.0
 21
9.0
 12
0.0
 22
0.0
 32
0.0
 14
0.0
 24
0.0
 34
0.0
 15
2520.0
 25
1782.0
 35
0.0
146
0.0
 13
0.0
 23
0.0
 33
0.0
 16
1.0
 26
0.0
 36
0.0
 17
0.0
 27
1.0
 37
0.0
 76
     0
330
1F
331
29
  0
MLINESTYLE
  5
18
102
{ACAD_REACTORS
330
17
102
}
330
17
100
AcDbMlineStyle
  2
Standard
 70
     0
  3

 62
   256
 51
90.0
 52
90.0
 71
     2
 49
0.5
 62
   256
  6
BYLAYER
 49
-0.5
 62
   256
  6
BYLAYER
  0
ACDBPLACEHOLDER
  5
F
102
{ACAD_REACTORS
330
E
102
}
330
E
  0
SCALE
  5
59
102
{ACAD_REACTORS
330
58
102
}
330
58
100
AcDbScale
 70
     0
300
1:1
140
1.0
141
1.0
290
     1
  0
SCALE
  5
5A
102
{ACAD_REACTORS
330
58
102
}
330
58
100
AcDbScale
 70
     0
300
1:2
140
1.0
141
2.0
290
     0
  0
SCALE
  5
5B
102
{ACAD_REACTORS
330
58
102
}
330
58
100
AcDbScale
 70
     0
300
1:4
140
1.0
141
4.0
290
     0
  0
SCALE
  5
5C
102
{ACAD_REACTORS
330
58
102
}
330
58
100
AcDbScale
 70
     0
300
1:5
140
1.0
141
5.0
290
     0
  0
SCALE
  5
5D
102
{ACAD_REACTORS
330
58
102
}
330
58
100
AcDbScale
 70
     0
300
1:8
140
1.0
141
8.0
290
     0
  0
SCALE
  5
5E
102
{ACAD_REACTORS
330
58
102
}
330
58
100
AcDbScale
 70
     0
300
1:10
140
1.0
141
10.0
290
     0
  0
SCALE
  5
5F
102
{ACAD_REACTORS
330
58
102
}
330
58
100
AcDbScale
 70
     0
300
1:16
140
1.0
141
16.0
290
     0
  0
SCALE
  5
60
102
{ACAD_REACTORS
330
58
102
}
330
58
100
AcDbScale
 70
     0
300
1:20
140
1.0
141
20.0
290
     0
  0
SCALE
  5
61
102
{ACAD_REACTORS
330
58
102
}
330
58
100
AcDbScale
 70
     0
300
1:30
140
1.0
141
30.0
290
     0
  0
SCALE
  5
62
102
{ACAD_REACTORS
330
58
102
}
330
58
100
AcDbScale
 70
     0
300
1:40
140
1.0
141
40.0
290
     0
  0
SCALE
  5
63
102
{ACAD_REACTORS
330
58
102
}
330
58
100
AcDbScale
 70
     0
300
1:50
140
1.0
141
50.0
290
     0
  0
SCALE
  5
64
102
{ACAD_REACTORS
330
58
102
}
330
58
100
AcDbScale
 70
     0
300
1:100
140
1.0
141
100.0
290
     0
  0
SCALE
  5
65
102
{ACAD_REACTORS
330
58
102
}
330
58
100
AcDbScale
 70
     0
300
2:1
140
2.0
141
1.0
290
     0
  0
SCALE
  5
66
102
{ACAD_REACTORS
330
58
102
}
330
58
100
AcDbScale
 70
     0
300
4:1
140
4.0
141
1.0
290
     0
  0
SCALE
  5
67
102
{ACAD_REACTORS
330
58
102
}
330
58
100
AcDbScale
 70
     0
300
8:1
140
8.0
141
1.0
290
     0
  0
SCALE
  5
68
102
{ACAD_REACTORS
330
58
102
}
330
58
100
AcDbScale
 70
     0
300
10:1
140
10.0
141
1.0
290
     0
  0
SCALE
  5
69
102
{ACAD_REACTORS
330
58
102
}
330
58
100
AcDbScale
 70
     0
300
100:1
140
100.0
141
1.0
290
     0
  0
SCALE
  5
6A
102
{ACAD_REACTORS
330
58
102
}
330
58
100
AcDbScale
 70
     0
300
1/128" = 1'-0"
140
0.007812
141
12.0
290
     0
  0
SCALE
  5
6B
102
{ACAD_REACTORS
330
58
102
}
330
58
100
AcDbScale
 70
     0
300
1/64" = 1'-0"
140
0.015625
141
12.0
290
     0
  0
SCALE
  5
6C
102
{ACAD_REACTORS
330
58
102
}
330
58
100
AcDbScale
 70
     0
300
1/32" = 1'-0"
140
0.03125
141
12.0
290
     0
  0
SCALE
  5
6D
102
{ACAD_REACTORS
330
58
102
}
330
58
100
AcDbScale
 70
     0
300
1/16" = 1'-0"
140
0.0625
141
12.0
290
     0
  0
SCALE
  5
6E
102
{ACAD_REACTORS
330
58
102
}
330
58
100
AcDbScale
 70
     0
300
3/32" = 1'-0"
140
0.09375
141
12.0
290
     0
  0
SCALE
  5
6F
102
{ACAD_REACTORS
330
58
102
}
330
58
100
AcDbScale
 70
     0
300
1/8" = 1'-0"
140
0.125
141
12.0
290
     0
  0
SCALE
  5
70
102
{ACAD_REACTORS
330
58
102
}
330
58
100
AcDbScale
 70
     0
300
3/16" = 1'-0"
140
0.1875
141
12.0
290
     0
  0
SCALE
  5
71
102
{ACAD_REACTORS
330
58
102
}
330
58
100
AcDbScale
 70
     0
300
1/4" = 1'-0"
140
0.25
141
12.0
290
     0
  0
SCALE
  5
72
102
{ACAD_REACTORS
330
58
102
}
330
58
100
AcDbScale
 70
     0
300
3/8" = 1'-0"
140
0.375
141
12.0
290
     0
  0
SCALE
  5
73
102
{ACAD_REACTORS
330
58
102
}
330
58
100
AcDbScale
 70
     0
300
1/2" = 1'-0"
140
0.5
141
12.0
290
     0
  0
SCALE
  5
74
102
{ACAD_REACTORS
330
58
102
}
330
58
100
AcDbScale
 70
     0
300
3/4" = 1'-0"
140
0.75
141
12.0
290
     0
  0
SCALE
  5
75
102
{ACAD_REACTORS
330
58
102
}
330
58
100
AcDbScale
 70
     0
300
1" = 1'-0"
140
1.0
141
12.0
290
     0
  0
SCALE
  5
76
102
{ACAD_REACTORS
330
58
102
}
330
58
100
AcDbScale
 70
     0
300
1-1/2" = 1'-0"
140
1.5
141
12.0
290
     0
  0
SCALE
  5
77
102
{ACAD_REACTORS
330
58
102
}
330
58
100
AcDbScale
 70
     0
300
3" = 1'-0"
140
3.0
141
12.0
290
     0
  0
SCALE
  5
78
102
{ACAD_REACTORS
330
58
102
}
330
58
100
AcDbScale
 70
     0
300
6" = 1'-0"
140
6.0
141
12.0
290
     0
  0
SCALE
  5
79
102
{ACAD_REACTORS
330
58
102
}
330
58
100
AcDbScale
 70
     0
300
1'-0" = 1'-0"
140
12.0
141
12.0
290
     0
  0
VISUALSTYLE
  5
2F
102
{ACAD_REACTORS
330
2A
102
}
102
{ACAD_XDICTIONARY
360
642
102
}
330
2A
100
AcDbVisualStyle
  2
2dWireframe
 70
     4
 71
     0
 72
     2
 73
     0
 90
        0
 40
-0.6
 41
-30.0
 62
     5
 63
     7
 74
     1
 91
        4
 64
     7
 65
   257
 75
     1
175
     1
 42
1.0
 92
        0
 66
   257
 43
1.0
 76
     1
 77
     6
 78
     2
 67
     7
 79
     5
170
     0
171
     0
290
     0
174
     0
 93
        1
 44
0.0
173
     0
291
     0
 45
0.0
1001
ACAD
1000
AcDbSavedByObjectVersion
1070
     0
  0
VISUALSTYLE
  5
31
102
{ACAD_REACTORS
330
2A
102
}
102
{ACAD_XDICTIONARY
360
646
102
}
330
2A
100
AcDbVisualStyle
  2
3D Hidden
 70
     6
 71
     1
 72
     2
 73
     2
 90
        0
 40
-0.6
 41
-30.0
 62
     5
 63
     7
 74
     2
 91
        2
 64
     7
 65
   257
 75
     2
175
     1
 42
40.0
 92
        0
 66
   257
 43
1.0
 76
     1
 77
     6
 78
     2
 67
     7
 79
     3
170
     0
171
     0
290
     0
174
     0
 93
        1
 44
0.0
173
     0
291
     0
 45
0.0
1001
ACAD
1000
AcDbSavedByObjectVersion
1070
     0
  0
VISUALSTYLE
  5
30
102
{ACAD_REACTORS
330
2A
102
}
102
{ACAD_XDICTIONARY
360
644
102
}
330
2A
100
AcDbVisualStyle
  2
3dWireframe
 70
     5
 71
     0
 72
     2
 73
     0
 90
        0
 40
-0.6
 41
-30.0
 62
     5
 63
     7
 74
     1
 91
        4
 64
     7
 65
   257
 75
     1
175
     1
 42
1.0
 92
        0
 66
   257
 43
1.0
 76
     1
 77
     6
 78
     2
 67
     7
 79
     5
170
     0
171
     0
290
     0
174
     0
 93
        1
 44
0.0
173
     0
291
     0
 45
0.0
1001
ACAD
1000
AcDbSavedByObjectVersion
1070
     0
  0
VISUALSTYLE
  5
32
102
{ACAD_REACTORS
330
2A
102
}
102
{ACAD_XDICTIONARY
360
648
102
}
330
2A
100
AcDbVisualStyle
  2
Basic
 70
     7
 71
     1
 72
     0
 73
     1
 90
        0
 40
-0.6
 41
-30.0
 62
     5
 63
     7
 74
     0
 91
        4
 64
     7
 65
   257
 75
     1
175
     1
 42
1.0
 92
        8
 66
     7
 43
1.0
 76
     1
 77
     6
 78
     2
 67
     7
 79
     5
170
     0
171
     0
290
     0
174
     0
 93
        1
 44
0.0
173
     0
291
     1
 45
0.0
1001
ACAD
1000
AcDbSavedByObjectVersion
1070
     0
  0
VISUALSTYLE
  5
36
102
{ACAD_REACTORS
330
2A
102
}
102
{ACAD_XDICTIONARY
360
650
102
}
330
2A
100
AcDbVisualStyle
  2
Brighten
 70
    12
 71
     2
 72
     2
 73
     0
 90
        0
 40
-0.6
 41
-30.0
 62
     5
 63
     7
 74
     1
 91
        4
 64
     7
 65
   257
 75
     1
175
     1
 42
1.0
 92
        8
 66
     7
 43
1.0
 76
     1
 77
     6
 78
     2
 67
     7
 79
     5
170
     0
171
     0
290
     0
174
     0
 93
        1
 44
50.0
173
     0
291
     1
 45
0.0
1001
ACAD
1000
AcDbSavedByObjectVersion
1070
     0
  0
VISUALSTYLE
  5
3A
102
{ACAD_REACTORS
330
2A
102
}
102
{ACAD_XDICTIONARY
360
658
102
}
330
2A
100
AcDbVisualStyle
  2
ColorChange
 70
    16
 71
     2
 72
     2
 73
     3
 90
        0
 40
-0.6
 41
-30.0
 62
     5
 63
     8
 74
     1
 91
        4
 64
     7
 65
   257
 75
     1
175
     1
 42
1.0
 92
        8
 66
     8
 43
1.0
 76
     1
 77
     6
 78
     2
 67
     7
 79
     5
170
     0
171
     0
290
     0
174
     0
 93
        1
 44
0.0
173
     0
291
     1
 45
0.0
1001
ACAD
1000
AcDbSavedByObjectVersion
1070
     0
  0
VISUALSTYLE
  5
34
102
{ACAD_REACTORS
330
2A
102
}
102
{ACAD_XDICTIONARY
360
64C
102
}
330
2A
100
AcDbVisualStyle
  2
Conceptual
 70
     9
 71
     3
 72
     2
 73
     0
 90
        0
 40
-0.6
 41
-30.0
 62
     5
 63
     7
 74
     2
 91
        2
 64
     7
 65
   257
 75
     1
175
     1
 42
40.0
 92
        8
 66
     7
 43
1.0
 76
     1
 77
     6
 78
     2
 67
     7
 79
     3
170
     0
171
     0
290
     0
174
     0
 93
        1
 44
0.0
173
     0
291
     0
 45
0.0
1001
ACAD
1000
AcDbSavedByObjectVersion
1070
     0
  0
VISUALSTYLE
  5
35
102
{ACAD_REACTORS
330
2A
102
}
102
{ACAD_XDICTIONARY
360
64E
102
}
330
2A
100
AcDbVisualStyle
  2
Dim
 70
    11
 71
     2
 72
     2
 73
     0
 90
        0
 40
-0.6
 41
-30.0
 62
     5
 63
     7
 74
     1
 91
        4
 64
     7
 65
   257
 75
     1
175
     1
 42
1.0
 92
        8
 66
     7
 43
1.0
 76
     1
 77
     6
 78
     2
 67
     7
 79
     5
170
     0
171
     0
290
     0
174
     0
 93
        1
 44
-50.0
173
     0
291
     1
 45
0.0
1001
ACAD
1000
AcDbSavedByObjectVersion
1070
     0
  0
VISUALSTYLE
  5
39
102
{ACAD_REACTORS
330
2A
102
}
102
{ACAD_XDICTIONARY
360
656
102
}
330
2A
100
AcDbVisualStyle
  2
Facepattern
 70
    15
 71
     2
 72
     2
 73
     0
 90
        0
 40
-0.6
 41
-30.0
 62
     5
 63
     7
 74
     1
 91
        4
 64
     7
 65
   257
 75
     1
175
     1
 42
1.0
 92
        8
 66
     7
 43
1.0
 76
     1
 77
     6
 78
     2
 67
     7
 79
     5
170
     0
171
     0
290
     0
174
     0
 93
        1
 44
0.0
173
     0
291
     1
 45
0.0
1001
ACAD
1000
AcDbSavedByObjectVersion
1070
     0
  0
VISUALSTYLE
  5
2B
102
{ACAD_REACTORS
330
2A
102
}
102
{ACAD_XDICTIONARY
360
63A
102
}
330
2A
100
AcDbVisualStyle
  2
Flat
 70
     0
 71
     2
 72
     1
 73
     1
 90
        2
 40
-0.6
 41
30.0
 62
     5
 63
     7
 74
     0
 91
        4
 64
     7
 65
   257
 75
     1
175
     1
 42
1.0
 92
        8
 66
     7
 43
1.0
 76
     1
 77
     6
 78
     2
 67
     7
 79
     5
170
     0
171
     0
290
     0
174
     0
 93
       13
 44
0.0
173
     0
291
     1
 45
0.0
1001
ACAD
1000
AcDbSavedByObjectVersion
1070
     0
  0
VISUALSTYLE
  5
2C
102
{ACAD_REACTORS
330
2A
102
}
102
{ACAD_XDICTIONARY
360
63C
102
}
330
2A
100
AcDbVisualStyle
  2
FlatWithEdges
 70
     1
 71
     2
 72
     1
 73
     1
 90
        2
 40
-0.6
 41
30.0
 62
     5
 63
     7
 74
     1
 91
        4
 64
     7
 65
   257
 75
     1
175
     1
 42
1.0
 92
        0
 66
   257
 43
1.0
 76
     1
 77
     6
 78
     2
 67
     7
 79
     5
170
     0
171
     0
290
     0
174
     0
 93
       13
 44
0.0
173
     0
291
     1
 45
0.0
1001
ACAD
1000
AcDbSavedByObjectVersion
1070
     0
  0
VISUALSTYLE
  5
2D
102
{ACAD_REACTORS
330
2A
102
}
102
{ACAD_XDICTIONARY
360
63E
102
}
330
2A
100
AcDbVisualStyle
  2
Gouraud
 70
     2
 71
     2
 72
     2
 73
     1
 90
        2
 40
-0.6
 41
30.0
 62
     5
 63
     7
 74
     0
 91
        4
 64
     7
 65
   257
 75
     1
175
     1
 42
1.0
 92
        0
 66
     7
 43
1.0
 76
     1
 77
     6
 78
     2
 67
     7
 79
     5
170
     0
171
     0
290
     0
174
     0
 93
       13
 44
0.0
173
     0
291
     1
 45
0.0
1001
ACAD
1000
AcDbSavedByObjectVersion
1070
     0
  0
VISUALSTYLE
  5
2E
102
{ACAD_REACTORS
330
2A
102
}
102
{ACAD_XDICTIONARY
360
640
102
}
330
2A
100
AcDbVisualStyle
  2
GouraudWithEdges
 70
     3
 71
     2
 72
     2
 73
     1
 90
        2
 40
-0.6
 41
30.0
 62
     5
 63
     7
 74
     1
 91
        4
 64
     7
 65
   257
 75
     1
175
     1
 42
1.0
 92
        0
 66
   257
 43
1.0
 76
     1
 77
     6
 78
     2
 67
     7
 79
     5
170
     0
171
     0
290
     0
174
     0
 93
       13
 44
0.0
173
     0
291
     1
 45
0.0
1001
ACAD
1000
AcDbSavedByObjectVersion
1070
     0
  0
VISUALSTYLE
  5
38
102
{ACAD_REACTORS
330
2A
102
}
102
{ACAD_XDICTIONARY
360
654
102
}
330
2A
100
AcDbVisualStyle
  2
Linepattern
 70
    14
 71
     2
 72
     2
 73
     0
 90
        0
 40
-0.6
 41
-30.0
 62
     5
 63
     7
 74
     1
 91
        4
 64
     7
 65
   257
 75
     7
175
     7
 42
1.0
 92
        8
 66
     7
 43
1.0
 76
     1
 77
     6
 78
     2
 67
     7
 79
     5
170
     0
171
     0
290
     0
174
     0
 93
        1
 44
0.0
173
     0
291
     1
 45
0.0
1001
ACAD
1000
AcDbSavedByObjectVersion
1070
     0
  0
VISUALSTYLE
  5
33
102
{ACAD_REACTORS
330
2A
102
}
102
{ACAD_XDICTIONARY
360
64A
102
}
330
2A
100
AcDbVisualStyle
  2
Realistic
 70
     8
 71
     2
 72
     2
 73
     0
 90
        0
 40
-0.6
 41
-30.0
 62
     5
 63
     7
 74
     1
 91
        0
 64
     7
 65
   257
 75
     1
175
     1
 42
1.0
 92
        8
 66
     8
 43
1.0
 76
     1
 77
     6
 78
     2
 67
     7
 79
     5
170
     0
171
     0
290
     0
174
     0
 93
       13
 44
0.0
173
     0
291
     0
 45
0.0
1001
ACAD
1000
AcDbSavedByObjectVersion
1070
     0
  0
VISUALSTYLE
  5
37
102
{ACAD_REACTORS
330
2A
102
}
102
{ACAD_XDICTIONARY
360
652
102
}
330
2A
100
AcDbVisualStyle
  2
Thicken
 70
    13
 71
     2
 72
     2
 73
     0
 90
        0
 40
-0.6
 41
-30.0
 62
     5
 63
     7
 74
     1
 91
        4
 64
     7
 65
   257
 75
     1
175
     1
 42
1.0
 92
       12
 66
     7
 43
1.0
 76
     1
 77
     6
 78
     2
 67
     7
 79
     5
170
     0
171
     0
290
     0
174
     0
 93
        1
 44
0.0
173
     0
291
     1
 45
0.0
1001
ACAD
1000
AcDbSavedByObjectVersion
1070
     0
  0
DICTIONARYVAR
  5
637
102
{ACAD_REACTORS
330
634
102
}
330
634
100
DictionaryVariables
280
     0
  1
1:1
  0
DICTIONARYVAR
  5
638
102
{ACAD_REACTORS
330
634
102
}
330
634
100
DictionaryVariables
280
     0
  1
2
  0
DICTIONARYVAR
  5
639
102
{ACAD_REACTORS
330
634
102
}
330
634
100
DictionaryVariables
280
     0
  1
1
  0
DICTIONARY
  5
642
330
2F
100
AcDbDictionary
280
     1
281
     1
  3
ACAD_XREC_ROUNDTRIP
360
643
  0
DICTIONARY
  5
646
330
31
100
AcDbDictionary
280
     1
281
     1
  3
ACAD_XREC_ROUNDTRIP
360
647
  0
DICTIONARY
  5
644
330
30
100
AcDbDictionary
280
     1
281
     1
  3
ACAD_XREC_ROUNDTRIP
360
645
  0
DICTIONARY
  5
648
330
32
100
AcDbDictionary
280
     1
281
     1
  3
ACAD_XREC_ROUNDTRIP
360
649
  0
DICTIONARY
  5
650
330
36
100
AcDbDictionary
280
     1
281
     1
  3
ACAD_XREC_ROUNDTRIP
360
651
  0
DICTIONARY
  5
658
330
3A
100
AcDbDictionary
280
     1
281
     1
  3
ACAD_XREC_ROUNDTRIP
360
659
  0
DICTIONARY
  5
64C
330
34
100
AcDbDictionary
280
     1
281
     1
  3
ACAD_XREC_ROUNDTRIP
360
64D
  0
DICTIONARY
  5
64E
330
35
100
AcDbDictionary
280
     1
281
     1
  3
ACAD_XREC_ROUNDTRIP
360
64F
  0
DICTIONARY
  5
656
330
39
100
AcDbDictionary
280
     1
281
     1
  3
ACAD_XREC_ROUNDTRIP
360
657
  0
DICTIONARY
  5
63A
330
2B
100
AcDbDictionary
280
     1
281
     1
  3
ACAD_XREC_ROUNDTRIP
360
63B
  0
DICTIONARY
  5
63C
330
2C
100
AcDbDictionary
280
     1
281
     1
  3
ACAD_XREC_ROUNDTRIP
360
63D
  0
DICTIONARY
  5
63E
330
2D
100
AcDbDictionary
280
     1
281
     1
  3
ACAD_XREC_ROUNDTRIP
360
63F
  0
DICTIONARY
  5
640
330
2E
100
AcDbDictionary
280
     1
281
     1
  3
ACAD_XREC_ROUNDTRIP
360
641
  0
DICTIONARY
  5
654
330
38
100
AcDbDictionary
280
     1
281
     1
  3
ACAD_XREC_ROUNDTRIP
360
655
  0
DICTIONARY
  5
64A
330
33
100
AcDbDictionary
280
     1
281
     1
  3
ACAD_XREC_ROUNDTRIP
360
64B
  0
DICTIONARY
  5
652
330
37
100
AcDbDictionary
280
     1
281
     1
  3
ACAD_XREC_ROUNDTRIP
360
653
  0
XRECORD
  5
643
102
{ACAD_REACTORS
330
642
102
}
330
642
100
AcDbXrecord
280
     1
102
RTVSPropertyOp0
 70
     1
102
RTVSPropertyOp1
 70
     1
102
RTVSPropertyOp2
 70
     1
102
RTVSPropertyOp3
 70
     1
102
RTVSPropertyOp4
 70
     1
102
RTVSPropertyOp5
 70
     1
102
RTVSPropertyOp6
 70
     1
102
RTVSPropertyOp7
 70
     1
102
RTVSPropertyOp8
 70
     1
102
RTVSPropertyOp9
 70
     1
102
RTVSPropertyOp10
 70
     1
102
RTVSPropertyOp11
 70
     1
102
RTVSPropertyOp12
 70
     1
102
RTVSPropertyOp13
 70
     1
102
RTVSPropertyOp14
 70
     1
102
RTVSPropertyOp15
 70
     1
102
RTVSPropertyOp16
 70
     1
102
RTVSPropertyOp17
 70
     1
102
RTVSPropertyOp18
 70
     1
102
RTVSPropertyOp19
 70
     1
102
RTVSPropertyOp20
 70
     1
102
RTVSPropertyOp21
 70
     1
102
RTVSPropertyOp22
 70
     1
102
RTVSPropertyOp23
 70
     1
102
RTVSPropertyOp24
 70
     1
102
RTVSPropertyOp25
 70
     1
102
RTVSPropertyOp26
 70
     1
102
RTVSPropertyOp27
 70
     1
  0
XRECORD
  5
647
102
{ACAD_REACTORS
330
646
102
}
330
646
100
AcDbXrecord
280
     1
102
RTVSPropertyOp0
 70
     1
102
RTVSPropertyOp1
 70
     1
102
RTVSPropertyOp2
 70
     1
102
RTVSPropertyOp3
 70
     1
102
RTVSPropertyOp4
 70
     1
102
RTVSPropertyOp5
 70
     1
102
RTVSPropertyOp6
 70
     1
102
RTVSPropertyOp7
 70
     1
102
RTVSPropertyOp8
 70
     1
102
RTVSPropertyOp9
 70
     1
102
RTVSPropertyOp10
 70
     1
102
RTVSPropertyOp11
 70
     1
102
RTVSPropertyOp12
 70
     1
102
RTVSPropertyOp13
 70
     1
102
RTVSPropertyOp14
 70
     1
102
RTVSPropertyOp15
 70
     1
102
RTVSPropertyOp16
 70
     1
102
RTVSPropertyOp17
 70
     1
102
RTVSPropertyOp18
 70
     1
102
RTVSPropertyOp19
 70
     1
102
RTVSPropertyOp20
 70
     1
102
RTVSPropertyOp21
 70
     1
102
RTVSPropertyOp22
 70
     1
102
RTVSPropertyOp23
 70
     1
102
RTVSPropertyOp24
 70
     1
102
RTVSPropertyOp25
 70
     1
102
RTVSPropertyOp26
 70
     1
102
RTVSPropertyOp27
 70
     1
  0
XRECORD
  5
645
102
{ACAD_REACTORS
330
644
102
}
330
644
100
AcDbXrecord
280
     1
102
RTVSPropertyOp0
 70
     1
102
RTVSPropertyOp1
 70
     1
102
RTVSPropertyOp2
 70
     1
102
RTVSPropertyOp3
 70
     1
102
RTVSPropertyOp4
 70
     1
102
RTVSPropertyOp5
 70
     1
102
RTVSPropertyOp6
 70
     1
102
RTVSPropertyOp7
 70
     1
102
RTVSPropertyOp8
 70
     1
102
RTVSPropertyOp9
 70
     1
102
RTVSPropertyOp10
 70
     1
102
RTVSPropertyOp11
 70
     1
102
RTVSPropertyOp12
 70
     1
102
RTVSPropertyOp13
 70
     1
102
RTVSPropertyOp14
 70
     1
102
RTVSPropertyOp15
 70
     1
102
RTVSPropertyOp16
 70
     1
102
RTVSPropertyOp17
 70
     1
102
RTVSPropertyOp18
 70
     1
102
RTVSPropertyOp19
 70
     1
102
RTVSPropertyOp20
 70
     1
102
RTVSPropertyOp21
 70
     1
102
RTVSPropertyOp22
 70
     1
102
RTVSPropertyOp23
 70
     1
102
RTVSPropertyOp24
 70
     1
102
RTVSPropertyOp25
 70
     1
102
RTVSPropertyOp26
 70
     1
102
RTVSPropertyOp27
 70
     1
  0
XRECORD
  5
649
102
{ACAD_REACTORS
330
648
102
}
330
648
100
AcDbXrecord
280
     1
102
RTVSPropertyOp0
 70
     1
102
RTVSPropertyOp1
 70
     1
102
RTVSPropertyOp2
 70
     1
102
RTVSPropertyOp3
 70
     1
102
RTVSPropertyOp4
 70
     1
102
RTVSPropertyOp5
 70
     1
102
RTVSPropertyOp6
 70
     1
102
RTVSPropertyOp7
 70
     1
102
RTVSPropertyOp8
 70
     1
102
RTVSPropertyOp9
 70
     1
102
RTVSPropertyOp10
 70
     1
102
RTVSPropertyOp11
 70
     1
102
RTVSPropertyOp12
 70
     1
102
RTVSPropertyOp13
 70
     1
102
RTVSPropertyOp14
 70
     1
102
RTVSPropertyOp15
 70
     1
102
RTVSPropertyOp16
 70
     1
102
RTVSPropertyOp17
 70
     1
102
RTVSPropertyOp18
 70
     1
102
RTVSPropertyOp19
 70
     1
102
RTVSPropertyOp20
 70
     1
102
RTVSPropertyOp21
 70
     1
102
RTVSPropertyOp22
 70
     1
102
RTVSPropertyOp23
 70
     1
102
RTVSPropertyOp24
 70
     1
102
RTVSPropertyOp25
 70
     1
102
RTVSPropertyOp26
 70
     1
102
RTVSPropertyOp27
 70
     1
  0
XRECORD
  5
651
102
{ACAD_REACTORS
330
650
102
}
330
650
100
AcDbXrecord
280
     1
102
RTVSPropertyOp0
 70
     1
102
RTVSPropertyOp1
 70
     1
102
RTVSPropertyOp2
 70
     1
102
RTVSPropertyOp3
 70
     1
102
RTVSPropertyOp4
 70
     1
102
RTVSPropertyOp5
 70
     1
102
RTVSPropertyOp6
 70
     1
102
RTVSPropertyOp7
 70
     1
102
RTVSPropertyOp8
 70
     1
102
RTVSPropertyOp9
 70
     1
102
RTVSPropertyOp10
 70
     1
102
RTVSPropertyOp11
 70
     1
102
RTVSPropertyOp12
 70
     1
102
RTVSPropertyOp13
 70
     1
102
RTVSPropertyOp14
 70
     1
102
RTVSPropertyOp15
 70
     1
102
RTVSPropertyOp16
 70
     1
102
RTVSPropertyOp17
 70
     1
102
RTVSPropertyOp18
 70
     1
102
RTVSPropertyOp19
 70
     1
102
RTVSPropertyOp20
 70
     1
102
RTVSPropertyOp21
 70
     1
102
RTVSPropertyOp22
 70
     1
102
RTVSPropertyOp23
 70
     1
102
RTVSPropertyOp24
 70
     1
102
RTVSPropertyOp25
 70
     1
102
RTVSPropertyOp26
 70
     1
102
RTVSPropertyOp27
 70
     1
  0
XRECORD
  5
659
102
{ACAD_REACTORS
330
658
102
}
330
658
100
AcDbXrecord
280
     1
102
RTVSPropertyOp0
 70
     1
102
RTVSPropertyOp1
 70
     1
102
RTVSPropertyOp2
 70
     1
102
RTVSPropertyOp3
 70
     1
102
RTVSPropertyOp4
 70
     1
102
RTVSPropertyOp5
 70
     1
102
RTVSPropertyOp6
 70
     1
102
RTVSPropertyOp7
 70
     1
102
RTVSPropertyOp8
 70
     1
102
RTVSPropertyOp9
 70
     1
102
RTVSPropertyOp10
 70
     1
102
RTVSPropertyOp11
 70
     1
102
RTVSPropertyOp12
 70
     1
102
RTVSPropertyOp13
 70
     1
102
RTVSPropertyOp14
 70
     1
102
RTVSPropertyOp15
 70
     1
102
RTVSPropertyOp16
 70
     1
102
RTVSPropertyOp17
 70
     1
102
RTVSPropertyOp18
 70
     1
102
RTVSPropertyOp19
 70
     1
102
RTVSPropertyOp20
 70
     1
102
RTVSPropertyOp21
 70
     1
102
RTVSPropertyOp22
 70
     1
102
RTVSPropertyOp23
 70
     1
102
RTVSPropertyOp24
 70
     1
102
RTVSPropertyOp25
 70
     1
102
RTVSPropertyOp26
 70
     1
102
RTVSPropertyOp27
 70
     1
  0
XRECORD
  5
64D
102
{ACAD_REACTORS
330
64C
102
}
330
64C
100
AcDbXrecord
280
     1
102
RTVSPropertyOp0
 70
     1
102
RTVSPropertyOp1
 70
     1
102
RTVSPropertyOp2
 70
     1
102
RTVSPropertyOp3
 70
     1
102
RTVSPropertyOp4
 70
     1
102
RTVSPropertyOp5
 70
     1
102
RTVSPropertyOp6
 70
     1
102
RTVSPropertyOp7
 70
     1
102
RTVSPropertyOp8
 70
     1
102
RTVSPropertyOp9
 70
     1
102
RTVSPropertyOp10
 70
     1
102
RTVSPropertyOp11
 70
     1
102
RTVSPropertyOp12
 70
     1
102
RTVSPropertyOp13
 70
     1
102
RTVSPropertyOp14
 70
     1
102
RTVSPropertyOp15
 70
     1
102
RTVSPropertyOp16
 70
     1
102
RTVSPropertyOp17
 70
     1
102
RTVSPropertyOp18
 70
     1
102
RTVSPropertyOp19
 70
     1
102
RTVSPropertyOp20
 70
     1
102
RTVSPropertyOp21
 70
     1
102
RTVSPropertyOp22
 70
     1
102
RTVSPropertyOp23
 70
     1
102
RTVSPropertyOp24
 70
     1
102
RTVSPropertyOp25
 70
     1
102
RTVSPropertyOp26
 70
     1
102
RTVSPropertyOp27
 70
     1
  0
XRECORD
  5
64F
102
{ACAD_REACTORS
330
64E
102
}
330
64E
100
AcDbXrecord
280
     1
102
RTVSPropertyOp0
 70
     1
102
RTVSPropertyOp1
 70
     1
102
RTVSPropertyOp2
 70
     1
102
RTVSPropertyOp3
 70
     1
102
RTVSPropertyOp4
 70
     1
102
RTVSPropertyOp5
 70
     1
102
RTVSPropertyOp6
 70
     1
102
RTVSPropertyOp7
 70
     1
102
RTVSPropertyOp8
 70
     1
102
RTVSPropertyOp9
 70
     1
102
RTVSPropertyOp10
 70
     1
102
RTVSPropertyOp11
 70
     1
102
RTVSPropertyOp12
 70
     1
102
RTVSPropertyOp13
 70
     1
102
RTVSPropertyOp14
 70
     1
102
RTVSPropertyOp15
 70
     1
102
RTVSPropertyOp16
 70
     1
102
RTVSPropertyOp17
 70
     1
102
RTVSPropertyOp18
 70
     1
102
RTVSPropertyOp19
 70
     1
102
RTVSPropertyOp20
 70
     1
102
RTVSPropertyOp21
 70
     1
102
RTVSPropertyOp22
 70
     1
102
RTVSPropertyOp23
 70
     1
102
RTVSPropertyOp24
 70
     1
102
RTVSPropertyOp25
 70
     1
102
RTVSPropertyOp26
 70
     1
102
RTVSPropertyOp27
 70
     1
  0
XRECORD
  5
657
102
{ACAD_REACTORS
330
656
102
}
330
656
100
AcDbXrecord
280
     1
102
RTVSPropertyOp0
 70
     1
102
RTVSPropertyOp1
 70
     1
102
RTVSPropertyOp2
 70
     1
102
RTVSPropertyOp3
 70
     1
102
RTVSPropertyOp4
 70
     1
102
RTVSPropertyOp5
 70
     1
102
RTVSPropertyOp6
 70
     1
102
RTVSPropertyOp7
 70
     1
102
RTVSPropertyOp8
 70
     1
102
RTVSPropertyOp9
 70
     1
102
RTVSPropertyOp10
 70
     1
102
RTVSPropertyOp11
 70
     1
102
RTVSPropertyOp12
 70
     1
102
RTVSPropertyOp13
 70
     1
102
RTVSPropertyOp14
 70
     1
102
RTVSPropertyOp15
 70
     1
102
RTVSPropertyOp16
 70
     1
102
RTVSPropertyOp17
 70
     1
102
RTVSPropertyOp18
 70
     1
102
RTVSPropertyOp19
 70
     1
102
RTVSPropertyOp20
 70
     1
102
RTVSPropertyOp21
 70
     1
102
RTVSPropertyOp22
 70
     1
102
RTVSPropertyOp23
 70
     1
102
RTVSPropertyOp24
 70
     1
102
RTVSPropertyOp25
 70
     1
102
RTVSPropertyOp26
 70
     1
102
RTVSPropertyOp27
 70
     1
  0
XRECORD
  5
63B
102
{ACAD_REACTORS
330
63A
102
}
330
63A
100
AcDbXrecord
280
     1
102
RTVSPropertyOp0
 70
     1
102
RTVSPropertyOp1
 70
     1
102
RTVSPropertyOp2
 70
     1
102
RTVSPropertyOp3
 70
     1
102
RTVSPropertyOp4
 70
     1
102
RTVSPropertyOp5
 70
     1
102
RTVSPropertyOp6
 70
     1
102
RTVSPropertyOp7
 70
     1
102
RTVSPropertyOp8
 70
     1
102
RTVSPropertyOp9
 70
     1
102
RTVSPropertyOp10
 70
     1
102
RTVSPropertyOp11
 70
     1
102
RTVSPropertyOp12
 70
     1
102
RTVSPropertyOp13
 70
     1
102
RTVSPropertyOp14
 70
     1
102
RTVSPropertyOp15
 70
     1
102
RTVSPropertyOp16
 70
     1
102
RTVSPropertyOp17
 70
     1
102
RTVSPropertyOp18
 70
     1
102
RTVSPropertyOp19
 70
     1
102
RTVSPropertyOp20
 70
     1
102
RTVSPropertyOp21
 70
     1
102
RTVSPropertyOp22
 70
     1
102
RTVSPropertyOp23
 70
     1
102
RTVSPropertyOp24
 70
     1
102
RTVSPropertyOp25
 70
     1
102
RTVSPropertyOp26
 70
     1
102
RTVSPropertyOp27
 70
     1
  0
XRECORD
  5
63D
102
{ACAD_REACTORS
330
63C
102
}
330
63C
100
AcDbXrecord
280
     1
102
RTVSPropertyOp0
 70
     1
102
RTVSPropertyOp1
 70
     1
102
RTVSPropertyOp2
 70
     1
102
RTVSPropertyOp3
 70
     1
102
RTVSPropertyOp4
 70
     1
102
RTVSPropertyOp5
 70
     1
102
RTVSPropertyOp6
 70
     1
102
RTVSPropertyOp7
 70
     1
102
RTVSPropertyOp8
 70
     1
102
RTVSPropertyOp9
 70
     1
102
RTVSPropertyOp10
 70
     1
102
RTVSPropertyOp11
 70
     1
102
RTVSPropertyOp12
 70
     1
102
RTVSPropertyOp13
 70
     1
102
RTVSPropertyOp14
 70
     1
102
RTVSPropertyOp15
 70
     1
102
RTVSPropertyOp16
 70
     1
102
RTVSPropertyOp17
 70
     1
102
RTVSPropertyOp18
 70
     1
102
RTVSPropertyOp19
 70
     1
102
RTVSPropertyOp20
 70
     1
102
RTVSPropertyOp21
 70
     1
102
RTVSPropertyOp22
 70
     1
102
RTVSPropertyOp23
 70
     1
102
RTVSPropertyOp24
 70
     1
102
RTVSPropertyOp25
 70
     1
102
RTVSPropertyOp26
 70
     1
102
RTVSPropertyOp27
 70
     1
  0
XRECORD
  5
63F
102
{ACAD_REACTORS
330
63E
102
}
330
63E
100
AcDbXrecord
280
     1
102
RTVSPropertyOp0
 70
     1
102
RTVSPropertyOp1
 70
     1
102
RTVSPropertyOp2
 70
     1
102
RTVSPropertyOp3
 70
     1
102
RTVSPropertyOp4
 70
     1
102
RTVSPropertyOp5
 70
     1
102
RTVSPropertyOp6
 70
     1
102
RTVSPropertyOp7
 70
     1
102
RTVSPropertyOp8
 70
     1
102
RTVSPropertyOp9
 70
     1
102
RTVSPropertyOp10
 70
     1
102
RTVSPropertyOp11
 70
     1
102
RTVSPropertyOp12
 70
     1
102
RTVSPropertyOp13
 70
     1
102
RTVSPropertyOp14
 70
     1
102
RTVSPropertyOp15
 70
     1
102
RTVSPropertyOp16
 70
     1
102
RTVSPropertyOp17
 70
     1
102
RTVSPropertyOp18
 70
     1
102
RTVSPropertyOp19
 70
     1
102
RTVSPropertyOp20
 70
     1
102
RTVSPropertyOp21
 70
     1
102
RTVSPropertyOp22
 70
     1
102
RTVSPropertyOp23
 70
     1
102
RTVSPropertyOp24
 70
     1
102
RTVSPropertyOp25
 70
     1
102
RTVSPropertyOp26
 70
     1
102
RTVSPropertyOp27
 70
     1
  0
XRECORD
  5
641
102
{ACAD_REACTORS
330
640
102
}
330
640
100
AcDbXrecord
280
     1
102
RTVSPropertyOp0
 70
     1
102
RTVSPropertyOp1
 70
     1
102
RTVSPropertyOp2
 70
     1
102
RTVSPropertyOp3
 70
     1
102
RTVSPropertyOp4
 70
     1
102
RTVSPropertyOp5
 70
     1
102
RTVSPropertyOp6
 70
     1
102
RTVSPropertyOp7
 70
     1
102
RTVSPropertyOp8
 70
     1
102
RTVSPropertyOp9
 70
     1
102
RTVSPropertyOp10
 70
     1
102
RTVSPropertyOp11
 70
     1
102
RTVSPropertyOp12
 70
     1
102
RTVSPropertyOp13
 70
     1
102
RTVSPropertyOp14
 70
     1
102
RTVSPropertyOp15
 70
     1
102
RTVSPropertyOp16
 70
     1
102
RTVSPropertyOp17
 70
     1
102
RTVSPropertyOp18
 70
     1
102
RTVSPropertyOp19
 70
     1
102
RTVSPropertyOp20
 70
     1
102
RTVSPropertyOp21
 70
     1
102
RTVSPropertyOp22
 70
     1
102
RTVSPropertyOp23
 70
     1
102
RTVSPropertyOp24
 70
     1
102
RTVSPropertyOp25
 70
     1
102
RTVSPropertyOp26
 70
     1
102
RTVSPropertyOp27
 70
     1
  0
XRECORD
  5
655
102
{ACAD_REACTORS
330
654
102
}
330
654
100
AcDbXrecord
280
     1
102
RTVSPropertyOp0
 70
     1
102
RTVSPropertyOp1
 70
     1
102
RTVSPropertyOp2
 70
     1
102
RTVSPropertyOp3
 70
     1
102
RTVSPropertyOp4
 70
     1
102
RTVSPropertyOp5
 70
     1
102
RTVSPropertyOp6
 70
     1
102
RTVSPropertyOp7
 70
     1
102
RTVSPropertyOp8
 70
     1
102
RTVSPropertyOp9
 70
     1
102
RTVSPropertyOp10
 70
     1
102
RTVSPropertyOp11
 70
     1
102
RTVSPropertyOp12
 70
     1
102
RTVSPropertyOp13
 70
     1
102
RTVSPropertyOp14
 70
     1
102
RTVSPropertyOp15
 70
     1
102
RTVSPropertyOp16
 70
     1
102
RTVSPropertyOp17
 70
     1
102
RTVSPropertyOp18
 70
     1
102
RTVSPropertyOp19
 70
     1
102
RTVSPropertyOp20
 70
     1
102
RTVSPropertyOp21
 70
     1
102
RTVSPropertyOp22
 70
     1
102
RTVSPropertyOp23
 70
     1
102
RTVSPropertyOp24
 70
     1
102
RTVSPropertyOp25
 70
     1
102
RTVSPropertyOp26
 70
     1
102
RTVSPropertyOp27
 70
     1
  0
XRECORD
  5
64B
102
{ACAD_REACTORS
330
64A
102
}
330
64A
100
AcDbXrecord
280
     1
102
RTVSPropertyOp0
 70
     1
102
RTVSPropertyOp1
 70
     1
102
RTVSPropertyOp2
 70
     1
102
RTVSPropertyOp3
 70
     1
102
RTVSPropertyOp4
 70
     1
102
RTVSPropertyOp5
 70
     1
102
RTVSPropertyOp6
 70
     1
102
RTVSPropertyOp7
 70
     1
102
RTVSPropertyOp8
 70
     1
102
RTVSPropertyOp9
 70
     1
102
RTVSPropertyOp10
 70
     1
102
RTVSPropertyOp11
 70
     1
102
RTVSPropertyOp12
 70
     1
102
RTVSPropertyOp13
 70
     1
102
RTVSPropertyOp14
 70
     1
102
RTVSPropertyOp15
 70
     1
102
RTVSPropertyOp16
 70
     1
102
RTVSPropertyOp17
 70
     1
102
RTVSPropertyOp18
 70
     1
102
RTVSPropertyOp19
 70
     1
102
RTVSPropertyOp20
 70
     1
102
RTVSPropertyOp21
 70
     1
102
RTVSPropertyOp22
 70
     1
102
RTVSPropertyOp23
 70
     1
102
RTVSPropertyOp24
 70
     1
102
RTVSPropertyOp25
 70
     1
102
RTVSPropertyOp26
 70
     1
102
RTVSPropertyOp27
 70
     1
  0
XRECORD
  5
653
102
{ACAD_REACTORS
330
652
102
}
330
652
100
AcDbXrecord
280
     1
102
RTVSPropertyOp0
 70
     1
102
RTVSPropertyOp1
 70
     1
102
RTVSPropertyOp2
 70
     1
102
RTVSPropertyOp3
 70
     1
102
RTVSPropertyOp4
 70
     1
102
RTVSPropertyOp5
 70
     1
102
RTVSPropertyOp6
 70
     1
102
RTVSPropertyOp7
 70
     1
102
RTVSPropertyOp8
 70
     1
102
RTVSPropertyOp9
 70
     1
102
RTVSPropertyOp10
 70
     1
102
RTVSPropertyOp11
 70
     1
102
RTVSPropertyOp12
 70
     1
102
RTVSPropertyOp13
 70
     1
102
RTVSPropertyOp14
 70
     1
102
RTVSPropertyOp15
 70
     1
102
RTVSPropertyOp16
 70
     1
102
RTVSPropertyOp17
 70
     1
102
RTVSPropertyOp18
 70
     1
102
RTVSPropertyOp19
 70
     1
102
RTVSPropertyOp20
 70
     1
102
RTVSPropertyOp21
 70
     1
102
RTVSPropertyOp22
 70
     1
102
RTVSPropertyOp23
 70
     1
102
RTVSPropertyOp24
 70
     1
102
RTVSPropertyOp25
 70
     1
102
RTVSPropertyOp26
 70
     1
102
RTVSPropertyOp27
 70
     1
  0
ENDSEC
  0
EOF
