  0
SECTION
  2
HEADER
  9
$ACADVER
  1
AC1015
  9
$ACADMAINTVER
 70
     6
  9
$DWGCODEPAGE
  3
ANSI_932
  9
$INSBASE
 10
0.0
 20
0.0
 30
0.0
  9
$EXTMIN
 10
0.0
 20
0.0
 30
0.0
  9
$EXTMAX
 10
5040.0
 20
3564.0
 30
0.0
  9
$LIMMIN
 10
0.0
 20
0.0
  9
$LIMMAX
 10
12.0
 20
9.0
  9
$ORTHOMODE
 70
     0
  9
$REGENMODE
 70
     1
  9
$FILLMODE
 70
     1
  9
$QTEXTMODE
 70
     0
  9
$MIRRTEXT
 70
     1
  9
$LTSCALE
 40
12.0
  9
$ATTMODE
 70
     1
  9
$TEXTSIZE
 40
0.2
  9
$TRACEWID
 40
0.05
  9
$TEXTSTYLE
  7
Standard
  9
$CLAYER
  8
0
  9
$CELTYPE
  6
ByLayer
  9
$CECOLOR
 62
   256
  9
$CELTSCALE
 40
1.0
  9
$DISPSILH
 70
     0
  9
$DIMSCALE
 40
1.0
  9
$DIMASZ
 40
0.18
  9
$DIMEXO
 40
0.0625
  9
$DIMDLI
 40
0.38
  9
$DIMRND
 40
0.0
  9
$DIMDLE
 40
0.0
  9
$DIMEXE
 40
0.18
  9
$DIMTP
 40
0.0
  9
$DIMTM
 40
0.0
  9
$DIMTXT
 40
0.18
  9
$DIMCEN
 40
0.09
  9
$DIMTSZ
 40
0.0
  9
$DIMTOL
 70
     0
  9
$DIMLIM
 70
     0
  9
$DIMTIH
 70
     1
  9
$DIMTOH
 70
     1
  9
$DIMSE1
 70
     0
  9
$DIMSE2
 70
     0
  9
$DIMTAD
 70
     0
  9
$DIMZIN
 70
     0
  9
$DIMBLK
  1

  9
$DIMASO
 70
     1
  9
$DIMSHO
 70
     1
  9
$DIMPOST
  1

  9
$DIMAPOST
  1

  9
$DIMALT
 70
     0
  9
$DIMALTD
 70
     2
  9
$DIMALTF
 40
25.4
  9
$DIMLFAC
 40
1.0
  9
$DIMTOFL
 70
     0
  9
$DIMTVP
 40
0.0
  9
$DIMTIX
 70
     0
  9
$DIMSOXD
 70
     0
  9
$DIMSAH
 70
     0
  9
$DIMBLK1
  1

  9
$DIMBLK2
  1

  9
$DIMSTYLE
  2
Standard
  9
$DIMCLRD
 70
     0
  9
$DIMCLRE
 70
     0
  9
$DIMCLRT
 70
     0
  9
$DIMTFAC
 40
1.0
  9
$DIMGAP
 40
0.09
  9
$DIMJUST
 70
     0
  9
$DIMSD1
 70
     0
  9
$DIMSD2
 70
     0
  9
$DIMTOLJ
 70
     1
  9
$DIMTZIN
 70
     0
  9
$DIMALTZ
 70
     0
  9
$DIMALTTZ
 70
     0
  9
$DIMUPT
 70
     0
  9
$DIMDEC
 70
     4
  9
$DIMTDEC
 70
     4
  9
$DIMALTU
 70
     2
  9
$DIMALTTD
 70
     2
  9
$DIMTXSTY
  7
Standard
  9
$DIMAUNIT
 70
     0
  9
$DIMADEC
 70
     0
  9
$DIMALTRND
 40
0.0
  9
$DIMAZIN
 70
     0
  9
$DIMDSEP
 70
    46
  9
$DIMATFIT
 70
     3
  9
$DIMFRAC
 70
     0
  9
$DIMLDRBLK
  1

  9
$DIMLUNIT
 70
     2
  9
$DIMLWD
 70
    -2
  9
$DIMLWE
 70
    -2
  9
$DIMTMOVE
 70
     0
  9
$LUNITS
 70
     2
  9
$LUPREC
 70
     4
  9
$SKETCHINC
 40
0.1
  9
$FILLETRAD
 40
0.5
  9
$AUNITS
 70
     0
  9
$AUPREC
 70
     0
  9
$MENU
  1
.
  9
$ELEVATION
 40
0.0
  9
$PELEVATION
 40
0.0
  9
$THICKNESS
 40
0.0
  9
$LIMCHECK
 70
     0
  9
$CHAMFERA
 40
0.5
  9
$CHAMFERB
 40
0.5
  9
$CHAMFERC
 40
1.0
  9
$CHAMFERD
 40
0.0
  9
$SKPOLY
 70
     0
  9
$TDCREATE
 40
2456819.745980602
  9
$TDUCREATE
 40
2456819.370980602
  9
$TDUPDATE
 40
2456819.745980613
  9
$TDUUPDATE
 40
2456819.370980613
  9
$TDINDWG
 40
0.0000000116
  9
$TDUSRTIMER
 40
0.0000000116
  9
$USRTIMER
 70
     1
  9
$ANGBASE
 50
0.0
  9
$ANGDIR
 70
     0
  9
$PDMODE
 70
     0
  9
$PDSIZE
 40
0.0
  9
$PLINEWID
 40
0.0
  9
$SPLFRAME
 70
     0
  9
$SPLINETYPE
 70
     6
  9
$SPLINESEGS
 70
     8
  9
$HANDSEED
  5
68E
  9
$SURFTAB1
 70
     6
  9
$SURFTAB2
 70
     6
  9
$SURFTYPE
 70
     6
  9
$SURFU
 70
     6
  9
$SURFV
 70
     6
  9
$UCSBASE
  2

  9
$UCSNAME
  2

  9
$UCSORG
 10
0.0
 20
0.0
 30
0.0
  9
$UCSXDIR
 10
1.0
 20
0.0
 30
0.0
  9
$UCSYDIR
 10
0.0
 20
1.0
 30
0.0
  9
$UCSORTHOREF
  2

  9
$UCSORTHOVIEW
 70
     0
  9
$UCSORGTOP
 10
0.0
 20
0.0
 30
0.0
  9
$UCSORGBOTTOM
 10
0.0
 20
0.0
 30
0.0
  9
$UCSORGLEFT
 10
0.0
 20
0.0
 30
0.0
  9
$UCSORGRIGHT
 10
0.0
 20
0.0
 30
0.0
  9
$UCSORGFRONT
 10
0.0
 20
0.0
 30
0.0
  9
$UCSORGBACK
 10
0.0
 20
0.0
 30
0.0
  9
$PUCSBASE
  2

  9
$PUCSNAME
  2

  9
$PUCSORG
 10
0.0
 20
0.0
 30
0.0
  9
$PUCSXDIR
 10
1.0
 20
0.0
 30
0.0
  9
$PUCSYDIR
 10
0.0
 20
1.0
 30
0.0
  9
$PUCSORTHOREF
  2

  9
$PUCSORTHOVIEW
 70
     0
  9
$PUCSORGTOP
 10
0.0
 20
0.0
 30
0.0
  9
$PUCSORGBOTTOM
 10
0.0
 20
0.0
 30
0.0
  9
$PUCSORGLEFT
 10
0.0
 20
0.0
 30
0.0
  9
$PUCSORGRIGHT
 10
0.0
 20
0.0
 30
0.0
  9
$PUCSORGFRONT
 10
0.0
 20
0.0
 30
0.0
  9
$PUCSORGBACK
 10
0.0
 20
0.0
 30
0.0
  9
$USERI1
 70
     0
  9
$USERI2
 70
     0
  9
$USERI3
 70
     0
  9
$USERI4
 70
     0
  9
$USERI5
 70
     0
  9
$USERR1
 40
0.0
  9
$USERR2
 40
0.0
  9
$USERR3
 40
0.0
  9
$USERR4
 40
0.0
  9
$USERR5
 40
0.0
  9
$WORLDVIEW
 70
     1
  9
$SHADEDGE
 70
     3
  9
$SHADEDIF
 70
    70
  9
$TILEMODE
 70
     1
  9
$MAXACTVP
 70
    64
  9
$PINSBASE
 10
0.0
 20
0.0
 30
0.0
  9
$PLIMCHECK
 70
     0
  9
$PEXTMIN
 10
1.000000E+20
 20
1.000000E+20
 30
1.000000E+20
  9
$PEXTMAX
 10
-1.000000E+20
 20
-1.000000E+20
 30
-1.000000E+20
  9
$PLIMMIN
 10
0.0
 20
0.0
  9
$PLIMMAX
 10
12.0
 20
9.0
  9
$UNITMODE
 70
     0
  9
$VISRETAIN
 70
     1
  9
$PLINEGEN
 70
     0
  9
$PSLTSCALE
 70
     1
  9
$TREEDEPTH
 70
  3020
  9
$CMLSTYLE
  2
Standard
  9
$CMLJUST
 70
     0
  9
$CMLSCALE
 40
1.0
  9
$PROXYGRAPHICS
 70
     1
  9
$MEASUREMENT
 70
     0
  9
$CELWEIGHT
370
    -1
  9
$ENDCAPS
280
     0
  9
$JOINSTYLE
280
     0
  9
$LWDISPLAY
290
     0
  9
$INSUNITS
 70
     1
  9
$HYPERLINKBASE
  1

  9
$STYLESHEET
  1

  9
$XEDIT
290
     1
  9
$CEPSNTYPE
380
     0
  9
$PSTYLEMODE
290
     1
  9
$FINGERPRINTGUID
  2
{CEE2A918-7487-41CD-9C4D-E58D5348F58B}
  9
$VERSIONGUID
  2
{FAEB1C32-E019-11D5-929B-00C0DF256EC4}
  9
$EXTNAMES
290
     1
  9
$PSVPSCALE
 40
0.0
  9
$OLESTARTUP
290
     0
  0
ENDSEC
  0
SECTION
  2
CLASSES
  0
CLASS
  1
ACDBDICTIONARYWDFLT
  2
AcDbDictionaryWithDefault
  3
ObjectDBX Classes
 90
        0
280
     0
281
     0
  0
CLASS
  1
VISUALSTYLE
  2
AcDbVisualStyle
  3
ObjectDBX Classes
 90
     4095
280
     0
281
     0
  0
CLASS
  1
SCALE
  2
AcDbScale
  3
ObjectDBX Classes
 90
     1153
280
     0
281
     0
  0
CLASS
  1
DICTIONARYVAR
  2
AcDbDictionaryVar
  3
ObjectDBX Classes
 90
        0
280
     0
281
     0
  0
CLASS
  1
ACDBPLACEHOLDER
  2
AcDbPlaceHolder
  3
ObjectDBX Classes
 90
        0
280
     0
281
     0
  0
CLASS
  1
LAYOUT
  2
AcDbLayout
  3
ObjectDBX Classes
 90
        0
280
     0
281
     0
  0
ENDSEC
  0
SECTION
  2
TABLES
  0
TABLE
  2
VPORT
  5
8
330
0
100
AcDbSymbolTable
 70
     1
  0
VPORT
  5
29
330
8
100
AcDbSymbolTableRecord
100
AcDbViewportTableRecord
  2
*Active
 70
     0
 10
0.0
 20
0.0
 11
1.0
 21
1.0
 12
10.429907
 22
4.5
 13
0.0
 23
0.0
 14
0.5
 24
0.5
 15
0.5
 25
0.5
 16
0.0
 26
0.0
 36
1.0
 17
0.0
 27
0.0
 37
0.0
 40
9.0
 41
1.972973
 42
50.0
 43
0.0
 44
0.0
 50
0.0
 51
0.0
 71
     0
 72
   100
 73
     1
 74
     3
 75
     0
 76
     0
 77
     0
 78
     0
281
     0
 65
     1
110
0.0
120
0.0
130
0.0
111
1.0
121
0.0
131
0.0
112
0.0
122
1.0
132
0.0
 79
     0
146
0.0
  0
ENDTAB
  0
TABLE
  2
LTYPE
  5
5
330
0
100
AcDbSymbolTable
 70
    16
  0
LTYPE
  5
14
330
5
100
AcDbSymbolTableRecord
100
AcDbLinetypeTableRecord
  2
ByBlock
 70
     0
  3

 72
    65
 73
     0
 40
0.0
  0
LTYPE
  5
15
330
5
100
AcDbSymbolTableRecord
100
AcDbLinetypeTableRecord
  2
ByLayer
 70
     0
  3

 72
    65
 73
     0
 40
0.0
  0
LTYPE
  5
16
330
5
100
AcDbSymbolTableRecord
100
AcDbLinetypeTableRecord
  2
Continuous
 70
     0
  3
Solid line
 72
    65
 73
     0
 40
0.0
  0
LTYPE
  5
3B
330
5
100
AcDbSymbolTableRecord
100
AcDbLinetypeTableRecord
  2
PLine1
 70
     0
  3
破線
 72
    65
 73
     2
 40
36.0
 49
25.2
 74
     0
 49
-10.8
 74
     0
  0
LTYPE
  5
3C
330
5
100
AcDbSymbolTableRecord
100
AcDbLinetypeTableRecord
  2
PLine2
 70
     0
  3
一点鎖線
 72
    65
 73
     4
 40
120.0
 49
84.0
 74
     0
 49
-12.0
 74
     0
 49
12.0
 74
     0
 49
-12.0
 74
     0
  0
LTYPE
  5
3D
330
5
100
AcDbSymbolTableRecord
100
AcDbLinetypeTableRecord
  2
PLine3
 70
     0
  3
二点鎖線
 72
    65
 73
     6
 40
120.0
 49
60.0
 74
     0
 49
-12.0
 74
     0
 49
12.0
 74
     0
 49
-12.0
 74
     0
 49
12.0
 74
     0
 49
-12.0
 74
     0
  0
LTYPE
  5
3E
330
5
100
AcDbSymbolTableRecord
100
AcDbLinetypeTableRecord
  2
PLine4
 70
     0
  3
破線1
 72
    65
 73
     2
 40
60.0
 49
42.0
 74
     0
 49
-18.0
 74
     0
  0
LTYPE
  5
3F
330
5
100
AcDbSymbolTableRecord
100
AcDbLinetypeTableRecord
  2
PLine5
 70
     0
  3
一点鎖線1
 72
    65
 73
     4
 40
180.0
 49
126.0
 74
     0
 49
-18.0
 74
     0
 49
18.0
 74
     0
 49
-18.0
 74
     0
  0
LTYPE
  5
40
330
5
100
AcDbSymbolTableRecord
100
AcDbLinetypeTableRecord
  2
PLine6
 70
     0
  3
二点鎖線1
 72
    65
 73
     6
 40
180.0
 49
90.0
 74
     0
 49
-18.0
 74
     0
 49
18.0
 74
     0
 49
-18.0
 74
     0
 49
18.0
 74
     0
 49
-18.0
 74
     0
  0
LTYPE
  5
41
330
5
100
AcDbSymbolTableRecord
100
AcDbLinetypeTableRecord
  2
PLine7
 70
     0
  3
破線2
 72
    65
 73
     2
 40
84.0
 49
58.8
 74
     0
 49
-25.2
 74
     0
  0
LTYPE
  5
42
330
5
100
AcDbSymbolTableRecord
100
AcDbLinetypeTableRecord
  2
PLine8
 70
     0
  3
一点鎖線2
 72
    65
 73
     4
 40
240.0
 49
168.0
 74
     0
 49
-24.0
 74
     0
 49
24.0
 74
     0
 49
-24.0
 74
     0
  0
LTYPE
  5
43
330
5
100
AcDbSymbolTableRecord
100
AcDbLinetypeTableRecord
  2
PLine9
 70
     0
  3
二点鎖線2
 72
    65
 73
     6
 40
240.0
 49
120.0
 74
     0
 49
-24.0
 74
     0
 49
24.0
 74
     0
 49
-24.0
 74
     0
 49
24.0
 74
     0
 49
-24.0
 74
     0
  0
LTYPE
  5
44
330
5
100
AcDbSymbolTableRecord
100
AcDbLinetypeTableRecord
  2
PLine10
 70
     0
  3
破線3
 72
    65
 73
     2
 40
108.0
 49
75.6
 74
     0
 49
-32.4
 74
     0
  0
LTYPE
  5
45
330
5
100
AcDbSymbolTableRecord
100
AcDbLinetypeTableRecord
  2
PLine11
 70
     0
  3
一点鎖線3
 72
    65
 73
     4
 40
300.0
 49
210.0
 74
     0
 49
-30.0
 74
     0
 49
30.0
 74
     0
 49
-30.0
 74
     0
  0
LTYPE
  5
46
330
5
100
AcDbSymbolTableRecord
100
AcDbLinetypeTableRecord
  2
PLine12
 70
     0
  3
二点鎖線3
 72
    65
 73
     6
 40
300.0
 49
150.0
 74
     0
 49
-30.0
 74
     0
 49
30.0
 74
     0
 49
-30.0
 74
     0
 49
30.0
 74
     0
 49
-30.0
 74
     0
  0
LTYPE
  5
47
330
5
100
AcDbSymbolTableRecord
100
AcDbLinetypeTableRecord
  2
PLine13
 70
     0
  3
破線4
 72
    65
 73
     2
 40
132.0
 49
92.4
 74
     0
 49
-39.6
 74
     0
  0
LTYPE
  5
48
330
5
100
AcDbSymbolTableRecord
100
AcDbLinetypeTableRecord
  2
PLine14
 70
     0
  3
一点鎖線4
 72
    65
 73
     4
 40
360.0
 49
252.0
 74
     0
 49
-36.0
 74
     0
 49
36.0
 74
     0
 49
-36.0
 74
     0
  0
LTYPE
  5
49
330
5
100
AcDbSymbolTableRecord
100
AcDbLinetypeTableRecord
  2
PLine15
 70
     0
  3
二点鎖線4
 72
    65
 73
     6
 40
360.0
 49
180.0
 74
     0
 49
-36.0
 74
     0
 49
36.0
 74
     0
 49
-36.0
 74
     0
 49
36.0
 74
     0
 49
-36.0
 74
     0
  0
ENDTAB
  0
TABLE
  2
LAYER
  5
2
330
0
100
AcDbSymbolTable
 70
     2
  0
LAYER
  5
10
330
2
100
AcDbSymbolTableRecord
100
AcDbLayerTableRecord
  2
0
 70
     0
 62
     7
  6
Continuous
370
    -3
390
F
  0
LAYER
  5
4E
330
2
100
AcDbSymbolTableRecord
100
AcDbLayerTableRecord
  2
dxfile
 70
     0
 62
     7
  6
Continuous
370
    -3
390
F
  0
ENDTAB
  0
TABLE
  2
STYLE
  5
3
330
0
100
AcDbSymbolTable
 70
     5
  0
STYLE
  5
11
330
3
100
AcDbSymbolTableRecord
100
AcDbTextStyleTableRecord
  2
Standard
 70
     0
 40
0.0
 41
1.0
 50
0.0
 71
     0
 42
0.2
  3
txt
  4
bigfont
  0
STYLE
  5
4A
330
3
100
AcDbSymbolTableRecord
100
AcDbTextStyleTableRecord
  2
BIGFONT
 70
     0
 40
0.2
 41
1.0
 50
0.0
 71
     0
 42
3.5
  3
monotxt
  4
bigfont
  0
STYLE
  5
4B
330
3
100
AcDbSymbolTableRecord
100
AcDbTextStyleTableRecord
  2
BIG VER
 70
     4
 40
0.2
 41
1.0
 50
0.0
 71
     0
 42
3.5
  3
monotxt
  4
bigfont
  0
STYLE
  5
4C
330
3
100
AcDbSymbolTableRecord
100
AcDbTextStyleTableRecord
  2
EXTFONT
 70
     0
 40
0.2
 41
1.0
 50
0.0
 71
     0
 42
3.5
  3
monotxt
  4
extfont
  0
STYLE
  5
4D
330
3
100
AcDbSymbolTableRecord
100
AcDbTextStyleTableRecord
  2
EXT VER
 70
     4
 40
0.2
 41
1.0
 50
0.0
 71
     0
 42
3.5
  3
monotxt
  4
extfont
  0
ENDTAB
  0
TABLE
  2
VIEW
  5
6
330
0
100
AcDbSymbolTable
 70
     0
  0
ENDTAB
  0
TABLE
  2
UCS
  5
7
330
0
100
AcDbSymbolTable
 70
     0
  0
ENDTAB
  0
TABLE
  2
APPID
  5
9
330
0
100
AcDbSymbolTable
 70
     1
  0
APPID
  5
12
330
9
100
AcDbSymbolTableRecord
100
AcDbRegAppTableRecord
  2
ACAD
 70
     0
  0
ENDTAB
  0
TABLE
  2
DIMSTYLE
  5
A
330
0
100
AcDbSymbolTable
 70
     1
100
AcDbDimStyleTable
  0
DIMSTYLE
105
27
330
A
100
AcDbSymbolTableRecord
100
AcDbDimStyleTableRecord
  2
Standard
 70
     0
340
11
  0
ENDTAB
  0
TABLE
  2
BLOCK_RECORD
  5
1
330
0
100
AcDbSymbolTable
 70
    21
  0
BLOCK_RECORD
  5
1F
330
1
100
AcDbSymbolTableRecord
100
AcDbBlockTableRecord
  2
*Model_Space
340
22
  0
BLOCK_RECORD
  5
1B
330
1
100
AcDbSymbolTableRecord
100
AcDbBlockTableRecord
  2
*Paper_Space
340
1E
  0
BLOCK_RECORD
  5
23
330
1
100
AcDbSymbolTableRecord
100
AcDbBlockTableRecord
  2
*Paper_Space0
340
26
  0
BLOCK_RECORD
  5
1BD
330
1
100
AcDbSymbolTableRecord
100
AcDbBlockTableRecord
  2
DIM_0
340
0
102
{BLKREFS
331
1C6
102
}
  0
BLOCK_RECORD
  5
266
330
1
100
AcDbSymbolTableRecord
100
AcDbBlockTableRecord
  2
DIM_1
340
0
102
{BLKREFS
331
26F
102
}
  0
BLOCK_RECORD
  5
33D
330
1
100
AcDbSymbolTableRecord
100
AcDbBlockTableRecord
  2
DIM_2
340
0
102
{BLKREFS
331
346
102
}
  0
BLOCK_RECORD
  5
347
330
1
100
AcDbSymbolTableRecord
100
AcDbBlockTableRecord
  2
DIM_3
340
0
102
{BLKREFS
331
350
102
}
  0
BLOCK_RECORD
  5
356
330
1
100
AcDbSymbolTableRecord
100
AcDbBlockTableRecord
  2
DIM_4
340
0
102
{BLKREFS
331
35F
102
}
  0
BLOCK_RECORD
  5
36E
330
1
100
AcDbSymbolTableRecord
100
AcDbBlockTableRecord
  2
DIM_5
340
0
102
{BLKREFS
331
377
102
}
  0
BLOCK_RECORD
  5
4E5
330
1
100
AcDbSymbolTableRecord
100
AcDbBlockTableRecord
  2
DIM_6
340
0
102
{BLKREFS
331
4EE
102
}
  0
BLOCK_RECORD
  5
4F3
330
1
100
AcDbSymbolTableRecord
100
AcDbBlockTableRecord
  2
DIM_7
340
0
102
{BLKREFS
331
4FC
102
}
  0
BLOCK_RECORD
  5
4FD
330
1
100
AcDbSymbolTableRecord
100
AcDbBlockTableRecord
  2
DIM_8
340
0
102
{BLKREFS
331
506
102
}
  0
BLOCK_RECORD
  5
52A
330
1
100
AcDbSymbolTableRecord
100
AcDbBlockTableRecord
  2
DIM_9
340
0
102
{BLKREFS
331
530
102
}
  0
BLOCK_RECORD
  5
56A
330
1
100
AcDbSymbolTableRecord
100
AcDbBlockTableRecord
  2
DIM_10
340
0
102
{BLKREFS
331
571
102
}
  0
BLOCK_RECORD
  5
57B
330
1
100
AcDbSymbolTableRecord
100
AcDbBlockTableRecord
  2
DIM_11
340
0
102
{BLKREFS
331
583
102
}
  0
BLOCK_RECORD
  5
58A
330
1
100
AcDbSymbolTableRecord
100
AcDbBlockTableRecord
  2
DIM_12
340
0
102
{BLKREFS
331
593
102
}
  0
BLOCK_RECORD
  5
594
330
1
100
AcDbSymbolTableRecord
100
AcDbBlockTableRecord
  2
DIM_13
340
0
102
{BLKREFS
331
59D
102
}
  0
BLOCK_RECORD
  5
59E
330
1
100
AcDbSymbolTableRecord
100
AcDbBlockTableRecord
  2
DIM_14
340
0
102
{BLKREFS
331
5A6
102
}
  0
BLOCK_RECORD
  5
5A7
330
1
100
AcDbSymbolTableRecord
100
AcDbBlockTableRecord
  2
DIM_15
340
0
102
{BLKREFS
331
5AF
102
}
  0
BLOCK_RECORD
  5
5B0
330
1
100
AcDbSymbolTableRecord
100
AcDbBlockTableRecord
  2
DIM_16
340
0
102
{BLKREFS
331
5B9
102
}
  0
BLOCK_RECORD
  5
60F
330
1
100
AcDbSymbolTableRecord
100
AcDbBlockTableRecord
  2
DIM_17
340
0
102
{BLKREFS
331
618
102
}
  0
BLOCK_RECORD
  5
619
330
1
100
AcDbSymbolTableRecord
100
AcDbBlockTableRecord
  2
DIM_18
340
0
102
{BLKREFS
331
622
102
}
  0
BLOCK_RECORD
  5
62C
330
1
100
AcDbSymbolTableRecord
100
AcDbBlockTableRecord
  2
DIM_19
340
0
102
{BLKREFS
331
635
102
}
  0
ENDTAB
  0
ENDSEC
  0
SECTION
  2
BLOCKS
  0
BLOCK
  5
20
330
1F
100
AcDbEntity
  8
0
100
AcDbBlockBegin
  2
*Model_Space
 70
     0
 10
0.0
 20
0.0
 30
0.0
  3
*Model_Space
  1

  0
ENDBLK
  5
21
330
1F
100
AcDbEntity
  8
0
100
AcDbBlockEnd
  0
BLOCK
  5
1C
330
1B
100
AcDbEntity
 67
     1
  8
0
100
AcDbBlockBegin
  2
*Paper_Space
 70
     0
 10
0.0
 20
0.0
 30
0.0
  3
*Paper_Space
  1

  0
ENDBLK
  5
1D
330
1B
100
AcDbEntity
 67
     1
  8
0
100
AcDbBlockEnd
  0
BLOCK
  5
24
330
23
100
AcDbEntity
  8
0
100
AcDbBlockBegin
  2
*Paper_Space0
 70
     0
 10
0.0
 20
0.0
 30
0.0
  3
*Paper_Space0
  1

  0
ENDBLK
  5
25
330
23
100
AcDbEntity
  8
0
100
AcDbBlockEnd
  0
BLOCK
  5
1BE
330
1BD
100
AcDbEntity
  8
0
100
AcDbBlockBegin
  2
DIM_0
 70
     0
 10
521.687474
 20
847.065057
 30
0.0
  3
DIM_0
  1

  0
CIRCLE
  5
1C0
330
1BD
100
AcDbEntity
  8
dxfile
  6
Continuous
 62
     3
100
AcDbCircle
 10
521.687474
 20
652.846871
 30
0.0
 40
4.800000000000001
  0
CIRCLE
  5
1C1
330
1BD
100
AcDbEntity
  8
dxfile
  6
Continuous
 62
     3
100
AcDbCircle
 10
851.687474
 20
652.846871
 30
0.0
 40
4.800000000000001
  0
LINE
  5
1C2
330
1BD
100
AcDbEntity
  8
dxfile
  6
Continuous
 62
     3
100
AcDbLine
 10
521.687474
 20
652.846871
 30
0.0
 11
851.687474
 21
652.846871
 31
0.0
  0
LINE
  5
1C3
330
1BD
100
AcDbEntity
  8
dxfile
  6
Continuous
 62
     3
100
AcDbLine
 10
521.687474
 20
847.065057
 30
0.0
 11
521.687474
 21
640.846871
 31
0.0
  0
LINE
  5
1C4
330
1BD
100
AcDbEntity
  8
dxfile
  6
Continuous
 62
     3
100
AcDbLine
 10
851.687474
 20
874.135968
 30
0.0
 11
851.687474
 21
640.846871
 31
0.0
  0
TEXT
  5
1C5
330
1BD
100
AcDbEntity
  8
dxfile
  6
Continuous
 62
     3
100
AcDbText
 10
637.533712
 20
658.846856
 30
0.0
 40
36.0
  1
１６５
 41
0.692336
  7
BIGFONT
 72
     1
 11
667.798684
 21
676.846856
 31
0.0
100
AcDbText
 73
     2
  0
ENDBLK
  5
1BF
330
1BD
100
AcDbEntity
  8
0
100
AcDbBlockEnd
  0
BLOCK
  5
267
330
266
100
AcDbEntity
  8
0
100
AcDbBlockBegin
  2
DIM_1
 70
     0
 10
676.754405
 20
1257.335203
 30
0.0
  3
DIM_1
  1

  0
CIRCLE
  5
269
330
266
100
AcDbEntity
  8
dxfile
  6
Continuous
 62
     3
100
AcDbCircle
 10
226.649587
 20
1257.335203
 30
0.0
 40
6.0
  0
CIRCLE
  5
26A
330
266
100
AcDbEntity
  8
dxfile
  6
Continuous
 62
     3
100
AcDbCircle
 10
226.649587
 20
857.335203
 30
0.0
 40
6.0
  0
LINE
  5
26B
330
266
100
AcDbEntity
  8
dxfile
  6
Continuous
 62
     3
100
AcDbLine
 10
226.649587
 20
1257.335203
 30
0.0
 11
226.649587
 21
857.335203
 31
0.0
  0
LINE
  5
26C
330
266
100
AcDbEntity
  8
dxfile
  6
Continuous
 62
     3
100
AcDbLine
 10
676.754405
 20
1257.335203
 30
0.0
 11
214.649587
 21
1257.335203
 31
0.0
  0
LINE
  5
26D
330
266
100
AcDbEntity
  8
dxfile
  6
Continuous
 62
     3
100
AcDbLine
 10
470.029732
 20
857.335203
 30
0.0
 11
214.649587
 21
857.335203
 31
0.0
  0
TEXT
  5
26E
330
266
100
AcDbEntity
  8
dxfile
  6
Continuous
 62
     3
100
AcDbText
 10
220.649586
 20
1019.816643
 30
0.0
 40
36.0
  1
２００
 50
90.000003
 41
0.858268
 51
0.0
  7
BIGFONT
 72
     1
 11
220.649584
 21
1057.335203
 31
0.0
100
AcDbText
  0
ENDBLK
  5
268
330
266
100
AcDbEntity
  8
0
100
AcDbBlockEnd
  0
BLOCK
  5
33E
330
33D
100
AcDbEntity
  8
0
100
AcDbBlockBegin
  2
DIM_2
 70
     0
 10
491.629713
 20
799.052882
 30
0.0
  3
DIM_2
  1

  0
CIRCLE
  5
340
330
33D
100
AcDbEntity
  8
dxfile
  6
Continuous
 62
     3
100
AcDbCircle
 10
491.629713
 20
652.846871
 30
0.0
 40
4.800000000000001
  0
CIRCLE
  5
341
330
33D
100
AcDbEntity
  8
dxfile
  6
Continuous
 62
     3
100
AcDbCircle
 10
521.687474
 20
652.846871
 30
0.0
 40
4.800000000000001
  0
LINE
  5
342
330
33D
100
AcDbEntity
  8
dxfile
  6
Continuous
 62
     3
100
AcDbLine
 10
491.629713
 20
652.846871
 30
0.0
 11
521.687474
 21
652.846871
 31
0.0
  0
LINE
  5
343
330
33D
100
AcDbEntity
  8
dxfile
  6
Continuous
 62
     3
100
AcDbLine
 10
491.629713
 20
799.052882
 30
0.0
 11
491.629713
 21
640.846871
 31
0.0
  0
LINE
  5
344
330
33D
100
AcDbEntity
  8
dxfile
  6
Continuous
 62
     3
100
AcDbLine
 10
521.687474
 20
471.234417
 30
0.0
 11
521.687474
 21
664.846871
 31
0.0
  0
TEXT
  5
345
330
33D
100
AcDbEntity
  8
dxfile
  6
Continuous
 62
     3
100
AcDbText
 10
442.806403
 20
652.070376
 30
0.0
 40
36.0
  1
１５
 41
0.733819
  7
BIGFONT
 72
     1
 11
463.562995
 21
670.070376
 31
0.0
100
AcDbText
 73
     2
  0
ENDBLK
  5
33F
330
33D
100
AcDbEntity
  8
0
100
AcDbBlockEnd
  0
BLOCK
  5
348
330
347
100
AcDbEntity
  8
0
100
AcDbBlockBegin
  2
DIM_3
 70
     0
 10
520.290575
 20
1366.188977
 30
0.0
  3
DIM_3
  1

  0
CIRCLE
  5
34A
330
347
100
AcDbEntity
  8
dxfile
  6
Continuous
 62
     3
100
AcDbCircle
 10
345.622862
 20
1366.188977
 30
0.0
 40
6.0
  0
CIRCLE
  5
34B
330
347
100
AcDbEntity
  8
dxfile
  6
Continuous
 62
     3
100
AcDbCircle
 10
345.622862
 20
1286.188977
 30
0.0
 40
6.0
  0
LINE
  5
34C
330
347
100
AcDbEntity
  8
dxfile
  6
Continuous
 62
     3
100
AcDbLine
 10
345.622862
 20
1366.188977
 30
0.0
 11
345.622862
 21
1286.188977
 31
0.0
  0
LINE
  5
34D
330
347
100
AcDbEntity
  8
dxfile
  6
Continuous
 62
     3
100
AcDbLine
 10
520.290575
 20
1366.188977
 30
0.0
 11
333.622862
 21
1366.188977
 31
0.0
  0
LINE
  5
34E
330
347
100
AcDbEntity
  8
dxfile
  6
Continuous
 62
     3
100
AcDbLine
 10
501.790019
 20
1286.188977
 30
0.0
 11
333.622862
 21
1286.188977
 31
0.0
  0
TEXT
  5
34F
330
347
100
AcDbEntity
  8
dxfile
  6
Continuous
 62
     3
100
AcDbText
 10
339.622865
 20
1301.912262
 30
0.0
 40
36.0
  1
４０
 50
90.000003
 41
0.858268
 51
0.0
  7
BIGFONT
 72
     1
 11
339.622864
 21
1326.188978
 31
0.0
100
AcDbText
  0
ENDBLK
  5
349
330
347
100
AcDbEntity
  8
0
100
AcDbBlockEnd
  0
BLOCK
  5
357
330
356
100
AcDbEntity
  8
0
100
AcDbBlockBegin
  2
DIM_4
 70
     0
 10
831.687474
 20
1404.910775
 30
0.0
  3
DIM_4
  1

  0
CIRCLE
  5
359
330
356
100
AcDbEntity
  8
dxfile
  6
Continuous
 62
     3
100
AcDbCircle
 10
831.687474
 20
1999.803683
 30
0.0
 40
6.0
  0
CIRCLE
  5
35A
330
356
100
AcDbEntity
  8
dxfile
  6
Continuous
 62
     3
100
AcDbCircle
 10
2551.687474
 20
1999.803683
 30
0.0
 40
6.0
  0
LINE
  5
35B
330
356
100
AcDbEntity
  8
dxfile
  6
Continuous
 62
     3
100
AcDbLine
 10
831.687474
 20
1999.803683
 30
0.0
 11
2551.687474
 21
1999.803683
 31
0.0
  0
LINE
  5
35C
330
356
100
AcDbEntity
  8
dxfile
  6
Continuous
 62
     3
100
AcDbLine
 10
831.687474
 20
1404.910775
 30
0.0
 11
831.687474
 21
2011.803683
 31
0.0
  0
LINE
  5
35D
330
356
100
AcDbEntity
  8
dxfile
  6
Continuous
 62
     3
100
AcDbLine
 10
2551.687474
 20
1394.792731
 30
0.0
 11
2551.687474
 21
2011.803683
 31
0.0
  0
TEXT
  5
35E
330
356
100
AcDbEntity
  8
dxfile
  6
Continuous
 62
     3
100
AcDbText
 10
1640.927095
 20
2005.803698
 30
0.0
 40
36.0
  1
硝子寸法
 41
0.858268
  7
BIGFONT
 72
     1
 11
1691.6875
 21
2005.803698
 31
0.0
100
AcDbText
  0
ENDBLK
  5
358
330
356
100
AcDbEntity
  8
0
100
AcDbBlockEnd
  0
BLOCK
  5
36F
330
36E
100
AcDbEntity
  8
0
100
AcDbBlockBegin
  2
DIM_5
 70
     0
 10
2861.687474
 20
850.558515
 30
0.0
  3
DIM_5
  1

  0
CIRCLE
  5
371
330
36E
100
AcDbEntity
  8
dxfile
  6
Continuous
 62
     3
100
AcDbCircle
 10
2861.687474
 20
652.846871
 30
0.0
 40
4.800000000000001
  0
CIRCLE
  5
372
330
36E
100
AcDbEntity
  8
dxfile
  6
Continuous
 62
     3
100
AcDbCircle
 10
2531.687474
 20
652.846871
 30
0.0
 40
4.800000000000001
  0
LINE
  5
373
330
36E
100
AcDbEntity
  8
dxfile
  6
Continuous
 62
     3
100
AcDbLine
 10
2861.687474
 20
652.846871
 30
0.0
 11
2531.687474
 21
652.846871
 31
0.0
  0
LINE
  5
374
330
36E
100
AcDbEntity
  8
dxfile
  6
Continuous
 62
     3
100
AcDbLine
 10
2861.687474
 20
850.558515
 30
0.0
 11
2861.687474
 21
640.846871
 31
0.0
  0
LINE
  5
375
330
36E
100
AcDbEntity
  8
dxfile
  6
Continuous
 62
     3
100
AcDbLine
 10
2531.687474
 20
874.135968
 30
0.0
 11
2531.687474
 21
640.846871
 31
0.0
  0
TEXT
  5
376
330
36E
100
AcDbEntity
  8
dxfile
  6
Continuous
 62
     3
100
AcDbText
 10
2692.538188
 20
658.846862
 30
0.0
 40
36.0
  1
１６５
 41
0.749554
  7
BIGFONT
 72
     1
 11
2725.304397
 21
676.846862
 31
0.0
100
AcDbText
 73
     2
  0
ENDBLK
  5
370
330
36E
100
AcDbEntity
  8
0
100
AcDbBlockEnd
  0
BLOCK
  5
4E6
330
4E5
100
AcDbEntity
  8
0
100
AcDbBlockBegin
  2
DIM_6
 70
     0
 10
2891.745235
 20
799.052882
 30
0.0
  3
DIM_6
  1

  0
CIRCLE
  5
4E8
330
4E5
100
AcDbEntity
  8
dxfile
  6
Continuous
 62
     3
100
AcDbCircle
 10
2891.745235
 20
652.846871
 30
0.0
 40
4.800000000000001
  0
CIRCLE
  5
4E9
330
4E5
100
AcDbEntity
  8
dxfile
  6
Continuous
 62
     3
100
AcDbCircle
 10
2861.687474
 20
652.846871
 30
0.0
 40
4.800000000000001
  0
LINE
  5
4EA
330
4E5
100
AcDbEntity
  8
dxfile
  6
Continuous
 62
     3
100
AcDbLine
 10
2891.745235
 20
652.846871
 30
0.0
 11
2861.687474
 21
652.846871
 31
0.0
  0
LINE
  5
4EB
330
4E5
100
AcDbEntity
  8
dxfile
  6
Continuous
 62
     3
100
AcDbLine
 10
2891.745235
 20
799.052882
 30
0.0
 11
2891.745235
 21
640.846871
 31
0.0
  0
LINE
  5
4EC
330
4E5
100
AcDbEntity
  8
dxfile
  6
Continuous
 62
     3
100
AcDbLine
 10
2861.687474
 20
471.234417
 30
0.0
 11
2861.687474
 21
664.846871
 31
0.0
  0
TEXT
  5
4ED
330
4E5
100
AcDbEntity
  8
dxfile
  6
Continuous
 62
     3
100
AcDbText
 10
2899.055362
 20
652.070376
 30
0.0
 40
36.0
  1
１５
 41
0.733819
  7
BIGFONT
 72
     1
 11
2919.811954
 21
670.070376
 31
0.0
100
AcDbText
 73
     2
  0
ENDBLK
  5
4E7
330
4E5
100
AcDbEntity
  8
0
100
AcDbBlockEnd
  0
BLOCK
  5
4F4
330
4F3
100
AcDbEntity
  8
0
100
AcDbBlockBegin
  2
DIM_7
 70
     0
 10
721.687474
 20
430.221186
 30
0.0
  3
DIM_7
  1

  0
CIRCLE
  5
4F6
330
4F3
100
AcDbEntity
  8
dxfile
  6
Continuous
 62
     3
100
AcDbCircle
 10
721.687474
 20
462.125144
 30
0.0
 40
6.0
  0
CIRCLE
  5
4F7
330
4F3
100
AcDbEntity
  8
dxfile
  6
Continuous
 62
     3
100
AcDbCircle
 10
2661.687474
 20
462.125144
 30
0.0
 40
6.0
  0
LINE
  5
4F8
330
4F3
100
AcDbEntity
  8
dxfile
  6
Continuous
 62
     3
100
AcDbLine
 10
721.687474
 20
462.125144
 30
0.0
 11
2661.687474
 21
462.125144
 31
0.0
  0
LINE
  5
4F9
330
4F3
100
AcDbEntity
  8
dxfile
  6
Continuous
 62
     3
100
AcDbLine
 10
721.687474
 20
430.221186
 30
0.0
 11
721.687474
 21
474.125144
 31
0.0
  0
LINE
  5
4FA
330
4F3
100
AcDbEntity
  8
dxfile
  6
Continuous
 62
     3
100
AcDbLine
 10
2661.687474
 20
434.775643
 30
0.0
 11
2661.687474
 21
474.125144
 31
0.0
  0
TEXT
  5
4FB
330
4F3
100
AcDbEntity
  8
dxfile
  6
Continuous
 62
     3
100
AcDbText
 10
1663.412886
 20
471.622966
 30
0.0
 40
36.0
  1
Ｊ　躯体内径
 41
0.858268
  7
BIGFONT
 72
     1
 11
1740.65698
 21
489.622966
 31
0.0
100
AcDbText
 73
     2
  0
ENDBLK
  5
4F5
330
4F3
100
AcDbEntity
  8
0
100
AcDbBlockEnd
  0
BLOCK
  5
4FE
330
4FD
100
AcDbEntity
  8
0
100
AcDbBlockBegin
  2
DIM_8
 70
     0
 10
721.687474
 20
352.979872
 30
0.0
  3
DIM_8
  1

  0
CIRCLE
  5
500
330
4FD
100
AcDbEntity
  8
dxfile
  6
Continuous
 62
     3
100
AcDbCircle
 10
721.687474
 20
350.64799
 30
0.0
 40
6.0
  0
CIRCLE
  5
501
330
4FD
100
AcDbEntity
  8
dxfile
  6
Continuous
 62
     3
100
AcDbCircle
 10
841.687474
 20
350.64799
 30
0.0
 40
6.0
  0
LINE
  5
502
330
4FD
100
AcDbEntity
  8
dxfile
  6
Continuous
 62
     3
100
AcDbLine
 10
721.687474
 20
350.64799
 30
0.0
 11
841.687474
 21
350.64799
 31
0.0
  0
LINE
  5
503
330
4FD
100
AcDbEntity
  8
dxfile
  6
Continuous
 62
     3
100
AcDbLine
 10
721.687474
 20
352.979872
 30
0.0
 11
721.687474
 21
338.64799
 31
0.0
  0
LINE
  5
504
330
4FD
100
AcDbEntity
  8
dxfile
  6
Continuous
 62
     3
100
AcDbLine
 10
841.687474
 20
356.477694
 30
0.0
 11
841.687474
 21
338.64799
 31
0.0
  0
TEXT
  5
505
330
4FD
100
AcDbEntity
  8
dxfile
  6
Continuous
 62
     3
100
AcDbText
 10
757.410759
 20
356.64799
 30
0.0
 40
36.0
  1
６０
 41
0.858268
 51
0.0
  7
BIGFONT
 72
     1
 11
781.687474
 21
356.64799
 31
0.0
100
AcDbText
  0
ENDBLK
  5
4FF
330
4FD
100
AcDbEntity
  8
0
100
AcDbBlockEnd
  0
BLOCK
  5
52B
330
52A
100
AcDbEntity
  8
0
100
AcDbBlockBegin
  2
DIM_9
 70
     0
 10
0.0
 20
0.0
 30
0.0
  3
DIM_9
  1

  0
CIRCLE
  5
52D
330
52A
100
AcDbEntity
  8
dxfile
  6
Continuous
 62
     3
100
AcDbCircle
 10
4338.732394
 20
2491.003303
 30
0.0
 40
4.800000000000001
  0
LINE
  5
52E
330
52A
100
AcDbEntity
  8
dxfile
  6
Continuous
 62
     3
100
AcDbLine
 10
4338.732394
 20
2491.003303
 30
0.0
 11
4194.232394
 21
2240.721961
 31
0.0
  0
TEXT
  5
52F
330
52A
100
AcDbEntity
  8
dxfile
  6
Continuous
 62
     3
100
AcDbText
 10
4232.357986
 20
2316.75758
 30
0.0
 40
30.0
  1
Ｒ３００ 以上
 50
60.000002
 41
0.662092
  7
BIGFONT
 72
     1
 11
4262.152135
 21
2368.362564
 31
0.0
100
AcDbText
  0
ENDBLK
  5
52C
330
52A
100
AcDbEntity
  8
0
100
AcDbBlockEnd
  0
BLOCK
  5
56B
330
56A
100
AcDbEntity
  8
0
100
AcDbBlockBegin
  2
DIM_10
 70
     0
 10
4078.131481
 20
2247.068741
 30
0.0
  3
DIM_10
  1

  0
CIRCLE
  5
56D
330
56A
100
AcDbEntity
  8
dxfile
  6
Continuous
 62
     3
100
AcDbCircle
 10
3883.116904
 20
2247.068741
 30
0.0
 40
6.0
  0
CIRCLE
  5
56E
330
56A
100
AcDbEntity
  8
dxfile
  6
Continuous
 62
     3
100
AcDbCircle
 10
3883.116904
 20
613.03577
 30
0.0
 40
6.0
  0
LINE
  5
56F
330
56A
100
AcDbEntity
  8
dxfile
  6
Continuous
 62
     3
100
AcDbLine
 10
3883.116904
 20
2247.068741
 30
0.0
 11
3883.116904
 21
613.03577
 31
0.0
  0
TEXT
  5
570
330
56A
100
AcDbEntity
  8
dxfile
  6
Continuous
 62
     3
100
AcDbText
 10
3877.116736
 20
1409.821878
 30
0.0
 40
30.0
  1
ＣＨ
 50
90.000003
 41
0.858268
  7
BIGFONT
 72
     1
 11
3877.116735
 21
1430.052474
 31
0.0
100
AcDbText
  0
ENDBLK
  5
56C
330
56A
100
AcDbEntity
  8
0
100
AcDbBlockEnd
  0
BLOCK
  5
57C
330
57B
100
AcDbEntity
  8
0
100
AcDbBlockBegin
  2
DIM_11
 70
     0
 10
4304.895762
 20
1369.324518
 30
0.0
  3
DIM_11
  1

  0
CIRCLE
  5
57E
330
57B
100
AcDbEntity
  8
dxfile
  6
Continuous
 62
     3
100
AcDbCircle
 10
4004.913091
 20
1369.324518
 30
0.0
 40
6.0
  0
CIRCLE
  5
57F
330
57B
100
AcDbEntity
  8
dxfile
  6
Continuous
 62
     3
100
AcDbCircle
 10
4004.913091
 20
613.03577
 30
0.0
 40
6.0
  0
LINE
  5
580
330
57B
100
AcDbEntity
  8
dxfile
  6
Continuous
 62
     3
100
AcDbLine
 10
4004.913091
 20
1369.324518
 30
0.0
 11
4004.913091
 21
613.03577
 31
0.0
  0
LINE
  5
581
330
57B
100
AcDbEntity
  8
dxfile
  6
Continuous
 62
     3
100
AcDbLine
 10
4304.895762
 20
1369.324518
 30
0.0
 11
3984.913091
 21
1369.324518
 31
0.0
  0
TEXT
  5
582
330
57B
100
AcDbEntity
  8
dxfile
  6
Continuous
 62
     3
100
AcDbText
 10
3998.912995
 20
937.844936
 30
0.0
 40
30.0
  1
約１２００
 50
90.0
 41
0.858268
  7
BIGFONT
 72
     1
 11
3998.912995
 21
991.180144
 31
0.0
100
AcDbText
  0
ENDBLK
  5
57D
330
57B
100
AcDbEntity
  8
0
100
AcDbBlockEnd
  0
BLOCK
  5
58B
330
58A
100
AcDbEntity
  8
0
100
AcDbBlockBegin
  2
DIM_12
 70
     0
 10
4439.003648
 20
1637.824518
 30
0.0
  3
DIM_12
  1

  0
CIRCLE
  5
58D
330
58A
100
AcDbEntity
  8
dxfile
  6
Continuous
 62
     3
100
AcDbCircle
 10
4258.303648
 20
1637.824518
 30
0.0
 40
3.600000000000001
  0
CIRCLE
  5
58E
330
58A
100
AcDbEntity
  8
dxfile
  6
Continuous
 62
     3
100
AcDbCircle
 10
4258.303648
 20
1317.824518
 30
0.0
 40
3.600000000000001
  0
LINE
  5
58F
330
58A
100
AcDbEntity
  8
dxfile
  6
Continuous
 62
     3
100
AcDbLine
 10
4258.303648
 20
1637.824518
 30
0.0
 11
4258.303648
 21
1317.824518
 31
0.0
  0
LINE
  5
590
330
58A
100
AcDbEntity
  8
dxfile
  6
Continuous
 62
     3
100
AcDbLine
 10
4439.003648
 20
1637.824518
 30
0.0
 11
4257.303648
 21
1637.824518
 31
0.0
  0
LINE
  5
591
330
58A
100
AcDbEntity
  8
dxfile
  6
Continuous
 62
     3
100
AcDbLine
 10
4439.003648
 20
1317.824518
 30
0.0
 11
4257.303648
 21
1317.824518
 31
0.0
  0
TEXT
  5
592
330
58A
100
AcDbEntity
  8
dxfile
  6
Continuous
 62
     3
100
AcDbText
 10
4253.916253
 20
1463.060134
 30
0.0
 40
30.0
  1
３２０
 50
90.000003
 41
0.750092
  7
BIGFONT
100
AcDbText
  0
ENDBLK
  5
58C
330
58A
100
AcDbEntity
  8
0
100
AcDbBlockEnd
  0
BLOCK
  5
595
330
594
100
AcDbEntity
  8
0
100
AcDbBlockBegin
  2
DIM_13
 70
     0
 10
4528.634661
 20
1327.824518
 30
0.0
  3
DIM_13
  1

  0
CIRCLE
  5
597
330
594
100
AcDbEntity
  8
dxfile
  6
Continuous
 62
     3
100
AcDbCircle
 10
4642.070971
 20
1327.824518
 30
0.0
 40
3.600000000000001
  0
CIRCLE
  5
598
330
594
100
AcDbEntity
  8
dxfile
  6
Continuous
 62
     3
100
AcDbCircle
 10
4642.070971
 20
1627.824518
 30
0.0
 40
3.600000000000001
  0
LINE
  5
599
330
594
100
AcDbEntity
  8
dxfile
  6
Continuous
 62
     3
100
AcDbLine
 10
4642.070971
 20
1327.824518
 30
0.0
 11
4642.070971
 21
1627.824518
 31
0.0
  0
LINE
  5
59A
330
594
100
AcDbEntity
  8
dxfile
  6
Continuous
 62
     3
100
AcDbLine
 10
4528.634661
 20
1327.824518
 30
0.0
 11
4652.070971
 21
1327.824518
 31
0.0
  0
LINE
  5
59B
330
594
100
AcDbEntity
  8
dxfile
  6
Continuous
 62
     3
100
AcDbLine
 10
4528.634661
 20
1627.824518
 30
0.0
 11
4652.070971
 21
1627.824518
 31
0.0
  0
TEXT
  5
59C
330
594
100
AcDbEntity
  8
dxfile
  6
Continuous
 62
     3
100
AcDbText
 10
4638.980707
 20
1443.626994
 30
0.0
 40
30.0
  1
３００
 50
90.000003
 41
0.750092
  7
BIGFONT
100
AcDbText
  0
ENDBLK
  5
596
330
594
100
AcDbEntity
  8
0
100
AcDbBlockEnd
  0
BLOCK
  5
59F
330
59E
100
AcDbEntity
  8
0
100
AcDbBlockBegin
  2
DIM_14
 70
     0
 10
4447.77658
 20
1306.136738
 30
0.0
  3
DIM_14
  1

  0
CIRCLE
  5
5A1
330
59E
100
AcDbEntity
  8
dxfile
  6
Continuous
 62
     3
100
AcDbCircle
 10
4447.77658
 20
1157.136738
 30
0.0
 40
3.600000000000001
  0
CIRCLE
  5
5A2
330
59E
100
AcDbEntity
  8
dxfile
  6
Continuous
 62
     3
100
AcDbCircle
 10
4452.77658
 20
1157.136738
 30
0.0
 40
3.600000000000001
  0
LINE
  5
5A3
330
59E
100
AcDbEntity
  8
dxfile
  6
Continuous
 62
     3
100
AcDbLine
 10
4447.77658
 20
1157.136738
 30
0.0
 11
4452.77658
 21
1157.136738
 31
0.0
  0
LINE
  5
5A4
330
59E
100
AcDbEntity
  8
dxfile
  6
Continuous
 62
     3
100
AcDbLine
 10
4447.77658
 20
1306.136738
 30
0.0
 11
4447.77658
 21
1156.136738
 31
0.0
  0
TEXT
  5
5A5
330
59E
100
AcDbEntity
  8
dxfile
  6
Continuous
 62
     3
100
AcDbText
 10
4422.353461
 20
1145.062423
 30
0.0
 40
30.0
  1
５
 41
0.858268
  7
BIGFONT
 72
     1
 11
4431.549186
 21
1160.062423
 31
0.0
100
AcDbText
 73
     2
  0
ENDBLK
  5
5A0
330
59E
100
AcDbEntity
  8
0
100
AcDbBlockEnd
  0
BLOCK
  5
5A8
330
5A7
100
AcDbEntity
  8
0
100
AcDbBlockBegin
  2
DIM_15
 70
     0
 10
4522.77658
 20
1316.136738
 30
0.0
  3
DIM_15
  1

  0
CIRCLE
  5
5AA
330
5A7
100
AcDbEntity
  8
dxfile
  6
Continuous
 62
     3
100
AcDbCircle
 10
4522.77658
 20
1157.136738
 30
0.0
 40
3.600000000000001
  0
CIRCLE
  5
5AB
330
5A7
100
AcDbEntity
  8
dxfile
  6
Continuous
 62
     3
100
AcDbCircle
 10
4452.77658
 20
1157.136738
 30
0.0
 40
3.600000000000001
  0
LINE
  5
5AC
330
5A7
100
AcDbEntity
  8
dxfile
  6
Continuous
 62
     3
100
AcDbLine
 10
4522.77658
 20
1157.136738
 30
0.0
 11
4452.77658
 21
1157.136738
 31
0.0
  0
LINE
  5
5AD
330
5A7
100
AcDbEntity
  8
dxfile
  6
Continuous
 62
     3
100
AcDbLine
 10
4522.77658
 20
1316.136738
 30
0.0
 11
4522.77658
 21
1156.136738
 31
0.0
  0
TEXT
  5
5AE
330
5A7
100
AcDbEntity
  8
dxfile
  6
Continuous
 62
     3
100
AcDbText
 10
4470.934485
 20
1162.818974
 30
0.0
 40
30.0
  1
７０
 41
0.777136
  7
BIGFONT
100
AcDbText
  0
ENDBLK
  5
5A9
330
5A7
100
AcDbEntity
  8
0
100
AcDbBlockEnd
  0
BLOCK
  5
5B1
330
5B0
100
AcDbEntity
  8
0
100
AcDbBlockBegin
  2
DIM_16
 70
     0
 10
4710.682684
 20
1311.383428
 30
0.0
  3
DIM_16
  1

  0
CIRCLE
  5
5B3
330
5B0
100
AcDbEntity
  8
dxfile
  6
Continuous
 62
     3
100
AcDbCircle
 10
4710.682684
 20
1167.824518
 30
0.0
 40
3.600000000000001
  0
CIRCLE
  5
5B4
330
5B0
100
AcDbEntity
  8
dxfile
  6
Continuous
 62
     3
100
AcDbCircle
 10
4840.682684
 20
1167.824518
 30
0.0
 40
3.600000000000001
  0
LINE
  5
5B5
330
5B0
100
AcDbEntity
  8
dxfile
  6
Continuous
 62
     3
100
AcDbLine
 10
4710.682684
 20
1167.824518
 30
0.0
 11
4840.682684
 21
1167.824518
 31
0.0
  0
LINE
  5
5B6
330
5B0
100
AcDbEntity
  8
dxfile
  6
Continuous
 62
     3
100
AcDbLine
 10
4710.682684
 20
1311.383428
 30
0.0
 11
4710.682684
 21
1157.824518
 31
0.0
  0
LINE
  5
5B7
330
5B0
100
AcDbEntity
  8
dxfile
  6
Continuous
 62
     3
100
AcDbLine
 10
4840.682684
 20
1311.383428
 30
0.0
 11
4840.682684
 21
1157.824518
 31
0.0
  0
TEXT
  5
5B8
330
5B0
100
AcDbEntity
  8
dxfile
  6
Continuous
 62
     3
100
AcDbText
 10
4738.893738
 20
1169.620114
 30
0.0
 40
30.0
  1
１３０
 41
0.750092
  7
BIGFONT
100
AcDbText
  0
ENDBLK
  5
5B2
330
5B0
100
AcDbEntity
  8
0
100
AcDbBlockEnd
  0
BLOCK
  5
610
330
60F
100
AcDbEntity
  8
0
100
AcDbBlockBegin
  2
DIM_17
 70
     0
 10
4720.682684
 20
1642.513446
 30
0.0
  3
DIM_17
  1

  0
CIRCLE
  5
612
330
60F
100
AcDbEntity
  8
dxfile
  6
Continuous
 62
     3
100
AcDbCircle
 10
4720.682684
 20
1790.977025
 30
0.0
 40
6.0
  0
CIRCLE
  5
613
330
60F
100
AcDbEntity
  8
dxfile
  6
Continuous
 62
     3
100
AcDbCircle
 10
4830.682684
 20
1790.977025
 30
0.0
 40
6.0
  0
LINE
  5
614
330
60F
100
AcDbEntity
  8
dxfile
  6
Continuous
 62
     3
100
AcDbLine
 10
4720.682684
 20
1790.977025
 30
0.0
 11
4830.682684
 21
1790.977025
 31
0.0
  0
LINE
  5
615
330
60F
100
AcDbEntity
  8
dxfile
  6
Continuous
 62
     3
100
AcDbLine
 10
4720.682684
 20
1642.513446
 30
0.0
 11
4720.682684
 21
1800.977025
 31
0.0
  0
LINE
  5
616
330
60F
100
AcDbEntity
  8
dxfile
  6
Continuous
 62
     3
100
AcDbLine
 10
4830.682684
 20
1640.958854
 30
0.0
 11
4830.682684
 21
1800.977025
 31
0.0
  0
TEXT
  5
617
330
60F
100
AcDbEntity
  8
dxfile
  6
Continuous
 62
     3
100
AcDbText
 10
4764.316
 20
1805.30458
 30
0.0
 40
30.0
  1
１１０
 41
0.858268
 51
0.0
  7
BIGFONT
 72
     1
 11
4795.581467
 21
1820.30458
 31
0.0
100
AcDbText
 73
     2
  0
ENDBLK
  5
611
330
60F
100
AcDbEntity
  8
0
100
AcDbBlockEnd
  0
BLOCK
  5
61A
330
619
100
AcDbEntity
  8
0
100
AcDbBlockBegin
  2
DIM_18
 70
     0
 10
4720.682684
 20
1714.024699
 30
0.0
  3
DIM_18
  1

  0
CIRCLE
  5
61C
330
619
100
AcDbEntity
  8
dxfile
  6
Continuous
 62
     3
100
AcDbCircle
 10
4720.682684
 20
1712.470106
 30
0.0
 40
6.0
  0
CIRCLE
  5
61D
330
619
100
AcDbEntity
  8
dxfile
  6
Continuous
 62
     3
100
AcDbCircle
 10
4745.682684
 20
1712.470106
 30
0.0
 40
6.0
  0
LINE
  5
61E
330
619
100
AcDbEntity
  8
dxfile
  6
Continuous
 62
     3
100
AcDbLine
 10
4720.682684
 20
1712.470106
 30
0.0
 11
4745.682684
 21
1712.470106
 31
0.0
  0
LINE
  5
61F
330
619
100
AcDbEntity
  8
dxfile
  6
Continuous
 62
     3
100
AcDbLine
 10
4720.682684
 20
1714.024699
 30
0.0
 11
4720.682684
 21
1702.470106
 31
0.0
  0
LINE
  5
620
330
619
100
AcDbEntity
  8
dxfile
  6
Continuous
 62
     3
100
AcDbLine
 10
4745.682684
 20
1714.024699
 30
0.0
 11
4745.682684
 21
1702.470106
 31
0.0
  0
TEXT
  5
621
330
619
100
AcDbEntity
  8
dxfile
  6
Continuous
 62
     3
100
AcDbText
 10
4672.532686
 20
1702.54602
 30
0.0
 40
30.0
  1
２５
 41
0.858268
 51
0.0
  7
BIGFONT
 72
     1
 11
4692.763282
 21
1717.54602
 31
0.0
100
AcDbText
 73
     2
  0
ENDBLK
  5
61B
330
619
100
AcDbEntity
  8
0
100
AcDbBlockEnd
  0
BLOCK
  5
62D
330
62C
100
AcDbEntity
  8
0
100
AcDbBlockBegin
  2
DIM_19
 70
     0
 10
4494.77658
 20
1750.632198
 30
0.0
  3
DIM_19
  1

  0
CIRCLE
  5
62F
330
62C
100
AcDbEntity
  8
dxfile
  6
Continuous
 62
     3
100
AcDbCircle
 10
4494.77658
 20
1741.926488
 30
0.0
 40
6.0
  0
CIRCLE
  5
630
330
62C
100
AcDbEntity
  8
dxfile
  6
Continuous
 62
     3
100
AcDbCircle
 10
4522.77658
 20
1741.926488
 30
0.0
 40
6.0
  0
LINE
  5
631
330
62C
100
AcDbEntity
  8
dxfile
  6
Continuous
 62
     3
100
AcDbLine
 10
4494.77658
 20
1741.926488
 30
0.0
 11
4522.77658
 21
1741.926488
 31
0.0
  0
LINE
  5
632
330
62C
100
AcDbEntity
  8
dxfile
  6
Continuous
 62
     3
100
AcDbLine
 10
4494.77658
 20
1750.632198
 30
0.0
 11
4494.77658
 21
1731.926488
 31
0.0
  0
LINE
  5
633
330
62C
100
AcDbEntity
  8
dxfile
  6
Continuous
 62
     3
100
AcDbLine
 10
4522.77658
 20
1636.836136
 30
0.0
 11
4522.77658
 21
1751.926488
 31
0.0
  0
TEXT
  5
634
330
62C
100
AcDbEntity
  8
dxfile
  6
Continuous
 62
     3
100
AcDbText
 10
4510.310257
 20
1752.367557
 30
0.0
 40
30.0
  1
２８
 41
0.858268
 51
0.0
  7
BIGFONT
 72
     1
 11
4530.540853
 21
1767.367557
 31
0.0
100
AcDbText
 73
     2
  0
ENDBLK
  5
62E
330
62C
100
AcDbEntity
  8
0
100
AcDbBlockEnd
  0
ENDSEC
  0
SECTION
  2
ENTITIES
  0
LINE
  5
4F
330
1F
100
AcDbEntity
  8
dxfile
  6
PLine2
 62
     3
100
AcDbLine
 10
860.497807
 20
1185.313929
 30
0.0
 11
860.497807
 21
1058.738362
 31
0.0
  0
LINE
  5
50
330
1F
100
AcDbEntity
  8
dxfile
  6
Continuous
 62
     3
100
AcDbLine
 10
860.497807
 20
1058.738362
 30
0.0
 11
860.497807
 21
1049.548366
 31
0.0
  0
LINE
  5
51
330
1F
100
AcDbEntity
  8
dxfile
  6
PLine2
 62
     3
100
AcDbLine
 10
860.497807
 20
1140.57833
 30
0.0
 11
860.497807
 21
1183.110313
 31
0.0
  0
LINE
  5
52
330
1F
100
AcDbEntity
  8
dxfile
  6
PLine2
 62
     3
100
AcDbLine
 10
737.599856
 20
1118.514338
 30
0.0
 11
947.597772
 21
1118.516338
 31
0.0
  0
LINE
  5
53
330
1F
100
AcDbEntity
  8
dxfile
  6
PLine2
 62
     3
100
AcDbLine
 10
790.911834
 20
1136.870331
 30
0.0
 11
790.911834
 21
1161.790321
 31
0.0
  0
LINE
  5
54
330
1F
100
AcDbEntity
  8
dxfile
  6
PLine2
 62
     3
100
AcDbLine
 10
790.941834
 20
1136.114331
 30
0.0
 11
790.941834
 21
1071.634357
 31
0.0
  0
LINE
  5
55
330
1F
100
AcDbEntity
  8
dxfile
  6
Continuous
 62
     3
100
AcDbLine
 10
803.939822
 20
1354.001159
 30
0.0
 11
803.939822
 21
1337.999165
 31
0.0
  0
LINE
  5
56
330
1F
100
AcDbEntity
  8
dxfile
  6
PLine2
 62
     3
100
AcDbLine
 10
773.323842
 20
957.580403
 30
0.0
 11
883.323798
 21
957.580403
 31
0.0
  0
LINE
  5
57
330
1F
100
AcDbEntity
  8
dxfile
  6
Continuous
 62
     3
100
AcDbLine
 10
2607.524008
 20
960.335203
 30
0.0
 11
2607.524008
 21
1051.708232
 31
0.0
  0
LINE
  5
58
330
1F
100
AcDbEntity
  8
dxfile
  6
Continuous
 62
     3
100
AcDbLine
 10
2607.524008
 20
493.990673
 30
0.0
 11
2607.524008
 21
295.599081
 31
0.0
  0
TEXT
  5
59
330
1F
100
AcDbEntity
  8
dxfile
  6
Continuous
 62
     3
100
AcDbText
 10
339.016948
 20
1594.715438
 30
0.0
 40
36.0
  1
Ｈ
 50
90.000003
 41
0.858268
  7
BIGFONT
100
AcDbText
  0
TEXT
  5
7C
330
1F
100
AcDbEntity
  8
dxfile
  6
Continuous
 62
     3
100
AcDbText
 10
1534.588403
 20
2138.380838
 30
0.0
 40
36.0
  1
Ａ
 41
0.858268
  7
BIGFONT
100
AcDbText
  0
TEXT
  5
7D
330
1F
100
AcDbEntity
  8
dxfile
  6
Continuous
 62
     3
100
AcDbText
 10
1643.951356
 20
659.962982
 30
0.0
 40
36.0
  1
Ｓ
 41
0.858268
  7
BIGFONT
100
AcDbText
  0
TEXT
  5
7E
330
1F
100
AcDbEntity
  8
dxfile
  6
Continuous
 62
     3
100
AcDbText
 10
1645.943669
 20
243.329379
 30
0.0
 40
36.0
  1
Ｗ
 41
0.858268
  7
BIGFONT
100
AcDbText
  0
LINE
  5
7F
330
1F
100
AcDbEntity
  8
dxfile
  6
Continuous
 62
     2
100
AcDbLine
 10
257.384743
 20
3326.754858
 30
0.0
 11
257.384743
 21
3123.64207
 31
0.0
  0
TEXT
  5
80
330
1F
100
AcDbEntity
  8
dxfile
  6
Continuous
 62
     3
100
AcDbText
 10
253.403448
 20
3235.624111
 30
0.0
 40
32.639796
  1
　ＬＭ－　６００ＡＬ
 41
0.858268
  7
BIGFONT
100
AcDbText
  0
TEXT
  5
81
330
1F
100
AcDbEntity
  8
dxfile
  6
Continuous
 62
     3
100
AcDbText
 10
283.358788
 20
3184.279782
 30
0.0
 40
32.639796
  1
ＬＭ－　９００ＡＬ
 41
0.858268
  7
BIGFONT
100
AcDbText
  0
TEXT
  5
82
330
1F
100
AcDbEntity
  8
dxfile
  6
Continuous
 62
     3
100
AcDbText
 10
284.117699
 20
3130.790738
 30
0.0
 40
32.639796
  1
ＬＭ－１３００ＡＬ
 41
0.858268
  7
BIGFONT
100
AcDbText
  0
TEXT
  5
83
330
1F
100
AcDbEntity
  8
dxfile
  6
Continuous
 62
     3
100
AcDbText
 10
303.648665
 20
3309.679659
 30
0.0
 40
32.639796
  1
型
 41
0.858268
  7
BIGFONT
100
AcDbText
  0
TEXT
  5
84
330
1F
100
AcDbEntity
  8
dxfile
  6
Continuous
 62
     3
100
AcDbText
 10
491.922161
 20
3309.679659
 30
0.0
 40
32.639796
  1
式
 41
0.858268
  7
BIGFONT
100
AcDbText
  0
TEXT
  5
85
330
1F
100
AcDbEntity
  8
dxfile
  6
Continuous
 62
     3
100
AcDbText
 10
1584.464231
 20
2138.224838
 30
0.0
 40
36.0
  1
ト゛ーム寸法
 41
0.858268
  7
BIGFONT
100
AcDbText
  0
TEXT
  5
86
330
1F
100
AcDbEntity
  8
dxfile
  6
Continuous
 62
     3
100
AcDbText
 10
1709.86438
 20
659.962982
 30
0.0
 40
36.0
  1
有効開口
 41
0.858268
  7
BIGFONT
100
AcDbText
  0
TEXT
  5
87
330
1F
100
AcDbEntity
  8
dxfile
  6
Continuous
 62
     3
100
AcDbText
 10
1704.019781
 20
239.408499
 30
0.0
 40
36.0
  1
ヘ゛ース外径
 41
0.858268
  7
BIGFONT
100
AcDbText
  0
LINE
  5
88
330
1F
100
AcDbEntity
  8
dxfile
  6
Continuous
 62
     2
100
AcDbLine
 10
551.935671
 20
3326.754858
 30
0.0
 11
551.935671
 21
3123.64207
 31
0.0
  0
LINE
  5
89
330
1F
100
AcDbEntity
  8
dxfile
  6
Continuous
 62
     3
100
AcDbLine
 10
701.146167
 20
3326.754858
 30
0.0
 11
701.146167
 21
3123.64207
 31
0.0
  0
LINE
  5
8A
330
1F
100
AcDbEntity
  8
dxfile
  6
Continuous
 62
     3
100
AcDbLine
 10
850.356663
 20
3326.754858
 30
0.0
 11
850.356663
 21
3123.64207
 31
0.0
  0
LINE
  5
8B
330
1F
100
AcDbEntity
  8
dxfile
  6
Continuous
 62
     3
100
AcDbLine
 10
999.567159
 20
3326.754858
 30
0.0
 11
999.567159
 21
3123.64207
 31
0.0
  0
LINE
  5
8C
330
1F
100
AcDbEntity
  8
dxfile
  6
Continuous
 62
     3
100
AcDbLine
 10
1429.664643
 20
3326.754858
 30
0.0
 11
1429.664643
 21
3123.64207
 31
0.0
  0
TEXT
  5
8D
330
1F
100
AcDbEntity
  8
dxfile
  6
Continuous
 62
     3
100
AcDbText
 10
612.832985
 20
3283.994685
 30
0.0
 40
32.639796
  1
Ａ
 41
0.858268
  7
BIGFONT
100
AcDbText
  0
TEXT
  5
8E
330
1F
100
AcDbEntity
  8
dxfile
  6
Continuous
 62
     3
100
AcDbText
 10
762.356534
 20
3282.691378
 30
0.0
 40
32.639796
  1
Ｗ
 41
0.858268
  7
BIGFONT
100
AcDbText
  0
TEXT
  5
8F
330
1F
100
AcDbEntity
  8
dxfile
  6
Continuous
 62
     3
100
AcDbText
 10
912.475461
 20
3283.994685
 30
0.0
 40
32.639796
  1
Ｓ
 41
0.858268
  7
BIGFONT
100
AcDbText
  0
TEXT
  5
90
330
1F
100
AcDbEntity
  8
dxfile
  6
Continuous
 62
     3
100
AcDbText
 10
1274.198101
 20
3284.440936
 30
0.0
 40
32.639796
  1
Ｈ
 41
0.858268
  7
BIGFONT
100
AcDbText
  0
TEXT
  5
91
330
1F
100
AcDbEntity
  8
dxfile
  6
Continuous
 62
     3
100
AcDbText
 10
1593.837607
 20
3309.871618
 30
0.0
 40
32.639796
  1
排煙面積
 41
0.858268
  7
BIGFONT
100
AcDbText
  0
TEXT
  5
92
330
1F
100
AcDbEntity
  8
dxfile
  6
Continuous
 62
     3
100
AcDbText
 10
599.428353
 20
3235.624111
 30
0.0
 40
32.639796
  1
６００
 41
0.858268
  7
BIGFONT
100
AcDbText
  0
TEXT
  5
93
330
1F
100
AcDbEntity
  8
dxfile
  6
Continuous
 62
     3
100
AcDbText
 10
599.633974
 20
3183.531295
 30
0.0
 40
32.639796
  1
９００
 41
0.858268
  7
BIGFONT
100
AcDbText
  0
TEXT
  5
94
330
1F
100
AcDbEntity
  8
dxfile
  6
Continuous
 62
     3
100
AcDbText
 10
572.514882
 20
3132.018908
 30
0.0
 40
32.639796
  1
１３００
 41
0.858268
  7
BIGFONT
100
AcDbText
  0
TEXT
  5
95
330
1F
100
AcDbEntity
  8
dxfile
  6
Continuous
 62
     3
100
AcDbText
 10
748.666313
 20
3232.386822
 30
0.0
 40
32.639796
  1
８７０
 41
0.858268
  7
BIGFONT
100
AcDbText
  0
TEXT
  5
96
330
1F
100
AcDbEntity
  8
dxfile
  6
Continuous
 62
     3
100
AcDbText
 10
722.270556
 20
3182.494506
 30
0.0
 40
32.639796
  1
１１７０
 41
0.858268
  7
BIGFONT
100
AcDbText
  0
TEXT
  5
97
330
1F
100
AcDbEntity
  8
dxfile
  6
Continuous
 62
     3
100
AcDbText
 10
722.205957
 20
3132.203752
 30
0.0
 40
32.639796
  1
１５７０
 41
0.858268
  7
BIGFONT
100
AcDbText
  0
TEXT
  5
98
330
1F
100
AcDbEntity
  8
dxfile
  6
Continuous
 62
     3
100
AcDbText
 10
897.227929
 20
3234.341862
 30
0.0
 40
32.639796
  1
５４０
 41
0.858268
  7
BIGFONT
100
AcDbText
  0
TEXT
  5
99
330
1F
100
AcDbEntity
  8
dxfile
  6
Continuous
 62
     3
100
AcDbText
 10
897.227929
 20
3185.143394
 30
0.0
 40
32.639796
  1
８４０
 41
0.858268
  7
BIGFONT
100
AcDbText
  0
TEXT
  5
9A
330
1F
100
AcDbEntity
  8
dxfile
  6
Continuous
 62
     3
100
AcDbText
 10
871.017735
 20
3131.727631
 30
0.0
 40
32.639796
  1
１２４０
 41
0.858268
  7
BIGFONT
100
AcDbText
  0
TEXT
  5
9B
330
1F
100
AcDbEntity
  8
dxfile
  6
Continuous
 62
     3
100
AcDbText
 10
1183.373132
 20
3233.053774
 30
0.0
 40
32.639796
  1
１８０
 41
0.858268
  7
BIGFONT
100
AcDbText
  0
TEXT
  5
9C
330
1F
100
AcDbEntity
  8
dxfile
  6
Continuous
 62
     3
100
AcDbText
 10
1183.373132
 20
3183.855306
 30
0.0
 40
32.639796
  1
２５０
 41
0.858268
  7
BIGFONT
100
AcDbText
  0
TEXT
  5
9D
330
1F
100
AcDbEntity
  8
dxfile
  6
Continuous
 62
     3
100
AcDbText
 10
1184.088046
 20
3132.407149
 30
0.0
 40
32.639796
  1
３５０
 41
0.858268
  7
BIGFONT
100
AcDbText
  0
TEXT
  5
9E
330
1F
100
AcDbEntity
  8
dxfile
  6
Continuous
 62
     3
100
AcDbText
 10
1620.742005
 20
3234.52941
 30
0.0
 40
32.639796
  1
０．２９
 41
0.858268
  7
BIGFONT
100
AcDbText
  0
TEXT
  5
9F
330
1F
100
AcDbEntity
  8
dxfile
  6
Continuous
 62
     3
100
AcDbText
 10
1620.835346
 20
3184.037306
 30
0.0
 40
32.639796
  1
０．７
 41
0.858268
  7
BIGFONT
100
AcDbText
  0
TEXT
  5
A0
330
1F
100
AcDbEntity
  8
dxfile
  6
Continuous
 62
     3
100
AcDbText
 10
1619.840969
 20
3133.204544
 30
0.0
 40
32.639796
  1
１．５３７
 41
0.858268
  7
BIGFONT
100
AcDbText
  0
LINE
  5
A1
330
1F
100
AcDbEntity
  8
dxfile
  6
Continuous
 62
     2
100
AcDbLine
 10
551.935671
 20
3309.828792
 30
0.0
 11
551.935671
 21
3377.533055
 31
0.0
  0
TEXT
  5
A2
330
1F
100
AcDbEntity
  8
dxfile
  6
Continuous
 62
     3
100
AcDbText
 10
1356.037512
 20
3327.110056
 30
0.0
 40
32.639796
  1
ｍｍ
 41
0.858268
  7
BIGFONT
100
AcDbText
  0
TEXT
  5
A3
330
1F
100
AcDbEntity
  8
dxfile
  6
Continuous
 62
     2
100
AcDbText
 10
270.638726
 20
3391.70959
 30
0.0
 40
39.494153
  1
ＬＭ－ＡＬ型寸法表
 41
0.858268
  7
BIGFONT
100
AcDbText
  0
LINE
  5
A4
330
1F
100
AcDbEntity
  8
dxfile
  6
Continuous
 62
     6
100
AcDbLine
 10
740.613467
 20
1360.188979
 30
0.0
 11
726.565472
 21
1346.140985
 31
0.0
  0
LINE
  5
A5
330
1F
100
AcDbEntity
  8
dxfile
  6
Continuous
 62
     6
100
AcDbLine
 10
741.687474
 20
1351.345311
 30
0.0
 11
736.570616
 21
1346.228452
 31
0.0
  0
LINE
  5
A6
330
1F
100
AcDbEntity
  8
dxfile
  6
Continuous
 62
     6
100
AcDbLine
 10
741.687474
 20
1346.228452
 30
0.0
 11
741.687474
 21
1360.188979
 31
0.0
  0
LINE
  5
A7
330
1F
100
AcDbEntity
  8
dxfile
  6
Continuous
 62
     6
100
AcDbLine
 10
717.292943
 20
1346.228452
 30
0.0
 11
731.25347
 21
1360.188979
 31
0.0
  0
LINE
  5
A8
330
1F
100
AcDbEntity
  8
dxfile
  6
Continuous
 62
     6
100
AcDbLine
 10
737.398
 20
1346.228452
 30
0.0
 11
723.437473
 21
1360.188979
 31
0.0
  0
LINE
  5
A9
330
1F
100
AcDbEntity
  8
dxfile
  6
Continuous
 62
     6
100
AcDbLine
 10
701.687474
 20
1346.228452
 30
0.0
 11
701.687474
 21
1360.188979
 31
0.0
  0
LINE
  5
AA
330
1F
100
AcDbEntity
  8
dxfile
  6
Continuous
 62
     6
100
AcDbLine
 10
701.687474
 20
1353.134974
 30
0.0
 11
708.741479
 21
1360.188979
 31
0.0
  0
LINE
  5
AB
330
1F
100
AcDbEntity
  8
dxfile
  6
Continuous
 62
     6
100
AcDbLine
 10
751.687474
 20
1367.784976
 30
0.0
 11
691.684977
 21
1367.784976
 31
0.0
  0
LINE
  5
AC
330
1F
100
AcDbEntity
  8
dxfile
  6
Continuous
 62
     6
100
AcDbLine
 10
751.687474
 20
1369.489002
 30
0.0
 11
691.686141
 21
1369.487
 31
0.0
  0
LINE
  5
AD
330
1F
100
AcDbEntity
  8
dxfile
  6
Continuous
 62
     6
100
AcDbLine
 10
751.687474
 20
1368.504976
 30
0.0
 11
691.682911
 21
1368.504976
 31
0.0
  0
LINE
  5
AE
330
1F
100
AcDbEntity
  8
dxfile
  6
Continuous
 62
     6
100
AcDbLine
 10
751.687474
 20
1366.848937
 30
0.0
 11
691.684337
 21
1366.848937
 31
0.0
  0
LINE
  5
AF
330
1F
100
AcDbEntity
  8
dxfile
  6
PLine2
 62
     3
100
AcDbLine
 10
721.687474
 20
1335.265085
 30
0.0
 11
721.687474
 21
1406.056961
 31
0.0
  0
LINE
  5
B0
330
1F
100
AcDbEntity
  8
dxfile
  6
Continuous
 62
     3
100
AcDbLine
 10
703.087871
 20
1265.73828
 30
0.0
 11
719.687863
 21
1265.73828
 31
0.0
  0
LINE
  5
B1
330
1F
100
AcDbEntity
  8
dxfile
  6
Continuous
 62
     3
100
AcDbLine
 10
701.029472
 20
1263.73828
 30
0.0
 11
701.029472
 21
1227.738295
 31
0.0
  0
ARC
  5
B2
330
1F
100
AcDbEntity
  8
dxfile
  6
Continuous
 62
     3
100
AcDbCircle
 10
703.029471
 20
1227.738295
 30
0.0
 40
1.999999200113182
100
AcDbArc
 50
180.0
 51
270.0
  0
LINE
  5
B3
330
1F
100
AcDbEntity
  8
dxfile
  6
Continuous
 62
     3
100
AcDbLine
 10
727.68386
 20
1230.145764
 30
0.0
 11
727.68386
 21
1221.410451
 31
0.0
  0
LINE
  5
B4
330
1F
100
AcDbEntity
  8
dxfile
  6
Continuous
 62
     3
100
AcDbLine
 10
721.225862
 20
1241.254289
 30
0.0
 11
717.439864
 21
1236.694291
 31
0.0
  0
LINE
  5
B5
330
1F
100
AcDbEntity
  8
dxfile
  6
Continuous
 62
     3
100
AcDbLine
 10
2611.687106
 20
1279.588455
 30
0.0
 11
2611.687106
 21
1261.738281
 31
0.0
  0
LINE
  5
B6
330
1F
100
AcDbEntity
  8
dxfile
  6
Continuous
 62
     3
100
AcDbLine
 10
2641.673094
 20
1262.484281
 30
0.0
 11
2644.979093
 21
1260.112282
 31
0.0
  0
LINE
  5
B7
330
1F
100
AcDbEntity
  8
dxfile
  6
Continuous
 62
     3
100
AcDbLine
 10
2643.992576
 20
1253.874284
 30
0.0
 11
2655.547089
 21
1253.874284
 31
0.0
  0
ARC
  5
B8
330
1F
100
AcDbEntity
  8
dxfile
  6
Continuous
 62
     3
100
AcDbCircle
 10
2629.334477
 20
1255.337598
 30
0.0
 40
1.46599941684609
100
AcDbArc
 50
268.0466
 51
320.864471
  0
LINE
  5
B9
330
1F
100
AcDbEntity
  8
dxfile
  6
Continuous
 62
     3
100
AcDbLine
 10
727.68386
 20
1269.434278
 30
0.0
 11
727.68386
 21
1286.229282
 31
0.0
  0
LINE
  5
BA
330
1F
100
AcDbEntity
  8
dxfile
  6
Continuous
 62
     3
100
AcDbLine
 10
740.06644
 20
1253.874284
 30
0.0
 11
727.68386
 21
1253.874284
 31
0.0
  0
LINE
  5
BB
330
1F
100
AcDbEntity
  8
dxfile
  6
Continuous
 62
     3
100
AcDbLine
 10
966.467764
 20
1253.874284
 30
0.0
 11
752.92985
 21
1253.874284
 31
0.0
  0
LINE
  5
BC
330
1F
100
AcDbEntity
  8
dxfile
  6
Continuous
 62
     3
100
AcDbLine
 10
1232.977399
 20
1253.874284
 30
0.0
 11
1096.475712
 21
1253.874284
 31
0.0
  0
LINE
  5
BD
330
1F
100
AcDbEntity
  8
dxfile
  6
Continuous
 62
     3
100
AcDbLine
 10
2450.020551
 20
1253.874284
 30
0.0
 11
2605.547109
 21
1253.874284
 31
0.0
  0
LINE
  5
BE
330
1F
100
AcDbEntity
  8
dxfile
  6
Continuous
 62
     3
100
AcDbLine
 10
2428.803242
 20
1253.874284
 30
0.0
 11
1296.687474
 21
1253.874284
 31
0.0
  0
LINE
  5
BF
330
1F
100
AcDbEntity
  8
dxfile
  6
PLine2
 62
     3
100
AcDbLine
 10
2644.469939
 20
1081.071181
 30
0.0
 11
2491.419154
 21
1081.071181
 31
0.0
  0
LINE
  5
C0
330
1F
100
AcDbEntity
  8
dxfile
  6
Continuous
 62
     3
100
AcDbLine
 10
2629.423177
 20
1253.874284
 30
0.0
 11
2607.547108
 21
1253.874284
 31
0.0
  0
ARC
  5
C1
330
1F
100
AcDbEntity
  8
dxfile
  6
Continuous
 62
     3
100
AcDbCircle
 10
2607.547108
 20
1255.874283
 30
0.0
 40
1.999999200205308
100
AcDbArc
 50
180.0
 51
270.0
  0
ARC
  5
C2
330
1F
100
AcDbEntity
  8
dxfile
  6
Continuous
 62
     3
100
AcDbCircle
 10
2613.687105
 20
1261.738281
 30
0.0
 40
1.999999198857189
100
AcDbArc
 50
180.0
 51
270.0
  0
ARC
  5
C3
330
1F
100
AcDbEntity
  8
dxfile
  6
Continuous
 62
     3
100
AcDbCircle
 10
2613.687105
 20
1279.588455
 30
0.0
 40
1.99999919999477
100
AcDbArc
 50
90.0
 51
180.0
  0
LINE
  5
C4
330
1F
100
AcDbEntity
  8
dxfile
  6
Continuous
 62
     3
100
AcDbLine
 10
2613.687105
 20
1281.588454
 30
0.0
 11
2649.687091
 21
1281.588454
 31
0.0
  0
ARC
  5
C5
330
1F
100
AcDbEntity
  8
dxfile
  6
Continuous
 62
     3
100
AcDbCircle
 10
2649.687091
 20
1279.588455
 30
0.0
 40
1.999999199646164
100
AcDbArc
 50
0.0
 51
90.0
  0
ARC
  5
C6
330
1F
100
AcDbEntity
  8
dxfile
  6
Continuous
 62
     3
100
AcDbCircle
 10
2655.547089
 20
1255.874283
 30
0.0
 40
1.999999200229304
100
AcDbArc
 50
270.0
 51
0.0
  0
LINE
  5
C7
330
1F
100
AcDbEntity
  8
dxfile
  6
Continuous
 62
     3
100
AcDbLine
 10
2651.68709
 20
1279.588455
 30
0.0
 11
2651.68709
 21
1261.738281
 31
0.0
  0
ARC
  5
C8
330
1F
100
AcDbEntity
  8
dxfile
  6
Continuous
 62
     3
100
AcDbCircle
 10
2649.687091
 20
1261.738281
 30
0.0
 40
1.999999199399813
100
AcDbArc
 50
270.0
 51
0.0
  0
LINE
  5
C9
330
1F
100
AcDbEntity
  8
dxfile
  6
Continuous
 62
     3
100
AcDbLine
 10
2646.145092
 20
1259.738282
 30
0.0
 11
2649.687091
 21
1259.738282
 31
0.0
  0
ARC
  5
CA
330
1F
100
AcDbEntity
  8
dxfile
  6
Continuous
 62
     3
100
AcDbCircle
 10
2646.145092
 20
1261.738281
 30
0.0
 40
1.999999196695365
100
AcDbArc
 50
234.355804
 51
270.0
  0
LINE
  5
CB
330
1F
100
AcDbEntity
  8
dxfile
  6
Continuous
 62
     3
100
AcDbLine
 10
2613.687105
 20
1259.738282
 30
0.0
 11
2627.0631
 21
1259.738282
 31
0.0
  0
ARC
  5
CC
330
1F
100
AcDbEntity
  8
dxfile
  6
Continuous
 62
     3
100
AcDbCircle
 10
2627.0631
 20
1261.738281
 30
0.0
 40
1.999999198801766
100
AcDbArc
 50
270.0
 51
304.691528
  0
LINE
  5
CD
330
1F
100
AcDbEntity
  8
dxfile
  6
Continuous
 62
     3
100
AcDbLine
 10
2605.547109
 20
1284.228453
 30
0.0
 11
2605.547109
 21
1255.874283
 31
0.0
  0
ARC
  5
CE
330
1F
100
AcDbEntity
  8
dxfile
  6
Continuous
 62
     3
100
AcDbCircle
 10
2607.547108
 20
1284.228453
 30
0.0
 40
1.999999199914341
100
AcDbArc
 50
90.0
 51
180.0
  0
LINE
  5
CF
330
1F
100
AcDbEntity
  8
dxfile
  6
Continuous
 62
     3
100
AcDbLine
 10
2657.547088
 20
1255.874283
 30
0.0
 11
2657.547088
 21
1284.226453
 31
0.0
  0
ARC
  5
D0
330
1F
100
AcDbEntity
  8
dxfile
  6
Continuous
 62
     3
100
AcDbCircle
 10
2655.547089
 20
1284.226453
 30
0.0
 40
1.999999200630484
100
AcDbArc
 50
0.0
 51
90.0
  0
ARC
  5
D1
330
1F
100
AcDbEntity
  8
dxfile
  6
Continuous
 62
     3
100
AcDbCircle
 10
2636.691096
 20
1256.490283
 30
0.0
 40
7.809996875887805
100
AcDbArc
 50
49.288895
 51
130.711105
  0
LINE
  5
D2
330
1F
100
AcDbEntity
  8
dxfile
  6
Continuous
 62
     3
100
AcDbLine
 10
2628.2011
 20
1260.094282
 30
0.0
 11
2631.619098
 21
1262.458281
 31
0.0
  0
ARC
  5
D3
330
1F
100
AcDbEntity
  8
dxfile
  6
Continuous
 62
     3
100
AcDbCircle
 10
2644.23545
 20
1255.859482
 30
0.0
 40
1.999999198710944
100
AcDbArc
 50
220.744156
 51
276.975051
  0
LINE
  5
D4
330
1F
100
AcDbEntity
  8
dxfile
  6
Continuous
 62
     6
100
AcDbLine
 10
822.599289
 20
1346.228452
 30
0.0
 11
830.571819
 21
1354.200982
 31
0.0
  0
LINE
  5
D5
330
1F
100
AcDbEntity
  8
dxfile
  6
Continuous
 62
     6
100
AcDbLine
 10
830.591286
 20
1346.228452
 30
0.0
 11
838.563815
 21
1354.200982
 31
0.0
  0
LINE
  5
D6
330
1F
100
AcDbEntity
  8
dxfile
  6
Continuous
 62
     6
100
AcDbLine
 10
839.015283
 20
1346.228452
 30
0.0
 11
846.987812
 21
1354.200982
 31
0.0
  0
LINE
  5
D7
330
1F
100
AcDbEntity
  8
dxfile
  6
Continuous
 62
     6
100
AcDbLine
 10
847.511279
 20
1346.228452
 30
0.0
 11
855.483809
 21
1354.200982
 31
0.0
  0
LINE
  5
D8
330
1F
100
AcDbEntity
  8
dxfile
  6
Continuous
 62
     6
100
AcDbLine
 10
861.939822
 20
1351.152999
 30
0.0
 11
857.015276
 21
1346.228452
 31
0.0
  0
LINE
  5
D9
330
1F
100
AcDbEntity
  8
dxfile
  6
Continuous
 62
     3
100
AcDbLine
 10
867.729804
 20
1370.228452
 30
0.0
 11
867.729804
 21
1367.828452
 31
0.0
  0
LINE
  5
DA
330
1F
100
AcDbEntity
  8
dxfile
  6
Continuous
 62
     6
100
AcDbLine
 10
717.430008
 20
1346.228452
 30
0.0
 11
703.469481
 21
1360.188979
 31
0.0
  0
LINE
  5
DB
330
1F
100
AcDbEntity
  8
dxfile
  6
Continuous
 62
     6
100
AcDbLine
 10
727.72406
 20
1346.228452
 30
0.0
 11
713.765484
 21
1360.188979
 31
0.0
  0
LINE
  5
DC
330
1F
100
AcDbEntity
  8
dxfile
  6
Continuous
 62
     6
100
AcDbLine
 10
741.687474
 20
1351.922974
 30
0.0
 11
733.429469
 21
1360.180979
 31
0.0
  0
ARC
  5
DD
330
1F
100
AcDbEntity
  8
dxfile
  6
Continuous
 62
     3
100
AcDbCircle
 10
719.687863
 20
1263.73828
 30
0.0
 40
1.999999199903187
100
AcDbArc
 50
0.0
 51
90.0
  0
ARC
  5
DE
330
1F
100
AcDbEntity
  8
dxfile
  6
Continuous
 62
     3
100
AcDbCircle
 10
703.029471
 20
1263.73828
 30
0.0
 40
1.999999199865324
100
AcDbArc
 50
90.0
 51
180.0
  0
ARC
  5
DF
330
1F
100
AcDbEntity
  8
dxfile
  6
Continuous
 62
     3
100
AcDbCircle
 10
696.887473
 20
1269.594278
 30
0.0
 40
1.999999200052047
100
AcDbArc
 50
90.0
 51
180.0
  0
LINE
  5
E0
330
1F
100
AcDbEntity
  8
dxfile
  6
Continuous
 62
     3
100
AcDbLine
 10
696.945873
 20
1271.594277
 30
0.0
 11
725.683861
 21
1271.594277
 31
0.0
  0
ARC
  5
E1
330
1F
100
AcDbEntity
  8
dxfile
  6
Continuous
 62
     3
100
AcDbCircle
 10
725.683861
 20
1269.594278
 30
0.0
 40
1.999999199898846
100
AcDbArc
 50
0.0
 51
90.0
  0
ARC
  5
E2
330
1F
100
AcDbEntity
  8
dxfile
  6
Continuous
 62
     3
100
AcDbCircle
 10
725.683861
 20
1221.410451
 30
0.0
 40
1.999999200095336
100
AcDbArc
 50
270.0
 51
0.0
  0
LINE
  5
E3
330
1F
100
AcDbEntity
  8
dxfile
  6
Continuous
 62
     3
100
AcDbLine
 10
721.687862
 20
1263.73828
 30
0.0
 11
721.687862
 21
1242.532289
 31
0.0
  0
ARC
  5
E4
330
1F
100
AcDbEntity
  8
dxfile
  6
Continuous
 62
     3
100
AcDbCircle
 10
719.687863
 20
1242.532289
 30
0.0
 40
1.999999198260127
100
AcDbArc
 50
320.275146
 51
0.0
  0
LINE
  5
E5
330
1F
100
AcDbEntity
  8
dxfile
  6
Continuous
 62
     3
100
AcDbLine
 10
703.087871
 20
1225.738296
 30
0.0
 11
718.001864
 21
1225.738296
 31
0.0
  0
ARC
  5
E6
330
1F
100
AcDbEntity
  8
dxfile
  6
Continuous
 62
     3
100
AcDbCircle
 10
718.001864
 20
1226.738295
 30
0.0
 40
0.9999996000376948
100
AcDbArc
 50
270.0
 51
38.83852
  0
LINE
  5
E7
330
1F
100
AcDbEntity
  8
dxfile
  6
Continuous
 62
     3
100
AcDbLine
 10
717.385864
 20
1229.096294
 30
0.0
 11
718.781863
 21
1227.366295
 31
0.0
  0
ARC
  5
E8
330
1F
100
AcDbEntity
  8
dxfile
  6
Continuous
 62
     3
100
AcDbCircle
 10
722.055862
 20
1232.862293
 30
0.0
 40
5.999997600052875
100
AcDbArc
 50
140.302032
 51
218.88353
  0
LINE
  5
E9
330
1F
100
AcDbEntity
  8
dxfile
  6
Continuous
 62
     3
100
AcDbLine
 10
727.68386
 20
1269.594278
 30
0.0
 11
727.68386
 21
1240.416537
 31
0.0
  0
ARC
  5
EA
330
1F
100
AcDbEntity
  8
dxfile
  6
Continuous
 62
     3
100
AcDbCircle
 10
727.52386
 20
1230.091764
 30
0.0
 40
0.1659999346440978
100
AcDbArc
 50
22.833655
 51
153.434951
  0
CIRCLE
  5
EB
330
1F
100
AcDbEntity
  8
dxfile
  6
Continuous
 62
     3
100
AcDbCircle
 10
854.164018
 20
1361.518263
 30
0.0
 40
0.7919996832000038
  0
CIRCLE
  5
EC
330
1F
100
AcDbEntity
  8
dxfile
  6
Continuous
 62
     3
100
AcDbCircle
 10
971.255972
 20
1361.206263
 30
0.0
 40
0.7919996832000038
  0
CIRCLE
  5
ED
330
1F
100
AcDbEntity
  8
dxfile
  6
Continuous
 62
     3
100
AcDbCircle
 10
1071.255932
 20
1361.206263
 30
0.0
 40
0.7919996832000038
  0
CIRCLE
  5
EE
330
1F
100
AcDbEntity
  8
dxfile
  6
Continuous
 62
     3
100
AcDbCircle
 10
1171.255892
 20
1361.206263
 30
0.0
 40
0.7919996832000038
  0
CIRCLE
  5
EF
330
1F
100
AcDbEntity
  8
dxfile
  6
Continuous
 62
     3
100
AcDbCircle
 10
1271.255852
 20
1361.206263
 30
0.0
 40
0.7919996832000038
  0
CIRCLE
  5
F0
330
1F
100
AcDbEntity
  8
dxfile
  6
Continuous
 62
     3
100
AcDbCircle
 10
1371.255812
 20
1361.206263
 30
0.0
 40
0.7919996832000038
  0
CIRCLE
  5
F1
330
1F
100
AcDbEntity
  8
dxfile
  6
Continuous
 62
     3
100
AcDbCircle
 10
1471.255772
 20
1361.206263
 30
0.0
 40
0.7919996832000038
  0
CIRCLE
  5
F2
330
1F
100
AcDbEntity
  8
dxfile
  6
Continuous
 62
     3
100
AcDbCircle
 10
1571.253732
 20
1361.206263
 30
0.0
 40
0.7919996832000038
  0
CIRCLE
  5
F3
330
1F
100
AcDbEntity
  8
dxfile
  6
Continuous
 62
     3
100
AcDbCircle
 10
1671.255692
 20
1361.206263
 30
0.0
 40
0.7919996832001743
  0
CIRCLE
  5
F4
330
1F
100
AcDbEntity
  8
dxfile
  6
Continuous
 62
     3
100
AcDbCircle
 10
1771.049729
 20
1361.352954
 30
0.0
 40
0.7919996832001743
  0
CIRCLE
  5
F5
330
1F
100
AcDbEntity
  8
dxfile
  6
Continuous
 62
     3
100
AcDbCircle
 10
1871.049689
 20
1361.352954
 30
0.0
 40
0.7919996832001743
  0
CIRCLE
  5
F6
330
1F
100
AcDbEntity
  8
dxfile
  6
Continuous
 62
     3
100
AcDbCircle
 10
1971.049649
 20
1361.352954
 30
0.0
 40
0.7919996832001743
  0
CIRCLE
  5
F7
330
1F
100
AcDbEntity
  8
dxfile
  6
Continuous
 62
     3
100
AcDbCircle
 10
2071.049609
 20
1361.352954
 30
0.0
 40
0.7919996832001743
  0
CIRCLE
  5
F8
330
1F
100
AcDbEntity
  8
dxfile
  6
Continuous
 62
     3
100
AcDbCircle
 10
2171.049569
 20
1361.352954
 30
0.0
 40
0.7919996832001743
  0
CIRCLE
  5
F9
330
1F
100
AcDbEntity
  8
dxfile
  6
Continuous
 62
     3
100
AcDbCircle
 10
2271.049529
 20
1361.352954
 30
0.0
 40
0.7919996831994922
  0
CIRCLE
  5
FA
330
1F
100
AcDbEntity
  8
dxfile
  6
Continuous
 62
     3
100
AcDbCircle
 10
2371.049489
 20
1361.352954
 30
0.0
 40
0.7919996831994922
  0
CIRCLE
  5
FB
330
1F
100
AcDbEntity
  8
dxfile
  6
Continuous
 62
     3
100
AcDbCircle
 10
2471.313449
 20
1361.220954
 30
0.0
 40
0.7919996831994922
  0
LINE
  5
FC
330
1F
100
AcDbEntity
  8
dxfile
  6
Continuous
 62
     3
100
AcDbLine
 10
825.687474
 20
987.687552
 30
0.0
 11
828.887474
 21
987.687552
 31
0.0
  0
LINE
  5
FD
330
1F
100
AcDbEntity
  8
dxfile
  6
Continuous
 62
     3
100
AcDbLine
 10
828.887474
 20
1014.758379
 30
0.0
 11
828.887474
 21
987.687552
 31
0.0
  0
LINE
  5
FE
330
1F
100
AcDbEntity
  8
dxfile
  6
Continuous
 62
     3
100
AcDbLine
 10
965.179765
 20
1194.990308
 30
0.0
 11
757.887474
 21
1194.990308
 31
0.0
  0
ARC
  5
FF
330
1F
100
AcDbEntity
  8
dxfile
  6
Continuous
 62
     3
100
AcDbCircle
 10
965.179765
 20
1192.990309
 30
0.0
 40
1.999999199999714
100
AcDbArc
 50
0.0
 51
90.0
  0
ARC
  5
100
330
1F
100
AcDbEntity
  8
dxfile
  6
Continuous
 62
     3
100
AcDbCircle
 10
965.579764
 20
1016.358379
 30
0.0
 40
1.599999999941474
100
AcDbArc
 50
270.0
 51
0.0
  0
LINE
  5
101
330
1F
100
AcDbEntity
  8
dxfile
  6
Continuous
 62
     3
100
AcDbLine
 10
828.887474
 20
1014.758379
 30
0.0
 11
965.579764
 21
1014.758379
 31
0.0
  0
LINE
  5
102
330
1F
100
AcDbEntity
  8
dxfile
  6
Continuous
 62
     3
100
AcDbLine
 10
827.287474
 20
1017.958379
 30
0.0
 11
963.979764
 21
1017.958379
 31
0.0
  0
LINE
  5
103
330
1F
100
AcDbEntity
  8
dxfile
  6
Continuous
 62
     3
100
AcDbLine
 10
818.939822
 20
1349.228452
 30
0.0
 11
788.939822
 21
1349.228452
 31
0.0
  0
ARC
  5
104
330
1F
100
AcDbEntity
  8
dxfile
  6
Continuous
 62
     3
100
AcDbCircle
 10
820.539822
 20
1371.628452
 30
0.0
 40
1.59999999992616
100
AcDbArc
 50
90.0
 51
180.0
  0
LINE
  5
105
330
1F
100
AcDbEntity
  8
dxfile
  6
Continuous
 62
     3
100
AcDbLine
 10
818.939822
 20
1349.228452
 30
0.0
 11
818.939822
 21
1371.628452
 31
0.0
  0
LINE
  5
106
330
1F
100
AcDbEntity
  8
dxfile
  6
Continuous
 62
     3
100
AcDbLine
 10
725.687474
 20
1025.718376
 30
0.0
 11
725.687474
 21
927.335203
 31
0.0
  0
ARC
  5
107
330
1F
100
AcDbEntity
  8
dxfile
  6
Continuous
 62
     3
100
AcDbCircle
 10
727.687473
 20
1025.335204
 30
0.0
 40
1.999999199906081
100
AcDbArc
 50
90.0
 51
180.0
  0
ARC
  5
108
330
1F
100
AcDbEntity
  8
dxfile
  6
Continuous
 62
     3
100
AcDbCircle
 10
827.287474
 20
1016.358379
 30
0.0
 40
1.599999999631394
100
AcDbArc
 50
90.0
 51
180.0
  0
LINE
  5
109
330
1F
100
AcDbEntity
  8
dxfile
  6
Continuous
 62
     3
100
AcDbLine
 10
825.687474
 20
1016.358379
 30
0.0
 11
825.687474
 21
895.979201
 31
0.0
  0
LINE
  5
10A
330
1F
100
AcDbEntity
  8
dxfile
  6
Continuous
 62
     3
100
AcDbLine
 10
713.687474
 20
980.316645
 30
0.0
 11
713.687474
 21
936.135203
 31
0.0
  0
ARC
  5
10B
330
1F
100
AcDbEntity
  8
dxfile
  6
Continuous
 62
     3
100
AcDbCircle
 10
493.687474
 20
883.335203
 30
0.0
 40
1.999999999984632
100
AcDbArc
 50
180.0
 51
270.0
  0
LINE
  5
10C
330
1F
100
AcDbEntity
  8
dxfile
  6
Continuous
 62
     3
100
AcDbLine
 10
493.687474
 20
881.335203
 30
0.0
 11
506.453947
 21
881.335203
 31
0.0
  0
ARC
  5
10D
330
1F
100
AcDbEntity
  8
dxfile
  6
Continuous
 62
     3
100
AcDbCircle
 10
506.453947
 20
877.335203
 30
0.0
 40
4.000000000032329
100
AcDbArc
 50
0.0
 51
90.0
  0
LINE
  5
10E
330
1F
100
AcDbEntity
  8
dxfile
  6
Continuous
 62
     3
100
AcDbLine
 10
516.687474
 20
879.322434
 30
0.0
 11
516.687474
 21
863.335203
 31
0.0
  0
ARC
  5
10F
330
1F
100
AcDbEntity
  8
dxfile
  6
Continuous
 62
     3
100
AcDbCircle
 10
717.687474
 20
1175.041014
 30
0.0
 40
4.000000000095585
100
AcDbArc
 50
119.709379
 51
180.0
  0
LINE
  5
110
330
1F
100
AcDbEntity
  8
dxfile
  6
Continuous
 62
     3
100
AcDbLine
 10
713.687474
 20
1175.041014
 30
0.0
 11
713.687474
 21
994.142409
 31
0.0
  0
LINE
  5
111
330
1F
100
AcDbEntity
  8
dxfile
  6
Continuous
 62
     3
100
AcDbLine
 10
736.187474
 20
1034.335203
 30
0.0
 11
719.687474
 21
1034.335203
 31
0.0
  0
ARC
  5
112
330
1F
100
AcDbEntity
  8
dxfile
  6
Continuous
 62
     3
100
AcDbCircle
 10
555.171596
 20
954.741097
 30
0.0
 40
0.8000000002034666
100
AcDbArc
 50
99.211027
 51
195.001399
  0
LINE
  5
113
330
1F
100
AcDbEntity
  8
dxfile
  6
Continuous
 62
     3
100
AcDbLine
 10
561.417603
 20
928.342277
 30
0.0
 11
554.39886
 21
954.534023
 31
0.0
  0
ARC
  5
114
330
1F
100
AcDbEntity
  8
dxfile
  6
Continuous
 62
     3
100
AcDbCircle
 10
552.289613
 20
936.135203
 30
0.0
 40
0.7999999999282135
100
AcDbArc
 50
270.0
 51
15.002741
  0
LINE
  5
115
330
1F
100
AcDbEntity
  8
dxfile
  6
Continuous
 62
     3
100
AcDbLine
 10
529.659014
 20
935.335203
 30
0.0
 11
552.289613
 21
935.335203
 31
0.0
  0
ARC
  5
116
330
1F
100
AcDbEntity
  8
dxfile
  6
Continuous
 62
     3
100
AcDbCircle
 10
560.644868
 20
928.135203
 30
0.0
 40
0.8000000000809506
100
AcDbArc
 50
270.0
 51
15.001399
  0
LINE
  5
117
330
1F
100
AcDbEntity
  8
dxfile
  6
Continuous
 62
     3
100
AcDbLine
 10
529.671014
 20
927.335203
 30
0.0
 11
560.644868
 21
927.335203
 31
0.0
  0
ARC
  5
118
330
1F
100
AcDbEntity
  8
dxfile
  6
Continuous
 62
     3
100
AcDbCircle
 10
712.887474
 20
936.135203
 30
0.0
 40
0.7999999998796967
100
AcDbArc
 50
270.0
 51
0.0
  0
LINE
  5
119
330
1F
100
AcDbEntity
  8
dxfile
  6
Continuous
 62
     3
100
AcDbLine
 10
687.687474
 20
935.335203
 30
0.0
 11
712.887474
 21
935.335203
 31
0.0
  0
LINE
  5
11A
330
1F
100
AcDbEntity
  8
dxfile
  6
Continuous
 62
     3
100
AcDbLine
 10
683.535877
 20
931.311201
 30
0.0
 11
683.535877
 21
931.335201
 31
0.0
  0
ARC
  5
11B
330
1F
100
AcDbEntity
  8
dxfile
  6
Continuous
 62
     3
100
AcDbCircle
 10
718.887474
 20
928.135203
 30
0.0
 40
0.8000000001342475
100
AcDbArc
 50
270.0
 51
0.0
  0
LINE
  5
11C
330
1F
100
AcDbEntity
  8
dxfile
  6
Continuous
 62
     3
100
AcDbLine
 10
687.687474
 20
927.335203
 30
0.0
 11
718.887474
 21
927.335203
 31
0.0
  0
LINE
  5
11D
330
1F
100
AcDbEntity
  8
dxfile
  6
Continuous
 62
     3
100
AcDbLine
 10
553.062344
 20
936.342295
 30
0.0
 11
548.403669
 21
953.72538
 31
0.0
  0
ARC
  5
11E
330
1F
100
AcDbEntity
  8
dxfile
  6
Continuous
 62
     3
100
AcDbCircle
 10
529.683014
 20
931.353201
 30
0.0
 40
3.999998400040969
100
AcDbArc
 50
90.0
 51
180.0
  0
ARC
  5
11F
330
1F
100
AcDbEntity
  8
dxfile
  6
Continuous
 62
     3
100
AcDbCircle
 10
529.683014
 20
931.353201
 30
0.0
 40
3.999998400074912
100
AcDbArc
 50
180.0
 51
270.0
  0
ARC
  5
120
330
1F
100
AcDbEntity
  8
dxfile
  6
Continuous
 62
     3
100
AcDbCircle
 10
511.053947
 20
857.947653
 30
0.0
 40
0.5999999998814036
100
AcDbArc
 50
180.0
 51
273.891385
  0
ARC
  5
121
330
1F
100
AcDbEntity
  8
dxfile
  6
Continuous
 62
     3
100
AcDbCircle
 10
510.687474
 20
863.335203
 30
0.0
 40
6.000000000000773
100
AcDbArc
 50
273.891385
 51
0.0
  0
LINE
  5
122
330
1F
100
AcDbEntity
  8
dxfile
  6
Continuous
 62
     3
100
AcDbLine
 10
505.667949
 20
887.322431
 30
0.0
 11
508.635947
 21
887.322431
 31
0.0
  0
ARC
  5
123
330
1F
100
AcDbEntity
  8
dxfile
  6
Continuous
 62
     3
100
AcDbCircle
 10
492.487474
 20
950.654482
 30
0.0
 40
0.8000000003824043
100
AcDbArc
 50
99.211027
 51
180.0
  0
LINE
  5
124
330
1F
100
AcDbEntity
  8
dxfile
  6
Continuous
 62
     3
100
AcDbLine
 10
491.687474
 20
950.654482
 30
0.0
 11
491.687474
 21
927.935203
 31
0.0
  0
ARC
  5
125
330
1F
100
AcDbEntity
  8
dxfile
  6
Continuous
 62
     3
100
AcDbCircle
 10
705.687474
 20
994.142409
 30
0.0
 40
7.999999999994195
100
AcDbArc
 50
279.211027
 51
0.0
  0
LINE
  5
126
330
1F
100
AcDbEntity
  8
dxfile
  6
Continuous
 62
     3
100
AcDbLine
 10
706.968043
 20
986.245565
 30
0.0
 11
492.359417
 21
951.444167
 31
0.0
  0
ARC
  5
127
330
1F
100
AcDbEntity
  8
dxfile
  6
Continuous
 62
     3
100
AcDbCircle
 10
508.635947
 20
879.322434
 30
0.0
 40
7.999996799994332
100
AcDbArc
 50
0.0
 51
90.0
  0
ARC
  5
128
330
1F
100
AcDbEntity
  8
dxfile
  6
Continuous
 62
     3
100
AcDbCircle
 10
505.667949
 20
895.322428
 30
0.0
 40
7.99999680002894
100
AcDbArc
 50
180.0
 51
270.0
  0
LINE
  5
129
330
1F
100
AcDbEntity
  8
dxfile
  6
Continuous
 62
     3
100
AcDbLine
 10
492.287474
 20
927.335203
 30
0.0
 11
491.687474
 21
927.935203
 31
0.0
  0
LINE
  5
12A
330
1F
100
AcDbEntity
  8
dxfile
  6
Continuous
 62
     3
100
AcDbLine
 10
492.287474
 20
927.335203
 30
0.0
 11
491.687474
 21
926.735203
 31
0.0
  0
LINE
  5
12B
330
1F
100
AcDbEntity
  8
dxfile
  6
Continuous
 62
     3
100
AcDbLine
 10
491.687474
 20
883.335203
 30
0.0
 11
491.687474
 21
926.735203
 31
0.0
  0
LINE
  5
12C
330
1F
100
AcDbEntity
  8
dxfile
  6
Continuous
 62
     3
100
AcDbLine
 10
748.687474
 20
1197.335203
 30
0.0
 11
715.705071
 21
1178.515216
 31
0.0
  0
ARC
  5
12D
330
1F
100
AcDbEntity
  8
dxfile
  6
Continuous
 62
     3
100
AcDbCircle
 10
823.687474
 20
1025.335203
 30
0.0
 40
1.999999999930701
100
AcDbArc
 50
0.0
 51
90.0
  0
LINE
  5
12E
330
1F
100
AcDbEntity
  8
dxfile
  6
Continuous
 62
     3
100
AcDbLine
 10
825.687474
 20
1016.063541
 30
0.0
 11
825.687474
 21
1025.335203
 31
0.0
  0
LINE
  5
12F
330
1F
100
AcDbEntity
  8
dxfile
  6
Continuous
 62
     3
100
AcDbLine
 10
847.151476
 20
921.379191
 30
0.0
 11
851.697474
 21
921.379191
 31
0.0
  0
LINE
  5
130
330
1F
100
AcDbEntity
  8
dxfile
  6
Continuous
 62
     3
100
AcDbLine
 10
847.067476
 20
895.979201
 30
0.0
 11
825.687474
 21
895.979201
 31
0.0
  0
LINE
  5
131
330
1F
100
AcDbEntity
  8
dxfile
  6
Continuous
 62
     3
100
AcDbLine
 10
730.287472
 20
924.735203
 30
0.0
 11
730.287472
 21
1022.735203
 31
0.0
  0
LINE
  5
132
330
1F
100
AcDbEntity
  8
dxfile
  6
Continuous
 62
     3
100
AcDbLine
 10
521.687474
 20
857.335203
 30
0.0
 11
526.287474
 21
857.335203
 31
0.0
  0
ARC
  5
133
330
1F
100
AcDbEntity
  8
dxfile
  6
Continuous
 62
     3
100
AcDbCircle
 10
744.687474
 20
1243.956703
 30
0.0
 40
3.999999999980469
100
AcDbArc
 50
0.0
 51
138.923433
  0
LINE
  5
134
330
1F
100
AcDbEntity
  8
dxfile
  6
Continuous
 62
     3
100
AcDbLine
 10
748.687474
 20
1197.335203
 30
0.0
 11
748.687474
 21
1243.956703
 31
0.0
  0
LINE
  5
135
330
1F
100
AcDbEntity
  8
dxfile
  6
Continuous
 62
     3
100
AcDbLine
 10
754.687474
 20
1250.017471
 30
0.0
 11
754.687474
 21
1193.390308
 31
0.0
  0
ARC
  5
136
330
1F
100
AcDbEntity
  8
dxfile
  6
Continuous
 62
     3
100
AcDbCircle
 10
725.683861
 20
1240.416537
 30
0.0
 40
1.999999198666978
100
AcDbArc
 50
317.32153
 51
0.0
  0
LINE
  5
137
330
1F
100
AcDbEntity
  8
dxfile
  6
Continuous
 62
     3
100
AcDbLine
 10
719.687474
 20
928.135203
 30
0.0
 11
719.687474
 21
1027.335203
 31
0.0
  0
LINE
  5
138
330
1F
100
AcDbEntity
  8
dxfile
  6
Continuous
 62
     3
100
AcDbLine
 10
821.087474
 20
893.335203
 30
0.0
 11
821.087474
 21
1022.735203
 31
0.0
  0
LINE
  5
139
330
1F
100
AcDbEntity
  8
dxfile
  6
Continuous
 62
     3
100
AcDbLine
 10
730.287472
 20
1022.735203
 30
0.0
 11
821.087474
 21
1022.735203
 31
0.0
  0
LINE
  5
13A
330
1F
100
AcDbEntity
  8
dxfile
  6
Continuous
 62
     3
100
AcDbLine
 10
825.629474
 20
1025.600368
 30
0.0
 11
825.629474
 21
1024.864368
 31
0.0
  0
LINE
  5
13B
330
1F
100
AcDbEntity
  8
dxfile
  6
Continuous
 62
     3
100
AcDbLine
 10
736.187474
 20
1027.335203
 30
0.0
 11
719.687474
 21
1027.335203
 31
0.0
  0
LINE
  5
13C
330
1F
100
AcDbEntity
  8
dxfile
  6
Continuous
 62
     3
100
AcDbLine
 10
823.687474
 20
1027.335203
 30
0.0
 11
2560.031915
 21
1027.335203
 31
0.0
  0
LINE
  5
13D
330
1F
100
AcDbEntity
  8
dxfile
  6
Continuous
 62
     3
100
AcDbLine
 10
883.758451
 20
921.335203
 30
0.0
 11
852.063474
 21
921.335203
 31
0.0
  0
LINE
  5
13E
330
1F
100
AcDbEntity
  8
dxfile
  6
Continuous
 62
     3
100
AcDbLine
 10
917.12038
 20
891.335203
 30
0.0
 11
2534.653439
 21
891.335203
 31
0.0
  0
LINE
  5
13F
330
1F
100
AcDbEntity
  8
dxfile
  6
Continuous
 62
     3
100
AcDbLine
 10
691.686859
 20
1370.536974
 30
0.0
 11
691.688911
 21
1373.536974
 31
0.0
  0
LINE
  5
140
330
1F
100
AcDbEntity
  8
dxfile
  6
Continuous
 62
     3
100
AcDbLine
 10
738.304979
 20
1380.024971
 30
0.0
 11
705.06997
 21
1380.024971
 31
0.0
  0
LINE
  5
141
330
1F
100
AcDbEntity
  8
dxfile
  6
Continuous
 62
     3
100
AcDbLine
 10
757.887474
 20
1244.638288
 30
0.0
 11
757.887474
 21
1194.990308
 31
0.0
  0
LINE
  5
142
330
1F
100
AcDbEntity
  8
dxfile
  6
Continuous
 62
     3
100
AcDbLine
 10
754.687474
 20
1244.638288
 30
0.0
 11
757.887474
 21
1244.638288
 31
0.0
  0
LINE
  5
143
330
1F
100
AcDbEntity
  8
dxfile
  6
Continuous
 62
     3
100
AcDbLine
 10
963.979764
 20
1191.790308
 30
0.0
 11
963.979764
 21
1017.958379
 31
0.0
  0
ARC
  5
144
330
1F
100
AcDbEntity
  8
dxfile
  6
Continuous
 62
     3
100
AcDbCircle
 10
756.287474
 20
1193.390308
 30
0.0
 40
1.599999999651773
100
AcDbArc
 50
180.0
 51
270.0
  0
LINE
  5
145
330
1F
100
AcDbEntity
  8
dxfile
  6
Continuous
 62
     3
100
AcDbLine
 10
756.287474
 20
1191.790308
 30
0.0
 11
963.979764
 21
1191.790308
 31
0.0
  0
LINE
  5
146
330
1F
100
AcDbEntity
  8
dxfile
  6
Continuous
 62
     3
100
AcDbLine
 10
967.179764
 20
1192.990309
 30
0.0
 11
967.179764
 21
1016.358379
 31
0.0
  0
ARC
  5
147
330
1F
100
AcDbEntity
  8
dxfile
  6
Continuous
 62
     3
100
AcDbCircle
 10
939.791775
 20
1158.516322
 30
0.0
 40
9.999996000045597
100
AcDbArc
 50
0.0
 51
90.0
  0
ARC
  5
148
330
1F
100
AcDbEntity
  8
dxfile
  6
Continuous
 62
     3
100
AcDbCircle
 10
847.247816
 20
957.240401
 30
0.0
 40
22.73598681301362
100
AcDbArc
 50
333.439453
 51
333.563416
  0
ARC
  5
149
330
1F
100
AcDbEntity
  8
dxfile
  6
Continuous
 62
     3
100
AcDbCircle
 10
862.891805
 20
973.272398
 30
0.0
 40
7.047998727446407
100
AcDbArc
 50
303.672028
 51
304.068878
  0
LINE
  5
14A
330
1F
100
AcDbEntity
  8
dxfile
  6
Continuous
 62
     3
100
AcDbLine
 10
847.249812
 20
979.136394
 30
0.0
 11
866.413804
 21
979.136394
 31
0.0
  0
LINE
  5
14B
330
1F
100
AcDbEntity
  8
dxfile
  6
Continuous
 62
     3
100
AcDbLine
 10
846.469812
 20
968.188399
 30
0.0
 11
865.237805
 21
968.188399
 31
0.0
  0
LINE
  5
14C
330
1F
100
AcDbEntity
  8
dxfile
  6
Continuous
 62
     3
100
AcDbLine
 10
865.237805
 20
968.188399
 30
0.0
 11
866.413804
 21
968.188399
 31
0.0
  0
LINE
  5
14D
330
1F
100
AcDbEntity
  8
dxfile
  6
Continuous
 62
     3
100
AcDbLine
 10
867.573804
 20
968.188399
 30
0.0
 11
867.581804
 21
968.188399
 31
0.0
  0
LINE
  5
14E
330
1F
100
AcDbEntity
  8
dxfile
  6
Continuous
 62
     3
100
AcDbLine
 10
846.467812
 20
947.074407
 30
0.0
 11
866.413804
 21
947.074407
 31
0.0
  0
LINE
  5
14F
330
1F
100
AcDbEntity
  8
dxfile
  6
Continuous
 62
     3
100
AcDbLine
 10
787.037836
 20
968.188399
 30
0.0
 11
846.469812
 21
968.188399
 31
0.0
  0
LINE
  5
150
330
1F
100
AcDbEntity
  8
dxfile
  6
Continuous
 62
     3
100
AcDbLine
 10
949.791771
 20
1158.516322
 30
0.0
 11
949.791771
 21
1027.726375
 31
0.0
  0
CIRCLE
  5
151
330
1F
100
AcDbEntity
  8
dxfile
  6
Continuous
 62
     3
100
AcDbCircle
 10
860.369807
 20
1118.258339
 30
0.0
 40
59.99997600000006
  0
ARC
  5
152
330
1F
100
AcDbEntity
  8
dxfile
  6
Continuous
 62
     3
100
AcDbCircle
 10
863.279805
 20
942.380409
 30
0.0
 40
5.865997851095661
100
AcDbArc
 50
306.90506
 51
308.299835
  0
LINE
  5
153
330
1F
100
AcDbEntity
  8
dxfile
  6
Continuous
 62
     3
100
AcDbLine
 10
846.467812
 20
947.074407
 30
0.0
 11
786.255836
 21
947.074407
 31
0.0
  0
LINE
  5
154
330
1F
100
AcDbEntity
  8
dxfile
  6
Continuous
 62
     3
100
AcDbLine
 10
847.279812
 20
937.690411
 30
0.0
 11
866.019804
 21
937.688411
 31
0.0
  0
LINE
  5
155
330
1F
100
AcDbEntity
  8
dxfile
  6
Continuous
 62
     3
100
AcDbLine
 10
847.279812
 20
979.102394
 30
0.0
 11
847.279812
 21
937.612411
 31
0.0
  0
ARC
  5
156
330
1F
100
AcDbEntity
  8
dxfile
  6
Continuous
 62
     3
100
AcDbCircle
 10
864.627805
 20
973.612396
 30
0.0
 40
5.783997686420093
100
AcDbArc
 50
288.359772
 51
71.640228
  0
CIRCLE
  5
157
330
1F
100
AcDbEntity
  8
dxfile
  6
Continuous
 62
     3
100
AcDbCircle
 10
790.929834
 20
1118.258339
 30
0.0
 40
19.00999239600003
  0
ARC
  5
158
330
1F
100
AcDbEntity
  8
dxfile
  6
Continuous
 62
     3
100
AcDbCircle
 10
728.287472
 20
924.735203
 30
0.0
 40
1.999999999962716
100
AcDbArc
 50
270.0
 51
0.0
  0
LINE
  5
159
330
1F
100
AcDbEntity
  8
dxfile
  6
Continuous
 62
     3
100
AcDbLine
 10
847.067476
 20
921.369191
 30
0.0
 11
847.067476
 21
895.979201
 31
0.0
  0
LINE
  5
15A
330
1F
100
AcDbEntity
  8
dxfile
  6
Continuous
 62
     3
100
AcDbLine
 10
1141.072149
 20
945.226628
 30
0.0
 11
901.325811
 21
1162.105833
 31
0.0
  0
ARC
  5
15B
330
1F
100
AcDbEntity
  8
dxfile
  6
Continuous
 62
     3
100
AcDbCircle
 10
863.279805
 20
942.380409
 30
0.0
 40
5.865998015873866
100
AcDbArc
 50
52.41116
 51
53.13401
  0
ARC
  5
15C
330
1F
100
AcDbEntity
  8
dxfile
  6
Continuous
 62
     3
100
AcDbCircle
 10
847.24781
 20
957.240402
 30
0.0
 40
22.73599326742141
100
AcDbArc
 50
26.373465
 51
26.560543
  0
ARC
  5
15D
330
1F
100
AcDbEntity
  8
dxfile
  6
Continuous
 62
     3
100
AcDbCircle
 10
862.891807
 20
973.272398
 30
0.0
 40
7.04799485237506
100
AcDbArc
 50
56.106998
 51
56.296402
  0
ARC
  5
15E
330
1F
100
AcDbEntity
  8
dxfile
  6
Continuous
 62
     3
100
AcDbCircle
 10
854.429809
 20
957.592403
 30
0.0
 40
15.97999360800991
100
AcDbArc
 50
318.780334
 51
41.219654
  0
ARC
  5
15F
330
1F
100
AcDbEntity
  8
dxfile
  6
Continuous
 62
     3
100
AcDbCircle
 10
865.703805
 20
942.338409
 30
0.0
 40
4.781998087212416
100
AcDbArc
 50
278.970123
 51
81.026131
  0
LINE
  5
160
330
1F
100
AcDbEntity
  8
dxfile
  6
Continuous
 62
     3
100
AcDbLine
 10
870.319803
 20
972.982397
 30
0.0
 11
870.319803
 21
943.012409
 31
0.0
  0
ARC
  5
161
330
1F
100
AcDbEntity
  8
dxfile
  6
Continuous
 62
     3
100
AcDbCircle
 10
939.791775
 20
1158.516322
 30
0.0
 40
9.99999600006715
100
AcDbArc
 50
0.0
 51
90.011459
  0
CIRCLE
  5
162
330
1F
100
AcDbEntity
  8
dxfile
  6
Continuous
 62
     3
100
AcDbCircle
 10
1020.855743
 20
1108.164343
 30
0.0
 40
49.99997999999994
  0
CIRCLE
  5
163
330
1F
100
AcDbEntity
  8
dxfile
  6
Continuous
 62
     3
100
AcDbCircle
 10
1020.855743
 20
1108.164343
 30
0.0
 40
14.99999400000002
  0
CIRCLE
  5
164
330
1F
100
AcDbEntity
  8
dxfile
  6
Continuous
 62
     3
100
AcDbCircle
 10
1020.855743
 20
1108.164343
 30
0.0
 40
39.99998399999998
  0
LINE
  5
165
330
1F
100
AcDbEntity
  8
dxfile
  6
Continuous
 62
     3
100
AcDbLine
 10
851.687474
 20
921.369191
 30
0.0
 11
851.687474
 21
921.201191
 31
0.0
  0
LINE
  5
166
330
1F
100
AcDbEntity
  8
dxfile
  6
Continuous
 62
     3
100
AcDbLine
 10
1020.205743
 20
1028.514374
 30
0.0
 11
1020.323743
 21
1028.516374
 31
0.0
  0
ARC
  5
167
330
1F
100
AcDbEntity
  8
dxfile
  6
Continuous
 62
     3
100
AcDbCircle
 10
1016.847744
 20
1083.704352
 30
0.0
 40
39.99998400000248
100
AcDbArc
 50
261.274323
 51
347.200562
  0
ARC
  5
168
330
1F
100
AcDbEntity
  8
dxfile
  6
Continuous
 62
     3
100
AcDbCircle
 10
938.273776
 20
1165.914319
 30
0.0
 40
19.99999199999367
100
AcDbArc
 50
265.7854
 51
354.727234
  0
LINE
  5
169
330
1F
100
AcDbEntity
  8
dxfile
  6
Continuous
 62
     3
100
AcDbLine
 10
790.911834
 20
1158.937503
 30
0.0
 11
936.80393
 21
1145.968412
 31
0.0
  0
ARC
  5
16A
330
1F
100
AcDbEntity
  8
dxfile
  6
Continuous
 62
     3
100
AcDbCircle
 10
790.655835
 20
1118.938338
 30
0.0
 40
39.99998400000265
100
AcDbArc
 50
88.896973
 51
259.863251
  0
LINE
  5
16B
330
1F
100
AcDbEntity
  8
dxfile
  6
Continuous
 62
     3
100
AcDbLine
 10
1103.903212
 20
1286.261873
 30
0.0
 11
1055.855729
 21
1074.842356
 31
0.0
  0
LINE
  5
16C
330
1F
100
AcDbEntity
  8
dxfile
  6
Continuous
 62
     3
100
AcDbLine
 10
1010.779747
 20
1044.168368
 30
0.0
 11
783.615912
 21
1079.562734
 31
0.0
  0
LINE
  5
16D
330
1F
100
AcDbEntity
  8
dxfile
  6
Continuous
 62
     3
100
AcDbLine
 10
969.468055
 20
1286.246936
 30
0.0
 11
958.189768
 21
1164.07632
 31
0.0
  0
LINE
  5
16E
330
1F
100
AcDbEntity
  8
dxfile
  6
Continuous
 62
     3
100
AcDbLine
 10
526.287474
 20
922.735203
 30
0.0
 11
728.287472
 21
922.735203
 31
0.0
  0
LINE
  5
16F
330
1F
100
AcDbEntity
  8
dxfile
  6
Continuous
 62
     3
100
AcDbLine
 10
526.287474
 20
857.335203
 30
0.0
 11
526.287474
 21
922.735203
 31
0.0
  0
ARC
  5
170
330
1F
100
AcDbEntity
  8
dxfile
  6
Continuous
 62
     3
100
AcDbCircle
 10
523.687474
 20
925.335203
 30
0.0
 40
2.000000000043265
100
AcDbArc
 50
90.0
 51
180.0
  0
LINE
  5
171
330
1F
100
AcDbEntity
  8
dxfile
  6
Continuous
 62
     3
100
AcDbLine
 10
521.687474
 20
857.335203
 30
0.0
 11
521.687474
 21
925.335203
 31
0.0
  0
LINE
  5
172
330
1F
100
AcDbEntity
  8
dxfile
  6
Continuous
 62
     3
100
AcDbLine
 10
851.687474
 20
921.369191
 30
0.0
 11
851.687474
 21
893.335203
 31
0.0
  0
ARC
  5
173
330
1F
100
AcDbEntity
  8
dxfile
  6
Continuous
 62
     3
100
AcDbCircle
 10
823.087474
 20
893.335203
 30
0.0
 40
1.999999999959762
100
AcDbArc
 50
180.0
 51
270.0
  0
LINE
  5
174
330
1F
100
AcDbEntity
  8
dxfile
  6
Continuous
 62
     3
100
AcDbLine
 10
823.087474
 20
891.335203
 30
0.0
 11
849.687474
 21
891.335203
 31
0.0
  0
ARC
  5
175
330
1F
100
AcDbEntity
  8
dxfile
  6
Continuous
 62
     3
100
AcDbCircle
 10
849.687475
 20
893.335202
 30
0.0
 40
1.999999199873825
100
AcDbArc
 50
270.0
 51
0.0
  0
LINE
  5
176
330
1F
100
AcDbEntity
  8
dxfile
  6
Continuous
 62
     3
100
AcDbLine
 10
523.687474
 20
927.335203
 30
0.0
 11
725.687474
 21
927.335203
 31
0.0
  0
LINE
  5
177
330
1F
100
AcDbEntity
  8
dxfile
  6
Continuous
 62
     3
100
AcDbLine
 10
751.685987
 20
1373.536974
 30
0.0
 11
691.688911
 21
1373.536974
 31
0.0
  0
ARC
  5
178
330
1F
100
AcDbEntity
  8
dxfile
  6
Continuous
 62
     3
100
AcDbCircle
 10
706.248687
 20
1369.842975
 30
0.0
 40
10.24999590002188
100
AcDbArc
 50
96.926697
 51
158.875836
  0
LINE
  5
179
330
1F
100
AcDbEntity
  8
dxfile
  6
Continuous
 62
     3
100
AcDbLine
 10
865.287474
 20
1343.008986
 30
0.0
 11
694.887474
 21
1343.008986
 31
0.0
  0
LINE
  5
17A
330
1F
100
AcDbEntity
  8
dxfile
  6
Continuous
 62
     3
100
AcDbLine
 10
822.033822
 20
1370.228452
 30
0.0
 11
868.939822
 21
1370.228452
 31
0.0
  0
LINE
  5
17B
330
1F
100
AcDbEntity
  8
dxfile
  6
Continuous
 62
     3
100
AcDbLine
 10
868.939822
 20
1373.228452
 30
0.0
 11
820.539822
 21
1373.228452
 31
0.0
  0
LINE
  5
17C
330
1F
100
AcDbEntity
  8
dxfile
  6
Continuous
 62
     3
100
AcDbLine
 10
821.939822
 20
1370.226452
 30
0.0
 11
821.939822
 21
1347.828452
 31
0.0
  0
ARC
  5
17D
330
1F
100
AcDbEntity
  8
dxfile
  6
Continuous
 62
     3
100
AcDbCircle
 10
1690.703475
 20
805.853201
 30
0.0
 40
1054.2375783048
100
AcDbArc
 50
32.101093
 51
147.903793
  0
ARC
  5
17E
330
1F
100
AcDbEntity
  8
dxfile
  6
Continuous
 62
     3
100
AcDbCircle
 10
696.487474
 20
1221.028452
 30
0.0
 40
1.600000000135914
100
AcDbArc
 50
180.0
 51
270.0
  0
LINE
  5
17F
330
1F
100
AcDbEntity
  8
dxfile
  6
Continuous
 62
     3
100
AcDbLine
 10
725.951584
 20
1219.428452
 30
0.0
 11
694.945874
 21
1219.428452
 31
0.0
  0
ARC
  5
180
330
1F
100
AcDbEntity
  8
dxfile
  6
Continuous
 62
     3
100
AcDbCircle
 10
693.287474
 20
1344.628452
 30
0.0
 40
1.599999999655692
100
AcDbArc
 50
90.0
 51
180.0
  0
LINE
  5
181
330
1F
100
AcDbEntity
  8
dxfile
  6
Continuous
 62
     3
100
AcDbLine
 10
691.687474
 20
1344.628452
 30
0.0
 11
691.687474
 21
1217.828452
 31
0.0
  0
ARC
  5
182
330
1F
100
AcDbEntity
  8
dxfile
  6
Continuous
 62
     3
100
AcDbCircle
 10
786.443836
 20
1375.558973
 30
0.0
 40
9.435996225580036
100
AcDbArc
 50
265.368469
 51
326.602966
  0
ARC
  5
183
330
1F
100
AcDbEntity
  8
dxfile
  6
Continuous
 62
     3
100
AcDbCircle
 10
786.681836
 20
1373.386974
 30
0.0
 40
13.23599470562906
100
AcDbArc
 50
271.983002
 51
329.622681
  0
LINE
  5
184
330
1F
100
AcDbEntity
  8
dxfile
  6
Continuous
 62
     3
100
AcDbLine
 10
794.381833
 20
1370.448975
 30
0.0
 11
794.645833
 21
1370.850975
 31
0.0
  0
ARC
  5
185
330
1F
100
AcDbEntity
  8
dxfile
  6
Continuous
 62
     3
100
AcDbCircle
 10
1691.047474
 20
807.1972
 30
0.0
 40
1058.897576440801
100
AcDbArc
 50
32.109619
 51
147.864502
  0
LINE
  5
186
330
1F
100
AcDbEntity
  8
dxfile
  6
Continuous
 62
     3
100
AcDbLine
 10
736.187474
 20
1027.335203
 30
0.0
 11
823.687474
 21
1027.335203
 31
0.0
  0
LINE
  5
187
330
1F
100
AcDbEntity
  8
dxfile
  6
Continuous
 62
     3
100
AcDbLine
 10
2594.252643
 20
1366.250977
 30
0.0
 11
2833.513017
 21
1366.250977
 31
0.0
  0
LINE
  5
188
330
1F
100
AcDbEntity
  8
dxfile
  6
Continuous
 62
     3
100
AcDbLine
 10
2594.142282
 20
1360.250979
 30
0.0
 11
2833.513017
 21
1360.250979
 31
0.0
  0
ARC
  5
189
330
1F
100
AcDbEntity
  8
dxfile
  6
Continuous
 62
     3
100
AcDbCircle
 10
549.621931
 20
1356.188981
 30
0.0
 40
3.999998399896672
100
AcDbArc
 50
90.0
 51
165.79007
  0
ARC
  5
18A
330
1F
100
AcDbEntity
  8
dxfile
  6
Continuous
 62
     3
100
AcDbCircle
 10
549.621931
 20
1356.188981
 30
0.0
 40
9.999995999986796
100
AcDbArc
 50
90.0
 51
165.783112
  0
LINE
  5
18B
330
1F
100
AcDbEntity
  8
dxfile
  6
Continuous
 62
     3
100
AcDbLine
 10
549.621931
 20
1360.188979
 30
0.0
 11
787.085836
 21
1360.188979
 31
0.0
  0
LINE
  5
18C
330
1F
100
AcDbEntity
  8
dxfile
  6
Continuous
 62
     3
100
AcDbLine
 10
520.711747
 20
1286.188977
 30
0.0
 11
539.927935
 21
1358.64498
 31
0.0
  0
LINE
  5
18D
330
1F
100
AcDbEntity
  8
dxfile
  6
Continuous
 62
     3
100
AcDbLine
 10
549.621931
 20
1366.188977
 30
0.0
 11
787.085836
 21
1366.188977
 31
0.0
  0
LINE
  5
18E
330
1F
100
AcDbEntity
  8
dxfile
  6
Continuous
 62
     3
100
AcDbLine
 10
526.902893
 20
1286.188977
 30
0.0
 11
545.743933
 21
1357.17098
 31
0.0
  0
LINE
  5
18F
330
1F
100
AcDbEntity
  8
dxfile
  6
Continuous
 62
     3
100
AcDbLine
 10
908.247788
 20
867.310439
 30
0.0
 11
805.794669
 21
1093.327404
 31
0.0
  0
LINE
  5
190
330
1F
100
AcDbEntity
  8
dxfile
  6
Continuous
 62
     3
100
AcDbLine
 10
780.047839
 20
1137.602331
 30
0.0
 11
769.165843
 21
1118.754338
 31
0.0
  0
LINE
  5
191
330
1F
100
AcDbEntity
  8
dxfile
  6
Continuous
 62
     3
100
AcDbLine
 10
769.165843
 20
1118.754338
 30
0.0
 11
780.047839
 21
1099.906346
 31
0.0
  0
LINE
  5
192
330
1F
100
AcDbEntity
  8
dxfile
  6
Continuous
 62
     3
100
AcDbLine
 10
780.047839
 20
1099.906346
 30
0.0
 11
801.81183
 21
1099.906346
 31
0.0
  0
LINE
  5
193
330
1F
100
AcDbEntity
  8
dxfile
  6
Continuous
 62
     3
100
AcDbLine
 10
801.81183
 20
1099.906346
 30
0.0
 11
812.693826
 21
1118.754338
 31
0.0
  0
LINE
  5
194
330
1F
100
AcDbEntity
  8
dxfile
  6
Continuous
 62
     3
100
AcDbLine
 10
812.693826
 20
1118.754338
 30
0.0
 11
801.81183
 21
1137.602331
 31
0.0
  0
LINE
  5
195
330
1F
100
AcDbEntity
  8
dxfile
  6
Continuous
 62
     3
100
AcDbLine
 10
801.81183
 20
1137.602331
 30
0.0
 11
780.047839
 21
1137.602331
 31
0.0
  0
LINE
  5
196
330
1F
100
AcDbEntity
  8
dxfile
  6
Continuous
 62
     3
100
AcDbLine
 10
721.251862
 20
1168.516318
 30
0.0
 11
939.791775
 21
1168.516318
 31
0.0
  0
LINE
  5
197
330
1F
100
AcDbEntity
  8
dxfile
  6
Continuous
 62
     3
100
AcDbLine
 10
2532.583138
 20
1027.335203
 30
0.0
 11
2632.639098
 21
1027.335203
 31
0.0
  0
ARC
  5
198
330
1F
100
AcDbEntity
  8
dxfile
  6
Continuous
 62
     3
100
AcDbCircle
 10
2532.583138
 20
1047.337195
 30
0.0
 40
19.9999919999852
100
AcDbArc
 50
180.0
 51
270.0
  0
LINE
  5
199
330
1F
100
AcDbEntity
  8
dxfile
  6
Continuous
 62
     3
100
AcDbLine
 10
2512.583146
 20
1116.711167
 30
0.0
 11
2512.581146
 21
1047.337195
 31
0.0
  0
CIRCLE
  5
19A
330
1F
100
AcDbEntity
  8
dxfile
  6
Continuous
 62
     3
100
AcDbCircle
 10
2567.027124
 20
1081.569181
 30
0.0
 40
49.99998000000028
  0
CIRCLE
  5
19B
330
1F
100
AcDbEntity
  8
dxfile
  6
Continuous
 62
     3
100
AcDbCircle
 10
2567.027124
 20
1081.569181
 30
0.0
 40
39.9999840000005
  0
LINE
  5
19C
330
1F
100
AcDbEntity
  8
dxfile
  6
Continuous
 62
     3
100
AcDbLine
 10
2632.639098
 20
1027.335203
 30
0.0
 11
2632.639098
 21
1136.711159
 31
0.0
  0
LINE
  5
19D
330
1F
100
AcDbEntity
  8
dxfile
  6
Continuous
 62
     3
100
AcDbLine
 10
2626.3571
 20
1027.335203
 30
0.0
 11
2626.3571
 21
1136.709159
 31
0.0
  0
LINE
  5
19E
330
1F
100
AcDbEntity
  8
dxfile
  6
Continuous
 62
     3
100
AcDbLine
 10
2532.583138
 20
1136.711159
 30
0.0
 11
2632.639098
 21
1136.711159
 31
0.0
  0
CIRCLE
  5
19F
330
1F
100
AcDbEntity
  8
dxfile
  6
Continuous
 62
     3
100
AcDbCircle
 10
2567.027124
 20
1081.569181
 30
0.0
 40
7.517996992800136
  0
ARC
  5
1A0
330
1F
100
AcDbEntity
  8
dxfile
  6
Continuous
 62
     3
100
AcDbCircle
 10
2532.583138
 20
1116.711167
 30
0.0
 40
19.99999200006816
100
AcDbArc
 50
90.0
 51
180.0
  0
LINE
  5
1A1
330
1F
100
AcDbEntity
  8
dxfile
  6
Continuous
 62
     3
100
AcDbLine
 10
897.357402
 20
891.335203
 30
0.0
 11
851.687474
 21
891.335203
 31
0.0
  0
LINE
  5
1A2
330
1F
100
AcDbEntity
  8
dxfile
  6
PLine2
 62
     3
100
AcDbLine
 10
1691.687474
 20
1963.088206
 30
0.0
 11
1691.687474
 21
811.749405
 31
0.0
  0
LINE
  5
1A3
330
1F
100
AcDbEntity
  8
dxfile
  6
Continuous
 62
     3
100
AcDbLine
 10
1622.41499
 20
513.490638
 30
0.0
 11
1641.551981
 21
513.490638
 31
0.0
  0
LINE
  5
1A4
330
1F
100
AcDbEntity
  8
dxfile
  6
Continuous
 62
     3
100
AcDbLine
 10
1641.551981
 20
513.490638
 30
0.0
 11
1641.551981
 21
533.311092
 31
0.0
  0
LINE
  5
1A5
330
1F
100
AcDbEntity
  8
dxfile
  6
Continuous
 62
     3
100
AcDbLine
 10
1641.551981
 20
533.311092
 30
0.0
 11
1622.41499
 21
533.311092
 31
0.0
  0
LINE
  5
1A6
330
1F
100
AcDbEntity
  8
dxfile
  6
Continuous
 62
     3
100
AcDbLine
 10
1622.41499
 20
533.311092
 30
0.0
 11
1622.41499
 21
513.490638
 31
0.0
  0
LINE
  5
1A7
330
1F
100
AcDbEntity
  8
dxfile
  6
Continuous
 62
     3
100
AcDbLine
 10
1611.779503
 20
277.434427
 30
0.0
 11
1630.916493
 21
277.434427
 31
0.0
  0
LINE
  5
1A8
330
1F
100
AcDbEntity
  8
dxfile
  6
Continuous
 62
     3
100
AcDbLine
 10
1630.916493
 20
277.434427
 30
0.0
 11
1630.916493
 21
296.571417
 31
0.0
  0
LINE
  5
1A9
330
1F
100
AcDbEntity
  8
dxfile
  6
Continuous
 62
     3
100
AcDbLine
 10
1630.916493
 20
296.571417
 30
0.0
 11
1611.779503
 21
296.571417
 31
0.0
  0
LINE
  5
1AA
330
1F
100
AcDbEntity
  8
dxfile
  6
Continuous
 62
     3
100
AcDbLine
 10
1611.779503
 20
296.571417
 30
0.0
 11
1611.779503
 21
277.434427
 31
0.0
  0
TEXT
  5
1AB
330
1F
100
AcDbEntity
  8
dxfile
  6
Continuous
 62
     3
100
AcDbText
 10
2570.9436
 20
135.728866
 30
0.0
 40
36.0
  1
注、図中数字で示す寸法は全種共通です
 41
0.858268
  7
BIGFONT
100
AcDbText
  0
LINE
  5
1AC
330
1F
100
AcDbEntity
  8
dxfile
  6
PLine2
 62
     3
100
AcDbLine
 10
2566.977124
 20
1149.632193
 30
0.0
 11
2566.977124
 21
1028.630089
 31
0.0
  0
ARC
  5
1AD
330
1F
100
AcDbEntity
  8
dxfile
  6
Continuous
 62
     3
100
AcDbCircle
 10
712.887474
 20
980.316645
 30
0.0
 40
0.7999999998844518
100
AcDbArc
 50
0.0
 51
99.211027
  0
LINE
  5
1AE
330
1F
100
AcDbEntity
  8
dxfile
  6
Continuous
 62
     3
100
AcDbLine
 10
712.759417
 20
981.106329
 30
0.0
 11
555.043539
 21
955.530781
 31
0.0
  0
ARC
  5
1AF
330
1F
100
AcDbEntity
  8
dxfile
  6
Continuous
 62
     3
100
AcDbCircle
 10
547.630938
 20
953.518288
 30
0.0
 40
0.800000000030457
100
AcDbArc
 50
15.002741
 51
99.211027
  0
LINE
  5
1B0
330
1F
100
AcDbEntity
  8
dxfile
  6
Continuous
 62
     3
100
AcDbLine
 10
497.687474
 20
946.229798
 30
0.0
 11
547.502881
 21
954.307972
 31
0.0
  0
LINE
  5
1B1
330
1F
100
AcDbEntity
  8
dxfile
  6
Continuous
 62
     3
100
AcDbLine
 10
497.687474
 20
946.229798
 30
0.0
 11
497.687474
 21
928.535203
 31
0.0
  0
LINE
  5
1B2
330
1F
100
AcDbEntity
  8
dxfile
  6
Continuous
 62
     3
100
AcDbLine
 10
497.687474
 20
894.763879
 30
0.0
 11
497.687474
 21
926.135203
 31
0.0
  0
LINE
  5
1B3
330
1F
100
AcDbEntity
  8
dxfile
  6
Continuous
 62
     3
100
AcDbLine
 10
496.487474
 20
927.335203
 30
0.0
 11
497.687474
 21
928.535203
 31
0.0
  0
ARC
  5
1B4
330
1F
100
AcDbEntity
  8
dxfile
  6
Continuous
 62
     3
100
AcDbCircle
 10
687.687474
 20
931.335203
 30
0.0
 40
4.000000000001734
100
AcDbArc
 50
90.0
 51
270.0
  0
ARC
  5
1B5
330
1F
100
AcDbEntity
  8
dxfile
  6
Continuous
 62
     3
100
AcDbCircle
 10
736.187474
 20
1030.835203
 30
0.0
 40
3.499999999986926
100
AcDbArc
 50
270.0
 51
90.0
  0
LINE
  5
1B6
330
1F
100
AcDbEntity
  8
dxfile
  6
Continuous
 62
     4
100
AcDbLine
 10
663.687474
 20
922.735203
 30
0.0
 11
691.687474
 21
922.735203
 31
0.0
  0
LINE
  5
1B7
330
1F
100
AcDbEntity
  8
dxfile
  6
Continuous
 62
     4
100
AcDbLine
 10
691.687474
 20
922.735203
 30
0.0
 11
691.687474
 21
918.135203
 31
0.0
  0
LINE
  5
1B8
330
1F
100
AcDbEntity
  8
dxfile
  6
Continuous
 62
     4
100
AcDbLine
 10
691.687474
 20
918.135203
 30
0.0
 11
666.287474
 21
918.135203
 31
0.0
  0
LINE
  5
1B9
330
1F
100
AcDbEntity
  8
dxfile
  6
Continuous
 62
     4
100
AcDbLine
 10
666.287474
 20
918.135203
 30
0.0
 11
666.287474
 21
872.809223
 31
0.0
  0
LINE
  5
1BA
330
1F
100
AcDbEntity
  8
dxfile
  6
Continuous
 62
     4
100
AcDbLine
 10
666.287474
 20
872.809223
 30
0.0
 11
661.687474
 21
872.809223
 31
0.0
  0
LINE
  5
1BB
330
1F
100
AcDbEntity
  8
dxfile
  6
Continuous
 62
     4
100
AcDbLine
 10
661.687474
 20
872.809223
 30
0.0
 11
661.687474
 21
920.735203
 31
0.0
  0
ARC
  5
1BC
330
1F
100
AcDbEntity
  8
dxfile
  6
Continuous
 62
     4
100
AcDbCircle
 10
663.687474
 20
920.735203
 30
0.0
 40
1.999999999982371
100
AcDbArc
 50
90.0
 51
180.0
  0
INSERT
  5
1C6
330
1F
100
AcDbEntity
  8
dxfile
  6
Continuous
 62
     3
100
AcDbBlockReference
  2
DIM_0
 10
521.687474
 20
847.065057
 30
0.0
  0
LINE
  5
1C7
330
1F
100
AcDbEntity
  8
dxfile
  6
PLine2
 62
     3
100
AcDbLine
 10
968.123731
 20
1118.931403
 30
0.0
 11
1078.263985
 21
1093.899977
 31
0.0
  0
LINE
  5
1C8
330
1F
100
AcDbEntity
  8
dxfile
  6
PLine2
 62
     3
100
AcDbLine
 10
1034.122107
 20
1163.750042
 30
0.0
 11
1008.893883
 21
1052.574442
 31
0.0
  0
LINE
  5
1C9
330
1F
100
AcDbEntity
  8
dxfile
  6
PLine4
 62
     3
100
AcDbLine
 10
968.360884
 20
1274.253644
 30
0.0
 11
1101.174206
 21
1274.253644
 31
0.0
  0
CIRCLE
  5
1CA
330
1F
100
AcDbEntity
  8
dxfile
  6
Continuous
 62
     3
100
AcDbCircle
 10
860.369807
 20
1118.258339
 30
0.0
 40
41.99997600000006
  0
LINE
  5
1CB
330
1F
100
AcDbEntity
  8
dxfile
  6
Continuous
 62
     3
100
AcDbLine
 10
1128.996755
 20
931.878038
 30
0.0
 11
889.250417
 21
1148.757243
 31
0.0
  0
LINE
  5
1CC
330
1F
100
AcDbEntity
  8
dxfile
  6
Continuous
 62
     3
100
AcDbLine
 10
924.642077
 20
874.741943
 30
0.0
 11
822.188959
 21
1100.758909
 31
0.0
  0
LINE
  5
1CD
330
1F
100
AcDbEntity
  8
dxfile
  6
Continuous
 62
     3
100
AcDbLine
 10
1128.996755
 20
931.878038
 30
0.0
 11
1141.072149
 21
945.226628
 31
0.0
  0
LINE
  5
1CE
330
1F
100
AcDbEntity
  8
dxfile
  6
Continuous
 62
     3
100
AcDbLine
 10
908.247788
 20
867.310439
 30
0.0
 11
924.642077
 21
874.741943
 31
0.0
  0
LINE
  5
1CF
330
1F
100
AcDbEntity
  8
dxfile
  6
Continuous
 62
     3
100
AcDbLine
 10
694.887474
 20
1343.008986
 30
0.0
 11
694.887474
 21
1219.428452
 31
0.0
  0
LINE
  5
1D0
330
1F
100
AcDbEntity
  8
dxfile
  6
Continuous
 62
     3
100
AcDbLine
 10
698.087474
 20
1343.008986
 30
0.0
 11
698.087474
 21
1289.43454
 31
0.0
  0
ARC
  5
1D1
330
1F
100
AcDbEntity
  8
dxfile
  6
Continuous
 62
     3
100
AcDbCircle
 10
696.487474
 20
1287.816611
 30
0.0
 40
1.600000000206169
100
AcDbArc
 50
180.0
 51
270.006366
  0
ARC
  5
1D2
330
1F
100
AcDbEntity
  8
dxfile
  6
Continuous
 62
     3
100
AcDbCircle
 10
870.087474
 20
1287.8359
 30
0.0
 40
1.599999999572744
100
AcDbArc
 50
270.006366
 51
0.0
  0
LINE
  5
1D3
330
1F
100
AcDbEntity
  8
dxfile
  6
Continuous
 62
     3
100
AcDbLine
 10
871.687474
 20
1346.236078
 30
0.0
 11
871.687474
 21
1287.8359
 31
0.0
  0
ARC
  5
1D4
330
1F
100
AcDbEntity
  8
dxfile
  6
Continuous
 62
     3
100
AcDbCircle
 10
866.887474
 20
1344.628452
 30
0.0
 40
1.600000000026485
100
AcDbArc
 50
0.0
 51
90.0
  0
LINE
  5
1D5
330
1F
100
AcDbEntity
  8
dxfile
  6
Continuous
 62
     3
100
AcDbLine
 10
868.487474
 20
1346.228452
 30
0.0
 11
868.487474
 21
1289.432503
 31
0.0
  0
LINE
  5
1D6
330
1F
100
AcDbEntity
  8
dxfile
  6
Continuous
 62
     3
100
AcDbLine
 10
865.287474
 20
1289.435366
 30
0.0
 11
865.287474
 21
1343.008986
 31
0.0
  0
ARC
  5
1D7
330
1F
100
AcDbEntity
  8
dxfile
  6
Continuous
 62
     3
100
AcDbCircle
 10
820.339822
 20
1347.828452
 30
0.0
 40
1.600000000007071
100
AcDbArc
 50
270.0
 51
0.0
  0
LINE
  5
1D8
330
1F
100
AcDbEntity
  8
dxfile
  6
Continuous
 62
     3
100
AcDbLine
 10
2411.687474
 20
1286.228452
 30
0.0
 11
696.351575
 21
1286.228452
 31
0.0
  0
LINE
  5
1D9
330
1F
100
AcDbEntity
  8
dxfile
  6
Continuous
 62
     3
100
AcDbLine
 10
868.487474
 20
1289.428452
 30
0.0
 11
698.087474
 21
1289.428452
 31
0.0
  0
LINE
  5
1DA
330
1F
100
AcDbEntity
  8
dxfile
  6
Continuous
 62
     3
100
AcDbLine
 10
2634.687474
 20
1216.228452
 30
0.0
 11
2691.687474
 21
1216.228452
 31
0.0
  0
ARC
  5
1DB
330
1F
100
AcDbEntity
  8
dxfile
  6
Continuous
 62
     3
100
AcDbCircle
 10
693.287474
 20
1217.828452
 30
0.0
 40
1.599999999888417
100
AcDbArc
 50
180.0
 51
270.0
  0
LINE
  5
1DC
330
1F
100
AcDbEntity
  8
dxfile
  6
Continuous
 62
     3
100
AcDbLine
 10
711.687474
 20
1216.228452
 30
0.0
 11
693.287474
 21
1216.228452
 31
0.0
  0
LINE
  5
1DD
330
1F
100
AcDbEntity
  8
dxfile
  6
Continuous
 62
     3
100
AcDbLine
 10
711.687474
 20
1219.428452
 30
0.0
 11
711.687474
 21
1216.228452
 31
0.0
  0
LINE
  5
1DE
330
1F
100
AcDbEntity
  8
dxfile
  6
Continuous
 62
     6
100
AcDbLine
 10
821.939822
 20
1354.228452
 30
0.0
 11
861.939822
 21
1354.228452
 31
0.0
  0
LINE
  5
1DF
330
1F
100
AcDbEntity
  8
dxfile
  6
Continuous
 62
     6
100
AcDbLine
 10
861.939822
 20
1354.228452
 30
0.0
 11
861.939822
 21
1346.228452
 31
0.0
  0
LINE
  5
1E0
330
1F
100
AcDbEntity
  8
dxfile
  6
Continuous
 62
     6
100
AcDbLine
 10
861.939822
 20
1346.228452
 30
0.0
 11
821.939822
 21
1346.228452
 31
0.0
  0
LINE
  5
1E1
330
1F
100
AcDbEntity
  8
dxfile
  6
Continuous
 62
     6
100
AcDbLine
 10
821.939822
 20
1346.228452
 30
0.0
 11
821.939822
 21
1354.228452
 31
0.0
  0
LINE
  5
1E2
330
1F
100
AcDbEntity
  8
dxfile
  6
Continuous
 62
     6
100
AcDbLine
 10
2559.353127
 20
1354.228452
 30
0.0
 11
831.687474
 21
1354.228452
 31
0.0
  0
LINE
  5
1E3
330
1F
100
AcDbEntity
  8
dxfile
  6
Continuous
 62
     6
100
AcDbLine
 10
2551.687474
 20
1367.828452
 30
0.0
 11
831.687474
 21
1367.828452
 31
0.0
  0
LINE
  5
1E4
330
1F
100
AcDbEntity
  8
dxfile
  6
Continuous
 62
     6
100
AcDbLine
 10
831.687474
 20
1367.828452
 30
0.0
 11
831.687474
 21
1354.228452
 31
0.0
  0
LINE
  5
1E5
330
1F
100
AcDbEntity
  8
dxfile
  6
Continuous
 62
     4
100
AcDbLine
 10
2511.687474
 20
1286.228452
 30
0.0
 11
2411.687474
 21
1286.228452
 31
0.0
  0
LINE
  5
1E6
330
1F
100
AcDbEntity
  8
dxfile
  6
Continuous
 62
     4
100
AcDbLine
 10
2511.687474
 20
1286.228452
 30
0.0
 11
2511.687474
 21
1336.228452
 31
0.0
  0
LINE
  5
1E7
330
1F
100
AcDbEntity
  8
dxfile
  6
Continuous
 62
     6
100
AcDbLine
 10
2551.687474
 20
1367.828452
 30
0.0
 11
2551.687474
 21
1354.228452
 31
0.0
  0
TEXT
  5
1E8
330
1F
100
AcDbEntity
  8
dxfile
  6
Continuous
 62
     3
100
AcDbText
 10
1451.616655
 20
3284.667475
 30
0.0
 40
32.639796
  1
硝子寸法
 41
0.858268
  7
BIGFONT
100
AcDbText
  0
TEXT
  5
1E9
330
1F
100
AcDbEntity
  8
dxfile
  6
Continuous
 62
     3
100
AcDbText
 10
1467.139116
 20
3234.034637
 30
0.0
 40
32.639796
  1
５６０
 41
0.858268
  7
BIGFONT
100
AcDbText
  0
TEXT
  5
1EA
330
1F
100
AcDbEntity
  8
dxfile
  6
Continuous
 62
     3
100
AcDbText
 10
1467.139116
 20
3181.365375
 30
0.0
 40
32.639796
  1
８６０
 41
0.858268
  7
BIGFONT
100
AcDbText
  0
TEXT
  5
1EB
330
1F
100
AcDbEntity
  8
dxfile
  6
Continuous
 62
     3
100
AcDbText
 10
1437.878621
 20
3130.159074
 30
0.0
 40
32.639796
  1
１２６０
 41
0.858268
  7
BIGFONT
100
AcDbText
  0
TEXT
  5
1EC
330
1F
100
AcDbEntity
  8
dxfile
  6
Continuous
 62
     3
100
AcDbText
 10
974.393406
 20
3334.910417
 30
0.0
 40
32.639796
  1
寸               法
 41
0.47962
  7
BIGFONT
100
AcDbText
  0
LINE
  5
1ED
330
1F
100
AcDbEntity
  8
dxfile
  6
Continuous
 62
     3
100
AcDbLine
 10
868.939822
 20
1373.228452
 30
0.0
 11
868.939822
 21
1370.228452
 31
0.0
  0
LINE
  5
1EE
330
1F
100
AcDbEntity
  8
dxfile
  6
Continuous
 62
     3
100
AcDbLine
 10
788.939822
 20
1346.228452
 30
0.0
 11
788.939822
 21
1349.228452
 31
0.0
  0
LINE
  5
1EF
330
1F
100
AcDbEntity
  8
dxfile
  6
Continuous
 62
     3
100
AcDbLine
 10
2511.629074
 20
1346.228452
 30
0.0
 11
693.345874
 21
1346.228452
 31
0.0
  0
LINE
  5
1F0
330
1F
100
AcDbEntity
  8
dxfile
  6
Continuous
 62
     3
100
AcDbLine
 10
751.688039
 20
1370.536974
 30
0.0
 11
691.686859
 21
1370.536974
 31
0.0
  0
LINE
  5
1F1
330
1F
100
AcDbEntity
  8
dxfile
  6
Continuous
 62
     6
100
AcDbLine
 10
691.686859
 20
1370.536974
 30
0.0
 11
691.687103
 21
1366.188977
 31
0.0
  0
CIRCLE
  5
1F2
330
1F
100
AcDbEntity
  8
dxfile
  6
Continuous
 62
     3
100
AcDbCircle
 10
791.687474
 20
2129.489857
 30
0.0
 40
6.0
  0
CIRCLE
  5
1F3
330
1F
100
AcDbEntity
  8
dxfile
  6
Continuous
 62
     3
100
AcDbCircle
 10
2591.687474
 20
2129.489857
 30
0.0
 40
6.0
  0
LINE
  5
1F4
330
1F
100
AcDbEntity
  8
dxfile
  6
Continuous
 62
     3
100
AcDbLine
 10
791.687474
 20
2129.489857
 30
0.0
 11
2591.687474
 21
2129.489857
 31
0.0
  0
LINE
  5
1F5
330
1F
100
AcDbEntity
  8
dxfile
  6
Continuous
 62
     3
100
AcDbLine
 10
791.687474
 20
1408.027574
 30
0.0
 11
791.687474
 21
2141.489857
 31
0.0
  0
LINE
  5
1F6
330
1F
100
AcDbEntity
  8
dxfile
  6
Continuous
 62
     3
100
AcDbLine
 10
2591.687474
 20
1401.064325
 30
0.0
 11
2591.687474
 21
2141.489857
 31
0.0
  0
LINE
  5
1F7
330
1F
100
AcDbEntity
  8
dxfile
  6
Continuous
 62
     3
100
AcDbLine
 10
520.711747
 20
1286.188977
 30
0.0
 11
691.745874
 21
1286.188977
 31
0.0
  0
ARC
  5
1F8
330
1F
100
AcDbEntity
  8
dxfile
  6
Continuous
 62
     3
100
AcDbCircle
 10
2595.185113
 20
1374.920973
 30
0.0
 40
8.719996511938792
100
AcDbArc
 50
213.664551
 51
264.654784
  0
ARC
  5
1F9
330
1F
100
AcDbEntity
  8
dxfile
  6
Continuous
 62
     3
100
AcDbCircle
 10
2595.143113
 20
1374.144974
 30
0.0
 40
13.92999442826526
100
AcDbArc
 50
214.659775
 51
266.374603
  0
TEXT
  5
1FA
330
1F
100
AcDbEntity
  8
dxfile
  6
Continuous
 62
     3
100
AcDbText
 10
1012.005304
 20
1514.357042
 30
0.0
 40
36.0
  1
開閉角度 ６０°
 41
0.804626
  7
BIGFONT
100
AcDbText
  0
LINE
  5
1FB
330
1F
100
AcDbEntity
  8
dxfile
  6
Continuous
 62
     3
100
AcDbLine
 10
2531.687474
 20
921.379191
 30
0.0
 11
903.50149
 21
921.379191
 31
0.0
  0
LINE
  5
1FC
330
1F
100
AcDbEntity
  8
dxfile
  6
Continuous
 62
     4
100
AcDbLine
 10
2598.524008
 20
498.233314
 30
0.0
 11
2598.524008
 21
850.335203
 31
0.0
  0
LINE
  5
1FD
330
1F
100
AcDbEntity
  8
dxfile
  6
Continuous
 62
     4
100
AcDbLine
 10
2620.524008
 20
498.233314
 30
0.0
 11
2620.524008
 21
850.335203
 31
0.0
  0
LINE
  5
1FE
330
1F
100
AcDbEntity
  8
dxfile
  6
Continuous
 62
     4
100
AcDbLine
 10
2566.887474
 20
1022.735203
 30
0.0
 11
2566.887474
 21
931.935203
 31
0.0
  0
LINE
  5
1FF
330
1F
100
AcDbEntity
  8
dxfile
  6
Continuous
 62
     4
100
AcDbLine
 10
2648.487476
 20
1022.735203
 30
0.0
 11
2648.487476
 21
931.935203
 31
0.0
  0
ARC
  5
200
330
1F
100
AcDbEntity
  8
dxfile
  6
Continuous
 62
     4
100
AcDbCircle
 10
2564.287474
 20
929.335203
 30
0.0
 40
1.999999999033864
100
AcDbArc
 50
180.0
 51
270.0
  0
ARC
  5
201
330
1F
100
AcDbEntity
  8
dxfile
  6
Continuous
 62
     4
100
AcDbCircle
 10
2651.087476
 20
929.335203
 30
0.0
 40
2.000000000111033
100
AcDbArc
 50
270.0
 51
0.0
  0
LINE
  5
202
330
1F
100
AcDbEntity
  8
dxfile
  6
Continuous
 62
     4
100
AcDbLine
 10
2564.287474
 20
927.335203
 30
0.0
 11
2651.087476
 21
927.335203
 31
0.0
  0
LINE
  5
203
330
1F
100
AcDbEntity
  8
dxfile
  6
Continuous
 62
     4
100
AcDbLine
 10
2566.887474
 20
931.935203
 30
0.0
 11
2648.487476
 21
931.935203
 31
0.0
  0
ARC
  5
204
330
1F
100
AcDbEntity
  8
dxfile
  6
Continuous
 62
     4
100
AcDbCircle
 10
2604.024008
 20
498.233314
 30
0.0
 40
5.499999999901547
100
AcDbArc
 50
180.0
 51
0.0
  0
ARC
  5
205
330
1F
100
AcDbEntity
  8
dxfile
  6
Continuous
 62
     4
100
AcDbCircle
 10
2615.024008
 20
498.233314
 30
0.0
 40
5.499999999898563
100
AcDbArc
 50
0.0
 51
180.0
  0
TEXT
  5
206
330
1F
100
AcDbEntity
  8
dxfile
  6
Continuous
 62
     3
100
AcDbText
 10
1767.863052
 20
3308.119355
 30
0.0
 40
32.639796
  1
概算重量
 41
0.858268
  7
BIGFONT
100
AcDbText
  0
TEXT
  5
207
330
1F
100
AcDbEntity
  8
dxfile
  6
Continuous
 62
     3
100
AcDbText
 10
1884.10533
 20
3286.383023
 30
0.0
 40
32.639796
  1

 41
0.858268
  7
BIGFONT
100
AcDbText
  0
TEXT
  5
208
330
1F
100
AcDbEntity
  8
dxfile
  6
Continuous
 62
     3
100
AcDbText
 10
1820.152906
 20
3232.514322
 30
0.0
 40
32.639796
  1
５７
 41
0.858268
  7
BIGFONT
100
AcDbText
  0
TEXT
  5
209
330
1F
100
AcDbEntity
  8
dxfile
  6
Continuous
 62
     3
100
AcDbText
 10
1821.063438
 20
3181.480919
 30
0.0
 40
32.639796
  1
８１
 41
0.858268
  7
BIGFONT
100
AcDbText
  0
TEXT
  5
20A
330
1F
100
AcDbEntity
  8
dxfile
  6
Continuous
 62
     3
100
AcDbText
 10
1791.765939
 20
3132.337799
 30
0.0
 40
32.639796
  1
１２８
 41
0.858268
  7
BIGFONT
100
AcDbText
  0
TEXT
  5
20B
330
1F
100
AcDbEntity
  8
dxfile
  6
Continuous
 62
     3
100
AcDbText
 10
1280.357054
 20
3232.955873
 30
0.0
 40
32.639796
  1
（１７０）
 41
0.858268
  7
BIGFONT
100
AcDbText
  0
TEXT
  5
20C
330
1F
100
AcDbEntity
  8
dxfile
  6
Continuous
 62
     3
100
AcDbText
 10
1279.33678
 20
3131.950607
 30
0.0
 40
32.639796
  1
（３１０）
 41
0.858268
  7
BIGFONT
100
AcDbText
  0
TEXT
  5
20D
330
1F
100
AcDbEntity
  8
dxfile
  6
Continuous
 62
     3
100
AcDbText
 10
1280.357054
 20
3182.963382
 30
0.0
 40
32.639796
  1
（２５０）
 41
0.858268
  7
BIGFONT
100
AcDbText
  0
TEXT
  5
20E
330
1F
100
AcDbEntity
  8
dxfile
  6
Continuous
 62
     3
100
AcDbText
 10
270.275975
 20
3075.371191
 30
0.0
 40
32.639796
  1
Ｈ寸法（  ）内はＡＣ ． ＰＣ ドーム
 41
0.745338
  7
BIGFONT
100
AcDbText
  0
TEXT
  5
20F
330
1F
100
AcDbEntity
  8
dxfile
  6
Continuous
 62
     3
100
AcDbText
 10
1711.889269
 20
3285.090384
 30
0.0
 40
32.639796
  1

 41
0.858268
  7
BIGFONT
100
AcDbText
  0
TEXT
  5
210
330
1F
100
AcDbEntity
  8
dxfile
  6
Continuous
 62
     3
100
AcDbText
 10
2007.132408
 20
3306.155523
 30
0.0
 40
36.0
  1
試験性能－（財）建材試験センター
 41
0.858268
  7
BIGFONT
100
AcDbText
  0
TEXT
  5
211
330
1F
100
AcDbEntity
  8
dxfile
  6
Continuous
 62
     3
100
AcDbText
 10
2071.184567
 20
3257.63054
 30
0.0
 40
32.64
  1
水密性
 41
0.858268
  7
BIGFONT
100
AcDbText
  0
TEXT
  5
212
330
1F
100
AcDbEntity
  8
dxfile
  6
Continuous
 62
     3
100
AcDbText
 10
2071.184567
 20
3209.724496
 30
0.0
 40
32.64
  1
気密性
 41
0.858268
  7
BIGFONT
100
AcDbText
  0
TEXT
  5
213
330
1F
100
AcDbEntity
  8
dxfile
  6
Continuous
 62
     3
100
AcDbText
 10
2071.184567
 20
3157.826223
 30
0.0
 40
32.64
  1
耐風圧性
 41
0.858268
  7
BIGFONT
100
AcDbText
  0
TEXT
  5
214
330
1F
100
AcDbEntity
  8
dxfile
  6
Continuous
 62
     3
100
AcDbText
 10
2298.001967
 20
3252.914662
 30
0.0
 40
32.64
  1
Ｗ－５
 41
0.858268
  7
BIGFONT
100
AcDbText
  0
TEXT
  5
215
330
1F
100
AcDbEntity
  8
dxfile
  6
Continuous
 62
     3
100
AcDbText
 10
2298.648178
 20
3204.466212
 30
0.0
 40
32.64
  1
Ａ－４
 41
0.858268
  7
BIGFONT
100
AcDbText
  0
TEXT
  5
216
330
1F
100
AcDbEntity
  8
dxfile
  6
Continuous
 62
     3
100
AcDbText
 10
2298.648178
 20
3152.787933
 30
0.0
 40
32.64
  1
Ｓ－７
 41
0.858268
  7
BIGFONT
100
AcDbText
  0
LINE
  5
217
330
1F
100
AcDbEntity
  8
dxfile
  6
PLine1
 62
     3
100
AcDbLine
 10
2197.229461
 20
3269.710087
 30
0.0
 11
2281.85264
 21
3269.710087
 31
0.0
  0
LINE
  5
218
330
1F
100
AcDbEntity
  8
dxfile
  6
Continuous
 62
     3
100
AcDbLine
 10
1973.962407
 20
3369.267198
 30
0.0
 11
2530.372415
 21
3369.267198
 31
0.0
  0
LINE
  5
219
330
1F
100
AcDbEntity
  8
dxfile
  6
Continuous
 62
     3
100
AcDbLine
 10
2530.372415
 20
3369.267198
 30
0.0
 11
2530.372415
 21
3123.0424
 31
0.0
  0
LINE
  5
21A
330
1F
100
AcDbEntity
  8
dxfile
  6
Continuous
 62
     3
100
AcDbLine
 10
2530.372415
 20
3123.0424
 30
0.0
 11
1973.962407
 21
3123.0424
 31
0.0
  0
LINE
  5
21B
330
1F
100
AcDbEntity
  8
dxfile
  6
Continuous
 62
     3
100
AcDbLine
 10
510.453947
 20
877.335203
 30
0.0
 11
510.453947
 21
848.951704
 31
0.0
  0
LINE
  5
21C
330
1F
100
AcDbEntity
  8
dxfile
  6
Continuous
 62
     2
100
AcDbLine
 10
1922.823459
 20
3275.976661
 30
0.0
 11
257.384743
 21
3275.976661
 31
0.0
  0
LINE
  5
21D
330
1F
100
AcDbEntity
  8
dxfile
  6
Continuous
 62
     3
100
AcDbLine
 10
1922.823459
 20
3225.198464
 30
0.0
 11
257.384743
 21
3225.198464
 31
0.0
  0
LINE
  5
21E
330
1F
100
AcDbEntity
  8
dxfile
  6
Continuous
 62
     3
100
AcDbLine
 10
1922.823459
 20
3174.420267
 30
0.0
 11
257.384743
 21
3174.420267
 31
0.0
  0
LINE
  5
21F
330
1F
100
AcDbEntity
  8
dxfile
  6
Continuous
 62
     2
100
AcDbLine
 10
1922.823459
 20
3123.64207
 30
0.0
 11
257.384743
 21
3123.64207
 31
0.0
  0
LINE
  5
220
330
1F
100
AcDbEntity
  8
dxfile
  6
Continuous
 62
     3
100
AcDbLine
 10
1578.875139
 20
3326.754858
 30
0.0
 11
551.935671
 21
3326.754858
 31
0.0
  0
LINE
  5
221
330
1F
100
AcDbEntity
  8
dxfile
  6
Continuous
 62
     3
100
AcDbLine
 10
1973.962407
 20
3123.0424
 30
0.0
 11
1973.962407
 21
3369.267198
 31
0.0
  0
LINE
  5
222
330
1F
100
AcDbEntity
  8
dxfile
  6
Continuous
 62
     2
100
AcDbLine
 10
257.384743
 20
3326.754858
 30
0.0
 11
257.384743
 21
3377.533055
 31
0.0
  0
LINE
  5
223
330
1F
100
AcDbEntity
  8
dxfile
  6
Continuous
 62
     2
100
AcDbLine
 10
1578.875139
 20
3123.64207
 30
0.0
 11
1578.875139
 21
3377.533055
 31
0.0
  0
LINE
  5
224
330
1F
100
AcDbEntity
  8
dxfile
  6
Continuous
 62
     2
100
AcDbLine
 10
1922.823459
 20
3377.533055
 30
0.0
 11
257.384743
 21
3377.533055
 31
0.0
  0
LINE
  5
225
330
1F
100
AcDbEntity
  8
dxfile
  6
Continuous
 62
     3
100
AcDbLine
 10
1497.9542
 20
2169.075455
 30
0.0
 11
1517.091191
 21
2169.075455
 31
0.0
  0
LINE
  5
226
330
1F
100
AcDbEntity
  8
dxfile
  6
Continuous
 62
     3
100
AcDbLine
 10
1517.091191
 20
2169.075455
 30
0.0
 11
1517.091191
 21
2188.212445
 31
0.0
  0
LINE
  5
227
330
1F
100
AcDbEntity
  8
dxfile
  6
Continuous
 62
     3
100
AcDbLine
 10
1517.091191
 20
2188.212445
 30
0.0
 11
1497.9542
 21
2188.212445
 31
0.0
  0
LINE
  5
228
330
1F
100
AcDbEntity
  8
dxfile
  6
Continuous
 62
     3
100
AcDbLine
 10
1497.9542
 20
2188.212445
 30
0.0
 11
1497.9542
 21
2169.075455
 31
0.0
  0
LINE
  5
229
330
1F
100
AcDbEntity
  8
dxfile
  6
Continuous
 62
     1
100
AcDbLine
 10
122.762148
 20
100.931206
 30
0.0
 11
122.762148
 21
3460.931206
 31
0.0
  0
LINE
  5
22A
330
1F
100
AcDbEntity
  8
dxfile
  6
Continuous
 62
     1
100
AcDbLine
 10
122.762148
 20
100.931206
 30
0.0
 11
4922.762148
 21
100.931206
 31
0.0
  0
LINE
  5
22B
330
1F
100
AcDbEntity
  8
dxfile
  6
Continuous
 62
     1
100
AcDbLine
 10
3182.873706
 20
100.931206
 30
0.0
 11
3902.873706
 21
100.931206
 31
0.0
  0
LINE
  5
22C
330
1F
100
AcDbEntity
  8
dxfile
  6
Continuous
 62
     3
100
AcDbLine
 10
4262.762148
 20
340.931206
 30
0.0
 11
4262.762148
 21
100.931206
 31
0.0
  0
LINE
  5
22D
330
1F
100
AcDbEntity
  8
dxfile
  6
Continuous
 62
     3
100
AcDbLine
 10
4142.762148
 20
340.931206
 30
0.0
 11
4142.762148
 21
100.931206
 31
0.0
  0
LINE
  5
22E
330
1F
100
AcDbEntity
  8
dxfile
  6
Continuous
 62
     3
100
AcDbLine
 10
4022.762148
 20
340.931206
 30
0.0
 11
4022.762148
 21
100.931206
 31
0.0
  0
LINE
  5
22F
330
1F
100
AcDbEntity
  8
dxfile
  6
Continuous
 62
     3
100
AcDbLine
 10
3902.762148
 20
340.931206
 30
0.0
 11
3902.762148
 21
100.931206
 31
0.0
  0
LINE
  5
230
330
1F
100
AcDbEntity
  8
dxfile
  6
Continuous
 62
     1
100
AcDbLine
 10
3158.762148
 20
340.931206
 30
0.0
 11
3158.762148
 21
100.931206
 31
0.0
  0
LINE
  5
231
330
1F
100
AcDbEntity
  8
dxfile
  6
Continuous
 62
     1
100
AcDbLine
 10
3158.762148
 20
100.931206
 30
0.0
 11
4922.762148
 21
100.931206
 31
0.0
  0
LINE
  5
232
330
1F
100
AcDbEntity
  8
dxfile
  6
Continuous
 62
     1
100
AcDbLine
 10
4922.762148
 20
100.931206
 30
0.0
 11
4922.762148
 21
340.931206
 31
0.0
  0
LINE
  5
233
330
1F
100
AcDbEntity
  8
dxfile
  6
Continuous
 62
     1
100
AcDbLine
 10
4922.762148
 20
340.931206
 30
0.0
 11
3158.762148
 21
340.931206
 31
0.0
  0
LINE
  5
234
330
1F
100
AcDbEntity
  8
dxfile
  6
Continuous
 62
     2
100
AcDbLine
 10
3245.056785
 20
273.937094
 30
0.0
 11
3267.201161
 21
296.081469
 31
0.0
  0
LINE
  5
235
330
1F
100
AcDbEntity
  8
dxfile
  6
Continuous
 62
     2
100
AcDbLine
 10
3245.056785
 20
242.620217
 30
0.0
 11
3245.056785
 21
273.937094
 31
0.0
  0
LINE
  5
236
330
1F
100
AcDbEntity
  8
dxfile
  6
Continuous
 62
     2
100
AcDbLine
 10
3240.256785
 20
273.937094
 30
0.0
 11
3240.256785
 21
242.620217
 31
0.0
  0
LINE
  5
237
330
1F
100
AcDbEntity
  8
dxfile
  6
Continuous
 62
     2
100
AcDbLine
 10
3218.112409
 20
296.081469
 30
0.0
 11
3240.256785
 21
273.937094
 31
0.0
  0
LINE
  5
238
330
1F
100
AcDbEntity
  8
dxfile
  6
Continuous
 62
     2
100
AcDbLine
 10
3290.656785
 20
274.931206
 30
0.0
 11
3282.183991
 21
272.531206
 31
0.0
  0
LINE
  5
239
330
1F
100
AcDbEntity
  8
dxfile
  6
Continuous
 62
     2
100
AcDbLine
 10
3290.656785
 20
274.931206
 30
0.0
 11
3282.256785
 21
274.931206
 31
0.0
  0
LINE
  5
23A
330
1F
100
AcDbEntity
  8
dxfile
  6
Continuous
 62
     2
100
AcDbLine
 10
3282.183991
 20
277.331206
 30
0.0
 11
3290.656785
 21
274.931206
 31
0.0
  0
LINE
  5
23B
330
1F
100
AcDbEntity
  8
dxfile
  6
Continuous
 62
     2
100
AcDbLine
 10
3242.656785
 20
226.931206
 30
0.0
 11
3242.656785
 21
235.331206
 31
0.0
  0
LINE
  5
23C
330
1F
100
AcDbEntity
  8
dxfile
  6
Continuous
 62
     2
100
AcDbLine
 10
3242.656785
 20
226.931206
 30
0.0
 11
3245.056785
 21
235.404
 31
0.0
  0
LINE
  5
23D
330
1F
100
AcDbEntity
  8
dxfile
  6
Continuous
 62
     2
100
AcDbLine
 10
3242.656785
 20
226.931206
 30
0.0
 11
3240.256785
 21
235.404
 31
0.0
  0
LINE
  5
23E
330
1F
100
AcDbEntity
  8
dxfile
  6
Continuous
 62
     2
100
AcDbLine
 10
3194.656785
 20
274.931206
 30
0.0
 11
3203.129579
 21
272.531206
 31
0.0
  0
LINE
  5
23F
330
1F
100
AcDbEntity
  8
dxfile
  6
Continuous
 62
     2
100
AcDbLine
 10
3194.656785
 20
274.931206
 30
0.0
 11
3203.056785
 21
274.931206
 31
0.0
  0
LINE
  5
240
330
1F
100
AcDbEntity
  8
dxfile
  6
Continuous
 62
     2
100
AcDbLine
 10
3194.656785
 20
274.931206
 30
0.0
 11
3203.129579
 21
277.331206
 31
0.0
  0
LINE
  5
241
330
1F
100
AcDbEntity
  8
dxfile
  6
Continuous
 62
     2
100
AcDbLine
 10
3242.656785
 20
322.931206
 30
0.0
 11
3245.056785
 21
314.458412
 31
0.0
  0
LINE
  5
242
330
1F
100
AcDbEntity
  8
dxfile
  6
Continuous
 62
     2
100
AcDbLine
 10
3242.656785
 20
322.931206
 30
0.0
 11
3240.256785
 21
314.458412
 31
0.0
  0
LINE
  5
243
330
1F
100
AcDbEntity
  8
dxfile
  6
Continuous
 62
     2
100
AcDbLine
 10
3242.656785
 20
322.931206
 30
0.0
 11
3242.656785
 21
314.531206
 31
0.0
  0
LINE
  5
244
330
1F
100
AcDbEntity
  8
dxfile
  6
Continuous
 62
     2
100
AcDbLine
 10
3242.656785
 20
278.325319
 30
0.0
 11
3221.506522
 21
299.475582
 31
0.0
  0
LINE
  5
245
330
1F
100
AcDbEntity
  8
dxfile
  6
Continuous
 62
     2
100
AcDbLine
 10
3263.807048
 20
299.475582
 30
0.0
 11
3242.656785
 21
278.325319
 31
0.0
  0
LINE
  5
246
330
1F
100
AcDbEntity
  8
dxfile
  6
Continuous
 62
     2
100
AcDbLine
 10
3242.656785
 20
274.931206
 30
0.0
 11
3265.567045
 21
297.841466
 31
0.0
  0
LINE
  5
247
330
1F
100
AcDbEntity
  8
dxfile
  6
Continuous
 62
     2
100
AcDbLine
 10
3242.656785
 20
274.931206
 30
0.0
 11
3242.656785
 21
242.531206
 31
0.0
  0
LINE
  5
248
330
1F
100
AcDbEntity
  8
dxfile
  6
Continuous
 62
     2
100
AcDbLine
 10
3219.746525
 20
297.841466
 30
0.0
 11
3242.656785
 21
274.931206
 31
0.0
  0
ARC
  5
249
330
1F
100
AcDbEntity
  8
dxfile
  6
Continuous
 62
     2
100
AcDbCircle
 10
3242.656785
 20
274.931206
 30
0.0
 40
27.59999999993499
100
AcDbArc
 50
62.718932
 51
117.281068
  0
ARC
  5
24A
330
1F
100
AcDbEntity
  8
dxfile
  6
Continuous
 62
     2
100
AcDbCircle
 10
3242.656785
 20
274.931206
 30
0.0
 40
32.40000000006756
100
AcDbArc
 50
60.026114
 51
119.973886
  0
ARC
  5
24B
330
1F
100
AcDbEntity
  8
dxfile
  6
Continuous
 62
     2
100
AcDbCircle
 10
3242.656785
 20
274.931206
 30
0.0
 40
32.40000000006654
100
AcDbArc
 50
285.026114
 51
29.973886
  0
ARC
  5
24C
330
1F
100
AcDbEntity
  8
dxfile
  6
Continuous
 62
     2
100
AcDbCircle
 10
3242.656785
 20
274.931206
 30
0.0
 40
27.59999999999059
100
AcDbArc
 50
287.718932
 51
27.281068
  0
ARC
  5
24D
330
1F
100
AcDbEntity
  8
dxfile
  6
Continuous
 62
     2
100
AcDbCircle
 10
3242.656785
 20
274.931206
 30
0.0
 40
27.59999999998905
100
AcDbArc
 50
152.718932
 51
252.281068
  0
ARC
  5
24E
330
1F
100
AcDbEntity
  8
dxfile
  6
Continuous
 62
     2
100
AcDbCircle
 10
3242.656785
 20
274.931206
 30
0.0
 40
32.40000000003175
100
AcDbArc
 50
150.026114
 51
254.973886
  0
CIRCLE
  5
24F
330
1F
100
AcDbEntity
  8
dxfile
  6
Continuous
 62
     2
100
AcDbCircle
 10
3242.656785
 20
274.931206
 30
0.0
 40
39.60000000000014
  0
CIRCLE
  5
250
330
1F
100
AcDbEntity
  8
dxfile
  6
Continuous
 62
     2
100
AcDbCircle
 10
3242.656785
 20
274.931206
 30
0.0
 40
44.39999999999986
  0
TEXT
  5
251
330
1F
100
AcDbEntity
  8
dxfile
  6
Continuous
 62
     3
100
AcDbText
 10
3323.499936
 20
124.54117
 30
0.0
 40
36.0
  1
電話　０３－３６８５－３４５１（代）
 41
0.858268
  7
BIGFONT
100
AcDbText
  0
TEXT
  5
252
330
1F
100
AcDbEntity
  8
dxfile
  6
Continuous
 62
     3
100
AcDbText
 10
3325.066224
 20
173.744182
 30
0.0
 40
36.0
  1
本社　東京都江東区亀戸６－２０－７
 41
0.858268
  7
BIGFONT
100
AcDbText
  0
ARC
  5
253
330
1F
100
AcDbEntity
  8
dxfile
  6
Continuous
 62
     2
100
AcDbCircle
 10
3242.656785
 20
274.931206
 30
0.0
 40
30.00000000000665
100
AcDbArc
 50
151.260205
 51
253.739795
  0
ARC
  5
254
330
1F
100
AcDbEntity
  8
dxfile
  6
Continuous
 62
     2
100
AcDbCircle
 10
3242.656785
 20
274.931206
 30
0.0
 40
29.99999999994867
100
AcDbArc
 50
286.260205
 51
28.739795
  0
ARC
  5
255
330
1F
100
AcDbEntity
  8
dxfile
  6
Continuous
 62
     2
100
AcDbCircle
 10
3242.656785
 20
274.931206
 30
0.0
 40
29.99999999993554
100
AcDbArc
 50
61.260205
 51
118.739795
  0
CIRCLE
  5
256
330
1F
100
AcDbEntity
  8
dxfile
  6
Continuous
 62
     2
100
AcDbCircle
 10
3242.656785
 20
274.931206
 30
0.0
 40
42.0
  0
TEXT
  5
257
330
1F
100
AcDbEntity
  8
dxfile
  6
Continuous
 62
     1
100
AcDbText
 10
3317.997624
 20
232.963054
 30
0.0
 40
84.0
  1
三洋工業株式会社
 41
0.858268
  7
BIGFONT
100
AcDbText
  0
TEXT
  5
258
330
1F
100
AcDbEntity
  8
dxfile
  6
Continuous
 62
     2
100
AcDbText
 10
4054.770816
 20
236.256754
 30
0.0
 40
36.0
  1
ｍｍ
 41
0.858268
  7
BIGFONT
100
AcDbText
  0
TEXT
  5
259
330
1F
100
AcDbEntity
  8
dxfile
  6
Continuous
 62
     2
100
AcDbText
 10
4202.544288
 20
191.969398
 30
0.0
 40
36.0
  1
図番
 41
0.858268
  7
BIG VER
100
AcDbText
  0
TEXT
  5
25A
330
1F
100
AcDbEntity
  8
dxfile
  6
Continuous
 62
     2
100
AcDbText
 10
4202.544288
 20
316.45255
 30
0.0
 40
36.0
  1
形名
 41
0.858268
  7
BIG VER
100
AcDbText
  0
TEXT
  5
25B
330
1F
100
AcDbEntity
  8
dxfile
  6
Continuous
 62
     2
100
AcDbText
 10
3965.66093
 20
193.958205
 30
0.0
 40
36.0
  1
製図
 41
0.858268
  7
BIG VER
100
AcDbText
  0
TEXT
  5
25C
330
1F
100
AcDbEntity
  8
dxfile
  6
Continuous
 62
     2
100
AcDbText
 10
3965.66093
 20
313.254705
 30
0.0
 40
36.0
  1
単位
 41
0.858268
  7
BIG VER
100
AcDbText
  0
LINE
  5
25D
330
1F
100
AcDbEntity
  8
dxfile
  6
Continuous
 62
     3
100
AcDbLine
 10
3902.762148
 20
220.931206
 30
0.0
 11
4922.762148
 21
220.931206
 31
0.0
  0
TEXT
  5
25E
330
1F
100
AcDbEntity
  8
dxfile
  6
Continuous
 62
     2
100
AcDbText
 10
4284.293663
 20
283.079677
 30
0.0
 40
48.0
  1
ライトモニック標準施工図
 41
0.858268
  7
BIGFONT
100
AcDbText
  0
TEXT
  5
25F
330
1F
100
AcDbEntity
  8
dxfile
  6
Continuous
 62
     2
100
AcDbText
 10
4388.31692
 20
135.90818
 30
0.0
 40
48.0
  1
Ｈ－１２－ＬＭ－６４
 41
0.858268
  7
BIGFONT
100
AcDbText
  0
LINE
  5
260
330
1F
100
AcDbEntity
  8
dxfile
  6
Continuous
 62
     3
100
AcDbLine
 10
754.687474
 20
1193.850782
 30
0.0
 11
719.686276
 21
1173.878857
 31
0.0
  0
LINE
  5
261
330
1F
100
AcDbEntity
  8
dxfile
  6
Continuous
 62
     3
100
AcDbLine
 10
719.687474
 20
1173.879541
 30
0.0
 11
719.687474
 21
1034.335203
 31
0.0
  0
LINE
  5
262
330
1F
100
AcDbEntity
  8
dxfile
  6
Continuous
 62
     3
100
AcDbLine
 10
722.364616
 20
1233.565541
 30
0.0
 11
740.86358
 21
1254.788818
 31
0.0
  0
ARC
  5
263
330
1F
100
AcDbEntity
  8
dxfile
  6
Continuous
 62
     3
100
AcDbCircle
 10
724.641214
 20
1231.611801
 30
0.0
 40
2.999999999994987
100
AcDbArc
 50
139.364342
 51
319.364342
  0
LINE
  5
264
330
1F
100
AcDbEntity
  8
dxfile
  6
Continuous
 62
     3
100
AcDbLine
 10
726.887609
 20
1229.623139
 30
0.0
 11
741.672145
 21
1246.584971
 31
0.0
  0
ARC
  5
265
330
1F
100
AcDbEntity
  8
dxfile
  6
Continuous
 62
     3
100
AcDbCircle
 10
746.71662
 20
1249.335203
 30
0.0
 40
7.999999999993983
100
AcDbArc
 50
4.892331
 51
140.823642
  0
INSERT
  5
26F
330
1F
100
AcDbEntity
  8
dxfile
  6
Continuous
 62
     3
100
AcDbBlockReference
  2
DIM_1
 10
676.754405
 20
1257.335203
 30
0.0
  0
LINE
  5
270
330
1F
100
AcDbEntity
  8
dxfile
  6
Continuous
 62
     3
100
AcDbLine
 10
496.487474
 20
927.335203
 30
0.0
 11
497.687474
 21
926.135203
 31
0.0
  0
LINE
  5
271
330
1F
100
AcDbEntity
  8
dxfile
  6
Continuous
 62
     3
100
AcDbLine
 10
2657.687474
 20
1025.335204
 30
0.0
 11
2657.687474
 21
927.335203
 31
0.0
  0
ARC
  5
272
330
1F
100
AcDbEntity
  8
dxfile
  6
Continuous
 62
     3
100
AcDbCircle
 10
2655.687475
 20
1025.335204
 30
0.0
 40
1.999999200295745
100
AcDbArc
 50
0.0
 51
90.0
  0
LINE
  5
273
330
1F
100
AcDbEntity
  8
dxfile
  6
Continuous
 62
     3
100
AcDbLine
 10
2557.687474
 20
1025.335203
 30
0.0
 11
2557.687474
 21
895.979201
 31
0.0
  0
LINE
  5
274
330
1F
100
AcDbEntity
  8
dxfile
  6
Continuous
 62
     3
100
AcDbLine
 10
2669.687474
 20
980.316645
 30
0.0
 11
2669.687474
 21
936.135203
 31
0.0
  0
ARC
  5
275
330
1F
100
AcDbEntity
  8
dxfile
  6
Continuous
 62
     3
100
AcDbCircle
 10
2889.687474
 20
883.335203
 30
0.0
 40
1.999999999130331
100
AcDbArc
 50
270.0
 51
0.0
  0
LINE
  5
276
330
1F
100
AcDbEntity
  8
dxfile
  6
Continuous
 62
     3
100
AcDbLine
 10
2889.687474
 20
881.335203
 30
0.0
 11
2876.921002
 21
881.335203
 31
0.0
  0
ARC
  5
277
330
1F
100
AcDbEntity
  8
dxfile
  6
Continuous
 62
     3
100
AcDbCircle
 10
2876.921002
 20
877.335203
 30
0.0
 40
3.999999999733584
100
AcDbArc
 50
90.0
 51
180.0
  0
LINE
  5
278
330
1F
100
AcDbEntity
  8
dxfile
  6
Continuous
 62
     3
100
AcDbLine
 10
2866.687474
 20
879.322434
 30
0.0
 11
2866.687474
 21
863.335203
 31
0.0
  0
ARC
  5
279
330
1F
100
AcDbEntity
  8
dxfile
  6
Continuous
 62
     3
100
AcDbCircle
 10
2665.687474
 20
1175.041014
 30
0.0
 40
4.000000000520273
100
AcDbArc
 50
0.0
 51
60.290621
  0
LINE
  5
27A
330
1F
100
AcDbEntity
  8
dxfile
  6
Continuous
 62
     3
100
AcDbLine
 10
2669.687474
 20
1175.041014
 30
0.0
 11
2669.687474
 21
994.142409
 31
0.0
  0
LINE
  5
27B
330
1F
100
AcDbEntity
  8
dxfile
  6
Continuous
 62
     3
100
AcDbLine
 10
2647.187474
 20
1034.335203
 30
0.0
 11
2663.687474
 21
1034.335203
 31
0.0
  0
ARC
  5
27C
330
1F
100
AcDbEntity
  8
dxfile
  6
Continuous
 62
     3
100
AcDbCircle
 10
2828.203352
 20
954.741097
 30
0.0
 40
0.800000000854514
100
AcDbArc
 50
344.998601
 51
80.788973
  0
LINE
  5
27D
330
1F
100
AcDbEntity
  8
dxfile
  6
Continuous
 62
     3
100
AcDbLine
 10
2821.957345
 20
928.342277
 30
0.0
 11
2828.976088
 21
954.534023
 31
0.0
  0
ARC
  5
27E
330
1F
100
AcDbEntity
  8
dxfile
  6
Continuous
 62
     3
100
AcDbCircle
 10
2831.085335
 20
936.135203
 30
0.0
 40
0.7999999986923549
100
AcDbArc
 50
164.997259
 51
270.0
  0
LINE
  5
27F
330
1F
100
AcDbEntity
  8
dxfile
  6
Continuous
 62
     3
100
AcDbLine
 10
2853.715934
 20
935.335203
 30
0.0
 11
2831.085335
 21
935.335203
 31
0.0
  0
ARC
  5
280
330
1F
100
AcDbEntity
  8
dxfile
  6
Continuous
 62
     3
100
AcDbCircle
 10
2822.730081
 20
928.135203
 30
0.0
 40
0.8000000017283124
100
AcDbArc
 50
164.998601
 51
270.0
  0
LINE
  5
281
330
1F
100
AcDbEntity
  8
dxfile
  6
Continuous
 62
     3
100
AcDbLine
 10
2853.703934
 20
927.335203
 30
0.0
 11
2822.730081
 21
927.335203
 31
0.0
  0
ARC
  5
282
330
1F
100
AcDbEntity
  8
dxfile
  6
Continuous
 62
     3
100
AcDbCircle
 10
2670.487474
 20
936.135203
 30
0.0
 40
0.8000000002267348
100
AcDbArc
 50
180.0
 51
270.0
  0
LINE
  5
283
330
1F
100
AcDbEntity
  8
dxfile
  6
Continuous
 62
     3
100
AcDbLine
 10
2695.687474
 20
935.335203
 30
0.0
 11
2670.487474
 21
935.335203
 31
0.0
  0
LINE
  5
284
330
1F
100
AcDbEntity
  8
dxfile
  6
Continuous
 62
     3
100
AcDbLine
 10
2699.839071
 20
931.311201
 30
0.0
 11
2699.839071
 21
931.335201
 31
0.0
  0
ARC
  5
285
330
1F
100
AcDbEntity
  8
dxfile
  6
Continuous
 62
     3
100
AcDbCircle
 10
2664.487474
 20
928.135203
 30
0.0
 40
0.7999999982442281
100
AcDbArc
 50
180.0
 51
270.0
  0
LINE
  5
286
330
1F
100
AcDbEntity
  8
dxfile
  6
Continuous
 62
     3
100
AcDbLine
 10
2695.687474
 20
927.335203
 30
0.0
 11
2664.487474
 21
927.335203
 31
0.0
  0
LINE
  5
287
330
1F
100
AcDbEntity
  8
dxfile
  6
Continuous
 62
     3
100
AcDbLine
 10
2830.312605
 20
936.342295
 30
0.0
 11
2834.971279
 21
953.72538
 31
0.0
  0
ARC
  5
288
330
1F
100
AcDbEntity
  8
dxfile
  6
Continuous
 62
     3
100
AcDbCircle
 10
2853.691934
 20
931.353201
 30
0.0
 40
3.99999839978901
100
AcDbArc
 50
0.0
 51
90.0
  0
ARC
  5
289
330
1F
100
AcDbEntity
  8
dxfile
  6
Continuous
 62
     3
100
AcDbCircle
 10
2853.691934
 20
931.353201
 30
0.0
 40
3.999998400031624
100
AcDbArc
 50
270.0
 51
0.0
  0
ARC
  5
28A
330
1F
100
AcDbEntity
  8
dxfile
  6
Continuous
 62
     3
100
AcDbCircle
 10
2872.321002
 20
857.947653
 30
0.0
 40
0.6000000000984774
100
AcDbArc
 50
266.108615
 51
0.0
  0
ARC
  5
28B
330
1F
100
AcDbEntity
  8
dxfile
  6
Continuous
 62
     3
100
AcDbCircle
 10
2872.687474
 20
863.335203
 30
0.0
 40
6.000000000394367
100
AcDbArc
 50
180.0
 51
266.108615
  0
LINE
  5
28C
330
1F
100
AcDbEntity
  8
dxfile
  6
Continuous
 62
     3
100
AcDbLine
 10
2877.707
 20
887.322431
 30
0.0
 11
2874.739001
 21
887.322431
 31
0.0
  0
ARC
  5
28D
330
1F
100
AcDbEntity
  8
dxfile
  6
Continuous
 62
     3
100
AcDbCircle
 10
2890.887474
 20
950.654482
 30
0.0
 40
0.8000000002329495
100
AcDbArc
 50
0.0
 51
80.788973
  0
LINE
  5
28E
330
1F
100
AcDbEntity
  8
dxfile
  6
Continuous
 62
     3
100
AcDbLine
 10
2891.687474
 20
950.654482
 30
0.0
 11
2891.687474
 21
927.935203
 31
0.0
  0
ARC
  5
28F
330
1F
100
AcDbEntity
  8
dxfile
  6
Continuous
 62
     3
100
AcDbCircle
 10
2677.687474
 20
994.142409
 30
0.0
 40
8.000000000013097
100
AcDbArc
 50
180.0
 51
260.788973
  0
LINE
  5
290
330
1F
100
AcDbEntity
  8
dxfile
  6
Continuous
 62
     3
100
AcDbLine
 10
2676.406905
 20
986.245565
 30
0.0
 11
2891.015531
 21
951.444167
 31
0.0
  0
ARC
  5
291
330
1F
100
AcDbEntity
  8
dxfile
  6
Continuous
 62
     3
100
AcDbCircle
 10
2874.739001
 20
879.322434
 30
0.0
 40
7.999996800307306
100
AcDbArc
 50
90.0
 51
180.0
  0
ARC
  5
292
330
1F
100
AcDbEntity
  8
dxfile
  6
Continuous
 62
     3
100
AcDbCircle
 10
2877.707
 20
895.322428
 30
0.0
 40
7.999996800234956
100
AcDbArc
 50
270.0
 51
0.0
  0
LINE
  5
293
330
1F
100
AcDbEntity
  8
dxfile
  6
Continuous
 62
     3
100
AcDbLine
 10
2891.087474
 20
927.335203
 30
0.0
 11
2891.687474
 21
927.935203
 31
0.0
  0
LINE
  5
294
330
1F
100
AcDbEntity
  8
dxfile
  6
Continuous
 62
     3
100
AcDbLine
 10
2891.087474
 20
927.335203
 30
0.0
 11
2891.687474
 21
926.735203
 31
0.0
  0
LINE
  5
295
330
1F
100
AcDbEntity
  8
dxfile
  6
Continuous
 62
     3
100
AcDbLine
 10
2891.687474
 20
883.335203
 30
0.0
 11
2891.687474
 21
926.735203
 31
0.0
  0
LINE
  5
296
330
1F
100
AcDbEntity
  8
dxfile
  6
Continuous
 62
     3
100
AcDbLine
 10
2634.687474
 20
1197.335203
 30
0.0
 11
2667.669878
 21
1178.515216
 31
0.0
  0
ARC
  5
297
330
1F
100
AcDbEntity
  8
dxfile
  6
Continuous
 62
     3
100
AcDbCircle
 10
2559.687474
 20
1025.335203
 30
0.0
 40
2.000000000022284
100
AcDbArc
 50
90.0
 51
180.0
  0
LINE
  5
298
330
1F
100
AcDbEntity
  8
dxfile
  6
Continuous
 62
     3
100
AcDbLine
 10
2536.223472
 20
921.379191
 30
0.0
 11
2531.677474
 21
921.379191
 31
0.0
  0
LINE
  5
299
330
1F
100
AcDbEntity
  8
dxfile
  6
Continuous
 62
     3
100
AcDbLine
 10
2536.307472
 20
895.979201
 30
0.0
 11
2557.687474
 21
895.979201
 31
0.0
  0
LINE
  5
29A
330
1F
100
AcDbEntity
  8
dxfile
  6
Continuous
 62
     3
100
AcDbLine
 10
2653.087476
 20
924.735203
 30
0.0
 11
2653.087476
 21
1022.735203
 31
0.0
  0
LINE
  5
29B
330
1F
100
AcDbEntity
  8
dxfile
  6
Continuous
 62
     3
100
AcDbLine
 10
2861.687474
 20
857.335203
 30
0.0
 11
2857.087474
 21
857.335203
 31
0.0
  0
ARC
  5
29C
330
1F
100
AcDbEntity
  8
dxfile
  6
Continuous
 62
     3
100
AcDbCircle
 10
2638.687474
 20
1243.956703
 30
0.0
 40
3.999999999902103
100
AcDbArc
 50
41.076567
 51
180.0
  0
LINE
  5
29D
330
1F
100
AcDbEntity
  8
dxfile
  6
Continuous
 62
     3
100
AcDbLine
 10
2634.687474
 20
1197.335203
 30
0.0
 11
2634.687474
 21
1243.956703
 31
0.0
  0
LINE
  5
29E
330
1F
100
AcDbEntity
  8
dxfile
  6
Continuous
 62
     3
100
AcDbLine
 10
2628.687474
 20
1250.017471
 30
0.0
 11
2628.687474
 21
1193.390308
 31
0.0
  0
LINE
  5
29F
330
1F
100
AcDbEntity
  8
dxfile
  6
Continuous
 62
     3
100
AcDbLine
 10
2663.687474
 20
928.135203
 30
0.0
 11
2663.687474
 21
1027.335203
 31
0.0
  0
LINE
  5
2A0
330
1F
100
AcDbEntity
  8
dxfile
  6
Continuous
 62
     3
100
AcDbLine
 10
2562.287474
 20
893.335203
 30
0.0
 11
2562.287474
 21
1022.735203
 31
0.0
  0
LINE
  5
2A1
330
1F
100
AcDbEntity
  8
dxfile
  6
Continuous
 62
     3
100
AcDbLine
 10
2653.087476
 20
1022.735203
 30
0.0
 11
2562.287474
 21
1022.735203
 31
0.0
  0
LINE
  5
2A2
330
1F
100
AcDbEntity
  8
dxfile
  6
Continuous
 62
     3
100
AcDbLine
 10
2647.187474
 20
1027.335203
 30
0.0
 11
2663.687474
 21
1027.335203
 31
0.0
  0
ARC
  5
2A3
330
1F
100
AcDbEntity
  8
dxfile
  6
Continuous
 62
     3
100
AcDbCircle
 10
2655.087476
 20
924.735203
 30
0.0
 40
1.999999999679828
100
AcDbArc
 50
180.0
 51
270.0
  0
LINE
  5
2A4
330
1F
100
AcDbEntity
  8
dxfile
  6
Continuous
 62
     3
100
AcDbLine
 10
2536.307472
 20
921.369191
 30
0.0
 11
2536.307472
 21
895.979201
 31
0.0
  0
LINE
  5
2A5
330
1F
100
AcDbEntity
  8
dxfile
  6
Continuous
 62
     3
100
AcDbLine
 10
2531.687474
 20
921.369191
 30
0.0
 11
2531.687474
 21
921.201191
 31
0.0
  0
LINE
  5
2A6
330
1F
100
AcDbEntity
  8
dxfile
  6
Continuous
 62
     3
100
AcDbLine
 10
2857.087474
 20
922.735203
 30
0.0
 11
2655.087476
 21
922.735203
 31
0.0
  0
LINE
  5
2A7
330
1F
100
AcDbEntity
  8
dxfile
  6
Continuous
 62
     3
100
AcDbLine
 10
2857.087474
 20
857.335203
 30
0.0
 11
2857.087474
 21
922.735203
 31
0.0
  0
ARC
  5
2A8
330
1F
100
AcDbEntity
  8
dxfile
  6
Continuous
 62
     3
100
AcDbCircle
 10
2859.687474
 20
925.335203
 30
0.0
 40
2.000000000648472
100
AcDbArc
 50
0.0
 51
90.0
  0
LINE
  5
2A9
330
1F
100
AcDbEntity
  8
dxfile
  6
Continuous
 62
     3
100
AcDbLine
 10
2861.687474
 20
857.335203
 30
0.0
 11
2861.687474
 21
925.335203
 31
0.0
  0
LINE
  5
2AA
330
1F
100
AcDbEntity
  8
dxfile
  6
Continuous
 62
     3
100
AcDbLine
 10
2531.687474
 20
921.369191
 30
0.0
 11
2531.687474
 21
893.335203
 31
0.0
  0
ARC
  5
2AB
330
1F
100
AcDbEntity
  8
dxfile
  6
Continuous
 62
     3
100
AcDbCircle
 10
2560.287474
 20
893.335203
 30
0.0
 40
2.000000000456624
100
AcDbArc
 50
270.0
 51
0.0
  0
LINE
  5
2AC
330
1F
100
AcDbEntity
  8
dxfile
  6
Continuous
 62
     3
100
AcDbLine
 10
2560.287474
 20
891.335203
 30
0.0
 11
2533.687474
 21
891.335203
 31
0.0
  0
ARC
  5
2AD
330
1F
100
AcDbEntity
  8
dxfile
  6
Continuous
 62
     3
100
AcDbCircle
 10
2533.687473
 20
893.335202
 30
0.0
 40
1.999999200725504
100
AcDbArc
 50
180.0
 51
270.0
  0
LINE
  5
2AE
330
1F
100
AcDbEntity
  8
dxfile
  6
Continuous
 62
     3
100
AcDbLine
 10
2859.687474
 20
927.335203
 30
0.0
 11
2657.687474
 21
927.335203
 31
0.0
  0
LINE
  5
2AF
330
1F
100
AcDbEntity
  8
dxfile
  6
Continuous
 62
     3
100
AcDbLine
 10
2647.187474
 20
1027.335203
 30
0.0
 11
2559.687474
 21
1027.335203
 31
0.0
  0
ARC
  5
2B0
330
1F
100
AcDbEntity
  8
dxfile
  6
Continuous
 62
     3
100
AcDbCircle
 10
2670.487474
 20
980.316645
 30
0.0
 40
0.7999999995372891
100
AcDbArc
 50
80.788973
 51
180.0
  0
LINE
  5
2B1
330
1F
100
AcDbEntity
  8
dxfile
  6
Continuous
 62
     3
100
AcDbLine
 10
2670.615531
 20
981.106329
 30
0.0
 11
2828.331409
 21
955.530781
 31
0.0
  0
ARC
  5
2B2
330
1F
100
AcDbEntity
  8
dxfile
  6
Continuous
 62
     3
100
AcDbCircle
 10
2835.74401
 20
953.518288
 30
0.0
 40
0.8000000004893428
100
AcDbArc
 50
80.788973
 51
164.997259
  0
LINE
  5
2B3
330
1F
100
AcDbEntity
  8
dxfile
  6
Continuous
 62
     3
100
AcDbLine
 10
2885.687474
 20
946.229798
 30
0.0
 11
2835.872067
 21
954.307972
 31
0.0
  0
LINE
  5
2B4
330
1F
100
AcDbEntity
  8
dxfile
  6
Continuous
 62
     3
100
AcDbLine
 10
2885.687474
 20
946.229798
 30
0.0
 11
2885.687474
 21
928.535203
 31
0.0
  0
LINE
  5
2B5
330
1F
100
AcDbEntity
  8
dxfile
  6
Continuous
 62
     3
100
AcDbLine
 10
2885.687474
 20
894.763879
 30
0.0
 11
2885.687474
 21
926.135203
 31
0.0
  0
LINE
  5
2B6
330
1F
100
AcDbEntity
  8
dxfile
  6
Continuous
 62
     3
100
AcDbLine
 10
2886.887474
 20
927.335203
 30
0.0
 11
2885.687474
 21
928.535203
 31
0.0
  0
ARC
  5
2B7
330
1F
100
AcDbEntity
  8
dxfile
  6
Continuous
 62
     3
100
AcDbCircle
 10
2695.687474
 20
931.335203
 30
0.0
 40
4.000000000141313
100
AcDbArc
 50
270.0
 51
90.0
  0
ARC
  5
2B8
330
1F
100
AcDbEntity
  8
dxfile
  6
Continuous
 62
     3
100
AcDbCircle
 10
2647.187474
 20
1030.835203
 30
0.0
 40
3.499999999753982
100
AcDbArc
 50
90.0
 51
270.0
  0
LINE
  5
2B9
330
1F
100
AcDbEntity
  8
dxfile
  6
Continuous
 62
     4
100
AcDbLine
 10
2719.687474
 20
922.735203
 30
0.0
 11
2691.687474
 21
922.735203
 31
0.0
  0
LINE
  5
2BA
330
1F
100
AcDbEntity
  8
dxfile
  6
Continuous
 62
     4
100
AcDbLine
 10
2691.687474
 20
922.735203
 30
0.0
 11
2691.687474
 21
918.135203
 31
0.0
  0
LINE
  5
2BB
330
1F
100
AcDbEntity
  8
dxfile
  6
Continuous
 62
     4
100
AcDbLine
 10
2691.687474
 20
918.135203
 30
0.0
 11
2717.087474
 21
918.135203
 31
0.0
  0
LINE
  5
2BC
330
1F
100
AcDbEntity
  8
dxfile
  6
Continuous
 62
     4
100
AcDbLine
 10
2717.087474
 20
918.135203
 30
0.0
 11
2717.087474
 21
872.809223
 31
0.0
  0
LINE
  5
2BD
330
1F
100
AcDbEntity
  8
dxfile
  6
Continuous
 62
     4
100
AcDbLine
 10
2717.087474
 20
872.809223
 30
0.0
 11
2721.687474
 21
872.809223
 31
0.0
  0
LINE
  5
2BE
330
1F
100
AcDbEntity
  8
dxfile
  6
Continuous
 62
     4
100
AcDbLine
 10
2721.687474
 20
872.809223
 30
0.0
 11
2721.687474
 21
920.735203
 31
0.0
  0
ARC
  5
2BF
330
1F
100
AcDbEntity
  8
dxfile
  6
Continuous
 62
     4
100
AcDbCircle
 10
2719.687474
 20
920.735203
 30
0.0
 40
1.999999999937755
100
AcDbArc
 50
0.0
 51
90.0
  0
LINE
  5
2C0
330
1F
100
AcDbEntity
  8
dxfile
  6
Continuous
 62
     3
100
AcDbLine
 10
2872.921002
 20
877.335203
 30
0.0
 11
2872.921002
 21
848.951704
 31
0.0
  0
LINE
  5
2C1
330
1F
100
AcDbEntity
  8
dxfile
  6
Continuous
 62
     3
100
AcDbLine
 10
2628.687474
 20
1193.850782
 30
0.0
 11
2663.688673
 21
1173.878857
 31
0.0
  0
LINE
  5
2C2
330
1F
100
AcDbEntity
  8
dxfile
  6
Continuous
 62
     3
100
AcDbLine
 10
2663.687474
 20
1173.879541
 30
0.0
 11
2663.687474
 21
1034.335203
 31
0.0
  0
LINE
  5
2C3
330
1F
100
AcDbEntity
  8
dxfile
  6
Continuous
 62
     3
100
AcDbLine
 10
2661.010333
 20
1233.565541
 30
0.0
 11
2642.511369
 21
1254.788818
 31
0.0
  0
ARC
  5
2C4
330
1F
100
AcDbEntity
  8
dxfile
  6
Continuous
 62
     3
100
AcDbCircle
 10
2658.733734
 20
1231.611801
 30
0.0
 40
2.999999999926555
100
AcDbArc
 50
220.635658
 51
40.635658
  0
LINE
  5
2C5
330
1F
100
AcDbEntity
  8
dxfile
  6
Continuous
 62
     3
100
AcDbLine
 10
2656.48734
 20
1229.623139
 30
0.0
 11
2641.702803
 21
1246.584971
 31
0.0
  0
ARC
  5
2C6
330
1F
100
AcDbEntity
  8
dxfile
  6
Continuous
 62
     3
100
AcDbCircle
 10
2636.658328
 20
1249.335203
 30
0.0
 40
7.999999999930046
100
AcDbArc
 50
39.176358
 51
175.107669
  0
LINE
  5
2C7
330
1F
100
AcDbEntity
  8
dxfile
  6
Continuous
 62
     3
100
AcDbLine
 10
2886.887474
 20
927.335203
 30
0.0
 11
2885.687474
 21
926.135203
 31
0.0
  0
LINE
  5
2C8
330
1F
100
AcDbEntity
  8
dxfile
  6
Continuous
 62
     3
100
AcDbLine
 10
2518.087474
 20
1343.008986
 30
0.0
 11
2688.487474
 21
1343.008986
 31
0.0
  0
ARC
  5
2C9
330
1F
100
AcDbEntity
  8
dxfile
  6
Continuous
 62
     3
100
AcDbCircle
 10
2690.087474
 20
1344.628452
 30
0.0
 40
1.599999998935569
100
AcDbArc
 50
0.0
 51
90.0
  0
LINE
  5
2CA
330
1F
100
AcDbEntity
  8
dxfile
  6
Continuous
 62
     3
100
AcDbLine
 10
2691.687474
 20
1216.228452
 30
0.0
 11
2691.687474
 21
1344.628452
 31
0.0
  0
LINE
  5
2CB
330
1F
100
AcDbEntity
  8
dxfile
  6
Continuous
 62
     3
100
AcDbLine
 10
2688.487474
 20
1216.228452
 30
0.0
 11
2688.487474
 21
1343.008986
 31
0.0
  0
LINE
  5
2CC
330
1F
100
AcDbEntity
  8
dxfile
  6
Continuous
 62
     3
100
AcDbLine
 10
2685.287474
 20
1343.008986
 30
0.0
 11
2685.287474
 21
1289.43454
 31
0.0
  0
ARC
  5
2CD
330
1F
100
AcDbEntity
  8
dxfile
  6
Continuous
 62
     3
100
AcDbCircle
 10
2686.887474
 20
1287.816611
 30
0.0
 40
1.599999999194176
100
AcDbArc
 50
269.993634
 51
0.0
  0
ARC
  5
2CE
330
1F
100
AcDbEntity
  8
dxfile
  6
Continuous
 62
     3
100
AcDbCircle
 10
2513.287474
 20
1287.8359
 30
0.0
 40
1.599999999634532
100
AcDbArc
 50
180.0
 51
269.993634
  0
LINE
  5
2CF
330
1F
100
AcDbEntity
  8
dxfile
  6
Continuous
 62
     3
100
AcDbLine
 10
2511.687474
 20
1346.236078
 30
0.0
 11
2511.687474
 21
1287.8359
 31
0.0
  0
ARC
  5
2D0
330
1F
100
AcDbEntity
  8
dxfile
  6
Continuous
 62
     3
100
AcDbCircle
 10
2516.487474
 20
1344.628452
 30
0.0
 40
1.599999999706095
100
AcDbArc
 50
90.0
 51
180.0
  0
LINE
  5
2D1
330
1F
100
AcDbEntity
  8
dxfile
  6
Continuous
 62
     3
100
AcDbLine
 10
2514.887474
 20
1346.228452
 30
0.0
 11
2514.887474
 21
1289.432503
 31
0.0
  0
LINE
  5
2D2
330
1F
100
AcDbEntity
  8
dxfile
  6
Continuous
 62
     3
100
AcDbLine
 10
2518.087474
 20
1289.435366
 30
0.0
 11
2518.087474
 21
1343.008986
 31
0.0
  0
LINE
  5
2D3
330
1F
100
AcDbEntity
  8
dxfile
  6
Continuous
 62
     3
100
AcDbLine
 10
2511.629074
 20
1346.228452
 30
0.0
 11
2690.029074
 21
1346.228452
 31
0.0
  0
LINE
  5
2D4
330
1F
100
AcDbEntity
  8
dxfile
  6
Continuous
 62
     3
100
AcDbLine
 10
2687.023373
 20
1286.228452
 30
0.0
 11
2511.629074
 21
1286.228452
 31
0.0
  0
LINE
  5
2D5
330
1F
100
AcDbEntity
  8
dxfile
  6
Continuous
 62
     3
100
AcDbLine
 10
2514.887474
 20
1289.428452
 30
0.0
 11
2685.287474
 21
1289.428452
 31
0.0
  0
LINE
  5
2D6
330
1F
100
AcDbEntity
  8
dxfile
  6
PLine5
 62
     3
100
AcDbLine
 10
2466.845943
 20
1210.359803
 30
0.0
 11
2486.70792
 21
1234.295025
 31
0.0
  0
LINE
  5
2D7
330
1F
100
AcDbEntity
  8
dxfile
  6
Continuous
 62
     4
100
AcDbLine
 10
2499.687474
 20
1336.227998
 30
0.0
 11
2511.687474
 21
1336.228452
 31
0.0
  0
LINE
  5
2D8
330
1F
100
AcDbEntity
  8
dxfile
  6
Continuous
 62
     4
100
AcDbLine
 10
2499.687474
 20
1336.227998
 30
0.0
 11
2499.687474
 21
1304.228452
 31
0.0
  0
ARC
  5
2D9
330
1F
100
AcDbEntity
  8
dxfile
  6
Continuous
 62
     4
100
AcDbCircle
 10
2493.687474
 20
1304.228452
 30
0.0
 40
6.00000000015355
100
AcDbArc
 50
270.0
 51
0.0
  0
ARC
  5
2DA
330
1F
100
AcDbEntity
  8
dxfile
  6
Continuous
 62
     4
100
AcDbCircle
 10
2493.687474
 20
1304.228452
 30
0.0
 40
6.00000000015355
100
AcDbArc
 50
270.0
 51
0.0
  0
LINE
  5
2DB
330
1F
100
AcDbEntity
  8
dxfile
  6
Continuous
 62
     4
100
AcDbLine
 10
2417.687474
 20
1298.228452
 30
0.0
 11
2493.687474
 21
1298.228452
 31
0.0
  0
LINE
  5
2DC
330
1F
100
AcDbEntity
  8
dxfile
  6
Continuous
 62
     3
100
AcDbLine
 10
2444.763967
 20
1251.738997
 30
0.0
 11
2583.823715
 21
1136.711159
 31
0.0
  0
ARC
  5
2DD
330
1F
100
AcDbEntity
  8
dxfile
  6
Continuous
 62
     3
100
AcDbCircle
 10
2513.836931
 20
1191.821796
 30
0.0
 40
4.999999999818701
100
AcDbArc
 50
162.204141
 51
230.313361
  0
ARC
  5
2DE
330
1F
100
AcDbEntity
  8
dxfile
  6
Continuous
 62
     3
100
AcDbCircle
 10
2513.836931
 20
1191.821796
 30
0.0
 40
4.999999999594065
100
AcDbArc
 50
50.313361
 51
118.137898
  0
LINE
  5
2DF
330
1F
100
AcDbEntity
  8
dxfile
  6
Continuous
 62
     3
100
AcDbLine
 10
2577.548055
 20
1136.711159
 30
0.0
 11
2442.209613
 21
1248.660803
 31
0.0
  0
LINE
  5
2E0
330
1F
100
AcDbEntity
  8
dxfile
  6
Continuous
 62
     3
100
AcDbLine
 10
2509.366813
 20
1186.434956
 30
0.0
 11
2510.64399
 21
1187.974053
 31
0.0
  0
LINE
  5
2E1
330
1F
100
AcDbEntity
  8
dxfile
  6
Continuous
 62
     3
100
AcDbLine
 10
2518.30705
 20
1197.208635
 30
0.0
 11
2517.029873
 21
1195.669538
 31
0.0
  0
LINE
  5
2E2
330
1F
100
AcDbEntity
  8
dxfile
  6
Continuous
 62
     3
100
AcDbLine
 10
2430.417356
 20
1251.948964
 30
0.0
 11
2509.366813
 21
1186.434956
 31
0.0
  0
LINE
  5
2E3
330
1F
100
AcDbEntity
  8
dxfile
  6
Continuous
 62
     3
100
AcDbLine
 10
2435.464535
 20
1250.359629
 30
0.0
 11
2510.64399
 21
1187.974053
 31
0.0
  0
LINE
  5
2E4
330
1F
100
AcDbEntity
  8
dxfile
  6
Continuous
 62
     3
100
AcDbLine
 10
2441.853913
 20
1258.020444
 30
0.0
 11
2517.029873
 21
1195.669538
 31
0.0
  0
LINE
  5
2E5
330
1F
100
AcDbEntity
  8
dxfile
  6
Continuous
 62
     3
100
AcDbLine
 10
2439.357593
 20
1262.722643
 30
0.0
 11
2518.30705
 21
1197.208635
 31
0.0
  0
LINE
  5
2E6
330
1F
100
AcDbEntity
  8
dxfile
  6
Continuous
 62
     3
100
AcDbLine
 10
2424.657422
 20
1265.824927
 30
0.0
 11
2444.678889
 21
1249.21067
 31
0.0
  0
LINE
  5
2E7
330
1F
100
AcDbEntity
  8
dxfile
  6
Continuous
 62
     3
100
AcDbLine
 10
2427.244067
 20
1248.124905
 30
0.0
 11
2444.000801
 21
1268.318069
 31
0.0
  0
LINE
  5
2E8
330
1F
100
AcDbEntity
  8
dxfile
  6
Continuous
 62
     4
100
AcDbLine
 10
2431.687474
 20
1263.561556
 30
0.0
 11
2431.687474
 21
1282.726428
 31
0.0
  0
LINE
  5
2E9
330
1F
100
AcDbEntity
  8
dxfile
  6
Continuous
 62
     4
100
AcDbLine
 10
2434.887474
 20
1264.335803
 30
0.0
 11
2434.887474
 21
1285.926428
 31
0.0
  0
LINE
  5
2EA
330
1F
100
AcDbEntity
  8
dxfile
  6
Continuous
 62
     4
100
AcDbLine
 10
2438.087474
 20
1263.561556
 30
0.0
 11
2438.087474
 21
1282.726428
 31
0.0
  0
LINE
  5
2EB
330
1F
100
AcDbEntity
  8
dxfile
  6
Continuous
 62
     4
100
AcDbLine
 10
2454.887474
 20
1282.726428
 30
0.0
 11
2438.087474
 21
1282.726428
 31
0.0
  0
LINE
  5
2EC
330
1F
100
AcDbEntity
  8
dxfile
  6
Continuous
 62
     4
100
AcDbLine
 10
2454.887474
 20
1285.926428
 30
0.0
 11
2454.887474
 21
1282.726428
 31
0.0
  0
LINE
  5
2ED
330
1F
100
AcDbEntity
  8
dxfile
  6
Continuous
 62
     4
100
AcDbLine
 10
2411.687474
 20
1282.726428
 30
0.0
 11
2431.687474
 21
1282.726428
 31
0.0
  0
ARC
  5
2EE
330
1F
100
AcDbEntity
  8
dxfile
  6
Continuous
 62
     4
100
AcDbCircle
 10
2417.687474
 20
1292.228452
 30
0.0
 40
6.00000000001705
100
AcDbArc
 50
90.0
 51
180.0
  0
LINE
  5
2EF
330
1F
100
AcDbEntity
  8
dxfile
  6
Continuous
 62
     4
100
AcDbLine
 10
2411.687474
 20
1282.726428
 30
0.0
 11
2411.687474
 21
1292.228452
 31
0.0
  0
CIRCLE
  5
2F0
330
1F
100
AcDbEntity
  8
dxfile
  6
Continuous
 62
     3
100
AcDbCircle
 10
2434.887474
 20
1257.335803
 30
0.0
 40
6.999999999999773
  0
ARC
  5
2F1
330
1F
100
AcDbEntity
  8
dxfile
  6
Continuous
 62
     3
100
AcDbCircle
 10
2439.960276
 20
1253.12628
 30
0.0
 40
5.000000000036367
100
AcDbArc
 50
230.313361
 51
296.735183
  0
ARC
  5
2F2
330
1F
100
AcDbEntity
  8
dxfile
  6
Continuous
 62
     3
100
AcDbCircle
 10
2439.960276
 20
1253.12628
 30
0.0
 40
4.999999999852682
100
AcDbArc
 50
343.89154
 51
50.313361
  0
LINE
  5
2F3
330
1F
100
AcDbEntity
  8
dxfile
  6
Continuous
 62
     6
100
AcDbLine
 10
2560.775659
 20
1346.228452
 30
0.0
 11
2552.80313
 21
1354.200982
 31
0.0
  0
LINE
  5
2F4
330
1F
100
AcDbEntity
  8
dxfile
  6
Continuous
 62
     6
100
AcDbLine
 10
2552.783662
 20
1346.228452
 30
0.0
 11
2544.811133
 21
1354.200982
 31
0.0
  0
LINE
  5
2F5
330
1F
100
AcDbEntity
  8
dxfile
  6
Continuous
 62
     6
100
AcDbLine
 10
2544.359666
 20
1346.228452
 30
0.0
 11
2536.387136
 21
1354.200982
 31
0.0
  0
LINE
  5
2F6
330
1F
100
AcDbEntity
  8
dxfile
  6
Continuous
 62
     6
100
AcDbLine
 10
2535.863669
 20
1346.228452
 30
0.0
 11
2527.89114
 21
1354.200982
 31
0.0
  0
LINE
  5
2F7
330
1F
100
AcDbEntity
  8
dxfile
  6
Continuous
 62
     6
100
AcDbLine
 10
2521.435126
 20
1351.152999
 30
0.0
 11
2526.359673
 21
1346.228452
 31
0.0
  0
LINE
  5
2F8
330
1F
100
AcDbEntity
  8
dxfile
  6
Continuous
 62
     6
100
AcDbLine
 10
2561.435126
 20
1354.228452
 30
0.0
 11
2521.435126
 21
1354.228452
 31
0.0
  0
LINE
  5
2F9
330
1F
100
AcDbEntity
  8
dxfile
  6
Continuous
 62
     6
100
AcDbLine
 10
2521.435126
 20
1354.228452
 30
0.0
 11
2521.435126
 21
1346.228452
 31
0.0
  0
LINE
  5
2FA
330
1F
100
AcDbEntity
  8
dxfile
  6
Continuous
 62
     6
100
AcDbLine
 10
2521.435126
 20
1346.228452
 30
0.0
 11
2561.435126
 21
1346.228452
 31
0.0
  0
LINE
  5
2FB
330
1F
100
AcDbEntity
  8
dxfile
  6
Continuous
 62
     6
100
AcDbLine
 10
2561.435126
 20
1346.228452
 30
0.0
 11
2561.435126
 21
1354.228452
 31
0.0
  0
LINE
  5
2FC
330
1F
100
AcDbEntity
  8
dxfile
  6
Continuous
 62
     2
100
AcDbLine
 10
1750.567921
 20
3123.64207
 30
0.0
 11
1750.567921
 21
3377.533055
 31
0.0
  0
LINE
  5
2FD
330
1F
100
AcDbEntity
  8
dxfile
  6
Continuous
 62
     3
100
AcDbLine
 10
2579.435126
 20
1354.001159
 30
0.0
 11
2579.435126
 21
1337.999165
 31
0.0
  0
LINE
  5
2FE
330
1F
100
AcDbEntity
  8
dxfile
  6
Continuous
 62
     3
100
AcDbLine
 10
2515.645145
 20
1370.228452
 30
0.0
 11
2515.645145
 21
1367.828452
 31
0.0
  0
LINE
  5
2FF
330
1F
100
AcDbEntity
  8
dxfile
  6
Continuous
 62
     3
100
AcDbLine
 10
2564.435126
 20
1349.228452
 30
0.0
 11
2594.435126
 21
1349.228452
 31
0.0
  0
ARC
  5
300
330
1F
100
AcDbEntity
  8
dxfile
  6
Continuous
 62
     3
100
AcDbCircle
 10
2562.835126
 20
1371.628452
 30
0.0
 40
1.600000000552107
100
AcDbArc
 50
0.0
 51
90.0
  0
LINE
  5
301
330
1F
100
AcDbEntity
  8
dxfile
  6
Continuous
 62
     3
100
AcDbLine
 10
2564.435126
 20
1349.228452
 30
0.0
 11
2564.435126
 21
1371.628452
 31
0.0
  0
LINE
  5
302
330
1F
100
AcDbEntity
  8
dxfile
  6
Continuous
 62
     3
100
AcDbLine
 10
2561.341126
 20
1370.228452
 30
0.0
 11
2514.435126
 21
1370.228452
 31
0.0
  0
LINE
  5
303
330
1F
100
AcDbEntity
  8
dxfile
  6
Continuous
 62
     3
100
AcDbLine
 10
2514.435126
 20
1373.228452
 30
0.0
 11
2562.835126
 21
1373.228452
 31
0.0
  0
LINE
  5
304
330
1F
100
AcDbEntity
  8
dxfile
  6
Continuous
 62
     3
100
AcDbLine
 10
2561.435126
 20
1370.226452
 30
0.0
 11
2561.435126
 21
1347.828452
 31
0.0
  0
ARC
  5
305
330
1F
100
AcDbEntity
  8
dxfile
  6
Continuous
 62
     3
100
AcDbCircle
 10
2563.035126
 20
1347.828452
 30
0.0
 40
1.599999999182645
100
AcDbArc
 50
180.0
 51
270.0
  0
LINE
  5
306
330
1F
100
AcDbEntity
  8
dxfile
  6
Continuous
 62
     6
100
AcDbLine
 10
2561.435126
 20
1346.228452
 30
0.0
 11
2561.435126
 21
1354.228452
 31
0.0
  0
LINE
  5
307
330
1F
100
AcDbEntity
  8
dxfile
  6
Continuous
 62
     3
100
AcDbLine
 10
2514.435126
 20
1373.228452
 30
0.0
 11
2514.435126
 21
1370.228452
 31
0.0
  0
LINE
  5
308
330
1F
100
AcDbEntity
  8
dxfile
  6
Continuous
 62
     3
100
AcDbLine
 10
2594.435126
 20
1346.228452
 30
0.0
 11
2594.435126
 21
1349.228452
 31
0.0
  0
LINE
  5
309
330
1F
100
AcDbEntity
  8
dxfile
  6
Continuous
 62
     6
100
AcDbLine
 10
706.14523
 20
1346.228452
 30
0.0
 11
720.105757
 21
1360.188979
 31
0.0
  0
LINE
  5
30A
330
1F
100
AcDbEntity
  8
dxfile
  6
Continuous
 62
     6
100
AcDbLine
 10
701.687474
 20
1351.692952
 30
0.0
 11
707.151974
 21
1346.228452
 31
0.0
  0
LINE
  5
30B
330
1F
100
AcDbEntity
  8
dxfile
  6
Continuous
 62
     6
100
AcDbLine
 10
751.688039
 20
1370.536974
 30
0.0
 11
751.687795
 21
1366.188977
 31
0.0
  0
LINE
  5
30C
330
1F
100
AcDbEntity
  8
dxfile
  6
Continuous
 62
     3
100
AcDbLine
 10
751.688039
 20
1370.536974
 30
0.0
 11
751.685987
 21
1373.536974
 31
0.0
  0
LINE
  5
30D
330
1F
100
AcDbEntity
  8
dxfile
  6
Continuous
 62
     6
100
AcDbLine
 10
2642.761482
 20
1360.188979
 30
0.0
 11
2656.809476
 21
1346.140985
 31
0.0
  0
LINE
  5
30E
330
1F
100
AcDbEntity
  8
dxfile
  6
Continuous
 62
     6
100
AcDbLine
 10
2641.687474
 20
1351.345311
 30
0.0
 11
2646.804332
 21
1346.228452
 31
0.0
  0
LINE
  5
30F
330
1F
100
AcDbEntity
  8
dxfile
  6
Continuous
 62
     6
100
AcDbLine
 10
2641.687474
 20
1346.228452
 30
0.0
 11
2641.687474
 21
1360.250979
 31
0.0
  0
LINE
  5
310
330
1F
100
AcDbEntity
  8
dxfile
  6
Continuous
 62
     6
100
AcDbLine
 10
2666.082005
 20
1346.228452
 30
0.0
 11
2652.121478
 21
1360.188979
 31
0.0
  0
LINE
  5
311
330
1F
100
AcDbEntity
  8
dxfile
  6
Continuous
 62
     6
100
AcDbLine
 10
2645.976948
 20
1346.228452
 30
0.0
 11
2659.937475
 21
1360.188979
 31
0.0
  0
LINE
  5
312
330
1F
100
AcDbEntity
  8
dxfile
  6
Continuous
 62
     6
100
AcDbLine
 10
2681.687474
 20
1346.228452
 30
0.0
 11
2681.687474
 21
1360.259253
 31
0.0
  0
LINE
  5
313
330
1F
100
AcDbEntity
  8
dxfile
  6
Continuous
 62
     6
100
AcDbLine
 10
2681.687474
 20
1353.134974
 30
0.0
 11
2674.633469
 21
1360.188979
 31
0.0
  0
LINE
  5
314
330
1F
100
AcDbEntity
  8
dxfile
  6
Continuous
 62
     6
100
AcDbLine
 10
2691.69004
 20
1367.784976
 30
0.0
 11
2631.736911
 21
1367.784976
 31
0.0
  0
LINE
  5
315
330
1F
100
AcDbEntity
  8
dxfile
  6
Continuous
 62
     6
100
AcDbLine
 10
2691.688876
 20
1369.487
 30
0.0
 11
2631.736911
 21
1369.489
 31
0.0
  0
LINE
  5
316
330
1F
100
AcDbEntity
  8
dxfile
  6
Continuous
 62
     6
100
AcDbLine
 10
2691.692105
 20
1368.504976
 30
0.0
 11
2631.746911
 21
1368.504976
 31
0.0
  0
LINE
  5
317
330
1F
100
AcDbEntity
  8
dxfile
  6
Continuous
 62
     6
100
AcDbLine
 10
2691.69068
 20
1366.848937
 30
0.0
 11
2631.736911
 21
1366.848937
 31
0.0
  0
LINE
  5
318
330
1F
100
AcDbEntity
  8
dxfile
  6
PLine2
 62
     3
100
AcDbLine
 10
2661.687474
 20
1335.265085
 30
0.0
 11
2661.687474
 21
1406.056961
 31
0.0
  0
LINE
  5
319
330
1F
100
AcDbEntity
  8
dxfile
  6
Continuous
 62
     6
100
AcDbLine
 10
2665.94494
 20
1346.228452
 30
0.0
 11
2679.905467
 21
1360.188979
 31
0.0
  0
LINE
  5
31A
330
1F
100
AcDbEntity
  8
dxfile
  6
Continuous
 62
     6
100
AcDbLine
 10
2655.650888
 20
1346.228452
 30
0.0
 11
2669.609464
 21
1360.188979
 31
0.0
  0
LINE
  5
31B
330
1F
100
AcDbEntity
  8
dxfile
  6
Continuous
 62
     6
100
AcDbLine
 10
2641.687474
 20
1351.922974
 30
0.0
 11
2649.945479
 21
1360.180979
 31
0.0
  0
LINE
  5
31C
330
1F
100
AcDbEntity
  8
dxfile
  6
Continuous
 62
     3
100
AcDbLine
 10
2691.688157
 20
1370.536974
 30
0.0
 11
2691.686105
 21
1373.536974
 31
0.0
  0
LINE
  5
31D
330
1F
100
AcDbEntity
  8
dxfile
  6
Continuous
 62
     3
100
AcDbLine
 10
2631.688911
 20
1373.536974
 30
0.0
 11
2691.686105
 21
1373.536974
 31
0.0
  0
LINE
  5
31E
330
1F
100
AcDbEntity
  8
dxfile
  6
Continuous
 62
     3
100
AcDbLine
 10
2631.686859
 20
1370.536974
 30
0.0
 11
2691.688157
 21
1370.536974
 31
0.0
  0
LINE
  5
31F
330
1F
100
AcDbEntity
  8
dxfile
  6
Continuous
 62
     6
100
AcDbLine
 10
2691.688157
 20
1370.536974
 30
0.0
 11
2691.687914
 21
1366.188977
 31
0.0
  0
LINE
  5
320
330
1F
100
AcDbEntity
  8
dxfile
  6
Continuous
 62
     6
100
AcDbLine
 10
2677.229719
 20
1346.228452
 30
0.0
 11
2663.269192
 21
1360.188979
 31
0.0
  0
LINE
  5
321
330
1F
100
AcDbEntity
  8
dxfile
  6
Continuous
 62
     6
100
AcDbLine
 10
2681.687474
 20
1351.692952
 30
0.0
 11
2676.222974
 21
1346.228452
 31
0.0
  0
LINE
  5
322
330
1F
100
AcDbEntity
  8
dxfile
  6
Continuous
 62
     6
100
AcDbLine
 10
2631.686859
 20
1370.536974
 30
0.0
 11
2631.687102
 21
1366.188977
 31
0.0
  0
LINE
  5
323
330
1F
100
AcDbEntity
  8
dxfile
  6
Continuous
 62
     3
100
AcDbLine
 10
2631.686859
 20
1370.536974
 30
0.0
 11
2631.688911
 21
1373.536974
 31
0.0
  0
LINE
  5
324
330
1F
100
AcDbEntity
  8
dxfile
  6
Continuous
 62
     3
100
AcDbLine
 10
2862.663201
 20
1286.188977
 30
0.0
 11
2691.629074
 21
1286.188977
 31
0.0
  0
ARC
  5
325
330
1F
100
AcDbEntity
  8
dxfile
  6
Continuous
 62
     3
100
AcDbCircle
 10
2833.753017
 20
1356.188981
 30
0.0
 40
3.999998400117481
100
AcDbArc
 50
14.20993
 51
90.0
  0
ARC
  5
326
330
1F
100
AcDbEntity
  8
dxfile
  6
Continuous
 62
     3
100
AcDbCircle
 10
2833.753017
 20
1356.188981
 30
0.0
 40
9.999995999842914
100
AcDbArc
 50
14.216888
 51
90.0
  0
LINE
  5
327
330
1F
100
AcDbEntity
  8
dxfile
  6
Continuous
 62
     3
100
AcDbLine
 10
2862.663201
 20
1286.188977
 30
0.0
 11
2843.447013
 21
1358.64498
 31
0.0
  0
LINE
  5
328
330
1F
100
AcDbEntity
  8
dxfile
  6
Continuous
 62
     3
100
AcDbLine
 10
2856.472056
 20
1286.188977
 30
0.0
 11
2837.631016
 21
1357.17098
 31
0.0
  0
ARC
  5
329
330
1F
100
AcDbEntity
  8
dxfile
  6
Continuous
 62
     3
100
AcDbCircle
 10
737.126261
 20
1369.842975
 30
0.0
 40
10.24999589999496
100
AcDbArc
 50
21.124164
 51
83.396555
  0
LINE
  5
32A
330
1F
100
AcDbEntity
  8
dxfile
  6
Continuous
 62
     3
100
AcDbLine
 10
2645.06997
 20
1380.024971
 30
0.0
 11
2678.304979
 21
1380.024971
 31
0.0
  0
ARC
  5
32B
330
1F
100
AcDbEntity
  8
dxfile
  6
Continuous
 62
     3
100
AcDbCircle
 10
2677.126261
 20
1369.842975
 30
0.0
 40
10.24999589960078
100
AcDbArc
 50
21.124164
 51
83.073303
  0
ARC
  5
32C
330
1F
100
AcDbEntity
  8
dxfile
  6
Continuous
 62
     3
100
AcDbCircle
 10
2646.248687
 20
1369.842975
 30
0.0
 40
10.2499958995936
100
AcDbArc
 50
96.603445
 51
158.875836
  0
LINE
  5
32D
330
1F
100
AcDbEntity
  8
dxfile
  6
Continuous
 62
     3
100
AcDbLine
 10
743.6678
 20
1221.790308
 30
0.0
 11
761.578248
 21
1221.790308
 31
0.0
  0
LINE
  5
32E
330
1F
100
AcDbEntity
  8
dxfile
  6
Continuous
 62
     3
100
AcDbLine
 10
817.042861
 20
1002.958379
 30
0.0
 11
832.642283
 21
1002.958379
 31
0.0
  0
LINE
  5
32F
330
1F
100
AcDbEntity
  8
dxfile
  6
Continuous
 62
     3
100
AcDbLine
 10
2611.524008
 20
960.335203
 30
0.0
 11
2611.524008
 21
1059.768299
 31
0.0
  0
LINE
  5
330
330
1F
100
AcDbEntity
  8
dxfile
  6
Continuous
 62
     3
100
AcDbLine
 10
2611.524008
 20
502.475954
 30
0.0
 11
2611.524008
 21
295.231949
 31
0.0
  0
LINE
  5
331
330
1F
100
AcDbEntity
  8
dxfile
  6
Continuous
 62
     3
100
AcDbLine
 10
2592.687474
 20
1027.335203
 30
0.0
 11
2592.687474
 21
1022.735203
 31
0.0
  0
LINE
  5
332
330
1F
100
AcDbEntity
  8
dxfile
  6
Continuous
 62
     3
100
AcDbLine
 10
2622.687474
 20
1027.335203
 30
0.0
 11
2622.687474
 21
1022.735203
 31
0.0
  0
CIRCLE
  5
333
330
1F
100
AcDbEntity
  8
dxfile
  6
Continuous
 62
     3
100
AcDbCircle
 10
851.687474
 20
652.846871
 30
0.0
 40
6.0
  0
CIRCLE
  5
334
330
1F
100
AcDbEntity
  8
dxfile
  6
Continuous
 62
     3
100
AcDbCircle
 10
2531.687474
 20
652.846871
 30
0.0
 40
6.0
  0
LINE
  5
335
330
1F
100
AcDbEntity
  8
dxfile
  6
Continuous
 62
     3
100
AcDbLine
 10
851.687474
 20
652.846871
 30
0.0
 11
2531.687474
 21
652.846871
 31
0.0
  0
LINE
  5
336
330
1F
100
AcDbEntity
  8
dxfile
  6
Continuous
 62
     3
100
AcDbLine
 10
851.687474
 20
742.386861
 30
0.0
 11
851.687474
 21
640.846871
 31
0.0
  0
LINE
  5
337
330
1F
100
AcDbEntity
  8
dxfile
  6
Continuous
 62
     3
100
AcDbLine
 10
2531.687474
 20
862.327483
 30
0.0
 11
2531.687474
 21
640.846871
 31
0.0
  0
CIRCLE
  5
338
330
1F
100
AcDbEntity
  8
dxfile
  6
Continuous
 62
     3
100
AcDbCircle
 10
521.687474
 20
233.810238
 30
0.0
 40
6.0
  0
CIRCLE
  5
339
330
1F
100
AcDbEntity
  8
dxfile
  6
Continuous
 62
     3
100
AcDbCircle
 10
2861.687474
 20
233.810238
 30
0.0
 40
6.0
  0
LINE
  5
33A
330
1F
100
AcDbEntity
  8
dxfile
  6
Continuous
 62
     3
100
AcDbLine
 10
521.687474
 20
233.810238
 30
0.0
 11
2861.687474
 21
233.810238
 31
0.0
  0
LINE
  5
33B
330
1F
100
AcDbEntity
  8
dxfile
  6
Continuous
 62
     3
100
AcDbLine
 10
521.687474
 20
659.507557
 30
0.0
 11
521.687474
 21
221.810238
 31
0.0
  0
LINE
  5
33C
330
1F
100
AcDbEntity
  8
dxfile
  6
Continuous
 62
     3
100
AcDbLine
 10
2861.687474
 20
674.786717
 30
0.0
 11
2861.687474
 21
221.810238
 31
0.0
  0
INSERT
  5
346
330
1F
100
AcDbEntity
  8
dxfile
  6
Continuous
 62
     3
100
AcDbBlockReference
  2
DIM_2
 10
491.629713
 20
799.052882
 30
0.0
  0
INSERT
  5
350
330
1F
100
AcDbEntity
  8
dxfile
  6
Continuous
 62
     3
100
AcDbBlockReference
  2
DIM_3
 10
520.290575
 20
1366.188977
 30
0.0
  0
CIRCLE
  5
351
330
1F
100
AcDbEntity
  8
dxfile
  6
Continuous
 62
     3
100
AcDbCircle
 10
345.622862
 20
1866.094583
 30
0.0
 40
6.0
  0
CIRCLE
  5
352
330
1F
100
AcDbEntity
  8
dxfile
  6
Continuous
 62
     3
100
AcDbCircle
 10
345.622862
 20
1366.188977
 30
0.0
 40
6.0
  0
LINE
  5
353
330
1F
100
AcDbEntity
  8
dxfile
  6
Continuous
 62
     3
100
AcDbLine
 10
345.622862
 20
1866.094583
 30
0.0
 11
345.622862
 21
1366.188977
 31
0.0
  0
LINE
  5
354
330
1F
100
AcDbEntity
  8
dxfile
  6
Continuous
 62
     3
100
AcDbLine
 10
1533.371961
 20
1866.094583
 30
0.0
 11
333.622862
 21
1866.094583
 31
0.0
  0
LINE
  5
355
330
1F
100
AcDbEntity
  8
dxfile
  6
Continuous
 62
     3
100
AcDbLine
 10
356.174049
 20
1366.188977
 30
0.0
 11
333.622862
 21
1366.188977
 31
0.0
  0
INSERT
  5
35F
330
1F
100
AcDbEntity
  8
dxfile
  6
Continuous
 62
     3
100
AcDbBlockReference
  2
DIM_4
 10
831.687474
 20
1404.910775
 30
0.0
  0
LINE
  5
360
330
1F
100
AcDbEntity
  8
dxfile
  6
Continuous
 62
     4
100
AcDbLine
 10
2596.024008
 20
907.335203
 30
0.0
 11
2623.024008
 21
907.335203
 31
0.0
  0
LINE
  5
361
330
1F
100
AcDbEntity
  8
dxfile
  6
Continuous
 62
     4
100
AcDbLine
 10
2623.024008
 20
907.335203
 30
0.0
 11
2623.024008
 21
850.335203
 31
0.0
  0
LINE
  5
362
330
1F
100
AcDbEntity
  8
dxfile
  6
Continuous
 62
     4
100
AcDbLine
 10
2623.024008
 20
850.335203
 30
0.0
 11
2596.024008
 21
850.335203
 31
0.0
  0
LINE
  5
363
330
1F
100
AcDbEntity
  8
dxfile
  6
Continuous
 62
     4
100
AcDbLine
 10
2596.024008
 20
850.335203
 30
0.0
 11
2596.024008
 21
907.335203
 31
0.0
  0
LINE
  5
364
330
1F
100
AcDbEntity
  8
dxfile
  6
Continuous
 62
     4
100
AcDbLine
 10
2596.024008
 20
907.335203
 30
0.0
 11
2601.524008
 21
916.335203
 31
0.0
  0
LINE
  5
365
330
1F
100
AcDbEntity
  8
dxfile
  6
Continuous
 62
     4
100
AcDbLine
 10
2601.524008
 20
916.335203
 30
0.0
 11
2617.524008
 21
916.335203
 31
0.0
  0
LINE
  5
366
330
1F
100
AcDbEntity
  8
dxfile
  6
Continuous
 62
     4
100
AcDbLine
 10
2617.524008
 20
916.335203
 30
0.0
 11
2623.024008
 21
907.335203
 31
0.0
  0
LINE
  5
367
330
1F
100
AcDbEntity
  8
dxfile
  6
Continuous
 62
     4
100
AcDbLine
 10
2599.524008
 20
927.335203
 30
0.0
 11
2599.524008
 21
931.935203
 31
0.0
  0
LINE
  5
368
330
1F
100
AcDbEntity
  8
dxfile
  6
Continuous
 62
     4
100
AcDbLine
 10
2601.524008
 20
942.935203
 30
0.0
 11
2601.524008
 21
958.335203
 31
0.0
  0
LINE
  5
369
330
1F
100
AcDbEntity
  8
dxfile
  6
Continuous
 62
     4
100
AcDbLine
 10
2601.524008
 20
958.335203
 30
0.0
 11
2603.524008
 21
960.335203
 31
0.0
  0
LINE
  5
36A
330
1F
100
AcDbEntity
  8
dxfile
  6
Continuous
 62
     4
100
AcDbLine
 10
2603.524008
 20
960.335203
 30
0.0
 11
2615.524008
 21
960.335203
 31
0.0
  0
LINE
  5
36B
330
1F
100
AcDbEntity
  8
dxfile
  6
Continuous
 62
     4
100
AcDbLine
 10
2615.524008
 20
960.335203
 30
0.0
 11
2617.524008
 21
958.335203
 31
0.0
  0
LINE
  5
36C
330
1F
100
AcDbEntity
  8
dxfile
  6
Continuous
 62
     4
100
AcDbLine
 10
2617.524008
 20
958.335203
 30
0.0
 11
2617.524008
 21
942.935203
 31
0.0
  0
LINE
  5
36D
330
1F
100
AcDbEntity
  8
dxfile
  6
Continuous
 62
     4
100
AcDbLine
 10
2619.524008
 20
931.935203
 30
0.0
 11
2619.524008
 21
927.335203
 31
0.0
  0
INSERT
  5
377
330
1F
100
AcDbEntity
  8
dxfile
  6
Continuous
 62
     3
100
AcDbBlockReference
  2
DIM_5
 10
2861.687474
 20
850.558515
 30
0.0
  0
LINE
  5
378
330
1F
100
AcDbEntity
  8
dxfile
  6
Continuous
 62
     3
100
AcDbLine
 10
1599.504434
 20
2041.757808
 30
0.0
 11
1618.641424
 21
2041.757808
 31
0.0
  0
LINE
  5
379
330
1F
100
AcDbEntity
  8
dxfile
  6
Continuous
 62
     3
100
AcDbLine
 10
1618.641424
 20
2041.757808
 30
0.0
 11
1618.641424
 21
2060.894798
 31
0.0
  0
LINE
  5
37A
330
1F
100
AcDbEntity
  8
dxfile
  6
Continuous
 62
     3
100
AcDbLine
 10
1618.641424
 20
2060.894798
 30
0.0
 11
1599.504434
 21
2060.894798
 31
0.0
  0
LINE
  5
37B
330
1F
100
AcDbEntity
  8
dxfile
  6
Continuous
 62
     3
100
AcDbLine
 10
1599.504434
 20
2060.894798
 30
0.0
 11
1599.504434
 21
2041.757808
 31
0.0
  0
ARC
  5
37C
330
1F
100
AcDbEntity
  8
dxfile
  6
Continuous
 62
     3
100
AcDbCircle
 10
2609.524008
 20
923.426372
 30
0.0
 40
19.50883117516361
100
AcDbArc
 50
65.790724
 51
114.209276
  0
ARC
  5
37D
330
1F
100
AcDbEntity
  8
dxfile
  6
Continuous
 62
     3
100
AcDbCircle
 10
2620.668241
 20
939.212507
 30
0.0
 40
3.73016330850268
100
AcDbArc
 50
93.62604
 51
147.449869
  0
LINE
  5
37E
330
1F
100
AcDbEntity
  8
dxfile
  6
Continuous
 62
     3
100
AcDbLine
 10
2594.512901
 20
931.935203
 30
0.0
 11
2624.535115
 21
931.935203
 31
0.0
  0
LINE
  5
37F
330
1F
100
AcDbEntity
  8
dxfile
  6
Continuous
 62
     3
100
AcDbLine
 10
2601.524008
 20
931.935203
 30
0.0
 11
2601.524008
 21
941.219474
 31
0.0
  0
LINE
  5
380
330
1F
100
AcDbEntity
  8
dxfile
  6
Continuous
 62
     3
100
AcDbLine
 10
2596.524008
 20
942.935203
 30
0.0
 11
2609.524008
 21
942.935203
 31
0.0
  0
LINE
  5
381
330
1F
100
AcDbEntity
  8
dxfile
  6
Continuous
 62
     3
100
AcDbLine
 10
2624.535115
 20
931.935203
 30
0.0
 11
2624.535115
 21
941.77409
 31
0.0
  0
LINE
  5
382
330
1F
100
AcDbEntity
  8
dxfile
  6
Continuous
 62
     3
100
AcDbLine
 10
2617.524008
 20
931.935203
 30
0.0
 11
2617.524008
 21
941.219474
 31
0.0
  0
LINE
  5
383
330
1F
100
AcDbEntity
  8
dxfile
  6
Continuous
 62
     3
100
AcDbLine
 10
2622.524008
 20
942.935203
 30
0.0
 11
2609.524008
 21
942.935203
 31
0.0
  0
LINE
  5
384
330
1F
100
AcDbEntity
  8
dxfile
  6
Continuous
 62
     3
100
AcDbLine
 10
2594.512901
 20
931.935203
 30
0.0
 11
2594.512901
 21
941.77409
 31
0.0
  0
LINE
  5
385
330
1F
100
AcDbEntity
  8
dxfile
  6
Continuous
 62
     3
100
AcDbLine
 10
2594.512901
 20
941.77409
 30
0.0
 11
2596.524008
 21
942.935203
 31
0.0
  0
LINE
  5
386
330
1F
100
AcDbEntity
  8
dxfile
  6
Continuous
 62
     3
100
AcDbLine
 10
2624.535115
 20
941.77409
 30
0.0
 11
2622.524008
 21
942.935203
 31
0.0
  0
ARC
  5
387
330
1F
100
AcDbEntity
  8
dxfile
  6
Continuous
 62
     3
100
AcDbCircle
 10
2598.379775
 20
939.212507
 30
0.0
 40
3.730163309971578
100
AcDbArc
 50
32.550131
 51
86.37396
  0
ARC
  5
388
330
1F
100
AcDbEntity
  8
dxfile
  6
Continuous
 62
     3
100
AcDbCircle
 10
2609.524008
 20
935.844034
 30
0.0
 40
19.50883117540798
100
AcDbArc
 50
245.790724
 51
294.209276
  0
ARC
  5
389
330
1F
100
AcDbEntity
  8
dxfile
  6
Continuous
 62
     3
100
AcDbCircle
 10
2620.668241
 20
920.057899
 30
0.0
 40
3.73016330986421
100
AcDbArc
 50
212.550131
 51
266.37396
  0
LINE
  5
38A
330
1F
100
AcDbEntity
  8
dxfile
  6
Continuous
 62
     3
100
AcDbLine
 10
2601.524008
 20
927.335203
 30
0.0
 11
2601.524008
 21
918.050932
 31
0.0
  0
LINE
  5
38B
330
1F
100
AcDbEntity
  8
dxfile
  6
Continuous
 62
     3
100
AcDbLine
 10
2596.524008
 20
916.335203
 30
0.0
 11
2609.524008
 21
916.335203
 31
0.0
  0
LINE
  5
38C
330
1F
100
AcDbEntity
  8
dxfile
  6
Continuous
 62
     3
100
AcDbLine
 10
2624.535115
 20
926.17409
 30
0.0
 11
2624.535115
 21
917.496316
 31
0.0
  0
LINE
  5
38D
330
1F
100
AcDbEntity
  8
dxfile
  6
Continuous
 62
     3
100
AcDbLine
 10
2617.524008
 20
927.335203
 30
0.0
 11
2617.524008
 21
918.050932
 31
0.0
  0
LINE
  5
38E
330
1F
100
AcDbEntity
  8
dxfile
  6
Continuous
 62
     3
100
AcDbLine
 10
2622.524008
 20
916.335203
 30
0.0
 11
2609.524008
 21
916.335203
 31
0.0
  0
LINE
  5
38F
330
1F
100
AcDbEntity
  8
dxfile
  6
Continuous
 62
     3
100
AcDbLine
 10
2594.512901
 20
926.17409
 30
0.0
 11
2594.512901
 21
917.496316
 31
0.0
  0
LINE
  5
390
330
1F
100
AcDbEntity
  8
dxfile
  6
Continuous
 62
     3
100
AcDbLine
 10
2594.512901
 20
917.496316
 30
0.0
 11
2596.524008
 21
916.335203
 31
0.0
  0
LINE
  5
391
330
1F
100
AcDbEntity
  8
dxfile
  6
Continuous
 62
     3
100
AcDbLine
 10
2624.535115
 20
917.496316
 30
0.0
 11
2622.524008
 21
916.335203
 31
0.0
  0
ARC
  5
392
330
1F
100
AcDbEntity
  8
dxfile
  6
Continuous
 62
     3
100
AcDbCircle
 10
2598.379775
 20
920.057899
 30
0.0
 40
3.730163309395176
100
AcDbArc
 50
273.62604
 51
327.449869
  0
LINE
  5
393
330
1F
100
AcDbEntity
  8
dxfile
  6
Continuous
 62
     4
100
AcDbLine
 10
2601.524008
 20
927.335203
 30
0.0
 11
2617.524008
 21
927.335203
 31
0.0
  0
ARC
  5
394
330
1F
100
AcDbEntity
  8
dxfile
  6
Continuous
 62
     3
100
AcDbCircle
 10
2609.524008
 20
907.826372
 30
0.0
 40
19.50883117539672
100
AcDbArc
 50
65.790724
 51
114.209276
  0
ARC
  5
395
330
1F
100
AcDbEntity
  8
dxfile
  6
Continuous
 62
     3
100
AcDbCircle
 10
2620.668241
 20
923.612507
 30
0.0
 40
3.730163309541781
100
AcDbArc
 50
93.62604
 51
147.449869
  0
LINE
  5
396
330
1F
100
AcDbEntity
  8
dxfile
  6
Continuous
 62
     3
100
AcDbLine
 10
2596.524008
 20
927.335203
 30
0.0
 11
2609.524008
 21
927.335203
 31
0.0
  0
LINE
  5
397
330
1F
100
AcDbEntity
  8
dxfile
  6
Continuous
 62
     3
100
AcDbLine
 10
2622.524008
 20
927.335203
 30
0.0
 11
2609.524008
 21
927.335203
 31
0.0
  0
LINE
  5
398
330
1F
100
AcDbEntity
  8
dxfile
  6
Continuous
 62
     3
100
AcDbLine
 10
2594.512901
 20
926.17409
 30
0.0
 11
2596.524008
 21
927.335203
 31
0.0
  0
LINE
  5
399
330
1F
100
AcDbEntity
  8
dxfile
  6
Continuous
 62
     3
100
AcDbLine
 10
2624.535115
 20
926.17409
 30
0.0
 11
2622.524008
 21
927.335203
 31
0.0
  0
ARC
  5
39A
330
1F
100
AcDbEntity
  8
dxfile
  6
Continuous
 62
     3
100
AcDbCircle
 10
2598.379775
 20
923.612507
 30
0.0
 40
3.730163307377336
100
AcDbArc
 50
32.550131
 51
86.37396
  0
LINE
  5
39B
330
1F
100
AcDbEntity
  8
dxfile
  6
Continuous
 62
     2
100
AcDbLine
 10
1922.823459
 20
3123.64207
 30
0.0
 11
1922.823459
 21
3377.533055
 31
0.0
  0
LINE
  5
39C
330
1F
100
AcDbEntity
  8
dxfile
  6
PLine1
 62
     3
100
AcDbLine
 10
2196.583482
 20
3221.907681
 30
0.0
 11
2281.206662
 21
3221.907681
 31
0.0
  0
LINE
  5
39D
330
1F
100
AcDbEntity
  8
dxfile
  6
PLine1
 62
     3
100
AcDbLine
 10
2195.937504
 20
3170.229403
 30
0.0
 11
2280.560683
 21
3170.229403
 31
0.0
  0
LINE
  5
39E
330
1F
100
AcDbEntity
  8
dxfile
  6
Continuous
 62
     3
100
AcDbLine
 10
1678.484528
 20
2991.159414
 30
0.0
 11
1681.580065
 21
2996.521124
 31
0.0
  0
LINE
  5
39F
330
1F
100
AcDbEntity
  8
dxfile
  6
Continuous
 62
     3
100
AcDbLine
 10
1656.651801
 20
2813.420798
 30
0.0
 11
1655.05182
 21
2810.649506
 31
0.0
  0
LINE
  5
3A0
330
1F
100
AcDbEntity
  8
dxfile
  6
Continuous
 62
     3
100
AcDbLine
 10
510.617726
 20
968.323941
 30
0.0
 11
513.713263
 21
973.68565
 31
0.0
  0
CIRCLE
  5
3A1
330
1F
100
AcDbEntity
  8
dxfile
  6
Continuous
 62
     3
100
AcDbCircle
 10
1285.744796
 20
1367.828452
 30
0.0
 40
4.800000000000001
  0
CIRCLE
  5
3A2
330
1F
100
AcDbEntity
  8
dxfile
  6
Continuous
 62
     3
100
AcDbCircle
 10
1013.480618
 20
1839.400248
 30
0.0
 40
4.800000000000001
  0
ARC
  5
3A3
330
1F
100
AcDbEntity
  8
dxfile
  6
Continuous
 62
     3
100
AcDbCircle
 10
741.222665
 20
1367.828452
 30
0.0
 40
544.522131227716
100
AcDbArc
 50
0.0
 51
60.000378
  0
ARC
  5
3A4
330
1F
100
AcDbEntity
  8
dxfile
  6
PLine1
 62
     3
100
AcDbCircle
 10
1511.591471
 20
1741.405218
 30
0.0
 40
1054.237578304802
100
AcDbArc
 50
92.101471
 51
207.904172
  0
ARC
  5
3A5
330
1F
100
AcDbEntity
  8
dxfile
  6
Continuous
 62
     3
100
AcDbCircle
 10
566.085269
 20
1243.140045
 30
0.0
 40
9.435996225558572
100
AcDbArc
 50
325.368847
 51
26.603345
  0
ARC
  5
3A6
330
1F
100
AcDbEntity
  8
dxfile
  6
Continuous
 62
     3
100
AcDbCircle
 10
568.085281
 20
1242.260172
 30
0.0
 40
13.23599470562927
100
AcDbArc
 50
331.98338
 51
29.623059
  0
LINE
  5
3A7
330
1F
100
AcDbEntity
  8
dxfile
  6
Continuous
 62
     3
100
AcDbLine
 10
574.479627
 20
1247.459608
 30
0.0
 11
574.263482
 21
1247.889237
 31
0.0
  0
ARC
  5
3A8
330
1F
100
AcDbEntity
  8
dxfile
  6
PLine1
 62
     3
100
AcDbCircle
 10
1510.599527
 20
1742.375124
 30
0.0
 40
1058.897576440801
100
AcDbArc
 50
92.109997
 51
207.86488
  0
LINE
  5
3A9
330
1F
100
AcDbEntity
  8
dxfile
  6
PLine1
 62
     3
100
AcDbLine
 10
1478.04033
 20
2804.100418
 30
0.0
 11
1597.66915
 21
3011.30677
 31
0.0
  0
LINE
  5
3AA
330
1F
100
AcDbEntity
  8
dxfile
  6
PLine1
 62
     3
100
AcDbLine
 10
1483.18132
 20
2801.004878
 30
0.0
 11
1602.86532
 21
3008.306806
 31
0.0
  0
ARC
  5
3AB
330
1F
100
AcDbEntity
  8
dxfile
  6
Continuous
 62
     3
100
AcDbCircle
 10
464.45064
 20
1028.360592
 30
0.0
 40
3.99999839997792
100
AcDbArc
 50
150.000378
 51
225.790448
  0
ARC
  5
3AC
330
1F
100
AcDbEntity
  8
dxfile
  6
Continuous
 62
     3
100
AcDbCircle
 10
464.45064
 20
1028.360592
 30
0.0
 40
9.999995999983618
100
AcDbArc
 50
150.000378
 51
225.78349
  0
LINE
  5
3AD
330
1F
100
AcDbEntity
  8
dxfile
  6
PLine1
 62
     3
100
AcDbLine
 10
460.986526
 20
1030.360568
 30
0.0
 11
579.717121
 21
1236.011126
 31
0.0
  0
LINE
  5
3AE
330
1F
100
AcDbEntity
  8
dxfile
  6
PLine1
 62
     3
100
AcDbLine
 10
510.617726
 20
968.323941
 30
0.0
 11
457.476731
 21
1021.193298
 31
0.0
  0
LINE
  5
3AF
330
1F
100
AcDbEntity
  8
dxfile
  6
PLine1
 62
     3
100
AcDbLine
 10
455.790356
 20
1033.360532
 30
0.0
 11
574.520951
 21
1239.01109
 31
0.0
  0
LINE
  5
3B0
330
1F
100
AcDbEntity
  8
dxfile
  6
PLine1
 62
     3
100
AcDbLine
 10
513.713263
 20
973.68565
 30
0.0
 11
461.661223
 21
1025.493128
 31
0.0
  0
LINE
  5
3B1
330
1F
100
AcDbEntity
  8
dxfile
  6
PLine1
 62
     3
100
AcDbLine
 10
898.791731
 20
1640.750241
 30
0.0
 11
1506.030821
 21
2692.535231
 31
0.0
  0
LINE
  5
3B2
330
1F
100
AcDbEntity
  8
dxfile
  6
PLine1
 62
     3
100
AcDbLine
 10
921.57019
 20
1843.406158
 30
0.0
 11
1455.39185
 21
2768.026489
 31
0.0
  0
LINE
  5
3B3
330
1F
100
AcDbEntity
  8
dxfile
  6
PLine1
 62
     3
100
AcDbLine
 10
1455.39185
 20
2768.026489
 30
0.0
 11
1467.16984
 21
2761.226567
 31
0.0
  0
LINE
  5
3B4
330
1F
100
AcDbEntity
  8
dxfile
  6
PLine1
 62
     3
100
AcDbLine
 10
898.791731
 20
1760.751613
 30
0.0
 11
1454.069099
 21
2722.534888
 31
0.0
  0
ARC
  5
3B5
330
1F
100
AcDbEntity
  8
dxfile
  6
PLine1
 62
     3
100
AcDbCircle
 10
1470.998094
 20
2809.242912
 30
0.0
 40
8.719996512543382
100
AcDbArc
 50
273.664929
 51
324.655162
  0
ARC
  5
3B6
330
1F
100
AcDbEntity
  8
dxfile
  6
PLine1
 62
     3
100
AcDbCircle
 10
1471.649132
 20
2808.818544
 30
0.0
 40
13.9299944279845
100
AcDbArc
 50
274.660153
 51
326.374982
  0
LINE
  5
3B7
330
1F
100
AcDbEntity
  8
dxfile
  6
PLine1
 62
     3
100
AcDbLine
 10
933.348181
 20
1836.606235
 30
0.0
 11
1472.043611
 21
2769.668313
 31
0.0
  0
LINE
  5
3B8
330
1F
100
AcDbEntity
  8
dxfile
  6
PLine1
 62
     3
100
AcDbLine
 10
1545.256238
 20
2874.039048
 30
0.0
 11
1460.057212
 21
2726.467757
 31
0.0
  0
ARC
  5
3B9
330
1F
100
AcDbEntity
  8
dxfile
  6
PLine1
 62
     3
100
AcDbCircle
 10
1544.653725
 20
2876.234418
 30
0.0
 40
1.600000000328732
100
AcDbArc
 50
60.000378
 51
150.000378
  0
LINE
  5
3BA
330
1F
100
AcDbEntity
  8
dxfile
  6
PLine1
 62
     3
100
AcDbLine
 10
1656.651801
 20
2813.420798
 30
0.0
 11
1545.453716
 21
2877.620064
 31
0.0
  0
LINE
  5
3BB
330
1F
100
AcDbEntity
  8
dxfile
  6
PLine1
 62
     3
100
AcDbLine
 10
1655.05182
 20
2810.649506
 30
0.0
 11
1545.256238
 21
2874.039048
 31
0.0
  0
LINE
  5
3BC
330
1F
100
AcDbEntity
  8
dxfile
  6
PLine1
 62
     3
100
AcDbLine
 10
1543.656257
 20
2871.267757
 30
0.0
 11
1590.053265
 21
2844.48084
 31
0.0
  0
ARC
  5
3BD
330
1F
100
AcDbEntity
  8
dxfile
  6
PLine1
 62
     3
100
AcDbCircle
 10
1592.254429
 20
2845.05753
 30
0.0
 40
1.600000000086041
100
AcDbArc
 50
329.994012
 51
60.000378
  0
ARC
  5
3BE
330
1F
100
AcDbEntity
  8
dxfile
  6
PLine1
 62
     3
100
AcDbCircle
 10
1505.438716
 20
2694.724592
 30
0.0
 40
1.600000000402582
100
AcDbArc
 50
240.000378
 51
329.994012
  0
LINE
  5
3BF
330
1F
100
AcDbEntity
  8
dxfile
  6
PLine1
 62
     3
100
AcDbLine
 10
1454.062495
 20
2722.538701
 30
0.0
 11
1504.638725
 21
2693.338946
 31
0.0
  0
ARC
  5
3C0
330
1F
100
AcDbEntity
  8
dxfile
  6
PLine1
 62
     3
100
AcDbCircle
 10
1457.854717
 20
2725.891835
 30
0.0
 40
1.599999999477731
100
AcDbArc
 50
150.000378
 51
240.000378
  0
LINE
  5
3C1
330
1F
100
AcDbEntity
  8
dxfile
  6
PLine1
 62
     3
100
AcDbLine
 10
1455.669081
 20
2725.30618
 30
0.0
 11
1504.856003
 21
2696.90853
 31
0.0
  0
LINE
  5
3C2
330
1F
100
AcDbEntity
  8
dxfile
  6
PLine1
 62
     3
100
AcDbLine
 10
1506.453505
 20
2699.681254
 30
0.0
 11
1460.057212
 21
2726.467757
 31
0.0
  0
LINE
  5
3C3
330
1F
100
AcDbEntity
  8
dxfile
  6
PLine1
 62
     3
100
AcDbLine
 10
1454.069099
 20
2722.534888
 30
0.0
 11
1543.268079
 21
2877.034409
 31
0.0
  0
LINE
  5
3C4
330
1F
100
AcDbEntity
  8
dxfile
  6
PLine1
 62
     3
100
AcDbLine
 10
1593.726968
 20
2844.431729
 30
0.0
 11
1506.030821
 21
2692.535231
 31
0.0
  0
LINE
  5
3C5
330
1F
100
AcDbEntity
  8
dxfile
  6
PLine1
 62
     3
100
AcDbLine
 10
1504.859511
 20
2696.906505
 30
0.0
 11
1590.058537
 21
2844.477796
 31
0.0
  0
LINE
  5
3C6
330
1F
100
AcDbEntity
  8
dxfile
  6
PLine1
 62
     3
100
AcDbLine
 10
1478.64211
 20
2765.097241
 30
0.0
 11
1467.751452
 21
2762.179021
 31
0.0
  0
LINE
  5
3C7
330
1F
100
AcDbEntity
  8
dxfile
  6
PLine1
 62
     3
100
AcDbLine
 10
1474.646158
 20
2758.175943
 30
0.0
 11
1463.755499
 21
2755.257723
 31
0.0
  0
LINE
  5
3C8
330
1F
100
AcDbEntity
  8
dxfile
  6
PLine1
 62
     3
100
AcDbLine
 10
1470.434208
 20
2750.88052
 30
0.0
 11
1459.543549
 21
2747.9623
 31
0.0
  0
LINE
  5
3C9
330
1F
100
AcDbEntity
  8
dxfile
  6
PLine1
 62
     3
100
AcDbLine
 10
1466.186258
 20
2743.522743
 30
0.0
 11
1455.295599
 21
2740.604523
 31
0.0
  0
LINE
  5
3CA
330
1F
100
AcDbEntity
  8
dxfile
  6
PLine1
 62
     3
100
AcDbLine
 10
1454.70727
 20
2733.489456
 30
0.0
 11
1461.434314
 21
2735.292009
 31
0.0
  0
LINE
  5
3CB
330
1F
100
AcDbEntity
  8
dxfile
  6
PLine1
 62
     3
100
AcDbLine
 10
1452.043839
 20
2735.027165
 30
0.0
 11
1458.972069
 21
2731.027211
 31
0.0
  0
LINE
  5
3CC
330
1F
100
AcDbEntity
  8
dxfile
  6
PLine1
 62
     3
100
AcDbLine
 10
1481.24035
 20
2785.143184
 30
0.0
 11
1495.098536
 21
2777.142279
 31
0.0
  0
LINE
  5
3CD
330
1F
100
AcDbEntity
  8
dxfile
  6
PLine1
 62
     3
100
AcDbLine
 10
1435.292422
 20
2738.012783
 30
0.0
 11
1437.370891
 21
2736.812797
 31
0.0
  0
LINE
  5
3CE
330
1F
100
AcDbEntity
  8
dxfile
  6
PLine1
 62
     3
100
AcDbLine
 10
1477.873737
 20
2769.766428
 30
0.0
 11
1492.873565
 21
2795.747289
 31
0.0
  0
ARC
  5
3CF
330
1F
100
AcDbEntity
  8
dxfile
  6
PLine1
 62
     3
100
AcDbCircle
 10
1457.674703
 20
2779.580654
 30
0.0
 40
1.599999998314491
100
AcDbArc
 50
60.000378
 51
150.000378
  0
LINE
  5
3D0
330
1F
100
AcDbEntity
  8
dxfile
  6
PLine1
 62
     3
100
AcDbLine
 10
1477.873737
 20
2769.766428
 30
0.0
 11
1458.474694
 21
2780.9663
 31
0.0
  0
LINE
  5
3D1
330
1F
100
AcDbEntity
  8
dxfile
  6
PLine1
 62
     3
100
AcDbLine
 10
1458.140152
 20
2777.586815
 30
0.0
 11
1434.68742
 21
2736.964873
 31
0.0
  0
LINE
  5
3D2
330
1F
100
AcDbEntity
  8
dxfile
  6
PLine1
 62
     3
100
AcDbLine
 10
1432.089334
 20
2738.464855
 30
0.0
 11
1456.289057
 21
2780.380645
 31
0.0
  0
ARC
  5
3D3
330
1F
100
AcDbEntity
  8
dxfile
  6
PLine1
 62
     3
100
AcDbCircle
 10
1478.386185
 20
2767.853996
 30
0.0
 40
1.600000000377833
100
AcDbArc
 50
240.000378
 51
330.000378
  0
LINE
  5
3D4
330
1F
100
AcDbEntity
  8
dxfile
  6
PLine1
 62
     3
100
AcDbLine
 10
1432.089334
 20
2738.464855
 30
0.0
 11
1434.68742
 21
2736.964873
 31
0.0
  0
LINE
  5
3D5
330
1F
100
AcDbEntity
  8
dxfile
  6
PLine1
 62
     3
100
AcDbLine
 10
1495.471652
 20
2794.247306
 30
0.0
 11
1492.873565
 21
2795.747289
 31
0.0
  0
LINE
  5
3D6
330
1F
100
AcDbEntity
  8
dxfile
  6
PLine1
 62
     3
100
AcDbLine
 10
1458.188883
 20
2777.667222
 30
0.0
 11
1478.97184
 21
2765.668359
 31
0.0
  0
LINE
  5
3D7
330
1F
100
AcDbEntity
  8
dxfile
  6
PLine1
 62
     3
100
AcDbLine
 10
1507.828139
 20
2843.571069
 30
0.0
 11
1527.018022
 21
2848.713118
 31
0.0
  0
LINE
  5
3D8
330
1F
100
AcDbEntity
  8
dxfile
  6
PLine1
 62
     3
100
AcDbLine
 10
1521.939758
 20
2840.09211
 30
0.0
 11
1509.182676
 21
2836.67377
 31
0.0
  0
LINE
  5
3D9
330
1F
100
AcDbEntity
  8
dxfile
  6
PLine1
 62
     3
100
AcDbLine
 10
1517.075936
 20
2832.116664
 30
0.0
 11
1505.278897
 21
2838.927583
 31
0.0
  0
LINE
  5
3DA
330
1F
100
AcDbEntity
  8
dxfile
  6
PLine1
 62
     3
100
AcDbLine
 10
1531.578484
 20
2856.787128
 30
0.0
 11
1512.508083
 21
2851.677094
 31
0.0
  0
LINE
  5
3DB
330
1F
100
AcDbEntity
  8
dxfile
  6
PLine1
 62
     3
100
AcDbLine
 10
1521.52607
 20
2839.375571
 30
0.0
 11
1516.416037
 21
2858.445972
 31
0.0
  0
LINE
  5
3DC
330
1F
100
AcDbEntity
  8
dxfile
  6
PLine1
 62
     3
100
AcDbLine
 10
1527.828902
 20
2878.213935
 30
0.0
 11
1539.965423
 21
2871.207018
 31
0.0
  0
LINE
  5
3DD
330
1F
100
AcDbEntity
  8
dxfile
  6
PLine1
 62
     3
100
AcDbLine
 10
1534.869713
 20
2874.148983
 30
0.0
 11
1523.76395
 21
2871.173125
 31
0.0
  0
LINE
  5
3DE
330
1F
100
AcDbEntity
  8
dxfile
  6
PLine1
 62
     3
100
AcDbLine
 10
1525.713787
 20
2889.74256
 30
0.0
 11
1495.737565
 21
2837.821429
 31
0.0
  0
LINE
  5
3DF
330
1F
100
AcDbEntity
  8
dxfile
  6
PLine1
 62
     3
100
AcDbLine
 10
1524.239203
 20
2890.592554
 30
0.0
 11
1494.261831
 21
2838.673431
 31
0.0
  0
LINE
  5
3E0
330
1F
100
AcDbEntity
  8
dxfile
  6
PLine1
 62
     3
100
AcDbLine
 10
1525.091279
 20
2890.104344
 30
0.0
 11
1495.119024
 21
2838.190085
 31
0.0
  0
LINE
  5
3E1
330
1F
100
AcDbEntity
  8
dxfile
  6
PLine1
 62
     3
100
AcDbLine
 10
1538.875835
 20
2847.499717
 30
0.0
 11
1477.568038
 21
2882.89525
 31
0.0
  0
LINE
  5
3E2
330
1F
100
AcDbEntity
  8
dxfile
  6
PLine1
 62
     3
100
AcDbLine
 10
1531.509952
 20
2856.668426
 30
0.0
 11
1526.399919
 21
2875.738826
 31
0.0
  0
LINE
  5
3E3
330
1F
100
AcDbEntity
  8
dxfile
  6
PLine1
 62
     3
100
AcDbLine
 10
1526.362985
 20
2847.753481
 30
0.0
 11
1521.251976
 21
2866.822192
 31
0.0
  0
LINE
  5
3E4
330
1F
100
AcDbEntity
  8
dxfile
  6
PLine1
 62
     3
100
AcDbLine
 10
1515.995132
 20
2832.740657
 30
0.0
 11
1511.427024
 21
2849.788617
 31
0.0
  0
LINE
  5
3E5
330
1F
100
AcDbEntity
  8
dxfile
  6
PLine1
 62
     3
100
AcDbLine
 10
1523.329536
 20
2891.116913
 30
0.0
 11
1520.730424
 21
2892.615118
 31
0.0
  0
LINE
  5
3E6
330
1F
100
AcDbEntity
  8
dxfile
  6
PLine1
 62
     3
100
AcDbLine
 10
1490.73217
 20
2840.655826
 30
0.0
 11
1520.730424
 21
2892.615118
 31
0.0
  0
LINE
  5
3E7
330
1F
100
AcDbEntity
  8
dxfile
  6
PLine1
 62
     3
100
AcDbLine
 10
1493.32923
 20
2839.154066
 30
0.0
 11
1523.329536
 21
2891.116913
 31
0.0
  0
LINE
  5
3E8
330
1F
100
AcDbEntity
  8
dxfile
  6
PLine1
 62
     3
100
AcDbLine
 10
1523.329536
 20
2891.116913
 30
0.0
 11
1527.094905
 21
2888.942728
 31
0.0
  0
LINE
  5
3E9
330
1F
100
AcDbEntity
  8
dxfile
  6
PLine1
 62
     3
100
AcDbLine
 10
1537.152277
 20
2866.441368
 30
0.0
 11
1518.081876
 21
2861.331334
 31
0.0
  0
LINE
  5
3EA
330
1F
100
AcDbEntity
  8
dxfile
  6
PLine1
 62
     3
100
AcDbLine
 10
1536.648911
 20
2865.569498
 30
0.0
 11
1534.254865
 21
2874.50396
 31
0.0
  0
LINE
  5
3EB
330
1F
100
AcDbEntity
  8
dxfile
  6
PLine1
 62
     3
100
AcDbLine
 10
1493.32923
 20
2839.154066
 30
0.0
 11
1497.094842
 21
2836.980303
 31
0.0
  0
LINE
  5
3EC
330
1F
100
AcDbEntity
  8
dxfile
  6
PLine1
 62
     3
100
AcDbLine
 10
1493.32923
 20
2839.154066
 30
0.0
 11
1490.73217
 21
2840.655826
 31
0.0
  0
ARC
  5
3ED
330
1F
100
AcDbEntity
  8
dxfile
  6
Continuous
 62
     3
100
AcDbCircle
 10
1606.503125
 20
3006.483677
 30
0.0
 40
3.999998400892681
100
AcDbArc
 50
74.210309
 51
150.000378
  0
ARC
  5
3EE
330
1F
100
AcDbEntity
  8
dxfile
  6
Continuous
 62
     3
100
AcDbCircle
 10
1606.503125
 20
3006.483677
 30
0.0
 40
9.99999600025996
100
AcDbArc
 50
74.217267
 51
150.000378
  0
LINE
  5
3EF
330
1F
100
AcDbEntity
  8
dxfile
  6
PLine1
 62
     3
100
AcDbLine
 10
1681.580065
 20
2996.521124
 30
0.0
 11
1609.223102
 21
3016.106941
 31
0.0
  0
LINE
  5
3F0
330
1F
100
AcDbEntity
  8
dxfile
  6
PLine1
 62
     3
100
AcDbLine
 10
1678.484528
 20
2991.159414
 30
0.0
 11
1607.591663
 21
3010.333129
 31
0.0
  0
LINE
  5
3F1
330
1F
100
AcDbEntity
  8
dxfile
  6
PLine1
 62
     3
100
AcDbLine
 10
1491.803831
 20
2855.488168
 30
0.0
 11
1508.421146
 21
2884.27064
 31
0.0
  0
ARC
  5
3F2
330
1F
100
AcDbEntity
  8
dxfile
  6
PLine1
 62
     3
100
AcDbCircle
 10
1516.649694
 20
2878.158897
 30
0.0
 40
10.24999590016484
100
AcDbArc
 50
81.124542
 51
143.073681
  0
ARC
  5
3F3
330
1F
100
AcDbEntity
  8
dxfile
  6
PLine1
 62
     3
100
AcDbCircle
 10
1493.941235
 20
2865.590391
 30
0.0
 40
7.200000000247803
100
AcDbArc
 50
150.000378
 51
240.000378
  0
LINE
  5
3F4
330
1F
100
AcDbEntity
  8
dxfile
  6
PLine1
 62
     3
100
AcDbLine
 10
1493.112568
 20
2857.755002
 30
0.0
 11
1490.341276
 21
2859.354984
 31
0.0
  0
LINE
  5
3F5
330
1F
100
AcDbEntity
  8
dxfile
  6
PLine1
 62
     3
100
AcDbLine
 10
1494.352019
 20
2880.702065
 30
0.0
 11
1487.705829
 21
2869.19035
 31
0.0
  0
ARC
  5
3F6
330
1F
100
AcDbEntity
  8
dxfile
  6
PLine1
 62
     3
100
AcDbCircle
 10
1500.587426
 20
2877.102106
 30
0.0
 40
7.199999999750185
100
AcDbArc
 50
65.000378
 51
150.000378
  0
LINE
  5
3F7
330
1F
100
AcDbEntity
  8
dxfile
  6
PLine1
 62
     3
100
AcDbLine
 10
1507.112408
 20
2882.003806
 30
0.0
 11
1503.630234
 21
2883.627542
 31
0.0
  0
ARC
  5
3F8
330
1F
100
AcDbEntity
  8
dxfile
  6
PLine1
 62
     3
100
AcDbCircle
 10
1501.211084
 20
2851.418032
 30
0.0
 40
10.24999590041764
100
AcDbArc
 50
156.603823
 51
218.876214
  0
LINE
  5
3F9
330
1F
100
AcDbEntity
  8
dxfile
  6
PLine4
 62
     3
100
AcDbLine
 10
1504.886387
 20
2595.105675
 30
0.0
 11
2340.252125
 21
1462.652264
 31
0.0
  0
LINE
  5
3FA
330
1F
100
AcDbEntity
  8
dxfile
  6
Continuous
 62
     3
100
AcDbLine
 10
2245.687474
 20
1031.935203
 30
0.0
 11
2165.687474
 21
1031.935203
 31
0.0
  0
LINE
  5
3FB
330
1F
100
AcDbEntity
  8
dxfile
  6
Continuous
 62
     3
100
AcDbLine
 10
2245.687474
 20
1036.535203
 30
0.0
 11
2200.469574
 21
1100.807007
 31
0.0
  0
LINE
  5
3FC
330
1F
100
AcDbEntity
  8
dxfile
  6
Continuous
 62
     3
100
AcDbLine
 10
2165.687474
 20
1087.335203
 30
0.0
 11
2165.687474
 21
1027.335203
 31
0.0
  0
CIRCLE
  5
3FD
330
1F
100
AcDbEntity
  8
dxfile
  6
Continuous
 62
     3
100
AcDbCircle
 10
2186.297466
 20
1087.266351
 30
0.0
 40
9.529996188000268
  0
LINE
  5
3FE
330
1F
100
AcDbEntity
  8
dxfile
  6
PLine2
 62
     3
100
AcDbLine
 10
1236.94387
 20
1232.30119
 30
0.0
 11
2225.902708
 21
1081.190401
 31
0.0
  0
LINE
  5
3FF
330
1F
100
AcDbEntity
  8
dxfile
  6
Continuous
 62
     3
100
AcDbLine
 10
2245.687474
 20
1036.535203
 30
0.0
 11
2245.687474
 21
1027.335203
 31
0.0
  0
LINE
  5
400
330
1F
100
AcDbEntity
  8
dxfile
  6
Continuous
 62
     3
100
AcDbLine
 10
2165.687474
 20
1036.535203
 30
0.0
 11
2245.687474
 21
1036.535203
 31
0.0
  0
LINE
  5
401
330
1F
100
AcDbEntity
  8
dxfile
  6
PLine2
 62
     3
100
AcDbLine
 10
2185.687474
 20
1111.331629
 30
0.0
 11
2185.687474
 21
1063.477204
 31
0.0
  0
ARC
  5
402
330
1F
100
AcDbEntity
  8
dxfile
  6
Continuous
 62
     3
100
AcDbCircle
 10
2185.687474
 20
1087.335203
 30
0.0
 40
20.00000000001253
100
AcDbArc
 50
42.344768
 51
180.0
  0
LINE
  5
403
330
1F
100
AcDbEntity
  8
dxfile
  6
Continuous
 62
     4
100
AcDbLine
 10
1296.829995
 20
1248.440874
 30
0.0
 11
1329.88994
 21
1243.389386
 31
0.0
  0
LINE
  5
404
330
1F
100
AcDbEntity
  8
dxfile
  6
Continuous
 62
     4
100
AcDbLine
 10
2133.175048
 20
1120.649145
 30
0.0
 11
1339.775209
 21
1241.878938
 31
0.0
  0
LINE
  5
405
330
1F
100
AcDbEntity
  8
dxfile
  6
Continuous
 62
     4
100
AcDbLine
 10
1272.911354
 20
1201.515279
 30
0.0
 11
1322.3377
 21
1193.96304
 31
0.0
  0
LINE
  5
406
330
1F
100
AcDbEntity
  8
dxfile
  6
Continuous
 62
     4
100
AcDbLine
 10
2125.622808
 20
1071.222799
 30
0.0
 11
1332.22297
 21
1192.452592
 31
0.0
  0
LINE
  5
407
330
1F
100
AcDbEntity
  8
dxfile
  6
Continuous
 62
     4
100
AcDbLine
 10
2133.175048
 20
1120.649145
 30
0.0
 11
2125.622808
 21
1071.222799
 31
0.0
  0
ARC
  5
408
330
1F
100
AcDbEntity
  8
dxfile
  6
Continuous
 62
     4
100
AcDbCircle
 10
2130.170828
 20
1111.111081
 30
0.0
 40
10.00000000001082
100
AcDbArc
 50
351.312521
 51
72.517047
  0
ARC
  5
409
330
1F
100
AcDbEntity
  8
dxfile
  6
Continuous
 62
     4
100
AcDbCircle
 10
2125.603959
 20
1081.222781
 30
0.0
 40
10.00000000016199
100
AcDbArc
 50
270.107995
 51
351.312521
  0
LINE
  5
40A
330
1F
100
AcDbEntity
  8
dxfile
  6
Continuous
 62
     4
100
AcDbLine
 10
2133.996543
 20
1069.94331
 30
0.0
 11
2141.548783
 21
1119.369656
 31
0.0
  0
LINE
  5
40B
330
1F
100
AcDbEntity
  8
dxfile
  6
Continuous
 62
     4
100
AcDbLine
 10
2141.548783
 20
1119.369656
 30
0.0
 11
2189.463594
 21
1112.048376
 31
0.0
  0
LINE
  5
40C
330
1F
100
AcDbEntity
  8
dxfile
  6
Continuous
 62
     4
100
AcDbLine
 10
2165.544954
 20
1065.122781
 30
0.0
 11
2133.996543
 21
1069.94331
 31
0.0
  0
ARC
  5
40D
330
1F
100
AcDbEntity
  8
dxfile
  6
Continuous
 62
     4
100
AcDbCircle
 10
2183.880236
 20
1087.611345
 30
0.0
 40
25.06675813413138
100
AcDbArc
 50
2.379584
 51
85.495032
  0
LINE
  5
40E
330
1F
100
AcDbEntity
  8
dxfile
  6
Continuous
 62
     4
100
AcDbLine
 10
1329.88994
 20
1243.389386
 30
0.0
 11
1322.3377
 21
1193.96304
 31
0.0
  0
ARC
  5
40F
330
1F
100
AcDbEntity
  8
dxfile
  6
Continuous
 62
     4
100
AcDbCircle
 10
1276.687474
 20
1226.228452
 30
0.0
 40
24.99999999996399
100
AcDbArc
 50
177.657082
 51
261.312521
  0
LINE
  5
410
330
1F
100
AcDbEntity
  8
dxfile
  6
Continuous
 62
     4
100
AcDbLine
 10
1339.775209
 20
1241.878938
 30
0.0
 11
1332.22297
 21
1192.452592
 31
0.0
  0
LINE
  5
411
330
1F
100
AcDbEntity
  8
dxfile
  6
Continuous
 62
     4
100
AcDbLine
 10
1327.926358
 20
1230.538536
 30
0.0
 11
1337.811627
 21
1229.028088
 31
0.0
  0
LINE
  5
412
330
1F
100
AcDbEntity
  8
dxfile
  6
Continuous
 62
     4
100
AcDbLine
 10
1324.301283
 20
1206.81389
 30
0.0
 11
1334.186552
 21
1205.303442
 31
0.0
  0
LINE
  5
413
330
1F
100
AcDbEntity
  8
dxfile
  6
PLine2
 62
     3
100
AcDbLine
 10
1276.687474
 20
1246.271903
 30
0.0
 11
1276.687474
 21
1199.846923
 31
0.0
  0
CIRCLE
  5
414
330
1F
100
AcDbEntity
  8
dxfile
  6
Continuous
 62
     3
100
AcDbCircle
 10
1276.687474
 20
1226.228452
 30
0.0
 40
9.0
  0
LINE
  5
415
330
1F
100
AcDbEntity
  8
dxfile
  6
Continuous
 62
     3
100
AcDbLine
 10
1216.687474
 20
1281.628452
 30
0.0
 11
1296.687474
 21
1281.628452
 31
0.0
  0
LINE
  5
416
330
1F
100
AcDbEntity
  8
dxfile
  6
Continuous
 62
     3
100
AcDbLine
 10
1216.687474
 20
1277.028452
 30
0.0
 11
1261.905374
 21
1212.756648
 31
0.0
  0
LINE
  5
417
330
1F
100
AcDbEntity
  8
dxfile
  6
Continuous
 62
     3
100
AcDbLine
 10
1296.687474
 20
1226.228452
 30
0.0
 11
1296.687474
 21
1286.228452
 31
0.0
  0
LINE
  5
418
330
1F
100
AcDbEntity
  8
dxfile
  6
Continuous
 62
     3
100
AcDbLine
 10
1216.687474
 20
1277.028452
 30
0.0
 11
1216.687474
 21
1286.228452
 31
0.0
  0
LINE
  5
419
330
1F
100
AcDbEntity
  8
dxfile
  6
Continuous
 62
     3
100
AcDbLine
 10
1296.687474
 20
1277.028452
 30
0.0
 11
1216.687474
 21
1277.028452
 31
0.0
  0
ARC
  5
41A
330
1F
100
AcDbEntity
  8
dxfile
  6
Continuous
 62
     3
100
AcDbCircle
 10
1276.687474
 20
1226.228452
 30
0.0
 40
20.00000000001243
100
AcDbArc
 50
222.344768
 51
0.0
  0
ARC
  5
41B
330
1F
100
AcDbEntity
  8
dxfile
  6
Continuous
 62
     3
100
AcDbCircle
 10
2443.48679
 20
1250.1999
 30
0.0
 40
2.000000000265142
100
AcDbArc
 50
50.313361
 51
230.313361
  0
ARC
  5
41C
330
1F
100
AcDbEntity
  8
dxfile
  6
PLine1
 62
     3
100
AcDbCircle
 10
1505.493333
 20
2694.763646
 30
0.0
 40
1.600000000641945
100
AcDbArc
 50
239.999454
 51
329.993088
  0
LINE
  5
41D
330
1F
100
AcDbEntity
  8
dxfile
  6
PLine1
 62
     3
100
AcDbLine
 10
1512.44532
 20
2558.340097
 30
0.0
 11
1537.475143
 21
2576.803599
 31
0.0
  0
LINE
  5
41E
330
1F
100
AcDbEntity
  8
dxfile
  6
PLine1
 62
     3
100
AcDbLine
 10
1456.784665
 20
2707.182213
 30
0.0
 11
1462.78437
 21
2717.574688
 31
0.0
  0
LINE
  5
41F
330
1F
100
AcDbEntity
  8
dxfile
  6
PLine1
 62
     3
100
AcDbLine
 10
1456.784665
 20
2707.182213
 30
0.0
 11
1484.496932
 21
2691.182177
 31
0.0
  0
ARC
  5
420
330
1F
100
AcDbEntity
  8
dxfile
  6
PLine1
 62
     3
100
AcDbCircle
 10
1481.496882
 20
2685.986053
 30
0.0
 40
6.000000000001283
100
AcDbArc
 50
329.999454
 51
59.999454
  0
ARC
  5
421
330
1F
100
AcDbEntity
  8
dxfile
  6
PLine1
 62
     3
100
AcDbCircle
 10
1481.496882
 20
2685.986053
 30
0.0
 40
6.000000000001283
100
AcDbArc
 50
329.999454
 51
59.999454
  0
LINE
  5
422
330
1F
100
AcDbEntity
  8
dxfile
  6
PLine1
 62
     3
100
AcDbLine
 10
1448.692379
 20
2617.168435
 30
0.0
 11
1486.693006
 21
2682.986003
 31
0.0
  0
ARC
  5
423
330
1F
100
AcDbEntity
  8
dxfile
  6
PLine1
 62
     3
100
AcDbCircle
 10
1553.60759
 20
2529.057368
 30
0.0
 40
4.999999999808979
100
AcDbArc
 50
126.414717
 51
216.414717
  0
ARC
  5
424
330
1F
100
AcDbEntity
  8
dxfile
  6
PLine1
 62
     3
100
AcDbCircle
 10
1553.60759
 20
2529.057368
 30
0.0
 40
4.99999999990945
100
AcDbArc
 50
36.414717
 51
126.414717
  0
LINE
  5
425
330
1F
100
AcDbEntity
  8
dxfile
  6
PLine1
 62
     3
100
AcDbLine
 10
1547.974401
 20
2524.901989
 30
0.0
 11
1549.583884
 21
2526.08924
 31
0.0
  0
LINE
  5
426
330
1F
100
AcDbEntity
  8
dxfile
  6
PLine1
 62
     3
100
AcDbLine
 10
1559.24078
 20
2533.212748
 30
0.0
 11
1557.631297
 21
2532.025496
 31
0.0
  0
LINE
  5
427
330
1F
100
AcDbEntity
  8
dxfile
  6
PLine1
 62
     3
100
AcDbLine
 10
1487.07321
 20
2607.461949
 30
0.0
 11
1547.974401
 21
2524.901989
 31
0.0
  0
LINE
  5
428
330
1F
100
AcDbEntity
  8
dxfile
  6
PLine1
 62
     3
100
AcDbLine
 10
1491.590852
 20
2604.706788
 30
0.0
 11
1549.583884
 21
2526.08924
 31
0.0
  0
LINE
  5
429
330
1F
100
AcDbEntity
  8
dxfile
  6
PLine1
 62
     3
100
AcDbLine
 10
1499.63333
 20
2610.60855
 30
0.0
 11
1557.631297
 21
2532.025496
 31
0.0
  0
LINE
  5
42A
330
1F
100
AcDbEntity
  8
dxfile
  6
PLine1
 62
     3
100
AcDbLine
 10
1498.339589
 20
2615.772707
 30
0.0
 11
1559.24078
 21
2533.212748
 31
0.0
  0
LINE
  5
42B
330
1F
100
AcDbEntity
  8
dxfile
  6
PLine1
 62
     3
100
AcDbLine
 10
1484.814992
 20
2622.315219
 30
0.0
 11
1500.259445
 21
2601.378133
 31
0.0
  0
LINE
  5
42C
330
1F
100
AcDbEntity
  8
dxfile
  6
PLine1
 62
     3
100
AcDbLine
 10
1483.07427
 20
2604.51209
 30
0.0
 11
1504.190904
 21
2620.088989
 31
0.0
  0
LINE
  5
42D
330
1F
100
AcDbEntity
  8
dxfile
  6
PLine1
 62
     3
100
AcDbLine
 10
1485.714742
 20
2611.95899
 30
0.0
 11
1469.117568
 21
2621.541584
 31
0.0
  0
LINE
  5
42E
330
1F
100
AcDbEntity
  8
dxfile
  6
PLine1
 62
     3
100
AcDbLine
 10
1486.644255
 20
2615.117386
 30
0.0
 11
1467.946328
 21
2625.912876
 31
0.0
  0
LINE
  5
42F
330
1F
100
AcDbEntity
  8
dxfile
  6
PLine1
 62
     3
100
AcDbLine
 10
1488.914795
 20
2617.501522
 30
0.0
 11
1472.317621
 21
2627.084116
 31
0.0
  0
LINE
  5
430
330
1F
100
AcDbEntity
  8
dxfile
  6
PLine1
 62
     3
100
AcDbLine
 10
1480.717759
 20
2641.633262
 30
0.0
 11
1472.317621
 21
2627.084116
 31
0.0
  0
LINE
  5
431
330
1F
100
AcDbEntity
  8
dxfile
  6
PLine1
 62
     3
100
AcDbLine
 10
1477.946493
 20
2643.233289
 30
0.0
 11
1480.717759
 21
2641.633262
 31
0.0
  0
LINE
  5
432
330
1F
100
AcDbEntity
  8
dxfile
  6
PLine1
 62
     3
100
AcDbLine
 10
1459.117403
 20
2604.221171
 30
0.0
 11
1469.117568
 21
2621.541584
 31
0.0
  0
ARC
  5
433
330
1F
100
AcDbEntity
  8
dxfile
  6
PLine1
 62
     3
100
AcDbCircle
 10
1453.888503
 20
2614.168385
 30
0.0
 40
5.99999999981394
100
AcDbArc
 50
149.999454
 51
239.999454
  0
LINE
  5
434
330
1F
100
AcDbEntity
  8
dxfile
  6
PLine1
 62
     3
100
AcDbLine
 10
1459.117403
 20
2604.221171
 30
0.0
 11
1450.888454
 21
2608.972261
 31
0.0
  0
CIRCLE
  5
435
330
1F
100
AcDbEntity
  8
dxfile
  6
PLine1
 62
     3
100
AcDbCircle
 10
1492.706399
 20
2611.617328
 30
0.0
 40
6.999999999999943
  0
ARC
  5
436
330
1F
100
AcDbEntity
  8
dxfile
  6
PLine1
 62
     3
100
AcDbCircle
 10
1496.619532
 20
2606.312538
 30
0.0
 40
5.000000000158518
100
AcDbArc
 50
216.414717
 51
306.414717
  0
ARC
  5
437
330
1F
100
AcDbEntity
  8
dxfile
  6
PLine1
 62
     3
100
AcDbCircle
 10
1496.619532
 20
2606.312538
 30
0.0
 40
5.000000000009502
100
AcDbArc
 50
306.414717
 51
36.414717
  0
ARC
  5
438
330
1F
100
AcDbEntity
  8
dxfile
  6
Continuous
 62
     3
100
AcDbCircle
 10
2661.687474
 20
1371.51614
 30
0.0
 40
19.50883117555668
100
AcDbArc
 50
65.790724
 51
114.209276
  0
ARC
  5
439
330
1F
100
AcDbEntity
  8
dxfile
  6
Continuous
 62
     3
100
AcDbCircle
 10
2672.831707
 20
1387.302275
 30
0.0
 40
3.730163308209157
100
AcDbArc
 50
93.62604
 51
147.449869
  0
LINE
  5
43A
330
1F
100
AcDbEntity
  8
dxfile
  6
Continuous
 62
     3
100
AcDbLine
 10
2646.676367
 20
1380.024971
 30
0.0
 11
2676.698581
 21
1380.024971
 31
0.0
  0
LINE
  5
43B
330
1F
100
AcDbEntity
  8
dxfile
  6
Continuous
 62
     3
100
AcDbLine
 10
2653.687474
 20
1380.024971
 30
0.0
 11
2653.687474
 21
1389.309242
 31
0.0
  0
LINE
  5
43C
330
1F
100
AcDbEntity
  8
dxfile
  6
Continuous
 62
     3
100
AcDbLine
 10
2648.687474
 20
1391.024971
 30
0.0
 11
2661.687474
 21
1391.024971
 31
0.0
  0
LINE
  5
43D
330
1F
100
AcDbEntity
  8
dxfile
  6
Continuous
 62
     3
100
AcDbLine
 10
2676.698581
 20
1380.024971
 30
0.0
 11
2676.698581
 21
1389.863858
 31
0.0
  0
LINE
  5
43E
330
1F
100
AcDbEntity
  8
dxfile
  6
Continuous
 62
     3
100
AcDbLine
 10
2669.687474
 20
1380.024971
 30
0.0
 11
2669.687474
 21
1389.309242
 31
0.0
  0
LINE
  5
43F
330
1F
100
AcDbEntity
  8
dxfile
  6
Continuous
 62
     3
100
AcDbLine
 10
2674.687474
 20
1391.024971
 30
0.0
 11
2661.687474
 21
1391.024971
 31
0.0
  0
LINE
  5
440
330
1F
100
AcDbEntity
  8
dxfile
  6
Continuous
 62
     3
100
AcDbLine
 10
2646.676367
 20
1380.024971
 30
0.0
 11
2646.676367
 21
1389.863858
 31
0.0
  0
LINE
  5
441
330
1F
100
AcDbEntity
  8
dxfile
  6
Continuous
 62
     3
100
AcDbLine
 10
2646.676367
 20
1389.863858
 30
0.0
 11
2648.687474
 21
1391.024971
 31
0.0
  0
LINE
  5
442
330
1F
100
AcDbEntity
  8
dxfile
  6
Continuous
 62
     3
100
AcDbLine
 10
2676.698581
 20
1389.863858
 30
0.0
 11
2674.687474
 21
1391.024971
 31
0.0
  0
ARC
  5
443
330
1F
100
AcDbEntity
  8
dxfile
  6
Continuous
 62
     3
100
AcDbCircle
 10
2650.543241
 20
1387.302275
 30
0.0
 40
3.730163309443689
100
AcDbArc
 50
32.550131
 51
86.37396
  0
ARC
  5
444
330
1F
100
AcDbEntity
  8
dxfile
  6
Continuous
 62
     3
100
AcDbCircle
 10
721.687474
 20
1371.51614
 30
0.0
 40
19.5088311753442
100
AcDbArc
 50
65.790724
 51
114.209276
  0
ARC
  5
445
330
1F
100
AcDbEntity
  8
dxfile
  6
Continuous
 62
     3
100
AcDbCircle
 10
732.831707
 20
1387.302275
 30
0.0
 40
3.730163309016808
100
AcDbArc
 50
93.62604
 51
147.449869
  0
LINE
  5
446
330
1F
100
AcDbEntity
  8
dxfile
  6
Continuous
 62
     3
100
AcDbLine
 10
706.676367
 20
1380.024971
 30
0.0
 11
736.698581
 21
1380.024971
 31
0.0
  0
LINE
  5
447
330
1F
100
AcDbEntity
  8
dxfile
  6
Continuous
 62
     3
100
AcDbLine
 10
713.687474
 20
1380.024971
 30
0.0
 11
713.687474
 21
1389.309242
 31
0.0
  0
LINE
  5
448
330
1F
100
AcDbEntity
  8
dxfile
  6
Continuous
 62
     3
100
AcDbLine
 10
708.687474
 20
1391.024971
 30
0.0
 11
721.687474
 21
1391.024971
 31
0.0
  0
LINE
  5
449
330
1F
100
AcDbEntity
  8
dxfile
  6
Continuous
 62
     3
100
AcDbLine
 10
736.698581
 20
1380.024971
 30
0.0
 11
736.698581
 21
1389.863858
 31
0.0
  0
LINE
  5
44A
330
1F
100
AcDbEntity
  8
dxfile
  6
Continuous
 62
     3
100
AcDbLine
 10
729.687474
 20
1380.024971
 30
0.0
 11
729.687474
 21
1389.309242
 31
0.0
  0
LINE
  5
44B
330
1F
100
AcDbEntity
  8
dxfile
  6
Continuous
 62
     3
100
AcDbLine
 10
734.687474
 20
1391.024971
 30
0.0
 11
721.687474
 21
1391.024971
 31
0.0
  0
LINE
  5
44C
330
1F
100
AcDbEntity
  8
dxfile
  6
Continuous
 62
     3
100
AcDbLine
 10
706.676367
 20
1380.024971
 30
0.0
 11
706.676367
 21
1389.863858
 31
0.0
  0
LINE
  5
44D
330
1F
100
AcDbEntity
  8
dxfile
  6
Continuous
 62
     3
100
AcDbLine
 10
706.676367
 20
1389.863858
 30
0.0
 11
708.687474
 21
1391.024971
 31
0.0
  0
LINE
  5
44E
330
1F
100
AcDbEntity
  8
dxfile
  6
Continuous
 62
     3
100
AcDbLine
 10
736.698581
 20
1389.863858
 30
0.0
 11
734.687474
 21
1391.024971
 31
0.0
  0
ARC
  5
44F
330
1F
100
AcDbEntity
  8
dxfile
  6
Continuous
 62
     3
100
AcDbCircle
 10
710.543241
 20
1387.302275
 30
0.0
 40
3.730163308968328
100
AcDbArc
 50
32.550131
 51
86.37396
  0
LINE
  5
450
330
1F
100
AcDbEntity
  8
dxfile
  6
Continuous
 62
     1
100
AcDbLine
 10
4922.762148
 20
3460.931206
 30
0.0
 11
122.762148
 21
3460.931206
 31
0.0
  0
LINE
  5
451
330
1F
100
AcDbEntity
  8
dxfile
  6
Continuous
 62
     1
100
AcDbLine
 10
4922.762148
 20
100.931206
 30
0.0
 11
4922.762148
 21
3460.931206
 31
0.0
  0
LINE
  5
452
330
1F
100
AcDbEntity
  8
dxfile
  6
Continuous
 62
     4
100
AcDbLine
 10
441.751065
 20
599.891071
 30
0.0
 11
461.687474
 21
599.891071
 31
0.0
  0
LINE
  5
453
330
1F
100
AcDbEntity
  8
dxfile
  6
Continuous
 62
     4
100
AcDbLine
 10
461.687474
 20
599.891071
 30
0.0
 11
461.687474
 21
540.081842
 31
0.0
  0
LINE
  5
454
330
1F
100
AcDbEntity
  8
dxfile
  6
Continuous
 62
     4
100
AcDbLine
 10
457.700192
 20
540.081842
 30
0.0
 11
461.687474
 21
540.081842
 31
0.0
  0
LINE
  5
455
330
1F
100
AcDbEntity
  8
dxfile
  6
Continuous
 62
     4
100
AcDbLine
 10
441.751065
 20
595.903789
 30
0.0
 11
457.700192
 21
595.903789
 31
0.0
  0
LINE
  5
456
330
1F
100
AcDbEntity
  8
dxfile
  6
Continuous
 62
     4
100
AcDbLine
 10
457.700192
 20
595.903789
 30
0.0
 11
457.700192
 21
540.081842
 31
0.0
  0
LINE
  5
457
330
1F
100
AcDbEntity
  8
dxfile
  6
Continuous
 62
     4
100
AcDbLine
 10
441.751065
 20
599.891071
 30
0.0
 11
441.751065
 21
595.903789
 31
0.0
  0
LINE
  5
458
330
1F
100
AcDbEntity
  8
dxfile
  6
Continuous
 62
     2
100
AcDbLine
 10
481.687474
 20
619.82748
 30
0.0
 11
385.916236
 21
619.82748
 31
0.0
  0
LINE
  5
459
330
1F
100
AcDbEntity
  8
dxfile
  6
Continuous
 62
     2
100
AcDbLine
 10
385.916236
 20
788.759234
 30
0.0
 11
385.916236
 21
619.82748
 31
0.0
  0
LINE
  5
45A
330
1F
100
AcDbEntity
  8
dxfile
  6
Continuous
 62
     2
100
AcDbLine
 10
721.687474
 20
847.963603
 30
0.0
 11
385.916236
 21
788.759234
 31
0.0
  0
LINE
  5
45B
330
1F
100
AcDbEntity
  8
dxfile
  6
Continuous
 62
     2
100
AcDbLine
 10
721.687474
 20
847.963603
 30
0.0
 11
721.687474
 21
313.913483
 31
0.0
  0
LINE
  5
45C
330
1F
100
AcDbEntity
  8
dxfile
  6
Continuous
 62
     2
100
AcDbLine
 10
481.687474
 20
619.82748
 30
0.0
 11
481.687474
 21
313.913483
 31
0.0
  0
LINE
  5
45D
330
1F
100
AcDbEntity
  8
dxfile
  6
Continuous
 62
     3
100
AcDbLine
 10
461.687474
 20
619.82748
 30
0.0
 11
461.687474
 21
313.913483
 31
0.0
  0
LINE
  5
45E
330
1F
100
AcDbEntity
  8
dxfile
  6
Continuous
 62
     6
100
AcDbLine
 10
721.687474
 20
586.098481
 30
0.0
 11
481.687474
 21
346.098481
 31
0.0
  0
LINE
  5
45F
330
1F
100
AcDbEntity
  8
dxfile
  6
Continuous
 62
     6
100
AcDbLine
 10
721.687474
 20
606.481466
 30
0.0
 11
481.687474
 21
366.481466
 31
0.0
  0
LINE
  5
460
330
1F
100
AcDbEntity
  8
dxfile
  6
Continuous
 62
     6
100
AcDbLine
 10
721.687474
 20
597.139265
 30
0.0
 11
481.687474
 21
357.139265
 31
0.0
  0
LINE
  5
461
330
1F
100
AcDbEntity
  8
dxfile
  6
Continuous
 62
     4
100
AcDbLine
 10
631.687474
 20
733.028533
 30
0.0
 11
631.687474
 21
905.13093
 31
0.0
  0
LINE
  5
462
330
1F
100
AcDbEntity
  8
dxfile
  6
Continuous
 62
     4
100
AcDbLine
 10
631.687474
 20
905.13093
 30
0.0
 11
651.687474
 21
905.13093
 31
0.0
  0
LINE
  5
463
330
1F
100
AcDbEntity
  8
dxfile
  6
Continuous
 62
     4
100
AcDbLine
 10
651.687474
 20
905.13093
 30
0.0
 11
651.687474
 21
733.028533
 31
0.0
  0
LINE
  5
464
330
1F
100
AcDbEntity
  8
dxfile
  6
PLine2
 62
     3
100
AcDbLine
 10
641.687474
 20
910.326093
 30
0.0
 11
641.687474
 21
729.485381
 31
0.0
  0
LINE
  5
465
330
1F
100
AcDbEntity
  8
dxfile
  6
Continuous
 62
     4
100
AcDbLine
 10
345.916236
 20
702.323333
 30
0.0
 11
345.916236
 21
820.645128
 31
0.0
  0
LINE
  5
466
330
1F
100
AcDbEntity
  8
dxfile
  6
Continuous
 62
     4
100
AcDbLine
 10
506.453947
 20
850.629909
 30
0.0
 11
347.568946
 21
822.614745
 31
0.0
  0
ARC
  5
467
330
1F
100
AcDbEntity
  8
dxfile
  6
Continuous
 62
     4
100
AcDbCircle
 10
347.916236
 20
820.645128
 30
0.0
 40
1.999999999981059
100
AcDbArc
 50
99.999808
 51
180.0
  0
LINE
  5
468
330
1F
100
AcDbEntity
  8
dxfile
  6
Continuous
 62
     4
100
AcDbLine
 10
349.916236
 20
702.323333
 30
0.0
 11
349.916236
 21
818.966923
 31
0.0
  0
LINE
  5
469
330
1F
100
AcDbEntity
  8
dxfile
  6
Continuous
 62
     4
100
AcDbLine
 10
349.916236
 20
818.966923
 30
0.0
 11
508.801236
 21
846.982087
 31
0.0
  0
LINE
  5
46A
330
1F
100
AcDbEntity
  8
dxfile
  6
Continuous
 62
     4
100
AcDbLine
 10
506.453947
 20
877.335203
 30
0.0
 11
506.453947
 21
850.629909
 31
0.0
  0
ARC
  5
46B
330
1F
100
AcDbEntity
  8
dxfile
  6
Continuous
 62
     4
100
AcDbCircle
 10
508.453947
 20
848.951704
 30
0.0
 40
2.000000000235566
100
AcDbArc
 50
279.999808
 51
0.0
  0
LINE
  5
46C
330
1F
100
AcDbEntity
  8
dxfile
  6
Continuous
 62
     4
100
AcDbLine
 10
345.916236
 20
702.323333
 30
0.0
 11
349.916236
 21
702.323333
 31
0.0
  0
LINE
  5
46D
330
1F
100
AcDbEntity
  8
dxfile
  6
Continuous
 62
     4
100
AcDbLine
 10
510.453947
 20
877.335203
 30
0.0
 11
506.453947
 21
877.335203
 31
0.0
  0
LINE
  5
46E
330
1F
100
AcDbEntity
  8
dxfile
  6
PLine2
 62
     3
100
AcDbLine
 10
501.846956
 20
867.335203
 30
0.0
 11
519.749393
 21
867.335203
 31
0.0
  0
LINE
  5
46F
330
1F
100
AcDbEntity
  8
dxfile
  6
Continuous
 62
     4
100
AcDbLine
 10
375.916236
 20
732.323333
 30
0.0
 11
375.916236
 21
797.150258
 31
0.0
  0
LINE
  5
470
330
1F
100
AcDbEntity
  8
dxfile
  6
Continuous
 62
     4
100
AcDbLine
 10
375.916236
 20
797.150258
 30
0.0
 11
514.968714
 21
821.668482
 31
0.0
  0
LINE
  5
471
330
1F
100
AcDbEntity
  8
dxfile
  6
PLine1
 62
     4
100
AcDbLine
 10
371.916236
 20
732.323333
 30
0.0
 11
371.916236
 21
800.506668
 31
0.0
  0
LINE
  5
472
330
1F
100
AcDbEntity
  8
dxfile
  6
PLine1
 62
     4
100
AcDbLine
 10
371.916236
 20
800.506668
 30
0.0
 11
514.274134
 21
825.607715
 31
0.0
  0
LINE
  5
473
330
1F
100
AcDbEntity
  8
dxfile
  6
Continuous
 62
     4
100
AcDbLine
 10
375.916236
 20
797.150258
 30
0.0
 11
349.916236
 21
818.966923
 31
0.0
  0
LINE
  5
474
330
1F
100
AcDbEntity
  8
dxfile
  6
Continuous
 62
     4
100
AcDbLine
 10
510.295573
 20
848.171696
 30
0.0
 11
514.968714
 21
821.668482
 31
0.0
  0
LINE
  5
475
330
1F
100
AcDbEntity
  8
dxfile
  6
Continuous
 62
     6
100
AcDbLine
 10
349.916236
 20
732.323333
 30
0.0
 11
385.916236
 21
732.323333
 31
0.0
  0
LINE
  5
476
330
1F
100
AcDbEntity
  8
dxfile
  6
PLine2
 62
     3
100
AcDbLine
 10
449.495755
 20
569.891071
 30
0.0
 11
483.522504
 21
569.891071
 31
0.0
  0
LINE
  5
477
330
1F
100
AcDbEntity
  8
dxfile
  6
Continuous
 62
     6
100
AcDbLine
 10
349.916236
 20
702.323333
 30
0.0
 11
385.916236
 21
699.259299
 31
0.0
  0
LINE
  5
478
330
1F
100
AcDbEntity
  8
dxfile
  6
Continuous
 62
     6
100
AcDbLine
 10
491.687474
 20
883.335203
 30
0.0
 11
487.390831
 21
847.268633
 31
0.0
  0
LINE
  5
479
330
1F
100
AcDbEntity
  8
dxfile
  6
Continuous
 62
     6
100
AcDbLine
 10
356.825108
 20
701.735304
 30
0.0
 11
376.209308
 21
721.119504
 31
0.0
  0
LINE
  5
47A
330
1F
100
AcDbEntity
  8
dxfile
  6
Continuous
 62
     6
100
AcDbLine
 10
349.901514
 20
709.23806
 30
0.0
 11
361.782958
 21
721.119504
 31
0.0
  0
LINE
  5
47B
330
1F
100
AcDbEntity
  8
dxfile
  6
Continuous
 62
     6
100
AcDbLine
 10
366.812304
 20
700.885274
 30
0.0
 11
349.916236
 21
717.781342
 31
0.0
  0
LINE
  5
47C
330
1F
100
AcDbEntity
  8
dxfile
  6
Continuous
 62
     6
100
AcDbLine
 10
370.137101
 20
700.602293
 30
0.0
 11
385.916236
 21
716.381428
 31
0.0
  0
LINE
  5
47D
330
1F
100
AcDbEntity
  8
dxfile
  6
Continuous
 62
     6
100
AcDbLine
 10
382.120579
 20
699.582355
 30
0.0
 11
385.916236
 21
703.378012
 31
0.0
  0
LINE
  5
47E
330
1F
100
AcDbEntity
  8
dxfile
  6
Continuous
 62
     6
100
AcDbLine
 10
381.180287
 20
699.662385
 30
0.0
 11
359.723168
 21
721.119504
 31
0.0
  0
LINE
  5
47F
330
1F
100
AcDbEntity
  8
dxfile
  6
Continuous
 62
     6
100
AcDbLine
 10
385.916236
 20
708.447105
 30
0.0
 11
373.243837
 21
721.119504
 31
0.0
  0
LINE
  5
480
330
1F
100
AcDbEntity
  8
dxfile
  6
Continuous
 62
     6
100
AcDbLine
 10
502.462409
 20
881.335203
 30
0.0
 11
489.959761
 21
868.832555
 31
0.0
  0
LINE
  5
481
330
1F
100
AcDbEntity
  8
dxfile
  6
Continuous
 62
     6
100
AcDbLine
 10
503.22626
 20
851.688829
 30
0.0
 11
489.547032
 21
865.368057
 31
0.0
  0
LINE
  5
482
330
1F
100
AcDbEntity
  8
dxfile
  6
Continuous
 62
     6
100
AcDbLine
 10
488.351298
 20
855.330917
 30
0.0
 11
503.22626
 21
870.205879
 31
0.0
  0
LINE
  5
483
330
1F
100
AcDbEntity
  8
dxfile
  6
Continuous
 62
     6
100
AcDbLine
 10
493.754821
 20
848.390754
 30
0.0
 11
488.187724
 21
853.957851
 31
0.0
  0
LINE
  5
484
330
1F
100
AcDbEntity
  8
dxfile
  6
Continuous
 62
     6
100
AcDbLine
 10
493.967824
 20
848.428312
 30
0.0
 11
503.22626
 21
857.686747
 31
0.0
  0
LINE
  5
485
330
1F
100
AcDbEntity
  8
dxfile
  6
Continuous
 62
     6
100
AcDbLine
 10
503.22626
 20
875.600367
 30
0.0
 11
497.491424
 21
881.335203
 31
0.0
  0
LINE
  5
486
330
1F
100
AcDbEntity
  8
dxfile
  6
Continuous
 62
     6
100
AcDbLine
 10
503.22626
 20
863.682158
 30
0.0
 11
490.823716
 21
876.084703
 31
0.0
  0
LINE
  5
487
330
1F
100
AcDbEntity
  8
dxfile
  6
Continuous
 62
     4
100
AcDbLine
 10
621.174428
 20
854.281756
 30
0.0
 11
611.416144
 21
869.407096
 31
0.0
  0
LINE
  5
488
330
1F
100
AcDbEntity
  8
dxfile
  6
Continuous
 62
     4
100
AcDbLine
 10
674.121209
 20
909.861977
 30
0.0
 11
683.879493
 21
894.736637
 31
0.0
  0
LINE
  5
489
330
1F
100
AcDbEntity
  8
dxfile
  6
Continuous
 62
     4
100
AcDbLine
 10
611.416144
 20
869.407096
 30
0.0
 11
631.687474
 21
882.485373
 31
0.0
  0
LINE
  5
48A
330
1F
100
AcDbEntity
  8
dxfile
  6
Continuous
 62
     4
100
AcDbLine
 10
651.687474
 20
895.388599
 30
0.0
 11
661.687474
 21
901.840212
 31
0.0
  0
LINE
  5
48B
330
1F
100
AcDbEntity
  8
dxfile
  6
Continuous
 62
     4
100
AcDbLine
 10
666.287474
 20
904.807954
 30
0.0
 11
674.121209
 21
909.861977
 31
0.0
  0
LINE
  5
48C
330
1F
100
AcDbEntity
  8
dxfile
  6
Continuous
 62
     4
100
AcDbLine
 10
683.879493
 20
894.736637
 30
0.0
 11
666.287474
 21
883.386947
 31
0.0
  0
LINE
  5
48D
330
1F
100
AcDbEntity
  8
dxfile
  6
Continuous
 62
     4
100
AcDbLine
 10
661.687474
 20
880.419205
 30
0.0
 11
651.687474
 21
873.967592
 31
0.0
  0
LINE
  5
48E
330
1F
100
AcDbEntity
  8
dxfile
  6
Continuous
 62
     4
100
AcDbLine
 10
631.687474
 20
861.064367
 30
0.0
 11
621.174428
 21
854.281756
 31
0.0
  0
LINE
  5
48F
330
1F
100
AcDbEntity
  8
dxfile
  6
PLine2
 62
     3
100
AcDbLine
 10
608.934006
 20
857.095213
 30
0.0
 11
684.198144
 21
905.652721
 31
0.0
  0
LINE
  5
490
330
1F
100
AcDbEntity
  8
dxfile
  6
Continuous
 62
     6
100
AcDbLine
 10
721.687474
 20
847.963603
 30
0.0
 11
721.687474
 21
922.735203
 31
0.0
  0
CIRCLE
  5
491
330
1F
100
AcDbEntity
  8
dxfile
  6
Continuous
 62
     6
100
AcDbCircle
 10
705.018951
 20
894.468751
 30
0.0
 40
1.999999999999972
  0
CIRCLE
  5
492
330
1F
100
AcDbEntity
  8
dxfile
  6
Continuous
 62
     6
100
AcDbCircle
 10
694.572077
 20
875.067413
 30
0.0
 40
1.999999999999972
  0
CIRCLE
  5
493
330
1F
100
AcDbEntity
  8
dxfile
  6
Continuous
 62
     6
100
AcDbCircle
 10
704.272746
 20
860.889513
 30
0.0
 40
1.999999999999972
  0
CIRCLE
  5
494
330
1F
100
AcDbEntity
  8
dxfile
  6
Continuous
 62
     6
100
AcDbCircle
 10
691.587256
 20
904.16942
 30
0.0
 40
1.999999999999972
  0
CIRCLE
  5
495
330
1F
100
AcDbEntity
  8
dxfile
  6
Continuous
 62
     6
100
AcDbCircle
 10
589.35713
 20
901.930804
 30
0.0
 40
1.999999999999972
  0
CIRCLE
  5
496
330
1F
100
AcDbEntity
  8
dxfile
  6
Continuous
 62
     6
100
AcDbCircle
 10
587.864719
 20
868.351566
 30
0.0
 40
1.999999999999972
  0
CIRCLE
  5
497
330
1F
100
AcDbEntity
  8
dxfile
  6
Continuous
 62
     6
100
AcDbCircle
 10
557.270302
 20
843.726791
 30
0.0
 40
1.999999999999972
  0
CIRCLE
  5
498
330
1F
100
AcDbEntity
  8
dxfile
  6
Continuous
 62
     6
100
AcDbCircle
 10
555.777891
 20
883.275672
 30
0.0
 40
1.999999999999972
  0
CIRCLE
  5
499
330
1F
100
AcDbEntity
  8
dxfile
  6
Continuous
 62
     6
100
AcDbCircle
 10
593.088156
 20
839.995764
 30
0.0
 40
1.999999999999972
  0
CIRCLE
  5
49A
330
1F
100
AcDbEntity
  8
dxfile
  6
Continuous
 62
     6
100
AcDbCircle
 10
620.697752
 20
905.661831
 30
0.0
 40
1.999999999999972
  0
LINE
  5
49B
330
1F
100
AcDbEntity
  8
dxfile
  6
Continuous
 62
     4
100
AcDbLine
 10
2941.623884
 20
599.891071
 30
0.0
 11
2921.687474
 21
599.891071
 31
0.0
  0
LINE
  5
49C
330
1F
100
AcDbEntity
  8
dxfile
  6
Continuous
 62
     4
100
AcDbLine
 10
2921.687474
 20
599.891071
 30
0.0
 11
2921.687474
 21
540.081842
 31
0.0
  0
LINE
  5
49D
330
1F
100
AcDbEntity
  8
dxfile
  6
Continuous
 62
     4
100
AcDbLine
 10
2925.674756
 20
540.081842
 30
0.0
 11
2921.687474
 21
540.081842
 31
0.0
  0
LINE
  5
49E
330
1F
100
AcDbEntity
  8
dxfile
  6
Continuous
 62
     4
100
AcDbLine
 10
2941.623884
 20
595.903789
 30
0.0
 11
2925.674756
 21
595.903789
 31
0.0
  0
LINE
  5
49F
330
1F
100
AcDbEntity
  8
dxfile
  6
Continuous
 62
     4
100
AcDbLine
 10
2925.674756
 20
595.903789
 30
0.0
 11
2925.674756
 21
540.081842
 31
0.0
  0
LINE
  5
4A0
330
1F
100
AcDbEntity
  8
dxfile
  6
Continuous
 62
     4
100
AcDbLine
 10
2941.623884
 20
599.891071
 30
0.0
 11
2941.623884
 21
595.903789
 31
0.0
  0
LINE
  5
4A1
330
1F
100
AcDbEntity
  8
dxfile
  6
Continuous
 62
     2
100
AcDbLine
 10
2901.687474
 20
619.82748
 30
0.0
 11
2997.458713
 21
619.82748
 31
0.0
  0
LINE
  5
4A2
330
1F
100
AcDbEntity
  8
dxfile
  6
Continuous
 62
     2
100
AcDbLine
 10
2997.458713
 20
788.759234
 30
0.0
 11
2997.458713
 21
619.82748
 31
0.0
  0
LINE
  5
4A3
330
1F
100
AcDbEntity
  8
dxfile
  6
Continuous
 62
     2
100
AcDbLine
 10
2661.687474
 20
847.963603
 30
0.0
 11
2997.458713
 21
788.759234
 31
0.0
  0
LINE
  5
4A4
330
1F
100
AcDbEntity
  8
dxfile
  6
Continuous
 62
     2
100
AcDbLine
 10
2661.687474
 20
847.963603
 30
0.0
 11
2661.687474
 21
313.913483
 31
0.0
  0
LINE
  5
4A5
330
1F
100
AcDbEntity
  8
dxfile
  6
Continuous
 62
     2
100
AcDbLine
 10
2901.687474
 20
619.82748
 30
0.0
 11
2901.687474
 21
313.913483
 31
0.0
  0
LINE
  5
4A6
330
1F
100
AcDbEntity
  8
dxfile
  6
Continuous
 62
     3
100
AcDbLine
 10
2921.687474
 20
619.82748
 30
0.0
 11
2921.687474
 21
313.913483
 31
0.0
  0
LINE
  5
4A7
330
1F
100
AcDbEntity
  8
dxfile
  6
Continuous
 62
     6
100
AcDbLine
 10
2661.687474
 20
586.098481
 30
0.0
 11
2901.687474
 21
346.098481
 31
0.0
  0
LINE
  5
4A8
330
1F
100
AcDbEntity
  8
dxfile
  6
Continuous
 62
     6
100
AcDbLine
 10
2661.687474
 20
606.481466
 30
0.0
 11
2901.687474
 21
366.481466
 31
0.0
  0
LINE
  5
4A9
330
1F
100
AcDbEntity
  8
dxfile
  6
Continuous
 62
     6
100
AcDbLine
 10
2661.687474
 20
597.139265
 30
0.0
 11
2901.687474
 21
357.139265
 31
0.0
  0
LINE
  5
4AA
330
1F
100
AcDbEntity
  8
dxfile
  6
Continuous
 62
     4
100
AcDbLine
 10
2751.687474
 20
733.028533
 30
0.0
 11
2751.687474
 21
905.13093
 31
0.0
  0
LINE
  5
4AB
330
1F
100
AcDbEntity
  8
dxfile
  6
Continuous
 62
     4
100
AcDbLine
 10
2751.687474
 20
905.13093
 30
0.0
 11
2731.687474
 21
905.13093
 31
0.0
  0
LINE
  5
4AC
330
1F
100
AcDbEntity
  8
dxfile
  6
Continuous
 62
     4
100
AcDbLine
 10
2731.687474
 20
905.13093
 30
0.0
 11
2731.687474
 21
733.028533
 31
0.0
  0
LINE
  5
4AD
330
1F
100
AcDbEntity
  8
dxfile
  6
PLine2
 62
     3
100
AcDbLine
 10
2741.687474
 20
910.326093
 30
0.0
 11
2741.687474
 21
729.485381
 31
0.0
  0
LINE
  5
4AE
330
1F
100
AcDbEntity
  8
dxfile
  6
Continuous
 62
     4
100
AcDbLine
 10
3037.458713
 20
702.323333
 30
0.0
 11
3037.458713
 21
820.645128
 31
0.0
  0
LINE
  5
4AF
330
1F
100
AcDbEntity
  8
dxfile
  6
Continuous
 62
     4
100
AcDbLine
 10
2876.921002
 20
850.629909
 30
0.0
 11
3035.806002
 21
822.614745
 31
0.0
  0
ARC
  5
4B0
330
1F
100
AcDbEntity
  8
dxfile
  6
Continuous
 62
     4
100
AcDbCircle
 10
3035.458713
 20
820.645128
 30
0.0
 40
1.999999999385049
100
AcDbArc
 50
0.0
 51
80.000192
  0
LINE
  5
4B1
330
1F
100
AcDbEntity
  8
dxfile
  6
Continuous
 62
     4
100
AcDbLine
 10
3033.458713
 20
702.323333
 30
0.0
 11
3033.458713
 21
818.966923
 31
0.0
  0
LINE
  5
4B2
330
1F
100
AcDbEntity
  8
dxfile
  6
Continuous
 62
     4
100
AcDbLine
 10
3033.458713
 20
818.966923
 30
0.0
 11
2874.573712
 21
846.982087
 31
0.0
  0
LINE
  5
4B3
330
1F
100
AcDbEntity
  8
dxfile
  6
Continuous
 62
     4
100
AcDbLine
 10
2876.921002
 20
877.335203
 30
0.0
 11
2876.921002
 21
850.629909
 31
0.0
  0
ARC
  5
4B4
330
1F
100
AcDbEntity
  8
dxfile
  6
Continuous
 62
     4
100
AcDbCircle
 10
2874.921002
 20
848.951704
 30
0.0
 40
1.999999999801368
100
AcDbArc
 50
180.0
 51
260.000192
  0
LINE
  5
4B5
330
1F
100
AcDbEntity
  8
dxfile
  6
Continuous
 62
     4
100
AcDbLine
 10
3037.458713
 20
702.323333
 30
0.0
 11
3033.458713
 21
702.323333
 31
0.0
  0
LINE
  5
4B6
330
1F
100
AcDbEntity
  8
dxfile
  6
Continuous
 62
     4
100
AcDbLine
 10
2872.921002
 20
877.335203
 30
0.0
 11
2876.921002
 21
877.335203
 31
0.0
  0
LINE
  5
4B7
330
1F
100
AcDbEntity
  8
dxfile
  6
PLine2
 62
     3
100
AcDbLine
 10
2881.527992
 20
867.335203
 30
0.0
 11
2863.625556
 21
867.335203
 31
0.0
  0
LINE
  5
4B8
330
1F
100
AcDbEntity
  8
dxfile
  6
Continuous
 62
     4
100
AcDbLine
 10
3007.458713
 20
732.323333
 30
0.0
 11
3007.458713
 21
797.150258
 31
0.0
  0
LINE
  5
4B9
330
1F
100
AcDbEntity
  8
dxfile
  6
Continuous
 62
     4
100
AcDbLine
 10
3007.458713
 20
797.150258
 30
0.0
 11
2868.406235
 21
821.668482
 31
0.0
  0
LINE
  5
4BA
330
1F
100
AcDbEntity
  8
dxfile
  6
PLine1
 62
     4
100
AcDbLine
 10
3011.458713
 20
732.323333
 30
0.0
 11
3011.458713
 21
800.506668
 31
0.0
  0
LINE
  5
4BB
330
1F
100
AcDbEntity
  8
dxfile
  6
PLine1
 62
     4
100
AcDbLine
 10
3011.458713
 20
800.506668
 30
0.0
 11
2869.100814
 21
825.607715
 31
0.0
  0
LINE
  5
4BC
330
1F
100
AcDbEntity
  8
dxfile
  6
Continuous
 62
     4
100
AcDbLine
 10
3007.458713
 20
797.150258
 30
0.0
 11
3033.458713
 21
818.966923
 31
0.0
  0
LINE
  5
4BD
330
1F
100
AcDbEntity
  8
dxfile
  6
Continuous
 62
     4
100
AcDbLine
 10
2873.079375
 20
848.171696
 30
0.0
 11
2868.406235
 21
821.668482
 31
0.0
  0
LINE
  5
4BE
330
1F
100
AcDbEntity
  8
dxfile
  6
Continuous
 62
     6
100
AcDbLine
 10
3033.458713
 20
732.323333
 30
0.0
 11
2997.458713
 21
732.323333
 31
0.0
  0
LINE
  5
4BF
330
1F
100
AcDbEntity
  8
dxfile
  6
PLine2
 62
     3
100
AcDbLine
 10
2933.879194
 20
569.891071
 30
0.0
 11
2899.852445
 21
569.891071
 31
0.0
  0
LINE
  5
4C0
330
1F
100
AcDbEntity
  8
dxfile
  6
Continuous
 62
     6
100
AcDbLine
 10
3033.458713
 20
702.323333
 30
0.0
 11
2997.458713
 21
699.259299
 31
0.0
  0
LINE
  5
4C1
330
1F
100
AcDbEntity
  8
dxfile
  6
Continuous
 62
     6
100
AcDbLine
 10
2891.687474
 20
883.335203
 30
0.0
 11
2895.984117
 21
847.268633
 31
0.0
  0
LINE
  5
4C2
330
1F
100
AcDbEntity
  8
dxfile
  6
Continuous
 62
     6
100
AcDbLine
 10
3026.54984
 20
701.735304
 30
0.0
 11
3007.165641
 21
721.119504
 31
0.0
  0
LINE
  5
4C3
330
1F
100
AcDbEntity
  8
dxfile
  6
Continuous
 62
     6
100
AcDbLine
 10
3033.473435
 20
709.23806
 30
0.0
 11
3021.591991
 21
721.119504
 31
0.0
  0
LINE
  5
4C4
330
1F
100
AcDbEntity
  8
dxfile
  6
Continuous
 62
     6
100
AcDbLine
 10
3016.562644
 20
700.885274
 30
0.0
 11
3033.458713
 21
717.781342
 31
0.0
  0
LINE
  5
4C5
330
1F
100
AcDbEntity
  8
dxfile
  6
Continuous
 62
     6
100
AcDbLine
 10
3013.237848
 20
700.602293
 30
0.0
 11
2997.458713
 21
716.381428
 31
0.0
  0
LINE
  5
4C6
330
1F
100
AcDbEntity
  8
dxfile
  6
Continuous
 62
     6
100
AcDbLine
 10
3001.25437
 20
699.582355
 30
0.0
 11
2997.458713
 21
703.378012
 31
0.0
  0
LINE
  5
4C7
330
1F
100
AcDbEntity
  8
dxfile
  6
Continuous
 62
     6
100
AcDbLine
 10
3002.194661
 20
699.662385
 30
0.0
 11
3023.65178
 21
721.119504
 31
0.0
  0
LINE
  5
4C8
330
1F
100
AcDbEntity
  8
dxfile
  6
Continuous
 62
     6
100
AcDbLine
 10
2997.458713
 20
708.447105
 30
0.0
 11
3010.131111
 21
721.119504
 31
0.0
  0
LINE
  5
4C9
330
1F
100
AcDbEntity
  8
dxfile
  6
Continuous
 62
     6
100
AcDbLine
 10
2880.91254
 20
881.335203
 30
0.0
 11
2893.415188
 21
868.832555
 31
0.0
  0
LINE
  5
4CA
330
1F
100
AcDbEntity
  8
dxfile
  6
Continuous
 62
     6
100
AcDbLine
 10
2880.148688
 20
851.688829
 30
0.0
 11
2893.827916
 21
865.368057
 31
0.0
  0
LINE
  5
4CB
330
1F
100
AcDbEntity
  8
dxfile
  6
Continuous
 62
     6
100
AcDbLine
 10
2895.02365
 20
855.330917
 30
0.0
 11
2880.148688
 21
870.205879
 31
0.0
  0
LINE
  5
4CC
330
1F
100
AcDbEntity
  8
dxfile
  6
Continuous
 62
     6
100
AcDbLine
 10
2889.620127
 20
848.390754
 30
0.0
 11
2895.187225
 21
853.957851
 31
0.0
  0
LINE
  5
4CD
330
1F
100
AcDbEntity
  8
dxfile
  6
Continuous
 62
     6
100
AcDbLine
 10
2889.407124
 20
848.428312
 30
0.0
 11
2880.148688
 21
857.686747
 31
0.0
  0
LINE
  5
4CE
330
1F
100
AcDbEntity
  8
dxfile
  6
Continuous
 62
     6
100
AcDbLine
 10
2880.148688
 20
875.600367
 30
0.0
 11
2885.883524
 21
881.335203
 31
0.0
  0
LINE
  5
4CF
330
1F
100
AcDbEntity
  8
dxfile
  6
Continuous
 62
     6
100
AcDbLine
 10
2880.148688
 20
863.682158
 30
0.0
 11
2892.551233
 21
876.084703
 31
0.0
  0
LINE
  5
4D0
330
1F
100
AcDbEntity
  8
dxfile
  6
Continuous
 62
     4
100
AcDbLine
 10
2762.20052
 20
854.281756
 30
0.0
 11
2771.958804
 21
869.407096
 31
0.0
  0
LINE
  5
4D1
330
1F
100
AcDbEntity
  8
dxfile
  6
Continuous
 62
     4
100
AcDbLine
 10
2709.253739
 20
909.861977
 30
0.0
 11
2699.495455
 21
894.736637
 31
0.0
  0
LINE
  5
4D2
330
1F
100
AcDbEntity
  8
dxfile
  6
Continuous
 62
     4
100
AcDbLine
 10
2771.958804
 20
869.407096
 30
0.0
 11
2751.687474
 21
882.485373
 31
0.0
  0
LINE
  5
4D3
330
1F
100
AcDbEntity
  8
dxfile
  6
Continuous
 62
     4
100
AcDbLine
 10
2731.687474
 20
895.388599
 30
0.0
 11
2721.687474
 21
901.840212
 31
0.0
  0
LINE
  5
4D4
330
1F
100
AcDbEntity
  8
dxfile
  6
Continuous
 62
     4
100
AcDbLine
 10
2717.087474
 20
904.807954
 30
0.0
 11
2709.253739
 21
909.861977
 31
0.0
  0
LINE
  5
4D5
330
1F
100
AcDbEntity
  8
dxfile
  6
Continuous
 62
     4
100
AcDbLine
 10
2699.495455
 20
894.736637
 30
0.0
 11
2717.087474
 21
883.386947
 31
0.0
  0
LINE
  5
4D6
330
1F
100
AcDbEntity
  8
dxfile
  6
Continuous
 62
     4
100
AcDbLine
 10
2721.687474
 20
880.419205
 30
0.0
 11
2731.687474
 21
873.967592
 31
0.0
  0
LINE
  5
4D7
330
1F
100
AcDbEntity
  8
dxfile
  6
Continuous
 62
     4
100
AcDbLine
 10
2751.687474
 20
861.064367
 30
0.0
 11
2762.20052
 21
854.281756
 31
0.0
  0
LINE
  5
4D8
330
1F
100
AcDbEntity
  8
dxfile
  6
PLine2
 62
     3
100
AcDbLine
 10
2774.440942
 20
857.095213
 30
0.0
 11
2699.176805
 21
905.652721
 31
0.0
  0
LINE
  5
4D9
330
1F
100
AcDbEntity
  8
dxfile
  6
Continuous
 62
     6
100
AcDbLine
 10
2661.687474
 20
847.963603
 30
0.0
 11
2661.687474
 21
922.735203
 31
0.0
  0
CIRCLE
  5
4DA
330
1F
100
AcDbEntity
  8
dxfile
  6
Continuous
 62
     6
100
AcDbCircle
 10
2678.355997
 20
894.468751
 30
0.0
 40
2.000000000000227
  0
CIRCLE
  5
4DB
330
1F
100
AcDbEntity
  8
dxfile
  6
Continuous
 62
     6
100
AcDbCircle
 10
2688.802871
 20
875.067413
 30
0.0
 40
1.999999999999545
  0
CIRCLE
  5
4DC
330
1F
100
AcDbEntity
  8
dxfile
  6
Continuous
 62
     6
100
AcDbCircle
 10
2701.488361
 20
855.666075
 30
0.0
 40
2.000000000000227
  0
CIRCLE
  5
4DD
330
1F
100
AcDbEntity
  8
dxfile
  6
Continuous
 62
     6
100
AcDbCircle
 10
2679.102202
 20
860.889513
 30
0.0
 40
2.000000000000227
  0
CIRCLE
  5
4DE
330
1F
100
AcDbEntity
  8
dxfile
  6
Continuous
 62
     6
100
AcDbCircle
 10
2691.787692
 20
904.16942
 30
0.0
 40
1.999999999999545
  0
CIRCLE
  5
4DF
330
1F
100
AcDbEntity
  8
dxfile
  6
Continuous
 62
     6
100
AcDbCircle
 10
2794.017819
 20
901.930804
 30
0.0
 40
2.000000000000227
  0
CIRCLE
  5
4E0
330
1F
100
AcDbEntity
  8
dxfile
  6
Continuous
 62
     6
100
AcDbCircle
 10
2795.510229
 20
868.351566
 30
0.0
 40
1.999999999999545
  0
CIRCLE
  5
4E1
330
1F
100
AcDbEntity
  8
dxfile
  6
Continuous
 62
     6
100
AcDbCircle
 10
2826.104647
 20
843.726791
 30
0.0
 40
2.000000000000227
  0
CIRCLE
  5
4E2
330
1F
100
AcDbEntity
  8
dxfile
  6
Continuous
 62
     6
100
AcDbCircle
 10
2827.597057
 20
883.275672
 30
0.0
 40
1.999999999999545
  0
CIRCLE
  5
4E3
330
1F
100
AcDbEntity
  8
dxfile
  6
Continuous
 62
     6
100
AcDbCircle
 10
2790.286792
 20
839.995764
 30
0.0
 40
2.000000000000227
  0
CIRCLE
  5
4E4
330
1F
100
AcDbEntity
  8
dxfile
  6
Continuous
 62
     6
100
AcDbCircle
 10
2762.677196
 20
905.661831
 30
0.0
 40
1.999999999999545
  0
INSERT
  5
4EE
330
1F
100
AcDbEntity
  8
dxfile
  6
Continuous
 62
     3
100
AcDbBlockReference
  2
DIM_6
 10
2891.745235
 20
799.052882
 30
0.0
  0
LINE
  5
4EF
330
1F
100
AcDbEntity
  8
dxfile
  6
Continuous
 62
     4
100
AcDbLine
 10
841.687474
 20
310.594517
 30
0.0
 11
841.687474
 21
891.335203
 31
0.0
  0
LINE
  5
4F0
330
1F
100
AcDbEntity
  8
dxfile
  6
Continuous
 62
     4
100
AcDbLine
 10
823.687474
 20
310.594517
 30
0.0
 11
823.687474
 21
891.335203
 31
0.0
  0
LINE
  5
4F1
330
1F
100
AcDbEntity
  8
dxfile
  6
Continuous
 62
     4
100
AcDbLine
 10
2541.687474
 20
310.594517
 30
0.0
 11
2541.687474
 21
891.335203
 31
0.0
  0
LINE
  5
4F2
330
1F
100
AcDbEntity
  8
dxfile
  6
Continuous
 62
     4
100
AcDbLine
 10
2559.687474
 20
310.594517
 30
0.0
 11
2559.687474
 21
891.335203
 31
0.0
  0
INSERT
  5
4FC
330
1F
100
AcDbEntity
  8
dxfile
  6
Continuous
 62
     3
100
AcDbBlockReference
  2
DIM_7
 10
721.687474
 20
430.221186
 30
0.0
  0
INSERT
  5
506
330
1F
100
AcDbEntity
  8
dxfile
  6
Continuous
 62
     3
100
AcDbBlockReference
  2
DIM_8
 10
721.687474
 20
352.979872
 30
0.0
  0
LINE
  5
507
330
1F
100
AcDbEntity
  8
dxfile
  6
Continuous
 62
     3
100
AcDbLine
 10
1614.95297
 20
696.310127
 30
0.0
 11
1634.089961
 21
696.310127
 31
0.0
  0
LINE
  5
508
330
1F
100
AcDbEntity
  8
dxfile
  6
Continuous
 62
     3
100
AcDbLine
 10
1634.089961
 20
696.310127
 30
0.0
 11
1634.089961
 21
716.130582
 31
0.0
  0
LINE
  5
509
330
1F
100
AcDbEntity
  8
dxfile
  6
Continuous
 62
     3
100
AcDbLine
 10
1634.089961
 20
716.130582
 30
0.0
 11
1614.95297
 21
716.130582
 31
0.0
  0
LINE
  5
50A
330
1F
100
AcDbEntity
  8
dxfile
  6
Continuous
 62
     3
100
AcDbLine
 10
1614.95297
 20
716.130582
 30
0.0
 11
1614.95297
 21
696.310127
 31
0.0
  0
LINE
  5
50B
330
1F
100
AcDbEntity
  8
dxfile
  6
Continuous
 62
     3
100
AcDbLine
 10
1148.777655
 20
3326.754858
 30
0.0
 11
1148.777655
 21
3123.64207
 31
0.0
  0
TEXT
  5
50C
330
1F
100
AcDbEntity
  8
dxfile
  6
Continuous
 62
     3
100
AcDbText
 10
1063.113967
 20
3283.994685
 30
0.0
 40
32.639796
  1
Ｊ
 41
0.858268
  7
BIGFONT
100
AcDbText
  0
TEXT
  5
50D
330
1F
100
AcDbEntity
  8
dxfile
  6
Continuous
 62
     3
100
AcDbText
 10
1046.733811
 20
3234.341862
 30
0.0
 40
32.639796
  1
６７０
 41
0.858268
  7
BIGFONT
100
AcDbText
  0
TEXT
  5
50E
330
1F
100
AcDbEntity
  8
dxfile
  6
Continuous
 62
     3
100
AcDbText
 10
1046.733811
 20
3185.143394
 30
0.0
 40
32.639796
  1
９７０
 41
0.858268
  7
BIGFONT
100
AcDbText
  0
TEXT
  5
50F
330
1F
100
AcDbEntity
  8
dxfile
  6
Continuous
 62
     3
100
AcDbText
 10
1020.523616
 20
3131.727631
 30
0.0
 40
32.639796
  1
１３７０
 41
0.858268
  7
BIGFONT
100
AcDbText
  0
LINE
  5
510
330
1F
100
AcDbEntity
  8
dxfile
  6
Continuous
 62
     3
100
AcDbLine
 10
859.681782
 20
408.244166
 30
0.0
 11
842.48563
 21
426.028776
 31
0.0
  0
LINE
  5
511
330
1F
100
AcDbEntity
  8
dxfile
  6
Continuous
 62
     3
100
AcDbLine
 10
842.48563
 20
426.028776
 30
0.0
 11
902.438389
 21
322.18755
 31
0.0
  0
LINE
  5
512
330
1F
100
AcDbEntity
  8
dxfile
  6
Continuous
 62
     3
100
AcDbLine
 10
902.438389
 20
322.18755
 30
0.0
 11
1180.51713
 21
322.18755
 31
0.0
  0
TEXT
  5
513
330
1F
100
AcDbEntity
  8
dxfile
  6
Continuous
 62
     3
100
AcDbText
 10
902.438389
 20
328.18755
 30
0.0
 40
36.0
  1
内装仕上げ（別途）
 41
0.858268
  7
BIGFONT
100
AcDbText
  0
LINE
  5
514
330
1F
100
AcDbEntity
  8
dxfile
  6
Continuous
 62
     3
100
AcDbLine
 10
2988.050316
 20
855.038837
 30
0.0
 11
2981.246468
 21
831.254227
 31
0.0
  0
LINE
  5
515
330
1F
100
AcDbEntity
  8
dxfile
  6
Continuous
 62
     3
100
AcDbLine
 10
2981.246468
 20
831.254227
 30
0.0
 11
3010.171036
 21
881.353049
 31
0.0
  0
LINE
  5
516
330
1F
100
AcDbEntity
  8
dxfile
  6
Continuous
 62
     3
100
AcDbLine
 10
3010.171036
 20
881.353049
 30
0.0
 11
3380.94269
 21
881.353049
 31
0.0
  0
TEXT
  5
517
330
1F
100
AcDbEntity
  8
dxfile
  6
Continuous
 62
     3
100
AcDbText
 10
3010.171036
 20
887.353049
 30
0.0
 40
36.0
  1
２段水切り（オプション）
 41
0.858268
  7
BIGFONT
100
AcDbText
  0
LINE
  5
518
330
1F
100
AcDbEntity
  8
dxfile
  6
Continuous
 62
     3
100
AcDbLine
 10
3034.700216
 20
681.141837
 30
0.0
 11
3017.504063
 21
698.926447
 31
0.0
  0
LINE
  5
519
330
1F
100
AcDbEntity
  8
dxfile
  6
Continuous
 62
     3
100
AcDbLine
 10
3017.504063
 20
698.926447
 30
0.0
 11
3060.731849
 21
624.053726
 31
0.0
  0
LINE
  5
51A
330
1F
100
AcDbEntity
  8
dxfile
  6
Continuous
 62
     3
100
AcDbLine
 10
3060.731849
 20
624.053726
 30
0.0
 11
3400.605864
 21
624.053726
 31
0.0
  0
TEXT
  5
51B
330
1F
100
AcDbEntity
  8
dxfile
  6
Continuous
 62
     3
100
AcDbText
 10
3060.731849
 20
630.053726
 30
0.0
 40
36.0
  1
シーリング処理（別途）
 41
0.858268
  7
BIGFONT
100
AcDbText
  0
LINE
  5
51C
330
1F
100
AcDbEntity
  8
dxfile
  6
Continuous
 62
     3
100
AcDbLine
 10
2899.992122
 20
885.64393
 30
0.0
 11
2893.188274
 21
861.85932
 31
0.0
  0
LINE
  5
51D
330
1F
100
AcDbEntity
  8
dxfile
  6
Continuous
 62
     3
100
AcDbLine
 10
2893.188274
 20
861.85932
 30
0.0
 11
2950.406303
 21
960.963854
 31
0.0
  0
LINE
  5
51E
330
1F
100
AcDbEntity
  8
dxfile
  6
Continuous
 62
     3
100
AcDbLine
 10
2950.406303
 20
960.963854
 30
0.0
 11
3290.280319
 21
960.963854
 31
0.0
  0
TEXT
  5
51F
330
1F
100
AcDbEntity
  8
dxfile
  6
Continuous
 62
     3
100
AcDbText
 10
2950.406303
 20
966.963854
 30
0.0
 40
36.0
  1
シーリング処理（別途）
 41
0.858268
  7
BIGFONT
100
AcDbText
  0
LINE
  5
520
330
1F
100
AcDbEntity
  8
dxfile
  6
Continuous
 62
     3
100
AcDbLine
 10
2769.573384
 20
764.520521
 30
0.0
 11
2752.377232
 21
782.305131
 31
0.0
  0
LINE
  5
521
330
1F
100
AcDbEntity
  8
dxfile
  6
Continuous
 62
     3
100
AcDbLine
 10
2752.377232
 20
782.305131
 30
0.0
 11
2962.848346
 21
417.758467
 31
0.0
  0
LINE
  5
522
330
1F
100
AcDbEntity
  8
dxfile
  6
Continuous
 62
     3
100
AcDbLine
 10
2962.848346
 20
417.758467
 30
0.0
 11
3148.234173
 21
417.758467
 31
0.0
  0
TEXT
  5
523
330
1F
100
AcDbEntity
  8
dxfile
  6
Continuous
 62
     3
100
AcDbText
 10
2962.848346
 20
423.758467
 30
0.0
 40
36.0
  1
差筋（別途）
 41
0.858268
  7
BIGFONT
100
AcDbText
  0
TEXT
  5
524
330
1F
100
AcDbEntity
  8
dxfile
  6
Continuous
 62
     3
100
AcDbText
 10
24.859708
 20
-92.288038
 30
0.0
 40
36.0
  1
Ｓ１：６
 41
0.858268
  7
BIGFONT
100
AcDbText
  0
TEXT
  5
525
330
1F
100
AcDbEntity
  8
dxfile
  6
Continuous
 62
     3
100
AcDbText
 10
4204.272368
 20
428.815924
 30
0.0
 40
42.0
  1
ボックス施工例
 41
0.858268
  7
BIGFONT
100
AcDbText
  0
TEXT
  5
526
330
1F
100
AcDbEntity
  8
dxfile
  6
Continuous
 62
     2
100
AcDbText
 10
4286.480532
 20
225.249553
 30
0.0
 40
48.0
  1
ＬＭ－ＡＬ型
 41
0.858268
  7
BIGFONT
100
AcDbText
  0
TEXT
  5
527
330
1F
100
AcDbEntity
  8
dxfile
  6
Continuous
 62
     3
100
AcDbText
 10
22.288855
 20
-147.048984
 30
0.0
 40
36.0
  1
Ｓ１：１２
 41
0.858268
  7
BIGFONT
100
AcDbText
  0
LINE
  5
528
330
1F
100
AcDbEntity
  8
dxfile
  6
Continuous
 62
     3
100
AcDbLine
 10
4571.77658
 20
2538.406768
 30
0.0
 11
4571.77658
 21
612.686729
 31
0.0
  0
LINE
  5
529
330
1F
100
AcDbEntity
  8
dxfile
  6
Continuous
 62
     3
100
AcDbLine
 10
4452.77658
 20
2244.868741
 30
0.0
 11
4452.77658
 21
2258.168741
 31
0.0
  0
INSERT
  5
530
330
1F
100
AcDbEntity
  8
dxfile
  6
Continuous
 62
     3
100
AcDbBlockReference
  2
DIM_9
 10
0.0
 20
0.0
 30
0.0
  0
LINE
  5
531
330
1F
100
AcDbEntity
  8
dxfile
  6
Continuous
 62
     4
100
AcDbLine
 10
4408.716085
 20
2425.880733
 30
0.0
 11
4423.334737
 21
2438.036295
 31
0.0
  0
ARC
  5
532
330
1F
100
AcDbEntity
  8
dxfile
  6
Continuous
 62
     4
100
AcDbCircle
 10
4194.232394
 20
2240.721961
 30
0.0
 40
289.0000000002262
100
AcDbArc
 50
40.782563
 51
89.215646
  0
ARC
  5
533
330
1F
100
AcDbEntity
  8
dxfile
  6
Continuous
 62
     4
100
AcDbCircle
 10
4194.232394
 20
2240.721961
 30
0.0
 40
299.9999999997931
100
AcDbArc
 50
40.744474
 51
89.215646
  0
LINE
  5
534
330
1F
100
AcDbEntity
  8
dxfile
  6
Continuous
 62
     3
100
AcDbLine
 10
3979.409788
 20
2504.681395
 30
0.0
 11
3986.213636
 21
2528.466005
 31
0.0
  0
LINE
  5
535
330
1F
100
AcDbEntity
  8
dxfile
  6
Continuous
 62
     3
100
AcDbLine
 10
3986.213636
 20
2528.466005
 30
0.0
 11
3891.199638
 21
2363.896933
 31
0.0
  0
LINE
  5
536
330
1F
100
AcDbEntity
  8
dxfile
  6
Continuous
 62
     3
100
AcDbLine
 10
3891.199638
 20
2363.896933
 30
0.0
 11
3607.399638
 21
2363.896933
 31
0.0
  0
TEXT
  5
537
330
1F
100
AcDbEntity
  8
dxfile
  6
Continuous
 62
     3
100
AcDbText
 10
3652.110201
 20
2373.897074
 30
0.0
 40
30.0
  1
アウターケーブルφ１１
 41
0.858268
 51
0.0
  7
BIGFONT
 72
     2
 11
3891.199065
 21
2373.897074
 31
0.0
100
AcDbText
  0
TEXT
  5
538
330
1F
100
AcDbEntity
  8
dxfile
  6
Continuous
 62
     3
100
AcDbText
 10
3753.667335
 20
2486.714924
 30
0.0
 40
30.0
  1
←本体へ
 41
0.729528
 51
0.0
  7
BIGFONT
100
AcDbText
  0
LINE
  5
539
330
1F
100
AcDbEntity
  8
dxfile
  6
Continuous
 62
     6
100
AcDbLine
 10
4671.743628
 20
2659.747659
 30
0.0
 11
4552.68982
 21
2540.693851
 31
0.0
  0
LINE
  5
53A
330
1F
100
AcDbEntity
  8
dxfile
  6
Continuous
 62
     6
100
AcDbLine
 10
4560.552671
 20
2540.693851
 30
0.0
 11
4679.606479
 21
2659.747659
 31
0.0
  0
LINE
  5
53B
330
1F
100
AcDbEntity
  8
dxfile
  6
Continuous
 62
     6
100
AcDbLine
 10
4662.635916
 20
2659.747659
 30
0.0
 11
4543.582108
 21
2540.693851
 31
0.0
  0
LINE
  5
53C
330
1F
100
AcDbEntity
  8
dxfile
  6
Continuous
 62
     6
100
AcDbLine
 10
4024.576029
 20
2540.693851
 30
0.0
 11
4143.629837
 21
2659.747659
 31
0.0
  0
LINE
  5
53D
330
1F
100
AcDbEntity
  8
dxfile
  6
Continuous
 62
     6
100
AcDbLine
 10
4007.605466
 20
2540.693851
 30
0.0
 11
4126.659274
 21
2659.747659
 31
0.0
  0
LINE
  5
53E
330
1F
100
AcDbEntity
  8
dxfile
  6
Continuous
 62
     3
100
AcDbLine
 10
3771.479484
 20
2247.068741
 30
0.0
 11
4449.97658
 21
2247.068741
 31
0.0
  0
LINE
  5
53F
330
1F
100
AcDbEntity
  8
dxfile
  6
Continuous
 62
     3
100
AcDbLine
 10
3771.479484
 20
2256.568741
 30
0.0
 11
4449.97658
 21
2256.568741
 31
0.0
  0
LINE
  5
540
330
1F
100
AcDbEntity
  8
dxfile
  6
Continuous
 62
     3
100
AcDbLine
 10
4449.97658
 20
2256.568741
 30
0.0
 11
4449.97658
 21
2247.068741
 31
0.0
  0
LINE
  5
541
330
1F
100
AcDbEntity
  8
dxfile
  6
Continuous
 62
     3
100
AcDbLine
 10
4437.37658
 20
2257.168741
 30
0.0
 11
4437.37658
 21
2258.168741
 31
0.0
  0
LINE
  5
542
330
1F
100
AcDbEntity
  8
dxfile
  6
Continuous
 62
     3
100
AcDbLine
 10
4451.77658
 20
2257.168741
 30
0.0
 11
4437.37658
 21
2257.168741
 31
0.0
  0
LINE
  5
543
330
1F
100
AcDbEntity
  8
dxfile
  6
Continuous
 62
     3
100
AcDbLine
 10
4451.77658
 20
2245.868741
 30
0.0
 11
4451.77658
 21
2257.168741
 31
0.0
  0
LINE
  5
544
330
1F
100
AcDbEntity
  8
dxfile
  6
Continuous
 62
     3
100
AcDbLine
 10
4446.97658
 20
2245.868741
 30
0.0
 11
4451.77658
 21
2245.868741
 31
0.0
  0
LINE
  5
545
330
1F
100
AcDbEntity
  8
dxfile
  6
Continuous
 62
     3
100
AcDbLine
 10
4446.97658
 20
2247.068741
 30
0.0
 11
4446.97658
 21
2245.868741
 31
0.0
  0
LINE
  5
546
330
1F
100
AcDbEntity
  8
dxfile
  6
Continuous
 62
     3
100
AcDbLine
 10
4445.97658
 20
2247.068741
 30
0.0
 11
4446.97658
 21
2247.068741
 31
0.0
  0
LINE
  5
547
330
1F
100
AcDbEntity
  8
dxfile
  6
Continuous
 62
     3
100
AcDbLine
 10
4445.97658
 20
2244.868741
 30
0.0
 11
4445.97658
 21
2247.068741
 31
0.0
  0
LINE
  5
548
330
1F
100
AcDbEntity
  8
dxfile
  6
Continuous
 62
     3
100
AcDbLine
 10
4445.97658
 20
2244.868741
 30
0.0
 11
4452.77658
 21
2244.868741
 31
0.0
  0
LINE
  5
549
330
1F
100
AcDbEntity
  8
dxfile
  6
Continuous
 62
     3
100
AcDbLine
 10
4437.37658
 20
2258.168741
 30
0.0
 11
4452.77658
 21
2258.168741
 31
0.0
  0
TEXT
  5
54A
330
1F
100
AcDbEntity
  8
dxfile
  6
Continuous
 62
     3
100
AcDbText
 10
4003.139685
 20
2213.440844
 30
0.0
 40
30.0
  1
ＣＬ
 41
0.858268
 51
0.0
  7
BIGFONT
100
AcDbText
  0
TEXT
  5
54B
330
1F
100
AcDbEntity
  8
dxfile
  6
Continuous
 62
     3
100
AcDbText
 10
3978.324005
 20
2214.567244
 30
0.0
 40
30.0
  1
△
 41
0.858268
 51
0.0
  7
BIGFONT
100
AcDbText
  0
TEXT
  5
54C
330
1F
100
AcDbEntity
  8
dxfile
  6
Continuous
 62
     3
100
AcDbText
 10
4201.698027
 20
2027.708648
 30
0.0
 40
30.0
  1
φ１９　電線管
 41
0.858268
  7
BIGFONT
100
AcDbText
  0
LINE
  5
54D
330
1F
100
AcDbEntity
  8
dxfile
  6
Continuous
 62
     3
100
AcDbLine
 10
4476.218779
 20
1940.79732
 30
0.0
 11
4493.414932
 21
1923.01271
 31
0.0
  0
LINE
  5
54E
330
1F
100
AcDbEntity
  8
dxfile
  6
Continuous
 62
     3
100
AcDbLine
 10
4493.414932
 20
1923.01271
 30
0.0
 11
4412.766526
 21
2062.699847
 31
0.0
  0
LINE
  5
54F
330
1F
100
AcDbEntity
  8
dxfile
  6
Continuous
 62
     3
100
AcDbLine
 10
4412.766526
 20
2062.699847
 30
0.0
 11
4197.384045
 21
2062.699847
 31
0.0
  0
TEXT
  5
550
330
1F
100
AcDbEntity
  8
dxfile
  6
Continuous
 62
     3
100
AcDbText
 10
4233.132129
 20
2067.699798
 30
0.0
 40
30.0
  1
ワイヤー通路
 41
0.858268
 51
0.0
  7
BIGFONT
 72
     2
 11
4361.872287
 21
2067.699798
 31
0.0
100
AcDbText
  0
TEXT
  5
551
330
1F
100
AcDbEntity
  8
dxfile
  6
Continuous
 62
     3
100
AcDbText
 10
4053.742372
 20
1806.286427
 30
0.0
 40
30.0
  1
（ＨＭ１型－埋込）
 41
0.858268
  7
BIGFONT
100
AcDbText
  0
LINE
  5
552
330
1F
100
AcDbEntity
  8
dxfile
  6
Continuous
 62
     2
100
AcDbLine
 10
3854.622884
 20
2659.747659
 30
0.0
 11
4741.897852
 21
2659.747659
 31
0.0
  0
LINE
  5
553
330
1F
100
AcDbEntity
  8
dxfile
  6
Continuous
 62
     3
100
AcDbLine
 10
4157.378707
 20
2549.718769
 30
0.0
 11
4157.378707
 21
2530.859839
 31
0.0
  0
LINE
  5
554
330
1F
100
AcDbEntity
  8
dxfile
  6
Continuous
 62
     3
100
AcDbLine
 10
4142.378707
 20
2539.193851
 30
0.0
 11
4172.378707
 21
2539.193851
 31
0.0
  0
LINE
  5
555
330
1F
100
AcDbEntity
  8
dxfile
  6
Continuous
 62
     3
100
AcDbLine
 10
4142.378707
 20
2525.549386
 30
0.0
 11
4172.378707
 21
2525.549386
 31
0.0
  0
LINE
  5
556
330
1F
100
AcDbEntity
  8
dxfile
  6
Continuous
 62
     3
100
AcDbLine
 10
4172.378707
 20
2540.693851
 30
0.0
 11
4172.378707
 21
2525.549386
 31
0.0
  0
LINE
  5
557
330
1F
100
AcDbEntity
  8
dxfile
  6
Continuous
 62
     3
100
AcDbLine
 10
4142.378707
 20
2540.693851
 30
0.0
 11
4142.378707
 21
2525.549386
 31
0.0
  0
LINE
  5
558
330
1F
100
AcDbEntity
  8
dxfile
  6
Continuous
 62
     2
100
AcDbLine
 10
4198.339133
 20
2540.693851
 30
0.0
 11
4741.897852
 21
2540.693851
 31
0.0
  0
LINE
  5
559
330
1F
100
AcDbEntity
  8
dxfile
  6
PLine3
 62
     3
100
AcDbLine
 10
3771.479484
 20
2536.193851
 30
0.0
 11
3854.307547
 21
2536.193851
 31
0.0
  0
LINE
  5
55A
330
1F
100
AcDbEntity
  8
dxfile
  6
PLine2
 62
     3
100
AcDbLine
 10
3771.479484
 20
2534.193851
 30
0.0
 11
3854.759575
 21
2534.193851
 31
0.0
  0
LINE
  5
55B
330
1F
100
AcDbEntity
  8
dxfile
  6
Continuous
 62
     4
100
AcDbLine
 10
4198.263136
 20
2529.693851
 30
0.0
 11
4172.378707
 21
2529.693851
 31
0.0
  0
LINE
  5
55C
330
1F
100
AcDbEntity
  8
dxfile
  6
Continuous
 62
     4
100
AcDbLine
 10
4198.339133
 20
2540.693851
 30
0.0
 11
3854.622884
 21
2540.693851
 31
0.0
  0
LINE
  5
55D
330
1F
100
AcDbEntity
  8
dxfile
  6
Continuous
 62
     3
100
AcDbLine
 10
4207.224305
 20
2480.980167
 30
0.0
 11
4226.028152
 21
2525.549386
 31
0.0
  0
LINE
  5
55E
330
1F
100
AcDbEntity
  8
dxfile
  6
Continuous
 62
     3
100
AcDbLine
 10
4226.028152
 20
2525.549386
 30
0.0
 11
4154.802675
 21
2402.18324
 31
0.0
  0
LINE
  5
55F
330
1F
100
AcDbEntity
  8
dxfile
  6
Continuous
 62
     3
100
AcDbLine
 10
4154.802675
 20
2402.18324
 30
0.0
 11
4000.002675
 21
2402.18324
 31
0.0
  0
TEXT
  5
560
330
1F
100
AcDbEntity
  8
dxfile
  6
Continuous
 62
     3
100
AcDbText
 10
4026.062427
 20
2412.183214
 30
0.0
 40
30.0
  1
クリップ止め
 41
0.858268
 51
0.0
  7
BIGFONT
 72
     2
 11
4154.802585
 21
2412.183214
 31
0.0
100
AcDbText
  0
LINE
  5
561
330
1F
100
AcDbEntity
  8
dxfile
  6
Continuous
 62
     4
100
AcDbLine
 10
4142.378707
 20
2529.693851
 30
0.0
 11
3854.453374
 21
2529.693851
 31
0.0
  0
LINE
  5
562
330
1F
100
AcDbEntity
  8
dxfile
  6
Continuous
 62
     6
100
AcDbLine
 10
4237.141466
 20
613.03577
 30
0.0
 11
4170.604467
 21
546.498771
 31
0.0
  0
LINE
  5
563
330
1F
100
AcDbEntity
  8
dxfile
  6
Continuous
 62
     6
100
AcDbLine
 10
4166.152948
 20
546.498771
 30
0.0
 11
4232.689946
 21
613.03577
 31
0.0
  0
LINE
  5
564
330
1F
100
AcDbEntity
  8
dxfile
  6
Continuous
 62
     6
100
AcDbLine
 10
4622.021885
 20
546.498771
 30
0.0
 11
4688.558884
 21
613.03577
 31
0.0
  0
LINE
  5
565
330
1F
100
AcDbEntity
  8
dxfile
  6
Continuous
 62
     6
100
AcDbLine
 10
4693.398158
 20
613.03577
 30
0.0
 11
4626.861159
 21
546.498771
 31
0.0
  0
LINE
  5
566
330
1F
100
AcDbEntity
  8
dxfile
  6
Continuous
 62
     3
100
AcDbLine
 10
4430.372902
 20
1599.692542
 30
0.0
 11
4447.569055
 21
1581.907932
 31
0.0
  0
LINE
  5
567
330
1F
100
AcDbEntity
  8
dxfile
  6
Continuous
 62
     3
100
AcDbLine
 10
4447.569055
 20
1581.907932
 30
0.0
 11
4296.306169
 21
1843.902936
 31
0.0
  0
LINE
  5
568
330
1F
100
AcDbEntity
  8
dxfile
  6
Continuous
 62
     3
100
AcDbLine
 10
4296.306169
 20
1843.902936
 30
0.0
 11
4069.733106
 21
1843.902936
 31
0.0
  0
TEXT
  5
569
330
1F
100
AcDbEntity
  8
dxfile
  6
Continuous
 62
     3
100
AcDbText
 10
4109.159415
 20
1848.903007
 30
0.0
 40
30.0
  1
ハンドルＢＯＸ
 41
0.858268
 51
0.0
  7
BIGFONT
 72
     2
 11
4259.969314
 21
1848.903007
 31
0.0
100
AcDbText
  0
INSERT
  5
571
330
1F
100
AcDbEntity
  8
dxfile
  6
Continuous
 62
     3
100
AcDbBlockReference
  2
DIM_10
 10
4078.131481
 20
2247.068741
 30
0.0
  0
LINE
  5
572
330
1F
100
AcDbEntity
  8
dxfile
  6
Continuous
 62
     3
100
AcDbLine
 10
4562.27658
 20
2538.406768
 30
0.0
 11
4562.27658
 21
612.686729
 31
0.0
  0
TEXT
  5
573
330
1F
100
AcDbEntity
  8
dxfile
  6
Continuous
 62
     3
100
AcDbText
 10
4120.092805
 20
619.803604
 30
0.0
 40
30.0
  1
ＦＬ
 41
0.858268
 51
0.0
  7
BIGFONT
100
AcDbText
  0
TEXT
  5
574
330
1F
100
AcDbEntity
  8
dxfile
  6
Continuous
 62
     3
100
AcDbText
 10
4094.542275
 20
618.410784
 30
0.0
 40
30.0
  1
▽
 41
0.858268
 51
0.0
  7
BIGFONT
100
AcDbText
  0
LINE
  5
575
330
1F
100
AcDbEntity
  8
dxfile
  6
Continuous
 62
     3
100
AcDbLine
 10
4439.680427
 20
973.611585
 30
0.0
 11
4456.87658
 21
955.826975
 31
0.0
  0
LINE
  5
576
330
1F
100
AcDbEntity
  8
dxfile
  6
Continuous
 62
     3
100
AcDbLine
 10
4456.87658
 20
955.826975
 30
0.0
 11
4383.698133
 21
1082.575763
 31
0.0
  0
LINE
  5
577
330
1F
100
AcDbEntity
  8
dxfile
  6
Continuous
 62
     3
100
AcDbLine
 10
4383.698133
 20
1082.575763
 30
0.0
 11
4166.624283
 21
1082.575763
 31
0.0
  0
TEXT
  5
578
330
1F
100
AcDbEntity
  8
dxfile
  6
Continuous
 62
     3
100
AcDbText
 10
4213.406973
 20
1087.575744
 30
0.0
 40
30.0
  1
内装ボード（別途）
 41
0.858268
 51
0.0
  7
BIGFONT
 72
     2
 11
4408.356355
 21
1087.575744
 31
0.0
100
AcDbText
  0
LINE
  5
579
330
1F
100
AcDbEntity
  8
dxfile
  6
Continuous
 62
     3
100
AcDbLine
 10
4462.27658
 20
1327.824518
 30
0.0
 11
4462.27658
 21
613.03577
 31
0.0
  0
LINE
  5
57A
330
1F
100
AcDbEntity
  8
dxfile
  6
Continuous
 62
     3
100
AcDbLine
 10
4452.77658
 20
1327.824518
 30
0.0
 11
4452.77658
 21
613.03577
 31
0.0
  0
INSERT
  5
583
330
1F
100
AcDbEntity
  8
dxfile
  6
Continuous
 62
     3
100
AcDbBlockReference
  2
DIM_11
 10
4304.895762
 20
1369.324518
 30
0.0
  0
LINE
  5
584
330
1F
100
AcDbEntity
  8
dxfile
  6
Continuous
 62
     2
100
AcDbLine
 10
3816.238673
 20
613.03577
 30
0.0
 11
4741.897852
 21
613.03577
 31
0.0
  0
LINE
  5
585
330
1F
100
AcDbEntity
  8
dxfile
  6
Continuous
 62
     3
100
AcDbLine
 10
4462.27658
 20
1627.824518
 30
0.0
 11
4462.27658
 21
2540.693851
 31
0.0
  0
LINE
  5
586
330
1F
100
AcDbEntity
  8
dxfile
  6
Continuous
 62
     3
100
AcDbLine
 10
4452.77658
 20
2540.693851
 30
0.0
 11
4452.77658
 21
1532.824518
 31
0.0
  0
LINE
  5
587
330
1F
100
AcDbEntity
  8
dxfile
  6
Continuous
 62
     4
100
AcDbLine
 10
4447.77658
 20
1317.824518
 30
0.0
 11
4452.77658
 21
1317.824518
 31
0.0
  0
LINE
  5
588
330
1F
100
AcDbEntity
  8
dxfile
  6
Continuous
 62
     4
100
AcDbLine
 10
4452.77658
 20
1317.824518
 30
0.0
 11
4452.77658
 21
1637.824518
 31
0.0
  0
LINE
  5
589
330
1F
100
AcDbEntity
  8
dxfile
  6
Continuous
 62
     4
100
AcDbLine
 10
4452.77658
 20
1637.824518
 30
0.0
 11
4447.77658
 21
1637.824518
 31
0.0
  0
INSERT
  5
593
330
1F
100
AcDbEntity
  8
dxfile
  6
Continuous
 62
     3
100
AcDbBlockReference
  2
DIM_12
 10
4439.003648
 20
1637.824518
 30
0.0
  0
INSERT
  5
59D
330
1F
100
AcDbEntity
  8
dxfile
  6
Continuous
 62
     3
100
AcDbBlockReference
  2
DIM_13
 10
4528.634661
 20
1327.824518
 30
0.0
  0
INSERT
  5
5A6
330
1F
100
AcDbEntity
  8
dxfile
  6
Continuous
 62
     3
100
AcDbBlockReference
  2
DIM_14
 10
4447.77658
 20
1306.136738
 30
0.0
  0
INSERT
  5
5AF
330
1F
100
AcDbEntity
  8
dxfile
  6
Continuous
 62
     3
100
AcDbBlockReference
  2
DIM_15
 10
4522.77658
 20
1316.136738
 30
0.0
  0
INSERT
  5
5B9
330
1F
100
AcDbEntity
  8
dxfile
  6
Continuous
 62
     3
100
AcDbBlockReference
  2
DIM_16
 10
4710.682684
 20
1311.383428
 30
0.0
  0
LINE
  5
5BA
330
1F
100
AcDbEntity
  8
dxfile
  6
Continuous
 62
     4
100
AcDbLine
 10
4710.682684
 20
1637.824518
 30
0.0
 11
4710.682684
 21
1317.824518
 31
0.0
  0
LINE
  5
5BB
330
1F
100
AcDbEntity
  8
dxfile
  6
Continuous
 62
     4
100
AcDbLine
 10
4840.682684
 20
1637.824518
 30
0.0
 11
4840.682684
 21
1317.824518
 31
0.0
  0
LINE
  5
5BC
330
1F
100
AcDbEntity
  8
dxfile
  6
Continuous
 62
     4
100
AcDbLine
 10
4710.682684
 20
1637.824518
 30
0.0
 11
4840.682684
 21
1637.824518
 31
0.0
  0
LINE
  5
5BD
330
1F
100
AcDbEntity
  8
dxfile
  6
Continuous
 62
     4
100
AcDbLine
 10
4710.682684
 20
1317.824518
 30
0.0
 11
4840.682684
 21
1317.824518
 31
0.0
  0
LINE
  5
5BE
330
1F
100
AcDbEntity
  8
dxfile
  6
Continuous
 62
     4
100
AcDbLine
 10
4790.682684
 20
1369.324518
 30
0.0
 11
4790.682684
 21
1613.009583
 31
0.0
  0
ARC
  5
5BF
330
1F
100
AcDbEntity
  8
dxfile
  6
Continuous
 62
     4
100
AcDbCircle
 10
4764.982685
 20
1543.480772
 30
0.0
 40
1.700000011583476
100
AcDbArc
 50
90.0
 51
180.0
  0
ARC
  5
5C0
330
1F
100
AcDbEntity
  8
dxfile
  6
Continuous
 62
     4
100
AcDbCircle
 10
4786.382684
 20
1543.480772
 30
0.0
 40
1.700000009587946
100
AcDbArc
 50
0.0
 51
90.0
  0
ARC
  5
5C1
330
1F
100
AcDbEntity
  8
dxfile
  6
Continuous
 62
     4
100
AcDbCircle
 10
4764.982685
 20
1522.080773
 30
0.0
 40
1.699999995619117
100
AcDbArc
 50
180.0
 51
270.0
  0
ARC
  5
5C2
330
1F
100
AcDbEntity
  8
dxfile
  6
Continuous
 62
     4
100
AcDbCircle
 10
4786.382684
 20
1522.080773
 30
0.0
 40
1.699999988233764
100
AcDbArc
 50
270.0
 51
0.0
  0
LINE
  5
5C3
330
1F
100
AcDbEntity
  8
dxfile
  6
Continuous
 62
     4
100
AcDbLine
 10
4763.282685
 20
1543.480772
 30
0.0
 11
4763.282685
 21
1522.080773
 31
0.0
  0
LINE
  5
5C4
330
1F
100
AcDbEntity
  8
dxfile
  6
Continuous
 62
     4
100
AcDbLine
 10
4788.082684
 20
1543.480772
 30
0.0
 11
4788.082684
 21
1522.080773
 31
0.0
  0
LINE
  5
5C5
330
1F
100
AcDbEntity
  8
dxfile
  6
Continuous
 62
     4
100
AcDbLine
 10
4764.982685
 20
1520.380773
 30
0.0
 11
4786.382684
 21
1520.380773
 31
0.0
  0
LINE
  5
5C6
330
1F
100
AcDbEntity
  8
dxfile
  6
Continuous
 62
     4
100
AcDbLine
 10
4764.982685
 20
1545.180772
 30
0.0
 11
4786.382684
 21
1545.180772
 31
0.0
  0
LINE
  5
5C7
330
1F
100
AcDbEntity
  8
dxfile
  6
Continuous
 62
     4
100
AcDbLine
 10
4760.682684
 20
1369.324518
 30
0.0
 11
4760.682684
 21
1613.009583
 31
0.0
  0
LINE
  5
5C8
330
1F
100
AcDbEntity
  8
dxfile
  6
Continuous
 62
     4
100
AcDbLine
 10
4525.976562
 20
1599.324518
 30
0.0
 11
4522.77658
 21
1599.324518
 31
0.0
  0
LINE
  5
5C9
330
1F
100
AcDbEntity
  8
dxfile
  6
Continuous
 62
     4
100
AcDbLine
 10
4525.976562
 20
1615.324518
 30
0.0
 11
4522.77658
 21
1615.324518
 31
0.0
  0
LINE
  5
5CA
330
1F
100
AcDbEntity
  8
dxfile
  6
Continuous
 62
     4
100
AcDbLine
 10
4525.976562
 20
1599.324518
 30
0.0
 11
4525.976562
 21
1615.324518
 31
0.0
  0
LINE
  5
5CB
330
1F
100
AcDbEntity
  8
dxfile
  6
Continuous
 62
     4
100
AcDbLine
 10
4525.976562
 20
1554.324518
 30
0.0
 11
4522.77658
 21
1554.324518
 31
0.0
  0
LINE
  5
5CC
330
1F
100
AcDbEntity
  8
dxfile
  6
Continuous
 62
     4
100
AcDbLine
 10
4525.976562
 20
1538.324518
 30
0.0
 11
4522.77658
 21
1538.324518
 31
0.0
  0
LINE
  5
5CD
330
1F
100
AcDbEntity
  8
dxfile
  6
Continuous
 62
     4
100
AcDbLine
 10
4525.976562
 20
1369.324518
 30
0.0
 11
4522.77658
 21
1369.324518
 31
0.0
  0
LINE
  5
5CE
330
1F
100
AcDbEntity
  8
dxfile
  6
Continuous
 62
     4
100
AcDbLine
 10
4525.976562
 20
1538.324518
 30
0.0
 11
4525.976562
 21
1554.324518
 31
0.0
  0
LINE
  5
5CF
330
1F
100
AcDbEntity
  8
dxfile
  6
Continuous
 62
     4
100
AcDbLine
 10
4525.976562
 20
1330.824518
 30
0.0
 11
4522.77658
 21
1330.824518
 31
0.0
  0
LINE
  5
5D0
330
1F
100
AcDbEntity
  8
dxfile
  6
Continuous
 62
     4
100
AcDbLine
 10
4525.976562
 20
1330.824518
 30
0.0
 11
4525.976562
 21
1369.324518
 31
0.0
  0
ARC
  5
5D1
330
1F
100
AcDbEntity
  8
dxfile
  6
Continuous
 62
     4
100
AcDbCircle
 10
4521.576568
 20
1626.624522
 30
0.0
 40
1.200000007525167
100
AcDbArc
 50
0.0
 51
90.0
  0
ARC
  5
5D2
330
1F
100
AcDbEntity
  8
dxfile
  6
Continuous
 62
     4
100
AcDbCircle
 10
4521.576568
 20
1329.024515
 30
0.0
 40
1.199999986664411
100
AcDbArc
 50
270.0
 51
0.0
  0
ARC
  5
5D3
330
1F
100
AcDbEntity
  8
dxfile
  6
Continuous
 62
     4
100
AcDbCircle
 10
4453.976562
 20
1614.97452
 30
0.0
 40
1.200000009323785
100
AcDbArc
 50
90.0
 51
180.0
  0
ARC
  5
5D4
330
1F
100
AcDbEntity
  8
dxfile
  6
Continuous
 62
     4
100
AcDbCircle
 10
4454.476562
 20
1621.174517
 30
0.0
 40
0.5000000171553216
100
AcDbArc
 50
180.0
 51
270.0
  0
ARC
  5
5D5
330
1F
100
AcDbEntity
  8
dxfile
  6
Continuous
 62
     4
100
AcDbCircle
 10
4454.476562
 20
1614.47452
 30
0.0
 40
0.4999999882376853
100
AcDbArc
 50
90.0
 51
180.0
  0
ARC
  5
5D6
330
1F
100
AcDbEntity
  8
dxfile
  6
Continuous
 62
     4
100
AcDbCircle
 10
4454.476562
 20
1334.474512
 30
0.0
 40
0.5000000058909306
100
AcDbArc
 50
90.0
 51
180.0
  0
ARC
  5
5D7
330
1F
100
AcDbEntity
  8
dxfile
  6
Continuous
 62
     4
100
AcDbCircle
 10
4454.476562
 20
1341.174525
 30
0.0
 40
0.4999999998088396
100
AcDbArc
 50
180.0
 51
270.0
  0
ARC
  5
5D8
330
1F
100
AcDbEntity
  8
dxfile
  6
Continuous
 62
     4
100
AcDbCircle
 10
4453.976562
 20
1620.674517
 30
0.0
 40
1.200000001386643
100
AcDbArc
 50
180.0
 51
270.0
  0
LINE
  5
5D9
330
1F
100
AcDbEntity
  8
dxfile
  6
Continuous
 62
     4
100
AcDbLine
 10
4455.976562
 20
1334.974512
 30
0.0
 11
4454.476562
 21
1334.974512
 31
0.0
  0
LINE
  5
5DA
330
1F
100
AcDbEntity
  8
dxfile
  6
Continuous
 62
     4
100
AcDbLine
 10
4453.976562
 20
1611.824518
 30
0.0
 11
4453.976562
 21
1614.47452
 31
0.0
  0
LINE
  5
5DB
330
1F
100
AcDbEntity
  8
dxfile
  6
Continuous
 62
     4
100
AcDbLine
 10
4453.976562
 20
1611.824518
 30
0.0
 11
4452.77658
 21
1611.824518
 31
0.0
  0
LINE
  5
5DC
330
1F
100
AcDbEntity
  8
dxfile
  6
Continuous
 62
     4
100
AcDbLine
 10
4453.976562
 20
1343.824518
 30
0.0
 11
4453.976562
 21
1329.024515
 31
0.0
  0
LINE
  5
5DD
330
1F
100
AcDbEntity
  8
dxfile
  6
Continuous
 62
     4
100
AcDbLine
 10
4521.576568
 20
1329.024515
 30
0.0
 11
4521.576568
 21
1626.624522
 31
0.0
  0
LINE
  5
5DE
330
1F
100
AcDbEntity
  8
dxfile
  6
Continuous
 62
     4
100
AcDbLine
 10
4521.576568
 20
1626.624522
 30
0.0
 11
4453.976562
 21
1626.624522
 31
0.0
  0
LINE
  5
5DF
330
1F
100
AcDbEntity
  8
dxfile
  6
Continuous
 62
     4
100
AcDbLine
 10
4455.976562
 20
1616.174517
 30
0.0
 11
4453.976562
 21
1616.174517
 31
0.0
  0
LINE
  5
5E0
330
1F
100
AcDbEntity
  8
dxfile
  6
Continuous
 62
     4
100
AcDbLine
 10
4521.576568
 20
1329.024515
 30
0.0
 11
4452.77658
 21
1329.024515
 31
0.0
  0
LINE
  5
5E1
330
1F
100
AcDbEntity
  8
dxfile
  6
Continuous
 62
     4
100
AcDbLine
 10
4522.77658
 20
1329.024515
 30
0.0
 11
4522.77658
 21
1626.624522
 31
0.0
  0
LINE
  5
5E2
330
1F
100
AcDbEntity
  8
dxfile
  6
Continuous
 62
     4
100
AcDbLine
 10
4521.576568
 20
1627.824518
 30
0.0
 11
4452.77658
 21
1627.824518
 31
0.0
  0
LINE
  5
5E3
330
1F
100
AcDbEntity
  8
dxfile
  6
Continuous
 62
     4
100
AcDbLine
 10
4521.576568
 20
1327.824518
 30
0.0
 11
4452.77658
 21
1327.824518
 31
0.0
  0
LINE
  5
5E4
330
1F
100
AcDbEntity
  8
dxfile
  6
Continuous
 62
     4
100
AcDbLine
 10
4453.976562
 20
1343.824518
 30
0.0
 11
4452.77658
 21
1343.824518
 31
0.0
  0
LINE
  5
5E5
330
1F
100
AcDbEntity
  8
dxfile
  6
Continuous
 62
     4
100
AcDbLine
 10
4455.976562
 20
1614.97452
 30
0.0
 11
4455.976562
 21
1620.674517
 31
0.0
  0
LINE
  5
5E6
330
1F
100
AcDbEntity
  8
dxfile
  6
Continuous
 62
     4
100
AcDbLine
 10
4453.976562
 20
1621.174517
 30
0.0
 11
4453.976562
 21
1626.624522
 31
0.0
  0
LINE
  5
5E7
330
1F
100
AcDbEntity
  8
dxfile
  6
Continuous
 62
     4
100
AcDbLine
 10
4455.976562
 20
1340.674525
 30
0.0
 11
4454.476562
 21
1340.674525
 31
0.0
  0
LINE
  5
5E8
330
1F
100
AcDbEntity
  8
dxfile
  6
Continuous
 62
     4
100
AcDbLine
 10
4455.976562
 20
1614.97452
 30
0.0
 11
4454.476562
 21
1614.97452
 31
0.0
  0
LINE
  5
5E9
330
1F
100
AcDbEntity
  8
dxfile
  6
Continuous
 62
     4
100
AcDbLine
 10
4455.976562
 20
1619.47452
 30
0.0
 11
4453.976562
 21
1619.47452
 31
0.0
  0
LINE
  5
5EA
330
1F
100
AcDbEntity
  8
dxfile
  6
Continuous
 62
     4
100
AcDbLine
 10
4455.976562
 20
1340.674525
 30
0.0
 11
4455.976562
 21
1334.974512
 31
0.0
  0
LINE
  5
5EB
330
1F
100
AcDbEntity
  8
dxfile
  6
Continuous
 62
     4
100
AcDbLine
 10
4455.976562
 20
1620.674517
 30
0.0
 11
4454.476562
 21
1620.674517
 31
0.0
  0
LINE
  5
5EC
330
1F
100
AcDbEntity
  8
dxfile
  6
Continuous
 62
     4
100
AcDbLine
 10
4452.77658
 20
1557.224518
 30
0.0
 11
4452.77658
 21
1637.824518
 31
0.0
  0
LINE
  5
5ED
330
1F
100
AcDbEntity
  8
dxfile
  6
Continuous
 62
     4
100
AcDbLine
 10
4452.77658
 20
1317.824518
 30
0.0
 11
4452.77658
 21
1557.224518
 31
0.0
  0
LINE
  5
5EE
330
1F
100
AcDbEntity
  8
dxfile
  6
Continuous
 62
     4
100
AcDbLine
 10
4447.77658
 20
1317.824518
 30
0.0
 11
4447.77658
 21
1637.824518
 31
0.0
  0
LINE
  5
5EF
330
1F
100
AcDbEntity
  8
dxfile
  6
Continuous
 62
     4
100
AcDbLine
 10
4437.77658
 20
1361.324518
 30
0.0
 11
4472.77658
 21
1361.324518
 31
0.0
  0
LINE
  5
5F0
330
1F
100
AcDbEntity
  8
dxfile
  6
Continuous
 62
     4
100
AcDbLine
 10
4472.77658
 20
1377.324518
 30
0.0
 11
4437.77658
 21
1377.324518
 31
0.0
  0
LINE
  5
5F1
330
1F
100
AcDbEntity
  8
dxfile
  6
Continuous
 62
     4
100
AcDbLine
 10
4440.77658
 20
1559.824518
 30
0.0
 11
4440.77658
 21
1537.824518
 31
0.0
  0
LINE
  5
5F2
330
1F
100
AcDbEntity
  8
dxfile
  6
Continuous
 62
     4
100
AcDbLine
 10
4440.77658
 20
1537.824518
 30
0.0
 11
4437.77658
 21
1537.824518
 31
0.0
  0
LINE
  5
5F3
330
1F
100
AcDbEntity
  8
dxfile
  6
Continuous
 62
     4
100
AcDbLine
 10
4437.77658
 20
1537.824518
 30
0.0
 11
4437.77658
 21
1358.324518
 31
0.0
  0
LINE
  5
5F4
330
1F
100
AcDbEntity
  8
dxfile
  6
Continuous
 62
     4
100
AcDbLine
 10
4429.77658
 20
1533.824518
 30
0.0
 11
4426.77658
 21
1536.824518
 31
0.0
  0
LINE
  5
5F5
330
1F
100
AcDbEntity
  8
dxfile
  6
Continuous
 62
     4
100
AcDbLine
 10
4426.77658
 20
1536.824518
 30
0.0
 11
4426.77658
 21
1559.824518
 31
0.0
  0
LINE
  5
5F6
330
1F
100
AcDbEntity
  8
dxfile
  6
Continuous
 62
     4
100
AcDbLine
 10
4426.77658
 20
1559.824518
 30
0.0
 11
4440.77658
 21
1559.824518
 31
0.0
  0
LINE
  5
5F7
330
1F
100
AcDbEntity
  8
dxfile
  6
Continuous
 62
     4
100
AcDbLine
 10
4431.77658
 20
1358.324518
 30
0.0
 11
4437.77658
 21
1358.324518
 31
0.0
  0
LINE
  5
5F8
330
1F
100
AcDbEntity
  8
dxfile
  6
Continuous
 62
     4
100
AcDbLine
 10
4401.77658
 20
1537.824518
 30
0.0
 11
4425.77658
 21
1538.824518
 31
0.0
  0
LINE
  5
5F9
330
1F
100
AcDbEntity
  8
dxfile
  6
Continuous
 62
     4
100
AcDbLine
 10
4425.77658
 20
1538.824518
 30
0.0
 11
4425.77658
 21
1558.824518
 31
0.0
  0
LINE
  5
5FA
330
1F
100
AcDbEntity
  8
dxfile
  6
Continuous
 62
     4
100
AcDbLine
 10
4425.77658
 20
1558.824518
 30
0.0
 11
4401.77658
 21
1559.824518
 31
0.0
  0
LINE
  5
5FB
330
1F
100
AcDbEntity
  8
dxfile
  6
Continuous
 62
     4
100
AcDbLine
 10
4401.77658
 20
1559.824518
 30
0.0
 11
4401.77658
 21
1537.824518
 31
0.0
  0
LINE
  5
5FC
330
1F
100
AcDbEntity
  8
dxfile
  6
Continuous
 62
     4
100
AcDbLine
 10
4425.77658
 20
1539.824518
 30
0.0
 11
4426.77658
 21
1539.824518
 31
0.0
  0
LINE
  5
5FD
330
1F
100
AcDbEntity
  8
dxfile
  6
Continuous
 62
     4
100
AcDbLine
 10
4426.77658
 20
1557.824518
 30
0.0
 11
4425.77658
 21
1557.824518
 31
0.0
  0
LINE
  5
5FE
330
1F
100
AcDbEntity
  8
dxfile
  6
PLine2
 62
     4
100
AcDbLine
 10
4519.53607
 20
1369.324518
 30
0.0
 11
4364.03607
 21
1369.324518
 31
0.0
  0
LINE
  5
5FF
330
1F
100
AcDbEntity
  8
dxfile
  6
Continuous
 62
     4
100
AcDbLine
 10
4472.77658
 20
1361.324518
 30
0.0
 11
4472.77658
 21
1377.324518
 31
0.0
  0
LINE
  5
600
330
1F
100
AcDbEntity
  8
dxfile
  6
Continuous
 62
     4
100
AcDbLine
 10
4431.77658
 20
1358.324518
 30
0.0
 11
4427.705512
 21
1362.395586
 31
0.0
  0
LINE
  5
601
330
1F
100
AcDbEntity
  8
dxfile
  6
Continuous
 62
     4
100
AcDbLine
 10
4429.77658
 20
1533.824518
 30
0.0
 11
4429.77658
 21
1382.324518
 31
0.0
  0
TEXT
  5
602
330
1F
100
AcDbEntity
  8
dxfile
  6
Continuous
 62
     1
100
AcDbText
 10
4766.496967
 20
1519.919547
 30
0.0
 40
25.0
  1
押
 41
0.858268
  7
BIGFONT
100
AcDbText
  0
ARC
  5
603
330
1F
100
AcDbEntity
  8
dxfile
  6
Continuous
 62
     4
100
AcDbCircle
 10
4775.682684
 20
1369.324518
 30
0.0
 40
14.99999999998005
100
AcDbArc
 50
138.189685
 51
41.810315
  0
LINE
  5
604
330
1F
100
AcDbEntity
  8
dxfile
  6
Continuous
 62
     4
100
AcDbLine
 10
4760.682684
 20
1379.324518
 30
0.0
 11
4790.682684
 21
1379.324518
 31
0.0
  0
ARC
  5
605
330
1F
100
AcDbEntity
  8
dxfile
  6
Continuous
 62
     4
100
AcDbCircle
 10
4775.682684
 20
1577.009583
 30
0.0
 40
39.00000000040535
100
AcDbArc
 50
67.380135
 51
112.619865
  0
LINE
  5
606
330
1F
100
AcDbEntity
  8
dxfile
  6
PLine1
 62
     4
100
AcDbLine
 10
4720.682684
 20
1566.706655
 30
0.0
 11
4720.682684
 21
1627.824518
 31
0.0
  0
LINE
  5
607
330
1F
100
AcDbEntity
  8
dxfile
  6
PLine1
 62
     4
100
AcDbLine
 10
4720.682684
 20
1627.824518
 30
0.0
 11
4830.682684
 21
1627.824518
 31
0.0
  0
LINE
  5
608
330
1F
100
AcDbEntity
  8
dxfile
  6
PLine1
 62
     4
100
AcDbLine
 10
4830.682684
 20
1627.824518
 30
0.0
 11
4830.682684
 21
1561.134991
 31
0.0
  0
LINE
  5
609
330
1F
100
AcDbEntity
  8
dxfile
  6
Continuous
 62
     4
100
AcDbLine
 10
4734.682684
 20
1637.824518
 30
0.0
 11
4734.682684
 21
1647.824518
 31
0.0
  0
LINE
  5
60A
330
1F
100
AcDbEntity
  8
dxfile
  6
Continuous
 62
     4
100
AcDbLine
 10
4734.682684
 20
1647.824518
 30
0.0
 11
4756.682684
 21
1647.824518
 31
0.0
  0
LINE
  5
60B
330
1F
100
AcDbEntity
  8
dxfile
  6
Continuous
 62
     4
100
AcDbLine
 10
4756.682684
 20
1647.824518
 30
0.0
 11
4756.682684
 21
1637.824518
 31
0.0
  0
LINE
  5
60C
330
1F
100
AcDbEntity
  8
dxfile
  6
Continuous
 62
     4
100
AcDbLine
 10
4736.182684
 20
1647.824518
 30
0.0
 11
4736.182684
 21
1857.045292
 31
0.0
  0
LINE
  5
60D
330
1F
100
AcDbEntity
  8
dxfile
  6
Continuous
 62
     4
100
AcDbLine
 10
4755.182684
 20
1647.824518
 30
0.0
 11
4755.182684
 21
1857.045292
 31
0.0
  0
LINE
  5
60E
330
1F
100
AcDbEntity
  8
dxfile
  6
PLine2
 62
     4
100
AcDbLine
 10
4745.682684
 20
1906.046052
 30
0.0
 11
4745.682684
 21
1607.564248
 31
0.0
  0
INSERT
  5
618
330
1F
100
AcDbEntity
  8
dxfile
  6
Continuous
 62
     3
100
AcDbBlockReference
  2
DIM_17
 10
4720.682684
 20
1642.513446
 30
0.0
  0
INSERT
  5
622
330
1F
100
AcDbEntity
  8
dxfile
  6
Continuous
 62
     3
100
AcDbBlockReference
  2
DIM_18
 10
4720.682684
 20
1714.024699
 30
0.0
  0
LINE
  5
623
330
1F
100
AcDbEntity
  8
dxfile
  6
Continuous
 62
     4
100
AcDbLine
 10
4483.77658
 20
1647.824518
 30
0.0
 11
4505.77658
 21
1647.824518
 31
0.0
  0
LINE
  5
624
330
1F
100
AcDbEntity
  8
dxfile
  6
Continuous
 62
     4
100
AcDbLine
 10
4505.77658
 20
1647.824518
 30
0.0
 11
4505.77658
 21
1629.824518
 31
0.0
  0
LINE
  5
625
330
1F
100
AcDbEntity
  8
dxfile
  6
Continuous
 62
     4
100
AcDbLine
 10
4483.77658
 20
1629.824518
 30
0.0
 11
4483.77658
 21
1647.824518
 31
0.0
  0
LINE
  5
626
330
1F
100
AcDbEntity
  8
dxfile
  6
Continuous
 62
     4
100
AcDbLine
 10
4483.77658
 20
1629.824518
 30
0.0
 11
4505.77658
 21
1629.824518
 31
0.0
  0
LINE
  5
627
330
1F
100
AcDbEntity
  8
dxfile
  6
Continuous
 62
     4
100
AcDbLine
 10
4505.77658
 20
1629.824518
 30
0.0
 11
4507.282213
 21
1627.824518
 31
0.0
  0
LINE
  5
628
330
1F
100
AcDbEntity
  8
dxfile
  6
Continuous
 62
     4
100
AcDbLine
 10
4483.77658
 20
1629.824518
 30
0.0
 11
4482.270947
 21
1627.824518
 31
0.0
  0
LINE
  5
629
330
1F
100
AcDbEntity
  8
dxfile
  6
Continuous
 62
     4
100
AcDbLine
 10
4485.27658
 20
1647.824518
 30
0.0
 11
4485.27658
 21
2225.693851
 31
0.0
  0
LINE
  5
62A
330
1F
100
AcDbEntity
  8
dxfile
  6
Continuous
 62
     4
100
AcDbLine
 10
4504.27658
 20
1647.824518
 30
0.0
 11
4504.27658
 21
2225.693851
 31
0.0
  0
LINE
  5
62B
330
1F
100
AcDbEntity
  8
dxfile
  6
PLine2
 62
     4
100
AcDbLine
 10
4494.77658
 20
1906.046052
 30
0.0
 11
4494.77658
 21
1607.564248
 31
0.0
  0
INSERT
  5
635
330
1F
100
AcDbEntity
  8
dxfile
  6
Continuous
 62
     3
100
AcDbBlockReference
  2
DIM_19
 10
4494.77658
 20
1750.632198
 30
0.0
  0
LINE
  5
636
330
1F
100
AcDbEntity
  8
dxfile
  6
Continuous
 62
     4
100
AcDbLine
 10
4424.77658
 20
1369.466654
 30
0.0
 11
4424.77658
 21
1378.324518
 31
0.0
  0
ARC
  5
637
330
1F
100
AcDbEntity
  8
dxfile
  6
Continuous
 62
     4
100
AcDbCircle
 10
4434.77658
 20
1369.466654
 30
0.0
 40
9.999999996480884
100
AcDbArc
 50
180.0
 51
225.0
  0
LINE
  5
638
330
1F
100
AcDbEntity
  8
dxfile
  6
Continuous
 62
     4
100
AcDbLine
 10
4425.77658
 20
1379.324518
 30
0.0
 11
4426.77658
 21
1379.324518
 31
0.0
  0
ARC
  5
639
330
1F
100
AcDbEntity
  8
dxfile
  6
Continuous
 62
     4
100
AcDbCircle
 10
4425.77658
 20
1378.324518
 30
0.0
 40
0.9999999777575308
100
AcDbArc
 50
90.0
 51
180.0
  0
ARC
  5
63A
330
1F
100
AcDbEntity
  8
dxfile
  6
Continuous
 62
     4
100
AcDbCircle
 10
4426.77658
 20
1382.324518
 30
0.0
 40
3.000000002262887
100
AcDbArc
 50
270.0
 51
0.0
  0
ARC
  5
63B
330
1F
100
AcDbEntity
  8
dxfile
  6
Continuous
 62
     4
100
AcDbCircle
 10
4185.27658
 20
2225.693851
 30
0.0
 40
300.0000000000221
100
AcDbArc
 50
0.0
 51
41.858218
  0
ARC
  5
63C
330
1F
100
AcDbEntity
  8
dxfile
  6
Continuous
 62
     4
100
AcDbCircle
 10
4185.27658
 20
2225.693851
 30
0.0
 40
318.9999999998847
100
AcDbArc
 50
0.0
 51
41.732234
  0
LINE
  5
63D
330
1F
100
AcDbEntity
  8
dxfile
  6
Continuous
 62
     6
100
AcDbLine
 10
4016.6166
 20
2540.693851
 30
0.0
 11
4135.670409
 21
2659.747659
 31
0.0
  0
LINE
  5
63E
330
1F
100
AcDbEntity
  8
dxfile
  6
Continuous
 62
     6
100
AcDbLine
 10
4162.090765
 20
546.498771
 30
0.0
 11
4228.627763
 21
613.03577
 31
0.0
  0
LINE
  5
63F
330
1F
100
AcDbEntity
  8
dxfile
  6
Continuous
 62
     6
100
AcDbLine
 10
4632.021196
 20
546.498771
 30
0.0
 11
4698.558194
 21
613.03577
 31
0.0
  0
LINE
  5
640
330
1F
100
AcDbEntity
  8
dxfile
  6
Continuous
 62
     2
100
AcDbLine
 10
4189.100103
 20
479.619831
 30
0.0
 11
4464.257608
 21
479.619831
 31
0.0
  0
LINE
  5
641
330
1F
100
AcDbEntity
  8
dxfile
  6
Continuous
 62
     2
100
AcDbLine
 10
4464.257608
 20
479.619831
 30
0.0
 11
4464.257608
 21
417.825985
 31
0.0
  0
LINE
  5
642
330
1F
100
AcDbEntity
  8
dxfile
  6
Continuous
 62
     2
100
AcDbLine
 10
4464.257608
 20
417.825985
 30
0.0
 11
4189.100103
 21
417.825985
 31
0.0
  0
LINE
  5
643
330
1F
100
AcDbEntity
  8
dxfile
  6
Continuous
 62
     2
100
AcDbLine
 10
4189.100103
 20
417.825985
 30
0.0
 11
4189.100103
 21
479.619831
 31
0.0
  0
LINE
  5
644
330
1F
100
AcDbEntity
  8
dxfile
  6
Continuous
 62
     3
100
AcDbLine
 10
2180.479695
 20
1776.023002
 30
0.0
 11
2173.675848
 21
1752.238392
 31
0.0
  0
LINE
  5
645
330
1F
100
AcDbEntity
  8
dxfile
  6
Continuous
 62
     3
100
AcDbLine
 10
2173.675848
 20
1752.238392
 30
0.0
 11
2499.080085
 21
2315.855063
 31
0.0
  0
LINE
  5
646
330
1F
100
AcDbEntity
  8
dxfile
  6
Continuous
 62
     3
100
AcDbLine
 10
2499.080085
 20
2315.855063
 30
0.0
 11
2808.056463
 21
2315.855063
 31
0.0
  0
TEXT
  5
647
330
1F
100
AcDbEntity
  8
dxfile
  6
Continuous
 62
     3
100
AcDbText
 10
2499.080085
 20
2321.855063
 30
0.0
 40
36.0
  1
サントップドームＢ型
 41
0.858268
  7
BIGFONT
100
AcDbText
  0
LINE
  5
648
330
1F
100
AcDbEntity
  8
dxfile
  6
Continuous
 62
     3
100
AcDbLine
 10
2248.498873
 20
1388.616622
 30
0.0
 11
2241.695025
 21
1364.832013
 31
0.0
  0
LINE
  5
649
330
1F
100
AcDbEntity
  8
dxfile
  6
Continuous
 62
     3
100
AcDbLine
 10
2241.695025
 20
1364.832013
 30
0.0
 11
2648.450279
 21
2069.352779
 31
0.0
  0
LINE
  5
64A
330
1F
100
AcDbEntity
  8
dxfile
  6
Continuous
 62
     3
100
AcDbLine
 10
2648.450279
 20
2069.352779
 30
0.0
 11
2864.733743
 21
2069.352779
 31
0.0
  0
TEXT
  5
64B
330
1F
100
AcDbEntity
  8
dxfile
  6
Continuous
 62
     3
100
AcDbText
 10
2648.450279
 20
2075.352779
 30
0.0
 40
36.0
  1
６．８網入り硝子
 41
0.858268
  7
BIGFONT
100
AcDbText
  0
LINE
  5
64C
330
1F
100
AcDbEntity
  8
dxfile
  6
Continuous
 62
     3
100
AcDbLine
 10
2696.329277
 20
1278.990558
 30
0.0
 11
2689.525429
 21
1255.205948
 31
0.0
  0
LINE
  5
64D
330
1F
100
AcDbEntity
  8
dxfile
  6
Continuous
 62
     3
100
AcDbLine
 10
2689.525429
 20
1255.205948
 30
0.0
 11
2837.620497
 21
1511.714131
 31
0.0
  0
LINE
  5
64E
330
1F
100
AcDbEntity
  8
dxfile
  6
Continuous
 62
     3
100
AcDbLine
 10
2837.620497
 20
1511.714131
 30
0.0
 11
3023.006324
 21
1511.714131
 31
0.0
  0
TEXT
  5
64F
330
1F
100
AcDbEntity
  8
dxfile
  6
Continuous
 62
     3
100
AcDbText
 10
2837.620497
 20
1517.714131
 30
0.0
 40
36.0
  1
ドアフレーム
 41
0.858268
  7
BIGFONT
100
AcDbText
  0
LINE
  5
650
330
1F
100
AcDbEntity
  8
dxfile
  6
Continuous
 62
     3
100
AcDbLine
 10
2709.966985
 20
1005.585487
 30
0.0
 11
2703.163137
 21
981.800877
 31
0.0
  0
LINE
  5
651
330
1F
100
AcDbEntity
  8
dxfile
  6
Continuous
 62
     3
100
AcDbLine
 10
2703.163137
 20
981.800877
 30
0.0
 11
2831.484125
 21
1204.059348
 31
0.0
  0
LINE
  5
652
330
1F
100
AcDbEntity
  8
dxfile
  6
Continuous
 62
     3
100
AcDbLine
 10
2831.484125
 20
1204.059348
 30
0.0
 11
2893.279401
 21
1204.059348
 31
0.0
  0
TEXT
  5
653
330
1F
100
AcDbEntity
  8
dxfile
  6
Continuous
 62
     3
100
AcDbText
 10
2831.484125
 20
1210.059348
 30
0.0
 40
36.0
  1
台部
 41
0.858268
  7
BIGFONT
100
AcDbText
  0
LINE
  5
654
330
1F
100
AcDbEntity
  8
dxfile
  6
Continuous
 62
     3
100
AcDbLine
 10
2788.376859
 20
949.182849
 30
0.0
 11
2781.573012
 21
925.398239
 31
0.0
  0
LINE
  5
655
330
1F
100
AcDbEntity
  8
dxfile
  6
Continuous
 62
     3
100
AcDbLine
 10
2781.573012
 20
925.398239
 30
0.0
 11
2882.546901
 21
1100.290145
 31
0.0
  0
LINE
  5
656
330
1F
100
AcDbEntity
  8
dxfile
  6
Continuous
 62
     3
100
AcDbLine
 10
2882.546901
 20
1100.290145
 30
0.0
 11
2944.342177
 21
1100.290145
 31
0.0
  0
TEXT
  5
657
330
1F
100
AcDbEntity
  8
dxfile
  6
Continuous
 62
     3
100
AcDbText
 10
2882.546901
 20
1106.290145
 30
0.0
 40
36.0
  1
内枠
 41
0.858268
  7
BIGFONT
100
AcDbText
  0
LINE
  5
658
330
1F
100
AcDbEntity
  8
dxfile
  6
Continuous
 62
     3
100
AcDbLine
 10
2593.539376
 20
565.830363
 30
0.0
 11
2600.343224
 21
589.614973
 31
0.0
  0
LINE
  5
659
330
1F
100
AcDbEntity
  8
dxfile
  6
Continuous
 62
     3
100
AcDbLine
 10
2600.343224
 20
589.614973
 30
0.0
 11
2440.467959
 21
312.702891
 31
0.0
  0
LINE
  5
65A
330
1F
100
AcDbEntity
  8
dxfile
  6
Continuous
 62
     3
100
AcDbLine
 10
2440.467959
 20
312.702891
 30
0.0
 11
2193.286856
 21
312.702891
 31
0.0
  0
TEXT
  5
65B
330
1F
100
AcDbEntity
  8
dxfile
  6
Continuous
 62
     3
100
AcDbText
 10
2233.012391
 20
318.702891
 30
0.0
 40
36.0
  1
アウターケーブル
 41
0.858268
  7
BIGFONT
 72
     2
 11
2440.467959
 21
318.702891
 31
0.0
100
AcDbText
  0
LINE
  5
65C
330
1F
100
AcDbEntity
  8
dxfile
  6
Continuous
 62
     3
100
AcDbLine
 10
683.170281
 20
854.941245
 30
0.0
 11
665.974128
 21
872.725855
 31
0.0
  0
LINE
  5
65D
330
1F
100
AcDbEntity
  8
dxfile
  6
Continuous
 62
     3
100
AcDbLine
 10
665.974128
 20
872.725855
 30
0.0
 11
872.129017
 21
515.655113
 31
0.0
  0
LINE
  5
65E
330
1F
100
AcDbEntity
  8
dxfile
  6
Continuous
 62
     3
100
AcDbLine
 10
872.129017
 20
515.655113
 30
0.0
 11
1057.514843
 21
515.655113
 31
0.0
  0
TEXT
  5
65F
330
1F
100
AcDbEntity
  8
dxfile
  6
Continuous
 62
     3
100
AcDbText
 10
872.129017
 20
521.655113
 30
0.0
 40
36.0
  1
アンカー金具
 41
0.858268
  7
BIGFONT
100
AcDbText
  0
LINE
  5
660
330
1F
100
AcDbEntity
  8
dxfile
  6
Continuous
 62
     3
100
AcDbLine
 10
1768.100692
 20
1125.299044
 30
0.0
 11
1750.904539
 21
1143.083653
 31
0.0
  0
LINE
  5
661
330
1F
100
AcDbEntity
  8
dxfile
  6
Continuous
 62
     3
100
AcDbLine
 10
1750.904539
 20
1143.083653
 30
0.0
 11
1979.344649
 21
747.413777
 31
0.0
  0
LINE
  5
662
330
1F
100
AcDbEntity
  8
dxfile
  6
Continuous
 62
     3
100
AcDbLine
 10
1979.344649
 20
747.413777
 30
0.0
 11
2164.730476
 21
747.413777
 31
0.0
  0
TEXT
  5
663
330
1F
100
AcDbEntity
  8
dxfile
  6
Continuous
 62
     3
100
AcDbText
 10
2010.242287
 20
753.413777
 30
0.0
 40
36.0
  1
オートステー
 41
0.858268
  7
BIGFONT
 72
     2
 11
2164.730476
 21
753.413777
 31
0.0
100
AcDbText
  0
LINE
  5
664
330
1F
100
AcDbEntity
  8
dxfile
  6
Continuous
 62
     3
100
AcDbLine
 10
915.406294
 20
1053.371189
 30
0.0
 11
898.210141
 21
1071.155798
 31
0.0
  0
LINE
  5
665
330
1F
100
AcDbEntity
  8
dxfile
  6
Continuous
 62
     3
100
AcDbLine
 10
898.210141
 20
1071.155798
 30
0.0
 11
1086.085989
 21
745.745284
 31
0.0
  0
LINE
  5
666
330
1F
100
AcDbEntity
  8
dxfile
  6
Continuous
 62
     3
100
AcDbLine
 10
1086.085989
 20
745.745284
 30
0.0
 11
1395.062367
 21
745.745284
 31
0.0
  0
TEXT
  5
667
330
1F
100
AcDbEntity
  8
dxfile
  6
Continuous
 62
     3
100
AcDbText
 10
1086.085989
 20
751.745284
 30
0.0
 40
36.0
  1
トーションスプリング
 41
0.858268
  7
BIGFONT
100
AcDbText
  0
ENDSEC
  0
SECTION
  2
OBJECTS
  0
DICTIONARY
  5
C
330
0
100
AcDbDictionary
281
     1
  3
ACAD_GROUP
350
D
  3
ACAD_LAYOUT
350
1A
  3
ACAD_MLEADERSTYLE
350
66A
  3
ACAD_MLINESTYLE
350
17
  3
ACAD_PLOTSETTINGS
350
19
  3
ACAD_PLOTSTYLENAME
350
E
  3
ACAD_SCALELIST
350
5A
  3
ACAD_VISUALSTYLE
350
2A
  3
AcDbVariableDictionary
350
668
  0
DICTIONARY
  5
D
102
{ACAD_REACTORS
330
C
102
}
330
C
100
AcDbDictionary
281
     1
  0
DICTIONARY
  5
1A
102
{ACAD_REACTORS
330
C
102
}
330
C
100
AcDbDictionary
281
     1
  3
Layout1
350
1E
  3
Layout2
350
26
  3
Model
350
22
  0
DICTIONARY
  5
66A
102
{ACAD_REACTORS
330
C
102
}
330
C
100
AcDbDictionary
281
     1
  0
DICTIONARY
  5
17
102
{ACAD_REACTORS
330
C
102
}
330
C
100
AcDbDictionary
281
     1
  3
Standard
350
18
  0
DICTIONARY
  5
19
102
{ACAD_REACTORS
330
C
102
}
330
C
100
AcDbDictionary
281
     1
  0
ACDBDICTIONARYWDFLT
  5
E
102
{ACAD_REACTORS
330
C
102
}
330
C
100
AcDbDictionary
281
     1
  3
Normal
350
F
100
AcDbDictionaryWithDefault
340
F
  0
DICTIONARY
  5
5A
102
{ACAD_REACTORS
330
C
102
}
330
C
100
AcDbDictionary
281
     1
  3
A0
350
5B
  3
A1
350
5C
  3
A2
350
5D
  3
A3
350
5E
  3
A4
350
5F
  3
A5
350
60
  3
A6
350
61
  3
A7
350
62
  3
A8
350
63
  3
A9
350
64
  3
B0
350
65
  3
B1
350
66
  3
B2
350
67
  3
B3
350
68
  3
B4
350
69
  3
B5
350
6A
  3
B6
350
6B
  3
B7
350
6C
  3
B8
350
6D
  3
B9
350
6E
  3
C0
350
6F
  3
C1
350
70
  3
C2
350
71
  3
C3
350
72
  3
C4
350
73
  3
C5
350
74
  3
C6
350
75
  3
C7
350
76
  3
C8
350
77
  3
C9
350
78
  3
D0
350
79
  3
D1
350
7A
  3
D2
350
7B
  0
DICTIONARY
  5
2A
102
{ACAD_REACTORS
330
C
102
}
330
C
100
AcDbDictionary
281
     1
  3
2dWireframe
350
2F
  3
3D Hidden
350
31
  3
3dWireframe
350
30
  3
Basic
350
32
  3
Brighten
350
36
  3
ColorChange
350
3A
  3
Conceptual
350
34
  3
Dim
350
35
  3
Facepattern
350
39
  3
Flat
350
2B
  3
FlatWithEdges
350
2C
  3
Gouraud
350
2D
  3
GouraudWithEdges
350
2E
  3
Linepattern
350
38
  3
Realistic
350
33
  3
Thicken
350
37
  0
DICTIONARY
  5
668
102
{ACAD_REACTORS
330
C
102
}
330
C
100
AcDbDictionary
281
     1
  3
CANNOSCALE
350
66B
  3
DIMASSOC
350
66C
  3
HIDETEXT
350
66D
  0
LAYOUT
  5
1E
102
{ACAD_REACTORS
330
1A
102
}
330
1A
100
AcDbPlotSettings
  1

  2
none_device
  4

  6

 40
0.0
 41
0.0
 42
0.0
 43
0.0
 44
0.0
 45
0.0
 46
0.0
 47
0.0
 48
0.0
 49
0.0
140
0.0
141
0.0
142
1.0
143
1.0
 70
   688
 72
     0
 73
     0
 74
     5
  7

 75
    16
147
1.0
148
0.0
149
0.0
100
AcDbLayout
  1
Layout1
 70
     1
 71
     1
 10
0.0
 20
0.0
 11
12.0
 21
9.0
 12
0.0
 22
0.0
 32
0.0
 14
1.000000E+20
 24
1.000000E+20
 34
1.000000E+20
 15
-1.000000E+20
 25
-1.000000E+20
 35
-1.000000E+20
146
0.0
 13
0.0
 23
0.0
 33
0.0
 16
1.0
 26
0.0
 36
0.0
 17
0.0
 27
1.0
 37
0.0
 76
     0
330
1B
  0
LAYOUT
  5
26
102
{ACAD_REACTORS
330
1A
102
}
330
1A
100
AcDbPlotSettings
  1

  2
none_device
  4

  6

 40
0.0
 41
0.0
 42
0.0
 43
0.0
 44
0.0
 45
0.0
 46
0.0
 47
0.0
 48
0.0
 49
0.0
140
0.0
141
0.0
142
1.0
143
1.0
 70
   688
 72
     0
 73
     0
 74
     5
  7

 75
    16
147
1.0
148
0.0
149
0.0
100
AcDbLayout
  1
Layout2
 70
     1
 71
     2
 10
0.0
 20
0.0
 11
0.0
 21
0.0
 12
0.0
 22
0.0
 32
0.0
 14
0.0
 24
0.0
 34
0.0
 15
0.0
 25
0.0
 35
0.0
146
0.0
 13
0.0
 23
0.0
 33
0.0
 16
1.0
 26
0.0
 36
0.0
 17
0.0
 27
1.0
 37
0.0
 76
     0
330
23
  0
LAYOUT
  5
22
102
{ACAD_REACTORS
330
1A
102
}
330
1A
100
AcDbPlotSettings
  1

  2
none_device
  4

  6

 40
0.0
 41
0.0
 42
0.0
 43
0.0
 44
0.0
 45
0.0
 46
0.0
 47
0.0
 48
0.0
 49
0.0
140
0.0
141
0.0
142
1.0
143
1.0
 70
  1712
 72
     0
 73
     0
 74
     0
  7

 75
     0
147
1.0
148
0.0
149
0.0
100
AcDbLayout
  1
Model
 70
     1
 71
     0
 10
0.0
 20
0.0
 11
12.0
 21
9.0
 12
0.0
 22
0.0
 32
0.0
 14
0.0
 24
0.0
 34
0.0
 15
5040.0
 25
3564.0
 35
0.0
146
0.0
 13
0.0
 23
0.0
 33
0.0
 16
1.0
 26
0.0
 36
0.0
 17
0.0
 27
1.0
 37
0.0
 76
     0
330
1F
331
29
  0
MLINESTYLE
  5
18
102
{ACAD_REACTORS
330
17
102
}
330
17
100
AcDbMlineStyle
  2
Standard
 70
     0
  3

 62
   256
 51
90.0
 52
90.0
 71
     2
 49
0.5
 62
   256
  6
BYLAYER
 49
-0.5
 62
   256
  6
BYLAYER
  0
ACDBPLACEHOLDER
  5
F
102
{ACAD_REACTORS
330
E
102
}
330
E
  0
SCALE
  5
5B
102
{ACAD_REACTORS
330
5A
102
}
330
5A
100
AcDbScale
 70
     0
300
1:1
140
1.0
141
1.0
290
     1
  0
SCALE
  5
5C
102
{ACAD_REACTORS
330
5A
102
}
330
5A
100
AcDbScale
 70
     0
300
1:2
140
1.0
141
2.0
290
     0
  0
SCALE
  5
5D
102
{ACAD_REACTORS
330
5A
102
}
330
5A
100
AcDbScale
 70
     0
300
1:4
140
1.0
141
4.0
290
     0
  0
SCALE
  5
5E
102
{ACAD_REACTORS
330
5A
102
}
330
5A
100
AcDbScale
 70
     0
300
1:5
140
1.0
141
5.0
290
     0
  0
SCALE
  5
5F
102
{ACAD_REACTORS
330
5A
102
}
330
5A
100
AcDbScale
 70
     0
300
1:8
140
1.0
141
8.0
290
     0
  0
SCALE
  5
60
102
{ACAD_REACTORS
330
5A
102
}
330
5A
100
AcDbScale
 70
     0
300
1:10
140
1.0
141
10.0
290
     0
  0
SCALE
  5
61
102
{ACAD_REACTORS
330
5A
102
}
330
5A
100
AcDbScale
 70
     0
300
1:16
140
1.0
141
16.0
290
     0
  0
SCALE
  5
62
102
{ACAD_REACTORS
330
5A
102
}
330
5A
100
AcDbScale
 70
     0
300
1:20
140
1.0
141
20.0
290
     0
  0
SCALE
  5
63
102
{ACAD_REACTORS
330
5A
102
}
330
5A
100
AcDbScale
 70
     0
300
1:30
140
1.0
141
30.0
290
     0
  0
SCALE
  5
64
102
{ACAD_REACTORS
330
5A
102
}
330
5A
100
AcDbScale
 70
     0
300
1:40
140
1.0
141
40.0
290
     0
  0
SCALE
  5
65
102
{ACAD_REACTORS
330
5A
102
}
330
5A
100
AcDbScale
 70
     0
300
1:50
140
1.0
141
50.0
290
     0
  0
SCALE
  5
66
102
{ACAD_REACTORS
330
5A
102
}
330
5A
100
AcDbScale
 70
     0
300
1:100
140
1.0
141
100.0
290
     0
  0
SCALE
  5
67
102
{ACAD_REACTORS
330
5A
102
}
330
5A
100
AcDbScale
 70
     0
300
2:1
140
2.0
141
1.0
290
     0
  0
SCALE
  5
68
102
{ACAD_REACTORS
330
5A
102
}
330
5A
100
AcDbScale
 70
     0
300
4:1
140
4.0
141
1.0
290
     0
  0
SCALE
  5
69
102
{ACAD_REACTORS
330
5A
102
}
330
5A
100
AcDbScale
 70
     0
300
8:1
140
8.0
141
1.0
290
     0
  0
SCALE
  5
6A
102
{ACAD_REACTORS
330
5A
102
}
330
5A
100
AcDbScale
 70
     0
300
10:1
140
10.0
141
1.0
290
     0
  0
SCALE
  5
6B
102
{ACAD_REACTORS
330
5A
102
}
330
5A
100
AcDbScale
 70
     0
300
100:1
140
100.0
141
1.0
290
     0
  0
SCALE
  5
6C
102
{ACAD_REACTORS
330
5A
102
}
330
5A
100
AcDbScale
 70
     0
300
1/128" = 1'-0"
140
0.007812
141
12.0
290
     0
  0
SCALE
  5
6D
102
{ACAD_REACTORS
330
5A
102
}
330
5A
100
AcDbScale
 70
     0
300
1/64" = 1'-0"
140
0.015625
141
12.0
290
     0
  0
SCALE
  5
6E
102
{ACAD_REACTORS
330
5A
102
}
330
5A
100
AcDbScale
 70
     0
300
1/32" = 1'-0"
140
0.03125
141
12.0
290
     0
  0
SCALE
  5
6F
102
{ACAD_REACTORS
330
5A
102
}
330
5A
100
AcDbScale
 70
     0
300
1/16" = 1'-0"
140
0.0625
141
12.0
290
     0
  0
SCALE
  5
70
102
{ACAD_REACTORS
330
5A
102
}
330
5A
100
AcDbScale
 70
     0
300
3/32" = 1'-0"
140
0.09375
141
12.0
290
     0
  0
SCALE
  5
71
102
{ACAD_REACTORS
330
5A
102
}
330
5A
100
AcDbScale
 70
     0
300
1/8" = 1'-0"
140
0.125
141
12.0
290
     0
  0
SCALE
  5
72
102
{ACAD_REACTORS
330
5A
102
}
330
5A
100
AcDbScale
 70
     0
300
3/16" = 1'-0"
140
0.1875
141
12.0
290
     0
  0
SCALE
  5
73
102
{ACAD_REACTORS
330
5A
102
}
330
5A
100
AcDbScale
 70
     0
300
1/4" = 1'-0"
140
0.25
141
12.0
290
     0
  0
SCALE
  5
74
102
{ACAD_REACTORS
330
5A
102
}
330
5A
100
AcDbScale
 70
     0
300
3/8" = 1'-0"
140
0.375
141
12.0
290
     0
  0
SCALE
  5
75
102
{ACAD_REACTORS
330
5A
102
}
330
5A
100
AcDbScale
 70
     0
300
1/2" = 1'-0"
140
0.5
141
12.0
290
     0
  0
SCALE
  5
76
102
{ACAD_REACTORS
330
5A
102
}
330
5A
100
AcDbScale
 70
     0
300
3/4" = 1'-0"
140
0.75
141
12.0
290
     0
  0
SCALE
  5
77
102
{ACAD_REACTORS
330
5A
102
}
330
5A
100
AcDbScale
 70
     0
300
1" = 1'-0"
140
1.0
141
12.0
290
     0
  0
SCALE
  5
78
102
{ACAD_REACTORS
330
5A
102
}
330
5A
100
AcDbScale
 70
     0
300
1-1/2" = 1'-0"
140
1.5
141
12.0
290
     0
  0
SCALE
  5
79
102
{ACAD_REACTORS
330
5A
102
}
330
5A
100
AcDbScale
 70
     0
300
3" = 1'-0"
140
3.0
141
12.0
290
     0
  0
SCALE
  5
7A
102
{ACAD_REACTORS
330
5A
102
}
330
5A
100
AcDbScale
 70
     0
300
6" = 1'-0"
140
6.0
141
12.0
290
     0
  0
SCALE
  5
7B
102
{ACAD_REACTORS
330
5A
102
}
330
5A
100
AcDbScale
 70
     0
300
1'-0" = 1'-0"
140
12.0
141
12.0
290
     0
  0
VISUALSTYLE
  5
2F
102
{ACAD_REACTORS
330
2A
102
}
102
{ACAD_XDICTIONARY
360
676
102
}
330
2A
100
AcDbVisualStyle
  2
2dWireframe
 70
     4
 71
     0
 72
     2
 73
     0
 90
        0
 40
-0.6
 41
-30.0
 62
     5
 63
     7
 74
     1
 91
        4
 64
     7
 65
   257
 75
     1
175
     1
 42
1.0
 92
        0
 66
   257
 43
1.0
 76
     1
 77
     6
 78
     2
 67
     7
 79
     5
170
     0
171
     0
290
     0
174
     0
 93
        1
 44
0.0
173
     0
291
     0
 45
0.0
1001
ACAD
1000
AcDbSavedByObjectVersion
1070
     0
  0
VISUALSTYLE
  5
31
102
{ACAD_REACTORS
330
2A
102
}
102
{ACAD_XDICTIONARY
360
67A
102
}
330
2A
100
AcDbVisualStyle
  2
3D Hidden
 70
     6
 71
     1
 72
     2
 73
     2
 90
        0
 40
-0.6
 41
-30.0
 62
     5
 63
     7
 74
     2
 91
        2
 64
     7
 65
   257
 75
     2
175
     1
 42
40.0
 92
        0
 66
   257
 43
1.0
 76
     1
 77
     6
 78
     2
 67
     7
 79
     3
170
     0
171
     0
290
     0
174
     0
 93
        1
 44
0.0
173
     0
291
     0
 45
0.0
1001
ACAD
1000
AcDbSavedByObjectVersion
1070
     0
  0
VISUALSTYLE
  5
30
102
{ACAD_REACTORS
330
2A
102
}
102
{ACAD_XDICTIONARY
360
678
102
}
330
2A
100
AcDbVisualStyle
  2
3dWireframe
 70
     5
 71
     0
 72
     2
 73
     0
 90
        0
 40
-0.6
 41
-30.0
 62
     5
 63
     7
 74
     1
 91
        4
 64
     7
 65
   257
 75
     1
175
     1
 42
1.0
 92
        0
 66
   257
 43
1.0
 76
     1
 77
     6
 78
     2
 67
     7
 79
     5
170
     0
171
     0
290
     0
174
     0
 93
        1
 44
0.0
173
     0
291
     0
 45
0.0
1001
ACAD
1000
AcDbSavedByObjectVersion
1070
     0
  0
VISUALSTYLE
  5
32
102
{ACAD_REACTORS
330
2A
102
}
102
{ACAD_XDICTIONARY
360
67C
102
}
330
2A
100
AcDbVisualStyle
  2
Basic
 70
     7
 71
     1
 72
     0
 73
     1
 90
        0
 40
-0.6
 41
-30.0
 62
     5
 63
     7
 74
     0
 91
        4
 64
     7
 65
   257
 75
     1
175
     1
 42
1.0
 92
        8
 66
     7
 43
1.0
 76
     1
 77
     6
 78
     2
 67
     7
 79
     5
170
     0
171
     0
290
     0
174
     0
 93
        1
 44
0.0
173
     0
291
     1
 45
0.0
1001
ACAD
1000
AcDbSavedByObjectVersion
1070
     0
  0
VISUALSTYLE
  5
36
102
{ACAD_REACTORS
330
2A
102
}
102
{ACAD_XDICTIONARY
360
684
102
}
330
2A
100
AcDbVisualStyle
  2
Brighten
 70
    12
 71
     2
 72
     2
 73
     0
 90
        0
 40
-0.6
 41
-30.0
 62
     5
 63
     7
 74
     1
 91
        4
 64
     7
 65
   257
 75
     1
175
     1
 42
1.0
 92
        8
 66
     7
 43
1.0
 76
     1
 77
     6
 78
     2
 67
     7
 79
     5
170
     0
171
     0
290
     0
174
     0
 93
        1
 44
50.0
173
     0
291
     1
 45
0.0
1001
ACAD
1000
AcDbSavedByObjectVersion
1070
     0
  0
VISUALSTYLE
  5
3A
102
{ACAD_REACTORS
330
2A
102
}
102
{ACAD_XDICTIONARY
360
68C
102
}
330
2A
100
AcDbVisualStyle
  2
ColorChange
 70
    16
 71
     2
 72
     2
 73
     3
 90
        0
 40
-0.6
 41
-30.0
 62
     5
 63
     8
 74
     1
 91
        4
 64
     7
 65
   257
 75
     1
175
     1
 42
1.0
 92
        8
 66
     8
 43
1.0
 76
     1
 77
     6
 78
     2
 67
     7
 79
     5
170
     0
171
     0
290
     0
174
     0
 93
        1
 44
0.0
173
     0
291
     1
 45
0.0
1001
ACAD
1000
AcDbSavedByObjectVersion
1070
     0
  0
VISUALSTYLE
  5
34
102
{ACAD_REACTORS
330
2A
102
}
102
{ACAD_XDICTIONARY
360
680
102
}
330
2A
100
AcDbVisualStyle
  2
Conceptual
 70
     9
 71
     3
 72
     2
 73
     0
 90
        0
 40
-0.6
 41
-30.0
 62
     5
 63
     7
 74
     2
 91
        2
 64
     7
 65
   257
 75
     1
175
     1
 42
40.0
 92
        8
 66
     7
 43
1.0
 76
     1
 77
     6
 78
     2
 67
     7
 79
     3
170
     0
171
     0
290
     0
174
     0
 93
        1
 44
0.0
173
     0
291
     0
 45
0.0
1001
ACAD
1000
AcDbSavedByObjectVersion
1070
     0
  0
VISUALSTYLE
  5
35
102
{ACAD_REACTORS
330
2A
102
}
102
{ACAD_XDICTIONARY
360
682
102
}
330
2A
100
AcDbVisualStyle
  2
Dim
 70
    11
 71
     2
 72
     2
 73
     0
 90
        0
 40
-0.6
 41
-30.0
 62
     5
 63
     7
 74
     1
 91
        4
 64
     7
 65
   257
 75
     1
175
     1
 42
1.0
 92
        8
 66
     7
 43
1.0
 76
     1
 77
     6
 78
     2
 67
     7
 79
     5
170
     0
171
     0
290
     0
174
     0
 93
        1
 44
-50.0
173
     0
291
     1
 45
0.0
1001
ACAD
1000
AcDbSavedByObjectVersion
1070
     0
  0
VISUALSTYLE
  5
39
102
{ACAD_REACTORS
330
2A
102
}
102
{ACAD_XDICTIONARY
360
68A
102
}
330
2A
100
AcDbVisualStyle
  2
Facepattern
 70
    15
 71
     2
 72
     2
 73
     0
 90
        0
 40
-0.6
 41
-30.0
 62
     5
 63
     7
 74
     1
 91
        4
 64
     7
 65
   257
 75
     1
175
     1
 42
1.0
 92
        8
 66
     7
 43
1.0
 76
     1
 77
     6
 78
     2
 67
     7
 79
     5
170
     0
171
     0
290
     0
174
     0
 93
        1
 44
0.0
173
     0
291
     1
 45
0.0
1001
ACAD
1000
AcDbSavedByObjectVersion
1070
     0
  0
VISUALSTYLE
  5
2B
102
{ACAD_REACTORS
330
2A
102
}
102
{ACAD_XDICTIONARY
360
66E
102
}
330
2A
100
AcDbVisualStyle
  2
Flat
 70
     0
 71
     2
 72
     1
 73
     1
 90
        2
 40
-0.6
 41
30.0
 62
     5
 63
     7
 74
     0
 91
        4
 64
     7
 65
   257
 75
     1
175
     1
 42
1.0
 92
        8
 66
     7
 43
1.0
 76
     1
 77
     6
 78
     2
 67
     7
 79
     5
170
     0
171
     0
290
     0
174
     0
 93
       13
 44
0.0
173
     0
291
     1
 45
0.0
1001
ACAD
1000
AcDbSavedByObjectVersion
1070
     0
  0
VISUALSTYLE
  5
2C
102
{ACAD_REACTORS
330
2A
102
}
102
{ACAD_XDICTIONARY
360
670
102
}
330
2A
100
AcDbVisualStyle
  2
FlatWithEdges
 70
     1
 71
     2
 72
     1
 73
     1
 90
        2
 40
-0.6
 41
30.0
 62
     5
 63
     7
 74
     1
 91
        4
 64
     7
 65
   257
 75
     1
175
     1
 42
1.0
 92
        0
 66
   257
 43
1.0
 76
     1
 77
     6
 78
     2
 67
     7
 79
     5
170
     0
171
     0
290
     0
174
     0
 93
       13
 44
0.0
173
     0
291
     1
 45
0.0
1001
ACAD
1000
AcDbSavedByObjectVersion
1070
     0
  0
VISUALSTYLE
  5
2D
102
{ACAD_REACTORS
330
2A
102
}
102
{ACAD_XDICTIONARY
360
672
102
}
330
2A
100
AcDbVisualStyle
  2
Gouraud
 70
     2
 71
     2
 72
     2
 73
     1
 90
        2
 40
-0.6
 41
30.0
 62
     5
 63
     7
 74
     0
 91
        4
 64
     7
 65
   257
 75
     1
175
     1
 42
1.0
 92
        0
 66
     7
 43
1.0
 76
     1
 77
     6
 78
     2
 67
     7
 79
     5
170
     0
171
     0
290
     0
174
     0
 93
       13
 44
0.0
173
     0
291
     1
 45
0.0
1001
ACAD
1000
AcDbSavedByObjectVersion
1070
     0
  0
VISUALSTYLE
  5
2E
102
{ACAD_REACTORS
330
2A
102
}
102
{ACAD_XDICTIONARY
360
674
102
}
330
2A
100
AcDbVisualStyle
  2
GouraudWithEdges
 70
     3
 71
     2
 72
     2
 73
     1
 90
        2
 40
-0.6
 41
30.0
 62
     5
 63
     7
 74
     1
 91
        4
 64
     7
 65
   257
 75
     1
175
     1
 42
1.0
 92
        0
 66
   257
 43
1.0
 76
     1
 77
     6
 78
     2
 67
     7
 79
     5
170
     0
171
     0
290
     0
174
     0
 93
       13
 44
0.0
173
     0
291
     1
 45
0.0
1001
ACAD
1000
AcDbSavedByObjectVersion
1070
     0
  0
VISUALSTYLE
  5
38
102
{ACAD_REACTORS
330
2A
102
}
102
{ACAD_XDICTIONARY
360
688
102
}
330
2A
100
AcDbVisualStyle
  2
Linepattern
 70
    14
 71
     2
 72
     2
 73
     0
 90
        0
 40
-0.6
 41
-30.0
 62
     5
 63
     7
 74
     1
 91
        4
 64
     7
 65
   257
 75
     7
175
     7
 42
1.0
 92
        8
 66
     7
 43
1.0
 76
     1
 77
     6
 78
     2
 67
     7
 79
     5
170
     0
171
     0
290
     0
174
     0
 93
        1
 44
0.0
173
     0
291
     1
 45
0.0
1001
ACAD
1000
AcDbSavedByObjectVersion
1070
     0
  0
VISUALSTYLE
  5
33
102
{ACAD_REACTORS
330
2A
102
}
102
{ACAD_XDICTIONARY
360
67E
102
}
330
2A
100
AcDbVisualStyle
  2
Realistic
 70
     8
 71
     2
 72
     2
 73
     0
 90
        0
 40
-0.6
 41
-30.0
 62
     5
 63
     7
 74
     1
 91
        0
 64
     7
 65
   257
 75
     1
175
     1
 42
1.0
 92
        8
 66
     8
 43
1.0
 76
     1
 77
     6
 78
     2
 67
     7
 79
     5
170
     0
171
     0
290
     0
174
     0
 93
       13
 44
0.0
173
     0
291
     0
 45
0.0
1001
ACAD
1000
AcDbSavedByObjectVersion
1070
     0
  0
VISUALSTYLE
  5
37
102
{ACAD_REACTORS
330
2A
102
}
102
{ACAD_XDICTIONARY
360
686
102
}
330
2A
100
AcDbVisualStyle
  2
Thicken
 70
    13
 71
     2
 72
     2
 73
     0
 90
        0
 40
-0.6
 41
-30.0
 62
     5
 63
     7
 74
     1
 91
        4
 64
     7
 65
   257
 75
     1
175
     1
 42
1.0
 92
       12
 66
     7
 43
1.0
 76
     1
 77
     6
 78
     2
 67
     7
 79
     5
170
     0
171
     0
290
     0
174
     0
 93
        1
 44
0.0
173
     0
291
     1
 45
0.0
1001
ACAD
1000
AcDbSavedByObjectVersion
1070
     0
  0
DICTIONARYVAR
  5
66B
102
{ACAD_REACTORS
330
668
102
}
330
668
100
DictionaryVariables
280
     0
  1
1:1
  0
DICTIONARYVAR
  5
66C
102
{ACAD_REACTORS
330
668
102
}
330
668
100
DictionaryVariables
280
     0
  1
2
  0
DICTIONARYVAR
  5
66D
102
{ACAD_REACTORS
330
668
102
}
330
668
100
DictionaryVariables
280
     0
  1
1
  0
DICTIONARY
  5
676
330
2F
100
AcDbDictionary
280
     1
281
     1
  3
ACAD_XREC_ROUNDTRIP
360
677
  0
DICTIONARY
  5
67A
330
31
100
AcDbDictionary
280
     1
281
     1
  3
ACAD_XREC_ROUNDTRIP
360
67B
  0
DICTIONARY
  5
678
330
30
100
AcDbDictionary
280
     1
281
     1
  3
ACAD_XREC_ROUNDTRIP
360
679
  0
DICTIONARY
  5
67C
330
32
100
AcDbDictionary
280
     1
281
     1
  3
ACAD_XREC_ROUNDTRIP
360
67D
  0
DICTIONARY
  5
684
330
36
100
AcDbDictionary
280
     1
281
     1
  3
ACAD_XREC_ROUNDTRIP
360
685
  0
DICTIONARY
  5
68C
330
3A
100
AcDbDictionary
280
     1
281
     1
  3
ACAD_XREC_ROUNDTRIP
360
68D
  0
DICTIONARY
  5
680
330
34
100
AcDbDictionary
280
     1
281
     1
  3
ACAD_XREC_ROUNDTRIP
360
681
  0
DICTIONARY
  5
682
330
35
100
AcDbDictionary
280
     1
281
     1
  3
ACAD_XREC_ROUNDTRIP
360
683
  0
DICTIONARY
  5
68A
330
39
100
AcDbDictionary
280
     1
281
     1
  3
ACAD_XREC_ROUNDTRIP
360
68B
  0
DICTIONARY
  5
66E
330
2B
100
AcDbDictionary
280
     1
281
     1
  3
ACAD_XREC_ROUNDTRIP
360
66F
  0
DICTIONARY
  5
670
330
2C
100
AcDbDictionary
280
     1
281
     1
  3
ACAD_XREC_ROUNDTRIP
360
671
  0
DICTIONARY
  5
672
330
2D
100
AcDbDictionary
280
     1
281
     1
  3
ACAD_XREC_ROUNDTRIP
360
673
  0
DICTIONARY
  5
674
330
2E
100
AcDbDictionary
280
     1
281
     1
  3
ACAD_XREC_ROUNDTRIP
360
675
  0
DICTIONARY
  5
688
330
38
100
AcDbDictionary
280
     1
281
     1
  3
ACAD_XREC_ROUNDTRIP
360
689
  0
DICTIONARY
  5
67E
330
33
100
AcDbDictionary
280
     1
281
     1
  3
ACAD_XREC_ROUNDTRIP
360
67F
  0
DICTIONARY
  5
686
330
37
100
AcDbDictionary
280
     1
281
     1
  3
ACAD_XREC_ROUNDTRIP
360
687
  0
XRECORD
  5
677
102
{ACAD_REACTORS
330
676
102
}
330
676
100
AcDbXrecord
280
     1
102
RTVSPropertyOp0
 70
     1
102
RTVSPropertyOp1
 70
     1
102
RTVSPropertyOp2
 70
     1
102
RTVSPropertyOp3
 70
     1
102
RTVSPropertyOp4
 70
     1
102
RTVSPropertyOp5
 70
     1
102
RTVSPropertyOp6
 70
     1
102
RTVSPropertyOp7
 70
     1
102
RTVSPropertyOp8
 70
     1
102
RTVSPropertyOp9
 70
     1
102
RTVSPropertyOp10
 70
     1
102
RTVSPropertyOp11
 70
     1
102
RTVSPropertyOp12
 70
     1
102
RTVSPropertyOp13
 70
     1
102
RTVSPropertyOp14
 70
     1
102
RTVSPropertyOp15
 70
     1
102
RTVSPropertyOp16
 70
     1
102
RTVSPropertyOp17
 70
     1
102
RTVSPropertyOp18
 70
     1
102
RTVSPropertyOp19
 70
     1
102
RTVSPropertyOp20
 70
     1
102
RTVSPropertyOp21
 70
     1
102
RTVSPropertyOp22
 70
     1
102
RTVSPropertyOp23
 70
     1
102
RTVSPropertyOp24
 70
     1
102
RTVSPropertyOp25
 70
     1
102
RTVSPropertyOp26
 70
     1
102
RTVSPropertyOp27
 70
     1
  0
XRECORD
  5
67B
102
{ACAD_REACTORS
330
67A
102
}
330
67A
100
AcDbXrecord
280
     1
102
RTVSPropertyOp0
 70
     1
102
RTVSPropertyOp1
 70
     1
102
RTVSPropertyOp2
 70
     1
102
RTVSPropertyOp3
 70
     1
102
RTVSPropertyOp4
 70
     1
102
RTVSPropertyOp5
 70
     1
102
RTVSPropertyOp6
 70
     1
102
RTVSPropertyOp7
 70
     1
102
RTVSPropertyOp8
 70
     1
102
RTVSPropertyOp9
 70
     1
102
RTVSPropertyOp10
 70
     1
102
RTVSPropertyOp11
 70
     1
102
RTVSPropertyOp12
 70
     1
102
RTVSPropertyOp13
 70
     1
102
RTVSPropertyOp14
 70
     1
102
RTVSPropertyOp15
 70
     1
102
RTVSPropertyOp16
 70
     1
102
RTVSPropertyOp17
 70
     1
102
RTVSPropertyOp18
 70
     1
102
RTVSPropertyOp19
 70
     1
102
RTVSPropertyOp20
 70
     1
102
RTVSPropertyOp21
 70
     1
102
RTVSPropertyOp22
 70
     1
102
RTVSPropertyOp23
 70
     1
102
RTVSPropertyOp24
 70
     1
102
RTVSPropertyOp25
 70
     1
102
RTVSPropertyOp26
 70
     1
102
RTVSPropertyOp27
 70
     1
  0
XRECORD
  5
679
102
{ACAD_REACTORS
330
678
102
}
330
678
100
AcDbXrecord
280
     1
102
RTVSPropertyOp0
 70
     1
102
RTVSPropertyOp1
 70
     1
102
RTVSPropertyOp2
 70
     1
102
RTVSPropertyOp3
 70
     1
102
RTVSPropertyOp4
 70
     1
102
RTVSPropertyOp5
 70
     1
102
RTVSPropertyOp6
 70
     1
102
RTVSPropertyOp7
 70
     1
102
RTVSPropertyOp8
 70
     1
102
RTVSPropertyOp9
 70
     1
102
RTVSPropertyOp10
 70
     1
102
RTVSPropertyOp11
 70
     1
102
RTVSPropertyOp12
 70
     1
102
RTVSPropertyOp13
 70
     1
102
RTVSPropertyOp14
 70
     1
102
RTVSPropertyOp15
 70
     1
102
RTVSPropertyOp16
 70
     1
102
RTVSPropertyOp17
 70
     1
102
RTVSPropertyOp18
 70
     1
102
RTVSPropertyOp19
 70
     1
102
RTVSPropertyOp20
 70
     1
102
RTVSPropertyOp21
 70
     1
102
RTVSPropertyOp22
 70
     1
102
RTVSPropertyOp23
 70
     1
102
RTVSPropertyOp24
 70
     1
102
RTVSPropertyOp25
 70
     1
102
RTVSPropertyOp26
 70
     1
102
RTVSPropertyOp27
 70
     1
  0
XRECORD
  5
67D
102
{ACAD_REACTORS
330
67C
102
}
330
67C
100
AcDbXrecord
280
     1
102
RTVSPropertyOp0
 70
     1
102
RTVSPropertyOp1
 70
     1
102
RTVSPropertyOp2
 70
     1
102
RTVSPropertyOp3
 70
     1
102
RTVSPropertyOp4
 70
     1
102
RTVSPropertyOp5
 70
     1
102
RTVSPropertyOp6
 70
     1
102
RTVSPropertyOp7
 70
     1
102
RTVSPropertyOp8
 70
     1
102
RTVSPropertyOp9
 70
     1
102
RTVSPropertyOp10
 70
     1
102
RTVSPropertyOp11
 70
     1
102
RTVSPropertyOp12
 70
     1
102
RTVSPropertyOp13
 70
     1
102
RTVSPropertyOp14
 70
     1
102
RTVSPropertyOp15
 70
     1
102
RTVSPropertyOp16
 70
     1
102
RTVSPropertyOp17
 70
     1
102
RTVSPropertyOp18
 70
     1
102
RTVSPropertyOp19
 70
     1
102
RTVSPropertyOp20
 70
     1
102
RTVSPropertyOp21
 70
     1
102
RTVSPropertyOp22
 70
     1
102
RTVSPropertyOp23
 70
     1
102
RTVSPropertyOp24
 70
     1
102
RTVSPropertyOp25
 70
     1
102
RTVSPropertyOp26
 70
     1
102
RTVSPropertyOp27
 70
     1
  0
XRECORD
  5
685
102
{ACAD_REACTORS
330
684
102
}
330
684
100
AcDbXrecord
280
     1
102
RTVSPropertyOp0
 70
     1
102
RTVSPropertyOp1
 70
     1
102
RTVSPropertyOp2
 70
     1
102
RTVSPropertyOp3
 70
     1
102
RTVSPropertyOp4
 70
     1
102
RTVSPropertyOp5
 70
     1
102
RTVSPropertyOp6
 70
     1
102
RTVSPropertyOp7
 70
     1
102
RTVSPropertyOp8
 70
     1
102
RTVSPropertyOp9
 70
     1
102
RTVSPropertyOp10
 70
     1
102
RTVSPropertyOp11
 70
     1
102
RTVSPropertyOp12
 70
     1
102
RTVSPropertyOp13
 70
     1
102
RTVSPropertyOp14
 70
     1
102
RTVSPropertyOp15
 70
     1
102
RTVSPropertyOp16
 70
     1
102
RTVSPropertyOp17
 70
     1
102
RTVSPropertyOp18
 70
     1
102
RTVSPropertyOp19
 70
     1
102
RTVSPropertyOp20
 70
     1
102
RTVSPropertyOp21
 70
     1
102
RTVSPropertyOp22
 70
     1
102
RTVSPropertyOp23
 70
     1
102
RTVSPropertyOp24
 70
     1
102
RTVSPropertyOp25
 70
     1
102
RTVSPropertyOp26
 70
     1
102
RTVSPropertyOp27
 70
     1
  0
XRECORD
  5
68D
102
{ACAD_REACTORS
330
68C
102
}
330
68C
100
AcDbXrecord
280
     1
102
RTVSPropertyOp0
 70
     1
102
RTVSPropertyOp1
 70
     1
102
RTVSPropertyOp2
 70
     1
102
RTVSPropertyOp3
 70
     1
102
RTVSPropertyOp4
 70
     1
102
RTVSPropertyOp5
 70
     1
102
RTVSPropertyOp6
 70
     1
102
RTVSPropertyOp7
 70
     1
102
RTVSPropertyOp8
 70
     1
102
RTVSPropertyOp9
 70
     1
102
RTVSPropertyOp10
 70
     1
102
RTVSPropertyOp11
 70
     1
102
RTVSPropertyOp12
 70
     1
102
RTVSPropertyOp13
 70
     1
102
RTVSPropertyOp14
 70
     1
102
RTVSPropertyOp15
 70
     1
102
RTVSPropertyOp16
 70
     1
102
RTVSPropertyOp17
 70
     1
102
RTVSPropertyOp18
 70
     1
102
RTVSPropertyOp19
 70
     1
102
RTVSPropertyOp20
 70
     1
102
RTVSPropertyOp21
 70
     1
102
RTVSPropertyOp22
 70
     1
102
RTVSPropertyOp23
 70
     1
102
RTVSPropertyOp24
 70
     1
102
RTVSPropertyOp25
 70
     1
102
RTVSPropertyOp26
 70
     1
102
RTVSPropertyOp27
 70
     1
  0
XRECORD
  5
681
102
{ACAD_REACTORS
330
680
102
}
330
680
100
AcDbXrecord
280
     1
102
RTVSPropertyOp0
 70
     1
102
RTVSPropertyOp1
 70
     1
102
RTVSPropertyOp2
 70
     1
102
RTVSPropertyOp3
 70
     1
102
RTVSPropertyOp4
 70
     1
102
RTVSPropertyOp5
 70
     1
102
RTVSPropertyOp6
 70
     1
102
RTVSPropertyOp7
 70
     1
102
RTVSPropertyOp8
 70
     1
102
RTVSPropertyOp9
 70
     1
102
RTVSPropertyOp10
 70
     1
102
RTVSPropertyOp11
 70
     1
102
RTVSPropertyOp12
 70
     1
102
RTVSPropertyOp13
 70
     1
102
RTVSPropertyOp14
 70
     1
102
RTVSPropertyOp15
 70
     1
102
RTVSPropertyOp16
 70
     1
102
RTVSPropertyOp17
 70
     1
102
RTVSPropertyOp18
 70
     1
102
RTVSPropertyOp19
 70
     1
102
RTVSPropertyOp20
 70
     1
102
RTVSPropertyOp21
 70
     1
102
RTVSPropertyOp22
 70
     1
102
RTVSPropertyOp23
 70
     1
102
RTVSPropertyOp24
 70
     1
102
RTVSPropertyOp25
 70
     1
102
RTVSPropertyOp26
 70
     1
102
RTVSPropertyOp27
 70
     1
  0
XRECORD
  5
683
102
{ACAD_REACTORS
330
682
102
}
330
682
100
AcDbXrecord
280
     1
102
RTVSPropertyOp0
 70
     1
102
RTVSPropertyOp1
 70
     1
102
RTVSPropertyOp2
 70
     1
102
RTVSPropertyOp3
 70
     1
102
RTVSPropertyOp4
 70
     1
102
RTVSPropertyOp5
 70
     1
102
RTVSPropertyOp6
 70
     1
102
RTVSPropertyOp7
 70
     1
102
RTVSPropertyOp8
 70
     1
102
RTVSPropertyOp9
 70
     1
102
RTVSPropertyOp10
 70
     1
102
RTVSPropertyOp11
 70
     1
102
RTVSPropertyOp12
 70
     1
102
RTVSPropertyOp13
 70
     1
102
RTVSPropertyOp14
 70
     1
102
RTVSPropertyOp15
 70
     1
102
RTVSPropertyOp16
 70
     1
102
RTVSPropertyOp17
 70
     1
102
RTVSPropertyOp18
 70
     1
102
RTVSPropertyOp19
 70
     1
102
RTVSPropertyOp20
 70
     1
102
RTVSPropertyOp21
 70
     1
102
RTVSPropertyOp22
 70
     1
102
RTVSPropertyOp23
 70
     1
102
RTVSPropertyOp24
 70
     1
102
RTVSPropertyOp25
 70
     1
102
RTVSPropertyOp26
 70
     1
102
RTVSPropertyOp27
 70
     1
  0
XRECORD
  5
68B
102
{ACAD_REACTORS
330
68A
102
}
330
68A
100
AcDbXrecord
280
     1
102
RTVSPropertyOp0
 70
     1
102
RTVSPropertyOp1
 70
     1
102
RTVSPropertyOp2
 70
     1
102
RTVSPropertyOp3
 70
     1
102
RTVSPropertyOp4
 70
     1
102
RTVSPropertyOp5
 70
     1
102
RTVSPropertyOp6
 70
     1
102
RTVSPropertyOp7
 70
     1
102
RTVSPropertyOp8
 70
     1
102
RTVSPropertyOp9
 70
     1
102
RTVSPropertyOp10
 70
     1
102
RTVSPropertyOp11
 70
     1
102
RTVSPropertyOp12
 70
     1
102
RTVSPropertyOp13
 70
     1
102
RTVSPropertyOp14
 70
     1
102
RTVSPropertyOp15
 70
     1
102
RTVSPropertyOp16
 70
     1
102
RTVSPropertyOp17
 70
     1
102
RTVSPropertyOp18
 70
     1
102
RTVSPropertyOp19
 70
     1
102
RTVSPropertyOp20
 70
     1
102
RTVSPropertyOp21
 70
     1
102
RTVSPropertyOp22
 70
     1
102
RTVSPropertyOp23
 70
     1
102
RTVSPropertyOp24
 70
     1
102
RTVSPropertyOp25
 70
     1
102
RTVSPropertyOp26
 70
     1
102
RTVSPropertyOp27
 70
     1
  0
XRECORD
  5
66F
102
{ACAD_REACTORS
330
66E
102
}
330
66E
100
AcDbXrecord
280
     1
102
RTVSPropertyOp0
 70
     1
102
RTVSPropertyOp1
 70
     1
102
RTVSPropertyOp2
 70
     1
102
RTVSPropertyOp3
 70
     1
102
RTVSPropertyOp4
 70
     1
102
RTVSPropertyOp5
 70
     1
102
RTVSPropertyOp6
 70
     1
102
RTVSPropertyOp7
 70
     1
102
RTVSPropertyOp8
 70
     1
102
RTVSPropertyOp9
 70
     1
102
RTVSPropertyOp10
 70
     1
102
RTVSPropertyOp11
 70
     1
102
RTVSPropertyOp12
 70
     1
102
RTVSPropertyOp13
 70
     1
102
RTVSPropertyOp14
 70
     1
102
RTVSPropertyOp15
 70
     1
102
RTVSPropertyOp16
 70
     1
102
RTVSPropertyOp17
 70
     1
102
RTVSPropertyOp18
 70
     1
102
RTVSPropertyOp19
 70
     1
102
RTVSPropertyOp20
 70
     1
102
RTVSPropertyOp21
 70
     1
102
RTVSPropertyOp22
 70
     1
102
RTVSPropertyOp23
 70
     1
102
RTVSPropertyOp24
 70
     1
102
RTVSPropertyOp25
 70
     1
102
RTVSPropertyOp26
 70
     1
102
RTVSPropertyOp27
 70
     1
  0
XRECORD
  5
671
102
{ACAD_REACTORS
330
670
102
}
330
670
100
AcDbXrecord
280
     1
102
RTVSPropertyOp0
 70
     1
102
RTVSPropertyOp1
 70
     1
102
RTVSPropertyOp2
 70
     1
102
RTVSPropertyOp3
 70
     1
102
RTVSPropertyOp4
 70
     1
102
RTVSPropertyOp5
 70
     1
102
RTVSPropertyOp6
 70
     1
102
RTVSPropertyOp7
 70
     1
102
RTVSPropertyOp8
 70
     1
102
RTVSPropertyOp9
 70
     1
102
RTVSPropertyOp10
 70
     1
102
RTVSPropertyOp11
 70
     1
102
RTVSPropertyOp12
 70
     1
102
RTVSPropertyOp13
 70
     1
102
RTVSPropertyOp14
 70
     1
102
RTVSPropertyOp15
 70
     1
102
RTVSPropertyOp16
 70
     1
102
RTVSPropertyOp17
 70
     1
102
RTVSPropertyOp18
 70
     1
102
RTVSPropertyOp19
 70
     1
102
RTVSPropertyOp20
 70
     1
102
RTVSPropertyOp21
 70
     1
102
RTVSPropertyOp22
 70
     1
102
RTVSPropertyOp23
 70
     1
102
RTVSPropertyOp24
 70
     1
102
RTVSPropertyOp25
 70
     1
102
RTVSPropertyOp26
 70
     1
102
RTVSPropertyOp27
 70
     1
  0
XRECORD
  5
673
102
{ACAD_REACTORS
330
672
102
}
330
672
100
AcDbXrecord
280
     1
102
RTVSPropertyOp0
 70
     1
102
RTVSPropertyOp1
 70
     1
102
RTVSPropertyOp2
 70
     1
102
RTVSPropertyOp3
 70
     1
102
RTVSPropertyOp4
 70
     1
102
RTVSPropertyOp5
 70
     1
102
RTVSPropertyOp6
 70
     1
102
RTVSPropertyOp7
 70
     1
102
RTVSPropertyOp8
 70
     1
102
RTVSPropertyOp9
 70
     1
102
RTVSPropertyOp10
 70
     1
102
RTVSPropertyOp11
 70
     1
102
RTVSPropertyOp12
 70
     1
102
RTVSPropertyOp13
 70
     1
102
RTVSPropertyOp14
 70
     1
102
RTVSPropertyOp15
 70
     1
102
RTVSPropertyOp16
 70
     1
102
RTVSPropertyOp17
 70
     1
102
RTVSPropertyOp18
 70
     1
102
RTVSPropertyOp19
 70
     1
102
RTVSPropertyOp20
 70
     1
102
RTVSPropertyOp21
 70
     1
102
RTVSPropertyOp22
 70
     1
102
RTVSPropertyOp23
 70
     1
102
RTVSPropertyOp24
 70
     1
102
RTVSPropertyOp25
 70
     1
102
RTVSPropertyOp26
 70
     1
102
RTVSPropertyOp27
 70
     1
  0
XRECORD
  5
675
102
{ACAD_REACTORS
330
674
102
}
330
674
100
AcDbXrecord
280
     1
102
RTVSPropertyOp0
 70
     1
102
RTVSPropertyOp1
 70
     1
102
RTVSPropertyOp2
 70
     1
102
RTVSPropertyOp3
 70
     1
102
RTVSPropertyOp4
 70
     1
102
RTVSPropertyOp5
 70
     1
102
RTVSPropertyOp6
 70
     1
102
RTVSPropertyOp7
 70
     1
102
RTVSPropertyOp8
 70
     1
102
RTVSPropertyOp9
 70
     1
102
RTVSPropertyOp10
 70
     1
102
RTVSPropertyOp11
 70
     1
102
RTVSPropertyOp12
 70
     1
102
RTVSPropertyOp13
 70
     1
102
RTVSPropertyOp14
 70
     1
102
RTVSPropertyOp15
 70
     1
102
RTVSPropertyOp16
 70
     1
102
RTVSPropertyOp17
 70
     1
102
RTVSPropertyOp18
 70
     1
102
RTVSPropertyOp19
 70
     1
102
RTVSPropertyOp20
 70
     1
102
RTVSPropertyOp21
 70
     1
102
RTVSPropertyOp22
 70
     1
102
RTVSPropertyOp23
 70
     1
102
RTVSPropertyOp24
 70
     1
102
RTVSPropertyOp25
 70
     1
102
RTVSPropertyOp26
 70
     1
102
RTVSPropertyOp27
 70
     1
  0
XRECORD
  5
689
102
{ACAD_REACTORS
330
688
102
}
330
688
100
AcDbXrecord
280
     1
102
RTVSPropertyOp0
 70
     1
102
RTVSPropertyOp1
 70
     1
102
RTVSPropertyOp2
 70
     1
102
RTVSPropertyOp3
 70
     1
102
RTVSPropertyOp4
 70
     1
102
RTVSPropertyOp5
 70
     1
102
RTVSPropertyOp6
 70
     1
102
RTVSPropertyOp7
 70
     1
102
RTVSPropertyOp8
 70
     1
102
RTVSPropertyOp9
 70
     1
102
RTVSPropertyOp10
 70
     1
102
RTVSPropertyOp11
 70
     1
102
RTVSPropertyOp12
 70
     1
102
RTVSPropertyOp13
 70
     1
102
RTVSPropertyOp14
 70
     1
102
RTVSPropertyOp15
 70
     1
102
RTVSPropertyOp16
 70
     1
102
RTVSPropertyOp17
 70
     1
102
RTVSPropertyOp18
 70
     1
102
RTVSPropertyOp19
 70
     1
102
RTVSPropertyOp20
 70
     1
102
RTVSPropertyOp21
 70
     1
102
RTVSPropertyOp22
 70
     1
102
RTVSPropertyOp23
 70
     1
102
RTVSPropertyOp24
 70
     1
102
RTVSPropertyOp25
 70
     1
102
RTVSPropertyOp26
 70
     1
102
RTVSPropertyOp27
 70
     1
  0
XRECORD
  5
67F
102
{ACAD_REACTORS
330
67E
102
}
330
67E
100
AcDbXrecord
280
     1
102
RTVSPropertyOp0
 70
     1
102
RTVSPropertyOp1
 70
     1
102
RTVSPropertyOp2
 70
     1
102
RTVSPropertyOp3
 70
     1
102
RTVSPropertyOp4
 70
     1
102
RTVSPropertyOp5
 70
     1
102
RTVSPropertyOp6
 70
     1
102
RTVSPropertyOp7
 70
     1
102
RTVSPropertyOp8
 70
     1
102
RTVSPropertyOp9
 70
     1
102
RTVSPropertyOp10
 70
     1
102
RTVSPropertyOp11
 70
     1
102
RTVSPropertyOp12
 70
     1
102
RTVSPropertyOp13
 70
     1
102
RTVSPropertyOp14
 70
     1
102
RTVSPropertyOp15
 70
     1
102
RTVSPropertyOp16
 70
     1
102
RTVSPropertyOp17
 70
     1
102
RTVSPropertyOp18
 70
     1
102
RTVSPropertyOp19
 70
     1
102
RTVSPropertyOp20
 70
     1
102
RTVSPropertyOp21
 70
     1
102
RTVSPropertyOp22
 70
     1
102
RTVSPropertyOp23
 70
     1
102
RTVSPropertyOp24
 70
     1
102
RTVSPropertyOp25
 70
     1
102
RTVSPropertyOp26
 70
     1
102
RTVSPropertyOp27
 70
     1
  0
XRECORD
  5
687
102
{ACAD_REACTORS
330
686
102
}
330
686
100
AcDbXrecord
280
     1
102
RTVSPropertyOp0
 70
     1
102
RTVSPropertyOp1
 70
     1
102
RTVSPropertyOp2
 70
     1
102
RTVSPropertyOp3
 70
     1
102
RTVSPropertyOp4
 70
     1
102
RTVSPropertyOp5
 70
     1
102
RTVSPropertyOp6
 70
     1
102
RTVSPropertyOp7
 70
     1
102
RTVSPropertyOp8
 70
     1
102
RTVSPropertyOp9
 70
     1
102
RTVSPropertyOp10
 70
     1
102
RTVSPropertyOp11
 70
     1
102
RTVSPropertyOp12
 70
     1
102
RTVSPropertyOp13
 70
     1
102
RTVSPropertyOp14
 70
     1
102
RTVSPropertyOp15
 70
     1
102
RTVSPropertyOp16
 70
     1
102
RTVSPropertyOp17
 70
     1
102
RTVSPropertyOp18
 70
     1
102
RTVSPropertyOp19
 70
     1
102
RTVSPropertyOp20
 70
     1
102
RTVSPropertyOp21
 70
     1
102
RTVSPropertyOp22
 70
     1
102
RTVSPropertyOp23
 70
     1
102
RTVSPropertyOp24
 70
     1
102
RTVSPropertyOp25
 70
     1
102
RTVSPropertyOp26
 70
     1
102
RTVSPropertyOp27
 70
     1
  0
ENDSEC
  0
EOF
