  0
SECTION
  2
HEADER
  9
$ACADVER
  1
AC1015
  9
$ACADMAINTVER
 70
     6
  9
$DWGCODEPAGE
  3
ANSI_932
  9
$INSBASE
 10
0.0
 20
0.0
 30
0.0
  9
$EXTMIN
 10
0.0
 20
0.0
 30
0.0
  9
$EXTMAX
 10
2520.0
 20
1782.0
 30
0.0
  9
$LIMMIN
 10
0.0
 20
0.0
  9
$LIMMAX
 10
12.0
 20
9.0
  9
$ORTHOMODE
 70
     0
  9
$REGENMODE
 70
     1
  9
$FILLMODE
 70
     1
  9
$QTEXTMODE
 70
     0
  9
$MIRRTEXT
 70
     1
  9
$LTSCALE
 40
6.0
  9
$ATTMODE
 70
     1
  9
$TEXTSIZE
 40
0.2
  9
$TRACEWID
 40
0.05
  9
$TEXTSTYLE
  7
Standard
  9
$CLAYER
  8
0
  9
$CELTYPE
  6
ByLayer
  9
$CECOLOR
 62
   256
  9
$CELTSCALE
 40
1.0
  9
$DISPSILH
 70
     0
  9
$DIMSCALE
 40
1.0
  9
$DIMASZ
 40
0.18
  9
$DIMEXO
 40
0.0625
  9
$DIMDLI
 40
0.38
  9
$DIMRND
 40
0.0
  9
$DIMDLE
 40
0.0
  9
$DIMEXE
 40
0.18
  9
$DIMTP
 40
0.0
  9
$DIMTM
 40
0.0
  9
$DIMTXT
 40
0.18
  9
$DIMCEN
 40
0.09
  9
$DIMTSZ
 40
0.0
  9
$DIMTOL
 70
     0
  9
$DIMLIM
 70
     0
  9
$DIMTIH
 70
     1
  9
$DIMTOH
 70
     1
  9
$DIMSE1
 70
     0
  9
$DIMSE2
 70
     0
  9
$DIMTAD
 70
     0
  9
$DIMZIN
 70
     0
  9
$DIMBLK
  1

  9
$DIMASO
 70
     1
  9
$DIMSHO
 70
     1
  9
$DIMPOST
  1

  9
$DIMAPOST
  1

  9
$DIMALT
 70
     0
  9
$DIMALTD
 70
     2
  9
$DIMALTF
 40
25.4
  9
$DIMLFAC
 40
1.0
  9
$DIMTOFL
 70
     0
  9
$DIMTVP
 40
0.0
  9
$DIMTIX
 70
     0
  9
$DIMSOXD
 70
     0
  9
$DIMSAH
 70
     0
  9
$DIMBLK1
  1

  9
$DIMBLK2
  1

  9
$DIMSTYLE
  2
Standard
  9
$DIMCLRD
 70
     0
  9
$DIMCLRE
 70
     0
  9
$DIMCLRT
 70
     0
  9
$DIMTFAC
 40
1.0
  9
$DIMGAP
 40
0.09
  9
$DIMJUST
 70
     0
  9
$DIMSD1
 70
     0
  9
$DIMSD2
 70
     0
  9
$DIMTOLJ
 70
     1
  9
$DIMTZIN
 70
     0
  9
$DIMALTZ
 70
     0
  9
$DIMALTTZ
 70
     0
  9
$DIMUPT
 70
     0
  9
$DIMDEC
 70
     4
  9
$DIMTDEC
 70
     4
  9
$DIMALTU
 70
     2
  9
$DIMALTTD
 70
     2
  9
$DIMTXSTY
  7
Standard
  9
$DIMAUNIT
 70
     0
  9
$DIMADEC
 70
     0
  9
$DIMALTRND
 40
0.0
  9
$DIMAZIN
 70
     0
  9
$DIMDSEP
 70
    46
  9
$DIMATFIT
 70
     3
  9
$DIMFRAC
 70
     0
  9
$DIMLDRBLK
  1

  9
$DIMLUNIT
 70
     2
  9
$DIMLWD
 70
    -2
  9
$DIMLWE
 70
    -2
  9
$DIMTMOVE
 70
     0
  9
$LUNITS
 70
     2
  9
$LUPREC
 70
     4
  9
$SKETCHINC
 40
0.1
  9
$FILLETRAD
 40
0.5
  9
$AUNITS
 70
     0
  9
$AUPREC
 70
     0
  9
$MENU
  1
.
  9
$ELEVATION
 40
0.0
  9
$PELEVATION
 40
0.0
  9
$THICKNESS
 40
0.0
  9
$LIMCHECK
 70
     0
  9
$CHAMFERA
 40
0.5
  9
$CHAMFERB
 40
0.5
  9
$CHAMFERC
 40
1.0
  9
$CHAMFERD
 40
0.0
  9
$SKPOLY
 70
     0
  9
$TDCREATE
 40
2456819.745931644
  9
$TDUCREATE
 40
2456819.370931644
  9
$TDUPDATE
 40
2456819.745931655
  9
$TDUUPDATE
 40
2456819.370931655
  9
$TDINDWG
 40
0.0000000116
  9
$TDUSRTIMER
 40
0.0000000116
  9
$USRTIMER
 70
     1
  9
$ANGBASE
 50
0.0
  9
$ANGDIR
 70
     0
  9
$PDMODE
 70
     0
  9
$PDSIZE
 40
0.0
  9
$PLINEWID
 40
0.0
  9
$SPLFRAME
 70
     0
  9
$SPLINETYPE
 70
     6
  9
$SPLINESEGS
 70
     8
  9
$HANDSEED
  5
68F
  9
$SURFTAB1
 70
     6
  9
$SURFTAB2
 70
     6
  9
$SURFTYPE
 70
     6
  9
$SURFU
 70
     6
  9
$SURFV
 70
     6
  9
$UCSBASE
  2

  9
$UCSNAME
  2

  9
$UCSORG
 10
0.0
 20
0.0
 30
0.0
  9
$UCSXDIR
 10
1.0
 20
0.0
 30
0.0
  9
$UCSYDIR
 10
0.0
 20
1.0
 30
0.0
  9
$UCSORTHOREF
  2

  9
$UCSORTHOVIEW
 70
     0
  9
$UCSORGTOP
 10
0.0
 20
0.0
 30
0.0
  9
$UCSORGBOTTOM
 10
0.0
 20
0.0
 30
0.0
  9
$UCSORGLEFT
 10
0.0
 20
0.0
 30
0.0
  9
$UCSORGRIGHT
 10
0.0
 20
0.0
 30
0.0
  9
$UCSORGFRONT
 10
0.0
 20
0.0
 30
0.0
  9
$UCSORGBACK
 10
0.0
 20
0.0
 30
0.0
  9
$PUCSBASE
  2

  9
$PUCSNAME
  2

  9
$PUCSORG
 10
0.0
 20
0.0
 30
0.0
  9
$PUCSXDIR
 10
1.0
 20
0.0
 30
0.0
  9
$PUCSYDIR
 10
0.0
 20
1.0
 30
0.0
  9
$PUCSORTHOREF
  2

  9
$PUCSORTHOVIEW
 70
     0
  9
$PUCSORGTOP
 10
0.0
 20
0.0
 30
0.0
  9
$PUCSORGBOTTOM
 10
0.0
 20
0.0
 30
0.0
  9
$PUCSORGLEFT
 10
0.0
 20
0.0
 30
0.0
  9
$PUCSORGRIGHT
 10
0.0
 20
0.0
 30
0.0
  9
$PUCSORGFRONT
 10
0.0
 20
0.0
 30
0.0
  9
$PUCSORGBACK
 10
0.0
 20
0.0
 30
0.0
  9
$USERI1
 70
     0
  9
$USERI2
 70
     0
  9
$USERI3
 70
     0
  9
$USERI4
 70
     0
  9
$USERI5
 70
     0
  9
$USERR1
 40
0.0
  9
$USERR2
 40
0.0
  9
$USERR3
 40
0.0
  9
$USERR4
 40
0.0
  9
$USERR5
 40
0.0
  9
$WORLDVIEW
 70
     1
  9
$SHADEDGE
 70
     3
  9
$SHADEDIF
 70
    70
  9
$TILEMODE
 70
     1
  9
$MAXACTVP
 70
    64
  9
$PINSBASE
 10
0.0
 20
0.0
 30
0.0
  9
$PLIMCHECK
 70
     0
  9
$PEXTMIN
 10
1.000000E+20
 20
1.000000E+20
 30
1.000000E+20
  9
$PEXTMAX
 10
-1.000000E+20
 20
-1.000000E+20
 30
-1.000000E+20
  9
$PLIMMIN
 10
0.0
 20
0.0
  9
$PLIMMAX
 10
12.0
 20
9.0
  9
$UNITMODE
 70
     0
  9
$VISRETAIN
 70
     1
  9
$PLINEGEN
 70
     0
  9
$PSLTSCALE
 70
     1
  9
$TREEDEPTH
 70
  3020
  9
$CMLSTYLE
  2
Standard
  9
$CMLJUST
 70
     0
  9
$CMLSCALE
 40
1.0
  9
$PROXYGRAPHICS
 70
     1
  9
$MEASUREMENT
 70
     0
  9
$CELWEIGHT
370
    -1
  9
$ENDCAPS
280
     0
  9
$JOINSTYLE
280
     0
  9
$LWDISPLAY
290
     0
  9
$INSUNITS
 70
     1
  9
$HYPERLINKBASE
  1

  9
$STYLESHEET
  1

  9
$XEDIT
290
     1
  9
$CEPSNTYPE
380
     0
  9
$PSTYLEMODE
290
     1
  9
$FINGERPRINTGUID
  2
{67C5809C-2F60-4807-B105-073A0D377D5C}
  9
$VERSIONGUID
  2
{FAEB1C32-E019-11D5-929B-00C0DF256EC4}
  9
$EXTNAMES
290
     1
  9
$PSVPSCALE
 40
0.0
  9
$OLESTARTUP
290
     0
  0
ENDSEC
  0
SECTION
  2
CLASSES
  0
CLASS
  1
ACDBDICTIONARYWDFLT
  2
AcDbDictionaryWithDefault
  3
ObjectDBX Classes
 90
        0
280
     0
281
     0
  0
CLASS
  1
VISUALSTYLE
  2
AcDbVisualStyle
  3
ObjectDBX Classes
 90
     4095
280
     0
281
     0
  0
CLASS
  1
SCALE
  2
AcDbScale
  3
ObjectDBX Classes
 90
     1153
280
     0
281
     0
  0
CLASS
  1
DICTIONARYVAR
  2
AcDbDictionaryVar
  3
ObjectDBX Classes
 90
        0
280
     0
281
     0
  0
CLASS
  1
ACDBPLACEHOLDER
  2
AcDbPlaceHolder
  3
ObjectDBX Classes
 90
        0
280
     0
281
     0
  0
CLASS
  1
LAYOUT
  2
AcDbLayout
  3
ObjectDBX Classes
 90
        0
280
     0
281
     0
  0
ENDSEC
  0
SECTION
  2
TABLES
  0
TABLE
  2
VPORT
  5
8
330
0
100
AcDbSymbolTable
 70
     1
  0
VPORT
  5
29
330
8
100
AcDbSymbolTableRecord
100
AcDbViewportTableRecord
  2
*Active
 70
     0
 10
0.0
 20
0.0
 11
1.0
 21
1.0
 12
10.429907
 22
4.5
 13
0.0
 23
0.0
 14
0.5
 24
0.5
 15
0.5
 25
0.5
 16
0.0
 26
0.0
 36
1.0
 17
0.0
 27
0.0
 37
0.0
 40
9.0
 41
1.972973
 42
50.0
 43
0.0
 44
0.0
 50
0.0
 51
0.0
 71
     0
 72
   100
 73
     1
 74
     3
 75
     0
 76
     0
 77
     0
 78
     0
281
     0
 65
     1
110
0.0
120
0.0
130
0.0
111
1.0
121
0.0
131
0.0
112
0.0
122
1.0
132
0.0
 79
     0
146
0.0
  0
ENDTAB
  0
TABLE
  2
LTYPE
  5
5
330
0
100
AcDbSymbolTable
 70
    16
  0
LTYPE
  5
14
330
5
100
AcDbSymbolTableRecord
100
AcDbLinetypeTableRecord
  2
ByBlock
 70
     0
  3

 72
    65
 73
     0
 40
0.0
  0
LTYPE
  5
15
330
5
100
AcDbSymbolTableRecord
100
AcDbLinetypeTableRecord
  2
ByLayer
 70
     0
  3

 72
    65
 73
     0
 40
0.0
  0
LTYPE
  5
16
330
5
100
AcDbSymbolTableRecord
100
AcDbLinetypeTableRecord
  2
Continuous
 70
     0
  3
Solid line
 72
    65
 73
     0
 40
0.0
  0
LTYPE
  5
3B
330
5
100
AcDbSymbolTableRecord
100
AcDbLinetypeTableRecord
  2
PLine1
 70
     0
  3
破線
 72
    65
 73
     2
 40
18.0
 49
12.6
 74
     0
 49
-5.4
 74
     0
  0
LTYPE
  5
3C
330
5
100
AcDbSymbolTableRecord
100
AcDbLinetypeTableRecord
  2
PLine2
 70
     0
  3
一点鎖線
 72
    65
 73
     4
 40
60.0
 49
42.0
 74
     0
 49
-6.0
 74
     0
 49
6.0
 74
     0
 49
-6.0
 74
     0
  0
LTYPE
  5
3D
330
5
100
AcDbSymbolTableRecord
100
AcDbLinetypeTableRecord
  2
PLine3
 70
     0
  3
二点鎖線
 72
    65
 73
     6
 40
60.0
 49
30.0
 74
     0
 49
-6.0
 74
     0
 49
6.0
 74
     0
 49
-6.0
 74
     0
 49
6.0
 74
     0
 49
-6.0
 74
     0
  0
LTYPE
  5
3E
330
5
100
AcDbSymbolTableRecord
100
AcDbLinetypeTableRecord
  2
PLine4
 70
     0
  3
破線1
 72
    65
 73
     2
 40
30.0
 49
21.0
 74
     0
 49
-9.0
 74
     0
  0
LTYPE
  5
3F
330
5
100
AcDbSymbolTableRecord
100
AcDbLinetypeTableRecord
  2
PLine5
 70
     0
  3
一点鎖線1
 72
    65
 73
     4
 40
90.0
 49
63.0
 74
     0
 49
-9.0
 74
     0
 49
9.0
 74
     0
 49
-9.0
 74
     0
  0
LTYPE
  5
40
330
5
100
AcDbSymbolTableRecord
100
AcDbLinetypeTableRecord
  2
PLine6
 70
     0
  3
二点鎖線1
 72
    65
 73
     6
 40
90.0
 49
45.0
 74
     0
 49
-9.0
 74
     0
 49
9.0
 74
     0
 49
-9.0
 74
     0
 49
9.0
 74
     0
 49
-9.0
 74
     0
  0
LTYPE
  5
41
330
5
100
AcDbSymbolTableRecord
100
AcDbLinetypeTableRecord
  2
PLine7
 70
     0
  3
破線2
 72
    65
 73
     2
 40
42.0
 49
29.4
 74
     0
 49
-12.6
 74
     0
  0
LTYPE
  5
42
330
5
100
AcDbSymbolTableRecord
100
AcDbLinetypeTableRecord
  2
PLine8
 70
     0
  3
一点鎖線2
 72
    65
 73
     4
 40
120.0
 49
84.0
 74
     0
 49
-12.0
 74
     0
 49
12.0
 74
     0
 49
-12.0
 74
     0
  0
LTYPE
  5
43
330
5
100
AcDbSymbolTableRecord
100
AcDbLinetypeTableRecord
  2
PLine9
 70
     0
  3
二点鎖線2
 72
    65
 73
     6
 40
120.0
 49
60.0
 74
     0
 49
-12.0
 74
     0
 49
12.0
 74
     0
 49
-12.0
 74
     0
 49
12.0
 74
     0
 49
-12.0
 74
     0
  0
LTYPE
  5
44
330
5
100
AcDbSymbolTableRecord
100
AcDbLinetypeTableRecord
  2
PLine10
 70
     0
  3
破線3
 72
    65
 73
     2
 40
54.0
 49
37.8
 74
     0
 49
-16.2
 74
     0
  0
LTYPE
  5
45
330
5
100
AcDbSymbolTableRecord
100
AcDbLinetypeTableRecord
  2
PLine11
 70
     0
  3
一点鎖線3
 72
    65
 73
     4
 40
150.0
 49
105.0
 74
     0
 49
-15.0
 74
     0
 49
15.0
 74
     0
 49
-15.0
 74
     0
  0
LTYPE
  5
46
330
5
100
AcDbSymbolTableRecord
100
AcDbLinetypeTableRecord
  2
PLine12
 70
     0
  3
二点鎖線3
 72
    65
 73
     6
 40
150.0
 49
75.0
 74
     0
 49
-15.0
 74
     0
 49
15.0
 74
     0
 49
-15.0
 74
     0
 49
15.0
 74
     0
 49
-15.0
 74
     0
  0
LTYPE
  5
47
330
5
100
AcDbSymbolTableRecord
100
AcDbLinetypeTableRecord
  2
PLine13
 70
     0
  3
破線4
 72
    65
 73
     2
 40
66.0
 49
46.2
 74
     0
 49
-19.8
 74
     0
  0
LTYPE
  5
48
330
5
100
AcDbSymbolTableRecord
100
AcDbLinetypeTableRecord
  2
PLine14
 70
     0
  3
一点鎖線4
 72
    65
 73
     4
 40
180.0
 49
126.0
 74
     0
 49
-18.0
 74
     0
 49
18.0
 74
     0
 49
-18.0
 74
     0
  0
LTYPE
  5
49
330
5
100
AcDbSymbolTableRecord
100
AcDbLinetypeTableRecord
  2
PLine15
 70
     0
  3
二点鎖線4
 72
    65
 73
     6
 40
180.0
 49
90.0
 74
     0
 49
-18.0
 74
     0
 49
18.0
 74
     0
 49
-18.0
 74
     0
 49
18.0
 74
     0
 49
-18.0
 74
     0
  0
ENDTAB
  0
TABLE
  2
LAYER
  5
2
330
0
100
AcDbSymbolTable
 70
     2
  0
LAYER
  5
10
330
2
100
AcDbSymbolTableRecord
100
AcDbLayerTableRecord
  2
0
 70
     0
 62
     7
  6
Continuous
370
    -3
390
F
  0
LAYER
  5
4E
330
2
100
AcDbSymbolTableRecord
100
AcDbLayerTableRecord
  2
dxfile
 70
     0
 62
     7
  6
Continuous
370
    -3
390
F
  0
ENDTAB
  0
TABLE
  2
STYLE
  5
3
330
0
100
AcDbSymbolTable
 70
     5
  0
STYLE
  5
11
330
3
100
AcDbSymbolTableRecord
100
AcDbTextStyleTableRecord
  2
Standard
 70
     0
 40
0.0
 41
1.0
 50
0.0
 71
     0
 42
0.2
  3
txt
  4
bigfont
  0
STYLE
  5
4A
330
3
100
AcDbSymbolTableRecord
100
AcDbTextStyleTableRecord
  2
BIGFONT
 70
     0
 40
0.2
 41
1.0
 50
0.0
 71
     0
 42
3.5
  3
monotxt
  4
bigfont
  0
STYLE
  5
4B
330
3
100
AcDbSymbolTableRecord
100
AcDbTextStyleTableRecord
  2
BIG VER
 70
     4
 40
0.2
 41
1.0
 50
0.0
 71
     0
 42
3.5
  3
monotxt
  4
bigfont
  0
STYLE
  5
4C
330
3
100
AcDbSymbolTableRecord
100
AcDbTextStyleTableRecord
  2
EXTFONT
 70
     0
 40
0.2
 41
1.0
 50
0.0
 71
     0
 42
3.5
  3
monotxt
  4
extfont
  0
STYLE
  5
4D
330
3
100
AcDbSymbolTableRecord
100
AcDbTextStyleTableRecord
  2
EXT VER
 70
     4
 40
0.2
 41
1.0
 50
0.0
 71
     0
 42
3.5
  3
monotxt
  4
extfont
  0
ENDTAB
  0
TABLE
  2
VIEW
  5
6
330
0
100
AcDbSymbolTable
 70
     0
  0
ENDTAB
  0
TABLE
  2
UCS
  5
7
330
0
100
AcDbSymbolTable
 70
     0
  0
ENDTAB
  0
TABLE
  2
APPID
  5
9
330
0
100
AcDbSymbolTable
 70
     1
  0
APPID
  5
12
330
9
100
AcDbSymbolTableRecord
100
AcDbRegAppTableRecord
  2
ACAD
 70
     0
  0
ENDTAB
  0
TABLE
  2
DIMSTYLE
  5
A
330
0
100
AcDbSymbolTable
 70
     1
100
AcDbDimStyleTable
  0
DIMSTYLE
105
27
330
A
100
AcDbSymbolTableRecord
100
AcDbDimStyleTableRecord
  2
Standard
 70
     0
340
11
  0
ENDTAB
  0
TABLE
  2
BLOCK_RECORD
  5
1
330
0
100
AcDbSymbolTable
 70
    21
  0
BLOCK_RECORD
  5
1F
330
1
100
AcDbSymbolTableRecord
100
AcDbBlockTableRecord
  2
*Model_Space
340
22
  0
BLOCK_RECORD
  5
1B
330
1
100
AcDbSymbolTableRecord
100
AcDbBlockTableRecord
  2
*Paper_Space
340
1E
  0
BLOCK_RECORD
  5
23
330
1
100
AcDbSymbolTableRecord
100
AcDbBlockTableRecord
  2
*Paper_Space0
340
26
  0
BLOCK_RECORD
  5
1B0
330
1
100
AcDbSymbolTableRecord
100
AcDbBlockTableRecord
  2
DIM_0
340
0
102
{BLKREFS
331
1B9
102
}
  0
BLOCK_RECORD
  5
246
330
1
100
AcDbSymbolTableRecord
100
AcDbBlockTableRecord
  2
DIM_1
340
0
102
{BLKREFS
331
24F
102
}
  0
BLOCK_RECORD
  5
2FE
330
1
100
AcDbSymbolTableRecord
100
AcDbBlockTableRecord
  2
DIM_2
340
0
102
{BLKREFS
331
307
102
}
  0
BLOCK_RECORD
  5
30D
330
1
100
AcDbSymbolTableRecord
100
AcDbBlockTableRecord
  2
DIM_3
340
0
102
{BLKREFS
331
316
102
}
  0
BLOCK_RECORD
  5
325
330
1
100
AcDbSymbolTableRecord
100
AcDbBlockTableRecord
  2
DIM_4
340
0
102
{BLKREFS
331
32E
102
}
  0
BLOCK_RECORD
  5
44E
330
1
100
AcDbSymbolTableRecord
100
AcDbBlockTableRecord
  2
DIM_5
340
0
102
{BLKREFS
331
454
102
}
  0
BLOCK_RECORD
  5
48E
330
1
100
AcDbSymbolTableRecord
100
AcDbBlockTableRecord
  2
DIM_6
340
0
102
{BLKREFS
331
495
102
}
  0
BLOCK_RECORD
  5
49F
330
1
100
AcDbSymbolTableRecord
100
AcDbBlockTableRecord
  2
DIM_7
340
0
102
{BLKREFS
331
4A7
102
}
  0
BLOCK_RECORD
  5
4AE
330
1
100
AcDbSymbolTableRecord
100
AcDbBlockTableRecord
  2
DIM_8
340
0
102
{BLKREFS
331
4B7
102
}
  0
BLOCK_RECORD
  5
4B8
330
1
100
AcDbSymbolTableRecord
100
AcDbBlockTableRecord
  2
DIM_9
340
0
102
{BLKREFS
331
4C1
102
}
  0
BLOCK_RECORD
  5
4C2
330
1
100
AcDbSymbolTableRecord
100
AcDbBlockTableRecord
  2
DIM_10
340
0
102
{BLKREFS
331
4CA
102
}
  0
BLOCK_RECORD
  5
4CB
330
1
100
AcDbSymbolTableRecord
100
AcDbBlockTableRecord
  2
DIM_11
340
0
102
{BLKREFS
331
4D3
102
}
  0
BLOCK_RECORD
  5
4D4
330
1
100
AcDbSymbolTableRecord
100
AcDbBlockTableRecord
  2
DIM_12
340
0
102
{BLKREFS
331
4DD
102
}
  0
BLOCK_RECORD
  5
533
330
1
100
AcDbSymbolTableRecord
100
AcDbBlockTableRecord
  2
DIM_13
340
0
102
{BLKREFS
331
53C
102
}
  0
BLOCK_RECORD
  5
53D
330
1
100
AcDbSymbolTableRecord
100
AcDbBlockTableRecord
  2
DIM_14
340
0
102
{BLKREFS
331
546
102
}
  0
BLOCK_RECORD
  5
550
330
1
100
AcDbSymbolTableRecord
100
AcDbBlockTableRecord
  2
DIM_15
340
0
102
{BLKREFS
331
559
102
}
  0
BLOCK_RECORD
  5
5FE
330
1
100
AcDbSymbolTableRecord
100
AcDbBlockTableRecord
  2
DIM_16
340
0
102
{BLKREFS
331
607
102
}
  0
BLOCK_RECORD
  5
61C
330
1
100
AcDbSymbolTableRecord
100
AcDbBlockTableRecord
  2
DIM_17
340
0
102
{BLKREFS
331
625
102
}
  0
BLOCK_RECORD
  5
626
330
1
100
AcDbSymbolTableRecord
100
AcDbBlockTableRecord
  2
DIM_18
340
0
102
{BLKREFS
331
62F
102
}
  0
BLOCK_RECORD
  5
630
330
1
100
AcDbSymbolTableRecord
100
AcDbBlockTableRecord
  2
DIM_19
340
0
102
{BLKREFS
331
639
102
}
  0
ENDTAB
  0
ENDSEC
  0
SECTION
  2
BLOCKS
  0
BLOCK
  5
20
330
1F
100
AcDbEntity
  8
0
100
AcDbBlockBegin
  2
*Model_Space
 70
     0
 10
0.0
 20
0.0
 30
0.0
  3
*Model_Space
  1

  0
ENDBLK
  5
21
330
1F
100
AcDbEntity
  8
0
100
AcDbBlockEnd
  0
BLOCK
  5
1C
330
1B
100
AcDbEntity
 67
     1
  8
0
100
AcDbBlockBegin
  2
*Paper_Space
 70
     0
 10
0.0
 20
0.0
 30
0.0
  3
*Paper_Space
  1

  0
ENDBLK
  5
1D
330
1B
100
AcDbEntity
 67
     1
  8
0
100
AcDbBlockEnd
  0
BLOCK
  5
24
330
23
100
AcDbEntity
  8
0
100
AcDbBlockBegin
  2
*Paper_Space0
 70
     0
 10
0.0
 20
0.0
 30
0.0
  3
*Paper_Space0
  1

  0
ENDBLK
  5
25
330
23
100
AcDbEntity
  8
0
100
AcDbBlockEnd
  0
BLOCK
  5
1B1
330
1B0
100
AcDbEntity
  8
0
100
AcDbBlockBegin
  2
DIM_0
 70
     0
 10
257.261101
 20
410.993652
 30
0.0
  3
DIM_0
  1

  0
CIRCLE
  5
1B3
330
1B0
100
AcDbEntity
  8
dxfile
  6
Continuous
 62
     3
100
AcDbCircle
 10
257.261101
 20
313.884559
 30
0.0
 40
2.4
  0
CIRCLE
  5
1B4
330
1B0
100
AcDbEntity
  8
dxfile
  6
Continuous
 62
     3
100
AcDbCircle
 10
422.261101
 20
313.884559
 30
0.0
 40
2.4
  0
LINE
  5
1B5
330
1B0
100
AcDbEntity
  8
dxfile
  6
Continuous
 62
     3
100
AcDbLine
 10
257.261101
 20
313.884559
 30
0.0
 11
422.261101
 21
313.884559
 31
0.0
  0
LINE
  5
1B6
330
1B0
100
AcDbEntity
  8
dxfile
  6
Continuous
 62
     3
100
AcDbLine
 10
257.261101
 20
410.993652
 30
0.0
 11
257.261101
 21
307.884559
 31
0.0
  0
LINE
  5
1B7
330
1B0
100
AcDbEntity
  8
dxfile
  6
Continuous
 62
     3
100
AcDbLine
 10
422.261101
 20
424.529108
 30
0.0
 11
422.261101
 21
307.884559
 31
0.0
  0
TEXT
  5
1B8
330
1B0
100
AcDbEntity
  8
dxfile
  6
Continuous
 62
     3
100
AcDbText
 10
309.511758
 20
316.418178
 30
0.0
 40
18.0
  1
１６５
 41
0.743832
 51
0.0
  7
BIGFONT
 72
     1
 11
325.769801
 21
325.418178
 31
0.0
100
AcDbText
 73
     2
  0
ENDBLK
  5
1B2
330
1B0
100
AcDbEntity
  8
0
100
AcDbBlockEnd
  0
BLOCK
  5
247
330
246
100
AcDbEntity
  8
0
100
AcDbBlockBegin
  2
DIM_1
 70
     0
 10
312.202495
 20
616.128725
 30
0.0
  3
DIM_1
  1

  0
CIRCLE
  5
249
330
246
100
AcDbEntity
  8
dxfile
  6
Continuous
 62
     3
100
AcDbCircle
 10
137.281615
 20
616.128725
 30
0.0
 40
3.0
  0
CIRCLE
  5
24A
330
246
100
AcDbEntity
  8
dxfile
  6
Continuous
 62
     3
100
AcDbCircle
 10
137.281615
 20
416.128725
 30
0.0
 40
3.0
  0
LINE
  5
24B
330
246
100
AcDbEntity
  8
dxfile
  6
Continuous
 62
     3
100
AcDbLine
 10
137.281615
 20
616.128725
 30
0.0
 11
137.281615
 21
416.128725
 31
0.0
  0
LINE
  5
24C
330
246
100
AcDbEntity
  8
dxfile
  6
Continuous
 62
     3
100
AcDbLine
 10
312.202495
 20
616.128725
 30
0.0
 11
131.281615
 21
616.128725
 31
0.0
  0
LINE
  5
24D
330
246
100
AcDbEntity
  8
dxfile
  6
Continuous
 62
     3
100
AcDbLine
 10
235.557508
 20
416.128725
 30
0.0
 11
131.281615
 21
416.128725
 31
0.0
  0
TEXT
  5
24E
330
246
100
AcDbEntity
  8
dxfile
  6
Continuous
 62
     3
100
AcDbText
 10
134.281614
 20
499.870683
 30
0.0
 40
18.0
  1
２００
 50
90.000003
 41
0.743832
 51
0.0
  7
BIGFONT
 72
     1
 11
134.281614
 21
516.128725
 31
0.0
100
AcDbText
  0
ENDBLK
  5
248
330
246
100
AcDbEntity
  8
0
100
AcDbBlockEnd
  0
BLOCK
  5
2FF
330
2FE
100
AcDbEntity
  8
0
100
AcDbBlockBegin
  2
DIM_2
 70
     0
 10
328.701238
 20
678.57535
 30
0.0
  3
DIM_2
  1

  0
CIRCLE
  5
301
330
2FE
100
AcDbEntity
  8
dxfile
  6
Continuous
 62
     3
100
AcDbCircle
 10
169.228795
 20
678.57535
 30
0.0
 40
2.4
  0
CIRCLE
  5
302
330
2FE
100
AcDbEntity
  8
dxfile
  6
Continuous
 62
     3
100
AcDbCircle
 10
169.228795
 20
648.57535
 30
0.0
 40
2.4
  0
LINE
  5
303
330
2FE
100
AcDbEntity
  8
dxfile
  6
Continuous
 62
     3
100
AcDbLine
 10
169.228795
 20
678.57535
 30
0.0
 11
169.228795
 21
648.57535
 31
0.0
  0
LINE
  5
304
330
2FE
100
AcDbEntity
  8
dxfile
  6
Continuous
 62
     3
100
AcDbLine
 10
328.701238
 20
678.57535
 30
0.0
 11
163.228795
 21
678.57535
 31
0.0
  0
LINE
  5
305
330
2FE
100
AcDbEntity
  8
dxfile
  6
Continuous
 62
     3
100
AcDbLine
 10
317.070679
 20
648.57535
 30
0.0
 11
163.228795
 21
648.57535
 31
0.0
  0
TEXT
  5
306
330
2FE
100
AcDbEntity
  8
dxfile
  6
Continuous
 62
     3
100
AcDbText
 10
166.228797
 20
652.650851
 30
0.0
 40
18.0
  1
３０
 50
90.000003
 41
0.772441
 51
0.0
  7
BIGFONT
 72
     1
 11
166.228796
 21
663.575373
 31
0.0
100
AcDbText
  0
ENDBLK
  5
300
330
2FE
100
AcDbEntity
  8
0
100
AcDbBlockEnd
  0
BLOCK
  5
30E
330
30D
100
AcDbEntity
  8
0
100
AcDbBlockBegin
  2
DIM_3
 70
     0
 10
412.261101
 20
689.916511
 30
0.0
  3
DIM_3
  1

  0
CIRCLE
  5
310
330
30D
100
AcDbEntity
  8
dxfile
  6
Continuous
 62
     3
100
AcDbCircle
 10
412.261101
 20
831.944019
 30
0.0
 40
3.0
  0
CIRCLE
  5
311
330
30D
100
AcDbEntity
  8
dxfile
  6
Continuous
 62
     3
100
AcDbCircle
 10
1272.261101
 20
831.944019
 30
0.0
 40
3.0
  0
LINE
  5
312
330
30D
100
AcDbEntity
  8
dxfile
  6
Continuous
 62
     3
100
AcDbLine
 10
412.261101
 20
831.944019
 30
0.0
 11
1272.261101
 21
831.944019
 31
0.0
  0
LINE
  5
313
330
30D
100
AcDbEntity
  8
dxfile
  6
Continuous
 62
     3
100
AcDbLine
 10
412.261101
 20
689.916511
 30
0.0
 11
412.261101
 21
837.944019
 31
0.0
  0
LINE
  5
314
330
30D
100
AcDbEntity
  8
dxfile
  6
Continuous
 62
     3
100
AcDbLine
 10
1272.261101
 20
684.857489
 30
0.0
 11
1272.261101
 21
837.944019
 31
0.0
  0
TEXT
  5
315
330
30D
100
AcDbEntity
  8
dxfile
  6
Continuous
 62
     3
100
AcDbText
 10
735.377453
 20
835.009605
 30
0.0
 40
18.0
  1
硝子寸法
 41
0.729528
  7
BIGFONT
 72
     1
 11
756.950625
 21
844.009605
 31
0.0
100
AcDbText
 73
     2
  0
ENDBLK
  5
30F
330
30D
100
AcDbEntity
  8
0
100
AcDbBlockEnd
  0
BLOCK
  5
326
330
325
100
AcDbEntity
  8
0
100
AcDbBlockBegin
  2
DIM_4
 70
     0
 10
1427.261101
 20
412.740381
 30
0.0
  3
DIM_4
  1

  0
CIRCLE
  5
328
330
325
100
AcDbEntity
  8
dxfile
  6
Continuous
 62
     3
100
AcDbCircle
 10
1427.261101
 20
313.884559
 30
0.0
 40
2.4
  0
CIRCLE
  5
329
330
325
100
AcDbEntity
  8
dxfile
  6
Continuous
 62
     3
100
AcDbCircle
 10
1262.261101
 20
313.884559
 30
0.0
 40
2.4
  0
LINE
  5
32A
330
325
100
AcDbEntity
  8
dxfile
  6
Continuous
 62
     3
100
AcDbLine
 10
1427.261101
 20
313.884559
 30
0.0
 11
1262.261101
 21
313.884559
 31
0.0
  0
LINE
  5
32B
330
325
100
AcDbEntity
  8
dxfile
  6
Continuous
 62
     3
100
AcDbLine
 10
1427.261101
 20
412.740381
 30
0.0
 11
1427.261101
 21
307.884559
 31
0.0
  0
LINE
  5
32C
330
325
100
AcDbEntity
  8
dxfile
  6
Continuous
 62
     3
100
AcDbLine
 10
1262.261101
 20
424.529108
 30
0.0
 11
1262.261101
 21
307.884559
 31
0.0
  0
TEXT
  5
32D
330
325
100
AcDbEntity
  8
dxfile
  6
Continuous
 62
     3
100
AcDbText
 10
1344.621063
 20
316.287592
 30
0.0
 40
18.0
  1
１６５
 41
0.743832
 51
0.0
  7
BIGFONT
 72
     1
 11
1360.879106
 21
325.287592
 31
0.0
100
AcDbText
 73
     2
  0
ENDBLK
  5
327
330
325
100
AcDbEntity
  8
0
100
AcDbBlockEnd
  0
BLOCK
  5
44F
330
44E
100
AcDbEntity
  8
0
100
AcDbBlockBegin
  2
DIM_5
 70
     0
 10
0.0
 20
0.0
 30
0.0
  3
DIM_5
  1

  0
CIRCLE
  5
451
330
44E
100
AcDbEntity
  8
dxfile
  6
Continuous
 62
     3
100
AcDbCircle
 10
2165.783561
 20
1243.201414
 30
0.0
 40
2.4
  0
LINE
  5
452
330
44E
100
AcDbEntity
  8
dxfile
  6
Continuous
 62
     3
100
AcDbLine
 10
2165.783561
 20
1243.201414
 30
0.0
 11
2093.533561
 21
1118.060743
 31
0.0
  0
TEXT
  5
453
330
44E
100
AcDbEntity
  8
dxfile
  6
Continuous
 62
     3
100
AcDbText
 10
2112.596357
 20
1156.078552
 30
0.0
 40
15.0
  1
Ｒ３００ 以上
 50
60.000002
 41
0.662092
  7
BIGFONT
 72
     1
 11
2127.493431
 21
1181.881044
 31
0.0
100
AcDbText
  0
ENDBLK
  5
450
330
44E
100
AcDbEntity
  8
0
100
AcDbBlockEnd
  0
BLOCK
  5
48F
330
48E
100
AcDbEntity
  8
0
100
AcDbBlockBegin
  2
DIM_6
 70
     0
 10
2035.483105
 20
1121.234133
 30
0.0
  3
DIM_6
  1

  0
CIRCLE
  5
491
330
48E
100
AcDbEntity
  8
dxfile
  6
Continuous
 62
     3
100
AcDbCircle
 10
1937.975816
 20
1121.234133
 30
0.0
 40
3.0
  0
CIRCLE
  5
492
330
48E
100
AcDbEntity
  8
dxfile
  6
Continuous
 62
     3
100
AcDbCircle
 10
1937.975816
 20
304.217647
 30
0.0
 40
3.0
  0
LINE
  5
493
330
48E
100
AcDbEntity
  8
dxfile
  6
Continuous
 62
     3
100
AcDbLine
 10
1937.975816
 20
1121.234133
 30
0.0
 11
1937.975816
 21
304.217647
 31
0.0
  0
TEXT
  5
494
330
48E
100
AcDbEntity
  8
dxfile
  6
Continuous
 62
     3
100
AcDbText
 10
1934.975732
 20
702.610701
 30
0.0
 40
15.0
  1
ＣＨ
 50
90.000003
 41
0.858268
  7
BIGFONT
 72
     1
 11
1934.975731
 21
712.725999
 31
0.0
100
AcDbText
  0
ENDBLK
  5
490
330
48E
100
AcDbEntity
  8
0
100
AcDbBlockEnd
  0
BLOCK
  5
4A0
330
49F
100
AcDbEntity
  8
0
100
AcDbBlockBegin
  2
DIM_7
 70
     0
 10
2148.865245
 20
682.362021
 30
0.0
  3
DIM_7
  1

  0
CIRCLE
  5
4A2
330
49F
100
AcDbEntity
  8
dxfile
  6
Continuous
 62
     3
100
AcDbCircle
 10
1998.87391
 20
682.362021
 30
0.0
 40
3.0
  0
CIRCLE
  5
4A3
330
49F
100
AcDbEntity
  8
dxfile
  6
Continuous
 62
     3
100
AcDbCircle
 10
1998.87391
 20
304.217647
 30
0.0
 40
3.0
  0
LINE
  5
4A4
330
49F
100
AcDbEntity
  8
dxfile
  6
Continuous
 62
     3
100
AcDbLine
 10
1998.87391
 20
682.362021
 30
0.0
 11
1998.87391
 21
304.217647
 31
0.0
  0
LINE
  5
4A5
330
49F
100
AcDbEntity
  8
dxfile
  6
Continuous
 62
     3
100
AcDbLine
 10
2148.865245
 20
682.362021
 30
0.0
 11
1988.87391
 21
682.362021
 31
0.0
  0
TEXT
  5
4A6
330
49F
100
AcDbEntity
  8
dxfile
  6
Continuous
 62
     3
100
AcDbText
 10
1995.873861
 20
466.62223
 30
0.0
 40
15.0
  1
約１２００
 50
90.0
 41
0.858268
  7
BIGFONT
 72
     1
 11
1995.873861
 21
493.289834
 31
0.0
100
AcDbText
  0
ENDBLK
  5
4A1
330
49F
100
AcDbEntity
  8
0
100
AcDbBlockEnd
  0
BLOCK
  5
4AF
330
4AE
100
AcDbEntity
  8
0
100
AcDbBlockBegin
  2
DIM_8
 70
     0
 10
2215.919188
 20
816.612021
 30
0.0
  3
DIM_8
  1

  0
CIRCLE
  5
4B1
330
4AE
100
AcDbEntity
  8
dxfile
  6
Continuous
 62
     3
100
AcDbCircle
 10
2125.569188
 20
816.612021
 30
0.0
 40
1.8
  0
CIRCLE
  5
4B2
330
4AE
100
AcDbEntity
  8
dxfile
  6
Continuous
 62
     3
100
AcDbCircle
 10
2125.569188
 20
656.612021
 30
0.0
 40
1.8
  0
LINE
  5
4B3
330
4AE
100
AcDbEntity
  8
dxfile
  6
Continuous
 62
     3
100
AcDbLine
 10
2125.569188
 20
816.612021
 30
0.0
 11
2125.569188
 21
656.612021
 31
0.0
  0
LINE
  5
4B4
330
4AE
100
AcDbEntity
  8
dxfile
  6
Continuous
 62
     3
100
AcDbLine
 10
2215.919188
 20
816.612021
 30
0.0
 11
2125.069188
 21
816.612021
 31
0.0
  0
LINE
  5
4B5
330
4AE
100
AcDbEntity
  8
dxfile
  6
Continuous
 62
     3
100
AcDbLine
 10
2215.919188
 20
656.612021
 30
0.0
 11
2125.069188
 21
656.612021
 31
0.0
  0
TEXT
  5
4B6
330
4AE
100
AcDbEntity
  8
dxfile
  6
Continuous
 62
     3
100
AcDbText
 10
2123.375491
 20
729.229829
 30
0.0
 40
15.0
  1
３２０
 50
90.000003
 41
0.750092
  7
BIGFONT
100
AcDbText
  0
ENDBLK
  5
4B0
330
4AE
100
AcDbEntity
  8
0
100
AcDbBlockEnd
  0
BLOCK
  5
4B9
330
4B8
100
AcDbEntity
  8
0
100
AcDbBlockBegin
  2
DIM_9
 70
     0
 10
2260.734695
 20
661.612021
 30
0.0
  3
DIM_9
  1

  0
CIRCLE
  5
4BB
330
4B8
100
AcDbEntity
  8
dxfile
  6
Continuous
 62
     3
100
AcDbCircle
 10
2317.45285
 20
661.612021
 30
0.0
 40
1.8
  0
CIRCLE
  5
4BC
330
4B8
100
AcDbEntity
  8
dxfile
  6
Continuous
 62
     3
100
AcDbCircle
 10
2317.45285
 20
811.612021
 30
0.0
 40
1.8
  0
LINE
  5
4BD
330
4B8
100
AcDbEntity
  8
dxfile
  6
Continuous
 62
     3
100
AcDbLine
 10
2317.45285
 20
661.612021
 30
0.0
 11
2317.45285
 21
811.612021
 31
0.0
  0
LINE
  5
4BE
330
4B8
100
AcDbEntity
  8
dxfile
  6
Continuous
 62
     3
100
AcDbLine
 10
2260.734695
 20
661.612021
 30
0.0
 11
2322.45285
 21
661.612021
 31
0.0
  0
LINE
  5
4BF
330
4B8
100
AcDbEntity
  8
dxfile
  6
Continuous
 62
     3
100
AcDbLine
 10
2260.734695
 20
811.612021
 30
0.0
 11
2322.45285
 21
811.612021
 31
0.0
  0
TEXT
  5
4C0
330
4B8
100
AcDbEntity
  8
dxfile
  6
Continuous
 62
     3
100
AcDbText
 10
2315.907717
 20
719.513259
 30
0.0
 40
15.0
  1
３００
 50
90.000003
 41
0.750092
  7
BIGFONT
100
AcDbText
  0
ENDBLK
  5
4BA
330
4B8
100
AcDbEntity
  8
0
100
AcDbBlockEnd
  0
BLOCK
  5
4C3
330
4C2
100
AcDbEntity
  8
0
100
AcDbBlockBegin
  2
DIM_10
 70
     0
 10
2220.305654
 20
650.768131
 30
0.0
  3
DIM_10
  1

  0
CIRCLE
  5
4C5
330
4C2
100
AcDbEntity
  8
dxfile
  6
Continuous
 62
     3
100
AcDbCircle
 10
2220.305654
 20
576.268131
 30
0.0
 40
1.8
  0
CIRCLE
  5
4C6
330
4C2
100
AcDbEntity
  8
dxfile
  6
Continuous
 62
     3
100
AcDbCircle
 10
2222.805654
 20
576.268131
 30
0.0
 40
1.8
  0
LINE
  5
4C7
330
4C2
100
AcDbEntity
  8
dxfile
  6
Continuous
 62
     3
100
AcDbLine
 10
2220.305654
 20
576.268131
 30
0.0
 11
2222.805654
 21
576.268131
 31
0.0
  0
LINE
  5
4C8
330
4C2
100
AcDbEntity
  8
dxfile
  6
Continuous
 62
     3
100
AcDbLine
 10
2220.305654
 20
650.768131
 30
0.0
 11
2220.305654
 21
575.768131
 31
0.0
  0
TEXT
  5
4C9
330
4C2
100
AcDbEntity
  8
dxfile
  6
Continuous
 62
     3
100
AcDbText
 10
2207.594095
 20
570.230973
 30
0.0
 40
15.0
  1
５
 41
0.858268
  7
BIGFONT
 72
     1
 11
2212.191957
 21
577.730973
 31
0.0
100
AcDbText
 73
     2
  0
ENDBLK
  5
4C4
330
4C2
100
AcDbEntity
  8
0
100
AcDbBlockEnd
  0
BLOCK
  5
4CC
330
4CB
100
AcDbEntity
  8
0
100
AcDbBlockBegin
  2
DIM_11
 70
     0
 10
2257.805654
 20
655.768131
 30
0.0
  3
DIM_11
  1

  0
CIRCLE
  5
4CE
330
4CB
100
AcDbEntity
  8
dxfile
  6
Continuous
 62
     3
100
AcDbCircle
 10
2257.805654
 20
576.268131
 30
0.0
 40
1.8
  0
CIRCLE
  5
4CF
330
4CB
100
AcDbEntity
  8
dxfile
  6
Continuous
 62
     3
100
AcDbCircle
 10
2222.805654
 20
576.268131
 30
0.0
 40
1.8
  0
LINE
  5
4D0
330
4CB
100
AcDbEntity
  8
dxfile
  6
Continuous
 62
     3
100
AcDbLine
 10
2257.805654
 20
576.268131
 30
0.0
 11
2222.805654
 21
576.268131
 31
0.0
  0
LINE
  5
4D1
330
4CB
100
AcDbEntity
  8
dxfile
  6
Continuous
 62
     3
100
AcDbLine
 10
2257.805654
 20
655.768131
 30
0.0
 11
2257.805654
 21
575.768131
 31
0.0
  0
TEXT
  5
4D2
330
4CB
100
AcDbEntity
  8
dxfile
  6
Continuous
 62
     3
100
AcDbText
 10
2231.884606
 20
579.109249
 30
0.0
 40
15.0
  1
７０
 41
0.777136
  7
BIGFONT
100
AcDbText
  0
ENDBLK
  5
4CD
330
4CB
100
AcDbEntity
  8
0
100
AcDbBlockEnd
  0
BLOCK
  5
4D5
330
4D4
100
AcDbEntity
  8
0
100
AcDbBlockBegin
  2
DIM_12
 70
     0
 10
2351.758706
 20
653.391476
 30
0.0
  3
DIM_12
  1

  0
CIRCLE
  5
4D7
330
4D4
100
AcDbEntity
  8
dxfile
  6
Continuous
 62
     3
100
AcDbCircle
 10
2351.758706
 20
581.612021
 30
0.0
 40
1.8
  0
CIRCLE
  5
4D8
330
4D4
100
AcDbEntity
  8
dxfile
  6
Continuous
 62
     3
100
AcDbCircle
 10
2416.758706
 20
581.612021
 30
0.0
 40
1.8
  0
LINE
  5
4D9
330
4D4
100
AcDbEntity
  8
dxfile
  6
Continuous
 62
     3
100
AcDbLine
 10
2351.758706
 20
581.612021
 30
0.0
 11
2416.758706
 21
581.612021
 31
0.0
  0
LINE
  5
4DA
330
4D4
100
AcDbEntity
  8
dxfile
  6
Continuous
 62
     3
100
AcDbLine
 10
2351.758706
 20
653.391476
 30
0.0
 11
2351.758706
 21
576.612021
 31
0.0
  0
LINE
  5
4DB
330
4D4
100
AcDbEntity
  8
dxfile
  6
Continuous
 62
     3
100
AcDbLine
 10
2416.758706
 20
653.391476
 30
0.0
 11
2416.758706
 21
576.612021
 31
0.0
  0
TEXT
  5
4DC
330
4D4
100
AcDbEntity
  8
dxfile
  6
Continuous
 62
     3
100
AcDbText
 10
2365.864233
 20
582.509819
 30
0.0
 40
15.0
  1
１３０
 41
0.750092
  7
BIGFONT
100
AcDbText
  0
ENDBLK
  5
4D6
330
4D4
100
AcDbEntity
  8
0
100
AcDbBlockEnd
  0
BLOCK
  5
534
330
533
100
AcDbEntity
  8
0
100
AcDbBlockBegin
  2
DIM_13
 70
     0
 10
2356.758706
 20
818.956485
 30
0.0
  3
DIM_13
  1

  0
CIRCLE
  5
536
330
533
100
AcDbEntity
  8
dxfile
  6
Continuous
 62
     3
100
AcDbCircle
 10
2356.758706
 20
893.188275
 30
0.0
 40
3.0
  0
CIRCLE
  5
537
330
533
100
AcDbEntity
  8
dxfile
  6
Continuous
 62
     3
100
AcDbCircle
 10
2411.758706
 20
893.188275
 30
0.0
 40
3.0
  0
LINE
  5
538
330
533
100
AcDbEntity
  8
dxfile
  6
Continuous
 62
     3
100
AcDbLine
 10
2356.758706
 20
893.188275
 30
0.0
 11
2411.758706
 21
893.188275
 31
0.0
  0
LINE
  5
539
330
533
100
AcDbEntity
  8
dxfile
  6
Continuous
 62
     3
100
AcDbLine
 10
2356.758706
 20
818.956485
 30
0.0
 11
2356.758706
 21
898.188275
 31
0.0
  0
LINE
  5
53A
330
533
100
AcDbEntity
  8
dxfile
  6
Continuous
 62
     3
100
AcDbLine
 10
2411.758706
 20
818.179189
 30
0.0
 11
2411.758706
 21
898.188275
 31
0.0
  0
TEXT
  5
53B
330
533
100
AcDbEntity
  8
dxfile
  6
Continuous
 62
     3
100
AcDbText
 10
2378.575364
 20
900.352052
 30
0.0
 40
15.0
  1
１１０
 41
0.858268
 51
0.0
  7
BIGFONT
 72
     1
 11
2394.208098
 21
907.852052
 31
0.0
100
AcDbText
 73
     2
  0
ENDBLK
  5
535
330
533
100
AcDbEntity
  8
0
100
AcDbBlockEnd
  0
BLOCK
  5
53E
330
53D
100
AcDbEntity
  8
0
100
AcDbBlockBegin
  2
DIM_14
 70
     0
 10
2356.758706
 20
854.712112
 30
0.0
  3
DIM_14
  1

  0
CIRCLE
  5
540
330
53D
100
AcDbEntity
  8
dxfile
  6
Continuous
 62
     3
100
AcDbCircle
 10
2356.758706
 20
853.934815
 30
0.0
 40
3.0
  0
CIRCLE
  5
541
330
53D
100
AcDbEntity
  8
dxfile
  6
Continuous
 62
     3
100
AcDbCircle
 10
2369.258706
 20
853.934815
 30
0.0
 40
3.0
  0
LINE
  5
542
330
53D
100
AcDbEntity
  8
dxfile
  6
Continuous
 62
     3
100
AcDbLine
 10
2356.758706
 20
853.934815
 30
0.0
 11
2369.258706
 21
853.934815
 31
0.0
  0
LINE
  5
543
330
53D
100
AcDbEntity
  8
dxfile
  6
Continuous
 62
     3
100
AcDbLine
 10
2356.758706
 20
854.712112
 30
0.0
 11
2356.758706
 21
848.934815
 31
0.0
  0
LINE
  5
544
330
53D
100
AcDbEntity
  8
dxfile
  6
Continuous
 62
     3
100
AcDbLine
 10
2369.258706
 20
854.712112
 30
0.0
 11
2369.258706
 21
848.934815
 31
0.0
  0
TEXT
  5
545
330
53D
100
AcDbEntity
  8
dxfile
  6
Continuous
 62
     3
100
AcDbText
 10
2332.683707
 20
848.972772
 30
0.0
 40
15.0
  1
２５
 41
0.858268
 51
0.0
  7
BIGFONT
 72
     1
 11
2342.799005
 21
856.472772
 31
0.0
100
AcDbText
 73
     2
  0
ENDBLK
  5
53F
330
53D
100
AcDbEntity
  8
0
100
AcDbBlockEnd
  0
BLOCK
  5
551
330
550
100
AcDbEntity
  8
0
100
AcDbBlockBegin
  2
DIM_15
 70
     0
 10
2243.805654
 20
873.015861
 30
0.0
  3
DIM_15
  1

  0
CIRCLE
  5
553
330
550
100
AcDbEntity
  8
dxfile
  6
Continuous
 62
     3
100
AcDbCircle
 10
2243.805654
 20
868.663006
 30
0.0
 40
3.0
  0
CIRCLE
  5
554
330
550
100
AcDbEntity
  8
dxfile
  6
Continuous
 62
     3
100
AcDbCircle
 10
2257.805654
 20
868.663006
 30
0.0
 40
3.0
  0
LINE
  5
555
330
550
100
AcDbEntity
  8
dxfile
  6
Continuous
 62
     3
100
AcDbLine
 10
2243.805654
 20
868.663006
 30
0.0
 11
2257.805654
 21
868.663006
 31
0.0
  0
LINE
  5
556
330
550
100
AcDbEntity
  8
dxfile
  6
Continuous
 62
     3
100
AcDbLine
 10
2243.805654
 20
873.015861
 30
0.0
 11
2243.805654
 21
863.663006
 31
0.0
  0
LINE
  5
557
330
550
100
AcDbEntity
  8
dxfile
  6
Continuous
 62
     3
100
AcDbLine
 10
2257.805654
 20
816.11783
 30
0.0
 11
2257.805654
 21
873.663006
 31
0.0
  0
TEXT
  5
558
330
550
100
AcDbEntity
  8
dxfile
  6
Continuous
 62
     3
100
AcDbText
 10
2251.572493
 20
873.88354
 30
0.0
 40
15.0
  1
２８
 41
0.858268
 51
0.0
  7
BIGFONT
 72
     1
 11
2261.687791
 21
881.38354
 31
0.0
100
AcDbText
 73
     2
  0
ENDBLK
  5
552
330
550
100
AcDbEntity
  8
0
100
AcDbBlockEnd
  0
BLOCK
  5
5FF
330
5FE
100
AcDbEntity
  8
0
100
AcDbBlockBegin
  2
DIM_16
 70
     0
 10
357.261101
 20
163.95106
 30
0.0
  3
DIM_16
  1

  0
CIRCLE
  5
601
330
5FE
100
AcDbEntity
  8
dxfile
  6
Continuous
 62
     3
100
AcDbCircle
 10
357.261101
 20
162.785119
 30
0.0
 40
3.0
  0
CIRCLE
  5
602
330
5FE
100
AcDbEntity
  8
dxfile
  6
Continuous
 62
     3
100
AcDbCircle
 10
417.261101
 20
162.785119
 30
0.0
 40
3.0
  0
LINE
  5
603
330
5FE
100
AcDbEntity
  8
dxfile
  6
Continuous
 62
     3
100
AcDbLine
 10
357.261101
 20
162.785119
 30
0.0
 11
417.261101
 21
162.785119
 31
0.0
  0
LINE
  5
604
330
5FE
100
AcDbEntity
  8
dxfile
  6
Continuous
 62
     3
100
AcDbLine
 10
357.261101
 20
163.95106
 30
0.0
 11
357.261101
 21
156.785119
 31
0.0
  0
LINE
  5
605
330
5FE
100
AcDbEntity
  8
dxfile
  6
Continuous
 62
     3
100
AcDbLine
 10
417.261101
 20
165.699971
 30
0.0
 11
417.261101
 21
156.785119
 31
0.0
  0
TEXT
  5
606
330
5FE
100
AcDbEntity
  8
dxfile
  6
Continuous
 62
     3
100
AcDbText
 10
375.122743
 20
165.785119
 30
0.0
 40
18.0
  1
６０
 41
0.858268
 51
0.0
  7
BIGFONT
 72
     1
 11
387.261101
 21
165.785119
 31
0.0
100
AcDbText
  0
ENDBLK
  5
600
330
5FE
100
AcDbEntity
  8
0
100
AcDbBlockEnd
  0
BLOCK
  5
61D
330
61C
100
AcDbEntity
  8
0
100
AcDbBlockBegin
  2
DIM_17
 70
     0
 10
357.261101
 20
202.571717
 30
0.0
  3
DIM_17
  1

  0
CIRCLE
  5
61F
330
61C
100
AcDbEntity
  8
dxfile
  6
Continuous
 62
     3
100
AcDbCircle
 10
357.261101
 20
218.523696
 30
0.0
 40
3.0
  0
CIRCLE
  5
620
330
61C
100
AcDbEntity
  8
dxfile
  6
Continuous
 62
     3
100
AcDbCircle
 10
1327.261101
 20
218.523696
 30
0.0
 40
3.0
  0
LINE
  5
621
330
61C
100
AcDbEntity
  8
dxfile
  6
Continuous
 62
     3
100
AcDbLine
 10
357.261101
 20
218.523696
 30
0.0
 11
1327.261101
 21
218.523696
 31
0.0
  0
LINE
  5
622
330
61C
100
AcDbEntity
  8
dxfile
  6
Continuous
 62
     3
100
AcDbLine
 10
357.261101
 20
202.571717
 30
0.0
 11
357.261101
 21
224.523696
 31
0.0
  0
LINE
  5
623
330
61C
100
AcDbEntity
  8
dxfile
  6
Continuous
 62
     3
100
AcDbLine
 10
1327.261101
 20
204.848945
 30
0.0
 11
1327.261101
 21
224.523696
 31
0.0
  0
TEXT
  5
624
330
61C
100
AcDbEntity
  8
dxfile
  6
Continuous
 62
     3
100
AcDbText
 10
828.123807
 20
223.272607
 30
0.0
 40
18.0
  1
Ｊ　躯体内径
 41
0.858268
  7
BIGFONT
 72
     1
 11
866.745854
 21
232.272607
 31
0.0
100
AcDbText
 73
     2
  0
ENDBLK
  5
61E
330
61C
100
AcDbEntity
  8
0
100
AcDbBlockEnd
  0
BLOCK
  5
627
330
626
100
AcDbEntity
  8
0
100
AcDbBlockBegin
  2
DIM_18
 70
     0
 10
242.232221
 20
386.987565
 30
0.0
  3
DIM_18
  1

  0
CIRCLE
  5
629
330
626
100
AcDbEntity
  8
dxfile
  6
Continuous
 62
     3
100
AcDbCircle
 10
242.232221
 20
313.884559
 30
0.0
 40
2.4
  0
CIRCLE
  5
62A
330
626
100
AcDbEntity
  8
dxfile
  6
Continuous
 62
     3
100
AcDbCircle
 10
257.261101
 20
313.884559
 30
0.0
 40
2.4
  0
LINE
  5
62B
330
626
100
AcDbEntity
  8
dxfile
  6
Continuous
 62
     3
100
AcDbLine
 10
242.232221
 20
313.884559
 30
0.0
 11
257.261101
 21
313.884559
 31
0.0
  0
LINE
  5
62C
330
626
100
AcDbEntity
  8
dxfile
  6
Continuous
 62
     3
100
AcDbLine
 10
242.232221
 20
386.987565
 30
0.0
 11
242.232221
 21
307.884559
 31
0.0
  0
LINE
  5
62D
330
626
100
AcDbEntity
  8
dxfile
  6
Continuous
 62
     3
100
AcDbLine
 10
257.261101
 20
223.078332
 30
0.0
 11
257.261101
 21
319.884559
 31
0.0
  0
TEXT
  5
62E
330
626
100
AcDbEntity
  8
dxfile
  6
Continuous
 62
     3
100
AcDbText
 10
217.820565
 20
313.496312
 30
0.0
 40
18.0
  1
１５
 41
0.733819
  7
BIGFONT
 72
     1
 11
228.198861
 21
322.496312
 31
0.0
100
AcDbText
 73
     2
  0
ENDBLK
  5
628
330
626
100
AcDbEntity
  8
0
100
AcDbBlockEnd
  0
BLOCK
  5
631
330
630
100
AcDbEntity
  8
0
100
AcDbBlockBegin
  2
DIM_19
 70
     0
 10
1442.289982
 20
386.987565
 30
0.0
  3
DIM_19
  1

  0
CIRCLE
  5
633
330
630
100
AcDbEntity
  8
dxfile
  6
Continuous
 62
     3
100
AcDbCircle
 10
1442.289982
 20
313.884559
 30
0.0
 40
2.4
  0
CIRCLE
  5
634
330
630
100
AcDbEntity
  8
dxfile
  6
Continuous
 62
     3
100
AcDbCircle
 10
1427.261101
 20
313.884559
 30
0.0
 40
2.4
  0
LINE
  5
635
330
630
100
AcDbEntity
  8
dxfile
  6
Continuous
 62
     3
100
AcDbLine
 10
1442.289982
 20
313.884559
 30
0.0
 11
1427.261101
 21
313.884559
 31
0.0
  0
LINE
  5
636
330
630
100
AcDbEntity
  8
dxfile
  6
Continuous
 62
     3
100
AcDbLine
 10
1442.289982
 20
386.987565
 30
0.0
 11
1442.289982
 21
307.884559
 31
0.0
  0
LINE
  5
637
330
630
100
AcDbEntity
  8
dxfile
  6
Continuous
 62
     3
100
AcDbLine
 10
1427.261101
 20
223.078332
 30
0.0
 11
1427.261101
 21
319.884559
 31
0.0
  0
TEXT
  5
638
330
630
100
AcDbEntity
  8
dxfile
  6
Continuous
 62
     3
100
AcDbText
 10
1445.945045
 20
313.496312
 30
0.0
 40
18.0
  1
１５
 41
0.733819
  7
BIGFONT
 72
     1
 11
1456.323341
 21
322.496312
 31
0.0
100
AcDbText
 73
     2
  0
ENDBLK
  5
632
330
630
100
AcDbEntity
  8
0
100
AcDbBlockEnd
  0
ENDSEC
  0
SECTION
  2
ENTITIES
  0
LINE
  5
4F
330
1F
100
AcDbEntity
  8
dxfile
  6
PLine2
 62
     3
100
AcDbLine
 10
426.666267
 20
580.118088
 30
0.0
 11
426.666267
 21
516.830305
 31
0.0
  0
LINE
  5
50
330
1F
100
AcDbEntity
  8
dxfile
  6
Continuous
 62
     3
100
AcDbLine
 10
426.666267
 20
516.830305
 30
0.0
 11
426.666267
 21
512.235307
 31
0.0
  0
LINE
  5
51
330
1F
100
AcDbEntity
  8
dxfile
  6
PLine2
 62
     3
100
AcDbLine
 10
426.666267
 20
557.750289
 30
0.0
 11
426.666267
 21
579.01628
 31
0.0
  0
LINE
  5
52
330
1F
100
AcDbEntity
  8
dxfile
  6
PLine2
 62
     3
100
AcDbLine
 10
365.217292
 20
546.718293
 30
0.0
 11
470.21625
 21
546.719293
 31
0.0
  0
LINE
  5
53
330
1F
100
AcDbEntity
  8
dxfile
  6
PLine2
 62
     3
100
AcDbLine
 10
391.873281
 20
555.896289
 30
0.0
 11
391.873281
 21
568.356284
 31
0.0
  0
LINE
  5
54
330
1F
100
AcDbEntity
  8
dxfile
  6
PLine2
 62
     3
100
AcDbLine
 10
391.888281
 20
555.51829
 30
0.0
 11
391.888281
 21
523.278302
 31
0.0
  0
LINE
  5
55
330
1F
100
AcDbEntity
  8
dxfile
  6
Continuous
 62
     3
100
AcDbLine
 10
398.387275
 20
664.461703
 30
0.0
 11
398.387275
 21
656.460706
 31
0.0
  0
LINE
  5
56
330
1F
100
AcDbEntity
  8
dxfile
  6
PLine2
 62
     3
100
AcDbLine
 10
383.079285
 20
466.251325
 30
0.0
 11
438.079263
 21
466.251325
 31
0.0
  0
LINE
  5
57
330
1F
100
AcDbEntity
  8
dxfile
  6
Continuous
 62
     3
100
AcDbLine
 10
1300.179368
 20
467.628725
 30
0.0
 11
1300.179368
 21
513.31524
 31
0.0
  0
LINE
  5
58
330
1F
100
AcDbEntity
  8
dxfile
  6
Continuous
 62
     3
100
AcDbLine
 10
1300.179368
 20
234.45646
 30
0.0
 11
1300.179368
 21
135.260664
 31
0.0
  0
TEXT
  5
59
330
1F
100
AcDbEntity
  8
dxfile
  6
Continuous
 62
     3
100
AcDbText
 10
163.207274
 20
873.172359
 30
0.0
 40
18.0
  1
Ｈ
 50
90.000003
 41
0.858268
  7
BIGFONT
100
AcDbText
  0
TEXT
  5
7C
330
1F
100
AcDbEntity
  8
dxfile
  6
Continuous
 62
     3
100
AcDbText
 10
694.797675
 20
901.019127
 30
0.0
 40
18.0
  1
Ａ
 41
0.858268
  7
BIGFONT
100
AcDbText
  0
TEXT
  5
7D
330
1F
100
AcDbEntity
  8
dxfile
  6
Continuous
 62
     3
100
AcDbText
 10
818.393042
 20
317.442615
 30
0.0
 40
18.0
  1
Ｓ
 41
0.858268
  7
BIGFONT
100
AcDbText
  0
TEXT
  5
7E
330
1F
100
AcDbEntity
  8
dxfile
  6
Continuous
 62
     3
100
AcDbText
 10
819.389201
 20
119.856806
 30
0.0
 40
18.0
  1
Ｗ
 41
0.858268
  7
BIGFONT
100
AcDbText
  0
LINE
  5
7F
330
1F
100
AcDbEntity
  8
dxfile
  6
Continuous
 62
     2
100
AcDbLine
 10
117.306281
 20
1646.625014
 30
0.0
 11
117.306281
 21
1542.081014
 31
0.0
  0
TEXT
  5
80
330
1F
100
AcDbEntity
  8
dxfile
  6
Continuous
 62
     3
100
AcDbText
 10
116.97087
 20
1599.71919
 30
0.0
 40
16.8
  1
　ＬＭ－　６００ＡＬ－Ｐ
 41
0.858268
  7
BIGFONT
100
AcDbText
  0
TEXT
  5
81
330
1F
100
AcDbEntity
  8
dxfile
  6
Continuous
 62
     3
100
AcDbText
 10
131.267356
 20
1572.543929
 30
0.0
 40
16.8
  1
ＬＭ－　９００ＡＬ－Ｐ
 41
0.858268
  7
BIGFONT
100
AcDbText
  0
TEXT
  5
82
330
1F
100
AcDbEntity
  8
dxfile
  6
Continuous
 62
     3
100
AcDbText
 10
131.287374
 20
1545.760498
 30
0.0
 40
16.8
  1
ＬＭ－１３００ＡＬ－Ｐ
 41
0.858268
  7
BIGFONT
100
AcDbText
  0
TEXT
  5
83
330
1F
100
AcDbEntity
  8
dxfile
  6
Continuous
 62
     3
100
AcDbText
 10
146.343404
 20
1637.836254
 30
0.0
 40
16.8
  1
型
 41
0.858268
  7
BIGFONT
100
AcDbText
  0
TEXT
  5
84
330
1F
100
AcDbEntity
  8
dxfile
  6
Continuous
 62
     3
100
AcDbText
 10
243.249486
 20
1637.836254
 30
0.0
 40
16.8
  1
式
 41
0.858268
  7
BIGFONT
100
AcDbText
  0
TEXT
  5
85
330
1F
100
AcDbEntity
  8
dxfile
  6
Continuous
 62
     3
100
AcDbText
 10
719.735541
 20
900.941127
 30
0.0
 40
18.0
  1
ト゛ーム寸法
 41
0.858268
  7
BIGFONT
100
AcDbText
  0
TEXT
  5
86
330
1F
100
AcDbEntity
  8
dxfile
  6
Continuous
 62
     3
100
AcDbText
 10
851.349554
 20
317.442615
 30
0.0
 40
18.0
  1
有効開口
 41
0.858268
  7
BIGFONT
100
AcDbText
  0
TEXT
  5
87
330
1F
100
AcDbEntity
  8
dxfile
  6
Continuous
 62
     3
100
AcDbText
 10
848.427257
 20
117.896366
 30
0.0
 40
18.0
  1
ヘ゛ース外径
 41
0.858268
  7
BIGFONT
100
AcDbText
  0
LINE
  5
88
330
1F
100
AcDbEntity
  8
dxfile
  6
Continuous
 62
     2
100
AcDbLine
 10
296.874507
 20
1646.625014
 30
0.0
 11
296.874507
 21
1542.081014
 31
0.0
  0
LINE
  5
89
330
1F
100
AcDbEntity
  8
dxfile
  6
Continuous
 62
     3
100
AcDbLine
 10
373.674507
 20
1646.625014
 30
0.0
 11
373.674507
 21
1542.081014
 31
0.0
  0
LINE
  5
8A
330
1F
100
AcDbEntity
  8
dxfile
  6
Continuous
 62
     3
100
AcDbLine
 10
450.474507
 20
1646.625014
 30
0.0
 11
450.474507
 21
1542.081014
 31
0.0
  0
LINE
  5
8B
330
1F
100
AcDbEntity
  8
dxfile
  6
Continuous
 62
     3
100
AcDbLine
 10
527.274507
 20
1646.625014
 30
0.0
 11
527.274507
 21
1542.081014
 31
0.0
  0
LINE
  5
8C
330
1F
100
AcDbEntity
  8
dxfile
  6
Continuous
 62
     3
100
AcDbLine
 10
680.874507
 20
1646.625014
 30
0.0
 11
680.874507
 21
1542.081014
 31
0.0
  0
TEXT
  5
8D
330
1F
100
AcDbEntity
  8
dxfile
  6
Continuous
 62
     3
100
AcDbText
 10
328.218918
 20
1624.615964
 30
0.0
 40
16.8
  1
Ａ
 41
0.858268
  7
BIGFONT
100
AcDbText
  0
TEXT
  5
8E
330
1F
100
AcDbEntity
  8
dxfile
  6
Continuous
 62
     3
100
AcDbText
 10
405.180049
 20
1623.94514
 30
0.0
 40
16.8
  1
Ｗ
 41
0.858268
  7
BIGFONT
100
AcDbText
  0
TEXT
  5
8F
330
1F
100
AcDbEntity
  8
dxfile
  6
Continuous
 62
     3
100
AcDbText
 10
482.447626
 20
1624.615964
 30
0.0
 40
16.8
  1
Ｓ
 41
0.858268
  7
BIGFONT
100
AcDbText
  0
TEXT
  5
90
330
1F
100
AcDbEntity
  8
dxfile
  6
Continuous
 62
     3
100
AcDbText
 10
634.807494
 20
1624.845654
 30
0.0
 40
16.8
  1
Ｈ
 41
0.858268
  7
BIGFONT
100
AcDbText
  0
TEXT
  5
91
330
1F
100
AcDbEntity
  8
dxfile
  6
Continuous
 62
     3
100
AcDbText
 10
768.564959
 20
1637.935057
 30
0.0
 40
16.8
  1
排煙面積
 41
0.858268
  7
BIGFONT
100
AcDbText
  0
TEXT
  5
92
330
1F
100
AcDbEntity
  8
dxfile
  6
Continuous
 62
     3
100
AcDbText
 10
321.319354
 20
1599.71919
 30
0.0
 40
16.8
  1
６００
 41
0.858268
  7
BIGFONT
100
AcDbText
  0
TEXT
  5
93
330
1F
100
AcDbEntity
  8
dxfile
  6
Continuous
 62
     3
100
AcDbText
 10
321.425266
 20
1572.906543
 30
0.0
 40
16.8
  1
９００
 41
0.858268
  7
BIGFONT
100
AcDbText
  0
TEXT
  5
94
330
1F
100
AcDbEntity
  8
dxfile
  6
Continuous
 62
     3
100
AcDbText
 10
306.091426
 20
1546.392649
 30
0.0
 40
16.8
  1
１３００
 41
0.858268
  7
BIGFONT
100
AcDbText
  0
TEXT
  5
95
330
1F
100
AcDbEntity
  8
dxfile
  6
Continuous
 62
     3
100
AcDbText
 10
398.133567
 20
1598.052927
 30
0.0
 40
16.8
  1
８７０
 41
0.858268
  7
BIGFONT
100
AcDbText
  0
TEXT
  5
96
330
1F
100
AcDbEntity
  8
dxfile
  6
Continuous
 62
     3
100
AcDbText
 10
384.547431
 20
1572.372898
 30
0.0
 40
16.8
  1
１１７０
 41
0.858268
  7
BIGFONT
100
AcDbText
  0
TEXT
  5
97
330
1F
100
AcDbEntity
  8
dxfile
  6
Continuous
 62
     3
100
AcDbText
 10
384.514182
 20
1546.48779
 30
0.0
 40
16.8
  1
１５７０
 41
0.858268
  7
BIGFONT
100
AcDbText
  0
TEXT
  5
98
330
1F
100
AcDbEntity
  8
dxfile
  6
Continuous
 62
     3
100
AcDbText
 10
474.599583
 20
1599.059204
 30
0.0
 40
16.8
  1
５４０
 41
0.858268
  7
BIGFONT
100
AcDbText
  0
TEXT
  5
99
330
1F
100
AcDbEntity
  8
dxfile
  6
Continuous
 62
     3
100
AcDbText
 10
474.599583
 20
1573.736305
 30
0.0
 40
16.8
  1
８４０
 41
0.858268
  7
BIGFONT
100
AcDbText
  0
TEXT
  5
9A
330
1F
100
AcDbEntity
  8
dxfile
  6
Continuous
 62
     3
100
AcDbText
 10
461.108958
 20
1546.242726
 30
0.0
 40
16.8
  1
１２４０
 41
0.858268
  7
BIGFONT
100
AcDbText
  0
TEXT
  5
9B
330
1F
100
AcDbEntity
  8
dxfile
  6
Continuous
 62
     3
100
AcDbText
 10
621.881122
 20
1598.396214
 30
0.0
 40
16.8
  1
３００
 41
0.858268
  7
BIGFONT
100
AcDbText
  0
TEXT
  5
9C
330
1F
100
AcDbEntity
  8
dxfile
  6
Continuous
 62
     3
100
AcDbText
 10
621.881122
 20
1573.073314
 30
0.0
 40
16.8
  1
４５０
 41
0.858268
  7
BIGFONT
100
AcDbText
  0
TEXT
  5
9D
330
1F
100
AcDbEntity
  8
dxfile
  6
Continuous
 62
     3
100
AcDbText
 10
622.249095
 20
1547.057856
 30
0.0
 40
16.8
  1
６５０
 41
0.858268
  7
BIGFONT
100
AcDbText
  0
TEXT
  5
9E
330
1F
100
AcDbEntity
  8
dxfile
  6
Continuous
 62
     3
100
AcDbText
 10
776.497858
 20
1599.155737
 30
0.0
 40
16.8
  1
０．２９
 41
0.858268
  7
BIGFONT
100
AcDbText
  0
TEXT
  5
9F
330
1F
100
AcDbEntity
  8
dxfile
  6
Continuous
 62
     3
100
AcDbText
 10
776.545901
 20
1573.166991
 30
0.0
 40
16.8
  1
０．７
 41
0.858268
  7
BIGFONT
100
AcDbText
  0
TEXT
  5
A0
330
1F
100
AcDbEntity
  8
dxfile
  6
Continuous
 62
     3
100
AcDbText
 10
776.034087
 20
1547.002906
 30
0.0
 40
16.8
  1
１．５３７
 41
0.858268
  7
BIGFONT
100
AcDbText
  0
LINE
  5
A1
330
1F
100
AcDbEntity
  8
dxfile
  6
Continuous
 62
     2
100
AcDbLine
 10
296.874507
 20
1637.913014
 30
0.0
 11
296.874507
 21
1672.761014
 31
0.0
  0
TEXT
  5
A2
330
1F
100
AcDbEntity
  8
dxfile
  6
Continuous
 62
     3
100
AcDbText
 10
667.405393
 20
1647.214988
 30
0.0
 40
16.8
  1
ｍｍ
 41
0.858268
  7
BIGFONT
100
AcDbText
  0
TEXT
  5
A3
330
1F
100
AcDbEntity
  8
dxfile
  6
Continuous
 62
     2
100
AcDbText
 10
123.717991
 20
1678.57758
 30
0.0
 40
20.328
  1
ＬＭ－ＡＬ－Ｐ型寸法表
 41
0.858268
  7
BIGFONT
100
AcDbText
  0
LINE
  5
A4
330
1F
100
AcDbEntity
  8
dxfile
  6
Continuous
 62
     6
100
AcDbLine
 10
366.898095
 20
660.57535
 30
0.0
 11
381.724097
 21
675.401353
 31
0.0
  0
LINE
  5
A5
330
1F
100
AcDbEntity
  8
dxfile
  6
Continuous
 62
     6
100
AcDbLine
 10
371.856933
 20
660.57535
 30
0.0
 11
382.261101
 21
670.979518
 31
0.0
  0
LINE
  5
A6
330
1F
100
AcDbEntity
  8
dxfile
  6
Continuous
 62
     4
100
AcDbLine
 10
382.261101
 20
675.57535
 30
0.0
 11
382.261101
 21
660.57535
 31
0.0
  0
LINE
  5
A7
330
1F
100
AcDbEntity
  8
dxfile
  6
Continuous
 62
     6
100
AcDbLine
 10
362.261101
 20
660.618355
 30
0.0
 11
377.044099
 21
675.401353
 31
0.0
  0
LINE
  5
A8
330
1F
100
AcDbEntity
  8
dxfile
  6
Continuous
 62
     6
100
AcDbLine
 10
382.261101
 20
666.276352
 30
0.0
 11
373.136101
 21
675.401353
 31
0.0
  0
LINE
  5
A9
330
1F
100
AcDbEntity
  8
dxfile
  6
Continuous
 62
     4
100
AcDbLine
 10
362.261101
 20
675.57535
 30
0.0
 11
362.261101
 21
660.57535
 31
0.0
  0
LINE
  5
AA
330
1F
100
AcDbEntity
  8
dxfile
  6
Continuous
 62
     6
100
AcDbLine
 10
362.261101
 20
671.87435
 30
0.0
 11
365.788104
 21
675.401353
 31
0.0
  0
LINE
  5
AB
330
1F
100
AcDbEntity
  8
dxfile
  6
Continuous
 62
     6
100
AcDbLine
 10
387.261101
 20
679.199351
 30
0.0
 11
357.259853
 21
679.199351
 31
0.0
  0
LINE
  5
AC
330
1F
100
AcDbEntity
  8
dxfile
  6
Continuous
 62
     6
100
AcDbLine
 10
387.261101
 20
680.051364
 30
0.0
 11
357.260435
 21
680.050363
 31
0.0
  0
LINE
  5
AD
330
1F
100
AcDbEntity
  8
dxfile
  6
Continuous
 62
     6
100
AcDbLine
 10
387.261101
 20
679.559351
 30
0.0
 11
357.25882
 21
679.559351
 31
0.0
  0
LINE
  5
AE
330
1F
100
AcDbEntity
  8
dxfile
  6
Continuous
 62
     6
100
AcDbLine
 10
387.261101
 20
678.731331
 30
0.0
 11
357.259533
 21
678.731331
 31
0.0
  0
LINE
  5
AF
330
1F
100
AcDbEntity
  8
dxfile
  6
PLine2
 62
     3
100
AcDbLine
 10
372.261101
 20
653.169649
 30
0.0
 11
372.261101
 21
698.335343
 31
0.0
  0
LINE
  5
B0
330
1F
100
AcDbEntity
  8
dxfile
  6
Continuous
 62
     6
100
AcDbLine
 10
347.9613
 20
620.330264
 30
0.0
 11
356.261296
 21
620.330264
 31
0.0
  0
LINE
  5
B1
330
1F
100
AcDbEntity
  8
dxfile
  6
Continuous
 62
     6
100
AcDbLine
 10
346.9321
 20
619.330264
 30
0.0
 11
346.9321
 21
601.330271
 31
0.0
  0
ARC
  5
B2
330
1F
100
AcDbEntity
  8
dxfile
  6
Continuous
 62
     6
100
AcDbCircle
 10
347.9321
 20
601.330271
 30
0.0
 40
0.9999995999484885
100
AcDbArc
 50
180.0
 51
270.0
  0
LINE
  5
B3
330
1F
100
AcDbEntity
  8
dxfile
  6
Continuous
 62
     6
100
AcDbLine
 10
360.259294
 20
602.534006
 30
0.0
 11
360.259294
 21
598.16635
 31
0.0
  0
LINE
  5
B4
330
1F
100
AcDbEntity
  8
dxfile
  6
Continuous
 62
     6
100
AcDbLine
 10
357.030295
 20
608.088269
 30
0.0
 11
355.137296
 21
605.808269
 31
0.0
  0
LINE
  5
B5
330
1F
100
AcDbEntity
  8
dxfile
  6
Continuous
 62
     6
100
AcDbLine
 10
1302.260917
 20
627.255351
 30
0.0
 11
1302.260917
 21
618.330264
 31
0.0
  0
LINE
  5
B6
330
1F
100
AcDbEntity
  8
dxfile
  6
Continuous
 62
     6
100
AcDbLine
 10
1317.253911
 20
618.703264
 30
0.0
 11
1318.906911
 21
617.517265
 31
0.0
  0
LINE
  5
B7
330
1F
100
AcDbEntity
  8
dxfile
  6
Continuous
 62
     6
100
AcDbLine
 10
1318.413652
 20
614.398266
 30
0.0
 11
1324.190908
 21
614.398266
 31
0.0
  0
ARC
  5
B8
330
1F
100
AcDbEntity
  8
dxfile
  6
Continuous
 62
     6
100
AcDbCircle
 10
1311.084603
 20
615.129923
 30
0.0
 40
0.7329997066285692
100
AcDbArc
 50
268.0466
 51
320.864471
  0
LINE
  5
B9
330
1F
100
AcDbEntity
  8
dxfile
  6
Continuous
 62
     3
100
AcDbLine
 10
360.259294
 20
622.178263
 30
0.0
 11
360.259294
 21
630.575765
 31
0.0
  0
LINE
  5
BA
330
1F
100
AcDbEntity
  8
dxfile
  6
Continuous
 62
     3
100
AcDbLine
 10
366.450584
 20
614.398266
 30
0.0
 11
360.259294
 21
614.398266
 31
0.0
  0
LINE
  5
BB
330
1F
100
AcDbEntity
  8
dxfile
  6
Continuous
 62
     3
100
AcDbLine
 10
479.651246
 20
614.398266
 30
0.0
 11
372.882289
 21
614.398266
 31
0.0
  0
LINE
  5
BC
330
1F
100
AcDbEntity
  8
dxfile
  6
Continuous
 62
     3
100
AcDbLine
 10
612.906063
 20
614.398266
 30
0.0
 11
544.65522
 21
614.398266
 31
0.0
  0
LINE
  5
BD
330
1F
100
AcDbEntity
  8
dxfile
  6
Continuous
 62
     3
100
AcDbLine
 10
1221.427639
 20
614.398266
 30
0.0
 11
1299.190918
 21
614.398266
 31
0.0
  0
LINE
  5
BE
330
1F
100
AcDbEntity
  8
dxfile
  6
Continuous
 62
     3
100
AcDbLine
 10
1210.818985
 20
614.398266
 30
0.0
 11
644.761101
 21
614.398266
 31
0.0
  0
LINE
  5
BF
330
1F
100
AcDbEntity
  8
dxfile
  6
PLine2
 62
     3
100
AcDbLine
 10
1318.652333
 20
527.996715
 30
0.0
 11
1242.126941
 21
527.996715
 31
0.0
  0
LINE
  5
C0
330
1F
100
AcDbEntity
  8
dxfile
  6
Continuous
 62
     6
100
AcDbLine
 10
1311.128952
 20
614.398266
 30
0.0
 11
1300.190918
 21
614.398266
 31
0.0
  0
ARC
  5
C1
330
1F
100
AcDbEntity
  8
dxfile
  6
Continuous
 62
     6
100
AcDbCircle
 10
1300.190918
 20
615.398266
 30
0.0
 40
0.9999996003450863
100
AcDbArc
 50
180.0
 51
270.0
  0
ARC
  5
C2
330
1F
100
AcDbEntity
  8
dxfile
  6
Continuous
 62
     6
100
AcDbCircle
 10
1303.260917
 20
618.330264
 30
0.0
 40
0.9999995995463439
100
AcDbArc
 50
180.0
 51
270.0
  0
ARC
  5
C3
330
1F
100
AcDbEntity
  8
dxfile
  6
Continuous
 62
     6
100
AcDbCircle
 10
1303.260917
 20
627.255351
 30
0.0
 40
0.999999599609469
100
AcDbArc
 50
90.0
 51
180.0
  0
LINE
  5
C4
330
1F
100
AcDbEntity
  8
dxfile
  6
Continuous
 62
     6
100
AcDbLine
 10
1303.260917
 20
628.255351
 30
0.0
 11
1321.26091
 21
628.255351
 31
0.0
  0
ARC
  5
C5
330
1F
100
AcDbEntity
  8
dxfile
  6
Continuous
 62
     6
100
AcDbCircle
 10
1321.26091
 20
627.255351
 30
0.0
 40
0.9999995998461134
100
AcDbArc
 50
0.0
 51
90.0
  0
ARC
  5
C6
330
1F
100
AcDbEntity
  8
dxfile
  6
Continuous
 62
     6
100
AcDbCircle
 10
1324.190908
 20
615.398266
 30
0.0
 40
0.9999996006974301
100
AcDbArc
 50
270.0
 51
0.0
  0
LINE
  5
C7
330
1F
100
AcDbEntity
  8
dxfile
  6
Continuous
 62
     6
100
AcDbLine
 10
1322.260909
 20
627.255351
 30
0.0
 11
1322.260909
 21
618.330264
 31
0.0
  0
ARC
  5
C8
330
1F
100
AcDbEntity
  8
dxfile
  6
Continuous
 62
     6
100
AcDbCircle
 10
1321.26091
 20
618.330264
 30
0.0
 40
0.9999995999255173
100
AcDbArc
 50
270.0
 51
0.0
  0
LINE
  5
C9
330
1F
100
AcDbEntity
  8
dxfile
  6
Continuous
 62
     6
100
AcDbLine
 10
1319.48991
 20
617.330265
 30
0.0
 11
1321.26091
 21
617.330265
 31
0.0
  0
ARC
  5
CA
330
1F
100
AcDbEntity
  8
dxfile
  6
Continuous
 62
     6
100
AcDbCircle
 10
1319.48991
 20
618.330264
 30
0.0
 40
0.9999995979216302
100
AcDbArc
 50
234.355804
 51
270.0
  0
LINE
  5
CB
330
1F
100
AcDbEntity
  8
dxfile
  6
Continuous
 62
     6
100
AcDbLine
 10
1303.260917
 20
617.330265
 30
0.0
 11
1309.948914
 21
617.330265
 31
0.0
  0
ARC
  5
CC
330
1F
100
AcDbEntity
  8
dxfile
  6
Continuous
 62
     6
100
AcDbCircle
 10
1309.948914
 20
618.330264
 30
0.0
 40
0.9999995997146149
100
AcDbArc
 50
270.0
 51
304.691528
  0
LINE
  5
CD
330
1F
100
AcDbEntity
  8
dxfile
  6
Continuous
 62
     6
100
AcDbLine
 10
1299.190918
 20
629.57535
 30
0.0
 11
1299.190918
 21
615.398266
 31
0.0
  0
ARC
  5
CE
330
1F
100
AcDbEntity
  8
dxfile
  6
Continuous
 62
     6
100
AcDbCircle
 10
1300.190918
 20
629.57535
 30
0.0
 40
0.9999995999882809
100
AcDbArc
 50
90.0
 51
180.0
  0
LINE
  5
CF
330
1F
100
AcDbEntity
  8
dxfile
  6
Continuous
 62
     6
100
AcDbLine
 10
1325.190908
 20
615.398266
 30
0.0
 11
1325.190908
 21
629.57435
 31
0.0
  0
ARC
  5
D0
330
1F
100
AcDbEntity
  8
dxfile
  6
Continuous
 62
     6
100
AcDbCircle
 10
1324.190908
 20
629.57435
 30
0.0
 40
0.999999599395615
100
AcDbArc
 50
0.0
 51
90.0
  0
ARC
  5
D1
330
1F
100
AcDbEntity
  8
dxfile
  6
Continuous
 62
     6
100
AcDbCircle
 10
1314.762912
 20
615.706265
 30
0.0
 40
3.904998438061313
100
AcDbArc
 50
49.288895
 51
130.711105
  0
LINE
  5
D2
330
1F
100
AcDbEntity
  8
dxfile
  6
Continuous
 62
     6
100
AcDbLine
 10
1310.517914
 20
617.508265
 30
0.0
 11
1312.226913
 21
618.690264
 31
0.0
  0
ARC
  5
D3
330
1F
100
AcDbEntity
  8
dxfile
  6
Continuous
 62
     6
100
AcDbCircle
 10
1318.535089
 20
615.390865
 30
0.0
 40
0.9999995994802708
100
AcDbArc
 50
220.744156
 51
276.975051
  0
LINE
  5
D4
330
1F
100
AcDbEntity
  8
dxfile
  6
Continuous
 62
     6
100
AcDbLine
 10
407.717009
 20
660.57535
 30
0.0
 11
411.703273
 21
664.561615
 31
0.0
  0
LINE
  5
D5
330
1F
100
AcDbEntity
  8
dxfile
  6
Continuous
 62
     6
100
AcDbLine
 10
411.713007
 20
660.57535
 30
0.0
 11
415.699272
 21
664.561615
 31
0.0
  0
LINE
  5
D6
330
1F
100
AcDbEntity
  8
dxfile
  6
Continuous
 62
     6
100
AcDbLine
 10
415.925005
 20
660.57535
 30
0.0
 11
419.91127
 21
664.561615
 31
0.0
  0
LINE
  5
D7
330
1F
100
AcDbEntity
  8
dxfile
  6
Continuous
 62
     6
100
AcDbLine
 10
420.173004
 20
660.57535
 30
0.0
 11
424.159268
 21
664.561615
 31
0.0
  0
LINE
  5
D8
330
1F
100
AcDbEntity
  8
dxfile
  6
Continuous
 62
     6
100
AcDbLine
 10
427.387275
 20
663.037623
 30
0.0
 11
424.925002
 21
660.57535
 31
0.0
  0
LINE
  5
D9
330
1F
100
AcDbEntity
  8
dxfile
  6
Continuous
 62
     3
100
AcDbLine
 10
430.282266
 20
672.57535
 30
0.0
 11
430.282266
 21
671.37535
 31
0.0
  0
LINE
  5
DA
330
1F
100
AcDbEntity
  8
dxfile
  6
Continuous
 62
     6
100
AcDbLine
 10
377.978107
 20
660.57535
 30
0.0
 11
363.152105
 21
675.401353
 31
0.0
  0
LINE
  5
DB
330
1F
100
AcDbEntity
  8
dxfile
  6
Continuous
 62
     6
100
AcDbLine
 10
382.261101
 20
661.438406
 30
0.0
 11
368.300106
 21
675.401353
 31
0.0
  0
LINE
  5
DC
330
1F
100
AcDbEntity
  8
dxfile
  6
Continuous
 62
     6
100
AcDbLine
 10
382.261101
 20
671.26835
 30
0.0
 11
378.132099
 21
675.397353
 31
0.0
  0
ARC
  5
DD
330
1F
100
AcDbEntity
  8
dxfile
  6
Continuous
 62
     6
100
AcDbCircle
 10
356.261296
 20
619.330264
 30
0.0
 40
0.9999996001288206
100
AcDbArc
 50
0.0
 51
90.0
  0
ARC
  5
DE
330
1F
100
AcDbEntity
  8
dxfile
  6
Continuous
 62
     6
100
AcDbCircle
 10
347.9321
 20
619.330264
 30
0.0
 40
0.9999995999699524
100
AcDbArc
 50
90.0
 51
180.0
  0
ARC
  5
DF
330
1F
100
AcDbEntity
  8
dxfile
  6
Continuous
 62
     6
100
AcDbCircle
 10
344.861101
 20
622.258263
 30
0.0
 40
0.9999995998160581
100
AcDbArc
 50
90.0
 51
180.0
  0
LINE
  5
E0
330
1F
100
AcDbEntity
  8
dxfile
  6
Continuous
 62
     6
100
AcDbLine
 10
344.890301
 20
623.258262
 30
0.0
 11
359.259294
 21
623.258262
 31
0.0
  0
ARC
  5
E1
330
1F
100
AcDbEntity
  8
dxfile
  6
Continuous
 62
     6
100
AcDbCircle
 10
359.259294
 20
622.258263
 30
0.0
 40
0.9999996000158643
100
AcDbArc
 50
0.0
 51
90.0
  0
ARC
  5
E2
330
1F
100
AcDbEntity
  8
dxfile
  6
Continuous
 62
     6
100
AcDbCircle
 10
359.259294
 20
598.16635
 30
0.0
 40
0.9999995998689939
100
AcDbArc
 50
270.0
 51
0.0
  0
LINE
  5
E3
330
1F
100
AcDbEntity
  8
dxfile
  6
Continuous
 62
     6
100
AcDbLine
 10
357.261295
 20
619.330264
 30
0.0
 11
357.261295
 21
608.727268
 31
0.0
  0
ARC
  5
E4
330
1F
100
AcDbEntity
  8
dxfile
  6
Continuous
 62
     6
100
AcDbCircle
 10
356.261296
 20
608.727268
 30
0.0
 40
0.9999995998545261
100
AcDbArc
 50
320.275146
 51
0.0
  0
LINE
  5
E5
330
1F
100
AcDbEntity
  8
dxfile
  6
Continuous
 62
     6
100
AcDbLine
 10
347.9613
 20
600.330272
 30
0.0
 11
355.418296
 21
600.330272
 31
0.0
  0
ARC
  5
E6
330
1F
100
AcDbEntity
  8
dxfile
  6
Continuous
 62
     6
100
AcDbCircle
 10
355.418296
 20
600.830271
 30
0.0
 40
0.4999997999195839
100
AcDbArc
 50
270.0
 51
38.83852
  0
LINE
  5
E7
330
1F
100
AcDbEntity
  8
dxfile
  6
Continuous
 62
     6
100
AcDbLine
 10
355.110296
 20
602.009271
 30
0.0
 11
355.808296
 21
601.144271
 31
0.0
  0
ARC
  5
E8
330
1F
100
AcDbEntity
  8
dxfile
  6
Continuous
 62
     6
100
AcDbCircle
 10
357.445295
 20
603.89227
 30
0.0
 40
2.999998800073865
100
AcDbArc
 50
140.302032
 51
218.88353
  0
LINE
  5
E9
330
1F
100
AcDbEntity
  8
dxfile
  6
Continuous
 62
     6
100
AcDbLine
 10
360.259294
 20
622.258263
 30
0.0
 11
360.259294
 21
607.669392
 31
0.0
  0
ARC
  5
EA
330
1F
100
AcDbEntity
  8
dxfile
  6
Continuous
 62
     6
100
AcDbCircle
 10
360.179294
 20
602.507006
 30
0.0
 40
0.0829999676144737
100
AcDbArc
 50
22.833655
 51
153.434951
  0
CIRCLE
  5
EB
330
1F
100
AcDbEntity
  8
dxfile
  6
Continuous
 62
     3
100
AcDbCircle
 10
423.499373
 20
668.220255
 30
0.0
 40
0.3959998416000019
  0
CIRCLE
  5
EC
330
1F
100
AcDbEntity
  8
dxfile
  6
Continuous
 62
     3
100
AcDbCircle
 10
482.04535
 20
668.064255
 30
0.0
 40
0.3959998416000019
  0
CIRCLE
  5
ED
330
1F
100
AcDbEntity
  8
dxfile
  6
Continuous
 62
     3
100
AcDbCircle
 10
532.04533
 20
668.064255
 30
0.0
 40
0.3959998416000019
  0
CIRCLE
  5
EE
330
1F
100
AcDbEntity
  8
dxfile
  6
Continuous
 62
     3
100
AcDbCircle
 10
582.04531
 20
668.064255
 30
0.0
 40
0.3959998416000019
  0
CIRCLE
  5
EF
330
1F
100
AcDbEntity
  8
dxfile
  6
Continuous
 62
     3
100
AcDbCircle
 10
632.04529
 20
668.064255
 30
0.0
 40
0.3959998416000019
  0
CIRCLE
  5
F0
330
1F
100
AcDbEntity
  8
dxfile
  6
Continuous
 62
     3
100
AcDbCircle
 10
682.04527
 20
668.064255
 30
0.0
 40
0.3959998416000019
  0
CIRCLE
  5
F1
330
1F
100
AcDbEntity
  8
dxfile
  6
Continuous
 62
     3
100
AcDbCircle
 10
732.04525
 20
668.064255
 30
0.0
 40
0.3959998416000019
  0
CIRCLE
  5
F2
330
1F
100
AcDbEntity
  8
dxfile
  6
Continuous
 62
     3
100
AcDbCircle
 10
782.04423
 20
668.064255
 30
0.0
 40
0.3959998415999166
  0
CIRCLE
  5
F3
330
1F
100
AcDbEntity
  8
dxfile
  6
Continuous
 62
     3
100
AcDbCircle
 10
832.04521
 20
668.064255
 30
0.0
 40
0.3959998415999166
  0
CIRCLE
  5
F4
330
1F
100
AcDbEntity
  8
dxfile
  6
Continuous
 62
     3
100
AcDbCircle
 10
881.942229
 20
668.137601
 30
0.0
 40
0.3959998415999166
  0
CIRCLE
  5
F5
330
1F
100
AcDbEntity
  8
dxfile
  6
Continuous
 62
     3
100
AcDbCircle
 10
931.942209
 20
668.137601
 30
0.0
 40
0.3959998415999166
  0
CIRCLE
  5
F6
330
1F
100
AcDbEntity
  8
dxfile
  6
Continuous
 62
     3
100
AcDbCircle
 10
981.942189
 20
668.137601
 30
0.0
 40
0.3959998415999166
  0
CIRCLE
  5
F7
330
1F
100
AcDbEntity
  8
dxfile
  6
Continuous
 62
     3
100
AcDbCircle
 10
1031.942169
 20
668.137601
 30
0.0
 40
0.3959998415999166
  0
CIRCLE
  5
F8
330
1F
100
AcDbEntity
  8
dxfile
  6
Continuous
 62
     3
100
AcDbCircle
 10
1081.942149
 20
668.137601
 30
0.0
 40
0.3959998415999166
  0
CIRCLE
  5
F9
330
1F
100
AcDbEntity
  8
dxfile
  6
Continuous
 62
     3
100
AcDbCircle
 10
1131.942129
 20
668.137601
 30
0.0
 40
0.3959998415999166
  0
CIRCLE
  5
FA
330
1F
100
AcDbEntity
  8
dxfile
  6
Continuous
 62
     3
100
AcDbCircle
 10
1181.942109
 20
668.137601
 30
0.0
 40
0.3959998415999166
  0
CIRCLE
  5
FB
330
1F
100
AcDbEntity
  8
dxfile
  6
Continuous
 62
     3
100
AcDbCircle
 10
1232.074088
 20
668.071601
 30
0.0
 40
0.3959998415999166
  0
LINE
  5
FC
330
1F
100
AcDbEntity
  8
dxfile
  6
Continuous
 62
     3
100
AcDbLine
 10
409.261101
 20
481.3049
 30
0.0
 11
410.861101
 21
481.3049
 31
0.0
  0
LINE
  5
FD
330
1F
100
AcDbEntity
  8
dxfile
  6
Continuous
 62
     3
100
AcDbLine
 10
410.861101
 20
494.840313
 30
0.0
 11
410.861101
 21
481.3049
 31
0.0
  0
LINE
  5
FE
330
1F
100
AcDbEntity
  8
dxfile
  6
Continuous
 62
     3
100
AcDbLine
 10
479.007246
 20
584.956278
 30
0.0
 11
375.361101
 21
584.956278
 31
0.0
  0
ARC
  5
FF
330
1F
100
AcDbEntity
  8
dxfile
  6
Continuous
 62
     3
100
AcDbCircle
 10
479.007246
 20
583.956278
 30
0.0
 40
0.9999996002457258
100
AcDbArc
 50
0.0
 51
90.0
  0
ARC
  5
100
330
1F
100
AcDbEntity
  8
dxfile
  6
Continuous
 62
     3
100
AcDbCircle
 10
479.207246
 20
495.640313
 30
0.0
 40
0.7999999999935874
100
AcDbArc
 50
270.0
 51
0.0
  0
LINE
  5
101
330
1F
100
AcDbEntity
  8
dxfile
  6
Continuous
 62
     3
100
AcDbLine
 10
410.861101
 20
494.840313
 30
0.0
 11
479.207246
 21
494.840313
 31
0.0
  0
LINE
  5
102
330
1F
100
AcDbEntity
  8
dxfile
  6
Continuous
 62
     3
100
AcDbLine
 10
410.061101
 20
496.440313
 30
0.0
 11
478.407246
 21
496.440313
 31
0.0
  0
LINE
  5
103
330
1F
100
AcDbEntity
  8
dxfile
  6
Continuous
 62
     3
100
AcDbLine
 10
405.887275
 20
662.07535
 30
0.0
 11
390.887275
 21
662.07535
 31
0.0
  0
ARC
  5
104
330
1F
100
AcDbEntity
  8
dxfile
  6
Continuous
 62
     3
100
AcDbCircle
 10
406.687275
 20
673.27535
 30
0.0
 40
0.799999999720527
100
AcDbArc
 50
90.0
 51
180.0
  0
LINE
  5
105
330
1F
100
AcDbEntity
  8
dxfile
  6
Continuous
 62
     3
100
AcDbLine
 10
405.887275
 20
662.07535
 30
0.0
 11
405.887275
 21
673.27535
 31
0.0
  0
LINE
  5
106
330
1F
100
AcDbEntity
  8
dxfile
  6
Continuous
 62
     3
100
AcDbLine
 10
359.261101
 20
500.320312
 30
0.0
 11
359.261101
 21
451.128725
 31
0.0
  0
ARC
  5
107
330
1F
100
AcDbEntity
  8
dxfile
  6
Continuous
 62
     3
100
AcDbCircle
 10
360.261101
 20
500.128726
 30
0.0
 40
0.9999996001132652
100
AcDbArc
 50
90.0
 51
180.0
  0
ARC
  5
108
330
1F
100
AcDbEntity
  8
dxfile
  6
Continuous
 62
     3
100
AcDbCircle
 10
410.061101
 20
495.640313
 30
0.0
 40
0.8000000001505565
100
AcDbArc
 50
90.0
 51
180.0
  0
LINE
  5
109
330
1F
100
AcDbEntity
  8
dxfile
  6
Continuous
 62
     3
100
AcDbLine
 10
409.261101
 20
495.640313
 30
0.0
 11
409.261101
 21
435.450724
 31
0.0
  0
LINE
  5
10A
330
1F
100
AcDbEntity
  8
dxfile
  6
Continuous
 62
     3
100
AcDbLine
 10
353.261101
 20
477.619446
 30
0.0
 11
353.261101
 21
455.528725
 31
0.0
  0
ARC
  5
10B
330
1F
100
AcDbEntity
  8
dxfile
  6
Continuous
 62
     3
100
AcDbCircle
 10
243.261101
 20
429.128725
 30
0.0
 40
1.000000000037535
100
AcDbArc
 50
180.0
 51
270.0
  0
LINE
  5
10C
330
1F
100
AcDbEntity
  8
dxfile
  6
Continuous
 62
     3
100
AcDbLine
 10
243.261101
 20
428.128725
 30
0.0
 11
249.644337
 21
428.128725
 31
0.0
  0
ARC
  5
10D
330
1F
100
AcDbEntity
  8
dxfile
  6
Continuous
 62
     3
100
AcDbCircle
 10
249.644337
 20
426.128725
 30
0.0
 40
2.000000000020791
100
AcDbArc
 50
0.0
 51
90.0
  0
LINE
  5
10E
330
1F
100
AcDbEntity
  8
dxfile
  6
Continuous
 62
     3
100
AcDbLine
 10
254.761101
 20
427.122341
 30
0.0
 11
254.761101
 21
419.128725
 31
0.0
  0
ARC
  5
10F
330
1F
100
AcDbEntity
  8
dxfile
  6
Continuous
 62
     3
100
AcDbCircle
 10
355.261101
 20
574.981631
 30
0.0
 40
1.999999999974843
100
AcDbArc
 50
119.709379
 51
180.0
  0
LINE
  5
110
330
1F
100
AcDbEntity
  8
dxfile
  6
Continuous
 62
     3
100
AcDbLine
 10
353.261101
 20
574.981631
 30
0.0
 11
353.261101
 21
484.532328
 31
0.0
  0
LINE
  5
111
330
1F
100
AcDbEntity
  8
dxfile
  6
Continuous
 62
     3
100
AcDbLine
 10
364.511101
 20
504.628725
 30
0.0
 11
356.261101
 21
504.628725
 31
0.0
  0
ARC
  5
112
330
1F
100
AcDbEntity
  8
dxfile
  6
Continuous
 62
     3
100
AcDbCircle
 10
274.003162
 20
464.831672
 30
0.0
 40
0.4000000000237914
100
AcDbArc
 50
99.211027
 51
195.001399
  0
LINE
  5
113
330
1F
100
AcDbEntity
  8
dxfile
  6
Continuous
 62
     3
100
AcDbLine
 10
277.126166
 20
451.632262
 30
0.0
 11
273.616794
 21
464.728135
 31
0.0
  0
ARC
  5
114
330
1F
100
AcDbEntity
  8
dxfile
  6
Continuous
 62
     3
100
AcDbCircle
 10
272.562171
 20
455.528725
 30
0.0
 40
0.4000000000102341
100
AcDbArc
 50
270.0
 51
15.002741
  0
LINE
  5
115
330
1F
100
AcDbEntity
  8
dxfile
  6
Continuous
 62
     3
100
AcDbLine
 10
261.246871
 20
455.128725
 30
0.0
 11
272.562171
 21
455.128725
 31
0.0
  0
ARC
  5
116
330
1F
100
AcDbEntity
  8
dxfile
  6
Continuous
 62
     3
100
AcDbCircle
 10
276.739798
 20
451.528725
 30
0.0
 40
0.4000000000088194
100
AcDbArc
 50
270.0
 51
15.001399
  0
LINE
  5
117
330
1F
100
AcDbEntity
  8
dxfile
  6
Continuous
 62
     3
100
AcDbLine
 10
261.252871
 20
451.128725
 30
0.0
 11
276.739798
 21
451.128725
 31
0.0
  0
ARC
  5
118
330
1F
100
AcDbEntity
  8
dxfile
  6
Continuous
 62
     3
100
AcDbCircle
 10
352.861101
 20
455.528725
 30
0.0
 40
0.3999999998975539
100
AcDbArc
 50
270.0
 51
0.0
  0
LINE
  5
119
330
1F
100
AcDbEntity
  8
dxfile
  6
Continuous
 62
     3
100
AcDbLine
 10
340.261101
 20
455.128725
 30
0.0
 11
352.861101
 21
455.128725
 31
0.0
  0
LINE
  5
11A
330
1F
100
AcDbEntity
  8
dxfile
  6
Continuous
 62
     3
100
AcDbLine
 10
338.185303
 20
453.116724
 30
0.0
 11
338.185303
 21
453.128724
 31
0.0
  0
ARC
  5
11B
330
1F
100
AcDbEntity
  8
dxfile
  6
Continuous
 62
     3
100
AcDbCircle
 10
355.861101
 20
451.528725
 30
0.0
 40
0.4000000000284166
100
AcDbArc
 50
270.0
 51
0.0
  0
LINE
  5
11C
330
1F
100
AcDbEntity
  8
dxfile
  6
Continuous
 62
     3
100
AcDbLine
 10
340.261101
 20
451.128725
 30
0.0
 11
355.861101
 21
451.128725
 31
0.0
  0
LINE
  5
11D
330
1F
100
AcDbEntity
  8
dxfile
  6
Continuous
 62
     3
100
AcDbLine
 10
272.948536
 20
455.632271
 30
0.0
 11
270.619199
 21
464.323814
 31
0.0
  0
ARC
  5
11E
330
1F
100
AcDbEntity
  8
dxfile
  6
Continuous
 62
     3
100
AcDbCircle
 10
261.258871
 20
453.137724
 30
0.0
 40
1.99999919999884
100
AcDbArc
 50
90.0
 51
180.0
  0
ARC
  5
11F
330
1F
100
AcDbEntity
  8
dxfile
  6
Continuous
 62
     3
100
AcDbCircle
 10
261.258871
 20
453.137724
 30
0.0
 40
1.999999199983133
100
AcDbArc
 50
180.0
 51
270.0
  0
ARC
  5
120
330
1F
100
AcDbEntity
  8
dxfile
  6
Continuous
 62
     3
100
AcDbCircle
 10
251.944337
 20
416.43495
 30
0.0
 40
0.3000000000040159
100
AcDbArc
 50
180.0
 51
273.891385
  0
ARC
  5
121
330
1F
100
AcDbEntity
  8
dxfile
  6
Continuous
 62
     3
100
AcDbCircle
 10
251.761101
 20
419.128725
 30
0.0
 40
2.999999999985547
100
AcDbArc
 50
273.891385
 51
0.0
  0
LINE
  5
122
330
1F
100
AcDbEntity
  8
dxfile
  6
Continuous
 62
     3
100
AcDbLine
 10
249.251338
 20
431.122339
 30
0.0
 11
250.735338
 21
431.122339
 31
0.0
  0
ARC
  5
123
330
1F
100
AcDbEntity
  8
dxfile
  6
Continuous
 62
     3
100
AcDbCircle
 10
242.661101
 20
462.788365
 30
0.0
 40
0.4000000000275832
100
AcDbArc
 50
99.211027
 51
180.0
  0
LINE
  5
124
330
1F
100
AcDbEntity
  8
dxfile
  6
Continuous
 62
     3
100
AcDbLine
 10
242.261101
 20
462.788365
 30
0.0
 11
242.261101
 21
451.428725
 31
0.0
  0
ARC
  5
125
330
1F
100
AcDbEntity
  8
dxfile
  6
Continuous
 62
     3
100
AcDbCircle
 10
349.261101
 20
484.532328
 30
0.0
 40
3.999999999992096
100
AcDbArc
 50
279.211027
 51
0.0
  0
LINE
  5
126
330
1F
100
AcDbEntity
  8
dxfile
  6
Continuous
 62
     3
100
AcDbLine
 10
349.901386
 20
480.583907
 30
0.0
 11
242.597073
 21
463.183207
 31
0.0
  0
ARC
  5
127
330
1F
100
AcDbEntity
  8
dxfile
  6
Continuous
 62
     3
100
AcDbCircle
 10
250.735338
 20
427.122341
 30
0.0
 40
3.999998399984686
100
AcDbArc
 50
0.0
 51
90.0
  0
ARC
  5
128
330
1F
100
AcDbEntity
  8
dxfile
  6
Continuous
 62
     3
100
AcDbCircle
 10
249.251338
 20
435.122338
 30
0.0
 40
3.999998400009225
100
AcDbArc
 50
180.0
 51
270.0
  0
LINE
  5
129
330
1F
100
AcDbEntity
  8
dxfile
  6
Continuous
 62
     3
100
AcDbLine
 10
242.561101
 20
451.128725
 30
0.0
 11
242.261101
 21
451.428725
 31
0.0
  0
LINE
  5
12A
330
1F
100
AcDbEntity
  8
dxfile
  6
Continuous
 62
     3
100
AcDbLine
 10
242.561101
 20
451.128725
 30
0.0
 11
242.261101
 21
450.828725
 31
0.0
  0
LINE
  5
12B
330
1F
100
AcDbEntity
  8
dxfile
  6
Continuous
 62
     3
100
AcDbLine
 10
242.261101
 20
429.128725
 30
0.0
 11
242.261101
 21
450.828725
 31
0.0
  0
LINE
  5
12C
330
1F
100
AcDbEntity
  8
dxfile
  6
Continuous
 62
     3
100
AcDbLine
 10
370.761101
 20
586.128725
 30
0.0
 11
354.269899
 21
576.718732
 31
0.0
  0
ARC
  5
12D
330
1F
100
AcDbEntity
  8
dxfile
  6
Continuous
 62
     3
100
AcDbCircle
 10
408.261101
 20
500.128725
 30
0.0
 40
1.000000000003455
100
AcDbArc
 50
0.0
 51
90.0
  0
LINE
  5
12E
330
1F
100
AcDbEntity
  8
dxfile
  6
Continuous
 62
     3
100
AcDbLine
 10
409.261101
 20
495.492894
 30
0.0
 11
409.261101
 21
500.128725
 31
0.0
  0
LINE
  5
12F
330
1F
100
AcDbEntity
  8
dxfile
  6
Continuous
 62
     3
100
AcDbLine
 10
419.993102
 20
448.150719
 30
0.0
 11
422.266101
 21
448.150719
 31
0.0
  0
LINE
  5
130
330
1F
100
AcDbEntity
  8
dxfile
  6
Continuous
 62
     3
100
AcDbLine
 10
419.951102
 20
435.450724
 30
0.0
 11
409.261101
 21
435.450724
 31
0.0
  0
LINE
  5
131
330
1F
100
AcDbEntity
  8
dxfile
  6
Continuous
 62
     3
100
AcDbLine
 10
361.5611
 20
449.828725
 30
0.0
 11
361.5611
 21
498.828725
 31
0.0
  0
LINE
  5
132
330
1F
100
AcDbEntity
  8
dxfile
  6
Continuous
 62
     3
100
AcDbLine
 10
257.261101
 20
416.128725
 30
0.0
 11
259.561101
 21
416.128725
 31
0.0
  0
ARC
  5
133
330
1F
100
AcDbEntity
  8
dxfile
  6
Continuous
 62
     3
100
AcDbCircle
 10
368.761101
 20
609.439475
 30
0.0
 40
1.999999999997342
100
AcDbArc
 50
0.0
 51
138.923433
  0
LINE
  5
134
330
1F
100
AcDbEntity
  8
dxfile
  6
Continuous
 62
     3
100
AcDbLine
 10
370.761101
 20
586.128725
 30
0.0
 11
370.761101
 21
609.439475
 31
0.0
  0
LINE
  5
135
330
1F
100
AcDbEntity
  8
dxfile
  6
Continuous
 62
     3
100
AcDbLine
 10
373.761101
 20
612.469859
 30
0.0
 11
373.761101
 21
584.156278
 31
0.0
  0
ARC
  5
136
330
1F
100
AcDbEntity
  8
dxfile
  6
Continuous
 62
     6
100
AcDbCircle
 10
359.259294
 20
607.669392
 30
0.0
 40
0.9999996006519825
100
AcDbArc
 50
317.32153
 51
0.0
  0
LINE
  5
137
330
1F
100
AcDbEntity
  8
dxfile
  6
Continuous
 62
     3
100
AcDbLine
 10
356.261101
 20
451.528725
 30
0.0
 11
356.261101
 21
501.128725
 31
0.0
  0
LINE
  5
138
330
1F
100
AcDbEntity
  8
dxfile
  6
Continuous
 62
     3
100
AcDbLine
 10
406.961101
 20
434.128725
 30
0.0
 11
406.961101
 21
498.828725
 31
0.0
  0
LINE
  5
139
330
1F
100
AcDbEntity
  8
dxfile
  6
Continuous
 62
     3
100
AcDbLine
 10
361.5611
 20
498.828725
 30
0.0
 11
406.961101
 21
498.828725
 31
0.0
  0
LINE
  5
13A
330
1F
100
AcDbEntity
  8
dxfile
  6
Continuous
 62
     3
100
AcDbLine
 10
409.232101
 20
500.261308
 30
0.0
 11
409.232101
 21
499.893308
 31
0.0
  0
LINE
  5
13B
330
1F
100
AcDbEntity
  8
dxfile
  6
Continuous
 62
     3
100
AcDbLine
 10
364.511101
 20
501.128725
 30
0.0
 11
356.261101
 21
501.128725
 31
0.0
  0
LINE
  5
13C
330
1F
100
AcDbEntity
  8
dxfile
  6
Continuous
 62
     3
100
AcDbLine
 10
408.261101
 20
501.128725
 30
0.0
 11
1276.433321
 21
501.128725
 31
0.0
  0
LINE
  5
13D
330
1F
100
AcDbEntity
  8
dxfile
  6
Continuous
 62
     3
100
AcDbLine
 10
438.29659
 20
448.128725
 30
0.0
 11
422.449101
 21
448.128725
 31
0.0
  0
LINE
  5
13E
330
1F
100
AcDbEntity
  8
dxfile
  6
Continuous
 62
     3
100
AcDbLine
 10
454.977554
 20
433.128725
 30
0.0
 11
1263.744083
 21
433.128725
 31
0.0
  0
LINE
  5
13F
330
1F
100
AcDbEntity
  8
dxfile
  6
Continuous
 62
     3
100
AcDbLine
 10
357.260794
 20
680.57535
 30
0.0
 11
357.26182
 21
682.07535
 31
0.0
  0
LINE
  5
140
330
1F
100
AcDbEntity
  8
dxfile
  6
Continuous
 62
     3
100
AcDbLine
 10
380.569853
 20
685.319349
 30
0.0
 11
363.952349
 21
685.319349
 31
0.0
  0
LINE
  5
141
330
1F
100
AcDbEntity
  8
dxfile
  6
Continuous
 62
     3
100
AcDbLine
 10
375.361101
 20
609.780268
 30
0.0
 11
375.361101
 21
584.956278
 31
0.0
  0
LINE
  5
142
330
1F
100
AcDbEntity
  8
dxfile
  6
Continuous
 62
     3
100
AcDbLine
 10
373.761101
 20
609.780268
 30
0.0
 11
375.361101
 21
609.780268
 31
0.0
  0
LINE
  5
143
330
1F
100
AcDbEntity
  8
dxfile
  6
Continuous
 62
     3
100
AcDbLine
 10
478.407246
 20
583.356278
 30
0.0
 11
478.407246
 21
496.440313
 31
0.0
  0
ARC
  5
144
330
1F
100
AcDbEntity
  8
dxfile
  6
Continuous
 62
     3
100
AcDbCircle
 10
374.561101
 20
584.156278
 30
0.0
 40
0.7999999998467474
100
AcDbArc
 50
180.0
 51
270.0
  0
LINE
  5
145
330
1F
100
AcDbEntity
  8
dxfile
  6
Continuous
 62
     3
100
AcDbLine
 10
374.561101
 20
583.356278
 30
0.0
 11
478.407246
 21
583.356278
 31
0.0
  0
LINE
  5
146
330
1F
100
AcDbEntity
  8
dxfile
  6
Continuous
 62
     3
100
AcDbLine
 10
480.007246
 20
583.956278
 30
0.0
 11
480.007246
 21
495.640313
 31
0.0
  0
ARC
  5
147
330
1F
100
AcDbEntity
  8
dxfile
  6
Continuous
 62
     3
100
AcDbCircle
 10
466.313252
 20
566.719285
 30
0.0
 40
4.999998000013754
100
AcDbArc
 50
0.0
 51
90.0
  0
ARC
  5
148
330
1F
100
AcDbEntity
  8
dxfile
  6
Continuous
 62
     3
100
AcDbCircle
 10
420.041276
 20
466.081322
 30
0.0
 40
11.36798890918643
100
AcDbArc
 50
333.439453
 51
333.563416
  0
ARC
  5
149
330
1F
100
AcDbEntity
  8
dxfile
  6
Continuous
 62
     3
100
AcDbCircle
 10
427.863266
 20
474.097324
 30
0.0
 40
3.524000325015864
100
AcDbArc
 50
303.672028
 51
304.068878
  0
LINE
  5
14A
330
1F
100
AcDbEntity
  8
dxfile
  6
Continuous
 62
     3
100
AcDbLine
 10
420.04227
 20
477.029321
 30
0.0
 11
429.624266
 21
477.029321
 31
0.0
  0
LINE
  5
14B
330
1F
100
AcDbEntity
  8
dxfile
  6
Continuous
 62
     3
100
AcDbLine
 10
419.65227
 20
471.555323
 30
0.0
 11
429.036266
 21
471.555323
 31
0.0
  0
LINE
  5
14C
330
1F
100
AcDbEntity
  8
dxfile
  6
Continuous
 62
     3
100
AcDbLine
 10
429.036266
 20
471.555323
 30
0.0
 11
429.624266
 21
471.555323
 31
0.0
  0
LINE
  5
14D
330
1F
100
AcDbEntity
  8
dxfile
  6
Continuous
 62
     3
100
AcDbLine
 10
430.204266
 20
471.555323
 30
0.0
 11
430.208266
 21
471.555323
 31
0.0
  0
LINE
  5
14E
330
1F
100
AcDbEntity
  8
dxfile
  6
Continuous
 62
     3
100
AcDbLine
 10
419.65127
 20
460.998327
 30
0.0
 11
429.624266
 21
460.998327
 31
0.0
  0
LINE
  5
14F
330
1F
100
AcDbEntity
  8
dxfile
  6
Continuous
 62
     3
100
AcDbLine
 10
389.936282
 20
471.555323
 30
0.0
 11
419.65227
 21
471.555323
 31
0.0
  0
LINE
  5
150
330
1F
100
AcDbEntity
  8
dxfile
  6
Continuous
 62
     3
100
AcDbLine
 10
471.31325
 20
566.719285
 30
0.0
 11
471.31325
 21
501.324311
 31
0.0
  0
CIRCLE
  5
151
330
1F
100
AcDbEntity
  8
dxfile
  6
Continuous
 62
     3
100
AcDbCircle
 10
426.602267
 20
546.590293
 30
0.0
 40
29.99998800000003
  0
ARC
  5
152
330
1F
100
AcDbEntity
  8
dxfile
  6
Continuous
 62
     3
100
AcDbCircle
 10
428.057267
 20
458.651328
 30
0.0
 40
2.932998755508753
100
AcDbArc
 50
306.90506
 51
308.299835
  0
LINE
  5
153
330
1F
100
AcDbEntity
  8
dxfile
  6
Continuous
 62
     3
100
AcDbLine
 10
419.65127
 20
460.998327
 30
0.0
 11
389.545282
 21
460.998327
 31
0.0
  0
LINE
  5
154
330
1F
100
AcDbEntity
  8
dxfile
  6
Continuous
 62
     3
100
AcDbLine
 10
420.05727
 20
456.306329
 30
0.0
 11
429.427266
 21
456.305329
 31
0.0
  0
LINE
  5
155
330
1F
100
AcDbEntity
  8
dxfile
  6
Continuous
 62
     3
100
AcDbLine
 10
420.05727
 20
477.012321
 30
0.0
 11
420.05727
 21
456.267329
 31
0.0
  0
ARC
  5
156
330
1F
100
AcDbEntity
  8
dxfile
  6
Continuous
 62
     3
100
AcDbCircle
 10
428.731267
 20
474.267322
 30
0.0
 40
2.891998843204803
100
AcDbArc
 50
288.359772
 51
71.640228
  0
CIRCLE
  5
157
330
1F
100
AcDbEntity
  8
dxfile
  6
Continuous
 62
     3
100
AcDbCircle
 10
391.882281
 20
546.590293
 30
0.0
 40
9.504996198000015
  0
ARC
  5
158
330
1F
100
AcDbEntity
  8
dxfile
  6
Continuous
 62
     3
100
AcDbCircle
 10
360.5611
 20
449.828725
 30
0.0
 40
0.9999999999173583
100
AcDbArc
 50
270.0
 51
0.0
  0
LINE
  5
159
330
1F
100
AcDbEntity
  8
dxfile
  6
Continuous
 62
     3
100
AcDbLine
 10
419.951102
 20
448.145719
 30
0.0
 11
419.951102
 21
435.450724
 31
0.0
  0
LINE
  5
15A
330
1F
100
AcDbEntity
  8
dxfile
  6
Continuous
 62
     3
100
AcDbLine
 10
566.953439
 20
460.074438
 30
0.0
 11
447.08027
 21
568.51404
 31
0.0
  0
ARC
  5
15B
330
1F
100
AcDbEntity
  8
dxfile
  6
Continuous
 62
     3
100
AcDbCircle
 10
428.057267
 20
458.651328
 30
0.0
 40
2.932998845721943
100
AcDbArc
 50
52.41116
 51
53.13401
  0
ARC
  5
15C
330
1F
100
AcDbEntity
  8
dxfile
  6
Continuous
 62
     3
100
AcDbCircle
 10
420.041271
 20
466.081326
 30
0.0
 40
11.36799416417944
100
AcDbArc
 50
26.373465
 51
26.560543
  0
ARC
  5
15D
330
1F
100
AcDbEntity
  8
dxfile
  6
Continuous
 62
     3
100
AcDbCircle
 10
427.863271
 20
474.097328
 30
0.0
 40
3.523992048538977
100
AcDbArc
 50
56.106998
 51
56.296402
  0
ARC
  5
15E
330
1F
100
AcDbEntity
  8
dxfile
  6
Continuous
 62
     3
100
AcDbCircle
 10
423.632269
 20
466.257325
 30
0.0
 40
7.989996803990121
100
AcDbArc
 50
318.780334
 51
41.219654
  0
ARC
  5
15F
330
1F
100
AcDbEntity
  8
dxfile
  6
Continuous
 62
     3
100
AcDbCircle
 10
429.269266
 20
458.630328
 30
0.0
 40
2.390999043615715
100
AcDbArc
 50
278.970123
 51
81.026131
  0
LINE
  5
160
330
1F
100
AcDbEntity
  8
dxfile
  6
Continuous
 62
     3
100
AcDbLine
 10
431.577265
 20
473.952322
 30
0.0
 11
431.577265
 21
458.967328
 31
0.0
  0
ARC
  5
161
330
1F
100
AcDbEntity
  8
dxfile
  6
Continuous
 62
     3
100
AcDbCircle
 10
466.313252
 20
566.719285
 30
0.0
 40
4.999998000005901
100
AcDbArc
 50
0.0
 51
90.011459
  0
CIRCLE
  5
162
330
1F
100
AcDbEntity
  8
dxfile
  6
Continuous
 62
     3
100
AcDbCircle
 10
506.845235
 20
541.543295
 30
0.0
 40
24.99998999999997
  0
CIRCLE
  5
163
330
1F
100
AcDbEntity
  8
dxfile
  6
Continuous
 62
     3
100
AcDbCircle
 10
506.845235
 20
541.543295
 30
0.0
 40
7.499997000000008
  0
CIRCLE
  5
164
330
1F
100
AcDbEntity
  8
dxfile
  6
Continuous
 62
     3
100
AcDbCircle
 10
506.845235
 20
541.543295
 30
0.0
 40
19.99999199999999
  0
LINE
  5
165
330
1F
100
AcDbEntity
  8
dxfile
  6
Continuous
 62
     3
100
AcDbLine
 10
422.261101
 20
448.145719
 30
0.0
 11
422.261101
 21
448.061719
 31
0.0
  0
LINE
  5
166
330
1F
100
AcDbEntity
  8
dxfile
  6
Continuous
 62
     3
100
AcDbLine
 10
506.520235
 20
501.718311
 30
0.0
 11
506.579235
 21
501.719311
 31
0.0
  0
ARC
  5
167
330
1F
100
AcDbEntity
  8
dxfile
  6
Continuous
 62
     3
100
AcDbCircle
 10
504.841236
 20
529.3133
 30
0.0
 40
19.99999200000242
100
AcDbArc
 50
261.274323
 51
347.200562
  0
ARC
  5
168
330
1F
100
AcDbEntity
  8
dxfile
  6
Continuous
 62
     3
100
AcDbCircle
 10
465.554252
 20
570.418284
 30
0.0
 40
9.999996000004383
100
AcDbArc
 50
265.7854
 51
354.727234
  0
LINE
  5
169
330
1F
100
AcDbEntity
  8
dxfile
  6
Continuous
 62
     3
100
AcDbLine
 10
391.873281
 20
566.929875
 30
0.0
 11
464.819329
 21
560.44533
 31
0.0
  0
ARC
  5
16A
330
1F
100
AcDbEntity
  8
dxfile
  6
Continuous
 62
     3
100
AcDbCircle
 10
391.745281
 20
546.930293
 30
0.0
 40
19.99999199999813
100
AcDbArc
 50
88.896973
 51
259.863251
  0
LINE
  5
16B
330
1F
100
AcDbEntity
  8
dxfile
  6
Continuous
 62
     3
100
AcDbLine
 10
548.36897
 20
630.59206
 30
0.0
 11
524.345228
 21
524.882302
 31
0.0
  0
LINE
  5
16C
330
1F
100
AcDbEntity
  8
dxfile
  6
Continuous
 62
     3
100
AcDbLine
 10
501.807237
 20
509.545308
 30
0.0
 11
388.22532
 21
527.242491
 31
0.0
  0
LINE
  5
16D
330
1F
100
AcDbEntity
  8
dxfile
  6
Continuous
 62
     3
100
AcDbLine
 10
481.151392
 20
630.584592
 30
0.0
 11
475.512248
 21
569.499284
 31
0.0
  0
LINE
  5
16E
330
1F
100
AcDbEntity
  8
dxfile
  6
Continuous
 62
     3
100
AcDbLine
 10
259.561101
 20
448.828725
 30
0.0
 11
360.5611
 21
448.828725
 31
0.0
  0
LINE
  5
16F
330
1F
100
AcDbEntity
  8
dxfile
  6
Continuous
 62
     3
100
AcDbLine
 10
259.561101
 20
416.128725
 30
0.0
 11
259.561101
 21
448.828725
 31
0.0
  0
ARC
  5
170
330
1F
100
AcDbEntity
  8
dxfile
  6
Continuous
 62
     3
100
AcDbCircle
 10
258.261101
 20
450.128725
 30
0.0
 40
1.000000000072519
100
AcDbArc
 50
90.0
 51
180.0
  0
LINE
  5
171
330
1F
100
AcDbEntity
  8
dxfile
  6
Continuous
 62
     3
100
AcDbLine
 10
257.261101
 20
416.128725
 30
0.0
 11
257.261101
 21
450.128725
 31
0.0
  0
LINE
  5
172
330
1F
100
AcDbEntity
  8
dxfile
  6
Continuous
 62
     3
100
AcDbLine
 10
422.261101
 20
448.145719
 30
0.0
 11
422.261101
 21
434.128725
 31
0.0
  0
ARC
  5
173
330
1F
100
AcDbEntity
  8
dxfile
  6
Continuous
 62
     3
100
AcDbCircle
 10
407.961101
 20
434.128725
 30
0.0
 40
0.9999999999955866
100
AcDbArc
 50
180.0
 51
270.0
  0
LINE
  5
174
330
1F
100
AcDbEntity
  8
dxfile
  6
Continuous
 62
     3
100
AcDbLine
 10
407.961101
 20
433.128725
 30
0.0
 11
421.261101
 21
433.128725
 31
0.0
  0
ARC
  5
175
330
1F
100
AcDbEntity
  8
dxfile
  6
Continuous
 62
     3
100
AcDbCircle
 10
421.261102
 20
434.128725
 30
0.0
 40
0.9999995999140621
100
AcDbArc
 50
270.0
 51
0.0
  0
LINE
  5
176
330
1F
100
AcDbEntity
  8
dxfile
  6
Continuous
 62
     3
100
AcDbLine
 10
258.261101
 20
451.128725
 30
0.0
 11
359.261101
 21
451.128725
 31
0.0
  0
LINE
  5
177
330
1F
100
AcDbEntity
  8
dxfile
  6
Continuous
 62
     3
100
AcDbLine
 10
387.260357
 20
682.07535
 30
0.0
 11
357.26182
 21
682.07535
 31
0.0
  0
ARC
  5
178
330
1F
100
AcDbEntity
  8
dxfile
  6
Continuous
 62
     3
100
AcDbCircle
 10
364.541708
 20
680.228351
 30
0.0
 40
5.124997950007451
100
AcDbArc
 50
96.926697
 51
158.875836
  0
LINE
  5
179
330
1F
100
AcDbEntity
  8
dxfile
  6
Continuous
 62
     3
100
AcDbLine
 10
429.061101
 20
658.965617
 30
0.0
 11
343.861101
 21
658.965617
 31
0.0
  0
LINE
  5
17A
330
1F
100
AcDbEntity
  8
dxfile
  6
Continuous
 62
     3
100
AcDbLine
 10
407.434275
 20
672.57535
 30
0.0
 11
430.887275
 21
672.57535
 31
0.0
  0
LINE
  5
17B
330
1F
100
AcDbEntity
  8
dxfile
  6
Continuous
 62
     3
100
AcDbLine
 10
430.887275
 20
674.07535
 30
0.0
 11
406.687275
 21
674.07535
 31
0.0
  0
LINE
  5
17C
330
1F
100
AcDbEntity
  8
dxfile
  6
Continuous
 62
     3
100
AcDbLine
 10
407.387275
 20
672.57435
 30
0.0
 11
407.387275
 21
661.37535
 31
0.0
  0
ARC
  5
17D
330
1F
100
AcDbEntity
  8
dxfile
  6
Continuous
 62
     6
100
AcDbCircle
 10
344.661101
 20
597.97535
 30
0.0
 40
0.7999999999376368
100
AcDbArc
 50
180.0
 51
270.0
  0
LINE
  5
17E
330
1F
100
AcDbEntity
  8
dxfile
  6
Continuous
 62
     6
100
AcDbLine
 10
359.393156
 20
597.17535
 30
0.0
 11
343.890301
 21
597.17535
 31
0.0
  0
ARC
  5
17F
330
1F
100
AcDbEntity
  8
dxfile
  6
Continuous
 62
     3
100
AcDbCircle
 10
343.061101
 20
659.77535
 30
0.0
 40
0.8000000000167995
100
AcDbArc
 50
90.0
 51
180.0
  0
LINE
  5
180
330
1F
100
AcDbEntity
  8
dxfile
  6
Continuous
 62
     3
100
AcDbLine
 10
342.261101
 20
659.77535
 30
0.0
 11
342.261101
 21
596.37535
 31
0.0
  0
LINE
  5
181
330
1F
100
AcDbEntity
  8
dxfile
  6
Continuous
 62
     3
100
AcDbLine
 10
364.511101
 20
501.128725
 30
0.0
 11
408.261101
 21
501.128725
 31
0.0
  0
LINE
  5
182
330
1F
100
AcDbEntity
  8
dxfile
  6
Continuous
 62
     3
100
AcDbLine
 10
450.541258
 20
421.116343
 30
0.0
 11
399.314699
 21
534.124826
 31
0.0
  0
LINE
  5
183
330
1F
100
AcDbEntity
  8
dxfile
  6
Continuous
 62
     3
100
AcDbLine
 10
386.441283
 20
556.262289
 30
0.0
 11
381.000286
 21
546.838293
 31
0.0
  0
LINE
  5
184
330
1F
100
AcDbEntity
  8
dxfile
  6
Continuous
 62
     3
100
AcDbLine
 10
381.000286
 20
546.838293
 30
0.0
 11
386.441283
 21
537.414297
 31
0.0
  0
LINE
  5
185
330
1F
100
AcDbEntity
  8
dxfile
  6
Continuous
 62
     3
100
AcDbLine
 10
386.441283
 20
537.414297
 30
0.0
 11
397.323279
 21
537.414297
 31
0.0
  0
LINE
  5
186
330
1F
100
AcDbEntity
  8
dxfile
  6
Continuous
 62
     3
100
AcDbLine
 10
397.323279
 20
537.414297
 30
0.0
 11
402.764277
 21
546.838293
 31
0.0
  0
LINE
  5
187
330
1F
100
AcDbEntity
  8
dxfile
  6
Continuous
 62
     3
100
AcDbLine
 10
402.764277
 20
546.838293
 30
0.0
 11
397.323279
 21
556.262289
 31
0.0
  0
LINE
  5
188
330
1F
100
AcDbEntity
  8
dxfile
  6
Continuous
 62
     3
100
AcDbLine
 10
397.323279
 20
556.262289
 30
0.0
 11
386.441283
 21
556.262289
 31
0.0
  0
LINE
  5
189
330
1F
100
AcDbEntity
  8
dxfile
  6
Continuous
 62
     3
100
AcDbLine
 10
357.043295
 20
571.719283
 30
0.0
 11
466.313252
 21
571.719283
 31
0.0
  0
LINE
  5
18A
330
1F
100
AcDbEntity
  8
dxfile
  6
Continuous
 62
     3
100
AcDbLine
 10
1262.708933
 20
501.128725
 30
0.0
 11
1312.736913
 21
501.128725
 31
0.0
  0
ARC
  5
18B
330
1F
100
AcDbEntity
  8
dxfile
  6
Continuous
 62
     3
100
AcDbCircle
 10
1262.708933
 20
511.129721
 30
0.0
 40
9.999995999952205
100
AcDbArc
 50
180.0
 51
270.0
  0
LINE
  5
18C
330
1F
100
AcDbEntity
  8
dxfile
  6
Continuous
 62
     3
100
AcDbLine
 10
1252.708937
 20
545.816707
 30
0.0
 11
1252.707937
 21
511.129721
 31
0.0
  0
CIRCLE
  5
18D
330
1F
100
AcDbEntity
  8
dxfile
  6
Continuous
 62
     3
100
AcDbCircle
 10
1279.930926
 20
528.245714
 30
0.0
 40
24.99998999999997
  0
CIRCLE
  5
18E
330
1F
100
AcDbEntity
  8
dxfile
  6
Continuous
 62
     3
100
AcDbCircle
 10
1279.930926
 20
528.245714
 30
0.0
 40
19.99999200000008
  0
LINE
  5
18F
330
1F
100
AcDbEntity
  8
dxfile
  6
Continuous
 62
     3
100
AcDbLine
 10
1312.736913
 20
501.128725
 30
0.0
 11
1312.736913
 21
555.816703
 31
0.0
  0
LINE
  5
190
330
1F
100
AcDbEntity
  8
dxfile
  6
Continuous
 62
     3
100
AcDbLine
 10
1309.595914
 20
501.128725
 30
0.0
 11
1309.595914
 21
555.815703
 31
0.0
  0
LINE
  5
191
330
1F
100
AcDbEntity
  8
dxfile
  6
Continuous
 62
     3
100
AcDbLine
 10
1262.708933
 20
555.816703
 30
0.0
 11
1312.736913
 21
555.816703
 31
0.0
  0
CIRCLE
  5
192
330
1F
100
AcDbEntity
  8
dxfile
  6
Continuous
 62
     3
100
AcDbCircle
 10
1279.930926
 20
528.245714
 30
0.0
 40
3.758998496400068
  0
ARC
  5
193
330
1F
100
AcDbEntity
  8
dxfile
  6
Continuous
 62
     3
100
AcDbCircle
 10
1262.708933
 20
545.816707
 30
0.0
 40
9.999995999997061
100
AcDbArc
 50
90.0
 51
180.0
  0
LINE
  5
194
330
1F
100
AcDbEntity
  8
dxfile
  6
Continuous
 62
     3
100
AcDbLine
 10
445.096065
 20
433.128725
 30
0.0
 11
422.261101
 21
433.128725
 31
0.0
  0
LINE
  5
195
330
1F
100
AcDbEntity
  8
dxfile
  6
PLine2
 62
     3
100
AcDbLine
 10
842.261101
 20
1141.33927
 30
0.0
 11
842.261101
 21
393.335826
 31
0.0
  0
LINE
  5
196
330
1F
100
AcDbEntity
  8
dxfile
  6
Continuous
 62
     3
100
AcDbLine
 10
803.520748
 20
333.004481
 30
0.0
 11
813.089243
 21
333.004481
 31
0.0
  0
LINE
  5
197
330
1F
100
AcDbEntity
  8
dxfile
  6
Continuous
 62
     3
100
AcDbLine
 10
813.089243
 20
333.004481
 30
0.0
 11
813.089243
 21
342.914708
 31
0.0
  0
LINE
  5
198
330
1F
100
AcDbEntity
  8
dxfile
  6
Continuous
 62
     3
100
AcDbLine
 10
813.089243
 20
342.914708
 30
0.0
 11
803.520748
 21
342.914708
 31
0.0
  0
LINE
  5
199
330
1F
100
AcDbEntity
  8
dxfile
  6
Continuous
 62
     3
100
AcDbLine
 10
803.520748
 20
342.914708
 30
0.0
 11
803.520748
 21
333.004481
 31
0.0
  0
LINE
  5
19A
330
1F
100
AcDbEntity
  8
dxfile
  6
Continuous
 62
     3
100
AcDbLine
 10
802.307118
 20
136.90933
 30
0.0
 11
811.875613
 21
136.90933
 31
0.0
  0
LINE
  5
19B
330
1F
100
AcDbEntity
  8
dxfile
  6
Continuous
 62
     3
100
AcDbLine
 10
811.875613
 20
136.90933
 30
0.0
 11
811.875613
 21
146.477825
 31
0.0
  0
LINE
  5
19C
330
1F
100
AcDbEntity
  8
dxfile
  6
Continuous
 62
     3
100
AcDbLine
 10
811.875613
 20
146.477825
 30
0.0
 11
802.307118
 21
146.477825
 31
0.0
  0
LINE
  5
19D
330
1F
100
AcDbEntity
  8
dxfile
  6
Continuous
 62
     3
100
AcDbLine
 10
802.307118
 20
146.477825
 30
0.0
 11
802.307118
 21
136.90933
 31
0.0
  0
TEXT
  5
19E
330
1F
100
AcDbEntity
  8
dxfile
  6
Continuous
 62
     3
100
AcDbText
 10
1281.889164
 20
65.564195
 30
0.0
 40
18.0
  1
注、図中数字で示す寸法は全種共通です
 41
0.858268
  7
BIGFONT
100
AcDbText
  0
LINE
  5
19F
330
1F
100
AcDbEntity
  8
dxfile
  6
PLine2
 62
     3
100
AcDbLine
 10
1279.905926
 20
562.277221
 30
0.0
 11
1279.905926
 21
501.776168
 31
0.0
  0
ARC
  5
1A0
330
1F
100
AcDbEntity
  8
dxfile
  6
Continuous
 62
     3
100
AcDbCircle
 10
352.861101
 20
477.619446
 30
0.0
 40
0.4000000002785209
100
AcDbArc
 50
0.0
 51
99.211027
  0
LINE
  5
1A1
330
1F
100
AcDbEntity
  8
dxfile
  6
Continuous
 62
     3
100
AcDbLine
 10
352.797073
 20
478.014289
 30
0.0
 11
273.939134
 21
465.226515
 31
0.0
  0
ARC
  5
1A2
330
1F
100
AcDbEntity
  8
dxfile
  6
Continuous
 62
     3
100
AcDbCircle
 10
270.232833
 20
464.220268
 30
0.0
 40
0.3999999999362253
100
AcDbArc
 50
15.002741
 51
99.211027
  0
LINE
  5
1A3
330
1F
100
AcDbEntity
  8
dxfile
  6
Continuous
 62
     3
100
AcDbLine
 10
245.261101
 20
460.576023
 30
0.0
 11
270.168805
 21
464.61511
 31
0.0
  0
LINE
  5
1A4
330
1F
100
AcDbEntity
  8
dxfile
  6
Continuous
 62
     3
100
AcDbLine
 10
245.261101
 20
460.576023
 30
0.0
 11
245.261101
 21
451.728725
 31
0.0
  0
LINE
  5
1A5
330
1F
100
AcDbEntity
  8
dxfile
  6
Continuous
 62
     3
100
AcDbLine
 10
245.261101
 20
434.843063
 30
0.0
 11
245.261101
 21
450.528725
 31
0.0
  0
LINE
  5
1A6
330
1F
100
AcDbEntity
  8
dxfile
  6
Continuous
 62
     3
100
AcDbLine
 10
244.661101
 20
451.128725
 30
0.0
 11
245.261101
 21
451.728725
 31
0.0
  0
ARC
  5
1A7
330
1F
100
AcDbEntity
  8
dxfile
  6
Continuous
 62
     3
100
AcDbCircle
 10
340.261101
 20
453.128725
 30
0.0
 40
2.000000000006793
100
AcDbArc
 50
90.0
 51
270.0
  0
ARC
  5
1A8
330
1F
100
AcDbEntity
  8
dxfile
  6
Continuous
 62
     3
100
AcDbCircle
 10
364.511101
 20
502.878725
 30
0.0
 40
1.749999999993463
100
AcDbArc
 50
270.0
 51
90.0
  0
LINE
  5
1A9
330
1F
100
AcDbEntity
  8
dxfile
  6
Continuous
 62
     4
100
AcDbLine
 10
328.261101
 20
448.828725
 30
0.0
 11
342.261101
 21
448.828725
 31
0.0
  0
LINE
  5
1AA
330
1F
100
AcDbEntity
  8
dxfile
  6
Continuous
 62
     4
100
AcDbLine
 10
342.261101
 20
448.828725
 30
0.0
 11
342.261101
 21
446.528725
 31
0.0
  0
LINE
  5
1AB
330
1F
100
AcDbEntity
  8
dxfile
  6
Continuous
 62
     4
100
AcDbLine
 10
342.261101
 20
446.528725
 30
0.0
 11
329.561101
 21
446.528725
 31
0.0
  0
LINE
  5
1AC
330
1F
100
AcDbEntity
  8
dxfile
  6
Continuous
 62
     4
100
AcDbLine
 10
329.561101
 20
446.528725
 30
0.0
 11
329.561101
 21
423.865735
 31
0.0
  0
LINE
  5
1AD
330
1F
100
AcDbEntity
  8
dxfile
  6
Continuous
 62
     4
100
AcDbLine
 10
329.561101
 20
423.865735
 30
0.0
 11
327.261101
 21
423.865735
 31
0.0
  0
LINE
  5
1AE
330
1F
100
AcDbEntity
  8
dxfile
  6
Continuous
 62
     4
100
AcDbLine
 10
327.261101
 20
423.865735
 30
0.0
 11
327.261101
 21
447.828725
 31
0.0
  0
ARC
  5
1AF
330
1F
100
AcDbEntity
  8
dxfile
  6
Continuous
 62
     4
100
AcDbCircle
 10
328.261101
 20
447.828725
 30
0.0
 40
1.000000000044785
100
AcDbArc
 50
90.0
 51
180.0
  0
INSERT
  5
1B9
330
1F
100
AcDbEntity
  8
dxfile
  6
Continuous
 62
     3
100
AcDbBlockReference
  2
DIM_0
 10
257.261101
 20
410.993652
 30
0.0
  0
LINE
  5
1BA
330
1F
100
AcDbEntity
  8
dxfile
  6
PLine2
 62
     3
100
AcDbLine
 10
480.47923
 20
546.926825
 30
0.0
 11
535.549357
 21
534.411112
 31
0.0
  0
LINE
  5
1BB
330
1F
100
AcDbEntity
  8
dxfile
  6
PLine2
 62
     3
100
AcDbLine
 10
513.478418
 20
569.336145
 30
0.0
 11
500.864305
 21
513.748345
 31
0.0
  0
LINE
  5
1BC
330
1F
100
AcDbEntity
  8
dxfile
  6
PLine4
 62
     3
100
AcDbLine
 10
480.597806
 20
624.587946
 30
0.0
 11
547.004467
 21
624.587946
 31
0.0
  0
CIRCLE
  5
1BD
330
1F
100
AcDbEntity
  8
dxfile
  6
Continuous
 62
     3
100
AcDbCircle
 10
426.602267
 20
546.590293
 30
0.0
 40
20.99998800000003
  0
LINE
  5
1BE
330
1F
100
AcDbEntity
  8
dxfile
  6
Continuous
 62
     3
100
AcDbLine
 10
560.915742
 20
453.400143
 30
0.0
 11
441.042573
 21
561.839746
 31
0.0
  0
LINE
  5
1BF
330
1F
100
AcDbEntity
  8
dxfile
  6
Continuous
 62
     3
100
AcDbLine
 10
458.738403
 20
424.832096
 30
0.0
 11
407.511844
 21
537.840578
 31
0.0
  0
LINE
  5
1C0
330
1F
100
AcDbEntity
  8
dxfile
  6
Continuous
 62
     3
100
AcDbLine
 10
560.915742
 20
453.400143
 30
0.0
 11
566.953439
 21
460.074438
 31
0.0
  0
LINE
  5
1C1
330
1F
100
AcDbEntity
  8
dxfile
  6
Continuous
 62
     3
100
AcDbLine
 10
450.541258
 20
421.116343
 30
0.0
 11
458.738403
 21
424.832096
 31
0.0
  0
LINE
  5
1C2
330
1F
100
AcDbEntity
  8
dxfile
  6
Continuous
 62
     3
100
AcDbLine
 10
343.861101
 20
658.965617
 30
0.0
 11
343.861101
 21
597.17535
 31
0.0
  0
LINE
  5
1C3
330
1F
100
AcDbEntity
  8
dxfile
  6
Continuous
 62
     3
100
AcDbLine
 10
345.461101
 20
658.965617
 30
0.0
 11
345.461101
 21
632.178394
 31
0.0
  0
ARC
  5
1C4
330
1F
100
AcDbEntity
  8
dxfile
  6
Continuous
 62
     3
100
AcDbCircle
 10
344.661101
 20
631.369429
 30
0.0
 40
0.7999999998005456
100
AcDbArc
 50
180.0
 51
270.006366
  0
ARC
  5
1C5
330
1F
100
AcDbEntity
  8
dxfile
  6
Continuous
 62
     3
100
AcDbCircle
 10
431.461101
 20
631.379074
 30
0.0
 40
0.7999999999487708
100
AcDbArc
 50
270.006366
 51
0.0
  0
LINE
  5
1C6
330
1F
100
AcDbEntity
  8
dxfile
  6
Continuous
 62
     3
100
AcDbLine
 10
432.261101
 20
660.579163
 30
0.0
 11
432.261101
 21
631.379074
 31
0.0
  0
ARC
  5
1C7
330
1F
100
AcDbEntity
  8
dxfile
  6
Continuous
 62
     3
100
AcDbCircle
 10
429.861101
 20
659.77535
 30
0.0
 40
0.8000000001239378
100
AcDbArc
 50
0.0
 51
90.0
  0
LINE
  5
1C8
330
1F
100
AcDbEntity
  8
dxfile
  6
Continuous
 62
     3
100
AcDbLine
 10
430.661101
 20
660.57535
 30
0.0
 11
430.661101
 21
632.177375
 31
0.0
  0
LINE
  5
1C9
330
1F
100
AcDbEntity
  8
dxfile
  6
Continuous
 62
     3
100
AcDbLine
 10
429.061101
 20
632.178807
 30
0.0
 11
429.061101
 21
658.965617
 31
0.0
  0
ARC
  5
1CA
330
1F
100
AcDbEntity
  8
dxfile
  6
Continuous
 62
     3
100
AcDbCircle
 10
406.587275
 20
661.37535
 30
0.0
 40
0.8000000001228225
100
AcDbArc
 50
270.0
 51
0.0
  0
LINE
  5
1CB
330
1F
100
AcDbEntity
  8
dxfile
  6
Continuous
 62
     3
100
AcDbLine
 10
1202.261101
 20
630.57535
 30
0.0
 11
344.593152
 21
630.57535
 31
0.0
  0
LINE
  5
1CC
330
1F
100
AcDbEntity
  8
dxfile
  6
Continuous
 62
     3
100
AcDbLine
 10
430.661101
 20
632.17535
 30
0.0
 11
345.461101
 21
632.17535
 31
0.0
  0
LINE
  5
1CD
330
1F
100
AcDbEntity
  8
dxfile
  6
Continuous
 62
     3
100
AcDbLine
 10
1313.761101
 20
595.57535
 30
0.0
 11
1342.261101
 21
595.57535
 31
0.0
  0
ARC
  5
1CE
330
1F
100
AcDbEntity
  8
dxfile
  6
Continuous
 62
     3
100
AcDbCircle
 10
343.061101
 20
596.37535
 30
0.0
 40
0.8000000000164682
100
AcDbArc
 50
180.0
 51
270.0
  0
LINE
  5
1CF
330
1F
100
AcDbEntity
  8
dxfile
  6
Continuous
 62
     3
100
AcDbLine
 10
352.261101
 20
595.57535
 30
0.0
 11
343.061101
 21
595.57535
 31
0.0
  0
LINE
  5
1D0
330
1F
100
AcDbEntity
  8
dxfile
  6
Continuous
 62
     3
100
AcDbLine
 10
352.261101
 20
597.17535
 30
0.0
 11
352.261101
 21
595.57535
 31
0.0
  0
LINE
  5
1D1
330
1F
100
AcDbEntity
  8
dxfile
  6
Continuous
 62
     6
100
AcDbLine
 10
407.387275
 20
664.57535
 30
0.0
 11
427.387275
 21
664.57535
 31
0.0
  0
LINE
  5
1D2
330
1F
100
AcDbEntity
  8
dxfile
  6
Continuous
 62
     6
100
AcDbLine
 10
427.387275
 20
664.57535
 30
0.0
 11
427.387275
 21
660.57535
 31
0.0
  0
LINE
  5
1D3
330
1F
100
AcDbEntity
  8
dxfile
  6
Continuous
 62
     6
100
AcDbLine
 10
427.387275
 20
660.57535
 30
0.0
 11
407.387275
 21
660.57535
 31
0.0
  0
LINE
  5
1D4
330
1F
100
AcDbEntity
  8
dxfile
  6
Continuous
 62
     6
100
AcDbLine
 10
407.387275
 20
660.57535
 30
0.0
 11
407.387275
 21
664.57535
 31
0.0
  0
LINE
  5
1D5
330
1F
100
AcDbEntity
  8
dxfile
  6
Continuous
 62
     6
100
AcDbLine
 10
1276.093928
 20
664.57535
 30
0.0
 11
412.261101
 21
664.57535
 31
0.0
  0
LINE
  5
1D6
330
1F
100
AcDbEntity
  8
dxfile
  6
Continuous
 62
     6
100
AcDbLine
 10
1272.261101
 20
671.37535
 30
0.0
 11
412.261101
 21
671.37535
 31
0.0
  0
LINE
  5
1D7
330
1F
100
AcDbEntity
  8
dxfile
  6
Continuous
 62
     6
100
AcDbLine
 10
412.261101
 20
671.37535
 30
0.0
 11
412.261101
 21
664.57535
 31
0.0
  0
LINE
  5
1D8
330
1F
100
AcDbEntity
  8
dxfile
  6
Continuous
 62
     4
100
AcDbLine
 10
1252.261101
 20
630.57535
 30
0.0
 11
1202.261101
 21
630.57535
 31
0.0
  0
LINE
  5
1D9
330
1F
100
AcDbEntity
  8
dxfile
  6
Continuous
 62
     4
100
AcDbLine
 10
1252.261101
 20
630.57535
 30
0.0
 11
1252.261101
 21
655.57535
 31
0.0
  0
LINE
  5
1DA
330
1F
100
AcDbEntity
  8
dxfile
  6
Continuous
 62
     6
100
AcDbLine
 10
1272.261101
 20
671.37535
 30
0.0
 11
1272.261101
 21
664.57535
 31
0.0
  0
TEXT
  5
1DB
330
1F
100
AcDbEntity
  8
dxfile
  6
Continuous
 62
     3
100
AcDbText
 10
692.173407
 20
1624.962255
 30
0.0
 40
16.8
  1
硝子寸法
 41
0.858268
  7
BIGFONT
100
AcDbText
  0
TEXT
  5
1DC
330
1F
100
AcDbEntity
  8
dxfile
  6
Continuous
 62
     3
100
AcDbText
 10
700.162959
 20
1598.901073
 30
0.0
 40
16.8
  1
５６０
 41
0.858268
  7
BIGFONT
100
AcDbText
  0
TEXT
  5
1DD
330
1F
100
AcDbEntity
  8
dxfile
  6
Continuous
 62
     3
100
AcDbText
 10
700.162959
 20
1571.791724
 30
0.0
 40
16.8
  1
８６０
 41
0.858268
  7
BIGFONT
100
AcDbText
  0
TEXT
  5
1DE
330
1F
100
AcDbEntity
  8
dxfile
  6
Continuous
 62
     3
100
AcDbText
 10
686.971987
 20
1546.167743
 30
0.0
 40
16.8
  1
１２６０
 41
0.858268
  7
BIGFONT
100
AcDbText
  0
TEXT
  5
1DF
330
1F
100
AcDbEntity
  8
dxfile
  6
Continuous
 62
     3
100
AcDbText
 10
495.18254
 20
1650.415599
 30
0.0
 40
16.8
  1
寸               法
 41
0.47962
  7
BIGFONT
100
AcDbText
  0
LINE
  5
1E0
330
1F
100
AcDbEntity
  8
dxfile
  6
Continuous
 62
     3
100
AcDbLine
 10
430.887275
 20
674.07535
 30
0.0
 11
430.887275
 21
672.57535
 31
0.0
  0
LINE
  5
1E1
330
1F
100
AcDbEntity
  8
dxfile
  6
Continuous
 62
     3
100
AcDbLine
 10
390.887275
 20
660.57535
 30
0.0
 11
390.887275
 21
662.07535
 31
0.0
  0
LINE
  5
1E2
330
1F
100
AcDbEntity
  8
dxfile
  6
Continuous
 62
     3
100
AcDbLine
 10
1252.231901
 20
660.57535
 30
0.0
 11
343.090301
 21
660.57535
 31
0.0
  0
LINE
  5
1E3
330
1F
100
AcDbEntity
  8
dxfile
  6
Continuous
 62
     3
100
AcDbLine
 10
387.261383
 20
680.57535
 30
0.0
 11
357.260794
 21
680.57535
 31
0.0
  0
CIRCLE
  5
1E4
330
1F
100
AcDbEntity
  8
dxfile
  6
Continuous
 62
     3
100
AcDbCircle
 10
392.261101
 20
895.975934
 30
0.0
 40
3.0
  0
CIRCLE
  5
1E5
330
1F
100
AcDbEntity
  8
dxfile
  6
Continuous
 62
     3
100
AcDbCircle
 10
1292.261101
 20
895.975934
 30
0.0
 40
3.0
  0
LINE
  5
1E6
330
1F
100
AcDbEntity
  8
dxfile
  6
Continuous
 62
     3
100
AcDbLine
 10
392.261101
 20
895.975934
 30
0.0
 11
1292.261101
 21
895.975934
 31
0.0
  0
LINE
  5
1E7
330
1F
100
AcDbEntity
  8
dxfile
  6
Continuous
 62
     3
100
AcDbLine
 10
392.261101
 20
691.474911
 30
0.0
 11
392.261101
 21
901.975934
 31
0.0
  0
LINE
  5
1E8
330
1F
100
AcDbEntity
  8
dxfile
  6
Continuous
 62
     3
100
AcDbLine
 10
1292.261101
 20
687.993286
 30
0.0
 11
1292.261101
 21
901.975934
 31
0.0
  0
TEXT
  5
1E9
330
1F
100
AcDbEntity
  8
dxfile
  6
Continuous
 62
     3
100
AcDbText
 10
522.786974
 20
758.951535
 30
0.0
 40
18.0
  1
開閉角度 ６０°
 41
0.804626
  7
BIGFONT
100
AcDbText
  0
LINE
  5
1EA
330
1F
100
AcDbEntity
  8
dxfile
  6
Continuous
 62
     3
100
AcDbLine
 10
1262.261101
 20
448.150719
 30
0.0
 11
448.168109
 21
448.150719
 31
0.0
  0
LINE
  5
1EB
330
1F
100
AcDbEntity
  8
dxfile
  6
Continuous
 62
     4
100
AcDbLine
 10
1295.679368
 20
236.577781
 30
0.0
 11
1295.679368
 21
412.628725
 31
0.0
  0
LINE
  5
1EC
330
1F
100
AcDbEntity
  8
dxfile
  6
Continuous
 62
     4
100
AcDbLine
 10
1306.679368
 20
236.577781
 30
0.0
 11
1306.679368
 21
412.628725
 31
0.0
  0
LINE
  5
1ED
330
1F
100
AcDbEntity
  8
dxfile
  6
Continuous
 62
     4
100
AcDbLine
 10
1279.861101
 20
498.828725
 30
0.0
 11
1279.861101
 21
453.428725
 31
0.0
  0
LINE
  5
1EE
330
1F
100
AcDbEntity
  8
dxfile
  6
Continuous
 62
     4
100
AcDbLine
 10
1320.661102
 20
498.828725
 30
0.0
 11
1320.661102
 21
453.428725
 31
0.0
  0
ARC
  5
1EF
330
1F
100
AcDbEntity
  8
dxfile
  6
Continuous
 62
     4
100
AcDbCircle
 10
1278.561101
 20
452.128725
 30
0.0
 40
0.9999999994398795
100
AcDbArc
 50
180.0
 51
270.0
  0
ARC
  5
1F0
330
1F
100
AcDbEntity
  8
dxfile
  6
Continuous
 62
     4
100
AcDbCircle
 10
1321.961102
 20
452.128725
 30
0.0
 40
0.9999999992589446
100
AcDbArc
 50
270.0
 51
0.0
  0
LINE
  5
1F1
330
1F
100
AcDbEntity
  8
dxfile
  6
Continuous
 62
     4
100
AcDbLine
 10
1278.561101
 20
451.128725
 30
0.0
 11
1321.961102
 21
451.128725
 31
0.0
  0
LINE
  5
1F2
330
1F
100
AcDbEntity
  8
dxfile
  6
Continuous
 62
     4
100
AcDbLine
 10
1279.861101
 20
453.428725
 30
0.0
 11
1320.661102
 21
453.428725
 31
0.0
  0
ARC
  5
1F3
330
1F
100
AcDbEntity
  8
dxfile
  6
Continuous
 62
     4
100
AcDbCircle
 10
1298.429368
 20
236.577781
 30
0.0
 40
2.750000000054925
100
AcDbArc
 50
180.0
 51
0.0
  0
ARC
  5
1F4
330
1F
100
AcDbEntity
  8
dxfile
  6
Continuous
 62
     4
100
AcDbCircle
 10
1303.929368
 20
236.577781
 30
0.0
 40
2.749999999993278
100
AcDbArc
 50
0.0
 51
180.0
  0
TEXT
  5
1F5
330
1F
100
AcDbEntity
  8
dxfile
  6
Continuous
 62
     3
100
AcDbText
 10
861.429273
 20
1637.033151
 30
0.0
 40
16.8
  1
概算重量
 41
0.858268
  7
BIGFONT
100
AcDbText
  0
TEXT
  5
1F6
330
1F
100
AcDbEntity
  8
dxfile
  6
Continuous
 62
     3
100
AcDbText
 10
921.260231
 20
1625.845263
 30
0.0
 40
16.8
  1

 41
0.858268
  7
BIGFONT
100
AcDbText
  0
TEXT
  5
1F7
330
1F
100
AcDbEntity
  8
dxfile
  6
Continuous
 62
     3
100
AcDbText
 10
885.48541
 20
1598.118553
 30
0.0
 40
16.8
  1
５７
 41
0.858268
  7
BIGFONT
100
AcDbText
  0
TEXT
  5
1F8
330
1F
100
AcDbEntity
  8
dxfile
  6
Continuous
 62
     3
100
AcDbText
 10
884.998935
 20
1571.851196
 30
0.0
 40
16.8
  1
８１
 41
0.858268
  7
BIGFONT
100
AcDbText
  0
TEXT
  5
1F9
330
1F
100
AcDbEntity
  8
dxfile
  6
Continuous
 62
     3
100
AcDbText
 10
870.637199
 20
1546.556785
 30
0.0
 40
16.8
  1
１２８
 41
0.858268
  7
BIGFONT
100
AcDbText
  0
TEXT
  5
1FA
330
1F
100
AcDbEntity
  8
dxfile
  6
Continuous
 62
     3
100
AcDbText
 10
828.448978
 20
1625.17993
 30
0.0
 40
16.8
  1

 41
0.858268
  7
BIGFONT
100
AcDbText
  0
LINE
  5
1FB
330
1F
100
AcDbEntity
  8
dxfile
  6
Continuous
 62
     6
100
AcDbLine
 10
357.260794
 20
680.57535
 30
0.0
 11
357.260906
 21
678.57535
 31
0.0
  0
LINE
  5
1FC
330
1F
100
AcDbEntity
  8
dxfile
  6
Continuous
 62
     3
100
AcDbLine
 10
757.674507
 20
1646.625014
 30
0.0
 11
296.874507
 21
1646.625014
 31
0.0
  0
LINE
  5
1FD
330
1F
100
AcDbEntity
  8
dxfile
  6
Continuous
 62
     2
100
AcDbLine
 10
941.179372
 20
1620.489014
 30
0.0
 11
117.306281
 21
1620.489014
 31
0.0
  0
LINE
  5
1FE
330
1F
100
AcDbEntity
  8
dxfile
  6
Continuous
 62
     3
100
AcDbLine
 10
941.179372
 20
1594.353014
 30
0.0
 11
117.306281
 21
1594.353014
 31
0.0
  0
LINE
  5
1FF
330
1F
100
AcDbEntity
  8
dxfile
  6
Continuous
 62
     3
100
AcDbLine
 10
941.179372
 20
1568.217014
 30
0.0
 11
117.306281
 21
1568.217014
 31
0.0
  0
LINE
  5
200
330
1F
100
AcDbEntity
  8
dxfile
  6
Continuous
 62
     2
100
AcDbLine
 10
941.179372
 20
1542.081014
 30
0.0
 11
117.306281
 21
1542.081014
 31
0.0
  0
LINE
  5
201
330
1F
100
AcDbEntity
  8
dxfile
  6
Continuous
 62
     3
100
AcDbLine
 10
251.644337
 20
426.128725
 30
0.0
 11
251.644337
 21
411.936976
 31
0.0
  0
LINE
  5
202
330
1F
100
AcDbEntity
  8
dxfile
  6
Continuous
 62
     2
100
AcDbLine
 10
117.306281
 20
1646.625014
 30
0.0
 11
117.306281
 21
1672.761014
 31
0.0
  0
LINE
  5
203
330
1F
100
AcDbEntity
  8
dxfile
  6
Continuous
 62
     2
100
AcDbLine
 10
757.674507
 20
1542.081014
 30
0.0
 11
757.674507
 21
1672.761014
 31
0.0
  0
LINE
  5
204
330
1F
100
AcDbEntity
  8
dxfile
  6
Continuous
 62
     2
100
AcDbLine
 10
941.179372
 20
1672.761014
 30
0.0
 11
117.306281
 21
1672.761014
 31
0.0
  0
LINE
  5
205
330
1F
100
AcDbEntity
  8
dxfile
  6
Continuous
 62
     3
100
AcDbLine
 10
676.480552
 20
916.366457
 30
0.0
 11
686.049048
 21
916.366457
 31
0.0
  0
LINE
  5
206
330
1F
100
AcDbEntity
  8
dxfile
  6
Continuous
 62
     3
100
AcDbLine
 10
686.049048
 20
916.366457
 30
0.0
 11
686.049048
 21
925.934953
 31
0.0
  0
LINE
  5
207
330
1F
100
AcDbEntity
  8
dxfile
  6
Continuous
 62
     3
100
AcDbLine
 10
686.049048
 20
925.934953
 30
0.0
 11
676.480552
 21
925.934953
 31
0.0
  0
LINE
  5
208
330
1F
100
AcDbEntity
  8
dxfile
  6
Continuous
 62
     3
100
AcDbLine
 10
676.480552
 20
925.934953
 30
0.0
 11
676.480552
 21
916.366457
 31
0.0
  0
LINE
  5
209
330
1F
100
AcDbEntity
  8
dxfile
  6
Continuous
 62
     1
100
AcDbLine
 10
57.798438
 20
48.165365
 30
0.0
 11
57.798438
 21
1728.165365
 31
0.0
  0
LINE
  5
20A
330
1F
100
AcDbEntity
  8
dxfile
  6
Continuous
 62
     1
100
AcDbLine
 10
57.798438
 20
48.165365
 30
0.0
 11
2457.798438
 21
48.165365
 31
0.0
  0
LINE
  5
20B
330
1F
100
AcDbEntity
  8
dxfile
  6
Continuous
 62
     1
100
AcDbLine
 10
1587.854217
 20
48.165365
 30
0.0
 11
1947.854217
 21
48.165365
 31
0.0
  0
LINE
  5
20C
330
1F
100
AcDbEntity
  8
dxfile
  6
Continuous
 62
     3
100
AcDbLine
 10
2127.798438
 20
168.165365
 30
0.0
 11
2127.798438
 21
48.165365
 31
0.0
  0
LINE
  5
20D
330
1F
100
AcDbEntity
  8
dxfile
  6
Continuous
 62
     3
100
AcDbLine
 10
2067.798438
 20
168.165365
 30
0.0
 11
2067.798438
 21
48.165365
 31
0.0
  0
LINE
  5
20E
330
1F
100
AcDbEntity
  8
dxfile
  6
Continuous
 62
     3
100
AcDbLine
 10
2007.798438
 20
168.165365
 30
0.0
 11
2007.798438
 21
48.165365
 31
0.0
  0
LINE
  5
20F
330
1F
100
AcDbEntity
  8
dxfile
  6
Continuous
 62
     3
100
AcDbLine
 10
1947.798438
 20
168.165365
 30
0.0
 11
1947.798438
 21
48.165365
 31
0.0
  0
LINE
  5
210
330
1F
100
AcDbEntity
  8
dxfile
  6
Continuous
 62
     1
100
AcDbLine
 10
1575.798438
 20
168.165365
 30
0.0
 11
1575.798438
 21
48.165365
 31
0.0
  0
LINE
  5
211
330
1F
100
AcDbEntity
  8
dxfile
  6
Continuous
 62
     1
100
AcDbLine
 10
1575.798438
 20
48.165365
 30
0.0
 11
2457.798438
 21
48.165365
 31
0.0
  0
LINE
  5
212
330
1F
100
AcDbEntity
  8
dxfile
  6
Continuous
 62
     1
100
AcDbLine
 10
2457.798438
 20
48.165365
 30
0.0
 11
2457.798438
 21
168.165365
 31
0.0
  0
LINE
  5
213
330
1F
100
AcDbEntity
  8
dxfile
  6
Continuous
 62
     1
100
AcDbLine
 10
2457.798438
 20
168.165365
 30
0.0
 11
1575.798438
 21
168.165365
 31
0.0
  0
LINE
  5
214
330
1F
100
AcDbEntity
  8
dxfile
  6
Continuous
 62
     2
100
AcDbLine
 10
1618.945757
 20
134.668309
 30
0.0
 11
1630.017944
 21
145.740497
 31
0.0
  0
LINE
  5
215
330
1F
100
AcDbEntity
  8
dxfile
  6
Continuous
 62
     2
100
AcDbLine
 10
1618.945757
 20
119.009871
 30
0.0
 11
1618.945757
 21
134.668309
 31
0.0
  0
LINE
  5
216
330
1F
100
AcDbEntity
  8
dxfile
  6
Continuous
 62
     2
100
AcDbLine
 10
1616.545757
 20
134.668309
 30
0.0
 11
1616.545757
 21
119.009871
 31
0.0
  0
LINE
  5
217
330
1F
100
AcDbEntity
  8
dxfile
  6
Continuous
 62
     2
100
AcDbLine
 10
1605.473569
 20
145.740497
 30
0.0
 11
1616.545757
 21
134.668309
 31
0.0
  0
LINE
  5
218
330
1F
100
AcDbEntity
  8
dxfile
  6
Continuous
 62
     2
100
AcDbLine
 10
1641.745757
 20
135.165365
 30
0.0
 11
1637.509359
 21
133.965365
 31
0.0
  0
LINE
  5
219
330
1F
100
AcDbEntity
  8
dxfile
  6
Continuous
 62
     2
100
AcDbLine
 10
1641.745757
 20
135.165365
 30
0.0
 11
1637.545757
 21
135.165365
 31
0.0
  0
LINE
  5
21A
330
1F
100
AcDbEntity
  8
dxfile
  6
Continuous
 62
     2
100
AcDbLine
 10
1637.509359
 20
136.365365
 30
0.0
 11
1641.745757
 21
135.165365
 31
0.0
  0
LINE
  5
21B
330
1F
100
AcDbEntity
  8
dxfile
  6
Continuous
 62
     2
100
AcDbLine
 10
1617.745757
 20
111.165365
 30
0.0
 11
1617.745757
 21
115.365365
 31
0.0
  0
LINE
  5
21C
330
1F
100
AcDbEntity
  8
dxfile
  6
Continuous
 62
     2
100
AcDbLine
 10
1617.745757
 20
111.165365
 30
0.0
 11
1618.945757
 21
115.401762
 31
0.0
  0
LINE
  5
21D
330
1F
100
AcDbEntity
  8
dxfile
  6
Continuous
 62
     2
100
AcDbLine
 10
1617.745757
 20
111.165365
 30
0.0
 11
1616.545757
 21
115.401762
 31
0.0
  0
LINE
  5
21E
330
1F
100
AcDbEntity
  8
dxfile
  6
Continuous
 62
     2
100
AcDbLine
 10
1593.745757
 20
135.165365
 30
0.0
 11
1597.982154
 21
133.965365
 31
0.0
  0
LINE
  5
21F
330
1F
100
AcDbEntity
  8
dxfile
  6
Continuous
 62
     2
100
AcDbLine
 10
1593.745757
 20
135.165365
 30
0.0
 11
1597.945757
 21
135.165365
 31
0.0
  0
LINE
  5
220
330
1F
100
AcDbEntity
  8
dxfile
  6
Continuous
 62
     2
100
AcDbLine
 10
1593.745757
 20
135.165365
 30
0.0
 11
1597.982154
 21
136.365365
 31
0.0
  0
LINE
  5
221
330
1F
100
AcDbEntity
  8
dxfile
  6
Continuous
 62
     2
100
AcDbLine
 10
1617.745757
 20
159.165365
 30
0.0
 11
1618.945757
 21
154.928968
 31
0.0
  0
LINE
  5
222
330
1F
100
AcDbEntity
  8
dxfile
  6
Continuous
 62
     2
100
AcDbLine
 10
1617.745757
 20
159.165365
 30
0.0
 11
1616.545757
 21
154.928968
 31
0.0
  0
LINE
  5
223
330
1F
100
AcDbEntity
  8
dxfile
  6
Continuous
 62
     2
100
AcDbLine
 10
1617.745757
 20
159.165365
 30
0.0
 11
1617.745757
 21
154.965365
 31
0.0
  0
LINE
  5
224
330
1F
100
AcDbEntity
  8
dxfile
  6
Continuous
 62
     2
100
AcDbLine
 10
1617.745757
 20
136.862421
 30
0.0
 11
1607.170625
 21
147.437553
 31
0.0
  0
LINE
  5
225
330
1F
100
AcDbEntity
  8
dxfile
  6
Continuous
 62
     2
100
AcDbLine
 10
1628.320888
 20
147.437553
 30
0.0
 11
1617.745757
 21
136.862421
 31
0.0
  0
LINE
  5
226
330
1F
100
AcDbEntity
  8
dxfile
  6
Continuous
 62
     2
100
AcDbLine
 10
1617.745757
 20
135.165365
 30
0.0
 11
1629.200886
 21
146.620495
 31
0.0
  0
LINE
  5
227
330
1F
100
AcDbEntity
  8
dxfile
  6
Continuous
 62
     2
100
AcDbLine
 10
1617.745757
 20
135.165365
 30
0.0
 11
1617.745757
 21
118.965365
 31
0.0
  0
LINE
  5
228
330
1F
100
AcDbEntity
  8
dxfile
  6
Continuous
 62
     2
100
AcDbLine
 10
1606.290627
 20
146.620495
 30
0.0
 11
1617.745757
 21
135.165365
 31
0.0
  0
ARC
  5
229
330
1F
100
AcDbEntity
  8
dxfile
  6
Continuous
 62
     2
100
AcDbCircle
 10
1617.745757
 20
135.165365
 30
0.0
 40
13.7999999999675
100
AcDbArc
 50
62.718932
 51
117.281068
  0
ARC
  5
22A
330
1F
100
AcDbEntity
  8
dxfile
  6
Continuous
 62
     2
100
AcDbCircle
 10
1617.745757
 20
135.165365
 30
0.0
 40
16.20000000003378
100
AcDbArc
 50
60.026114
 51
119.973886
  0
ARC
  5
22B
330
1F
100
AcDbEntity
  8
dxfile
  6
Continuous
 62
     2
100
AcDbCircle
 10
1617.745757
 20
135.165365
 30
0.0
 40
16.20000000003327
100
AcDbArc
 50
285.026114
 51
29.973886
  0
ARC
  5
22C
330
1F
100
AcDbEntity
  8
dxfile
  6
Continuous
 62
     2
100
AcDbCircle
 10
1617.745757
 20
135.165365
 30
0.0
 40
13.79999999999529
100
AcDbArc
 50
287.718932
 51
27.281068
  0
ARC
  5
22D
330
1F
100
AcDbEntity
  8
dxfile
  6
Continuous
 62
     2
100
AcDbCircle
 10
1617.745757
 20
135.165365
 30
0.0
 40
13.79999999999453
100
AcDbArc
 50
152.718932
 51
252.281068
  0
ARC
  5
22E
330
1F
100
AcDbEntity
  8
dxfile
  6
Continuous
 62
     2
100
AcDbCircle
 10
1617.745757
 20
135.165365
 30
0.0
 40
16.20000000001588
100
AcDbArc
 50
150.026114
 51
254.973886
  0
CIRCLE
  5
22F
330
1F
100
AcDbEntity
  8
dxfile
  6
Continuous
 62
     2
100
AcDbCircle
 10
1617.745757
 20
135.165365
 30
0.0
 40
19.80000000000007
  0
CIRCLE
  5
230
330
1F
100
AcDbEntity
  8
dxfile
  6
Continuous
 62
     2
100
AcDbCircle
 10
1617.745757
 20
135.165365
 30
0.0
 40
22.19999999999993
  0
TEXT
  5
231
330
1F
100
AcDbEntity
  8
dxfile
  6
Continuous
 62
     3
100
AcDbText
 10
1658.167332
 20
59.970347
 30
0.0
 40
18.0
  1
電話　０３－３６８５－３４５１（代）
 41
0.858268
  7
BIGFONT
100
AcDbText
  0
TEXT
  5
232
330
1F
100
AcDbEntity
  8
dxfile
  6
Continuous
 62
     3
100
AcDbText
 10
1658.950476
 20
84.571853
 30
0.0
 40
18.0
  1
本社　東京都江東区亀戸６－２０－７
 41
0.858268
  7
BIGFONT
100
AcDbText
  0
ARC
  5
233
330
1F
100
AcDbEntity
  8
dxfile
  6
Continuous
 62
     2
100
AcDbCircle
 10
1617.745757
 20
135.165365
 30
0.0
 40
15.00000000000333
100
AcDbArc
 50
151.260205
 51
253.739795
  0
ARC
  5
234
330
1F
100
AcDbEntity
  8
dxfile
  6
Continuous
 62
     2
100
AcDbCircle
 10
1617.745757
 20
135.165365
 30
0.0
 40
14.99999999997434
100
AcDbArc
 50
286.260205
 51
28.739795
  0
ARC
  5
235
330
1F
100
AcDbEntity
  8
dxfile
  6
Continuous
 62
     2
100
AcDbCircle
 10
1617.745757
 20
135.165365
 30
0.0
 40
14.99999999996777
100
AcDbArc
 50
61.260205
 51
118.739795
  0
CIRCLE
  5
236
330
1F
100
AcDbEntity
  8
dxfile
  6
Continuous
 62
     2
100
AcDbCircle
 10
1617.745757
 20
135.165365
 30
0.0
 40
21.0
  0
TEXT
  5
237
330
1F
100
AcDbEntity
  8
dxfile
  6
Continuous
 62
     1
100
AcDbText
 10
1655.416176
 20
114.181289
 30
0.0
 40
42.0
  1
三洋工業株式会社
 41
0.858268
  7
BIGFONT
100
AcDbText
  0
TEXT
  5
238
330
1F
100
AcDbEntity
  8
dxfile
  6
Continuous
 62
     2
100
AcDbText
 10
2023.802772
 20
115.828139
 30
0.0
 40
18.0
  1
ｍｍ
 41
0.858268
  7
BIGFONT
100
AcDbText
  0
TEXT
  5
239
330
1F
100
AcDbEntity
  8
dxfile
  6
Continuous
 62
     2
100
AcDbText
 10
2099.922359
 20
94.428736
 30
0.0
 40
18.0
  1
図番
 41
0.858268
  7
BIG VER
100
AcDbText
  0
TEXT
  5
23A
330
1F
100
AcDbEntity
  8
dxfile
  6
Continuous
 62
     2
100
AcDbText
 10
2099.922359
 20
156.670312
 30
0.0
 40
18.0
  1
形名
 41
0.858268
  7
BIG VER
100
AcDbText
  0
TEXT
  5
23B
330
1F
100
AcDbEntity
  8
dxfile
  6
Continuous
 62
     2
100
AcDbText
 10
1976.866168
 20
94.083449
 30
0.0
 40
18.0
  1
製図
 41
0.858268
  7
BIG VER
100
AcDbText
  0
TEXT
  5
23C
330
1F
100
AcDbEntity
  8
dxfile
  6
Continuous
 62
     2
100
AcDbText
 10
1977.056702
 20
156.589714
 30
0.0
 40
18.0
  1
単位
 41
0.858268
  7
BIG VER
100
AcDbText
  0
LINE
  5
23D
330
1F
100
AcDbEntity
  8
dxfile
  6
Continuous
 62
     3
100
AcDbLine
 10
1947.798438
 20
108.165365
 30
0.0
 11
2457.798438
 21
108.165365
 31
0.0
  0
TEXT
  5
23E
330
1F
100
AcDbEntity
  8
dxfile
  6
Continuous
 62
     2
100
AcDbText
 10
2147.382967
 20
140.616093
 30
0.0
 40
24.0
  1
ライトモニック標準施工図
 41
0.858268
  7
BIGFONT
100
AcDbText
  0
TEXT
  5
23F
330
1F
100
AcDbEntity
  8
dxfile
  6
Continuous
 62
     2
100
AcDbText
 10
2181.182327
 20
65.018829
 30
0.0
 40
24.0
  1
Ｈ－１２－ＬＭ－６６
 41
0.858268
  7
BIGFONT
100
AcDbText
  0
LINE
  5
240
330
1F
100
AcDbEntity
  8
dxfile
  6
Continuous
 62
     3
100
AcDbLine
 10
373.761101
 20
584.386515
 30
0.0
 11
356.260502
 21
574.400552
 31
0.0
  0
LINE
  5
241
330
1F
100
AcDbEntity
  8
dxfile
  6
Continuous
 62
     3
100
AcDbLine
 10
356.261101
 20
574.400894
 30
0.0
 11
356.261101
 21
504.628725
 31
0.0
  0
LINE
  5
242
330
1F
100
AcDbEntity
  8
dxfile
  6
Continuous
 62
     3
100
AcDbLine
 10
357.599672
 20
604.243894
 30
0.0
 11
366.849154
 21
614.855533
 31
0.0
  0
ARC
  5
243
330
1F
100
AcDbEntity
  8
dxfile
  6
Continuous
 62
     3
100
AcDbCircle
 10
358.737971
 20
603.267024
 30
0.0
 40
1.500000000029195
100
AcDbArc
 50
139.364342
 51
319.364342
  0
LINE
  5
244
330
1F
100
AcDbEntity
  8
dxfile
  6
Continuous
 62
     3
100
AcDbLine
 10
359.861168
 20
602.272693
 30
0.0
 11
367.253437
 21
610.753609
 31
0.0
  0
ARC
  5
245
330
1F
100
AcDbEntity
  8
dxfile
  6
Continuous
 62
     3
100
AcDbCircle
 10
369.775674
 20
612.128725
 30
0.0
 40
3.999999999990947
100
AcDbArc
 50
4.892331
 51
140.823642
  0
INSERT
  5
24F
330
1F
100
AcDbEntity
  8
dxfile
  6
Continuous
 62
     3
100
AcDbBlockReference
  2
DIM_1
 10
312.202495
 20
616.128725
 30
0.0
  0
LINE
  5
250
330
1F
100
AcDbEntity
  8
dxfile
  6
Continuous
 62
     3
100
AcDbLine
 10
244.661101
 20
451.128725
 30
0.0
 11
245.261101
 21
450.528725
 31
0.0
  0
LINE
  5
251
330
1F
100
AcDbEntity
  8
dxfile
  6
Continuous
 62
     3
100
AcDbLine
 10
1325.261101
 20
500.128726
 30
0.0
 11
1325.261101
 21
451.128725
 31
0.0
  0
ARC
  5
252
330
1F
100
AcDbEntity
  8
dxfile
  6
Continuous
 62
     3
100
AcDbCircle
 10
1324.261102
 20
500.128726
 30
0.0
 40
0.9999996003149405
100
AcDbArc
 50
0.0
 51
90.0
  0
LINE
  5
253
330
1F
100
AcDbEntity
  8
dxfile
  6
Continuous
 62
     3
100
AcDbLine
 10
1275.261101
 20
500.128725
 30
0.0
 11
1275.261101
 21
435.450724
 31
0.0
  0
LINE
  5
254
330
1F
100
AcDbEntity
  8
dxfile
  6
Continuous
 62
     3
100
AcDbLine
 10
1331.261101
 20
477.619446
 30
0.0
 11
1331.261101
 21
455.528725
 31
0.0
  0
ARC
  5
255
330
1F
100
AcDbEntity
  8
dxfile
  6
Continuous
 62
     3
100
AcDbCircle
 10
1441.261101
 20
429.128725
 30
0.0
 40
1.000000000488952
100
AcDbArc
 50
270.0
 51
0.0
  0
LINE
  5
256
330
1F
100
AcDbEntity
  8
dxfile
  6
Continuous
 62
     3
100
AcDbLine
 10
1441.261101
 20
428.128725
 30
0.0
 11
1434.877865
 21
428.128725
 31
0.0
  0
ARC
  5
257
330
1F
100
AcDbEntity
  8
dxfile
  6
Continuous
 62
     3
100
AcDbCircle
 10
1434.877865
 20
426.128725
 30
0.0
 40
2.000000000371462
100
AcDbArc
 50
90.0
 51
180.0
  0
LINE
  5
258
330
1F
100
AcDbEntity
  8
dxfile
  6
Continuous
 62
     3
100
AcDbLine
 10
1429.761101
 20
427.122341
 30
0.0
 11
1429.761101
 21
419.128725
 31
0.0
  0
ARC
  5
259
330
1F
100
AcDbEntity
  8
dxfile
  6
Continuous
 62
     3
100
AcDbCircle
 10
1329.261101
 20
574.981631
 30
0.0
 40
2.000000000167734
100
AcDbArc
 50
0.0
 51
60.290621
  0
LINE
  5
25A
330
1F
100
AcDbEntity
  8
dxfile
  6
Continuous
 62
     3
100
AcDbLine
 10
1331.261101
 20
574.981631
 30
0.0
 11
1331.261101
 21
484.532328
 31
0.0
  0
LINE
  5
25B
330
1F
100
AcDbEntity
  8
dxfile
  6
Continuous
 62
     3
100
AcDbLine
 10
1320.011101
 20
504.628725
 30
0.0
 11
1328.261101
 21
504.628725
 31
0.0
  0
ARC
  5
25C
330
1F
100
AcDbEntity
  8
dxfile
  6
Continuous
 62
     3
100
AcDbCircle
 10
1410.51904
 20
464.831672
 30
0.0
 40
0.4000000011482243
100
AcDbArc
 50
344.998601
 51
80.788973
  0
LINE
  5
25D
330
1F
100
AcDbEntity
  8
dxfile
  6
Continuous
 62
     3
100
AcDbLine
 10
1407.396037
 20
451.632262
 30
0.0
 11
1410.905408
 21
464.728135
 31
0.0
  0
ARC
  5
25E
330
1F
100
AcDbEntity
  8
dxfile
  6
Continuous
 62
     3
100
AcDbCircle
 10
1411.960032
 20
455.528725
 30
0.0
 40
0.399999998959686
100
AcDbArc
 50
164.997259
 51
270.0
  0
LINE
  5
25F
330
1F
100
AcDbEntity
  8
dxfile
  6
Continuous
 62
     3
100
AcDbLine
 10
1423.275331
 20
455.128725
 30
0.0
 11
1411.960032
 21
455.128725
 31
0.0
  0
ARC
  5
260
330
1F
100
AcDbEntity
  8
dxfile
  6
Continuous
 62
     3
100
AcDbCircle
 10
1407.782404
 20
451.528725
 30
0.0
 40
0.3999999981573172
100
AcDbArc
 50
164.998601
 51
270.0
  0
LINE
  5
261
330
1F
100
AcDbEntity
  8
dxfile
  6
Continuous
 62
     3
100
AcDbLine
 10
1423.269331
 20
451.128725
 30
0.0
 11
1407.782404
 21
451.128725
 31
0.0
  0
ARC
  5
262
330
1F
100
AcDbEntity
  8
dxfile
  6
Continuous
 62
     3
100
AcDbCircle
 10
1331.661101
 20
455.528725
 30
0.0
 40
0.3999999998262591
100
AcDbArc
 50
180.0
 51
270.0
  0
LINE
  5
263
330
1F
100
AcDbEntity
  8
dxfile
  6
Continuous
 62
     3
100
AcDbLine
 10
1344.261101
 20
455.128725
 30
0.0
 11
1331.661101
 21
455.128725
 31
0.0
  0
LINE
  5
264
330
1F
100
AcDbEntity
  8
dxfile
  6
Continuous
 62
     3
100
AcDbLine
 10
1346.3369
 20
453.116724
 30
0.0
 11
1346.3369
 21
453.128724
 31
0.0
  0
ARC
  5
265
330
1F
100
AcDbEntity
  8
dxfile
  6
Continuous
 62
     3
100
AcDbCircle
 10
1328.661101
 20
451.528725
 30
0.0
 40
0.4000000001919273
100
AcDbArc
 50
180.0
 51
270.0
  0
LINE
  5
266
330
1F
100
AcDbEntity
  8
dxfile
  6
Continuous
 62
     3
100
AcDbLine
 10
1344.261101
 20
451.128725
 30
0.0
 11
1328.661101
 21
451.128725
 31
0.0
  0
LINE
  5
267
330
1F
100
AcDbEntity
  8
dxfile
  6
Continuous
 62
     3
100
AcDbLine
 10
1411.573666
 20
455.632271
 30
0.0
 11
1413.903004
 21
464.323814
 31
0.0
  0
ARC
  5
268
330
1F
100
AcDbEntity
  8
dxfile
  6
Continuous
 62
     3
100
AcDbCircle
 10
1423.263331
 20
453.137724
 30
0.0
 40
1.999999199977406
100
AcDbArc
 50
0.0
 51
90.0
  0
ARC
  5
269
330
1F
100
AcDbEntity
  8
dxfile
  6
Continuous
 62
     3
100
AcDbCircle
 10
1423.263331
 20
453.137724
 30
0.0
 40
1.999999200372798
100
AcDbArc
 50
270.0
 51
0.0
  0
ARC
  5
26A
330
1F
100
AcDbEntity
  8
dxfile
  6
Continuous
 62
     3
100
AcDbCircle
 10
1432.577865
 20
416.43495
 30
0.0
 40
0.3000000010387553
100
AcDbArc
 50
266.108615
 51
0.0
  0
ARC
  5
26B
330
1F
100
AcDbEntity
  8
dxfile
  6
Continuous
 62
     3
100
AcDbCircle
 10
1432.761101
 20
419.128725
 30
0.0
 40
3.000000000132032
100
AcDbArc
 50
180.0
 51
266.108615
  0
LINE
  5
26C
330
1F
100
AcDbEntity
  8
dxfile
  6
Continuous
 62
     3
100
AcDbLine
 10
1435.270864
 20
431.122339
 30
0.0
 11
1433.786865
 21
431.122339
 31
0.0
  0
ARC
  5
26D
330
1F
100
AcDbEntity
  8
dxfile
  6
Continuous
 62
     3
100
AcDbCircle
 10
1441.861101
 20
462.788365
 30
0.0
 40
0.4000000011874628
100
AcDbArc
 50
0.0
 51
80.788973
  0
LINE
  5
26E
330
1F
100
AcDbEntity
  8
dxfile
  6
Continuous
 62
     3
100
AcDbLine
 10
1442.261101
 20
462.788365
 30
0.0
 11
1442.261101
 21
451.428725
 31
0.0
  0
ARC
  5
26F
330
1F
100
AcDbEntity
  8
dxfile
  6
Continuous
 62
     3
100
AcDbCircle
 10
1335.261101
 20
484.532328
 30
0.0
 40
4.000000000179641
100
AcDbArc
 50
180.0
 51
260.788973
  0
LINE
  5
270
330
1F
100
AcDbEntity
  8
dxfile
  6
Continuous
 62
     3
100
AcDbLine
 10
1334.620817
 20
480.583907
 30
0.0
 11
1441.92513
 21
463.183207
 31
0.0
  0
ARC
  5
271
330
1F
100
AcDbEntity
  8
dxfile
  6
Continuous
 62
     3
100
AcDbCircle
 10
1433.786865
 20
427.122341
 30
0.0
 40
3.999998400120825
100
AcDbArc
 50
90.0
 51
180.0
  0
ARC
  5
272
330
1F
100
AcDbEntity
  8
dxfile
  6
Continuous
 62
     3
100
AcDbCircle
 10
1435.270864
 20
435.122338
 30
0.0
 40
3.999998399961565
100
AcDbArc
 50
270.0
 51
0.0
  0
LINE
  5
273
330
1F
100
AcDbEntity
  8
dxfile
  6
Continuous
 62
     3
100
AcDbLine
 10
1441.961101
 20
451.128725
 30
0.0
 11
1442.261101
 21
451.428725
 31
0.0
  0
LINE
  5
274
330
1F
100
AcDbEntity
  8
dxfile
  6
Continuous
 62
     3
100
AcDbLine
 10
1441.961101
 20
451.128725
 30
0.0
 11
1442.261101
 21
450.828725
 31
0.0
  0
LINE
  5
275
330
1F
100
AcDbEntity
  8
dxfile
  6
Continuous
 62
     3
100
AcDbLine
 10
1442.261101
 20
429.128725
 30
0.0
 11
1442.261101
 21
450.828725
 31
0.0
  0
LINE
  5
276
330
1F
100
AcDbEntity
  8
dxfile
  6
Continuous
 62
     3
100
AcDbLine
 10
1313.761101
 20
586.128725
 30
0.0
 11
1330.252303
 21
576.718732
 31
0.0
  0
ARC
  5
277
330
1F
100
AcDbEntity
  8
dxfile
  6
Continuous
 62
     3
100
AcDbCircle
 10
1276.261101
 20
500.128725
 30
0.0
 40
1.000000000408403
100
AcDbArc
 50
90.0
 51
180.0
  0
LINE
  5
278
330
1F
100
AcDbEntity
  8
dxfile
  6
Continuous
 62
     3
100
AcDbLine
 10
1264.5291
 20
448.150719
 30
0.0
 11
1262.256101
 21
448.150719
 31
0.0
  0
LINE
  5
279
330
1F
100
AcDbEntity
  8
dxfile
  6
Continuous
 62
     3
100
AcDbLine
 10
1264.5711
 20
435.450724
 30
0.0
 11
1275.261101
 21
435.450724
 31
0.0
  0
LINE
  5
27A
330
1F
100
AcDbEntity
  8
dxfile
  6
Continuous
 62
     3
100
AcDbLine
 10
1322.961102
 20
449.828725
 30
0.0
 11
1322.961102
 21
498.828725
 31
0.0
  0
LINE
  5
27B
330
1F
100
AcDbEntity
  8
dxfile
  6
Continuous
 62
     3
100
AcDbLine
 10
1427.261101
 20
416.128725
 30
0.0
 11
1424.961101
 21
416.128725
 31
0.0
  0
ARC
  5
27C
330
1F
100
AcDbEntity
  8
dxfile
  6
Continuous
 62
     3
100
AcDbCircle
 10
1315.761101
 20
609.439475
 30
0.0
 40
1.999999999999346
100
AcDbArc
 50
41.076567
 51
180.0
  0
LINE
  5
27D
330
1F
100
AcDbEntity
  8
dxfile
  6
Continuous
 62
     3
100
AcDbLine
 10
1313.761101
 20
586.128725
 30
0.0
 11
1313.761101
 21
609.439475
 31
0.0
  0
LINE
  5
27E
330
1F
100
AcDbEntity
  8
dxfile
  6
Continuous
 62
     3
100
AcDbLine
 10
1310.761101
 20
612.469859
 30
0.0
 11
1310.761101
 21
584.156278
 31
0.0
  0
LINE
  5
27F
330
1F
100
AcDbEntity
  8
dxfile
  6
Continuous
 62
     3
100
AcDbLine
 10
1328.261101
 20
451.528725
 30
0.0
 11
1328.261101
 21
501.128725
 31
0.0
  0
LINE
  5
280
330
1F
100
AcDbEntity
  8
dxfile
  6
Continuous
 62
     3
100
AcDbLine
 10
1277.561101
 20
434.128725
 30
0.0
 11
1277.561101
 21
498.828725
 31
0.0
  0
LINE
  5
281
330
1F
100
AcDbEntity
  8
dxfile
  6
Continuous
 62
     3
100
AcDbLine
 10
1322.961102
 20
498.828725
 30
0.0
 11
1277.561101
 21
498.828725
 31
0.0
  0
LINE
  5
282
330
1F
100
AcDbEntity
  8
dxfile
  6
Continuous
 62
     3
100
AcDbLine
 10
1320.011101
 20
501.128725
 30
0.0
 11
1328.261101
 21
501.128725
 31
0.0
  0
ARC
  5
283
330
1F
100
AcDbEntity
  8
dxfile
  6
Continuous
 62
     3
100
AcDbCircle
 10
1323.961102
 20
449.828725
 30
0.0
 40
1.000000000033088
100
AcDbArc
 50
180.0
 51
270.0
  0
LINE
  5
284
330
1F
100
AcDbEntity
  8
dxfile
  6
Continuous
 62
     3
100
AcDbLine
 10
1264.5711
 20
448.145719
 30
0.0
 11
1264.5711
 21
435.450724
 31
0.0
  0
LINE
  5
285
330
1F
100
AcDbEntity
  8
dxfile
  6
Continuous
 62
     3
100
AcDbLine
 10
1262.261101
 20
448.145719
 30
0.0
 11
1262.261101
 21
448.061719
 31
0.0
  0
LINE
  5
286
330
1F
100
AcDbEntity
  8
dxfile
  6
Continuous
 62
     3
100
AcDbLine
 10
1424.961101
 20
448.828725
 30
0.0
 11
1323.961102
 21
448.828725
 31
0.0
  0
LINE
  5
287
330
1F
100
AcDbEntity
  8
dxfile
  6
Continuous
 62
     3
100
AcDbLine
 10
1424.961101
 20
416.128725
 30
0.0
 11
1424.961101
 21
448.828725
 31
0.0
  0
ARC
  5
288
330
1F
100
AcDbEntity
  8
dxfile
  6
Continuous
 62
     3
100
AcDbCircle
 10
1426.261101
 20
450.128725
 30
0.0
 40
0.9999999998536
100
AcDbArc
 50
0.0
 51
90.0
  0
LINE
  5
289
330
1F
100
AcDbEntity
  8
dxfile
  6
Continuous
 62
     3
100
AcDbLine
 10
1427.261101
 20
416.128725
 30
0.0
 11
1427.261101
 21
450.128725
 31
0.0
  0
LINE
  5
28A
330
1F
100
AcDbEntity
  8
dxfile
  6
Continuous
 62
     3
100
AcDbLine
 10
1262.261101
 20
448.145719
 30
0.0
 11
1262.261101
 21
434.128725
 31
0.0
  0
ARC
  5
28B
330
1F
100
AcDbEntity
  8
dxfile
  6
Continuous
 62
     3
100
AcDbCircle
 10
1276.561101
 20
434.128725
 30
0.0
 40
0.9999999998636084
100
AcDbArc
 50
270.0
 51
0.0
  0
LINE
  5
28C
330
1F
100
AcDbEntity
  8
dxfile
  6
Continuous
 62
     3
100
AcDbLine
 10
1276.561101
 20
433.128725
 30
0.0
 11
1263.261101
 21
433.128725
 31
0.0
  0
ARC
  5
28D
330
1F
100
AcDbEntity
  8
dxfile
  6
Continuous
 62
     3
100
AcDbCircle
 10
1263.261101
 20
434.128725
 30
0.0
 40
0.9999996005389838
100
AcDbArc
 50
180.0
 51
270.0
  0
LINE
  5
28E
330
1F
100
AcDbEntity
  8
dxfile
  6
Continuous
 62
     3
100
AcDbLine
 10
1426.261101
 20
451.128725
 30
0.0
 11
1325.261101
 21
451.128725
 31
0.0
  0
LINE
  5
28F
330
1F
100
AcDbEntity
  8
dxfile
  6
Continuous
 62
     3
100
AcDbLine
 10
1320.011101
 20
501.128725
 30
0.0
 11
1276.261101
 21
501.128725
 31
0.0
  0
ARC
  5
290
330
1F
100
AcDbEntity
  8
dxfile
  6
Continuous
 62
     3
100
AcDbCircle
 10
1331.661101
 20
477.619446
 30
0.0
 40
0.4000000003672878
100
AcDbArc
 50
80.788974
 51
180.0
  0
LINE
  5
291
330
1F
100
AcDbEntity
  8
dxfile
  6
Continuous
 62
     3
100
AcDbLine
 10
1331.72513
 20
478.014289
 30
0.0
 11
1410.583069
 21
465.226515
 31
0.0
  0
ARC
  5
292
330
1F
100
AcDbEntity
  8
dxfile
  6
Continuous
 62
     3
100
AcDbCircle
 10
1414.289369
 20
464.220268
 30
0.0
 40
0.4000000028590736
100
AcDbArc
 50
80.788974
 51
164.997259
  0
LINE
  5
293
330
1F
100
AcDbEntity
  8
dxfile
  6
Continuous
 62
     3
100
AcDbLine
 10
1439.261101
 20
460.576023
 30
0.0
 11
1414.353398
 21
464.61511
 31
0.0
  0
LINE
  5
294
330
1F
100
AcDbEntity
  8
dxfile
  6
Continuous
 62
     3
100
AcDbLine
 10
1439.261101
 20
460.576023
 30
0.0
 11
1439.261101
 21
451.728725
 31
0.0
  0
LINE
  5
295
330
1F
100
AcDbEntity
  8
dxfile
  6
Continuous
 62
     3
100
AcDbLine
 10
1439.261101
 20
434.843063
 30
0.0
 11
1439.261101
 21
450.528725
 31
0.0
  0
LINE
  5
296
330
1F
100
AcDbEntity
  8
dxfile
  6
Continuous
 62
     3
100
AcDbLine
 10
1439.861101
 20
451.128725
 30
0.0
 11
1439.261101
 21
451.728725
 31
0.0
  0
ARC
  5
297
330
1F
100
AcDbEntity
  8
dxfile
  6
Continuous
 62
     3
100
AcDbCircle
 10
1344.261101
 20
453.128725
 30
0.0
 40
1.999999999961517
100
AcDbArc
 50
270.0
 51
90.0
  0
ARC
  5
298
330
1F
100
AcDbEntity
  8
dxfile
  6
Continuous
 62
     3
100
AcDbCircle
 10
1320.011101
 20
502.878725
 30
0.0
 40
1.749999999981867
100
AcDbArc
 50
90.0
 51
270.0
  0
LINE
  5
299
330
1F
100
AcDbEntity
  8
dxfile
  6
Continuous
 62
     4
100
AcDbLine
 10
1356.261101
 20
448.828725
 30
0.0
 11
1342.261101
 21
448.828725
 31
0.0
  0
LINE
  5
29A
330
1F
100
AcDbEntity
  8
dxfile
  6
Continuous
 62
     4
100
AcDbLine
 10
1342.261101
 20
448.828725
 30
0.0
 11
1342.261101
 21
446.528725
 31
0.0
  0
LINE
  5
29B
330
1F
100
AcDbEntity
  8
dxfile
  6
Continuous
 62
     4
100
AcDbLine
 10
1342.261101
 20
446.528725
 30
0.0
 11
1354.961101
 21
446.528725
 31
0.0
  0
LINE
  5
29C
330
1F
100
AcDbEntity
  8
dxfile
  6
Continuous
 62
     4
100
AcDbLine
 10
1354.961101
 20
446.528725
 30
0.0
 11
1354.961101
 21
423.865735
 31
0.0
  0
LINE
  5
29D
330
1F
100
AcDbEntity
  8
dxfile
  6
Continuous
 62
     4
100
AcDbLine
 10
1354.961101
 20
423.865735
 30
0.0
 11
1357.261101
 21
423.865735
 31
0.0
  0
LINE
  5
29E
330
1F
100
AcDbEntity
  8
dxfile
  6
Continuous
 62
     4
100
AcDbLine
 10
1357.261101
 20
423.865735
 30
0.0
 11
1357.261101
 21
447.828725
 31
0.0
  0
ARC
  5
29F
330
1F
100
AcDbEntity
  8
dxfile
  6
Continuous
 62
     4
100
AcDbCircle
 10
1356.261101
 20
447.828725
 30
0.0
 40
0.9999999998404565
100
AcDbArc
 50
0.0
 51
90.0
  0
LINE
  5
2A0
330
1F
100
AcDbEntity
  8
dxfile
  6
Continuous
 62
     3
100
AcDbLine
 10
1432.877865
 20
426.128725
 30
0.0
 11
1432.877865
 21
411.936976
 31
0.0
  0
LINE
  5
2A1
330
1F
100
AcDbEntity
  8
dxfile
  6
Continuous
 62
     3
100
AcDbLine
 10
1310.761101
 20
584.386515
 30
0.0
 11
1328.2617
 21
574.400552
 31
0.0
  0
LINE
  5
2A2
330
1F
100
AcDbEntity
  8
dxfile
  6
Continuous
 62
     3
100
AcDbLine
 10
1328.261101
 20
574.400894
 30
0.0
 11
1328.261101
 21
504.628725
 31
0.0
  0
LINE
  5
2A3
330
1F
100
AcDbEntity
  8
dxfile
  6
Continuous
 62
     3
100
AcDbLine
 10
1326.92253
 20
604.243894
 30
0.0
 11
1317.673048
 21
614.855533
 31
0.0
  0
ARC
  5
2A4
330
1F
100
AcDbEntity
  8
dxfile
  6
Continuous
 62
     3
100
AcDbCircle
 10
1325.784231
 20
603.267024
 30
0.0
 40
1.500000000051412
100
AcDbArc
 50
220.635658
 51
40.635658
  0
LINE
  5
2A5
330
1F
100
AcDbEntity
  8
dxfile
  6
Continuous
 62
     3
100
AcDbLine
 10
1324.661034
 20
602.272693
 30
0.0
 11
1317.268766
 21
610.753609
 31
0.0
  0
ARC
  5
2A6
330
1F
100
AcDbEntity
  8
dxfile
  6
Continuous
 62
     3
100
AcDbCircle
 10
1314.746528
 20
612.128725
 30
0.0
 40
3.999999999998892
100
AcDbArc
 50
39.176358
 51
175.107669
  0
LINE
  5
2A7
330
1F
100
AcDbEntity
  8
dxfile
  6
Continuous
 62
     3
100
AcDbLine
 10
1439.861101
 20
451.128725
 30
0.0
 11
1439.261101
 21
450.528725
 31
0.0
  0
LINE
  5
2A8
330
1F
100
AcDbEntity
  8
dxfile
  6
Continuous
 62
     3
100
AcDbLine
 10
1255.461101
 20
658.965617
 30
0.0
 11
1340.661101
 21
658.965617
 31
0.0
  0
ARC
  5
2A9
330
1F
100
AcDbEntity
  8
dxfile
  6
Continuous
 62
     3
100
AcDbCircle
 10
1341.461101
 20
659.77535
 30
0.0
 40
0.7999999995942766
100
AcDbArc
 50
0.0
 51
90.0
  0
LINE
  5
2AA
330
1F
100
AcDbEntity
  8
dxfile
  6
Continuous
 62
     3
100
AcDbLine
 10
1342.261101
 20
595.57535
 30
0.0
 11
1342.261101
 21
659.77535
 31
0.0
  0
LINE
  5
2AB
330
1F
100
AcDbEntity
  8
dxfile
  6
Continuous
 62
     3
100
AcDbLine
 10
1340.661101
 20
595.57535
 30
0.0
 11
1340.661101
 21
658.965617
 31
0.0
  0
LINE
  5
2AC
330
1F
100
AcDbEntity
  8
dxfile
  6
Continuous
 62
     3
100
AcDbLine
 10
1339.061101
 20
658.965617
 30
0.0
 11
1339.061101
 21
632.178394
 31
0.0
  0
ARC
  5
2AD
330
1F
100
AcDbEntity
  8
dxfile
  6
Continuous
 62
     3
100
AcDbCircle
 10
1339.861101
 20
631.369429
 30
0.0
 40
0.8000000002456475
100
AcDbArc
 50
269.993634
 51
0.0
  0
ARC
  5
2AE
330
1F
100
AcDbEntity
  8
dxfile
  6
Continuous
 62
     3
100
AcDbCircle
 10
1253.061101
 20
631.379074
 30
0.0
 40
0.799999999445447
100
AcDbArc
 50
180.0
 51
269.993634
  0
LINE
  5
2AF
330
1F
100
AcDbEntity
  8
dxfile
  6
Continuous
 62
     3
100
AcDbLine
 10
1252.261101
 20
660.579163
 30
0.0
 11
1252.261101
 21
631.379074
 31
0.0
  0
ARC
  5
2B0
330
1F
100
AcDbEntity
  8
dxfile
  6
Continuous
 62
     3
100
AcDbCircle
 10
1254.661101
 20
659.77535
 30
0.0
 40
0.7999999999252168
100
AcDbArc
 50
90.0
 51
180.0
  0
LINE
  5
2B1
330
1F
100
AcDbEntity
  8
dxfile
  6
Continuous
 62
     3
100
AcDbLine
 10
1253.861101
 20
660.57535
 30
0.0
 11
1253.861101
 21
632.177375
 31
0.0
  0
LINE
  5
2B2
330
1F
100
AcDbEntity
  8
dxfile
  6
Continuous
 62
     3
100
AcDbLine
 10
1255.461101
 20
632.178807
 30
0.0
 11
1255.461101
 21
658.965617
 31
0.0
  0
LINE
  5
2B3
330
1F
100
AcDbEntity
  8
dxfile
  6
Continuous
 62
     3
100
AcDbLine
 10
1252.231901
 20
660.57535
 30
0.0
 11
1341.431901
 21
660.57535
 31
0.0
  0
LINE
  5
2B4
330
1F
100
AcDbEntity
  8
dxfile
  6
Continuous
 62
     3
100
AcDbLine
 10
1339.929051
 20
630.57535
 30
0.0
 11
1252.231901
 21
630.57535
 31
0.0
  0
LINE
  5
2B5
330
1F
100
AcDbEntity
  8
dxfile
  6
Continuous
 62
     3
100
AcDbLine
 10
1253.861101
 20
632.17535
 30
0.0
 11
1339.061101
 21
632.17535
 31
0.0
  0
LINE
  5
2B6
330
1F
100
AcDbEntity
  8
dxfile
  6
PLine5
 62
     3
100
AcDbLine
 10
1229.840336
 20
592.641025
 30
0.0
 11
1239.771324
 21
604.608636
 31
0.0
  0
LINE
  5
2B7
330
1F
100
AcDbEntity
  8
dxfile
  6
Continuous
 62
     4
100
AcDbLine
 10
1246.261101
 20
655.575123
 30
0.0
 11
1252.261101
 21
655.57535
 31
0.0
  0
LINE
  5
2B8
330
1F
100
AcDbEntity
  8
dxfile
  6
Continuous
 62
     4
100
AcDbLine
 10
1246.261101
 20
655.575123
 30
0.0
 11
1246.261101
 21
639.57535
 31
0.0
  0
ARC
  5
2B9
330
1F
100
AcDbEntity
  8
dxfile
  6
Continuous
 62
     4
100
AcDbCircle
 10
1243.261101
 20
639.57535
 30
0.0
 40
2.99999999986063
100
AcDbArc
 50
270.0
 51
0.0
  0
ARC
  5
2BA
330
1F
100
AcDbEntity
  8
dxfile
  6
Continuous
 62
     4
100
AcDbCircle
 10
1243.261101
 20
639.57535
 30
0.0
 40
2.99999999986063
100
AcDbArc
 50
270.0
 51
0.0
  0
LINE
  5
2BB
330
1F
100
AcDbEntity
  8
dxfile
  6
Continuous
 62
     4
100
AcDbLine
 10
1205.261101
 20
636.57535
 30
0.0
 11
1243.261101
 21
636.57535
 31
0.0
  0
LINE
  5
2BC
330
1F
100
AcDbEntity
  8
dxfile
  6
Continuous
 62
     3
100
AcDbLine
 10
1218.799348
 20
613.330623
 30
0.0
 11
1288.329221
 21
555.816703
 31
0.0
  0
ARC
  5
2BD
330
1F
100
AcDbEntity
  8
dxfile
  6
Continuous
 62
     3
100
AcDbCircle
 10
1253.33583
 20
583.372022
 30
0.0
 40
2.499999999986704
100
AcDbArc
 50
162.204141
 51
230.313361
  0
ARC
  5
2BE
330
1F
100
AcDbEntity
  8
dxfile
  6
Continuous
 62
     3
100
AcDbCircle
 10
1253.33583
 20
583.372022
 30
0.0
 40
2.50000000018786
100
AcDbArc
 50
50.313361
 51
118.137898
  0
LINE
  5
2BF
330
1F
100
AcDbEntity
  8
dxfile
  6
Continuous
 62
     3
100
AcDbLine
 10
1285.191392
 20
555.816703
 30
0.0
 11
1217.522171
 21
611.791526
 31
0.0
  0
LINE
  5
2C0
330
1F
100
AcDbEntity
  8
dxfile
  6
Continuous
 62
     3
100
AcDbLine
 10
1251.10077
 20
580.678602
 30
0.0
 11
1251.739359
 21
581.448151
 31
0.0
  0
LINE
  5
2C1
330
1F
100
AcDbEntity
  8
dxfile
  6
Continuous
 62
     3
100
AcDbLine
 10
1255.570889
 20
586.065442
 30
0.0
 11
1254.932301
 21
585.295893
 31
0.0
  0
LINE
  5
2C2
330
1F
100
AcDbEntity
  8
dxfile
  6
Continuous
 62
     3
100
AcDbLine
 10
1211.626042
 20
613.435606
 30
0.0
 11
1251.10077
 21
580.678602
 31
0.0
  0
LINE
  5
2C3
330
1F
100
AcDbEntity
  8
dxfile
  6
Continuous
 62
     3
100
AcDbLine
 10
1214.149631
 20
612.640939
 30
0.0
 11
1251.739359
 21
581.448151
 31
0.0
  0
LINE
  5
2C4
330
1F
100
AcDbEntity
  8
dxfile
  6
Continuous
 62
     3
100
AcDbLine
 10
1217.34432
 20
616.471346
 30
0.0
 11
1254.932301
 21
585.295893
 31
0.0
  0
LINE
  5
2C5
330
1F
100
AcDbEntity
  8
dxfile
  6
Continuous
 62
     3
100
AcDbLine
 10
1216.09616
 20
618.822445
 30
0.0
 11
1255.570889
 21
586.065442
 31
0.0
  0
LINE
  5
2C6
330
1F
100
AcDbEntity
  8
dxfile
  6
Continuous
 62
     3
100
AcDbLine
 10
1208.746075
 20
620.373587
 30
0.0
 11
1218.756809
 21
612.066459
 31
0.0
  0
LINE
  5
2C7
330
1F
100
AcDbEntity
  8
dxfile
  6
Continuous
 62
     3
100
AcDbLine
 10
1210.039398
 20
611.523577
 30
0.0
 11
1218.417765
 21
621.620158
 31
0.0
  0
LINE
  5
2C8
330
1F
100
AcDbEntity
  8
dxfile
  6
Continuous
 62
     4
100
AcDbLine
 10
1212.261101
 20
619.241902
 30
0.0
 11
1212.261101
 21
628.824338
 31
0.0
  0
LINE
  5
2C9
330
1F
100
AcDbEntity
  8
dxfile
  6
Continuous
 62
     4
100
AcDbLine
 10
1213.861101
 20
630.57535
 30
0.0
 11
1213.861101
 21
619.629025
 31
0.0
  0
LINE
  5
2CA
330
1F
100
AcDbEntity
  8
dxfile
  6
Continuous
 62
     4
100
AcDbLine
 10
1215.461101
 20
619.241902
 30
0.0
 11
1215.461101
 21
628.824338
 31
0.0
  0
LINE
  5
2CB
330
1F
100
AcDbEntity
  8
dxfile
  6
Continuous
 62
     4
100
AcDbLine
 10
1223.861101
 20
628.824338
 30
0.0
 11
1215.461101
 21
628.824338
 31
0.0
  0
LINE
  5
2CC
330
1F
100
AcDbEntity
  8
dxfile
  6
Continuous
 62
     4
100
AcDbLine
 10
1223.861101
 20
630.57535
 30
0.0
 11
1223.861101
 21
628.824338
 31
0.0
  0
LINE
  5
2CD
330
1F
100
AcDbEntity
  8
dxfile
  6
Continuous
 62
     4
100
AcDbLine
 10
1202.261101
 20
628.824338
 30
0.0
 11
1212.261101
 21
628.824338
 31
0.0
  0
ARC
  5
2CE
330
1F
100
AcDbEntity
  8
dxfile
  6
Continuous
 62
     4
100
AcDbCircle
 10
1205.261101
 20
633.57535
 30
0.0
 40
3.000000000169685
100
AcDbArc
 50
90.0
 51
180.0
  0
LINE
  5
2CF
330
1F
100
AcDbEntity
  8
dxfile
  6
Continuous
 62
     4
100
AcDbLine
 10
1202.261101
 20
628.824338
 30
0.0
 11
1202.261101
 21
633.57535
 31
0.0
  0
CIRCLE
  5
2D0
330
1F
100
AcDbEntity
  8
dxfile
  6
Continuous
 62
     3
100
AcDbCircle
 10
1213.861101
 20
616.129025
 30
0.0
 40
3.500000000000057
  0
ARC
  5
2D1
330
1F
100
AcDbEntity
  8
dxfile
  6
Continuous
 62
     3
100
AcDbCircle
 10
1216.397502
 20
614.024264
 30
0.0
 40
2.500000000221661
100
AcDbArc
 50
230.313361
 51
296.735183
  0
ARC
  5
2D2
330
1F
100
AcDbEntity
  8
dxfile
  6
Continuous
 62
     3
100
AcDbCircle
 10
1216.397502
 20
614.024264
 30
0.0
 40
2.49999999978207
100
AcDbArc
 50
343.89154
 51
50.313361
  0
LINE
  5
2D3
330
1F
100
AcDbEntity
  8
dxfile
  6
Continuous
 62
     6
100
AcDbLine
 10
1276.805194
 20
660.57535
 30
0.0
 11
1272.818929
 21
664.561615
 31
0.0
  0
LINE
  5
2D4
330
1F
100
AcDbEntity
  8
dxfile
  6
Continuous
 62
     6
100
AcDbLine
 10
1272.809195
 20
660.57535
 30
0.0
 11
1268.822931
 21
664.561615
 31
0.0
  0
LINE
  5
2D5
330
1F
100
AcDbEntity
  8
dxfile
  6
Continuous
 62
     6
100
AcDbLine
 10
1268.597197
 20
660.57535
 30
0.0
 11
1264.610932
 21
664.561615
 31
0.0
  0
LINE
  5
2D6
330
1F
100
AcDbEntity
  8
dxfile
  6
Continuous
 62
     6
100
AcDbLine
 10
1264.349199
 20
660.57535
 30
0.0
 11
1260.362934
 21
664.561615
 31
0.0
  0
LINE
  5
2D7
330
1F
100
AcDbEntity
  8
dxfile
  6
Continuous
 62
     6
100
AcDbLine
 10
1257.134927
 20
663.037623
 30
0.0
 11
1259.5972
 21
660.57535
 31
0.0
  0
LINE
  5
2D8
330
1F
100
AcDbEntity
  8
dxfile
  6
Continuous
 62
     6
100
AcDbLine
 10
1277.134927
 20
664.57535
 30
0.0
 11
1257.134927
 21
664.57535
 31
0.0
  0
LINE
  5
2D9
330
1F
100
AcDbEntity
  8
dxfile
  6
Continuous
 62
     6
100
AcDbLine
 10
1257.134927
 20
664.57535
 30
0.0
 11
1257.134927
 21
660.57535
 31
0.0
  0
LINE
  5
2DA
330
1F
100
AcDbEntity
  8
dxfile
  6
Continuous
 62
     6
100
AcDbLine
 10
1257.134927
 20
660.57535
 30
0.0
 11
1277.134927
 21
660.57535
 31
0.0
  0
LINE
  5
2DB
330
1F
100
AcDbEntity
  8
dxfile
  6
Continuous
 62
     6
100
AcDbLine
 10
1277.134927
 20
660.57535
 30
0.0
 11
1277.134927
 21
664.57535
 31
0.0
  0
LINE
  5
2DC
330
1F
100
AcDbEntity
  8
dxfile
  6
Continuous
 62
     2
100
AcDbLine
 10
849.283684
 20
1542.081014
 30
0.0
 11
849.283684
 21
1672.761014
 31
0.0
  0
LINE
  5
2DD
330
1F
100
AcDbEntity
  8
dxfile
  6
Continuous
 62
     3
100
AcDbLine
 10
1286.134927
 20
664.461703
 30
0.0
 11
1286.134927
 21
656.460706
 31
0.0
  0
LINE
  5
2DE
330
1F
100
AcDbEntity
  8
dxfile
  6
Continuous
 62
     3
100
AcDbLine
 10
1254.239936
 20
672.57535
 30
0.0
 11
1254.239936
 21
671.37535
 31
0.0
  0
LINE
  5
2DF
330
1F
100
AcDbEntity
  8
dxfile
  6
Continuous
 62
     3
100
AcDbLine
 10
1278.634927
 20
662.07535
 30
0.0
 11
1293.634927
 21
662.07535
 31
0.0
  0
ARC
  5
2E0
330
1F
100
AcDbEntity
  8
dxfile
  6
Continuous
 62
     3
100
AcDbCircle
 10
1277.834927
 20
673.27535
 30
0.0
 40
0.8000000004158695
100
AcDbArc
 50
0.0
 51
90.0
  0
LINE
  5
2E1
330
1F
100
AcDbEntity
  8
dxfile
  6
Continuous
 62
     3
100
AcDbLine
 10
1278.634927
 20
662.07535
 30
0.0
 11
1278.634927
 21
673.27535
 31
0.0
  0
LINE
  5
2E2
330
1F
100
AcDbEntity
  8
dxfile
  6
Continuous
 62
     3
100
AcDbLine
 10
1277.087927
 20
672.57535
 30
0.0
 11
1253.634927
 21
672.57535
 31
0.0
  0
LINE
  5
2E3
330
1F
100
AcDbEntity
  8
dxfile
  6
Continuous
 62
     3
100
AcDbLine
 10
1253.634927
 20
674.07535
 30
0.0
 11
1277.834927
 21
674.07535
 31
0.0
  0
LINE
  5
2E4
330
1F
100
AcDbEntity
  8
dxfile
  6
Continuous
 62
     3
100
AcDbLine
 10
1277.134927
 20
672.57435
 30
0.0
 11
1277.134927
 21
661.37535
 31
0.0
  0
ARC
  5
2E5
330
1F
100
AcDbEntity
  8
dxfile
  6
Continuous
 62
     3
100
AcDbCircle
 10
1277.934927
 20
661.37535
 30
0.0
 40
0.800000000578114
100
AcDbArc
 50
180.0
 51
270.0
  0
LINE
  5
2E6
330
1F
100
AcDbEntity
  8
dxfile
  6
Continuous
 62
     6
100
AcDbLine
 10
1277.134927
 20
660.57535
 30
0.0
 11
1277.134927
 21
664.57535
 31
0.0
  0
LINE
  5
2E7
330
1F
100
AcDbEntity
  8
dxfile
  6
Continuous
 62
     3
100
AcDbLine
 10
1253.634927
 20
674.07535
 30
0.0
 11
1253.634927
 21
672.57535
 31
0.0
  0
LINE
  5
2E8
330
1F
100
AcDbEntity
  8
dxfile
  6
Continuous
 62
     3
100
AcDbLine
 10
1293.634927
 20
660.57535
 30
0.0
 11
1293.634927
 21
662.07535
 31
0.0
  0
LINE
  5
2E9
330
1F
100
AcDbEntity
  8
dxfile
  6
Continuous
 62
     6
100
AcDbLine
 10
362.261101
 20
666.192211
 30
0.0
 11
371.470242
 21
675.401353
 31
0.0
  0
LINE
  5
2EA
330
1F
100
AcDbEntity
  8
dxfile
  6
Continuous
 62
     6
100
AcDbLine
 10
372.83909
 20
660.57535
 30
0.0
 11
362.261101
 21
671.153339
 31
0.0
  0
LINE
  5
2EB
330
1F
100
AcDbEntity
  8
dxfile
  6
Continuous
 62
     6
100
AcDbLine
 10
387.261383
 20
680.57535
 30
0.0
 11
387.261271
 21
678.57535
 31
0.0
  0
LINE
  5
2EC
330
1F
100
AcDbEntity
  8
dxfile
  6
Continuous
 62
     3
100
AcDbLine
 10
387.261383
 20
680.57535
 30
0.0
 11
387.260357
 21
682.07535
 31
0.0
  0
ARC
  5
2ED
330
1F
100
AcDbEntity
  8
dxfile
  6
Continuous
 62
     3
100
AcDbCircle
 10
379.980495
 20
680.228351
 30
0.0
 40
5.124997949958234
100
AcDbArc
 50
21.124164
 51
83.396555
  0
LINE
  5
2EE
330
1F
100
AcDbEntity
  8
dxfile
  6
Continuous
 62
     3
100
AcDbLine
 10
368.251264
 20
598.356278
 30
0.0
 11
377.206488
 21
598.356278
 31
0.0
  0
LINE
  5
2EF
330
1F
100
AcDbEntity
  8
dxfile
  6
Continuous
 62
     3
100
AcDbLine
 10
404.938794
 20
488.940313
 30
0.0
 11
412.738506
 21
488.940313
 31
0.0
  0
LINE
  5
2F0
330
1F
100
AcDbEntity
  8
dxfile
  6
Continuous
 62
     3
100
AcDbLine
 10
1302.179368
 20
467.628725
 30
0.0
 11
1302.179368
 21
517.345274
 31
0.0
  0
LINE
  5
2F1
330
1F
100
AcDbEntity
  8
dxfile
  6
Continuous
 62
     3
100
AcDbLine
 10
1302.179368
 20
238.699101
 30
0.0
 11
1302.179368
 21
135.077099
 31
0.0
  0
LINE
  5
2F2
330
1F
100
AcDbEntity
  8
dxfile
  6
Continuous
 62
     3
100
AcDbLine
 10
1292.761101
 20
501.128725
 30
0.0
 11
1292.761101
 21
498.828725
 31
0.0
  0
LINE
  5
2F3
330
1F
100
AcDbEntity
  8
dxfile
  6
Continuous
 62
     3
100
AcDbLine
 10
1307.761101
 20
501.128725
 30
0.0
 11
1307.761101
 21
498.828725
 31
0.0
  0
CIRCLE
  5
2F4
330
1F
100
AcDbEntity
  8
dxfile
  6
Continuous
 62
     3
100
AcDbCircle
 10
422.261101
 20
313.884559
 30
0.0
 40
3.0
  0
CIRCLE
  5
2F5
330
1F
100
AcDbEntity
  8
dxfile
  6
Continuous
 62
     3
100
AcDbCircle
 10
1262.261101
 20
313.884559
 30
0.0
 40
3.0
  0
LINE
  5
2F6
330
1F
100
AcDbEntity
  8
dxfile
  6
Continuous
 62
     3
100
AcDbLine
 10
422.261101
 20
313.884559
 30
0.0
 11
1262.261101
 21
313.884559
 31
0.0
  0
LINE
  5
2F7
330
1F
100
AcDbEntity
  8
dxfile
  6
Continuous
 62
     3
100
AcDbLine
 10
422.261101
 20
358.654554
 30
0.0
 11
422.261101
 21
307.884559
 31
0.0
  0
LINE
  5
2F8
330
1F
100
AcDbEntity
  8
dxfile
  6
Continuous
 62
     3
100
AcDbLine
 10
1262.261101
 20
418.624865
 30
0.0
 11
1262.261101
 21
307.884559
 31
0.0
  0
CIRCLE
  5
2F9
330
1F
100
AcDbEntity
  8
dxfile
  6
Continuous
 62
     3
100
AcDbCircle
 10
257.261101
 20
112.795725
 30
0.0
 40
3.0
  0
CIRCLE
  5
2FA
330
1F
100
AcDbEntity
  8
dxfile
  6
Continuous
 62
     3
100
AcDbCircle
 10
1427.261101
 20
112.795725
 30
0.0
 40
3.0
  0
LINE
  5
2FB
330
1F
100
AcDbEntity
  8
dxfile
  6
Continuous
 62
     3
100
AcDbLine
 10
257.261101
 20
112.795725
 30
0.0
 11
1427.261101
 21
112.795725
 31
0.0
  0
LINE
  5
2FC
330
1F
100
AcDbEntity
  8
dxfile
  6
Continuous
 62
     3
100
AcDbLine
 10
257.261101
 20
317.214902
 30
0.0
 11
257.261101
 21
106.795725
 31
0.0
  0
LINE
  5
2FD
330
1F
100
AcDbEntity
  8
dxfile
  6
Continuous
 62
     3
100
AcDbLine
 10
1427.261101
 20
324.854482
 30
0.0
 11
1427.261101
 21
106.795725
 31
0.0
  0
INSERT
  5
307
330
1F
100
AcDbEntity
  8
dxfile
  6
Continuous
 62
     3
100
AcDbBlockReference
  2
DIM_2
 10
328.701238
 20
678.57535
 30
0.0
  0
CIRCLE
  5
308
330
1F
100
AcDbEntity
  8
dxfile
  6
Continuous
 62
     3
100
AcDbCircle
 10
169.228795
 20
1128.57535
 30
0.0
 40
3.0
  0
CIRCLE
  5
309
330
1F
100
AcDbEntity
  8
dxfile
  6
Continuous
 62
     3
100
AcDbCircle
 10
169.228795
 20
678.57535
 30
0.0
 40
3.0
  0
LINE
  5
30A
330
1F
100
AcDbEntity
  8
dxfile
  6
Continuous
 62
     3
100
AcDbLine
 10
169.228795
 20
1128.57535
 30
0.0
 11
169.228795
 21
678.57535
 31
0.0
  0
LINE
  5
30B
330
1F
100
AcDbEntity
  8
dxfile
  6
Continuous
 62
     3
100
AcDbLine
 10
815.596758
 20
1128.57535
 30
0.0
 11
163.228795
 21
1128.57535
 31
0.0
  0
LINE
  5
30C
330
1F
100
AcDbEntity
  8
dxfile
  6
Continuous
 62
     3
100
AcDbLine
 10
176.370851
 20
678.57535
 30
0.0
 11
163.228795
 21
678.57535
 31
0.0
  0
INSERT
  5
316
330
1F
100
AcDbEntity
  8
dxfile
  6
Continuous
 62
     3
100
AcDbBlockReference
  2
DIM_3
 10
412.261101
 20
689.916511
 30
0.0
  0
LINE
  5
317
330
1F
100
AcDbEntity
  8
dxfile
  6
Continuous
 62
     4
100
AcDbLine
 10
1294.429368
 20
441.128725
 30
0.0
 11
1307.929368
 21
441.128725
 31
0.0
  0
LINE
  5
318
330
1F
100
AcDbEntity
  8
dxfile
  6
Continuous
 62
     4
100
AcDbLine
 10
1307.929368
 20
441.128725
 30
0.0
 11
1307.929368
 21
412.628725
 31
0.0
  0
LINE
  5
319
330
1F
100
AcDbEntity
  8
dxfile
  6
Continuous
 62
     4
100
AcDbLine
 10
1307.929368
 20
412.628725
 30
0.0
 11
1294.429368
 21
412.628725
 31
0.0
  0
LINE
  5
31A
330
1F
100
AcDbEntity
  8
dxfile
  6
Continuous
 62
     4
100
AcDbLine
 10
1294.429368
 20
412.628725
 30
0.0
 11
1294.429368
 21
441.128725
 31
0.0
  0
LINE
  5
31B
330
1F
100
AcDbEntity
  8
dxfile
  6
Continuous
 62
     4
100
AcDbLine
 10
1294.429368
 20
441.128725
 30
0.0
 11
1297.179368
 21
445.628725
 31
0.0
  0
LINE
  5
31C
330
1F
100
AcDbEntity
  8
dxfile
  6
Continuous
 62
     4
100
AcDbLine
 10
1297.179368
 20
445.628725
 30
0.0
 11
1305.179368
 21
445.628725
 31
0.0
  0
LINE
  5
31D
330
1F
100
AcDbEntity
  8
dxfile
  6
Continuous
 62
     4
100
AcDbLine
 10
1305.179368
 20
445.628725
 30
0.0
 11
1307.929368
 21
441.128725
 31
0.0
  0
LINE
  5
31E
330
1F
100
AcDbEntity
  8
dxfile
  6
Continuous
 62
     4
100
AcDbLine
 10
1296.179368
 20
451.128725
 30
0.0
 11
1296.179368
 21
453.428725
 31
0.0
  0
LINE
  5
31F
330
1F
100
AcDbEntity
  8
dxfile
  6
Continuous
 62
     4
100
AcDbLine
 10
1297.179368
 20
458.928725
 30
0.0
 11
1297.179368
 21
466.628725
 31
0.0
  0
LINE
  5
320
330
1F
100
AcDbEntity
  8
dxfile
  6
Continuous
 62
     4
100
AcDbLine
 10
1297.179368
 20
466.628725
 30
0.0
 11
1298.179368
 21
467.628725
 31
0.0
  0
LINE
  5
321
330
1F
100
AcDbEntity
  8
dxfile
  6
Continuous
 62
     4
100
AcDbLine
 10
1298.179368
 20
467.628725
 30
0.0
 11
1304.179368
 21
467.628725
 31
0.0
  0
LINE
  5
322
330
1F
100
AcDbEntity
  8
dxfile
  6
Continuous
 62
     4
100
AcDbLine
 10
1304.179368
 20
467.628725
 30
0.0
 11
1305.179368
 21
466.628725
 31
0.0
  0
LINE
  5
323
330
1F
100
AcDbEntity
  8
dxfile
  6
Continuous
 62
     4
100
AcDbLine
 10
1305.179368
 20
466.628725
 30
0.0
 11
1305.179368
 21
458.928725
 31
0.0
  0
LINE
  5
324
330
1F
100
AcDbEntity
  8
dxfile
  6
Continuous
 62
     4
100
AcDbLine
 10
1306.179368
 20
453.428725
 30
0.0
 11
1306.179368
 21
451.128725
 31
0.0
  0
INSERT
  5
32E
330
1F
100
AcDbEntity
  8
dxfile
  6
Continuous
 62
     3
100
AcDbBlockReference
  2
DIM_4
 10
1427.261101
 20
412.740381
 30
0.0
  0
LINE
  5
32F
330
1F
100
AcDbEntity
  8
dxfile
  6
Continuous
 62
     3
100
AcDbLine
 10
707.201445
 20
851.361319
 30
0.0
 11
716.76994
 21
851.361319
 31
0.0
  0
LINE
  5
330
330
1F
100
AcDbEntity
  8
dxfile
  6
Continuous
 62
     3
100
AcDbLine
 10
716.76994
 20
851.361319
 30
0.0
 11
716.76994
 21
860.929814
 31
0.0
  0
LINE
  5
331
330
1F
100
AcDbEntity
  8
dxfile
  6
Continuous
 62
     3
100
AcDbLine
 10
716.76994
 20
860.929814
 30
0.0
 11
707.201445
 21
860.929814
 31
0.0
  0
LINE
  5
332
330
1F
100
AcDbEntity
  8
dxfile
  6
Continuous
 62
     3
100
AcDbLine
 10
707.201445
 20
860.929814
 30
0.0
 11
707.201445
 21
851.361319
 31
0.0
  0
ARC
  5
333
330
1F
100
AcDbEntity
  8
dxfile
  6
Continuous
 62
     3
100
AcDbCircle
 10
1301.179368
 20
449.17431
 30
0.0
 40
9.754415587599283
100
AcDbArc
 50
65.790724
 51
114.209276
  0
ARC
  5
334
330
1F
100
AcDbEntity
  8
dxfile
  6
Continuous
 62
     3
100
AcDbCircle
 10
1306.751485
 20
457.067377
 30
0.0
 40
1.865081654325877
100
AcDbArc
 50
93.62604
 51
147.449869
  0
LINE
  5
335
330
1F
100
AcDbEntity
  8
dxfile
  6
Continuous
 62
     3
100
AcDbLine
 10
1293.673815
 20
453.428725
 30
0.0
 11
1308.684922
 21
453.428725
 31
0.0
  0
LINE
  5
336
330
1F
100
AcDbEntity
  8
dxfile
  6
Continuous
 62
     3
100
AcDbLine
 10
1297.179368
 20
453.428725
 30
0.0
 11
1297.179368
 21
458.070861
 31
0.0
  0
LINE
  5
337
330
1F
100
AcDbEntity
  8
dxfile
  6
Continuous
 62
     3
100
AcDbLine
 10
1294.679368
 20
458.928725
 30
0.0
 11
1301.179368
 21
458.928725
 31
0.0
  0
LINE
  5
338
330
1F
100
AcDbEntity
  8
dxfile
  6
Continuous
 62
     3
100
AcDbLine
 10
1308.684922
 20
453.428725
 30
0.0
 11
1308.684922
 21
458.348169
 31
0.0
  0
LINE
  5
339
330
1F
100
AcDbEntity
  8
dxfile
  6
Continuous
 62
     3
100
AcDbLine
 10
1305.179368
 20
453.428725
 30
0.0
 11
1305.179368
 21
458.070861
 31
0.0
  0
LINE
  5
33A
330
1F
100
AcDbEntity
  8
dxfile
  6
Continuous
 62
     3
100
AcDbLine
 10
1307.679368
 20
458.928725
 30
0.0
 11
1301.179368
 21
458.928725
 31
0.0
  0
LINE
  5
33B
330
1F
100
AcDbEntity
  8
dxfile
  6
Continuous
 62
     3
100
AcDbLine
 10
1293.673815
 20
453.428725
 30
0.0
 11
1293.673815
 21
458.348169
 31
0.0
  0
LINE
  5
33C
330
1F
100
AcDbEntity
  8
dxfile
  6
Continuous
 62
     3
100
AcDbLine
 10
1293.673815
 20
458.348169
 30
0.0
 11
1294.679368
 21
458.928725
 31
0.0
  0
LINE
  5
33D
330
1F
100
AcDbEntity
  8
dxfile
  6
Continuous
 62
     3
100
AcDbLine
 10
1308.684922
 20
458.348169
 30
0.0
 11
1307.679368
 21
458.928725
 31
0.0
  0
ARC
  5
33E
330
1F
100
AcDbEntity
  8
dxfile
  6
Continuous
 62
     3
100
AcDbCircle
 10
1295.607252
 20
457.067377
 30
0.0
 40
1.865081653780123
100
AcDbArc
 50
32.550131
 51
86.37396
  0
ARC
  5
33F
330
1F
100
AcDbEntity
  8
dxfile
  6
Continuous
 62
     3
100
AcDbCircle
 10
1301.179368
 20
455.383141
 30
0.0
 40
9.754415587689238
100
AcDbArc
 50
245.790724
 51
294.209276
  0
ARC
  5
340
330
1F
100
AcDbEntity
  8
dxfile
  6
Continuous
 62
     3
100
AcDbCircle
 10
1306.751485
 20
447.490073
 30
0.0
 40
1.865081653445806
100
AcDbArc
 50
212.550131
 51
266.37396
  0
LINE
  5
341
330
1F
100
AcDbEntity
  8
dxfile
  6
Continuous
 62
     3
100
AcDbLine
 10
1297.179368
 20
451.128725
 30
0.0
 11
1297.179368
 21
446.48659
 31
0.0
  0
LINE
  5
342
330
1F
100
AcDbEntity
  8
dxfile
  6
Continuous
 62
     3
100
AcDbLine
 10
1294.679368
 20
445.628725
 30
0.0
 11
1301.179368
 21
445.628725
 31
0.0
  0
LINE
  5
343
330
1F
100
AcDbEntity
  8
dxfile
  6
Continuous
 62
     3
100
AcDbLine
 10
1308.684922
 20
450.548169
 30
0.0
 11
1308.684922
 21
446.209282
 31
0.0
  0
LINE
  5
344
330
1F
100
AcDbEntity
  8
dxfile
  6
Continuous
 62
     3
100
AcDbLine
 10
1305.179368
 20
451.128725
 30
0.0
 11
1305.179368
 21
446.48659
 31
0.0
  0
LINE
  5
345
330
1F
100
AcDbEntity
  8
dxfile
  6
Continuous
 62
     3
100
AcDbLine
 10
1307.679368
 20
445.628725
 30
0.0
 11
1301.179368
 21
445.628725
 31
0.0
  0
LINE
  5
346
330
1F
100
AcDbEntity
  8
dxfile
  6
Continuous
 62
     3
100
AcDbLine
 10
1293.673815
 20
450.548169
 30
0.0
 11
1293.673815
 21
446.209282
 31
0.0
  0
LINE
  5
347
330
1F
100
AcDbEntity
  8
dxfile
  6
Continuous
 62
     3
100
AcDbLine
 10
1293.673815
 20
446.209282
 30
0.0
 11
1294.679368
 21
445.628725
 31
0.0
  0
LINE
  5
348
330
1F
100
AcDbEntity
  8
dxfile
  6
Continuous
 62
     3
100
AcDbLine
 10
1308.684922
 20
446.209282
 30
0.0
 11
1307.679368
 21
445.628725
 31
0.0
  0
ARC
  5
349
330
1F
100
AcDbEntity
  8
dxfile
  6
Continuous
 62
     3
100
AcDbCircle
 10
1295.607252
 20
447.490073
 30
0.0
 40
1.865081654218527
100
AcDbArc
 50
273.62604
 51
327.449869
  0
LINE
  5
34A
330
1F
100
AcDbEntity
  8
dxfile
  6
Continuous
 62
     4
100
AcDbLine
 10
1297.179368
 20
451.128725
 30
0.0
 11
1305.179368
 21
451.128725
 31
0.0
  0
ARC
  5
34B
330
1F
100
AcDbEntity
  8
dxfile
  6
Continuous
 62
     3
100
AcDbCircle
 10
1301.179368
 20
441.37431
 30
0.0
 40
9.754415587472153
100
AcDbArc
 50
65.790724
 51
114.209276
  0
ARC
  5
34C
330
1F
100
AcDbEntity
  8
dxfile
  6
Continuous
 62
     3
100
AcDbCircle
 10
1306.751485
 20
449.267377
 30
0.0
 40
1.865081655442593
100
AcDbArc
 50
93.62604
 51
147.449869
  0
LINE
  5
34D
330
1F
100
AcDbEntity
  8
dxfile
  6
Continuous
 62
     3
100
AcDbLine
 10
1294.679368
 20
451.128725
 30
0.0
 11
1301.179368
 21
451.128725
 31
0.0
  0
LINE
  5
34E
330
1F
100
AcDbEntity
  8
dxfile
  6
Continuous
 62
     3
100
AcDbLine
 10
1307.679368
 20
451.128725
 30
0.0
 11
1301.179368
 21
451.128725
 31
0.0
  0
LINE
  5
34F
330
1F
100
AcDbEntity
  8
dxfile
  6
Continuous
 62
     3
100
AcDbLine
 10
1293.673815
 20
450.548169
 30
0.0
 11
1294.679368
 21
451.128725
 31
0.0
  0
LINE
  5
350
330
1F
100
AcDbEntity
  8
dxfile
  6
Continuous
 62
     3
100
AcDbLine
 10
1308.684922
 20
450.548169
 30
0.0
 11
1307.679368
 21
451.128725
 31
0.0
  0
ARC
  5
351
330
1F
100
AcDbEntity
  8
dxfile
  6
Continuous
 62
     3
100
AcDbCircle
 10
1295.607252
 20
449.267377
 30
0.0
 40
1.865081654577969
100
AcDbArc
 50
32.550131
 51
86.37396
  0
LINE
  5
352
330
1F
100
AcDbEntity
  8
dxfile
  6
Continuous
 62
     2
100
AcDbLine
 10
941.179372
 20
1542.081014
 30
0.0
 11
941.179372
 21
1672.761014
 31
0.0
  0
CIRCLE
  5
353
330
1F
100
AcDbEntity
  8
dxfile
  6
Continuous
 62
     3
100
AcDbCircle
 10
657.954674
 20
671.37535
 30
0.0
 40
2.4
  0
CIRCLE
  5
354
330
1F
100
AcDbEntity
  8
dxfile
  6
Continuous
 62
     3
100
AcDbCircle
 10
512.490022
 20
923.325597
 30
0.0
 40
2.4
  0
ARC
  5
355
330
1F
100
AcDbEntity
  8
dxfile
  6
Continuous
 62
     3
100
AcDbCircle
 10
367.028696
 20
671.37535
 30
0.0
 40
290.9259776783701
100
AcDbArc
 50
0.0
 51
60.000378
  0
LINE
  5
356
330
1F
100
AcDbEntity
  8
dxfile
  6
PLine4
 62
     3
100
AcDbLine
 10
1166.568341
 20
718.138036
 30
0.0
 11
748.723261
 21
1285.191441
 31
0.0
  0
LINE
  5
357
330
1F
100
AcDbEntity
  8
dxfile
  6
Continuous
 62
     3
100
AcDbLine
 10
1119.261101
 20
503.428725
 30
0.0
 11
1079.261101
 21
503.428725
 31
0.0
  0
LINE
  5
358
330
1F
100
AcDbEntity
  8
dxfile
  6
Continuous
 62
     3
100
AcDbLine
 10
1119.261101
 20
505.728725
 30
0.0
 11
1096.652151
 21
537.864627
 31
0.0
  0
LINE
  5
359
330
1F
100
AcDbEntity
  8
dxfile
  6
Continuous
 62
     3
100
AcDbLine
 10
1079.261101
 20
531.128725
 30
0.0
 11
1079.261101
 21
501.128725
 31
0.0
  0
CIRCLE
  5
35A
330
1F
100
AcDbEntity
  8
dxfile
  6
Continuous
 62
     3
100
AcDbCircle
 10
1089.566097
 20
531.094299
 30
0.0
 40
4.764998093999964
  0
LINE
  5
35B
330
1F
100
AcDbEntity
  8
dxfile
  6
PLine2
 62
     3
100
AcDbLine
 10
614.889299
 20
603.611719
 30
0.0
 11
1109.368718
 21
528.056325
 31
0.0
  0
LINE
  5
35C
330
1F
100
AcDbEntity
  8
dxfile
  6
Continuous
 62
     3
100
AcDbLine
 10
1119.261101
 20
505.728725
 30
0.0
 11
1119.261101
 21
501.128725
 31
0.0
  0
LINE
  5
35D
330
1F
100
AcDbEntity
  8
dxfile
  6
Continuous
 62
     3
100
AcDbLine
 10
1079.261101
 20
505.728725
 30
0.0
 11
1119.261101
 21
505.728725
 31
0.0
  0
LINE
  5
35E
330
1F
100
AcDbEntity
  8
dxfile
  6
PLine2
 62
     3
100
AcDbLine
 10
1089.261101
 20
543.126938
 30
0.0
 11
1089.261101
 21
519.199726
 31
0.0
  0
ARC
  5
35F
330
1F
100
AcDbEntity
  8
dxfile
  6
Continuous
 62
     3
100
AcDbCircle
 10
1089.261101
 20
531.128725
 30
0.0
 40
10.00000000002391
100
AcDbArc
 50
42.344768
 51
180.0
  0
LINE
  5
360
330
1F
100
AcDbEntity
  8
dxfile
  6
Continuous
 62
     4
100
AcDbLine
 10
644.832361
 20
611.681561
 30
0.0
 11
661.362334
 21
609.155817
 31
0.0
  0
LINE
  5
361
330
1F
100
AcDbEntity
  8
dxfile
  6
Continuous
 62
     4
100
AcDbLine
 10
1063.004888
 20
547.785696
 30
0.0
 11
666.304969
 21
608.400593
 31
0.0
  0
LINE
  5
362
330
1F
100
AcDbEntity
  8
dxfile
  6
Continuous
 62
     4
100
AcDbLine
 10
632.873041
 20
588.218763
 30
0.0
 11
657.586214
 21
584.442644
 31
0.0
  0
LINE
  5
363
330
1F
100
AcDbEntity
  8
dxfile
  6
Continuous
 62
     4
100
AcDbLine
 10
1059.228768
 20
523.072523
 30
0.0
 11
662.528849
 21
583.68742
 31
0.0
  0
LINE
  5
364
330
1F
100
AcDbEntity
  8
dxfile
  6
Continuous
 62
     4
100
AcDbLine
 10
1063.004888
 20
547.785696
 30
0.0
 11
1059.228768
 21
523.072523
 31
0.0
  0
ARC
  5
365
330
1F
100
AcDbEntity
  8
dxfile
  6
Continuous
 62
     4
100
AcDbCircle
 10
1061.502778
 20
543.016664
 30
0.0
 40
4.99999999993351
100
AcDbArc
 50
351.312521
 51
72.517047
  0
ARC
  5
366
330
1F
100
AcDbEntity
  8
dxfile
  6
Continuous
 62
     4
100
AcDbCircle
 10
1059.219344
 20
528.072514
 30
0.0
 40
5.000000000047894
100
AcDbArc
 50
270.107995
 51
351.312521
  0
LINE
  5
367
330
1F
100
AcDbEntity
  8
dxfile
  6
Continuous
 62
     4
100
AcDbLine
 10
1063.415636
 20
522.432779
 30
0.0
 11
1067.191755
 21
547.145952
 31
0.0
  0
LINE
  5
368
330
1F
100
AcDbEntity
  8
dxfile
  6
Continuous
 62
     4
100
AcDbLine
 10
1067.191755
 20
547.145952
 30
0.0
 11
1091.149161
 21
543.485312
 31
0.0
  0
LINE
  5
369
330
1F
100
AcDbEntity
  8
dxfile
  6
Continuous
 62
     4
100
AcDbLine
 10
1079.189841
 20
520.022514
 30
0.0
 11
1063.415636
 21
522.432779
 31
0.0
  0
ARC
  5
36A
330
1F
100
AcDbEntity
  8
dxfile
  6
Continuous
 62
     4
100
AcDbCircle
 10
1088.357482
 20
531.266796
 30
0.0
 40
12.5333790670982
100
AcDbArc
 50
2.379584
 51
85.495032
  0
LINE
  5
36B
330
1F
100
AcDbEntity
  8
dxfile
  6
Continuous
 62
     4
100
AcDbLine
 10
661.362334
 20
609.155817
 30
0.0
 11
657.586214
 21
584.442644
 31
0.0
  0
ARC
  5
36C
330
1F
100
AcDbEntity
  8
dxfile
  6
Continuous
 62
     4
100
AcDbCircle
 10
634.761101
 20
600.57535
 30
0.0
 40
12.50000000000397
100
AcDbArc
 50
177.657082
 51
261.312521
  0
LINE
  5
36D
330
1F
100
AcDbEntity
  8
dxfile
  6
Continuous
 62
     4
100
AcDbLine
 10
666.304969
 20
608.400593
 30
0.0
 11
662.528849
 21
583.68742
 31
0.0
  0
LINE
  5
36E
330
1F
100
AcDbEntity
  8
dxfile
  6
Continuous
 62
     4
100
AcDbLine
 10
660.380543
 20
602.730392
 30
0.0
 11
665.323178
 21
601.975168
 31
0.0
  0
LINE
  5
36F
330
1F
100
AcDbEntity
  8
dxfile
  6
Continuous
 62
     4
100
AcDbLine
 10
658.568005
 20
590.868069
 30
0.0
 11
663.51064
 21
590.112845
 31
0.0
  0
LINE
  5
370
330
1F
100
AcDbEntity
  8
dxfile
  6
PLine2
 62
     3
100
AcDbLine
 10
634.761101
 20
610.597075
 30
0.0
 11
634.761101
 21
587.384585
 31
0.0
  0
CIRCLE
  5
371
330
1F
100
AcDbEntity
  8
dxfile
  6
Continuous
 62
     3
100
AcDbCircle
 10
634.761101
 20
600.57535
 30
0.0
 40
4.5
  0
LINE
  5
372
330
1F
100
AcDbEntity
  8
dxfile
  6
Continuous
 62
     3
100
AcDbLine
 10
604.761101
 20
628.27535
 30
0.0
 11
644.761101
 21
628.27535
 31
0.0
  0
LINE
  5
373
330
1F
100
AcDbEntity
  8
dxfile
  6
Continuous
 62
     3
100
AcDbLine
 10
604.761101
 20
625.97535
 30
0.0
 11
627.370051
 21
593.839448
 31
0.0
  0
LINE
  5
374
330
1F
100
AcDbEntity
  8
dxfile
  6
Continuous
 62
     3
100
AcDbLine
 10
644.761101
 20
600.57535
 30
0.0
 11
644.761101
 21
630.57535
 31
0.0
  0
LINE
  5
375
330
1F
100
AcDbEntity
  8
dxfile
  6
Continuous
 62
     3
100
AcDbLine
 10
604.761101
 20
625.97535
 30
0.0
 11
604.761101
 21
630.57535
 31
0.0
  0
LINE
  5
376
330
1F
100
AcDbEntity
  8
dxfile
  6
Continuous
 62
     3
100
AcDbLine
 10
644.761101
 20
625.97535
 30
0.0
 11
604.761101
 21
625.97535
 31
0.0
  0
ARC
  5
377
330
1F
100
AcDbEntity
  8
dxfile
  6
Continuous
 62
     3
100
AcDbCircle
 10
634.761101
 20
600.57535
 30
0.0
 40
10.00000000001036
100
AcDbArc
 50
222.344768
 51
0.0
  0
ARC
  5
378
330
1F
100
AcDbEntity
  8
dxfile
  6
Continuous
 62
     3
100
AcDbCircle
 10
1218.160759
 20
612.561074
 30
0.0
 40
0.9999999999907342
100
AcDbArc
 50
50.313361
 51
230.313361
  0
ARC
  5
379
330
1F
100
AcDbEntity
  8
dxfile
  6
Continuous
 62
     4
100
AcDbCircle
 10
391.01846
 20
681.57535
 30
0.0
 40
2.999999999864432
100
AcDbArc
 50
270.0
 51
315.0
  0
LINE
  5
37A
330
1F
100
AcDbEntity
  8
dxfile
  6
Continuous
 62
     4
100
AcDbLine
 10
391.01846
 20
678.57535
 30
0.0
 11
345.472204
 21
678.57535
 31
0.0
  0
ARC
  5
37B
330
1F
100
AcDbEntity
  8
dxfile
  6
Continuous
 62
     4
100
AcDbCircle
 10
391.01846
 20
681.57535
 30
0.0
 40
6.000000000021313
100
AcDbArc
 50
270.0
 51
315.0
  0
LINE
  5
37C
330
1F
100
AcDbEntity
  8
dxfile
  6
Continuous
 62
     4
100
AcDbLine
 10
345.472204
 20
675.57535
 30
0.0
 11
391.01846
 21
675.57535
 31
0.0
  0
ARC
  5
37D
330
1F
100
AcDbEntity
  8
dxfile
  6
Continuous
 62
     4
100
AcDbCircle
 10
842.261101
 20
1120.090069
 30
0.0
 40
5.999999999920533
100
AcDbArc
 50
45.0
 51
135.0
  0
LINE
  5
37E
330
1F
100
AcDbEntity
  8
dxfile
  6
Continuous
 62
     4
100
AcDbLine
 10
1291.382422
 20
679.45403
 30
0.0
 11
846.503742
 21
1124.332709
 31
0.0
  0
LINE
  5
37F
330
1F
100
AcDbEntity
  8
dxfile
  6
Continuous
 62
     4
100
AcDbLine
 10
393.139781
 20
679.45403
 30
0.0
 11
838.01846
 21
1124.332709
 31
0.0
  0
ARC
  5
380
330
1F
100
AcDbEntity
  8
dxfile
  6
Continuous
 62
     4
100
AcDbCircle
 10
842.261101
 20
1120.090069
 30
0.0
 40
3.00000000021538
100
AcDbArc
 50
45.0
 51
135.0
  0
LINE
  5
381
330
1F
100
AcDbEntity
  8
dxfile
  6
Continuous
 62
     4
100
AcDbLine
 10
1289.261101
 20
677.332709
 30
0.0
 11
844.382422
 21
1122.211389
 31
0.0
  0
LINE
  5
382
330
1F
100
AcDbEntity
  8
dxfile
  6
Continuous
 62
     4
100
AcDbLine
 10
395.261101
 20
677.332709
 30
0.0
 11
840.139781
 21
1122.211389
 31
0.0
  0
ARC
  5
383
330
1F
100
AcDbEntity
  8
dxfile
  6
Continuous
 62
     4
100
AcDbCircle
 10
345.472204
 20
672.57535
 30
0.0
 40
6.000000000002222
100
AcDbArc
 50
90.0
 51
146.309932
  0
LINE
  5
384
330
1F
100
AcDbEntity
  8
dxfile
  6
Continuous
 62
     4
100
AcDbLine
 10
322.261101
 20
648.57535
 30
0.0
 11
340.479902
 21
675.903551
 31
0.0
  0
ARC
  5
385
330
1F
100
AcDbEntity
  8
dxfile
  6
Continuous
 62
     4
100
AcDbCircle
 10
345.472204
 20
672.57535
 30
0.0
 40
3.000000000073682
100
AcDbArc
 50
90.0
 51
146.309932
  0
LINE
  5
386
330
1F
100
AcDbEntity
  8
dxfile
  6
Continuous
 62
     4
100
AcDbLine
 10
325.866652
 20
648.57535
 30
0.0
 11
342.976053
 21
674.239451
 31
0.0
  0
LINE
  5
387
330
1F
100
AcDbEntity
  8
dxfile
  6
Continuous
 62
     4
100
AcDbLine
 10
342.261101
 20
648.57535
 30
0.0
 11
322.261101
 21
648.57535
 31
0.0
  0
LINE
  5
388
330
1F
100
AcDbEntity
  8
dxfile
  6
Continuous
 62
     4
100
AcDbLine
 10
360.661101
 20
675.57535
 30
0.0
 11
360.661101
 21
660.57535
 31
0.0
  0
LINE
  5
389
330
1F
100
AcDbEntity
  8
dxfile
  6
Continuous
 62
     4
100
AcDbLine
 10
383.861101
 20
675.57535
 30
0.0
 11
383.861101
 21
660.57535
 31
0.0
  0
LINE
  5
38A
330
1F
100
AcDbEntity
  8
dxfile
  6
Continuous
 62
     6
100
AcDbLine
 10
362.261101
 20
668.07535
 30
0.0
 11
382.261101
 21
668.07535
 31
0.0
  0
LINE
  5
38B
330
1F
100
AcDbEntity
  8
dxfile
  6
PLine1
 62
     3
100
AcDbLine
 10
824.77153
 20
1394.189831
 30
0.0
 11
823.971534
 21
1392.804198
 31
0.0
  0
LINE
  5
38C
330
1F
100
AcDbEntity
  8
dxfile
  6
Continuous
 62
     6
100
AcDbLine
 10
368.256221
 20
660.57535
 30
0.0
 11
362.261101
 21
666.570469
 31
0.0
  0
LINE
  5
38D
330
1F
100
AcDbEntity
  8
dxfile
  6
Continuous
 62
     6
100
AcDbLine
 10
376.840248
 20
660.57535
 30
0.0
 11
382.261101
 21
665.996204
 31
0.0
  0
LINE
  5
38E
330
1F
100
AcDbEntity
  8
dxfile
  6
Continuous
 62
     6
100
AcDbLine
 10
1317.624108
 20
660.57535
 30
0.0
 11
1302.798105
 21
675.401353
 31
0.0
  0
LINE
  5
38F
330
1F
100
AcDbEntity
  8
dxfile
  6
Continuous
 62
     6
100
AcDbLine
 10
1312.66527
 20
660.57535
 30
0.0
 11
1302.261101
 21
670.979518
 31
0.0
  0
LINE
  5
390
330
1F
100
AcDbEntity
  8
dxfile
  6
Continuous
 62
     4
100
AcDbLine
 10
1302.261101
 20
675.57535
 30
0.0
 11
1302.261101
 21
660.57535
 31
0.0
  0
LINE
  5
391
330
1F
100
AcDbEntity
  8
dxfile
  6
Continuous
 62
     6
100
AcDbLine
 10
1322.261101
 20
660.618355
 30
0.0
 11
1307.478103
 21
675.401353
 31
0.0
  0
LINE
  5
392
330
1F
100
AcDbEntity
  8
dxfile
  6
Continuous
 62
     6
100
AcDbLine
 10
1302.261101
 20
666.276352
 30
0.0
 11
1311.386102
 21
675.401353
 31
0.0
  0
LINE
  5
393
330
1F
100
AcDbEntity
  8
dxfile
  6
Continuous
 62
     4
100
AcDbLine
 10
1322.261101
 20
675.57535
 30
0.0
 11
1322.261101
 21
660.57535
 31
0.0
  0
LINE
  5
394
330
1F
100
AcDbEntity
  8
dxfile
  6
Continuous
 62
     6
100
AcDbLine
 10
1322.261101
 20
671.87435
 30
0.0
 11
1318.734099
 21
675.401353
 31
0.0
  0
LINE
  5
395
330
1F
100
AcDbEntity
  8
dxfile
  6
Continuous
 62
     6
100
AcDbLine
 10
1297.261101
 20
679.199351
 30
0.0
 11
1327.26235
 21
679.199351
 31
0.0
  0
LINE
  5
396
330
1F
100
AcDbEntity
  8
dxfile
  6
Continuous
 62
     6
100
AcDbLine
 10
1297.261101
 20
680.051364
 30
0.0
 11
1327.261768
 21
680.050363
 31
0.0
  0
LINE
  5
397
330
1F
100
AcDbEntity
  8
dxfile
  6
Continuous
 62
     6
100
AcDbLine
 10
1297.261101
 20
679.559351
 30
0.0
 11
1327.263383
 21
679.559351
 31
0.0
  0
LINE
  5
398
330
1F
100
AcDbEntity
  8
dxfile
  6
Continuous
 62
     6
100
AcDbLine
 10
1297.261101
 20
678.731331
 30
0.0
 11
1327.26267
 21
678.731331
 31
0.0
  0
LINE
  5
399
330
1F
100
AcDbEntity
  8
dxfile
  6
PLine2
 62
     3
100
AcDbLine
 10
1312.261101
 20
653.169649
 30
0.0
 11
1312.261101
 21
698.335343
 31
0.0
  0
LINE
  5
39A
330
1F
100
AcDbEntity
  8
dxfile
  6
Continuous
 62
     6
100
AcDbLine
 10
1306.544095
 20
660.57535
 30
0.0
 11
1321.370098
 21
675.401353
 31
0.0
  0
LINE
  5
39B
330
1F
100
AcDbEntity
  8
dxfile
  6
Continuous
 62
     6
100
AcDbLine
 10
1302.261101
 20
661.438406
 30
0.0
 11
1316.222096
 21
675.401353
 31
0.0
  0
LINE
  5
39C
330
1F
100
AcDbEntity
  8
dxfile
  6
Continuous
 62
     6
100
AcDbLine
 10
1302.261101
 20
671.26835
 30
0.0
 11
1306.390104
 21
675.397353
 31
0.0
  0
LINE
  5
39D
330
1F
100
AcDbEntity
  8
dxfile
  6
Continuous
 62
     3
100
AcDbLine
 10
1327.261409
 20
680.57535
 30
0.0
 11
1327.260383
 21
682.07535
 31
0.0
  0
LINE
  5
39E
330
1F
100
AcDbEntity
  8
dxfile
  6
Continuous
 62
     3
100
AcDbLine
 10
1303.952349
 20
685.319349
 30
0.0
 11
1320.569853
 21
685.319349
 31
0.0
  0
LINE
  5
39F
330
1F
100
AcDbEntity
  8
dxfile
  6
Continuous
 62
     3
100
AcDbLine
 10
1297.261845
 20
682.07535
 30
0.0
 11
1327.260383
 21
682.07535
 31
0.0
  0
ARC
  5
3A0
330
1F
100
AcDbEntity
  8
dxfile
  6
Continuous
 62
     3
100
AcDbCircle
 10
1319.980495
 20
680.228351
 30
0.0
 40
5.124997949821182
100
AcDbArc
 50
21.124164
 51
83.073303
  0
LINE
  5
3A1
330
1F
100
AcDbEntity
  8
dxfile
  6
Continuous
 62
     3
100
AcDbLine
 10
1297.260819
 20
680.57535
 30
0.0
 11
1327.261409
 21
680.57535
 31
0.0
  0
LINE
  5
3A2
330
1F
100
AcDbEntity
  8
dxfile
  6
Continuous
 62
     6
100
AcDbLine
 10
1327.261409
 20
680.57535
 30
0.0
 11
1327.261297
 21
678.57535
 31
0.0
  0
LINE
  5
3A3
330
1F
100
AcDbEntity
  8
dxfile
  6
Continuous
 62
     6
100
AcDbLine
 10
1322.261101
 20
666.192211
 30
0.0
 11
1313.05196
 21
675.401353
 31
0.0
  0
LINE
  5
3A4
330
1F
100
AcDbEntity
  8
dxfile
  6
Continuous
 62
     6
100
AcDbLine
 10
1311.683112
 20
660.57535
 30
0.0
 11
1322.261101
 21
671.153339
 31
0.0
  0
LINE
  5
3A5
330
1F
100
AcDbEntity
  8
dxfile
  6
Continuous
 62
     6
100
AcDbLine
 10
1297.260819
 20
680.57535
 30
0.0
 11
1297.260931
 21
678.57535
 31
0.0
  0
LINE
  5
3A6
330
1F
100
AcDbEntity
  8
dxfile
  6
Continuous
 62
     3
100
AcDbLine
 10
1297.260819
 20
680.57535
 30
0.0
 11
1297.261845
 21
682.07535
 31
0.0
  0
ARC
  5
3A7
330
1F
100
AcDbEntity
  8
dxfile
  6
Continuous
 62
     3
100
AcDbCircle
 10
1304.541708
 20
680.228351
 30
0.0
 40
5.124997950413357
100
AcDbArc
 50
96.603445
 51
158.875836
  0
ARC
  5
3A8
330
1F
100
AcDbEntity
  8
dxfile
  6
Continuous
 62
     4
100
AcDbCircle
 10
1293.503742
 20
681.57535
 30
0.0
 40
2.999999999013311
100
AcDbArc
 50
225.0
 51
270.0
  0
LINE
  5
3A9
330
1F
100
AcDbEntity
  8
dxfile
  6
Continuous
 62
     4
100
AcDbLine
 10
1293.503742
 20
678.57535
 30
0.0
 11
1339.049999
 21
678.57535
 31
0.0
  0
ARC
  5
3AA
330
1F
100
AcDbEntity
  8
dxfile
  6
Continuous
 62
     4
100
AcDbCircle
 10
1293.503742
 20
681.57535
 30
0.0
 40
5.99999999965692
100
AcDbArc
 50
225.0
 51
270.0
  0
LINE
  5
3AB
330
1F
100
AcDbEntity
  8
dxfile
  6
Continuous
 62
     4
100
AcDbLine
 10
1339.049999
 20
675.57535
 30
0.0
 11
1293.503742
 21
675.57535
 31
0.0
  0
ARC
  5
3AC
330
1F
100
AcDbEntity
  8
dxfile
  6
Continuous
 62
     4
100
AcDbCircle
 10
1339.049999
 20
672.57535
 30
0.0
 40
5.999999999818476
100
AcDbArc
 50
33.690068
 51
90.0
  0
LINE
  5
3AD
330
1F
100
AcDbEntity
  8
dxfile
  6
Continuous
 62
     4
100
AcDbLine
 10
1362.261101
 20
648.57535
 30
0.0
 11
1344.0423
 21
675.903551
 31
0.0
  0
ARC
  5
3AE
330
1F
100
AcDbEntity
  8
dxfile
  6
Continuous
 62
     4
100
AcDbCircle
 10
1339.049999
 20
672.57535
 30
0.0
 40
3.000000000167488
100
AcDbArc
 50
33.690068
 51
90.0
  0
LINE
  5
3AF
330
1F
100
AcDbEntity
  8
dxfile
  6
Continuous
 62
     4
100
AcDbLine
 10
1358.65555
 20
648.57535
 30
0.0
 11
1341.54615
 21
674.239451
 31
0.0
  0
LINE
  5
3B0
330
1F
100
AcDbEntity
  8
dxfile
  6
Continuous
 62
     4
100
AcDbLine
 10
1342.261101
 20
648.57535
 30
0.0
 11
1362.261101
 21
648.57535
 31
0.0
  0
LINE
  5
3B1
330
1F
100
AcDbEntity
  8
dxfile
  6
Continuous
 62
     4
100
AcDbLine
 10
1323.861101
 20
675.57535
 30
0.0
 11
1323.861101
 21
660.57535
 31
0.0
  0
LINE
  5
3B2
330
1F
100
AcDbEntity
  8
dxfile
  6
Continuous
 62
     4
100
AcDbLine
 10
1300.661101
 20
675.57535
 30
0.0
 11
1300.661101
 21
660.57535
 31
0.0
  0
LINE
  5
3B3
330
1F
100
AcDbEntity
  8
dxfile
  6
Continuous
 62
     6
100
AcDbLine
 10
1322.261101
 20
668.07535
 30
0.0
 11
1302.261101
 21
668.07535
 31
0.0
  0
LINE
  5
3B4
330
1F
100
AcDbEntity
  8
dxfile
  6
Continuous
 62
     6
100
AcDbLine
 10
1316.265982
 20
660.57535
 30
0.0
 11
1322.261101
 21
666.570469
 31
0.0
  0
LINE
  5
3B5
330
1F
100
AcDbEntity
  8
dxfile
  6
Continuous
 62
     6
100
AcDbLine
 10
1307.681955
 20
660.57535
 30
0.0
 11
1302.261101
 21
665.996204
 31
0.0
  0
LINE
  5
3B6
330
1F
100
AcDbEntity
  8
dxfile
  6
PLine1
 62
     3
100
AcDbLine
 10
432.624124
 20
784.984384
 30
0.0
 11
724.459653
 21
1290.44723
 31
0.0
  0
LINE
  5
3B7
330
1F
100
AcDbEntity
  8
dxfile
  6
PLine1
 62
     3
100
AcDbLine
 10
428.124061
 20
858.788871
 30
0.0
 11
724.126588
 21
1371.469011
 31
0.0
  0
LINE
  5
3B8
330
1F
100
AcDbEntity
  8
dxfile
  6
PLine1
 62
     3
100
AcDbLine
 10
749.460065
 20
1333.748262
 30
0.0
 11
724.459653
 21
1290.44723
 31
0.0
  0
LINE
  5
3B9
330
1F
100
AcDbEntity
  8
dxfile
  6
PLine1
 62
     3
100
AcDbLine
 10
724.126588
 20
1371.469011
 30
0.0
 11
730.015528
 21
1368.068955
 31
0.0
  0
LINE
  5
3BA
330
1F
100
AcDbEntity
  8
dxfile
  6
PLine1
 62
     3
100
AcDbLine
 10
432.334358
 20
844.481515
 30
0.0
 11
723.464846
 21
1348.723221
 31
0.0
  0
LINE
  5
3BB
330
1F
100
AcDbEntity
  8
dxfile
  6
PLine1
 62
     3
100
AcDbLine
 10
429.066797
 20
846.821926
 30
0.0
 11
732.452482
 21
1372.289789
 31
0.0
  0
LINE
  5
3BC
330
1F
100
AcDbEntity
  8
dxfile
  6
PLine1
 62
     3
100
AcDbLine
 10
726.473535
 20
1350.714895
 30
0.0
 11
769.074237
 21
1424.499854
 31
0.0
  0
ARC
  5
3BD
330
1F
100
AcDbEntity
  8
dxfile
  6
PLine1
 62
     3
100
AcDbCircle
 10
768.772998
 20
1425.597544
 30
0.0
 40
0.7999999999849003
100
AcDbArc
 50
59.999454
 51
149.999454
  0
LINE
  5
3BE
330
1F
100
AcDbEntity
  8
dxfile
  6
PLine1
 62
     3
100
AcDbLine
 10
824.77153
 20
1394.189831
 30
0.0
 11
769.173005
 21
1426.29036
 31
0.0
  0
LINE
  5
3BF
330
1F
100
AcDbEntity
  8
dxfile
  6
PLine1
 62
     3
100
AcDbLine
 10
823.971517
 20
1392.804198
 30
0.0
 11
769.074237
 21
1424.499854
 31
0.0
  0
LINE
  5
3C0
330
1F
100
AcDbEntity
  8
dxfile
  6
PLine1
 62
     3
100
AcDbLine
 10
768.274224
 20
1423.114221
 30
0.0
 11
791.472512
 21
1409.720389
 31
0.0
  0
ARC
  5
3C1
330
1F
100
AcDbEntity
  8
dxfile
  6
PLine1
 62
     3
100
AcDbCircle
 10
792.573099
 20
1410.008716
 30
0.0
 40
0.8000000007477799
100
AcDbArc
 50
329.993088
 51
59.999454
  0
ARC
  5
3C2
330
1F
100
AcDbEntity
  8
dxfile
  6
PLine1
 62
     3
100
AcDbCircle
 10
749.16403
 20
1334.842947
 30
0.0
 40
0.7999999998499352
100
AcDbArc
 50
239.999454
 51
329.993088
  0
ARC
  5
3C3
330
1F
100
AcDbEntity
  8
dxfile
  6
PLine1
 62
     3
100
AcDbCircle
 10
725.372282
 20
1350.426952
 30
0.0
 40
0.8000000000634787
100
AcDbArc
 50
149.999454
 51
239.999454
  0
LINE
  5
3C4
330
1F
100
AcDbEntity
  8
dxfile
  6
PLine1
 62
     3
100
AcDbLine
 10
724.279459
 20
1350.134142
 30
0.0
 11
748.872691
 21
1335.934921
 31
0.0
  0
LINE
  5
3C5
330
1F
100
AcDbEntity
  8
dxfile
  6
PLine1
 62
     3
100
AcDbLine
 10
749.671465
 20
1337.32127
 30
0.0
 11
726.473535
 21
1350.714895
 31
0.0
  0
LINE
  5
3C6
330
1F
100
AcDbEntity
  8
dxfile
  6
PLine1
 62
     3
100
AcDbLine
 10
723.464846
 20
1348.723221
 30
0.0
 11
768.065581
 21
1425.972263
 31
0.0
  0
LINE
  5
3C7
330
1F
100
AcDbEntity
  8
dxfile
  6
PLine1
 62
     3
100
AcDbLine
 10
793.294763
 20
1409.670516
 30
0.0
 11
749.445465
 21
1333.722974
 31
0.0
  0
LINE
  5
3C8
330
1F
100
AcDbEntity
  8
dxfile
  6
PLine1
 62
     3
100
AcDbLine
 10
748.874445
 20
1335.933908
 30
0.0
 11
791.475148
 21
1409.718867
 31
0.0
  0
LINE
  5
3C9
330
1F
100
AcDbEntity
  8
dxfile
  6
PLine1
 62
     3
100
AcDbLine
 10
723.476144
 20
1348.750416
 30
0.0
 11
749.460065
 21
1333.748262
 31
0.0
  0
LINE
  5
3CA
330
1F
100
AcDbEntity
  8
dxfile
  6
PLine1
 62
     3
100
AcDbLine
 10
752.6264
 20
1266.626128
 30
0.0
 11
765.146031
 21
1275.851479
 31
0.0
  0
LINE
  5
3CB
330
1F
100
AcDbEntity
  8
dxfile
  6
PLine1
 62
     3
100
AcDbLine
 10
724.809697
 20
1341.052231
 30
0.0
 11
727.809549
 21
1346.248468
 31
0.0
  0
LINE
  5
3CC
330
1F
100
AcDbEntity
  8
dxfile
  6
PLine1
 62
     3
100
AcDbLine
 10
724.809697
 20
1341.052231
 30
0.0
 11
738.66583
 21
1333.052212
 31
0.0
  0
ARC
  5
3CD
330
1F
100
AcDbEntity
  8
dxfile
  6
PLine1
 62
     3
100
AcDbCircle
 10
737.165805
 20
1330.45415
 30
0.0
 40
3.000000000085941
100
AcDbArc
 50
329.999454
 51
59.999454
  0
ARC
  5
3CE
330
1F
100
AcDbEntity
  8
dxfile
  6
PLine1
 62
     3
100
AcDbCircle
 10
737.165805
 20
1330.45415
 30
0.0
 40
3.000000000085941
100
AcDbArc
 50
329.999454
 51
59.999454
  0
LINE
  5
3CF
330
1F
100
AcDbEntity
  8
dxfile
  6
PLine1
 62
     3
100
AcDbLine
 10
720.763554
 20
1296.045341
 30
0.0
 11
739.763867
 21
1328.954126
 31
0.0
  0
ARC
  5
3D0
330
1F
100
AcDbEntity
  8
dxfile
  6
PLine1
 62
     3
100
AcDbCircle
 10
773.200045
 20
1251.974241
 30
0.0
 40
2.500000000128516
100
AcDbArc
 50
126.385416
 51
216.385416
  0
ARC
  5
3D1
330
1F
100
AcDbEntity
  8
dxfile
  6
PLine1
 62
     3
100
AcDbCircle
 10
773.200045
 20
1251.974241
 30
0.0
 40
2.499999999778812
100
AcDbArc
 50
36.385416
 51
126.385416
  0
LINE
  5
3D2
330
1F
100
AcDbEntity
  8
dxfile
  6
PLine1
 62
     3
100
AcDbLine
 10
770.382388
 20
1249.897992
 30
0.0
 11
771.187433
 21
1250.491206
 31
0.0
  0
LINE
  5
3D3
330
1F
100
AcDbEntity
  8
dxfile
  6
PLine1
 62
     3
100
AcDbLine
 10
776.017702
 20
1254.05049
 30
0.0
 11
775.212657
 21
1253.457276
 31
0.0
  0
LINE
  5
3D4
330
1F
100
AcDbEntity
  8
dxfile
  6
PLine1
 62
     3
100
AcDbLine
 10
739.952907
 20
1291.193539
 30
0.0
 11
770.382388
 21
1249.897992
 31
0.0
  0
LINE
  5
3D5
330
1F
100
AcDbEntity
  8
dxfile
  6
PLine1
 62
     3
100
AcDbLine
 10
742.211023
 20
1289.814804
 30
0.0
 11
771.187433
 21
1250.491206
 31
0.0
  0
LINE
  5
3D6
330
1F
100
AcDbEntity
  8
dxfile
  6
PLine1
 62
     3
100
AcDbLine
 10
746.233771
 20
1292.763628
 30
0.0
 11
775.212657
 21
1253.457276
 31
0.0
  0
LINE
  5
3D7
330
1F
100
AcDbEntity
  8
dxfile
  6
PLine1
 62
     3
100
AcDbLine
 10
745.588221
 20
1295.346037
 30
0.0
 11
776.017702
 21
1254.05049
 31
0.0
  0
LINE
  5
3D8
330
1F
100
AcDbEntity
  8
dxfile
  6
PLine1
 62
     3
100
AcDbLine
 10
738.827596
 20
1298.62075
 30
0.0
 11
746.544468
 21
1288.14826
 31
0.0
  0
LINE
  5
3D9
330
1F
100
AcDbEntity
  8
dxfile
  6
PLine1
 62
     3
100
AcDbLine
 10
737.952683
 20
1289.719632
 30
0.0
 11
748.514982
 21
1297.502681
 31
0.0
  0
LINE
  5
3DA
330
1F
100
AcDbEntity
  8
dxfile
  6
PLine1
 62
     3
100
AcDbLine
 10
739.274735
 20
1293.440619
 30
0.0
 11
730.976148
 21
1298.231916
 31
0.0
  0
LINE
  5
3DB
330
1F
100
AcDbEntity
  8
dxfile
  6
PLine1
 62
     3
100
AcDbLine
 10
730.259749
 20
1300.493069
 30
0.0
 11
739.739492
 21
1295.019817
 31
0.0
  0
LINE
  5
3DC
330
1F
100
AcDbEntity
  8
dxfile
  6
PLine1
 62
     3
100
AcDbLine
 10
740.874762
 20
1296.211885
 30
0.0
 11
732.576174
 21
1301.003182
 31
0.0
  0
LINE
  5
3DD
330
1F
100
AcDbEntity
  8
dxfile
  6
PLine1
 62
     3
100
AcDbLine
 10
736.776244
 20
1308.277755
 30
0.0
 11
732.576174
 21
1301.003182
 31
0.0
  0
LINE
  5
3DE
330
1F
100
AcDbEntity
  8
dxfile
  6
PLine1
 62
     3
100
AcDbLine
 10
735.259831
 20
1309.153276
 30
0.0
 11
736.776244
 21
1308.277755
 31
0.0
  0
LINE
  5
3DF
330
1F
100
AcDbEntity
  8
dxfile
  6
PLine1
 62
     3
100
AcDbLine
 10
725.976065
 20
1289.571709
 30
0.0
 11
730.976148
 21
1298.231916
 31
0.0
  0
ARC
  5
3E0
330
1F
100
AcDbEntity
  8
dxfile
  6
PLine1
 62
     3
100
AcDbCircle
 10
723.361616
 20
1294.545316
 30
0.0
 40
3.000000000032924
100
AcDbArc
 50
149.999454
 51
239.999454
  0
LINE
  5
3E1
330
1F
100
AcDbEntity
  8
dxfile
  6
PLine1
 62
     3
100
AcDbLine
 10
725.976065
 20
1289.571709
 30
0.0
 11
721.861591
 21
1291.947254
 31
0.0
  0
CIRCLE
  5
3E2
330
1F
100
AcDbEntity
  8
dxfile
  6
PLine1
 62
     3
100
AcDbCircle
 10
742.770564
 20
1293.269788
 30
0.0
 40
3.499999999999972
  0
ARC
  5
3E3
330
1F
100
AcDbEntity
  8
dxfile
  6
PLine1
 62
     3
100
AcDbCircle
 10
744.725773
 20
1290.616392
 30
0.0
 40
2.499999999973779
100
AcDbArc
 50
216.385416
 51
306.385416
  0
ARC
  5
3E4
330
1F
100
AcDbEntity
  8
dxfile
  6
PLine1
 62
     3
100
AcDbCircle
 10
744.725773
 20
1290.616392
 30
0.0
 40
2.499999999755342
100
AcDbArc
 50
306.385416
 51
36.385416
  0
LINE
  5
3E5
330
1F
100
AcDbEntity
  8
dxfile
  6
PLine1
 62
     3
100
AcDbLine
 10
735.751695
 20
1370.0042
 30
0.0
 11
730.306342
 21
1368.545178
 31
0.0
  0
LINE
  5
3E6
330
1F
100
AcDbEntity
  8
dxfile
  6
PLine1
 62
     3
100
AcDbLine
 10
733.753663
 20
1366.543583
 30
0.0
 11
728.30831
 21
1365.084561
 31
0.0
  0
LINE
  5
3E7
330
1F
100
AcDbEntity
  8
dxfile
  6
PLine1
 62
     3
100
AcDbLine
 10
731.647629
 20
1362.895905
 30
0.0
 11
726.202276
 21
1361.436883
 31
0.0
  0
LINE
  5
3E8
330
1F
100
AcDbEntity
  8
dxfile
  6
PLine1
 62
     3
100
AcDbLine
 10
729.523594
 20
1359.217051
 30
0.0
 11
724.078242
 21
1357.758029
 31
0.0
  0
LINE
  5
3E9
330
1F
100
AcDbEntity
  8
dxfile
  6
PLine1
 62
     3
100
AcDbLine
 10
723.78402
 20
1354.2005
 30
0.0
 11
727.147556
 21
1355.101723
 31
0.0
  0
LINE
  5
3EA
330
1F
100
AcDbEntity
  8
dxfile
  6
PLine1
 62
     3
100
AcDbLine
 10
722.452317
 20
1354.969376
 30
0.0
 11
725.916399
 21
1352.969343
 31
0.0
  0
LINE
  5
3EB
330
1F
100
AcDbEntity
  8
dxfile
  6
PLine1
 62
     3
100
AcDbLine
 10
737.050976
 20
1380.02715
 30
0.0
 11
743.980005
 21
1376.026586
 31
0.0
  0
LINE
  5
3EC
330
1F
100
AcDbEntity
  8
dxfile
  6
PLine1
 62
     3
100
AcDbLine
 10
714.076632
 20
1356.46232
 30
0.0
 11
715.115857
 21
1355.86231
 31
0.0
  0
LINE
  5
3ED
330
1F
100
AcDbEntity
  8
dxfile
  6
PLine1
 62
     3
100
AcDbLine
 10
735.367546
 20
1372.338799
 30
0.0
 11
742.867669
 21
1385.329109
 31
0.0
  0
ARC
  5
3EE
330
1F
100
AcDbEntity
  8
dxfile
  6
PLine1
 62
     3
100
AcDbCircle
 10
725.268108
 20
1377.246075
 30
0.0
 40
0.8000000002154891
100
AcDbArc
 50
59.999454
 51
149.999454
  0
LINE
  5
3EF
330
1F
100
AcDbEntity
  8
dxfile
  6
PLine1
 62
     3
100
AcDbLine
 10
735.367546
 20
1372.338799
 30
0.0
 11
725.668114
 21
1377.938892
 31
0.0
  0
LINE
  5
3F0
330
1F
100
AcDbEntity
  8
dxfile
  6
PLine1
 62
     3
100
AcDbLine
 10
725.500816
 20
1376.249152
 30
0.0
 11
713.774123
 21
1355.93837
 31
0.0
  0
LINE
  5
3F1
330
1F
100
AcDbEntity
  8
dxfile
  6
PLine1
 62
     3
100
AcDbLine
 10
712.475092
 20
1356.688382
 30
0.0
 11
724.575291
 21
1377.646082
 31
0.0
  0
ARC
  5
3F2
330
1F
100
AcDbEntity
  8
dxfile
  6
PLine1
 62
     3
100
AcDbCircle
 10
735.623754
 20
1371.382579
 30
0.0
 40
0.8000000008680584
100
AcDbArc
 50
239.999454
 51
329.999454
  0
LINE
  5
3F3
330
1F
100
AcDbEntity
  8
dxfile
  6
PLine1
 62
     3
100
AcDbLine
 10
712.475092
 20
1356.688382
 30
0.0
 11
713.774123
 21
1355.93837
 31
0.0
  0
LINE
  5
3F4
330
1F
100
AcDbEntity
  8
dxfile
  6
PLine1
 62
     3
100
AcDbLine
 10
744.1667
 20
1384.579097
 30
0.0
 11
742.867669
 21
1385.329109
 31
0.0
  0
LINE
  5
3F5
330
1F
100
AcDbEntity
  8
dxfile
  6
PLine1
 62
     3
100
AcDbLine
 10
725.525183
 20
1376.289355
 30
0.0
 11
735.916564
 21
1370.289756
 31
0.0
  0
ARC
  5
3F6
330
1F
100
AcDbEntity
  8
dxfile
  6
PLine1
 62
     3
100
AcDbCircle
 10
274.664589
 20
613.394778
 30
0.0
 40
2.999999999823715
100
AcDbArc
 50
329.999454
 51
14.999454
  0
LINE
  5
3F7
330
1F
100
AcDbEntity
  8
dxfile
  6
PLine1
 62
     3
100
AcDbLine
 10
277.262651
 20
611.894753
 30
0.0
 11
254.489147
 21
572.450755
 31
0.0
  0
ARC
  5
3F8
330
1F
100
AcDbEntity
  8
dxfile
  6
PLine1
 62
     3
100
AcDbCircle
 10
274.664589
 20
613.394778
 30
0.0
 40
5.999999999858456
100
AcDbArc
 50
329.999454
 51
14.999454
  0
LINE
  5
3F9
330
1F
100
AcDbEntity
  8
dxfile
  6
PLine1
 62
     3
100
AcDbLine
 10
257.087209
 20
570.95073
 30
0.0
 11
279.860713
 21
610.394729
 31
0.0
  0
ARC
  5
3FA
330
1F
100
AcDbEntity
  8
dxfile
  6
PLine1
 62
     3
100
AcDbCircle
 10
120.526833
 20
1223.441195
 30
0.0
 40
5.999999999937073
100
AcDbArc
 50
104.999454
 51
194.999454
  0
LINE
  5
3FB
330
1F
100
AcDbEntity
  8
dxfile
  6
PLine1
 62
     3
100
AcDbLine
 10
726.691103
 20
1392.067876
 30
0.0
 11
118.973974
 21
1229.236765
 31
0.0
  0
LINE
  5
3FC
330
1F
100
AcDbEntity
  8
dxfile
  6
PLine1
 62
     3
100
AcDbLine
 10
277.562374
 20
614.171208
 30
0.0
 11
114.731263
 21
1221.888336
 31
0.0
  0
ARC
  5
3FD
330
1F
100
AcDbEntity
  8
dxfile
  6
PLine1
 62
     3
100
AcDbCircle
 10
120.526833
 20
1223.441195
 30
0.0
 40
3.000000000136505
100
AcDbArc
 50
104.999454
 51
194.999454
  0
LINE
  5
3FE
330
1F
100
AcDbEntity
  8
dxfile
  6
PLine1
 62
     3
100
AcDbLine
 10
727.467532
 20
1389.170091
 30
0.0
 11
119.750403
 21
1226.33898
 31
0.0
  0
LINE
  5
3FF
330
1F
100
AcDbEntity
  8
dxfile
  6
PLine1
 62
     3
100
AcDbLine
 10
280.460158
 20
614.947637
 30
0.0
 11
117.629048
 21
1222.664766
 31
0.0
  0
ARC
  5
400
330
1F
100
AcDbEntity
  8
dxfile
  6
PLine1
 62
     3
100
AcDbCircle
 10
259.68527
 20
569.450705
 30
0.0
 40
5.999999999974933
100
AcDbArc
 50
149.999454
 51
206.309387
  0
LINE
  5
401
330
1F
100
AcDbEntity
  8
dxfile
  6
PLine1
 62
     3
100
AcDbLine
 10
268.864023
 20
537.349213
 30
0.0
 11
254.306787
 21
566.791397
 31
0.0
  0
ARC
  5
402
330
1F
100
AcDbEntity
  8
dxfile
  6
PLine1
 62
     3
100
AcDbCircle
 10
259.68527
 20
569.450705
 30
0.0
 40
2.999999999903497
100
AcDbArc
 50
149.999454
 51
206.309387
  0
LINE
  5
403
330
1F
100
AcDbEntity
  8
dxfile
  6
PLine1
 62
     3
100
AcDbLine
 10
270.666829
 20
540.471695
 30
0.0
 11
256.996029
 21
568.121051
 31
0.0
  0
LINE
  5
404
330
1F
100
AcDbEntity
  8
dxfile
  6
PLine1
 62
     3
100
AcDbLine
 10
756.161488
 20
1405.354222
 30
0.0
 11
735.90874
 21
1399.927721
 31
0.0
  0
LINE
  5
405
330
1F
100
AcDbEntity
  8
dxfile
  6
PLine1
 62
     3
100
AcDbLine
 10
753.682028
 20
1401.059766
 30
0.0
 11
739.469634
 21
1397.251711
 31
0.0
  0
LINE
  5
406
330
1F
100
AcDbEntity
  8
dxfile
  6
PLine1
 62
     3
100
AcDbLine
 10
735.489549
 20
1399.549665
 30
0.0
 11
748.479858
 21
1392.049541
 31
0.0
  0
LINE
  5
407
330
1F
100
AcDbEntity
  8
dxfile
  6
PLine1
 62
     3
100
AcDbLine
 10
758.442781
 20
1409.391457
 30
0.0
 11
738.248778
 21
1403.980696
 31
0.0
  0
LINE
  5
408
330
1F
100
AcDbEntity
  8
dxfile
  6
PLine1
 62
     3
100
AcDbLine
 10
743.542673
 20
1394.90009
 30
0.0
 11
740.20281
 21
1407.365104
 31
0.0
  0
LINE
  5
409
330
1F
100
AcDbEntity
  8
dxfile
  6
PLine1
 62
     3
100
AcDbLine
 10
745.489714
 20
1416.870078
 30
0.0
 11
758.480023
 21
1409.369954
 31
0.0
  0
LINE
  5
40A
330
1F
100
AcDbEntity
  8
dxfile
  6
PLine1
 62
     3
100
AcDbLine
 10
748.694856
 20
1415.019547
 30
0.0
 11
743.876869
 21
1413.728621
 31
0.0
  0
LINE
  5
40B
330
1F
100
AcDbEntity
  8
dxfile
  6
PLine1
 62
     3
100
AcDbLine
 10
729.851048
 20
1397.031592
 30
0.0
 11
744.851919
 21
1423.013293
 31
0.0
  0
LINE
  5
40C
330
1F
100
AcDbEntity
  8
dxfile
  6
PLine1
 62
     3
100
AcDbLine
 10
729.113187
 20
1397.457606
 30
0.0
 11
744.114635
 21
1423.438302
 31
0.0
  0
LINE
  5
40D
330
1F
100
AcDbEntity
  8
dxfile
  6
PLine1
 62
     3
100
AcDbLine
 10
729.53928
 20
1397.211595
 30
0.0
 11
744.540669
 21
1423.19419
 31
0.0
  0
LINE
  5
40E
330
1F
100
AcDbEntity
  8
dxfile
  6
PLine1
 62
     3
100
AcDbLine
 10
759.89343
 20
1397.006836
 30
0.0
 11
720.779007
 21
1419.590056
 31
0.0
  0
LINE
  5
40F
330
1F
100
AcDbEntity
  8
dxfile
  6
PLine1
 62
     3
100
AcDbLine
 10
750.621391
 20
1395.758702
 30
0.0
 11
745.19489
 21
1416.01145
 31
0.0
  0
LINE
  5
410
330
1F
100
AcDbEntity
  8
dxfile
  6
PLine1
 62
     3
100
AcDbLine
 10
747.732434
 20
1392.481077
 30
0.0
 11
742.620847
 21
1411.553175
 31
0.0
  0
LINE
  5
411
330
1F
100
AcDbEntity
  8
dxfile
  6
PLine1
 62
     3
100
AcDbLine
 10
739.219499
 20
1397.39613
 30
0.0
 11
737.708233
 21
1403.036466
 31
0.0
  0
LINE
  5
412
330
1F
100
AcDbEntity
  8
dxfile
  6
PLine1
 62
     3
100
AcDbLine
 10
743.659805
 20
1423.700488
 30
0.0
 11
742.360261
 21
1424.449612
 31
0.0
  0
LINE
  5
413
330
1F
100
AcDbEntity
  8
dxfile
  6
PLine1
 62
     3
100
AcDbLine
 10
727.896683
 20
1405.8864
 30
0.0
 11
736.205572
 21
1420.277502
 31
0.0
  0
LINE
  5
414
330
1F
100
AcDbEntity
  8
dxfile
  6
PLine1
 62
     3
100
AcDbLine
 10
727.360745
 20
1398.47026
 30
0.0
 11
742.360261
 21
1424.449612
 31
0.0
  0
ARC
  5
415
330
1F
100
AcDbEntity
  8
dxfile
  6
PLine1
 62
     3
100
AcDbCircle
 10
740.319797
 20
1417.221564
 30
0.0
 40
5.124997950098993
100
AcDbArc
 50
81.123618
 51
143.072758
  0
LINE
  5
416
330
1F
100
AcDbEntity
  8
dxfile
  6
PLine1
 62
     3
100
AcDbLine
 10
728.659263
 20
1397.719359
 30
0.0
 11
743.659805
 21
1423.700488
 31
0.0
  0
ARC
  5
417
330
1F
100
AcDbEntity
  8
dxfile
  6
PLine1
 62
     3
100
AcDbCircle
 10
728.965466
 20
1410.937494
 30
0.0
 40
3.599999999833114
100
AcDbArc
 50
149.999454
 51
239.999454
  0
LINE
  5
418
330
1F
100
AcDbEntity
  8
dxfile
  6
PLine1
 62
     3
100
AcDbLine
 10
728.55107
 20
1407.019807
 30
0.0
 11
727.165436
 21
1407.81982
 31
0.0
  0
LINE
  5
419
330
1F
100
AcDbEntity
  8
dxfile
  6
PLine1
 62
     3
100
AcDbLine
 10
729.17098
 20
1418.493328
 30
0.0
 11
725.847792
 21
1412.737524
 31
0.0
  0
ARC
  5
41A
330
1F
100
AcDbEntity
  8
dxfile
  6
PLine1
 62
     3
100
AcDbCircle
 10
732.288654
 20
1416.693298
 30
0.0
 40
3.600000000018317
100
AcDbArc
 50
64.999454
 51
149.999454
  0
LINE
  5
41B
330
1F
100
AcDbEntity
  8
dxfile
  6
PLine1
 62
     3
100
AcDbLine
 10
735.551185
 20
1419.144096
 30
0.0
 11
733.810111
 21
1419.955992
 31
0.0
  0
LINE
  5
41C
330
1F
100
AcDbEntity
  8
dxfile
  6
PLine1
 62
     3
100
AcDbLine
 10
743.659805
 20
1423.700488
 30
0.0
 11
745.391791
 21
1422.700375
 31
0.0
  0
LINE
  5
41D
330
1F
100
AcDbEntity
  8
dxfile
  6
PLine1
 62
     3
100
AcDbLine
 10
753.615705
 20
1412.178431
 30
0.0
 11
741.035752
 21
1408.807771
 31
0.0
  0
LINE
  5
41E
330
1F
100
AcDbEntity
  8
dxfile
  6
PLine1
 62
     3
100
AcDbLine
 10
753.190941
 20
1400.209197
 30
0.0
 11
749.319266
 21
1414.659036
 31
0.0
  0
LINE
  5
41F
330
1F
100
AcDbEntity
  8
dxfile
  6
PLine1
 62
     3
100
AcDbLine
 10
728.659263
 20
1397.719359
 30
0.0
 11
730.39136
 21
1396.719439
 31
0.0
  0
LINE
  5
420
330
1F
100
AcDbEntity
  8
dxfile
  6
PLine1
 62
     3
100
AcDbLine
 10
728.659263
 20
1397.719359
 30
0.0
 11
727.360745
 21
1398.47026
 31
0.0
  0
ARC
  5
421
330
1F
100
AcDbEntity
  8
dxfile
  6
PLine1
 62
     3
100
AcDbCircle
 10
732.600276
 20
1403.851256
 30
0.0
 40
5.124997949743012
100
AcDbArc
 50
156.602899
 51
218.87529
  0
ARC
  5
422
330
1F
100
AcDbEntity
  8
dxfile
  6
PLine1
 62
     3
100
AcDbCircle
 10
725.914673
 20
1394.965661
 30
0.0
 40
2.999999999586611
100
AcDbArc
 50
284.999454
 51
329.999454
  0
LINE
  5
423
330
1F
100
AcDbEntity
  8
dxfile
  6
PLine1
 62
     3
100
AcDbLine
 10
728.512735
 20
1393.465636
 30
0.0
 11
751.286239
 21
1432.909634
 31
0.0
  0
ARC
  5
424
330
1F
100
AcDbEntity
  8
dxfile
  6
PLine1
 62
     3
100
AcDbCircle
 10
725.914673
 20
1394.965661
 30
0.0
 40
5.999999999536504
100
AcDbArc
 50
284.999454
 51
329.999454
  0
LINE
  5
425
330
1F
100
AcDbEntity
  8
dxfile
  6
PLine1
 62
     3
100
AcDbLine
 10
753.884301
 20
1431.40961
 30
0.0
 11
731.110797
 21
1391.965611
 31
0.0
  0
ARC
  5
426
330
1F
100
AcDbEntity
  8
dxfile
  6
PLine1
 62
     3
100
AcDbCircle
 10
756.482363
 20
1429.909585
 30
0.0
 40
5.999999999931505
100
AcDbArc
 50
93.689522
 51
149.999454
  0
LINE
  5
427
330
1F
100
AcDbEntity
  8
dxfile
  6
PLine1
 62
     3
100
AcDbLine
 10
788.872601
 20
1438.010681
 30
0.0
 11
756.096264
 21
1435.897149
 31
0.0
  0
ARC
  5
428
330
1F
100
AcDbEntity
  8
dxfile
  6
PLine1
 62
     3
100
AcDbCircle
 10
756.482363
 20
1429.909585
 30
0.0
 40
2.999999999203739
100
AcDbArc
 50
93.689522
 51
149.999454
  0
LINE
  5
429
330
1F
100
AcDbEntity
  8
dxfile
  6
PLine1
 62
     3
100
AcDbLine
 10
787.069796
 20
1434.888199
 30
0.0
 11
756.289313
 21
1432.903367
 31
0.0
  0
LINE
  5
42A
330
1F
100
AcDbEntity
  8
dxfile
  6
PLine1
 62
     3
100
AcDbLine
 10
787.069796
 20
1434.888199
 30
0.0
 11
788.872601
 21
1438.010681
 31
0.0
  0
LINE
  5
42B
330
1F
100
AcDbEntity
  8
dxfile
  6
PLine1
 62
     3
100
AcDbLine
 10
746.289727
 20
1418.255711
 30
0.0
 11
759.280037
 21
1410.755587
 31
0.0
  0
LINE
  5
42C
330
1F
100
AcDbEntity
  8
dxfile
  6
PLine1
 62
     3
100
AcDbLine
 10
734.689536
 20
1398.164032
 30
0.0
 11
747.679845
 21
1390.663908
 31
0.0
  0
LINE
  5
42D
330
1F
100
AcDbEntity
  8
dxfile
  6
PLine1
 62
     3
100
AcDbLine
 10
751.984869
 20
1413.120016
 30
0.0
 11
741.984704
 21
1395.799603
 31
0.0
  0
LINE
  5
42E
330
1F
100
AcDbEntity
  8
dxfile
  6
PLine1
 62
     3
100
AcDbLine
 10
755.482414
 20
1404.178057
 30
0.0
 11
753.288126
 21
1412.367563
 31
0.0
  0
LINE
  5
42F
330
1F
100
AcDbEntity
  8
dxfile
  6
PLine1
 62
     3
100
AcDbLine
 10
751.19033
 20
1396.744112
 30
0.0
 11
743.785287
 21
1394.760013
 31
0.0
  0
ARC
  5
430
330
1F
100
AcDbEntity
  8
dxfile
  6
Continuous
 62
     3
100
AcDbCircle
 10
1312.261101
 20
681.064933
 30
0.0
 40
9.754415587741505
100
AcDbArc
 50
65.790724
 51
114.209276
  0
ARC
  5
431
330
1F
100
AcDbEntity
  8
dxfile
  6
Continuous
 62
     3
100
AcDbCircle
 10
1317.833218
 20
688.958001
 30
0.0
 40
1.865081654006677
100
AcDbArc
 50
93.62604
 51
147.449869
  0
LINE
  5
432
330
1F
100
AcDbEntity
  8
dxfile
  6
Continuous
 62
     3
100
AcDbLine
 10
1304.755548
 20
685.319349
 30
0.0
 11
1319.766655
 21
685.319349
 31
0.0
  0
LINE
  5
433
330
1F
100
AcDbEntity
  8
dxfile
  6
Continuous
 62
     3
100
AcDbLine
 10
1308.261101
 20
685.319349
 30
0.0
 11
1308.261101
 21
689.961484
 31
0.0
  0
LINE
  5
434
330
1F
100
AcDbEntity
  8
dxfile
  6
Continuous
 62
     3
100
AcDbLine
 10
1305.761101
 20
690.819349
 30
0.0
 11
1312.261101
 21
690.819349
 31
0.0
  0
LINE
  5
435
330
1F
100
AcDbEntity
  8
dxfile
  6
Continuous
 62
     3
100
AcDbLine
 10
1319.766655
 20
685.319349
 30
0.0
 11
1319.766655
 21
690.238792
 31
0.0
  0
LINE
  5
436
330
1F
100
AcDbEntity
  8
dxfile
  6
Continuous
 62
     3
100
AcDbLine
 10
1316.261101
 20
685.319349
 30
0.0
 11
1316.261101
 21
689.961484
 31
0.0
  0
LINE
  5
437
330
1F
100
AcDbEntity
  8
dxfile
  6
Continuous
 62
     3
100
AcDbLine
 10
1318.761101
 20
690.819349
 30
0.0
 11
1312.261101
 21
690.819349
 31
0.0
  0
LINE
  5
438
330
1F
100
AcDbEntity
  8
dxfile
  6
Continuous
 62
     3
100
AcDbLine
 10
1304.755548
 20
685.319349
 30
0.0
 11
1304.755548
 21
690.238792
 31
0.0
  0
LINE
  5
439
330
1F
100
AcDbEntity
  8
dxfile
  6
Continuous
 62
     3
100
AcDbLine
 10
1304.755548
 20
690.238792
 30
0.0
 11
1305.761101
 21
690.819349
 31
0.0
  0
LINE
  5
43A
330
1F
100
AcDbEntity
  8
dxfile
  6
Continuous
 62
     3
100
AcDbLine
 10
1319.766655
 20
690.238792
 30
0.0
 11
1318.761101
 21
690.819349
 31
0.0
  0
ARC
  5
43B
330
1F
100
AcDbEntity
  8
dxfile
  6
Continuous
 62
     3
100
AcDbCircle
 10
1306.688985
 20
688.958001
 30
0.0
 40
1.865081654266215
100
AcDbArc
 50
32.550131
 51
86.37396
  0
ARC
  5
43C
330
1F
100
AcDbEntity
  8
dxfile
  6
Continuous
 62
     3
100
AcDbCircle
 10
372.261101
 20
681.064933
 30
0.0
 40
9.754415587740993
100
AcDbArc
 50
65.790724
 51
114.209276
  0
ARC
  5
43D
330
1F
100
AcDbEntity
  8
dxfile
  6
Continuous
 62
     3
100
AcDbCircle
 10
377.833218
 20
688.958001
 30
0.0
 40
1.865081654343755
100
AcDbArc
 50
93.62604
 51
147.449869
  0
LINE
  5
43E
330
1F
100
AcDbEntity
  8
dxfile
  6
Continuous
 62
     3
100
AcDbLine
 10
364.755548
 20
685.319349
 30
0.0
 11
379.766655
 21
685.319349
 31
0.0
  0
LINE
  5
43F
330
1F
100
AcDbEntity
  8
dxfile
  6
Continuous
 62
     3
100
AcDbLine
 10
368.261101
 20
685.319349
 30
0.0
 11
368.261101
 21
689.961484
 31
0.0
  0
LINE
  5
440
330
1F
100
AcDbEntity
  8
dxfile
  6
Continuous
 62
     3
100
AcDbLine
 10
365.761101
 20
690.819349
 30
0.0
 11
372.261101
 21
690.819349
 31
0.0
  0
LINE
  5
441
330
1F
100
AcDbEntity
  8
dxfile
  6
Continuous
 62
     3
100
AcDbLine
 10
379.766655
 20
685.319349
 30
0.0
 11
379.766655
 21
690.238792
 31
0.0
  0
LINE
  5
442
330
1F
100
AcDbEntity
  8
dxfile
  6
Continuous
 62
     3
100
AcDbLine
 10
376.261101
 20
685.319349
 30
0.0
 11
376.261101
 21
689.961484
 31
0.0
  0
LINE
  5
443
330
1F
100
AcDbEntity
  8
dxfile
  6
Continuous
 62
     3
100
AcDbLine
 10
378.761101
 20
690.819349
 30
0.0
 11
372.261101
 21
690.819349
 31
0.0
  0
LINE
  5
444
330
1F
100
AcDbEntity
  8
dxfile
  6
Continuous
 62
     3
100
AcDbLine
 10
364.755548
 20
685.319349
 30
0.0
 11
364.755548
 21
690.238792
 31
0.0
  0
LINE
  5
445
330
1F
100
AcDbEntity
  8
dxfile
  6
Continuous
 62
     3
100
AcDbLine
 10
364.755548
 20
690.238792
 30
0.0
 11
365.761101
 21
690.819349
 31
0.0
  0
LINE
  5
446
330
1F
100
AcDbEntity
  8
dxfile
  6
Continuous
 62
     3
100
AcDbLine
 10
379.766655
 20
690.238792
 30
0.0
 11
378.761101
 21
690.819349
 31
0.0
  0
ARC
  5
447
330
1F
100
AcDbEntity
  8
dxfile
  6
Continuous
 62
     3
100
AcDbCircle
 10
366.688985
 20
688.958001
 30
0.0
 40
1.865081654708933
100
AcDbArc
 50
32.550131
 51
86.37396
  0
LINE
  5
448
330
1F
100
AcDbEntity
  8
dxfile
  6
Continuous
 62
     1
100
AcDbLine
 10
2457.798438
 20
1728.165365
 30
0.0
 11
57.798438
 21
1728.165365
 31
0.0
  0
LINE
  5
449
330
1F
100
AcDbEntity
  8
dxfile
  6
Continuous
 62
     1
100
AcDbLine
 10
2457.798438
 20
48.165365
 30
0.0
 11
2457.798438
 21
1728.165365
 31
0.0
  0
TEXT
  5
44A
330
1F
100
AcDbEntity
  8
dxfile
  6
Continuous
 62
     2
100
AcDbText
 10
2147.476002
 20
111.589373
 30
0.0
 40
24.0
  1
ＬＭ－ＡＬ－Ｐ型
 41
0.858268
  7
BIGFONT
100
AcDbText
  0
TEXT
  5
44B
330
1F
100
AcDbEntity
  8
dxfile
  6
Continuous
 62
     3
100
AcDbText
 10
2098.553548
 20
212.107724
 30
0.0
 40
21.0
  1
ボックス施工例
 41
0.858268
  7
BIGFONT
100
AcDbText
  0
LINE
  5
44C
330
1F
100
AcDbEntity
  8
dxfile
  6
Continuous
 62
     3
100
AcDbLine
 10
2282.305654
 20
1266.903146
 30
0.0
 11
2282.305654
 21
304.043127
 31
0.0
  0
LINE
  5
44D
330
1F
100
AcDbEntity
  8
dxfile
  6
Continuous
 62
     3
100
AcDbLine
 10
2222.805654
 20
1120.134133
 30
0.0
 11
2222.805654
 21
1126.784133
 31
0.0
  0
INSERT
  5
454
330
1F
100
AcDbEntity
  8
dxfile
  6
Continuous
 62
     3
100
AcDbBlockReference
  2
DIM_5
 10
0.0
 20
0.0
 30
0.0
  0
LINE
  5
455
330
1F
100
AcDbEntity
  8
dxfile
  6
Continuous
 62
     4
100
AcDbLine
 10
2200.775406
 20
1210.640128
 30
0.0
 11
2208.084733
 21
1216.71791
 31
0.0
  0
ARC
  5
456
330
1F
100
AcDbEntity
  8
dxfile
  6
Continuous
 62
     4
100
AcDbCircle
 10
2093.533561
 20
1118.060743
 30
0.0
 40
144.5000000001478
100
AcDbArc
 50
40.782563
 51
89.215646
  0
ARC
  5
457
330
1F
100
AcDbEntity
  8
dxfile
  6
Continuous
 62
     4
100
AcDbCircle
 10
2093.533561
 20
1118.060743
 30
0.0
 40
149.9999999999415
100
AcDbArc
 50
40.744474
 51
89.215646
  0
LINE
  5
458
330
1F
100
AcDbEntity
  8
dxfile
  6
Continuous
 62
     3
100
AcDbLine
 10
1986.122258
 20
1250.04046
 30
0.0
 11
1989.524182
 21
1261.932765
 31
0.0
  0
LINE
  5
459
330
1F
100
AcDbEntity
  8
dxfile
  6
Continuous
 62
     3
100
AcDbLine
 10
1989.524182
 20
1261.932765
 30
0.0
 11
1942.017183
 21
1179.648229
 31
0.0
  0
LINE
  5
45A
330
1F
100
AcDbEntity
  8
dxfile
  6
Continuous
 62
     3
100
AcDbLine
 10
1942.017183
 20
1179.648229
 30
0.0
 11
1800.117183
 21
1179.648229
 31
0.0
  0
TEXT
  5
45B
330
1F
100
AcDbEntity
  8
dxfile
  6
Continuous
 62
     3
100
AcDbText
 10
1822.472465
 20
1184.648299
 30
0.0
 40
15.0
  1
アウターケーブルφ１１
 41
0.858268
 51
0.0
  7
BIGFONT
 72
     2
 11
1942.016896
 21
1184.648299
 31
0.0
100
AcDbText
  0
TEXT
  5
45C
330
1F
100
AcDbEntity
  8
dxfile
  6
Continuous
 62
     3
100
AcDbText
 10
1873.251031
 20
1241.057224
 30
0.0
 40
15.0
  1
←本体へ
 41
0.729528
 51
0.0
  7
BIGFONT
100
AcDbText
  0
LINE
  5
45D
330
1F
100
AcDbEntity
  8
dxfile
  6
Continuous
 62
     6
100
AcDbLine
 10
2332.289178
 20
1327.573592
 30
0.0
 11
2272.762274
 21
1268.046688
 31
0.0
  0
LINE
  5
45E
330
1F
100
AcDbEntity
  8
dxfile
  6
Continuous
 62
     6
100
AcDbLine
 10
2276.6937
 20
1268.046688
 30
0.0
 11
2336.220604
 21
1327.573592
 31
0.0
  0
LINE
  5
45F
330
1F
100
AcDbEntity
  8
dxfile
  6
Continuous
 62
     6
100
AcDbLine
 10
2327.735322
 20
1327.573592
 30
0.0
 11
2268.208418
 21
1268.046688
 31
0.0
  0
LINE
  5
460
330
1F
100
AcDbEntity
  8
dxfile
  6
Continuous
 62
     6
100
AcDbLine
 10
2008.705378
 20
1268.046688
 30
0.0
 11
2068.232283
 21
1327.573592
 31
0.0
  0
LINE
  5
461
330
1F
100
AcDbEntity
  8
dxfile
  6
Continuous
 62
     6
100
AcDbLine
 10
2000.220097
 20
1268.046688
 30
0.0
 11
2059.747001
 21
1327.573592
 31
0.0
  0
LINE
  5
462
330
1F
100
AcDbEntity
  8
dxfile
  6
Continuous
 62
     3
100
AcDbLine
 10
1882.157106
 20
1121.234133
 30
0.0
 11
2221.405654
 21
1121.234133
 31
0.0
  0
LINE
  5
463
330
1F
100
AcDbEntity
  8
dxfile
  6
Continuous
 62
     3
100
AcDbLine
 10
1882.157106
 20
1125.984133
 30
0.0
 11
2221.405654
 21
1125.984133
 31
0.0
  0
LINE
  5
464
330
1F
100
AcDbEntity
  8
dxfile
  6
Continuous
 62
     3
100
AcDbLine
 10
2221.405654
 20
1125.984133
 30
0.0
 11
2221.405654
 21
1121.234133
 31
0.0
  0
LINE
  5
465
330
1F
100
AcDbEntity
  8
dxfile
  6
Continuous
 62
     3
100
AcDbLine
 10
2215.105654
 20
1126.284133
 30
0.0
 11
2215.105654
 21
1126.784133
 31
0.0
  0
LINE
  5
466
330
1F
100
AcDbEntity
  8
dxfile
  6
Continuous
 62
     3
100
AcDbLine
 10
2222.305654
 20
1126.284133
 30
0.0
 11
2215.105654
 21
1126.284133
 31
0.0
  0
LINE
  5
467
330
1F
100
AcDbEntity
  8
dxfile
  6
Continuous
 62
     3
100
AcDbLine
 10
2222.305654
 20
1120.634133
 30
0.0
 11
2222.305654
 21
1126.284133
 31
0.0
  0
LINE
  5
468
330
1F
100
AcDbEntity
  8
dxfile
  6
Continuous
 62
     3
100
AcDbLine
 10
2219.905654
 20
1120.634133
 30
0.0
 11
2222.305654
 21
1120.634133
 31
0.0
  0
LINE
  5
469
330
1F
100
AcDbEntity
  8
dxfile
  6
Continuous
 62
     3
100
AcDbLine
 10
2219.905654
 20
1121.234133
 30
0.0
 11
2219.905654
 21
1120.634133
 31
0.0
  0
LINE
  5
46A
330
1F
100
AcDbEntity
  8
dxfile
  6
Continuous
 62
     3
100
AcDbLine
 10
2219.405654
 20
1121.234133
 30
0.0
 11
2219.905654
 21
1121.234133
 31
0.0
  0
LINE
  5
46B
330
1F
100
AcDbEntity
  8
dxfile
  6
Continuous
 62
     3
100
AcDbLine
 10
2219.405654
 20
1120.134133
 30
0.0
 11
2219.405654
 21
1121.234133
 31
0.0
  0
LINE
  5
46C
330
1F
100
AcDbEntity
  8
dxfile
  6
Continuous
 62
     3
100
AcDbLine
 10
2219.405654
 20
1120.134133
 30
0.0
 11
2222.805654
 21
1120.134133
 31
0.0
  0
LINE
  5
46D
330
1F
100
AcDbEntity
  8
dxfile
  6
Continuous
 62
     3
100
AcDbLine
 10
2215.105654
 20
1126.784133
 30
0.0
 11
2222.805654
 21
1126.784133
 31
0.0
  0
TEXT
  5
46E
330
1F
100
AcDbEntity
  8
dxfile
  6
Continuous
 62
     3
100
AcDbText
 10
1997.987206
 20
1104.420184
 30
0.0
 40
15.0
  1
ＣＬ
 41
0.858268
 51
0.0
  7
BIGFONT
100
AcDbText
  0
TEXT
  5
46F
330
1F
100
AcDbEntity
  8
dxfile
  6
Continuous
 62
     3
100
AcDbText
 10
1985.579366
 20
1104.983384
 30
0.0
 40
15.0
  1
△
 41
0.858268
 51
0.0
  7
BIGFONT
100
AcDbText
  0
TEXT
  5
470
330
1F
100
AcDbEntity
  8
dxfile
  6
Continuous
 62
     3
100
AcDbText
 10
2097.266378
 20
1011.554086
 30
0.0
 40
15.0
  1
φ１９　電線管
 41
0.858268
  7
BIGFONT
100
AcDbText
  0
LINE
  5
471
330
1F
100
AcDbEntity
  8
dxfile
  6
Continuous
 62
     3
100
AcDbLine
 10
2234.526754
 20
968.098422
 30
0.0
 11
2243.12483
 21
959.206117
 31
0.0
  0
LINE
  5
472
330
1F
100
AcDbEntity
  8
dxfile
  6
Continuous
 62
     3
100
AcDbLine
 10
2243.12483
 20
959.206117
 30
0.0
 11
2202.800627
 21
1029.049686
 31
0.0
  0
LINE
  5
473
330
1F
100
AcDbEntity
  8
dxfile
  6
Continuous
 62
     3
100
AcDbLine
 10
2202.800627
 20
1029.049686
 30
0.0
 11
2095.109386
 21
1029.049686
 31
0.0
  0
TEXT
  5
474
330
1F
100
AcDbEntity
  8
dxfile
  6
Continuous
 62
     3
100
AcDbText
 10
2112.983429
 20
1031.549661
 30
0.0
 40
15.0
  1
ワイヤー通路
 41
0.858268
 51
0.0
  7
BIGFONT
 72
     2
 11
2177.353508
 21
1031.549661
 31
0.0
100
AcDbText
  0
TEXT
  5
475
330
1F
100
AcDbEntity
  8
dxfile
  6
Continuous
 62
     3
100
AcDbText
 10
2023.28855
 20
900.842976
 30
0.0
 40
15.0
  1
（ＨＭ１型－埋込）
 41
0.858268
  7
BIGFONT
100
AcDbText
  0
LINE
  5
476
330
1F
100
AcDbEntity
  8
dxfile
  6
Continuous
 62
     2
100
AcDbLine
 10
1923.728806
 20
1327.573592
 30
0.0
 11
2367.36629
 21
1327.573592
 31
0.0
  0
LINE
  5
477
330
1F
100
AcDbEntity
  8
dxfile
  6
Continuous
 62
     3
100
AcDbLine
 10
2075.106718
 20
1272.559146
 30
0.0
 11
2075.106718
 21
1263.129682
 31
0.0
  0
LINE
  5
478
330
1F
100
AcDbEntity
  8
dxfile
  6
Continuous
 62
     3
100
AcDbLine
 10
2067.606718
 20
1267.296688
 30
0.0
 11
2082.606718
 21
1267.296688
 31
0.0
  0
LINE
  5
479
330
1F
100
AcDbEntity
  8
dxfile
  6
Continuous
 62
     3
100
AcDbLine
 10
2067.606718
 20
1260.474455
 30
0.0
 11
2082.606718
 21
1260.474455
 31
0.0
  0
LINE
  5
47A
330
1F
100
AcDbEntity
  8
dxfile
  6
Continuous
 62
     3
100
AcDbLine
 10
2082.606718
 20
1268.046688
 30
0.0
 11
2082.606718
 21
1260.474455
 31
0.0
  0
LINE
  5
47B
330
1F
100
AcDbEntity
  8
dxfile
  6
Continuous
 62
     3
100
AcDbLine
 10
2067.606718
 20
1268.046688
 30
0.0
 11
2067.606718
 21
1260.474455
 31
0.0
  0
LINE
  5
47C
330
1F
100
AcDbEntity
  8
dxfile
  6
Continuous
 62
     2
100
AcDbLine
 10
2095.586931
 20
1268.046688
 30
0.0
 11
2367.36629
 21
1268.046688
 31
0.0
  0
LINE
  5
47D
330
1F
100
AcDbEntity
  8
dxfile
  6
PLine3
 62
     3
100
AcDbLine
 10
1882.157106
 20
1265.796688
 30
0.0
 11
1923.571138
 21
1265.796688
 31
0.0
  0
LINE
  5
47E
330
1F
100
AcDbEntity
  8
dxfile
  6
PLine2
 62
     3
100
AcDbLine
 10
1882.157106
 20
1264.796688
 30
0.0
 11
1923.797152
 21
1264.796688
 31
0.0
  0
LINE
  5
47F
330
1F
100
AcDbEntity
  8
dxfile
  6
Continuous
 62
     4
100
AcDbLine
 10
2095.548932
 20
1262.546688
 30
0.0
 11
2082.606718
 21
1262.546688
 31
0.0
  0
LINE
  5
480
330
1F
100
AcDbEntity
  8
dxfile
  6
Continuous
 62
     4
100
AcDbLine
 10
2095.586931
 20
1268.046688
 30
0.0
 11
1923.728806
 21
1268.046688
 31
0.0
  0
LINE
  5
481
330
1F
100
AcDbEntity
  8
dxfile
  6
Continuous
 62
     3
100
AcDbLine
 10
2100.029516
 20
1238.189845
 30
0.0
 11
2109.43144
 21
1260.474455
 31
0.0
  0
LINE
  5
482
330
1F
100
AcDbEntity
  8
dxfile
  6
Continuous
 62
     3
100
AcDbLine
 10
2109.43144
 20
1260.474455
 30
0.0
 11
2073.818701
 21
1198.791382
 31
0.0
  0
LINE
  5
483
330
1F
100
AcDbEntity
  8
dxfile
  6
Continuous
 62
     3
100
AcDbLine
 10
2073.818701
 20
1198.791382
 30
0.0
 11
1996.418701
 21
1198.791382
 31
0.0
  0
TEXT
  5
484
330
1F
100
AcDbEntity
  8
dxfile
  6
Continuous
 62
     3
100
AcDbText
 10
2009.448578
 20
1203.791369
 30
0.0
 40
15.0
  1
クリップ止め
 41
0.858268
 51
0.0
  7
BIGFONT
 72
     2
 11
2073.818656
 21
1203.791369
 31
0.0
100
AcDbText
  0
LINE
  5
485
330
1F
100
AcDbEntity
  8
dxfile
  6
Continuous
 62
     4
100
AcDbLine
 10
2067.606718
 20
1262.546688
 30
0.0
 11
1923.644051
 21
1262.546688
 31
0.0
  0
LINE
  5
486
330
1F
100
AcDbEntity
  8
dxfile
  6
Continuous
 62
     6
100
AcDbLine
 10
2114.988097
 20
304.217647
 30
0.0
 11
2081.719598
 21
270.949148
 31
0.0
  0
LINE
  5
487
330
1F
100
AcDbEntity
  8
dxfile
  6
Continuous
 62
     6
100
AcDbLine
 10
2079.493838
 20
270.949148
 30
0.0
 11
2112.762337
 21
304.217647
 31
0.0
  0
LINE
  5
488
330
1F
100
AcDbEntity
  8
dxfile
  6
Continuous
 62
     6
100
AcDbLine
 10
2307.428307
 20
270.949148
 30
0.0
 11
2340.696806
 21
304.217647
 31
0.0
  0
LINE
  5
489
330
1F
100
AcDbEntity
  8
dxfile
  6
Continuous
 62
     6
100
AcDbLine
 10
2343.116443
 20
304.217647
 30
0.0
 11
2309.847944
 21
270.949148
 31
0.0
  0
LINE
  5
48A
330
1F
100
AcDbEntity
  8
dxfile
  6
Continuous
 62
     3
100
AcDbLine
 10
2211.603815
 20
797.546033
 30
0.0
 11
2220.201891
 21
788.653728
 31
0.0
  0
LINE
  5
48B
330
1F
100
AcDbEntity
  8
dxfile
  6
Continuous
 62
     3
100
AcDbLine
 10
2220.201891
 20
788.653728
 30
0.0
 11
2144.570448
 21
919.65123
 31
0.0
  0
LINE
  5
48C
330
1F
100
AcDbEntity
  8
dxfile
  6
Continuous
 62
     3
100
AcDbLine
 10
2144.570448
 20
919.65123
 30
0.0
 11
2031.283917
 21
919.65123
 31
0.0
  0
TEXT
  5
48D
330
1F
100
AcDbEntity
  8
dxfile
  6
Continuous
 62
     3
100
AcDbText
 10
2050.997072
 20
922.151266
 30
0.0
 40
15.0
  1
ハンドルＢＯＸ
 41
0.858268
 51
0.0
  7
BIGFONT
 72
     2
 11
2126.402021
 21
922.151266
 31
0.0
100
AcDbText
  0
INSERT
  5
495
330
1F
100
AcDbEntity
  8
dxfile
  6
Continuous
 62
     3
100
AcDbBlockReference
  2
DIM_6
 10
2035.483105
 20
1121.234133
 30
0.0
  0
LINE
  5
496
330
1F
100
AcDbEntity
  8
dxfile
  6
Continuous
 62
     3
100
AcDbLine
 10
2277.555654
 20
1266.903146
 30
0.0
 11
2277.555654
 21
304.043127
 31
0.0
  0
TEXT
  5
497
330
1F
100
AcDbEntity
  8
dxfile
  6
Continuous
 62
     3
100
AcDbText
 10
2056.463766
 20
307.601564
 30
0.0
 40
15.0
  1
ＦＬ
 41
0.858268
 51
0.0
  7
BIGFONT
100
AcDbText
  0
TEXT
  5
498
330
1F
100
AcDbEntity
  8
dxfile
  6
Continuous
 62
     3
100
AcDbText
 10
2043.688501
 20
306.905154
 30
0.0
 40
15.0
  1
▽
 41
0.858268
 51
0.0
  7
BIGFONT
100
AcDbText
  0
LINE
  5
499
330
1F
100
AcDbEntity
  8
dxfile
  6
Continuous
 62
     3
100
AcDbLine
 10
2216.257578
 20
484.505555
 30
0.0
 11
2224.855654
 21
475.61325
 31
0.0
  0
LINE
  5
49A
330
1F
100
AcDbEntity
  8
dxfile
  6
Continuous
 62
     3
100
AcDbLine
 10
2224.855654
 20
475.61325
 30
0.0
 11
2188.266431
 21
538.987643
 31
0.0
  0
LINE
  5
49B
330
1F
100
AcDbEntity
  8
dxfile
  6
Continuous
 62
     3
100
AcDbLine
 10
2188.266431
 20
538.987643
 30
0.0
 11
2079.729506
 21
538.987643
 31
0.0
  0
TEXT
  5
49C
330
1F
100
AcDbEntity
  8
dxfile
  6
Continuous
 62
     3
100
AcDbText
 10
2103.120851
 20
541.487634
 30
0.0
 40
15.0
  1
内装ボード（別途）
 41
0.858268
 51
0.0
  7
BIGFONT
 72
     2
 11
2200.595541
 21
541.487634
 31
0.0
100
AcDbText
  0
LINE
  5
49D
330
1F
100
AcDbEntity
  8
dxfile
  6
Continuous
 62
     3
100
AcDbLine
 10
2227.555654
 20
661.612021
 30
0.0
 11
2227.555654
 21
304.217647
 31
0.0
  0
LINE
  5
49E
330
1F
100
AcDbEntity
  8
dxfile
  6
Continuous
 62
     3
100
AcDbLine
 10
2222.805654
 20
661.612021
 30
0.0
 11
2222.805654
 21
304.217647
 31
0.0
  0
INSERT
  5
4A7
330
1F
100
AcDbEntity
  8
dxfile
  6
Continuous
 62
     3
100
AcDbBlockReference
  2
DIM_7
 10
2148.865245
 20
682.362021
 30
0.0
  0
LINE
  5
4A8
330
1F
100
AcDbEntity
  8
dxfile
  6
Continuous
 62
     2
100
AcDbLine
 10
1904.536701
 20
304.217647
 30
0.0
 11
2367.36629
 21
304.217647
 31
0.0
  0
LINE
  5
4A9
330
1F
100
AcDbEntity
  8
dxfile
  6
Continuous
 62
     3
100
AcDbLine
 10
2227.555654
 20
811.612021
 30
0.0
 11
2227.555654
 21
1268.046688
 31
0.0
  0
LINE
  5
4AA
330
1F
100
AcDbEntity
  8
dxfile
  6
Continuous
 62
     3
100
AcDbLine
 10
2222.805654
 20
1268.046688
 30
0.0
 11
2222.805654
 21
764.112021
 31
0.0
  0
LINE
  5
4AB
330
1F
100
AcDbEntity
  8
dxfile
  6
Continuous
 62
     4
100
AcDbLine
 10
2220.305654
 20
656.612021
 30
0.0
 11
2222.805654
 21
656.612021
 31
0.0
  0
LINE
  5
4AC
330
1F
100
AcDbEntity
  8
dxfile
  6
Continuous
 62
     4
100
AcDbLine
 10
2222.805654
 20
656.612021
 30
0.0
 11
2222.805654
 21
816.612021
 31
0.0
  0
LINE
  5
4AD
330
1F
100
AcDbEntity
  8
dxfile
  6
Continuous
 62
     4
100
AcDbLine
 10
2222.805654
 20
816.612021
 30
0.0
 11
2220.305654
 21
816.612021
 31
0.0
  0
INSERT
  5
4B7
330
1F
100
AcDbEntity
  8
dxfile
  6
Continuous
 62
     3
100
AcDbBlockReference
  2
DIM_8
 10
2215.919188
 20
816.612021
 30
0.0
  0
INSERT
  5
4C1
330
1F
100
AcDbEntity
  8
dxfile
  6
Continuous
 62
     3
100
AcDbBlockReference
  2
DIM_9
 10
2260.734695
 20
661.612021
 30
0.0
  0
INSERT
  5
4CA
330
1F
100
AcDbEntity
  8
dxfile
  6
Continuous
 62
     3
100
AcDbBlockReference
  2
DIM_10
 10
2220.305654
 20
650.768131
 30
0.0
  0
INSERT
  5
4D3
330
1F
100
AcDbEntity
  8
dxfile
  6
Continuous
 62
     3
100
AcDbBlockReference
  2
DIM_11
 10
2257.805654
 20
655.768131
 30
0.0
  0
INSERT
  5
4DD
330
1F
100
AcDbEntity
  8
dxfile
  6
Continuous
 62
     3
100
AcDbBlockReference
  2
DIM_12
 10
2351.758706
 20
653.391476
 30
0.0
  0
LINE
  5
4DE
330
1F
100
AcDbEntity
  8
dxfile
  6
Continuous
 62
     4
100
AcDbLine
 10
2351.758706
 20
816.612021
 30
0.0
 11
2351.758706
 21
656.612021
 31
0.0
  0
LINE
  5
4DF
330
1F
100
AcDbEntity
  8
dxfile
  6
Continuous
 62
     4
100
AcDbLine
 10
2416.758706
 20
816.612021
 30
0.0
 11
2416.758706
 21
656.612021
 31
0.0
  0
LINE
  5
4E0
330
1F
100
AcDbEntity
  8
dxfile
  6
Continuous
 62
     4
100
AcDbLine
 10
2351.758706
 20
816.612021
 30
0.0
 11
2416.758706
 21
816.612021
 31
0.0
  0
LINE
  5
4E1
330
1F
100
AcDbEntity
  8
dxfile
  6
Continuous
 62
     4
100
AcDbLine
 10
2351.758706
 20
656.612021
 30
0.0
 11
2416.758706
 21
656.612021
 31
0.0
  0
LINE
  5
4E2
330
1F
100
AcDbEntity
  8
dxfile
  6
Continuous
 62
     4
100
AcDbLine
 10
2391.758706
 20
682.362021
 30
0.0
 11
2391.758706
 21
804.204553
 31
0.0
  0
ARC
  5
4E3
330
1F
100
AcDbEntity
  8
dxfile
  6
Continuous
 62
     4
100
AcDbCircle
 10
2378.908707
 20
769.440148
 30
0.0
 40
0.8500000085746149
100
AcDbArc
 50
90.0
 51
180.0
  0
ARC
  5
4E4
330
1F
100
AcDbEntity
  8
dxfile
  6
Continuous
 62
     4
100
AcDbCircle
 10
2389.608706
 20
769.440148
 30
0.0
 40
0.8500000025357529
100
AcDbArc
 50
0.0
 51
90.0
  0
ARC
  5
4E5
330
1F
100
AcDbEntity
  8
dxfile
  6
Continuous
 62
     4
100
AcDbCircle
 10
2378.908707
 20
758.740149
 30
0.0
 40
0.8499999957161757
100
AcDbArc
 50
180.0
 51
270.0
  0
ARC
  5
4E6
330
1F
100
AcDbEntity
  8
dxfile
  6
Continuous
 62
     4
100
AcDbCircle
 10
2389.608706
 20
758.740149
 30
0.0
 40
0.8499999900167551
100
AcDbArc
 50
270.0
 51
0.0
  0
LINE
  5
4E7
330
1F
100
AcDbEntity
  8
dxfile
  6
Continuous
 62
     4
100
AcDbLine
 10
2378.058707
 20
769.440148
 30
0.0
 11
2378.058707
 21
758.740149
 31
0.0
  0
LINE
  5
4E8
330
1F
100
AcDbEntity
  8
dxfile
  6
Continuous
 62
     4
100
AcDbLine
 10
2390.458706
 20
769.440148
 30
0.0
 11
2390.458706
 21
758.740149
 31
0.0
  0
LINE
  5
4E9
330
1F
100
AcDbEntity
  8
dxfile
  6
Continuous
 62
     4
100
AcDbLine
 10
2378.908707
 20
757.890149
 30
0.0
 11
2389.608706
 21
757.890149
 31
0.0
  0
LINE
  5
4EA
330
1F
100
AcDbEntity
  8
dxfile
  6
Continuous
 62
     4
100
AcDbLine
 10
2378.908707
 20
770.290148
 30
0.0
 11
2389.608706
 21
770.290148
 31
0.0
  0
LINE
  5
4EB
330
1F
100
AcDbEntity
  8
dxfile
  6
Continuous
 62
     4
100
AcDbLine
 10
2376.758706
 20
682.362021
 30
0.0
 11
2376.758706
 21
804.204553
 31
0.0
  0
LINE
  5
4EC
330
1F
100
AcDbEntity
  8
dxfile
  6
Continuous
 62
     4
100
AcDbLine
 10
2259.405645
 20
797.362021
 30
0.0
 11
2257.805654
 21
797.362021
 31
0.0
  0
LINE
  5
4ED
330
1F
100
AcDbEntity
  8
dxfile
  6
Continuous
 62
     4
100
AcDbLine
 10
2259.405645
 20
805.362021
 30
0.0
 11
2257.805654
 21
805.362021
 31
0.0
  0
LINE
  5
4EE
330
1F
100
AcDbEntity
  8
dxfile
  6
Continuous
 62
     4
100
AcDbLine
 10
2259.405645
 20
797.362021
 30
0.0
 11
2259.405645
 21
805.362021
 31
0.0
  0
LINE
  5
4EF
330
1F
100
AcDbEntity
  8
dxfile
  6
Continuous
 62
     4
100
AcDbLine
 10
2259.405645
 20
774.862021
 30
0.0
 11
2257.805654
 21
774.862021
 31
0.0
  0
LINE
  5
4F0
330
1F
100
AcDbEntity
  8
dxfile
  6
Continuous
 62
     4
100
AcDbLine
 10
2259.405645
 20
766.862021
 30
0.0
 11
2257.805654
 21
766.862021
 31
0.0
  0
LINE
  5
4F1
330
1F
100
AcDbEntity
  8
dxfile
  6
Continuous
 62
     4
100
AcDbLine
 10
2259.405645
 20
682.362021
 30
0.0
 11
2257.805654
 21
682.362021
 31
0.0
  0
LINE
  5
4F2
330
1F
100
AcDbEntity
  8
dxfile
  6
Continuous
 62
     4
100
AcDbLine
 10
2259.405645
 20
766.862021
 30
0.0
 11
2259.405645
 21
774.862021
 31
0.0
  0
LINE
  5
4F3
330
1F
100
AcDbEntity
  8
dxfile
  6
Continuous
 62
     4
100
AcDbLine
 10
2259.405645
 20
663.112021
 30
0.0
 11
2257.805654
 21
663.112021
 31
0.0
  0
LINE
  5
4F4
330
1F
100
AcDbEntity
  8
dxfile
  6
Continuous
 62
     4
100
AcDbLine
 10
2259.405645
 20
663.112021
 30
0.0
 11
2259.405645
 21
682.362021
 31
0.0
  0
ARC
  5
4F5
330
1F
100
AcDbEntity
  8
dxfile
  6
Continuous
 62
     4
100
AcDbCircle
 10
2257.205648
 20
811.012023
 30
0.0
 40
0.6000000104667024
100
AcDbArc
 50
0.0
 51
90.0
  0
ARC
  5
4F6
330
1F
100
AcDbEntity
  8
dxfile
  6
Continuous
 62
     4
100
AcDbCircle
 10
2257.205648
 20
662.21202
 30
0.0
 40
0.599999997938058
100
AcDbArc
 50
270.0
 51
0.0
  0
ARC
  5
4F7
330
1F
100
AcDbEntity
  8
dxfile
  6
Continuous
 62
     4
100
AcDbCircle
 10
2223.405645
 20
805.187022
 30
0.0
 40
0.6000000005560979
100
AcDbArc
 50
90.0
 51
180.0
  0
ARC
  5
4F8
330
1F
100
AcDbEntity
  8
dxfile
  6
Continuous
 62
     4
100
AcDbCircle
 10
2223.655645
 20
808.287021
 30
0.0
 40
0.250000001962713
100
AcDbArc
 50
180.0
 51
270.0
  0
ARC
  5
4F9
330
1F
100
AcDbEntity
  8
dxfile
  6
Continuous
 62
     4
100
AcDbCircle
 10
2223.655645
 20
804.937022
 30
0.0
 40
0.249999973207683
100
AcDbArc
 50
90.0
 51
180.0
  0
ARC
  5
4FA
330
1F
100
AcDbEntity
  8
dxfile
  6
Continuous
 62
     4
100
AcDbCircle
 10
2223.655645
 20
664.937018
 30
0.0
 40
0.2499999931215601
100
AcDbArc
 50
90.0
 51
180.0
  0
ARC
  5
4FB
330
1F
100
AcDbEntity
  8
dxfile
  6
Continuous
 62
     4
100
AcDbCircle
 10
2223.655645
 20
668.287025
 30
0.0
 40
0.2500000150813103
100
AcDbArc
 50
180.0
 51
270.0
  0
ARC
  5
4FC
330
1F
100
AcDbEntity
  8
dxfile
  6
Continuous
 62
     4
100
AcDbCircle
 10
2223.405645
 20
808.037021
 30
0.0
 40
0.5999999987006858
100
AcDbArc
 50
180.0
 51
270.0
  0
LINE
  5
4FD
330
1F
100
AcDbEntity
  8
dxfile
  6
Continuous
 62
     4
100
AcDbLine
 10
2224.405645
 20
665.187018
 30
0.0
 11
2223.655645
 21
665.187018
 31
0.0
  0
LINE
  5
4FE
330
1F
100
AcDbEntity
  8
dxfile
  6
Continuous
 62
     4
100
AcDbLine
 10
2223.405645
 20
803.612021
 30
0.0
 11
2223.405645
 21
804.937022
 31
0.0
  0
LINE
  5
4FF
330
1F
100
AcDbEntity
  8
dxfile
  6
Continuous
 62
     4
100
AcDbLine
 10
2223.405645
 20
803.612021
 30
0.0
 11
2222.805654
 21
803.612021
 31
0.0
  0
LINE
  5
500
330
1F
100
AcDbEntity
  8
dxfile
  6
Continuous
 62
     4
100
AcDbLine
 10
2223.405645
 20
669.612021
 30
0.0
 11
2223.405645
 21
662.21202
 31
0.0
  0
LINE
  5
501
330
1F
100
AcDbEntity
  8
dxfile
  6
Continuous
 62
     4
100
AcDbLine
 10
2257.205648
 20
662.21202
 30
0.0
 11
2257.205648
 21
811.012023
 31
0.0
  0
LINE
  5
502
330
1F
100
AcDbEntity
  8
dxfile
  6
Continuous
 62
     4
100
AcDbLine
 10
2257.205648
 20
811.012023
 30
0.0
 11
2223.405645
 21
811.012023
 31
0.0
  0
LINE
  5
503
330
1F
100
AcDbEntity
  8
dxfile
  6
Continuous
 62
     4
100
AcDbLine
 10
2224.405645
 20
805.787021
 30
0.0
 11
2223.405645
 21
805.787021
 31
0.0
  0
LINE
  5
504
330
1F
100
AcDbEntity
  8
dxfile
  6
Continuous
 62
     4
100
AcDbLine
 10
2257.205648
 20
662.21202
 30
0.0
 11
2222.805654
 21
662.21202
 31
0.0
  0
LINE
  5
505
330
1F
100
AcDbEntity
  8
dxfile
  6
Continuous
 62
     4
100
AcDbLine
 10
2257.805654
 20
662.21202
 30
0.0
 11
2257.805654
 21
811.012023
 31
0.0
  0
LINE
  5
506
330
1F
100
AcDbEntity
  8
dxfile
  6
Continuous
 62
     4
100
AcDbLine
 10
2257.205648
 20
811.612021
 30
0.0
 11
2222.805654
 21
811.612021
 31
0.0
  0
LINE
  5
507
330
1F
100
AcDbEntity
  8
dxfile
  6
Continuous
 62
     4
100
AcDbLine
 10
2257.205648
 20
661.612021
 30
0.0
 11
2222.805654
 21
661.612021
 31
0.0
  0
LINE
  5
508
330
1F
100
AcDbEntity
  8
dxfile
  6
Continuous
 62
     4
100
AcDbLine
 10
2223.405645
 20
669.612021
 30
0.0
 11
2222.805654
 21
669.612021
 31
0.0
  0
LINE
  5
509
330
1F
100
AcDbEntity
  8
dxfile
  6
Continuous
 62
     4
100
AcDbLine
 10
2224.405645
 20
805.187022
 30
0.0
 11
2224.405645
 21
808.037021
 31
0.0
  0
LINE
  5
50A
330
1F
100
AcDbEntity
  8
dxfile
  6
Continuous
 62
     4
100
AcDbLine
 10
2223.405645
 20
808.287021
 30
0.0
 11
2223.405645
 21
811.012023
 31
0.0
  0
LINE
  5
50B
330
1F
100
AcDbEntity
  8
dxfile
  6
Continuous
 62
     4
100
AcDbLine
 10
2224.405645
 20
668.037025
 30
0.0
 11
2223.655645
 21
668.037025
 31
0.0
  0
LINE
  5
50C
330
1F
100
AcDbEntity
  8
dxfile
  6
Continuous
 62
     4
100
AcDbLine
 10
2224.405645
 20
805.187022
 30
0.0
 11
2223.655645
 21
805.187022
 31
0.0
  0
LINE
  5
50D
330
1F
100
AcDbEntity
  8
dxfile
  6
Continuous
 62
     4
100
AcDbLine
 10
2224.405645
 20
807.437022
 30
0.0
 11
2223.405645
 21
807.437022
 31
0.0
  0
LINE
  5
50E
330
1F
100
AcDbEntity
  8
dxfile
  6
Continuous
 62
     4
100
AcDbLine
 10
2224.405645
 20
668.037025
 30
0.0
 11
2224.405645
 21
665.187018
 31
0.0
  0
LINE
  5
50F
330
1F
100
AcDbEntity
  8
dxfile
  6
Continuous
 62
     4
100
AcDbLine
 10
2224.405645
 20
808.037021
 30
0.0
 11
2223.655645
 21
808.037021
 31
0.0
  0
LINE
  5
510
330
1F
100
AcDbEntity
  8
dxfile
  6
Continuous
 62
     4
100
AcDbLine
 10
2222.805654
 20
776.312021
 30
0.0
 11
2222.805654
 21
816.612021
 31
0.0
  0
LINE
  5
511
330
1F
100
AcDbEntity
  8
dxfile
  6
Continuous
 62
     4
100
AcDbLine
 10
2222.805654
 20
656.612021
 30
0.0
 11
2222.805654
 21
776.312021
 31
0.0
  0
LINE
  5
512
330
1F
100
AcDbEntity
  8
dxfile
  6
Continuous
 62
     4
100
AcDbLine
 10
2220.305654
 20
656.612021
 30
0.0
 11
2220.305654
 21
816.612021
 31
0.0
  0
LINE
  5
513
330
1F
100
AcDbEntity
  8
dxfile
  6
Continuous
 62
     4
100
AcDbLine
 10
2215.305654
 20
678.362021
 30
0.0
 11
2232.805654
 21
678.362021
 31
0.0
  0
LINE
  5
514
330
1F
100
AcDbEntity
  8
dxfile
  6
Continuous
 62
     4
100
AcDbLine
 10
2232.805654
 20
686.362021
 30
0.0
 11
2215.305654
 21
686.362021
 31
0.0
  0
LINE
  5
515
330
1F
100
AcDbEntity
  8
dxfile
  6
Continuous
 62
     4
100
AcDbLine
 10
2216.805654
 20
777.612021
 30
0.0
 11
2216.805654
 21
766.612021
 31
0.0
  0
LINE
  5
516
330
1F
100
AcDbEntity
  8
dxfile
  6
Continuous
 62
     4
100
AcDbLine
 10
2216.805654
 20
766.612021
 30
0.0
 11
2215.305654
 21
766.612021
 31
0.0
  0
LINE
  5
517
330
1F
100
AcDbEntity
  8
dxfile
  6
Continuous
 62
     4
100
AcDbLine
 10
2215.305654
 20
766.612021
 30
0.0
 11
2215.305654
 21
676.862021
 31
0.0
  0
LINE
  5
518
330
1F
100
AcDbEntity
  8
dxfile
  6
Continuous
 62
     4
100
AcDbLine
 10
2211.305654
 20
764.612021
 30
0.0
 11
2209.805654
 21
766.112021
 31
0.0
  0
LINE
  5
519
330
1F
100
AcDbEntity
  8
dxfile
  6
Continuous
 62
     4
100
AcDbLine
 10
2209.805654
 20
766.112021
 30
0.0
 11
2209.805654
 21
777.612021
 31
0.0
  0
LINE
  5
51A
330
1F
100
AcDbEntity
  8
dxfile
  6
Continuous
 62
     4
100
AcDbLine
 10
2209.805654
 20
777.612021
 30
0.0
 11
2216.805654
 21
777.612021
 31
0.0
  0
LINE
  5
51B
330
1F
100
AcDbEntity
  8
dxfile
  6
Continuous
 62
     4
100
AcDbLine
 10
2212.305654
 20
676.862021
 30
0.0
 11
2215.305654
 21
676.862021
 31
0.0
  0
LINE
  5
51C
330
1F
100
AcDbEntity
  8
dxfile
  6
Continuous
 62
     4
100
AcDbLine
 10
2197.305654
 20
766.612021
 30
0.0
 11
2209.305654
 21
767.112021
 31
0.0
  0
LINE
  5
51D
330
1F
100
AcDbEntity
  8
dxfile
  6
Continuous
 62
     4
100
AcDbLine
 10
2209.305654
 20
767.112021
 30
0.0
 11
2209.305654
 21
777.112021
 31
0.0
  0
LINE
  5
51E
330
1F
100
AcDbEntity
  8
dxfile
  6
Continuous
 62
     4
100
AcDbLine
 10
2209.305654
 20
777.112021
 30
0.0
 11
2197.305654
 21
777.612021
 31
0.0
  0
LINE
  5
51F
330
1F
100
AcDbEntity
  8
dxfile
  6
Continuous
 62
     4
100
AcDbLine
 10
2197.305654
 20
777.612021
 30
0.0
 11
2197.305654
 21
766.612021
 31
0.0
  0
LINE
  5
520
330
1F
100
AcDbEntity
  8
dxfile
  6
Continuous
 62
     4
100
AcDbLine
 10
2209.305654
 20
767.612021
 30
0.0
 11
2209.805654
 21
767.612021
 31
0.0
  0
LINE
  5
521
330
1F
100
AcDbEntity
  8
dxfile
  6
Continuous
 62
     4
100
AcDbLine
 10
2209.805654
 20
776.612021
 30
0.0
 11
2209.305654
 21
776.612021
 31
0.0
  0
LINE
  5
522
330
1F
100
AcDbEntity
  8
dxfile
  6
PLine2
 62
     4
100
AcDbLine
 10
2256.185399
 20
682.362021
 30
0.0
 11
2178.435399
 21
682.362021
 31
0.0
  0
LINE
  5
523
330
1F
100
AcDbEntity
  8
dxfile
  6
Continuous
 62
     4
100
AcDbLine
 10
2232.805654
 20
678.362021
 30
0.0
 11
2232.805654
 21
686.362021
 31
0.0
  0
LINE
  5
524
330
1F
100
AcDbEntity
  8
dxfile
  6
Continuous
 62
     4
100
AcDbLine
 10
2212.305654
 20
676.862021
 30
0.0
 11
2210.27012
 21
678.897555
 31
0.0
  0
LINE
  5
525
330
1F
100
AcDbEntity
  8
dxfile
  6
Continuous
 62
     4
100
AcDbLine
 10
2211.305654
 20
764.612021
 30
0.0
 11
2211.305654
 21
688.862021
 31
0.0
  0
TEXT
  5
526
330
1F
100
AcDbEntity
  8
dxfile
  6
Continuous
 62
     1
100
AcDbText
 10
2379.665847
 20
757.659535
 30
0.0
 40
12.5
  1
押
 41
0.858268
  7
BIGFONT
100
AcDbText
  0
ARC
  5
527
330
1F
100
AcDbEntity
  8
dxfile
  6
Continuous
 62
     4
100
AcDbCircle
 10
2384.258706
 20
682.362021
 30
0.0
 40
7.500000000010914
100
AcDbArc
 50
138.189685
 51
41.810315
  0
LINE
  5
528
330
1F
100
AcDbEntity
  8
dxfile
  6
Continuous
 62
     4
100
AcDbLine
 10
2376.758706
 20
687.362021
 30
0.0
 11
2391.758706
 21
687.362021
 31
0.0
  0
ARC
  5
529
330
1F
100
AcDbEntity
  8
dxfile
  6
Continuous
 62
     4
100
AcDbCircle
 10
2384.258706
 20
786.204553
 30
0.0
 40
19.50000000026364
100
AcDbArc
 50
67.380135
 51
112.619865
  0
LINE
  5
52A
330
1F
100
AcDbEntity
  8
dxfile
  6
PLine1
 62
     4
100
AcDbLine
 10
2356.758706
 20
781.05309
 30
0.0
 11
2356.758706
 21
811.612021
 31
0.0
  0
LINE
  5
52B
330
1F
100
AcDbEntity
  8
dxfile
  6
PLine1
 62
     4
100
AcDbLine
 10
2356.758706
 20
811.612021
 30
0.0
 11
2411.758706
 21
811.612021
 31
0.0
  0
LINE
  5
52C
330
1F
100
AcDbEntity
  8
dxfile
  6
PLine1
 62
     4
100
AcDbLine
 10
2411.758706
 20
811.612021
 30
0.0
 11
2411.758706
 21
778.267258
 31
0.0
  0
LINE
  5
52D
330
1F
100
AcDbEntity
  8
dxfile
  6
Continuous
 62
     4
100
AcDbLine
 10
2363.758706
 20
816.612021
 30
0.0
 11
2363.758706
 21
821.612021
 31
0.0
  0
LINE
  5
52E
330
1F
100
AcDbEntity
  8
dxfile
  6
Continuous
 62
     4
100
AcDbLine
 10
2363.758706
 20
821.612021
 30
0.0
 11
2374.758706
 21
821.612021
 31
0.0
  0
LINE
  5
52F
330
1F
100
AcDbEntity
  8
dxfile
  6
Continuous
 62
     4
100
AcDbLine
 10
2374.758706
 20
821.612021
 30
0.0
 11
2374.758706
 21
816.612021
 31
0.0
  0
LINE
  5
530
330
1F
100
AcDbEntity
  8
dxfile
  6
Continuous
 62
     4
100
AcDbLine
 10
2364.508706
 20
821.612021
 30
0.0
 11
2364.508706
 21
926.222408
 31
0.0
  0
LINE
  5
531
330
1F
100
AcDbEntity
  8
dxfile
  6
Continuous
 62
     4
100
AcDbLine
 10
2374.008706
 20
821.612021
 30
0.0
 11
2374.008706
 21
926.222408
 31
0.0
  0
LINE
  5
532
330
1F
100
AcDbEntity
  8
dxfile
  6
PLine2
 62
     4
100
AcDbLine
 10
2369.258706
 20
950.722788
 30
0.0
 11
2369.258706
 21
801.481886
 31
0.0
  0
INSERT
  5
53C
330
1F
100
AcDbEntity
  8
dxfile
  6
Continuous
 62
     3
100
AcDbBlockReference
  2
DIM_13
 10
2356.758706
 20
818.956485
 30
0.0
  0
INSERT
  5
546
330
1F
100
AcDbEntity
  8
dxfile
  6
Continuous
 62
     3
100
AcDbBlockReference
  2
DIM_14
 10
2356.758706
 20
854.712112
 30
0.0
  0
LINE
  5
547
330
1F
100
AcDbEntity
  8
dxfile
  6
Continuous
 62
     4
100
AcDbLine
 10
2238.305654
 20
821.612021
 30
0.0
 11
2249.305654
 21
821.612021
 31
0.0
  0
LINE
  5
548
330
1F
100
AcDbEntity
  8
dxfile
  6
Continuous
 62
     4
100
AcDbLine
 10
2249.305654
 20
821.612021
 30
0.0
 11
2249.305654
 21
812.612021
 31
0.0
  0
LINE
  5
549
330
1F
100
AcDbEntity
  8
dxfile
  6
Continuous
 62
     4
100
AcDbLine
 10
2238.305654
 20
812.612021
 30
0.0
 11
2238.305654
 21
821.612021
 31
0.0
  0
LINE
  5
54A
330
1F
100
AcDbEntity
  8
dxfile
  6
Continuous
 62
     4
100
AcDbLine
 10
2238.305654
 20
812.612021
 30
0.0
 11
2249.305654
 21
812.612021
 31
0.0
  0
LINE
  5
54B
330
1F
100
AcDbEntity
  8
dxfile
  6
Continuous
 62
     4
100
AcDbLine
 10
2249.305654
 20
812.612021
 30
0.0
 11
2250.05847
 21
811.612021
 31
0.0
  0
LINE
  5
54C
330
1F
100
AcDbEntity
  8
dxfile
  6
Continuous
 62
     4
100
AcDbLine
 10
2238.305654
 20
812.612021
 30
0.0
 11
2237.552837
 21
811.612021
 31
0.0
  0
LINE
  5
54D
330
1F
100
AcDbEntity
  8
dxfile
  6
Continuous
 62
     4
100
AcDbLine
 10
2239.055654
 20
821.612021
 30
0.0
 11
2239.055654
 21
1110.546688
 31
0.0
  0
LINE
  5
54E
330
1F
100
AcDbEntity
  8
dxfile
  6
Continuous
 62
     4
100
AcDbLine
 10
2248.555654
 20
821.612021
 30
0.0
 11
2248.555654
 21
1110.546688
 31
0.0
  0
LINE
  5
54F
330
1F
100
AcDbEntity
  8
dxfile
  6
PLine2
 62
     4
100
AcDbLine
 10
2243.805654
 20
950.722788
 30
0.0
 11
2243.805654
 21
801.481886
 31
0.0
  0
INSERT
  5
559
330
1F
100
AcDbEntity
  8
dxfile
  6
Continuous
 62
     3
100
AcDbBlockReference
  2
DIM_15
 10
2243.805654
 20
873.015861
 30
0.0
  0
LINE
  5
55A
330
1F
100
AcDbEntity
  8
dxfile
  6
Continuous
 62
     4
100
AcDbLine
 10
2208.805654
 20
682.433089
 30
0.0
 11
2208.805654
 21
686.862021
 31
0.0
  0
ARC
  5
55B
330
1F
100
AcDbEntity
  8
dxfile
  6
Continuous
 62
     4
100
AcDbCircle
 10
2213.805654
 20
682.433089
 30
0.0
 40
5.00000000075058
100
AcDbArc
 50
180.0
 51
225.0
  0
LINE
  5
55C
330
1F
100
AcDbEntity
  8
dxfile
  6
Continuous
 62
     4
100
AcDbLine
 10
2209.305654
 20
687.362021
 30
0.0
 11
2209.805654
 21
687.362021
 31
0.0
  0
ARC
  5
55D
330
1F
100
AcDbEntity
  8
dxfile
  6
Continuous
 62
     4
100
AcDbCircle
 10
2209.305654
 20
686.862021
 30
0.0
 40
0.4999999919227651
100
AcDbArc
 50
90.0
 51
180.0
  0
ARC
  5
55E
330
1F
100
AcDbEntity
  8
dxfile
  6
Continuous
 62
     4
100
AcDbCircle
 10
2209.805654
 20
688.862021
 30
0.0
 40
1.500000000894136
100
AcDbArc
 50
270.0
 51
0.0
  0
ARC
  5
55F
330
1F
100
AcDbEntity
  8
dxfile
  6
Continuous
 62
     4
100
AcDbCircle
 10
2089.055654
 20
1110.546688
 30
0.0
 40
150.0000000000805
100
AcDbArc
 50
0.0
 51
41.858218
  0
ARC
  5
560
330
1F
100
AcDbEntity
  8
dxfile
  6
Continuous
 62
     4
100
AcDbCircle
 10
2089.055654
 20
1110.546688
 30
0.0
 40
159.4999999998789
100
AcDbArc
 50
0.0
 51
41.732234
  0
LINE
  5
561
330
1F
100
AcDbEntity
  8
dxfile
  6
Continuous
 62
     6
100
AcDbLine
 10
2004.725664
 20
1268.046688
 30
0.0
 11
2064.252568
 21
1327.573592
 31
0.0
  0
LINE
  5
562
330
1F
100
AcDbEntity
  8
dxfile
  6
Continuous
 62
     6
100
AcDbLine
 10
2077.462746
 20
270.949148
 30
0.0
 11
2110.731246
 21
304.217647
 31
0.0
  0
LINE
  5
563
330
1F
100
AcDbEntity
  8
dxfile
  6
Continuous
 62
     6
100
AcDbLine
 10
2312.427962
 20
270.949148
 30
0.0
 11
2345.696461
 21
304.217647
 31
0.0
  0
LINE
  5
564
330
1F
100
AcDbEntity
  8
dxfile
  6
Continuous
 62
     2
100
AcDbLine
 10
2090.967415
 20
237.509678
 30
0.0
 11
2228.546168
 21
237.509678
 31
0.0
  0
LINE
  5
565
330
1F
100
AcDbEntity
  8
dxfile
  6
Continuous
 62
     2
100
AcDbLine
 10
2228.546168
 20
237.509678
 30
0.0
 11
2228.546168
 21
206.612754
 31
0.0
  0
LINE
  5
566
330
1F
100
AcDbEntity
  8
dxfile
  6
Continuous
 62
     2
100
AcDbLine
 10
2228.546168
 20
206.612754
 30
0.0
 11
2090.967415
 21
206.612754
 31
0.0
  0
LINE
  5
567
330
1F
100
AcDbEntity
  8
dxfile
  6
Continuous
 62
     2
100
AcDbLine
 10
2090.967415
 20
206.612754
 30
0.0
 11
2090.967415
 21
237.509678
 31
0.0
  0
LINE
  5
568
330
1F
100
AcDbEntity
  8
dxfile
  6
Continuous
 62
     4
100
AcDbLine
 10
217.292896
 20
287.406659
 30
0.0
 11
227.261101
 21
287.406659
 31
0.0
  0
LINE
  5
569
330
1F
100
AcDbEntity
  8
dxfile
  6
Continuous
 62
     4
100
AcDbLine
 10
227.261101
 20
287.406659
 30
0.0
 11
227.261101
 21
257.502045
 31
0.0
  0
LINE
  5
56A
330
1F
100
AcDbEntity
  8
dxfile
  6
Continuous
 62
     4
100
AcDbLine
 10
225.26746
 20
257.502045
 30
0.0
 11
227.261101
 21
257.502045
 31
0.0
  0
LINE
  5
56B
330
1F
100
AcDbEntity
  8
dxfile
  6
Continuous
 62
     4
100
AcDbLine
 10
217.292896
 20
285.413018
 30
0.0
 11
225.26746
 21
285.413018
 31
0.0
  0
LINE
  5
56C
330
1F
100
AcDbEntity
  8
dxfile
  6
Continuous
 62
     4
100
AcDbLine
 10
225.26746
 20
285.413018
 30
0.0
 11
225.26746
 21
257.502045
 31
0.0
  0
LINE
  5
56D
330
1F
100
AcDbEntity
  8
dxfile
  6
Continuous
 62
     4
100
AcDbLine
 10
217.292896
 20
287.406659
 30
0.0
 11
217.292896
 21
285.413018
 31
0.0
  0
LINE
  5
56E
330
1F
100
AcDbEntity
  8
dxfile
  6
Continuous
 62
     2
100
AcDbLine
 10
237.261101
 20
297.374864
 30
0.0
 11
189.375482
 21
297.374864
 31
0.0
  0
LINE
  5
56F
330
1F
100
AcDbEntity
  8
dxfile
  6
Continuous
 62
     2
100
AcDbLine
 10
189.375482
 20
381.840741
 30
0.0
 11
189.375482
 21
297.374864
 31
0.0
  0
LINE
  5
570
330
1F
100
AcDbEntity
  8
dxfile
  6
Continuous
 62
     2
100
AcDbLine
 10
357.261101
 20
411.442926
 30
0.0
 11
189.375482
 21
381.840741
 31
0.0
  0
LINE
  5
571
330
1F
100
AcDbEntity
  8
dxfile
  6
Continuous
 62
     2
100
AcDbLine
 10
357.261101
 20
411.442926
 30
0.0
 11
357.261101
 21
144.417865
 31
0.0
  0
LINE
  5
572
330
1F
100
AcDbEntity
  8
dxfile
  6
Continuous
 62
     2
100
AcDbLine
 10
237.261101
 20
297.374864
 30
0.0
 11
237.261101
 21
144.417865
 31
0.0
  0
LINE
  5
573
330
1F
100
AcDbEntity
  8
dxfile
  6
Continuous
 62
     3
100
AcDbLine
 10
227.261101
 20
297.374864
 30
0.0
 11
227.261101
 21
144.417865
 31
0.0
  0
LINE
  5
574
330
1F
100
AcDbEntity
  8
dxfile
  6
Continuous
 62
     6
100
AcDbLine
 10
357.261101
 20
280.510364
 30
0.0
 11
237.261101
 21
160.510364
 31
0.0
  0
LINE
  5
575
330
1F
100
AcDbEntity
  8
dxfile
  6
Continuous
 62
     6
100
AcDbLine
 10
357.261101
 20
290.701857
 30
0.0
 11
237.261101
 21
170.701857
 31
0.0
  0
LINE
  5
576
330
1F
100
AcDbEntity
  8
dxfile
  6
Continuous
 62
     6
100
AcDbLine
 10
357.261101
 20
286.030756
 30
0.0
 11
237.261101
 21
166.030756
 31
0.0
  0
LINE
  5
577
330
1F
100
AcDbEntity
  8
dxfile
  6
Continuous
 62
     4
100
AcDbLine
 10
312.261101
 20
353.975391
 30
0.0
 11
312.261101
 21
440.026589
 31
0.0
  0
LINE
  5
578
330
1F
100
AcDbEntity
  8
dxfile
  6
Continuous
 62
     4
100
AcDbLine
 10
312.261101
 20
440.026589
 30
0.0
 11
322.261101
 21
440.026589
 31
0.0
  0
LINE
  5
579
330
1F
100
AcDbEntity
  8
dxfile
  6
Continuous
 62
     4
100
AcDbLine
 10
322.261101
 20
440.026589
 30
0.0
 11
322.261101
 21
353.975391
 31
0.0
  0
LINE
  5
57A
330
1F
100
AcDbEntity
  8
dxfile
  6
PLine2
 62
     3
100
AcDbLine
 10
317.261101
 20
442.62417
 30
0.0
 11
317.261101
 21
352.203814
 31
0.0
  0
LINE
  5
57B
330
1F
100
AcDbEntity
  8
dxfile
  6
Continuous
 62
     4
100
AcDbLine
 10
169.375482
 20
338.62279
 30
0.0
 11
169.375482
 21
397.783688
 31
0.0
  0
LINE
  5
57C
330
1F
100
AcDbEntity
  8
dxfile
  6
Continuous
 62
     4
100
AcDbLine
 10
249.644337
 20
412.776078
 30
0.0
 11
170.201837
 21
398.768496
 31
0.0
  0
ARC
  5
57D
330
1F
100
AcDbEntity
  8
dxfile
  6
Continuous
 62
     4
100
AcDbCircle
 10
170.375482
 20
397.783688
 30
0.0
 40
0.9999999984296504
100
AcDbArc
 50
99.999808
 51
180.0
  0
LINE
  5
57E
330
1F
100
AcDbEntity
  8
dxfile
  6
Continuous
 62
     4
100
AcDbLine
 10
171.375482
 20
338.62279
 30
0.0
 11
171.375482
 21
396.944585
 31
0.0
  0
LINE
  5
57F
330
1F
100
AcDbEntity
  8
dxfile
  6
Continuous
 62
     4
100
AcDbLine
 10
171.375482
 20
396.944585
 30
0.0
 11
250.817982
 21
410.952167
 31
0.0
  0
LINE
  5
580
330
1F
100
AcDbEntity
  8
dxfile
  6
Continuous
 62
     4
100
AcDbLine
 10
249.644337
 20
426.128725
 30
0.0
 11
249.644337
 21
412.776078
 31
0.0
  0
ARC
  5
581
330
1F
100
AcDbEntity
  8
dxfile
  6
Continuous
 62
     4
100
AcDbCircle
 10
250.644337
 20
411.936976
 30
0.0
 40
1.000000003628884
100
AcDbArc
 50
279.999808
 51
0.0
  0
LINE
  5
582
330
1F
100
AcDbEntity
  8
dxfile
  6
Continuous
 62
     4
100
AcDbLine
 10
169.375482
 20
338.62279
 30
0.0
 11
171.375482
 21
338.62279
 31
0.0
  0
LINE
  5
583
330
1F
100
AcDbEntity
  8
dxfile
  6
Continuous
 62
     4
100
AcDbLine
 10
251.644337
 20
426.128725
 30
0.0
 11
249.644337
 21
426.128725
 31
0.0
  0
LINE
  5
584
330
1F
100
AcDbEntity
  8
dxfile
  6
PLine2
 62
     3
100
AcDbLine
 10
247.340842
 20
421.128725
 30
0.0
 11
256.29206
 21
421.128725
 31
0.0
  0
LINE
  5
585
330
1F
100
AcDbEntity
  8
dxfile
  6
Continuous
 62
     4
100
AcDbLine
 10
184.375482
 20
353.62279
 30
0.0
 11
184.375482
 21
386.036253
 31
0.0
  0
LINE
  5
586
330
1F
100
AcDbEntity
  8
dxfile
  6
Continuous
 62
     4
100
AcDbLine
 10
184.375482
 20
386.036253
 30
0.0
 11
253.901721
 21
398.295365
 31
0.0
  0
LINE
  5
587
330
1F
100
AcDbEntity
  8
dxfile
  6
PLine1
 62
     4
100
AcDbLine
 10
182.375482
 20
353.62279
 30
0.0
 11
182.375482
 21
387.714458
 31
0.0
  0
LINE
  5
588
330
1F
100
AcDbEntity
  8
dxfile
  6
PLine1
 62
     4
100
AcDbLine
 10
182.375482
 20
387.714458
 30
0.0
 11
253.554431
 21
400.264982
 31
0.0
  0
LINE
  5
589
330
1F
100
AcDbEntity
  8
dxfile
  6
Continuous
 62
     4
100
AcDbLine
 10
184.375482
 20
386.036253
 30
0.0
 11
171.375482
 21
396.944585
 31
0.0
  0
LINE
  5
58A
330
1F
100
AcDbEntity
  8
dxfile
  6
Continuous
 62
     4
100
AcDbLine
 10
251.565151
 20
411.546972
 30
0.0
 11
253.901721
 21
398.295365
 31
0.0
  0
LINE
  5
58B
330
1F
100
AcDbEntity
  8
dxfile
  6
Continuous
 62
     6
100
AcDbLine
 10
171.375482
 20
353.62279
 30
0.0
 11
189.375482
 21
353.62279
 31
0.0
  0
LINE
  5
58C
330
1F
100
AcDbEntity
  8
dxfile
  6
PLine2
 62
     3
100
AcDbLine
 10
221.165241
 20
272.406659
 30
0.0
 11
238.178616
 21
272.406659
 31
0.0
  0
LINE
  5
58D
330
1F
100
AcDbEntity
  8
dxfile
  6
Continuous
 62
     6
100
AcDbLine
 10
171.375482
 20
338.62279
 30
0.0
 11
189.375482
 21
337.090773
 31
0.0
  0
LINE
  5
58E
330
1F
100
AcDbEntity
  8
dxfile
  6
Continuous
 62
     6
100
AcDbLine
 10
242.261101
 20
429.128725
 30
0.0
 11
240.11278
 21
411.09544
 31
0.0
  0
LINE
  5
58F
330
1F
100
AcDbEntity
  8
dxfile
  6
Continuous
 62
     6
100
AcDbLine
 10
174.829918
 20
338.328776
 30
0.0
 11
184.522018
 21
348.020876
 31
0.0
  0
LINE
  5
590
330
1F
100
AcDbEntity
  8
dxfile
  6
Continuous
 62
     6
100
AcDbLine
 10
171.368121
 20
342.080154
 30
0.0
 11
177.308843
 21
348.020876
 31
0.0
  0
LINE
  5
591
330
1F
100
AcDbEntity
  8
dxfile
  6
Continuous
 62
     6
100
AcDbLine
 10
179.823516
 20
337.903761
 30
0.0
 11
171.375482
 21
346.351795
 31
0.0
  0
LINE
  5
592
330
1F
100
AcDbEntity
  8
dxfile
  6
Continuous
 62
     6
100
AcDbLine
 10
181.485914
 20
337.762271
 30
0.0
 11
189.375482
 21
345.651838
 31
0.0
  0
LINE
  5
593
330
1F
100
AcDbEntity
  8
dxfile
  6
Continuous
 62
     6
100
AcDbLine
 10
187.477654
 20
337.252301
 30
0.0
 11
189.375482
 21
339.15013
 31
0.0
  0
LINE
  5
594
330
1F
100
AcDbEntity
  8
dxfile
  6
Continuous
 62
     6
100
AcDbLine
 10
187.007508
 20
337.292316
 30
0.0
 11
176.278948
 21
348.020876
 31
0.0
  0
LINE
  5
595
330
1F
100
AcDbEntity
  8
dxfile
  6
Continuous
 62
     6
100
AcDbLine
 10
189.375482
 20
341.684676
 30
0.0
 11
183.039283
 21
348.020876
 31
0.0
  0
LINE
  5
596
330
1F
100
AcDbEntity
  8
dxfile
  6
Continuous
 62
     6
100
AcDbLine
 10
247.648568
 20
428.128725
 30
0.0
 11
241.397244
 21
421.877401
 31
0.0
  0
LINE
  5
597
330
1F
100
AcDbEntity
  8
dxfile
  6
Continuous
 62
     6
100
AcDbLine
 10
248.030494
 20
413.305539
 30
0.0
 11
241.19088
 21
420.145153
 31
0.0
  0
LINE
  5
598
330
1F
100
AcDbEntity
  8
dxfile
  6
Continuous
 62
     6
100
AcDbLine
 10
240.593013
 20
415.126583
 30
0.0
 11
248.030494
 21
422.564063
 31
0.0
  0
LINE
  5
599
330
1F
100
AcDbEntity
  8
dxfile
  6
Continuous
 62
     6
100
AcDbLine
 10
243.294775
 20
411.656501
 30
0.0
 11
240.511226
 21
414.440049
 31
0.0
  0
LINE
  5
59A
330
1F
100
AcDbEntity
  8
dxfile
  6
Continuous
 62
     6
100
AcDbLine
 10
243.401276
 20
411.67528
 30
0.0
 11
248.030494
 21
416.304497
 31
0.0
  0
LINE
  5
59B
330
1F
100
AcDbEntity
  8
dxfile
  6
Continuous
 62
     6
100
AcDbLine
 10
248.030494
 20
425.261307
 30
0.0
 11
245.163076
 21
428.128725
 31
0.0
  0
LINE
  5
59C
330
1F
100
AcDbEntity
  8
dxfile
  6
Continuous
 62
     6
100
AcDbLine
 10
248.030494
 20
419.302203
 30
0.0
 11
241.829222
 21
425.503475
 31
0.0
  0
LINE
  5
59D
330
1F
100
AcDbEntity
  8
dxfile
  6
Continuous
 62
     4
100
AcDbLine
 10
307.004578
 20
414.602002
 30
0.0
 11
302.125436
 21
422.164672
 31
0.0
  0
LINE
  5
59E
330
1F
100
AcDbEntity
  8
dxfile
  6
Continuous
 62
     4
100
AcDbLine
 10
333.477969
 20
442.392112
 30
0.0
 11
338.357111
 21
434.829442
 31
0.0
  0
LINE
  5
59F
330
1F
100
AcDbEntity
  8
dxfile
  6
Continuous
 62
     4
100
AcDbLine
 10
302.125436
 20
422.164672
 30
0.0
 11
312.261101
 21
428.70381
 31
0.0
  0
LINE
  5
5A0
330
1F
100
AcDbEntity
  8
dxfile
  6
Continuous
 62
     4
100
AcDbLine
 10
322.261101
 20
435.155423
 30
0.0
 11
327.261101
 21
438.38123
 31
0.0
  0
LINE
  5
5A1
330
1F
100
AcDbEntity
  8
dxfile
  6
Continuous
 62
     4
100
AcDbLine
 10
329.561101
 20
439.865101
 30
0.0
 11
333.477969
 21
442.392112
 31
0.0
  0
LINE
  5
5A2
330
1F
100
AcDbEntity
  8
dxfile
  6
Continuous
 62
     4
100
AcDbLine
 10
338.357111
 20
434.829442
 30
0.0
 11
329.561101
 21
429.154597
 31
0.0
  0
LINE
  5
5A3
330
1F
100
AcDbEntity
  8
dxfile
  6
Continuous
 62
     4
100
AcDbLine
 10
327.261101
 20
427.670727
 30
0.0
 11
322.261101
 21
424.44492
 31
0.0
  0
LINE
  5
5A4
330
1F
100
AcDbEntity
  8
dxfile
  6
Continuous
 62
     4
100
AcDbLine
 10
312.261101
 20
417.993307
 30
0.0
 11
307.004578
 21
414.602002
 31
0.0
  0
LINE
  5
5A5
330
1F
100
AcDbEntity
  8
dxfile
  6
PLine2
 62
     3
100
AcDbLine
 10
300.884367
 20
416.00873
 30
0.0
 11
338.516436
 21
440.287484
 31
0.0
  0
LINE
  5
5A6
330
1F
100
AcDbEntity
  8
dxfile
  6
Continuous
 62
     6
100
AcDbLine
 10
357.261101
 20
411.442926
 30
0.0
 11
357.261101
 21
448.828725
 31
0.0
  0
CIRCLE
  5
5A7
330
1F
100
AcDbEntity
  8
dxfile
  6
Continuous
 62
     6
100
AcDbCircle
 10
348.92684
 20
434.695499
 30
0.0
 40
0.9999999999999858
  0
CIRCLE
  5
5A8
330
1F
100
AcDbEntity
  8
dxfile
  6
Continuous
 62
     6
100
AcDbCircle
 10
343.703403
 20
424.99483
 30
0.0
 40
0.9999999999999858
  0
CIRCLE
  5
5A9
330
1F
100
AcDbEntity
  8
dxfile
  6
Continuous
 62
     6
100
AcDbCircle
 10
348.553737
 20
417.90588
 30
0.0
 40
0.9999999999999858
  0
CIRCLE
  5
5AA
330
1F
100
AcDbEntity
  8
dxfile
  6
Continuous
 62
     6
100
AcDbCircle
 10
342.210992
 20
439.545834
 30
0.0
 40
0.9999999999999858
  0
CIRCLE
  5
5AB
330
1F
100
AcDbEntity
  8
dxfile
  6
Continuous
 62
     6
100
AcDbCircle
 10
291.095929
 20
438.426526
 30
0.0
 40
0.9999999999999858
  0
CIRCLE
  5
5AC
330
1F
100
AcDbEntity
  8
dxfile
  6
Continuous
 62
     6
100
AcDbCircle
 10
290.349724
 20
421.636907
 30
0.0
 40
0.9999999999999858
  0
CIRCLE
  5
5AD
330
1F
100
AcDbEntity
  8
dxfile
  6
Continuous
 62
     6
100
AcDbCircle
 10
275.052515
 20
409.324519
 30
0.0
 40
0.9999999999999858
  0
CIRCLE
  5
5AE
330
1F
100
AcDbEntity
  8
dxfile
  6
Continuous
 62
     6
100
AcDbCircle
 10
274.30631
 20
429.09896
 30
0.0
 40
0.9999999999999858
  0
CIRCLE
  5
5AF
330
1F
100
AcDbEntity
  8
dxfile
  6
Continuous
 62
     6
100
AcDbCircle
 10
292.961442
 20
407.459006
 30
0.0
 40
0.9999999999999858
  0
CIRCLE
  5
5B0
330
1F
100
AcDbEntity
  8
dxfile
  6
Continuous
 62
     6
100
AcDbCircle
 10
306.76624
 20
440.292039
 30
0.0
 40
0.9999999999999858
  0
LINE
  5
5B1
330
1F
100
AcDbEntity
  8
dxfile
  6
Continuous
 62
     4
100
AcDbLine
 10
1467.229306
 20
287.406659
 30
0.0
 11
1457.261101
 21
287.406659
 31
0.0
  0
LINE
  5
5B2
330
1F
100
AcDbEntity
  8
dxfile
  6
Continuous
 62
     4
100
AcDbLine
 10
1457.261101
 20
287.406659
 30
0.0
 11
1457.261101
 21
257.502045
 31
0.0
  0
LINE
  5
5B3
330
1F
100
AcDbEntity
  8
dxfile
  6
Continuous
 62
     4
100
AcDbLine
 10
1459.254742
 20
257.502045
 30
0.0
 11
1457.261101
 21
257.502045
 31
0.0
  0
LINE
  5
5B4
330
1F
100
AcDbEntity
  8
dxfile
  6
Continuous
 62
     4
100
AcDbLine
 10
1467.229306
 20
285.413018
 30
0.0
 11
1459.254742
 21
285.413018
 31
0.0
  0
LINE
  5
5B5
330
1F
100
AcDbEntity
  8
dxfile
  6
Continuous
 62
     4
100
AcDbLine
 10
1459.254742
 20
285.413018
 30
0.0
 11
1459.254742
 21
257.502045
 31
0.0
  0
LINE
  5
5B6
330
1F
100
AcDbEntity
  8
dxfile
  6
Continuous
 62
     4
100
AcDbLine
 10
1467.229306
 20
287.406659
 30
0.0
 11
1467.229306
 21
285.413018
 31
0.0
  0
LINE
  5
5B7
330
1F
100
AcDbEntity
  8
dxfile
  6
Continuous
 62
     2
100
AcDbLine
 10
1447.261101
 20
297.374864
 30
0.0
 11
1495.14672
 21
297.374864
 31
0.0
  0
LINE
  5
5B8
330
1F
100
AcDbEntity
  8
dxfile
  6
Continuous
 62
     2
100
AcDbLine
 10
1495.14672
 20
381.840741
 30
0.0
 11
1495.14672
 21
297.374864
 31
0.0
  0
LINE
  5
5B9
330
1F
100
AcDbEntity
  8
dxfile
  6
Continuous
 62
     2
100
AcDbLine
 10
1327.261101
 20
411.442926
 30
0.0
 11
1495.14672
 21
381.840741
 31
0.0
  0
LINE
  5
5BA
330
1F
100
AcDbEntity
  8
dxfile
  6
Continuous
 62
     2
100
AcDbLine
 10
1327.261101
 20
411.442926
 30
0.0
 11
1327.261101
 21
144.417865
 31
0.0
  0
LINE
  5
5BB
330
1F
100
AcDbEntity
  8
dxfile
  6
Continuous
 62
     2
100
AcDbLine
 10
1447.261101
 20
297.374864
 30
0.0
 11
1447.261101
 21
144.417865
 31
0.0
  0
LINE
  5
5BC
330
1F
100
AcDbEntity
  8
dxfile
  6
Continuous
 62
     3
100
AcDbLine
 10
1457.261101
 20
297.374864
 30
0.0
 11
1457.261101
 21
144.417865
 31
0.0
  0
LINE
  5
5BD
330
1F
100
AcDbEntity
  8
dxfile
  6
Continuous
 62
     6
100
AcDbLine
 10
1327.261101
 20
280.510364
 30
0.0
 11
1447.261101
 21
160.510364
 31
0.0
  0
LINE
  5
5BE
330
1F
100
AcDbEntity
  8
dxfile
  6
Continuous
 62
     6
100
AcDbLine
 10
1327.261101
 20
290.701857
 30
0.0
 11
1447.261101
 21
170.701857
 31
0.0
  0
LINE
  5
5BF
330
1F
100
AcDbEntity
  8
dxfile
  6
Continuous
 62
     6
100
AcDbLine
 10
1327.261101
 20
286.030756
 30
0.0
 11
1447.261101
 21
166.030756
 31
0.0
  0
LINE
  5
5C0
330
1F
100
AcDbEntity
  8
dxfile
  6
Continuous
 62
     4
100
AcDbLine
 10
1372.261101
 20
353.975391
 30
0.0
 11
1372.261101
 21
440.026589
 31
0.0
  0
LINE
  5
5C1
330
1F
100
AcDbEntity
  8
dxfile
  6
Continuous
 62
     4
100
AcDbLine
 10
1372.261101
 20
440.026589
 30
0.0
 11
1362.261101
 21
440.026589
 31
0.0
  0
LINE
  5
5C2
330
1F
100
AcDbEntity
  8
dxfile
  6
Continuous
 62
     4
100
AcDbLine
 10
1362.261101
 20
440.026589
 30
0.0
 11
1362.261101
 21
353.975391
 31
0.0
  0
LINE
  5
5C3
330
1F
100
AcDbEntity
  8
dxfile
  6
PLine2
 62
     3
100
AcDbLine
 10
1367.261101
 20
442.62417
 30
0.0
 11
1367.261101
 21
352.203814
 31
0.0
  0
LINE
  5
5C4
330
1F
100
AcDbEntity
  8
dxfile
  6
Continuous
 62
     4
100
AcDbLine
 10
1515.14672
 20
338.62279
 30
0.0
 11
1515.14672
 21
397.783688
 31
0.0
  0
LINE
  5
5C5
330
1F
100
AcDbEntity
  8
dxfile
  6
Continuous
 62
     4
100
AcDbLine
 10
1434.877865
 20
412.776078
 30
0.0
 11
1514.320365
 21
398.768496
 31
0.0
  0
ARC
  5
5C6
330
1F
100
AcDbEntity
  8
dxfile
  6
Continuous
 62
     4
100
AcDbCircle
 10
1514.14672
 20
397.783688
 30
0.0
 40
1.000000000655581
100
AcDbArc
 50
0.0
 51
80.000192
  0
LINE
  5
5C7
330
1F
100
AcDbEntity
  8
dxfile
  6
Continuous
 62
     4
100
AcDbLine
 10
1513.14672
 20
338.62279
 30
0.0
 11
1513.14672
 21
396.944585
 31
0.0
  0
LINE
  5
5C8
330
1F
100
AcDbEntity
  8
dxfile
  6
Continuous
 62
     4
100
AcDbLine
 10
1513.14672
 20
396.944585
 30
0.0
 11
1433.70422
 21
410.952167
 31
0.0
  0
LINE
  5
5C9
330
1F
100
AcDbEntity
  8
dxfile
  6
Continuous
 62
     4
100
AcDbLine
 10
1434.877865
 20
426.128725
 30
0.0
 11
1434.877865
 21
412.776078
 31
0.0
  0
ARC
  5
5CA
330
1F
100
AcDbEntity
  8
dxfile
  6
Continuous
 62
     4
100
AcDbCircle
 10
1433.877865
 20
411.936976
 30
0.0
 40
0.9999999985857764
100
AcDbArc
 50
180.0
 51
260.000192
  0
LINE
  5
5CB
330
1F
100
AcDbEntity
  8
dxfile
  6
Continuous
 62
     4
100
AcDbLine
 10
1515.14672
 20
338.62279
 30
0.0
 11
1513.14672
 21
338.62279
 31
0.0
  0
LINE
  5
5CC
330
1F
100
AcDbEntity
  8
dxfile
  6
Continuous
 62
     4
100
AcDbLine
 10
1432.877865
 20
426.128725
 30
0.0
 11
1434.877865
 21
426.128725
 31
0.0
  0
LINE
  5
5CD
330
1F
100
AcDbEntity
  8
dxfile
  6
Continuous
 62
     4
100
AcDbLine
 10
1500.14672
 20
353.62279
 30
0.0
 11
1500.14672
 21
386.036253
 31
0.0
  0
LINE
  5
5CE
330
1F
100
AcDbEntity
  8
dxfile
  6
Continuous
 62
     4
100
AcDbLine
 10
1500.14672
 20
386.036253
 30
0.0
 11
1430.620481
 21
398.295365
 31
0.0
  0
LINE
  5
5CF
330
1F
100
AcDbEntity
  8
dxfile
  6
PLine1
 62
     4
100
AcDbLine
 10
1502.14672
 20
353.62279
 30
0.0
 11
1502.14672
 21
387.714458
 31
0.0
  0
LINE
  5
5D0
330
1F
100
AcDbEntity
  8
dxfile
  6
PLine1
 62
     4
100
AcDbLine
 10
1502.14672
 20
387.714458
 30
0.0
 11
1430.967771
 21
400.264982
 31
0.0
  0
LINE
  5
5D1
330
1F
100
AcDbEntity
  8
dxfile
  6
Continuous
 62
     4
100
AcDbLine
 10
1500.14672
 20
386.036253
 30
0.0
 11
1513.14672
 21
396.944585
 31
0.0
  0
LINE
  5
5D2
330
1F
100
AcDbEntity
  8
dxfile
  6
Continuous
 62
     4
100
AcDbLine
 10
1432.957052
 20
411.546972
 30
0.0
 11
1430.620481
 21
398.295365
 31
0.0
  0
LINE
  5
5D3
330
1F
100
AcDbEntity
  8
dxfile
  6
Continuous
 62
     6
100
AcDbLine
 10
1513.14672
 20
353.62279
 30
0.0
 11
1495.14672
 21
353.62279
 31
0.0
  0
LINE
  5
5D4
330
1F
100
AcDbEntity
  8
dxfile
  6
PLine2
 62
     3
100
AcDbLine
 10
1463.356961
 20
272.406659
 30
0.0
 11
1446.343586
 21
272.406659
 31
0.0
  0
LINE
  5
5D5
330
1F
100
AcDbEntity
  8
dxfile
  6
Continuous
 62
     6
100
AcDbLine
 10
1513.14672
 20
338.62279
 30
0.0
 11
1495.14672
 21
337.090773
 31
0.0
  0
LINE
  5
5D6
330
1F
100
AcDbEntity
  8
dxfile
  6
Continuous
 62
     6
100
AcDbLine
 10
1442.261101
 20
429.128725
 30
0.0
 11
1444.409423
 21
411.09544
 31
0.0
  0
LINE
  5
5D7
330
1F
100
AcDbEntity
  8
dxfile
  6
Continuous
 62
     6
100
AcDbLine
 10
1509.692284
 20
338.328776
 30
0.0
 11
1500.000184
 21
348.020876
 31
0.0
  0
LINE
  5
5D8
330
1F
100
AcDbEntity
  8
dxfile
  6
Continuous
 62
     6
100
AcDbLine
 10
1513.154081
 20
342.080154
 30
0.0
 11
1507.213359
 21
348.020876
 31
0.0
  0
LINE
  5
5D9
330
1F
100
AcDbEntity
  8
dxfile
  6
Continuous
 62
     6
100
AcDbLine
 10
1504.698686
 20
337.903761
 30
0.0
 11
1513.14672
 21
346.351795
 31
0.0
  0
LINE
  5
5DA
330
1F
100
AcDbEntity
  8
dxfile
  6
Continuous
 62
     6
100
AcDbLine
 10
1503.036288
 20
337.762271
 30
0.0
 11
1495.14672
 21
345.651838
 31
0.0
  0
LINE
  5
5DB
330
1F
100
AcDbEntity
  8
dxfile
  6
Continuous
 62
     6
100
AcDbLine
 10
1497.044549
 20
337.252301
 30
0.0
 11
1495.14672
 21
339.15013
 31
0.0
  0
LINE
  5
5DC
330
1F
100
AcDbEntity
  8
dxfile
  6
Continuous
 62
     6
100
AcDbLine
 10
1497.514695
 20
337.292316
 30
0.0
 11
1508.243254
 21
348.020876
 31
0.0
  0
LINE
  5
5DD
330
1F
100
AcDbEntity
  8
dxfile
  6
Continuous
 62
     6
100
AcDbLine
 10
1495.14672
 20
341.684676
 30
0.0
 11
1501.48292
 21
348.020876
 31
0.0
  0
LINE
  5
5DE
330
1F
100
AcDbEntity
  8
dxfile
  6
Continuous
 62
     6
100
AcDbLine
 10
1436.873634
 20
428.128725
 30
0.0
 11
1443.124958
 21
421.877401
 31
0.0
  0
LINE
  5
5DF
330
1F
100
AcDbEntity
  8
dxfile
  6
Continuous
 62
     6
100
AcDbLine
 10
1436.491708
 20
413.305539
 30
0.0
 11
1443.331322
 21
420.145153
 31
0.0
  0
LINE
  5
5E0
330
1F
100
AcDbEntity
  8
dxfile
  6
Continuous
 62
     6
100
AcDbLine
 10
1443.929189
 20
415.126583
 30
0.0
 11
1436.491708
 21
422.564063
 31
0.0
  0
LINE
  5
5E1
330
1F
100
AcDbEntity
  8
dxfile
  6
Continuous
 62
     6
100
AcDbLine
 10
1441.227428
 20
411.656501
 30
0.0
 11
1444.010976
 21
414.440049
 31
0.0
  0
LINE
  5
5E2
330
1F
100
AcDbEntity
  8
dxfile
  6
Continuous
 62
     6
100
AcDbLine
 10
1441.120926
 20
411.67528
 30
0.0
 11
1436.491708
 21
416.304497
 31
0.0
  0
LINE
  5
5E3
330
1F
100
AcDbEntity
  8
dxfile
  6
Continuous
 62
     6
100
AcDbLine
 10
1436.491708
 20
425.261307
 30
0.0
 11
1439.359126
 21
428.128725
 31
0.0
  0
LINE
  5
5E4
330
1F
100
AcDbEntity
  8
dxfile
  6
Continuous
 62
     6
100
AcDbLine
 10
1436.491708
 20
419.302203
 30
0.0
 11
1442.69298
 21
425.503475
 31
0.0
  0
LINE
  5
5E5
330
1F
100
AcDbEntity
  8
dxfile
  6
Continuous
 62
     4
100
AcDbLine
 10
1377.517624
 20
414.602002
 30
0.0
 11
1382.396766
 21
422.164672
 31
0.0
  0
LINE
  5
5E6
330
1F
100
AcDbEntity
  8
dxfile
  6
Continuous
 62
     4
100
AcDbLine
 10
1351.044234
 20
442.392112
 30
0.0
 11
1346.165092
 21
434.829442
 31
0.0
  0
LINE
  5
5E7
330
1F
100
AcDbEntity
  8
dxfile
  6
Continuous
 62
     4
100
AcDbLine
 10
1382.396766
 20
422.164672
 30
0.0
 11
1372.261101
 21
428.70381
 31
0.0
  0
LINE
  5
5E8
330
1F
100
AcDbEntity
  8
dxfile
  6
Continuous
 62
     4
100
AcDbLine
 10
1362.261101
 20
435.155423
 30
0.0
 11
1357.261101
 21
438.38123
 31
0.0
  0
LINE
  5
5E9
330
1F
100
AcDbEntity
  8
dxfile
  6
Continuous
 62
     4
100
AcDbLine
 10
1354.961101
 20
439.865101
 30
0.0
 11
1351.044234
 21
442.392112
 31
0.0
  0
LINE
  5
5EA
330
1F
100
AcDbEntity
  8
dxfile
  6
Continuous
 62
     4
100
AcDbLine
 10
1346.165092
 20
434.829442
 30
0.0
 11
1354.961101
 21
429.154597
 31
0.0
  0
LINE
  5
5EB
330
1F
100
AcDbEntity
  8
dxfile
  6
Continuous
 62
     4
100
AcDbLine
 10
1357.261101
 20
427.670727
 30
0.0
 11
1362.261101
 21
424.44492
 31
0.0
  0
LINE
  5
5EC
330
1F
100
AcDbEntity
  8
dxfile
  6
Continuous
 62
     4
100
AcDbLine
 10
1372.261101
 20
417.993307
 30
0.0
 11
1377.517624
 21
414.602002
 31
0.0
  0
LINE
  5
5ED
330
1F
100
AcDbEntity
  8
dxfile
  6
PLine2
 62
     3
100
AcDbLine
 10
1383.637835
 20
416.00873
 30
0.0
 11
1346.005766
 21
440.287484
 31
0.0
  0
LINE
  5
5EE
330
1F
100
AcDbEntity
  8
dxfile
  6
Continuous
 62
     6
100
AcDbLine
 10
1327.261101
 20
411.442926
 30
0.0
 11
1327.261101
 21
448.828725
 31
0.0
  0
CIRCLE
  5
5EF
330
1F
100
AcDbEntity
  8
dxfile
  6
Continuous
 62
     6
100
AcDbCircle
 10
1335.595363
 20
434.695499
 30
0.0
 40
1.000000000000114
  0
CIRCLE
  5
5F0
330
1F
100
AcDbEntity
  8
dxfile
  6
Continuous
 62
     6
100
AcDbCircle
 10
1340.8188
 20
424.99483
 30
0.0
 40
0.9999999999997726
  0
CIRCLE
  5
5F1
330
1F
100
AcDbEntity
  8
dxfile
  6
Continuous
 62
     6
100
AcDbCircle
 10
1347.161545
 20
415.294162
 30
0.0
 40
1.000000000000114
  0
CIRCLE
  5
5F2
330
1F
100
AcDbEntity
  8
dxfile
  6
Continuous
 62
     6
100
AcDbCircle
 10
1335.968465
 20
417.90588
 30
0.0
 40
1.000000000000114
  0
CIRCLE
  5
5F3
330
1F
100
AcDbEntity
  8
dxfile
  6
Continuous
 62
     6
100
AcDbCircle
 10
1342.31121
 20
439.545834
 30
0.0
 40
0.9999999999997726
  0
CIRCLE
  5
5F4
330
1F
100
AcDbEntity
  8
dxfile
  6
Continuous
 62
     6
100
AcDbCircle
 10
1393.426273
 20
438.426526
 30
0.0
 40
1.000000000000114
  0
CIRCLE
  5
5F5
330
1F
100
AcDbEntity
  8
dxfile
  6
Continuous
 62
     6
100
AcDbCircle
 10
1394.172479
 20
421.636907
 30
0.0
 40
0.9999999999997726
  0
CIRCLE
  5
5F6
330
1F
100
AcDbEntity
  8
dxfile
  6
Continuous
 62
     6
100
AcDbCircle
 10
1409.469687
 20
409.324519
 30
0.0
 40
1.000000000000114
  0
CIRCLE
  5
5F7
330
1F
100
AcDbEntity
  8
dxfile
  6
Continuous
 62
     6
100
AcDbCircle
 10
1410.215893
 20
429.09896
 30
0.0
 40
0.9999999999997726
  0
CIRCLE
  5
5F8
330
1F
100
AcDbEntity
  8
dxfile
  6
Continuous
 62
     6
100
AcDbCircle
 10
1391.56076
 20
407.459006
 30
0.0
 40
1.000000000000114
  0
CIRCLE
  5
5F9
330
1F
100
AcDbEntity
  8
dxfile
  6
Continuous
 62
     6
100
AcDbCircle
 10
1377.755962
 20
440.292039
 30
0.0
 40
0.9999999999997726
  0
LINE
  5
5FA
330
1F
100
AcDbEntity
  8
dxfile
  6
Continuous
 62
     4
100
AcDbLine
 10
417.261101
 20
142.758383
 30
0.0
 11
417.261101
 21
433.128725
 31
0.0
  0
LINE
  5
5FB
330
1F
100
AcDbEntity
  8
dxfile
  6
Continuous
 62
     4
100
AcDbLine
 10
408.261101
 20
142.758383
 30
0.0
 11
408.261101
 21
433.128725
 31
0.0
  0
LINE
  5
5FC
330
1F
100
AcDbEntity
  8
dxfile
  6
Continuous
 62
     4
100
AcDbLine
 10
1267.261101
 20
142.758383
 30
0.0
 11
1267.261101
 21
433.128725
 31
0.0
  0
LINE
  5
5FD
330
1F
100
AcDbEntity
  8
dxfile
  6
Continuous
 62
     4
100
AcDbLine
 10
1276.261101
 20
142.758383
 30
0.0
 11
1276.261101
 21
433.128725
 31
0.0
  0
INSERT
  5
607
330
1F
100
AcDbEntity
  8
dxfile
  6
Continuous
 62
     3
100
AcDbBlockReference
  2
DIM_16
 10
357.261101
 20
163.95106
 30
0.0
  0
LINE
  5
608
330
1F
100
AcDbEntity
  8
dxfile
  6
Continuous
 62
     3
100
AcDbLine
 10
426.258255
 20
191.583207
 30
0.0
 11
417.660179
 21
200.475512
 31
0.0
  0
LINE
  5
609
330
1F
100
AcDbEntity
  8
dxfile
  6
Continuous
 62
     3
100
AcDbLine
 10
417.660179
 20
200.475512
 30
0.0
 11
447.636559
 21
148.554899
 31
0.0
  0
LINE
  5
60A
330
1F
100
AcDbEntity
  8
dxfile
  6
Continuous
 62
     3
100
AcDbLine
 10
447.636559
 20
148.554899
 30
0.0
 11
586.675929
 21
148.554899
 31
0.0
  0
TEXT
  5
60B
330
1F
100
AcDbEntity
  8
dxfile
  6
Continuous
 62
     3
100
AcDbText
 10
447.636559
 20
151.554899
 30
0.0
 40
18.0
  1
内装仕上げ（別途）
 41
0.858268
  7
BIGFONT
100
AcDbText
  0
LINE
  5
60C
330
1F
100
AcDbEntity
  8
dxfile
  6
Continuous
 62
     3
100
AcDbLine
 10
1490.442522
 20
414.980542
 30
0.0
 11
1487.040598
 21
403.088237
 31
0.0
  0
LINE
  5
60D
330
1F
100
AcDbEntity
  8
dxfile
  6
Continuous
 62
     3
100
AcDbLine
 10
1487.040598
 20
403.088237
 30
0.0
 11
1501.502882
 21
428.137649
 31
0.0
  0
LINE
  5
60E
330
1F
100
AcDbEntity
  8
dxfile
  6
Continuous
 62
     3
100
AcDbLine
 10
1501.502882
 20
428.137649
 30
0.0
 11
1686.888709
 21
428.137649
 31
0.0
  0
TEXT
  5
60F
330
1F
100
AcDbEntity
  8
dxfile
  6
Continuous
 62
     3
100
AcDbText
 10
1501.502882
 20
431.137649
 30
0.0
 40
18.0
  1
２段水切り（オプション）
 41
0.858268
  7
BIGFONT
100
AcDbText
  0
LINE
  5
610
330
1F
100
AcDbEntity
  8
dxfile
  6
Continuous
 62
     3
100
AcDbLine
 10
1513.767472
 20
328.032042
 30
0.0
 11
1505.169396
 21
336.924347
 31
0.0
  0
LINE
  5
611
330
1F
100
AcDbEntity
  8
dxfile
  6
Continuous
 62
     3
100
AcDbLine
 10
1505.169396
 20
336.924347
 30
0.0
 11
1526.783288
 21
299.487987
 31
0.0
  0
LINE
  5
612
330
1F
100
AcDbEntity
  8
dxfile
  6
Continuous
 62
     3
100
AcDbLine
 10
1526.783288
 20
299.487987
 30
0.0
 11
1696.720296
 21
299.487987
 31
0.0
  0
TEXT
  5
613
330
1F
100
AcDbEntity
  8
dxfile
  6
Continuous
 62
     3
100
AcDbText
 10
1526.783288
 20
302.487987
 30
0.0
 40
18.0
  1
シーリング処理（別途）
 41
0.858268
  7
BIGFONT
100
AcDbText
  0
LINE
  5
614
330
1F
100
AcDbEntity
  8
dxfile
  6
Continuous
 62
     3
100
AcDbLine
 10
1446.413425
 20
430.283089
 30
0.0
 11
1443.011501
 21
418.390784
 31
0.0
  0
LINE
  5
615
330
1F
100
AcDbEntity
  8
dxfile
  6
Continuous
 62
     3
100
AcDbLine
 10
1443.011501
 20
418.390784
 30
0.0
 11
1471.620516
 21
467.943051
 31
0.0
  0
LINE
  5
616
330
1F
100
AcDbEntity
  8
dxfile
  6
Continuous
 62
     3
100
AcDbLine
 10
1471.620516
 20
467.943051
 30
0.0
 11
1641.557524
 21
467.943051
 31
0.0
  0
TEXT
  5
617
330
1F
100
AcDbEntity
  8
dxfile
  6
Continuous
 62
     3
100
AcDbText
 10
1471.620516
 20
470.943051
 30
0.0
 40
18.0
  1
シーリング処理（別途）
 41
0.858268
  7
BIGFONT
100
AcDbText
  0
LINE
  5
618
330
1F
100
AcDbEntity
  8
dxfile
  6
Continuous
 62
     3
100
AcDbLine
 10
807.624859
 20
244.206443
 30
0.0
 11
817.193354
 21
244.206443
 31
0.0
  0
LINE
  5
619
330
1F
100
AcDbEntity
  8
dxfile
  6
Continuous
 62
     3
100
AcDbLine
 10
817.193354
 20
244.206443
 30
0.0
 11
817.193354
 21
254.11667
 31
0.0
  0
LINE
  5
61A
330
1F
100
AcDbEntity
  8
dxfile
  6
Continuous
 62
     3
100
AcDbLine
 10
817.193354
 20
254.11667
 30
0.0
 11
807.624859
 21
254.11667
 31
0.0
  0
LINE
  5
61B
330
1F
100
AcDbEntity
  8
dxfile
  6
Continuous
 62
     3
100
AcDbLine
 10
807.624859
 20
254.11667
 30
0.0
 11
807.624859
 21
244.206443
 31
0.0
  0
INSERT
  5
625
330
1F
100
AcDbEntity
  8
dxfile
  6
Continuous
 62
     3
100
AcDbBlockReference
  2
DIM_17
 10
357.261101
 20
202.571717
 30
0.0
  0
INSERT
  5
62F
330
1F
100
AcDbEntity
  8
dxfile
  6
Continuous
 62
     3
100
AcDbBlockReference
  2
DIM_18
 10
242.232221
 20
386.987565
 30
0.0
  0
INSERT
  5
639
330
1F
100
AcDbEntity
  8
dxfile
  6
Continuous
 62
     3
100
AcDbBlockReference
  2
DIM_19
 10
1442.289982
 20
386.987565
 30
0.0
  0
LINE
  5
63A
330
1F
100
AcDbEntity
  8
dxfile
  6
Continuous
 62
     3
100
AcDbLine
 10
1381.204056
 20
364.438225
 30
0.0
 11
1372.60598
 21
373.33053
 31
0.0
  0
LINE
  5
63B
330
1F
100
AcDbEntity
  8
dxfile
  6
Continuous
 62
     3
100
AcDbLine
 10
1372.60598
 20
373.33053
 30
0.0
 11
1477.841537
 21
191.057198
 31
0.0
  0
LINE
  5
63C
330
1F
100
AcDbEntity
  8
dxfile
  6
Continuous
 62
     3
100
AcDbLine
 10
1477.841537
 20
191.057198
 30
0.0
 11
1570.534451
 21
191.057198
 31
0.0
  0
TEXT
  5
63D
330
1F
100
AcDbEntity
  8
dxfile
  6
Continuous
 62
     3
100
AcDbText
 10
1477.841537
 20
194.057198
 30
0.0
 40
18.0
  1
差筋（別途）
 41
0.858268
  7
BIGFONT
100
AcDbText
  0
LINE
  5
63E
330
1F
100
AcDbEntity
  8
dxfile
  6
Continuous
 62
     3
100
AcDbLine
 10
604.074507
 20
1646.625014
 30
0.0
 11
604.074507
 21
1542.081014
 31
0.0
  0
TEXT
  5
63F
330
1F
100
AcDbEntity
  8
dxfile
  6
Continuous
 62
     3
100
AcDbText
 10
559.247626
 20
1624.615964
 30
0.0
 40
16.8
  1
Ｊ
 41
0.858268
  7
BIGFONT
100
AcDbText
  0
TEXT
  5
640
330
1F
100
AcDbEntity
  8
dxfile
  6
Continuous
 62
     3
100
AcDbText
 10
551.399583
 20
1599.059204
 30
0.0
 40
16.8
  1
６７０
 41
0.858268
  7
BIGFONT
100
AcDbText
  0
TEXT
  5
641
330
1F
100
AcDbEntity
  8
dxfile
  6
Continuous
 62
     3
100
AcDbText
 10
551.399583
 20
1573.736305
 30
0.0
 40
16.8
  1
９７０
 41
0.858268
  7
BIGFONT
100
AcDbText
  0
TEXT
  5
642
330
1F
100
AcDbEntity
  8
dxfile
  6
Continuous
 62
     3
100
AcDbText
 10
537.908958
 20
1546.242726
 30
0.0
 40
16.8
  1
１３７０
 41
0.858268
  7
BIGFONT
100
AcDbText
  0
TEXT
  5
643
330
1F
100
AcDbEntity
  8
dxfile
  6
Continuous
 62
     3
100
AcDbText
 10
37.868558
 20
-47.160331
 30
0.0
 40
18.0
  1
Ｓ１：６
 41
0.858268
  7
BIGFONT
100
AcDbText
  0
TEXT
  5
644
330
1F
100
AcDbEntity
  8
dxfile
  6
Continuous
 62
     3
100
AcDbText
 10
36.583132
 20
-74.540804
 30
0.0
 40
18.0
  1
Ｓ１：１２
 41
0.858268
  7
BIGFONT
100
AcDbText
  0
LINE
  5
645
330
1F
100
AcDbEntity
  8
dxfile
  6
Continuous
 62
     3
100
AcDbLine
 10
1041.023982
 20
950.232168
 30
0.0
 11
1037.622058
 21
938.339864
 31
0.0
  0
LINE
  5
646
330
1F
100
AcDbEntity
  8
dxfile
  6
Continuous
 62
     3
100
AcDbLine
 10
1037.622058
 20
938.339864
 30
0.0
 11
1091.26452
 21
1031.251333
 31
0.0
  0
LINE
  5
647
330
1F
100
AcDbEntity
  8
dxfile
  6
Continuous
 62
     3
100
AcDbLine
 10
1091.26452
 20
1031.251333
 30
0.0
 11
1245.752709
 21
1031.251333
 31
0.0
  0
TEXT
  5
648
330
1F
100
AcDbEntity
  8
dxfile
  6
Continuous
 62
     3
100
AcDbText
 10
1091.26452
 20
1034.251333
 30
0.0
 40
18.0
  1
サントップドームＰ型
 41
0.858268
  7
BIGFONT
100
AcDbText
  0
LINE
  5
649
330
1F
100
AcDbEntity
  8
dxfile
  6
Continuous
 62
     3
100
AcDbLine
 10
1071.994472
 20
682.428522
 30
0.0
 11
1068.592548
 21
670.536217
 31
0.0
  0
LINE
  5
64A
330
1F
100
AcDbEntity
  8
dxfile
  6
Continuous
 62
     3
100
AcDbLine
 10
1068.592548
 20
670.536217
 30
0.0
 11
1222.683149
 21
937.428967
 31
0.0
  0
LINE
  5
64B
330
1F
100
AcDbEntity
  8
dxfile
  6
Continuous
 62
     3
100
AcDbLine
 10
1222.683149
 20
937.428967
 30
0.0
 11
1330.824881
 21
937.428967
 31
0.0
  0
TEXT
  5
64C
330
1F
100
AcDbEntity
  8
dxfile
  6
Continuous
 62
     3
100
AcDbText
 10
1222.683149
 20
940.428967
 30
0.0
 40
18.0
  1
６．８網入り硝子
 41
0.858268
  7
BIGFONT
100
AcDbText
  0
LINE
  5
64D
330
1F
100
AcDbEntity
  8
dxfile
  6
Continuous
 62
     3
100
AcDbLine
 10
1345.669115
 20
645.512312
 30
0.0
 11
1342.267191
 21
633.620007
 31
0.0
  0
LINE
  5
64E
330
1F
100
AcDbEntity
  8
dxfile
  6
Continuous
 62
     3
100
AcDbLine
 10
1342.267191
 20
633.620007
 30
0.0
 11
1378.02883
 21
695.560983
 31
0.0
  0
LINE
  5
64F
330
1F
100
AcDbEntity
  8
dxfile
  6
Continuous
 62
     3
100
AcDbLine
 10
1378.02883
 20
695.560983
 30
0.0
 11
1470.721743
 21
695.560983
 31
0.0
  0
TEXT
  5
650
330
1F
100
AcDbEntity
  8
dxfile
  6
Continuous
 62
     3
100
AcDbText
 10
1378.02883
 20
698.560983
 30
0.0
 40
18.0
  1
ドアフレーム
 41
0.858268
  7
BIGFONT
100
AcDbText
  0
LINE
  5
651
330
1F
100
AcDbEntity
  8
dxfile
  6
Continuous
 62
     3
100
AcDbLine
 10
1349.062905
 20
491.001813
 30
0.0
 11
1345.660981
 21
479.109508
 31
0.0
  0
LINE
  5
652
330
1F
100
AcDbEntity
  8
dxfile
  6
Continuous
 62
     3
100
AcDbLine
 10
1345.660981
 20
479.109508
 30
0.0
 11
1426.860931
 21
619.751947
 31
0.0
  0
LINE
  5
653
330
1F
100
AcDbEntity
  8
dxfile
  6
Continuous
 62
     3
100
AcDbLine
 10
1426.860931
 20
619.751947
 30
0.0
 11
1457.758568
 21
619.751947
 31
0.0
  0
TEXT
  5
654
330
1F
100
AcDbEntity
  8
dxfile
  6
Continuous
 62
     3
100
AcDbText
 10
1426.860931
 20
622.751947
 30
0.0
 40
18.0
  1
台部
 41
0.858268
  7
BIGFONT
100
AcDbText
  0
LINE
  5
655
330
1F
100
AcDbEntity
  8
dxfile
  6
Continuous
 62
     3
100
AcDbLine
 10
1381.097317
 20
462.756731
 30
0.0
 11
1377.695393
 21
450.864426
 31
0.0
  0
LINE
  5
656
330
1F
100
AcDbEntity
  8
dxfile
  6
Continuous
 62
     3
100
AcDbLine
 10
1377.695393
 20
450.864426
 30
0.0
 11
1439.356868
 21
557.665233
 31
0.0
  0
LINE
  5
657
330
1F
100
AcDbEntity
  8
dxfile
  6
Continuous
 62
     3
100
AcDbLine
 10
1439.356868
 20
557.665233
 30
0.0
 11
1470.254506
 21
557.665233
 31
0.0
  0
TEXT
  5
658
330
1F
100
AcDbEntity
  8
dxfile
  6
Continuous
 62
     3
100
AcDbText
 10
1439.356868
 20
560.665233
 30
0.0
 40
18.0
  1
内枠
 41
0.858268
  7
BIGFONT
100
AcDbText
  0
LINE
  5
659
330
1F
100
AcDbEntity
  8
dxfile
  6
Continuous
 62
     3
100
AcDbLine
 10
1292.882889
 20
264.50473
 30
0.0
 11
1296.284813
 21
276.397035
 31
0.0
  0
LINE
  5
65A
330
1F
100
AcDbEntity
  8
dxfile
  6
Continuous
 62
     3
100
AcDbLine
 10
1296.284813
 20
276.397035
 30
0.0
 11
1222.657924
 21
148.871523
 31
0.0
  0
LINE
  5
65B
330
1F
100
AcDbEntity
  8
dxfile
  6
Continuous
 62
     3
100
AcDbLine
 10
1222.657924
 20
148.871523
 30
0.0
 11
1099.067373
 21
148.871523
 31
0.0
  0
TEXT
  5
65C
330
1F
100
AcDbEntity
  8
dxfile
  6
Continuous
 62
     3
100
AcDbText
 10
1118.93014
 20
151.871523
 30
0.0
 40
18.0
  1
アウターケーブル
 41
0.858268
  7
BIGFONT
 72
     2
 11
1222.657924
 21
151.871523
 31
0.0
100
AcDbText
  0
LINE
  5
65D
330
1F
100
AcDbEntity
  8
dxfile
  6
Continuous
 62
     3
100
AcDbLine
 10
918.509715
 20
535.723748
 30
0.0
 11
909.911639
 21
544.616052
 31
0.0
  0
LINE
  5
65E
330
1F
100
AcDbEntity
  8
dxfile
  6
Continuous
 62
     3
100
AcDbLine
 10
909.911639
 20
544.616052
 30
0.0
 11
1008.519064
 21
373.822982
 31
0.0
  0
LINE
  5
65F
330
1F
100
AcDbEntity
  8
dxfile
  6
Continuous
 62
     3
100
AcDbLine
 10
1008.519064
 20
373.822982
 30
0.0
 11
1101.211977
 21
373.822982
 31
0.0
  0
TEXT
  5
660
330
1F
100
AcDbEntity
  8
dxfile
  6
Continuous
 62
     3
100
AcDbText
 10
1008.519064
 20
376.822982
 30
0.0
 40
18.0
  1
オートステー
 41
0.858268
  7
BIGFONT
100
AcDbText
  0
LINE
  5
661
330
1F
100
AcDbEntity
  8
dxfile
  6
Continuous
 62
     3
100
AcDbLine
 10
456.7422
 20
517.90432
 30
0.0
 11
448.144124
 21
526.796625
 31
0.0
  0
LINE
  5
662
330
1F
100
AcDbEntity
  8
dxfile
  6
Continuous
 62
     3
100
AcDbLine
 10
448.144124
 20
526.796625
 30
0.0
 11
542.28134
 21
363.746184
 31
0.0
  0
LINE
  5
663
330
1F
100
AcDbEntity
  8
dxfile
  6
Continuous
 62
     3
100
AcDbLine
 10
542.28134
 20
363.746184
 30
0.0
 11
696.769529
 21
363.746184
 31
0.0
  0
TEXT
  5
664
330
1F
100
AcDbEntity
  8
dxfile
  6
Continuous
 62
     3
100
AcDbText
 10
542.28134
 20
366.746184
 30
0.0
 40
18.0
  1
トーションスプリング
 41
0.858268
  7
BIGFONT
100
AcDbText
  0
LINE
  5
665
330
1F
100
AcDbEntity
  8
dxfile
  6
Continuous
 62
     3
100
AcDbLine
 10
337.62593
 20
415.994269
 30
0.0
 11
329.027854
 21
424.886574
 31
0.0
  0
LINE
  5
666
330
1F
100
AcDbEntity
  8
dxfile
  6
Continuous
 62
     3
100
AcDbLine
 10
329.027854
 20
424.886574
 30
0.0
 11
427.645772
 21
254.075329
 31
0.0
  0
LINE
  5
667
330
1F
100
AcDbEntity
  8
dxfile
  6
Continuous
 62
     3
100
AcDbLine
 10
427.645772
 20
254.075329
 30
0.0
 11
520.338686
 21
254.075329
 31
0.0
  0
TEXT
  5
668
330
1F
100
AcDbEntity
  8
dxfile
  6
Continuous
 62
     3
100
AcDbText
 10
427.645772
 20
257.075329
 30
0.0
 40
18.0
  1
アンカー金具
 41
0.858268
  7
BIGFONT
100
AcDbText
  0
ENDSEC
  0
SECTION
  2
OBJECTS
  0
DICTIONARY
  5
C
330
0
100
AcDbDictionary
281
     1
  3
ACAD_GROUP
350
D
  3
ACAD_LAYOUT
350
1A
  3
ACAD_MLEADERSTYLE
350
66B
  3
ACAD_MLINESTYLE
350
17
  3
ACAD_PLOTSETTINGS
350
19
  3
ACAD_PLOTSTYLENAME
350
E
  3
ACAD_SCALELIST
350
5A
  3
ACAD_VISUALSTYLE
350
2A
  3
AcDbVariableDictionary
350
669
  0
DICTIONARY
  5
D
102
{ACAD_REACTORS
330
C
102
}
330
C
100
AcDbDictionary
281
     1
  0
DICTIONARY
  5
1A
102
{ACAD_REACTORS
330
C
102
}
330
C
100
AcDbDictionary
281
     1
  3
Layout1
350
1E
  3
Layout2
350
26
  3
Model
350
22
  0
DICTIONARY
  5
66B
102
{ACAD_REACTORS
330
C
102
}
330
C
100
AcDbDictionary
281
     1
  0
DICTIONARY
  5
17
102
{ACAD_REACTORS
330
C
102
}
330
C
100
AcDbDictionary
281
     1
  3
Standard
350
18
  0
DICTIONARY
  5
19
102
{ACAD_REACTORS
330
C
102
}
330
C
100
AcDbDictionary
281
     1
  0
ACDBDICTIONARYWDFLT
  5
E
102
{ACAD_REACTORS
330
C
102
}
330
C
100
AcDbDictionary
281
     1
  3
Normal
350
F
100
AcDbDictionaryWithDefault
340
F
  0
DICTIONARY
  5
5A
102
{ACAD_REACTORS
330
C
102
}
330
C
100
AcDbDictionary
281
     1
  3
A0
350
5B
  3
A1
350
5C
  3
A2
350
5D
  3
A3
350
5E
  3
A4
350
5F
  3
A5
350
60
  3
A6
350
61
  3
A7
350
62
  3
A8
350
63
  3
A9
350
64
  3
B0
350
65
  3
B1
350
66
  3
B2
350
67
  3
B3
350
68
  3
B4
350
69
  3
B5
350
6A
  3
B6
350
6B
  3
B7
350
6C
  3
B8
350
6D
  3
B9
350
6E
  3
C0
350
6F
  3
C1
350
70
  3
C2
350
71
  3
C3
350
72
  3
C4
350
73
  3
C5
350
74
  3
C6
350
75
  3
C7
350
76
  3
C8
350
77
  3
C9
350
78
  3
D0
350
79
  3
D1
350
7A
  3
D2
350
7B
  0
DICTIONARY
  5
2A
102
{ACAD_REACTORS
330
C
102
}
330
C
100
AcDbDictionary
281
     1
  3
2dWireframe
350
2F
  3
3D Hidden
350
31
  3
3dWireframe
350
30
  3
Basic
350
32
  3
Brighten
350
36
  3
ColorChange
350
3A
  3
Conceptual
350
34
  3
Dim
350
35
  3
Facepattern
350
39
  3
Flat
350
2B
  3
FlatWithEdges
350
2C
  3
Gouraud
350
2D
  3
GouraudWithEdges
350
2E
  3
Linepattern
350
38
  3
Realistic
350
33
  3
Thicken
350
37
  0
DICTIONARY
  5
669
102
{ACAD_REACTORS
330
C
102
}
330
C
100
AcDbDictionary
281
     1
  3
CANNOSCALE
350
66C
  3
DIMASSOC
350
66D
  3
HIDETEXT
350
66E
  0
LAYOUT
  5
1E
102
{ACAD_REACTORS
330
1A
102
}
330
1A
100
AcDbPlotSettings
  1

  2
none_device
  4

  6

 40
0.0
 41
0.0
 42
0.0
 43
0.0
 44
0.0
 45
0.0
 46
0.0
 47
0.0
 48
0.0
 49
0.0
140
0.0
141
0.0
142
1.0
143
1.0
 70
   688
 72
     0
 73
     0
 74
     5
  7

 75
    16
147
1.0
148
0.0
149
0.0
100
AcDbLayout
  1
Layout1
 70
     1
 71
     1
 10
0.0
 20
0.0
 11
12.0
 21
9.0
 12
0.0
 22
0.0
 32
0.0
 14
1.000000E+20
 24
1.000000E+20
 34
1.000000E+20
 15
-1.000000E+20
 25
-1.000000E+20
 35
-1.000000E+20
146
0.0
 13
0.0
 23
0.0
 33
0.0
 16
1.0
 26
0.0
 36
0.0
 17
0.0
 27
1.0
 37
0.0
 76
     0
330
1B
  0
LAYOUT
  5
26
102
{ACAD_REACTORS
330
1A
102
}
330
1A
100
AcDbPlotSettings
  1

  2
none_device
  4

  6

 40
0.0
 41
0.0
 42
0.0
 43
0.0
 44
0.0
 45
0.0
 46
0.0
 47
0.0
 48
0.0
 49
0.0
140
0.0
141
0.0
142
1.0
143
1.0
 70
   688
 72
     0
 73
     0
 74
     5
  7

 75
    16
147
1.0
148
0.0
149
0.0
100
AcDbLayout
  1
Layout2
 70
     1
 71
     2
 10
0.0
 20
0.0
 11
0.0
 21
0.0
 12
0.0
 22
0.0
 32
0.0
 14
0.0
 24
0.0
 34
0.0
 15
0.0
 25
0.0
 35
0.0
146
0.0
 13
0.0
 23
0.0
 33
0.0
 16
1.0
 26
0.0
 36
0.0
 17
0.0
 27
1.0
 37
0.0
 76
     0
330
23
  0
LAYOUT
  5
22
102
{ACAD_REACTORS
330
1A
102
}
330
1A
100
AcDbPlotSettings
  1

  2
none_device
  4

  6

 40
0.0
 41
0.0
 42
0.0
 43
0.0
 44
0.0
 45
0.0
 46
0.0
 47
0.0
 48
0.0
 49
0.0
140
0.0
141
0.0
142
1.0
143
1.0
 70
  1712
 72
     0
 73
     0
 74
     0
  7

 75
     0
147
1.0
148
0.0
149
0.0
100
AcDbLayout
  1
Model
 70
     1
 71
     0
 10
0.0
 20
0.0
 11
12.0
 21
9.0
 12
0.0
 22
0.0
 32
0.0
 14
0.0
 24
0.0
 34
0.0
 15
2520.0
 25
1782.0
 35
0.0
146
0.0
 13
0.0
 23
0.0
 33
0.0
 16
1.0
 26
0.0
 36
0.0
 17
0.0
 27
1.0
 37
0.0
 76
     0
330
1F
331
29
  0
MLINESTYLE
  5
18
102
{ACAD_REACTORS
330
17
102
}
330
17
100
AcDbMlineStyle
  2
Standard
 70
     0
  3

 62
   256
 51
90.0
 52
90.0
 71
     2
 49
0.5
 62
   256
  6
BYLAYER
 49
-0.5
 62
   256
  6
BYLAYER
  0
ACDBPLACEHOLDER
  5
F
102
{ACAD_REACTORS
330
E
102
}
330
E
  0
SCALE
  5
5B
102
{ACAD_REACTORS
330
5A
102
}
330
5A
100
AcDbScale
 70
     0
300
1:1
140
1.0
141
1.0
290
     1
  0
SCALE
  5
5C
102
{ACAD_REACTORS
330
5A
102
}
330
5A
100
AcDbScale
 70
     0
300
1:2
140
1.0
141
2.0
290
     0
  0
SCALE
  5
5D
102
{ACAD_REACTORS
330
5A
102
}
330
5A
100
AcDbScale
 70
     0
300
1:4
140
1.0
141
4.0
290
     0
  0
SCALE
  5
5E
102
{ACAD_REACTORS
330
5A
102
}
330
5A
100
AcDbScale
 70
     0
300
1:5
140
1.0
141
5.0
290
     0
  0
SCALE
  5
5F
102
{ACAD_REACTORS
330
5A
102
}
330
5A
100
AcDbScale
 70
     0
300
1:8
140
1.0
141
8.0
290
     0
  0
SCALE
  5
60
102
{ACAD_REACTORS
330
5A
102
}
330
5A
100
AcDbScale
 70
     0
300
1:10
140
1.0
141
10.0
290
     0
  0
SCALE
  5
61
102
{ACAD_REACTORS
330
5A
102
}
330
5A
100
AcDbScale
 70
     0
300
1:16
140
1.0
141
16.0
290
     0
  0
SCALE
  5
62
102
{ACAD_REACTORS
330
5A
102
}
330
5A
100
AcDbScale
 70
     0
300
1:20
140
1.0
141
20.0
290
     0
  0
SCALE
  5
63
102
{ACAD_REACTORS
330
5A
102
}
330
5A
100
AcDbScale
 70
     0
300
1:30
140
1.0
141
30.0
290
     0
  0
SCALE
  5
64
102
{ACAD_REACTORS
330
5A
102
}
330
5A
100
AcDbScale
 70
     0
300
1:40
140
1.0
141
40.0
290
     0
  0
SCALE
  5
65
102
{ACAD_REACTORS
330
5A
102
}
330
5A
100
AcDbScale
 70
     0
300
1:50
140
1.0
141
50.0
290
     0
  0
SCALE
  5
66
102
{ACAD_REACTORS
330
5A
102
}
330
5A
100
AcDbScale
 70
     0
300
1:100
140
1.0
141
100.0
290
     0
  0
SCALE
  5
67
102
{ACAD_REACTORS
330
5A
102
}
330
5A
100
AcDbScale
 70
     0
300
2:1
140
2.0
141
1.0
290
     0
  0
SCALE
  5
68
102
{ACAD_REACTORS
330
5A
102
}
330
5A
100
AcDbScale
 70
     0
300
4:1
140
4.0
141
1.0
290
     0
  0
SCALE
  5
69
102
{ACAD_REACTORS
330
5A
102
}
330
5A
100
AcDbScale
 70
     0
300
8:1
140
8.0
141
1.0
290
     0
  0
SCALE
  5
6A
102
{ACAD_REACTORS
330
5A
102
}
330
5A
100
AcDbScale
 70
     0
300
10:1
140
10.0
141
1.0
290
     0
  0
SCALE
  5
6B
102
{ACAD_REACTORS
330
5A
102
}
330
5A
100
AcDbScale
 70
     0
300
100:1
140
100.0
141
1.0
290
     0
  0
SCALE
  5
6C
102
{ACAD_REACTORS
330
5A
102
}
330
5A
100
AcDbScale
 70
     0
300
1/128" = 1'-0"
140
0.007812
141
12.0
290
     0
  0
SCALE
  5
6D
102
{ACAD_REACTORS
330
5A
102
}
330
5A
100
AcDbScale
 70
     0
300
1/64" = 1'-0"
140
0.015625
141
12.0
290
     0
  0
SCALE
  5
6E
102
{ACAD_REACTORS
330
5A
102
}
330
5A
100
AcDbScale
 70
     0
300
1/32" = 1'-0"
140
0.03125
141
12.0
290
     0
  0
SCALE
  5
6F
102
{ACAD_REACTORS
330
5A
102
}
330
5A
100
AcDbScale
 70
     0
300
1/16" = 1'-0"
140
0.0625
141
12.0
290
     0
  0
SCALE
  5
70
102
{ACAD_REACTORS
330
5A
102
}
330
5A
100
AcDbScale
 70
     0
300
3/32" = 1'-0"
140
0.09375
141
12.0
290
     0
  0
SCALE
  5
71
102
{ACAD_REACTORS
330
5A
102
}
330
5A
100
AcDbScale
 70
     0
300
1/8" = 1'-0"
140
0.125
141
12.0
290
     0
  0
SCALE
  5
72
102
{ACAD_REACTORS
330
5A
102
}
330
5A
100
AcDbScale
 70
     0
300
3/16" = 1'-0"
140
0.1875
141
12.0
290
     0
  0
SCALE
  5
73
102
{ACAD_REACTORS
330
5A
102
}
330
5A
100
AcDbScale
 70
     0
300
1/4" = 1'-0"
140
0.25
141
12.0
290
     0
  0
SCALE
  5
74
102
{ACAD_REACTORS
330
5A
102
}
330
5A
100
AcDbScale
 70
     0
300
3/8" = 1'-0"
140
0.375
141
12.0
290
     0
  0
SCALE
  5
75
102
{ACAD_REACTORS
330
5A
102
}
330
5A
100
AcDbScale
 70
     0
300
1/2" = 1'-0"
140
0.5
141
12.0
290
     0
  0
SCALE
  5
76
102
{ACAD_REACTORS
330
5A
102
}
330
5A
100
AcDbScale
 70
     0
300
3/4" = 1'-0"
140
0.75
141
12.0
290
     0
  0
SCALE
  5
77
102
{ACAD_REACTORS
330
5A
102
}
330
5A
100
AcDbScale
 70
     0
300
1" = 1'-0"
140
1.0
141
12.0
290
     0
  0
SCALE
  5
78
102
{ACAD_REACTORS
330
5A
102
}
330
5A
100
AcDbScale
 70
     0
300
1-1/2" = 1'-0"
140
1.5
141
12.0
290
     0
  0
SCALE
  5
79
102
{ACAD_REACTORS
330
5A
102
}
330
5A
100
AcDbScale
 70
     0
300
3" = 1'-0"
140
3.0
141
12.0
290
     0
  0
SCALE
  5
7A
102
{ACAD_REACTORS
330
5A
102
}
330
5A
100
AcDbScale
 70
     0
300
6" = 1'-0"
140
6.0
141
12.0
290
     0
  0
SCALE
  5
7B
102
{ACAD_REACTORS
330
5A
102
}
330
5A
100
AcDbScale
 70
     0
300
1'-0" = 1'-0"
140
12.0
141
12.0
290
     0
  0
VISUALSTYLE
  5
2F
102
{ACAD_REACTORS
330
2A
102
}
102
{ACAD_XDICTIONARY
360
677
102
}
330
2A
100
AcDbVisualStyle
  2
2dWireframe
 70
     4
 71
     0
 72
     2
 73
     0
 90
        0
 40
-0.6
 41
-30.0
 62
     5
 63
     7
 74
     1
 91
        4
 64
     7
 65
   257
 75
     1
175
     1
 42
1.0
 92
        0
 66
   257
 43
1.0
 76
     1
 77
     6
 78
     2
 67
     7
 79
     5
170
     0
171
     0
290
     0
174
     0
 93
        1
 44
0.0
173
     0
291
     0
 45
0.0
1001
ACAD
1000
AcDbSavedByObjectVersion
1070
     0
  0
VISUALSTYLE
  5
31
102
{ACAD_REACTORS
330
2A
102
}
102
{ACAD_XDICTIONARY
360
67B
102
}
330
2A
100
AcDbVisualStyle
  2
3D Hidden
 70
     6
 71
     1
 72
     2
 73
     2
 90
        0
 40
-0.6
 41
-30.0
 62
     5
 63
     7
 74
     2
 91
        2
 64
     7
 65
   257
 75
     2
175
     1
 42
40.0
 92
        0
 66
   257
 43
1.0
 76
     1
 77
     6
 78
     2
 67
     7
 79
     3
170
     0
171
     0
290
     0
174
     0
 93
        1
 44
0.0
173
     0
291
     0
 45
0.0
1001
ACAD
1000
AcDbSavedByObjectVersion
1070
     0
  0
VISUALSTYLE
  5
30
102
{ACAD_REACTORS
330
2A
102
}
102
{ACAD_XDICTIONARY
360
679
102
}
330
2A
100
AcDbVisualStyle
  2
3dWireframe
 70
     5
 71
     0
 72
     2
 73
     0
 90
        0
 40
-0.6
 41
-30.0
 62
     5
 63
     7
 74
     1
 91
        4
 64
     7
 65
   257
 75
     1
175
     1
 42
1.0
 92
        0
 66
   257
 43
1.0
 76
     1
 77
     6
 78
     2
 67
     7
 79
     5
170
     0
171
     0
290
     0
174
     0
 93
        1
 44
0.0
173
     0
291
     0
 45
0.0
1001
ACAD
1000
AcDbSavedByObjectVersion
1070
     0
  0
VISUALSTYLE
  5
32
102
{ACAD_REACTORS
330
2A
102
}
102
{ACAD_XDICTIONARY
360
67D
102
}
330
2A
100
AcDbVisualStyle
  2
Basic
 70
     7
 71
     1
 72
     0
 73
     1
 90
        0
 40
-0.6
 41
-30.0
 62
     5
 63
     7
 74
     0
 91
        4
 64
     7
 65
   257
 75
     1
175
     1
 42
1.0
 92
        8
 66
     7
 43
1.0
 76
     1
 77
     6
 78
     2
 67
     7
 79
     5
170
     0
171
     0
290
     0
174
     0
 93
        1
 44
0.0
173
     0
291
     1
 45
0.0
1001
ACAD
1000
AcDbSavedByObjectVersion
1070
     0
  0
VISUALSTYLE
  5
36
102
{ACAD_REACTORS
330
2A
102
}
102
{ACAD_XDICTIONARY
360
685
102
}
330
2A
100
AcDbVisualStyle
  2
Brighten
 70
    12
 71
     2
 72
     2
 73
     0
 90
        0
 40
-0.6
 41
-30.0
 62
     5
 63
     7
 74
     1
 91
        4
 64
     7
 65
   257
 75
     1
175
     1
 42
1.0
 92
        8
 66
     7
 43
1.0
 76
     1
 77
     6
 78
     2
 67
     7
 79
     5
170
     0
171
     0
290
     0
174
     0
 93
        1
 44
50.0
173
     0
291
     1
 45
0.0
1001
ACAD
1000
AcDbSavedByObjectVersion
1070
     0
  0
VISUALSTYLE
  5
3A
102
{ACAD_REACTORS
330
2A
102
}
102
{ACAD_XDICTIONARY
360
68D
102
}
330
2A
100
AcDbVisualStyle
  2
ColorChange
 70
    16
 71
     2
 72
     2
 73
     3
 90
        0
 40
-0.6
 41
-30.0
 62
     5
 63
     8
 74
     1
 91
        4
 64
     7
 65
   257
 75
     1
175
     1
 42
1.0
 92
        8
 66
     8
 43
1.0
 76
     1
 77
     6
 78
     2
 67
     7
 79
     5
170
     0
171
     0
290
     0
174
     0
 93
        1
 44
0.0
173
     0
291
     1
 45
0.0
1001
ACAD
1000
AcDbSavedByObjectVersion
1070
     0
  0
VISUALSTYLE
  5
34
102
{ACAD_REACTORS
330
2A
102
}
102
{ACAD_XDICTIONARY
360
681
102
}
330
2A
100
AcDbVisualStyle
  2
Conceptual
 70
     9
 71
     3
 72
     2
 73
     0
 90
        0
 40
-0.6
 41
-30.0
 62
     5
 63
     7
 74
     2
 91
        2
 64
     7
 65
   257
 75
     1
175
     1
 42
40.0
 92
        8
 66
     7
 43
1.0
 76
     1
 77
     6
 78
     2
 67
     7
 79
     3
170
     0
171
     0
290
     0
174
     0
 93
        1
 44
0.0
173
     0
291
     0
 45
0.0
1001
ACAD
1000
AcDbSavedByObjectVersion
1070
     0
  0
VISUALSTYLE
  5
35
102
{ACAD_REACTORS
330
2A
102
}
102
{ACAD_XDICTIONARY
360
683
102
}
330
2A
100
AcDbVisualStyle
  2
Dim
 70
    11
 71
     2
 72
     2
 73
     0
 90
        0
 40
-0.6
 41
-30.0
 62
     5
 63
     7
 74
     1
 91
        4
 64
     7
 65
   257
 75
     1
175
     1
 42
1.0
 92
        8
 66
     7
 43
1.0
 76
     1
 77
     6
 78
     2
 67
     7
 79
     5
170
     0
171
     0
290
     0
174
     0
 93
        1
 44
-50.0
173
     0
291
     1
 45
0.0
1001
ACAD
1000
AcDbSavedByObjectVersion
1070
     0
  0
VISUALSTYLE
  5
39
102
{ACAD_REACTORS
330
2A
102
}
102
{ACAD_XDICTIONARY
360
68B
102
}
330
2A
100
AcDbVisualStyle
  2
Facepattern
 70
    15
 71
     2
 72
     2
 73
     0
 90
        0
 40
-0.6
 41
-30.0
 62
     5
 63
     7
 74
     1
 91
        4
 64
     7
 65
   257
 75
     1
175
     1
 42
1.0
 92
        8
 66
     7
 43
1.0
 76
     1
 77
     6
 78
     2
 67
     7
 79
     5
170
     0
171
     0
290
     0
174
     0
 93
        1
 44
0.0
173
     0
291
     1
 45
0.0
1001
ACAD
1000
AcDbSavedByObjectVersion
1070
     0
  0
VISUALSTYLE
  5
2B
102
{ACAD_REACTORS
330
2A
102
}
102
{ACAD_XDICTIONARY
360
66F
102
}
330
2A
100
AcDbVisualStyle
  2
Flat
 70
     0
 71
     2
 72
     1
 73
     1
 90
        2
 40
-0.6
 41
30.0
 62
     5
 63
     7
 74
     0
 91
        4
 64
     7
 65
   257
 75
     1
175
     1
 42
1.0
 92
        8
 66
     7
 43
1.0
 76
     1
 77
     6
 78
     2
 67
     7
 79
     5
170
     0
171
     0
290
     0
174
     0
 93
       13
 44
0.0
173
     0
291
     1
 45
0.0
1001
ACAD
1000
AcDbSavedByObjectVersion
1070
     0
  0
VISUALSTYLE
  5
2C
102
{ACAD_REACTORS
330
2A
102
}
102
{ACAD_XDICTIONARY
360
671
102
}
330
2A
100
AcDbVisualStyle
  2
FlatWithEdges
 70
     1
 71
     2
 72
     1
 73
     1
 90
        2
 40
-0.6
 41
30.0
 62
     5
 63
     7
 74
     1
 91
        4
 64
     7
 65
   257
 75
     1
175
     1
 42
1.0
 92
        0
 66
   257
 43
1.0
 76
     1
 77
     6
 78
     2
 67
     7
 79
     5
170
     0
171
     0
290
     0
174
     0
 93
       13
 44
0.0
173
     0
291
     1
 45
0.0
1001
ACAD
1000
AcDbSavedByObjectVersion
1070
     0
  0
VISUALSTYLE
  5
2D
102
{ACAD_REACTORS
330
2A
102
}
102
{ACAD_XDICTIONARY
360
673
102
}
330
2A
100
AcDbVisualStyle
  2
Gouraud
 70
     2
 71
     2
 72
     2
 73
     1
 90
        2
 40
-0.6
 41
30.0
 62
     5
 63
     7
 74
     0
 91
        4
 64
     7
 65
   257
 75
     1
175
     1
 42
1.0
 92
        0
 66
     7
 43
1.0
 76
     1
 77
     6
 78
     2
 67
     7
 79
     5
170
     0
171
     0
290
     0
174
     0
 93
       13
 44
0.0
173
     0
291
     1
 45
0.0
1001
ACAD
1000
AcDbSavedByObjectVersion
1070
     0
  0
VISUALSTYLE
  5
2E
102
{ACAD_REACTORS
330
2A
102
}
102
{ACAD_XDICTIONARY
360
675
102
}
330
2A
100
AcDbVisualStyle
  2
GouraudWithEdges
 70
     3
 71
     2
 72
     2
 73
     1
 90
        2
 40
-0.6
 41
30.0
 62
     5
 63
     7
 74
     1
 91
        4
 64
     7
 65
   257
 75
     1
175
     1
 42
1.0
 92
        0
 66
   257
 43
1.0
 76
     1
 77
     6
 78
     2
 67
     7
 79
     5
170
     0
171
     0
290
     0
174
     0
 93
       13
 44
0.0
173
     0
291
     1
 45
0.0
1001
ACAD
1000
AcDbSavedByObjectVersion
1070
     0
  0
VISUALSTYLE
  5
38
102
{ACAD_REACTORS
330
2A
102
}
102
{ACAD_XDICTIONARY
360
689
102
}
330
2A
100
AcDbVisualStyle
  2
Linepattern
 70
    14
 71
     2
 72
     2
 73
     0
 90
        0
 40
-0.6
 41
-30.0
 62
     5
 63
     7
 74
     1
 91
        4
 64
     7
 65
   257
 75
     7
175
     7
 42
1.0
 92
        8
 66
     7
 43
1.0
 76
     1
 77
     6
 78
     2
 67
     7
 79
     5
170
     0
171
     0
290
     0
174
     0
 93
        1
 44
0.0
173
     0
291
     1
 45
0.0
1001
ACAD
1000
AcDbSavedByObjectVersion
1070
     0
  0
VISUALSTYLE
  5
33
102
{ACAD_REACTORS
330
2A
102
}
102
{ACAD_XDICTIONARY
360
67F
102
}
330
2A
100
AcDbVisualStyle
  2
Realistic
 70
     8
 71
     2
 72
     2
 73
     0
 90
        0
 40
-0.6
 41
-30.0
 62
     5
 63
     7
 74
     1
 91
        0
 64
     7
 65
   257
 75
     1
175
     1
 42
1.0
 92
        8
 66
     8
 43
1.0
 76
     1
 77
     6
 78
     2
 67
     7
 79
     5
170
     0
171
     0
290
     0
174
     0
 93
       13
 44
0.0
173
     0
291
     0
 45
0.0
1001
ACAD
1000
AcDbSavedByObjectVersion
1070
     0
  0
VISUALSTYLE
  5
37
102
{ACAD_REACTORS
330
2A
102
}
102
{ACAD_XDICTIONARY
360
687
102
}
330
2A
100
AcDbVisualStyle
  2
Thicken
 70
    13
 71
     2
 72
     2
 73
     0
 90
        0
 40
-0.6
 41
-30.0
 62
     5
 63
     7
 74
     1
 91
        4
 64
     7
 65
   257
 75
     1
175
     1
 42
1.0
 92
       12
 66
     7
 43
1.0
 76
     1
 77
     6
 78
     2
 67
     7
 79
     5
170
     0
171
     0
290
     0
174
     0
 93
        1
 44
0.0
173
     0
291
     1
 45
0.0
1001
ACAD
1000
AcDbSavedByObjectVersion
1070
     0
  0
DICTIONARYVAR
  5
66C
102
{ACAD_REACTORS
330
669
102
}
330
669
100
DictionaryVariables
280
     0
  1
1:1
  0
DICTIONARYVAR
  5
66D
102
{ACAD_REACTORS
330
669
102
}
330
669
100
DictionaryVariables
280
     0
  1
2
  0
DICTIONARYVAR
  5
66E
102
{ACAD_REACTORS
330
669
102
}
330
669
100
DictionaryVariables
280
     0
  1
1
  0
DICTIONARY
  5
677
330
2F
100
AcDbDictionary
280
     1
281
     1
  3
ACAD_XREC_ROUNDTRIP
360
678
  0
DICTIONARY
  5
67B
330
31
100
AcDbDictionary
280
     1
281
     1
  3
ACAD_XREC_ROUNDTRIP
360
67C
  0
DICTIONARY
  5
679
330
30
100
AcDbDictionary
280
     1
281
     1
  3
ACAD_XREC_ROUNDTRIP
360
67A
  0
DICTIONARY
  5
67D
330
32
100
AcDbDictionary
280
     1
281
     1
  3
ACAD_XREC_ROUNDTRIP
360
67E
  0
DICTIONARY
  5
685
330
36
100
AcDbDictionary
280
     1
281
     1
  3
ACAD_XREC_ROUNDTRIP
360
686
  0
DICTIONARY
  5
68D
330
3A
100
AcDbDictionary
280
     1
281
     1
  3
ACAD_XREC_ROUNDTRIP
360
68E
  0
DICTIONARY
  5
681
330
34
100
AcDbDictionary
280
     1
281
     1
  3
ACAD_XREC_ROUNDTRIP
360
682
  0
DICTIONARY
  5
683
330
35
100
AcDbDictionary
280
     1
281
     1
  3
ACAD_XREC_ROUNDTRIP
360
684
  0
DICTIONARY
  5
68B
330
39
100
AcDbDictionary
280
     1
281
     1
  3
ACAD_XREC_ROUNDTRIP
360
68C
  0
DICTIONARY
  5
66F
330
2B
100
AcDbDictionary
280
     1
281
     1
  3
ACAD_XREC_ROUNDTRIP
360
670
  0
DICTIONARY
  5
671
330
2C
100
AcDbDictionary
280
     1
281
     1
  3
ACAD_XREC_ROUNDTRIP
360
672
  0
DICTIONARY
  5
673
330
2D
100
AcDbDictionary
280
     1
281
     1
  3
ACAD_XREC_ROUNDTRIP
360
674
  0
DICTIONARY
  5
675
330
2E
100
AcDbDictionary
280
     1
281
     1
  3
ACAD_XREC_ROUNDTRIP
360
676
  0
DICTIONARY
  5
689
330
38
100
AcDbDictionary
280
     1
281
     1
  3
ACAD_XREC_ROUNDTRIP
360
68A
  0
DICTIONARY
  5
67F
330
33
100
AcDbDictionary
280
     1
281
     1
  3
ACAD_XREC_ROUNDTRIP
360
680
  0
DICTIONARY
  5
687
330
37
100
AcDbDictionary
280
     1
281
     1
  3
ACAD_XREC_ROUNDTRIP
360
688
  0
XRECORD
  5
678
102
{ACAD_REACTORS
330
677
102
}
330
677
100
AcDbXrecord
280
     1
102
RTVSPropertyOp0
 70
     1
102
RTVSPropertyOp1
 70
     1
102
RTVSPropertyOp2
 70
     1
102
RTVSPropertyOp3
 70
     1
102
RTVSPropertyOp4
 70
     1
102
RTVSPropertyOp5
 70
     1
102
RTVSPropertyOp6
 70
     1
102
RTVSPropertyOp7
 70
     1
102
RTVSPropertyOp8
 70
     1
102
RTVSPropertyOp9
 70
     1
102
RTVSPropertyOp10
 70
     1
102
RTVSPropertyOp11
 70
     1
102
RTVSPropertyOp12
 70
     1
102
RTVSPropertyOp13
 70
     1
102
RTVSPropertyOp14
 70
     1
102
RTVSPropertyOp15
 70
     1
102
RTVSPropertyOp16
 70
     1
102
RTVSPropertyOp17
 70
     1
102
RTVSPropertyOp18
 70
     1
102
RTVSPropertyOp19
 70
     1
102
RTVSPropertyOp20
 70
     1
102
RTVSPropertyOp21
 70
     1
102
RTVSPropertyOp22
 70
     1
102
RTVSPropertyOp23
 70
     1
102
RTVSPropertyOp24
 70
     1
102
RTVSPropertyOp25
 70
     1
102
RTVSPropertyOp26
 70
     1
102
RTVSPropertyOp27
 70
     1
  0
XRECORD
  5
67C
102
{ACAD_REACTORS
330
67B
102
}
330
67B
100
AcDbXrecord
280
     1
102
RTVSPropertyOp0
 70
     1
102
RTVSPropertyOp1
 70
     1
102
RTVSPropertyOp2
 70
     1
102
RTVSPropertyOp3
 70
     1
102
RTVSPropertyOp4
 70
     1
102
RTVSPropertyOp5
 70
     1
102
RTVSPropertyOp6
 70
     1
102
RTVSPropertyOp7
 70
     1
102
RTVSPropertyOp8
 70
     1
102
RTVSPropertyOp9
 70
     1
102
RTVSPropertyOp10
 70
     1
102
RTVSPropertyOp11
 70
     1
102
RTVSPropertyOp12
 70
     1
102
RTVSPropertyOp13
 70
     1
102
RTVSPropertyOp14
 70
     1
102
RTVSPropertyOp15
 70
     1
102
RTVSPropertyOp16
 70
     1
102
RTVSPropertyOp17
 70
     1
102
RTVSPropertyOp18
 70
     1
102
RTVSPropertyOp19
 70
     1
102
RTVSPropertyOp20
 70
     1
102
RTVSPropertyOp21
 70
     1
102
RTVSPropertyOp22
 70
     1
102
RTVSPropertyOp23
 70
     1
102
RTVSPropertyOp24
 70
     1
102
RTVSPropertyOp25
 70
     1
102
RTVSPropertyOp26
 70
     1
102
RTVSPropertyOp27
 70
     1
  0
XRECORD
  5
67A
102
{ACAD_REACTORS
330
679
102
}
330
679
100
AcDbXrecord
280
     1
102
RTVSPropertyOp0
 70
     1
102
RTVSPropertyOp1
 70
     1
102
RTVSPropertyOp2
 70
     1
102
RTVSPropertyOp3
 70
     1
102
RTVSPropertyOp4
 70
     1
102
RTVSPropertyOp5
 70
     1
102
RTVSPropertyOp6
 70
     1
102
RTVSPropertyOp7
 70
     1
102
RTVSPropertyOp8
 70
     1
102
RTVSPropertyOp9
 70
     1
102
RTVSPropertyOp10
 70
     1
102
RTVSPropertyOp11
 70
     1
102
RTVSPropertyOp12
 70
     1
102
RTVSPropertyOp13
 70
     1
102
RTVSPropertyOp14
 70
     1
102
RTVSPropertyOp15
 70
     1
102
RTVSPropertyOp16
 70
     1
102
RTVSPropertyOp17
 70
     1
102
RTVSPropertyOp18
 70
     1
102
RTVSPropertyOp19
 70
     1
102
RTVSPropertyOp20
 70
     1
102
RTVSPropertyOp21
 70
     1
102
RTVSPropertyOp22
 70
     1
102
RTVSPropertyOp23
 70
     1
102
RTVSPropertyOp24
 70
     1
102
RTVSPropertyOp25
 70
     1
102
RTVSPropertyOp26
 70
     1
102
RTVSPropertyOp27
 70
     1
  0
XRECORD
  5
67E
102
{ACAD_REACTORS
330
67D
102
}
330
67D
100
AcDbXrecord
280
     1
102
RTVSPropertyOp0
 70
     1
102
RTVSPropertyOp1
 70
     1
102
RTVSPropertyOp2
 70
     1
102
RTVSPropertyOp3
 70
     1
102
RTVSPropertyOp4
 70
     1
102
RTVSPropertyOp5
 70
     1
102
RTVSPropertyOp6
 70
     1
102
RTVSPropertyOp7
 70
     1
102
RTVSPropertyOp8
 70
     1
102
RTVSPropertyOp9
 70
     1
102
RTVSPropertyOp10
 70
     1
102
RTVSPropertyOp11
 70
     1
102
RTVSPropertyOp12
 70
     1
102
RTVSPropertyOp13
 70
     1
102
RTVSPropertyOp14
 70
     1
102
RTVSPropertyOp15
 70
     1
102
RTVSPropertyOp16
 70
     1
102
RTVSPropertyOp17
 70
     1
102
RTVSPropertyOp18
 70
     1
102
RTVSPropertyOp19
 70
     1
102
RTVSPropertyOp20
 70
     1
102
RTVSPropertyOp21
 70
     1
102
RTVSPropertyOp22
 70
     1
102
RTVSPropertyOp23
 70
     1
102
RTVSPropertyOp24
 70
     1
102
RTVSPropertyOp25
 70
     1
102
RTVSPropertyOp26
 70
     1
102
RTVSPropertyOp27
 70
     1
  0
XRECORD
  5
686
102
{ACAD_REACTORS
330
685
102
}
330
685
100
AcDbXrecord
280
     1
102
RTVSPropertyOp0
 70
     1
102
RTVSPropertyOp1
 70
     1
102
RTVSPropertyOp2
 70
     1
102
RTVSPropertyOp3
 70
     1
102
RTVSPropertyOp4
 70
     1
102
RTVSPropertyOp5
 70
     1
102
RTVSPropertyOp6
 70
     1
102
RTVSPropertyOp7
 70
     1
102
RTVSPropertyOp8
 70
     1
102
RTVSPropertyOp9
 70
     1
102
RTVSPropertyOp10
 70
     1
102
RTVSPropertyOp11
 70
     1
102
RTVSPropertyOp12
 70
     1
102
RTVSPropertyOp13
 70
     1
102
RTVSPropertyOp14
 70
     1
102
RTVSPropertyOp15
 70
     1
102
RTVSPropertyOp16
 70
     1
102
RTVSPropertyOp17
 70
     1
102
RTVSPropertyOp18
 70
     1
102
RTVSPropertyOp19
 70
     1
102
RTVSPropertyOp20
 70
     1
102
RTVSPropertyOp21
 70
     1
102
RTVSPropertyOp22
 70
     1
102
RTVSPropertyOp23
 70
     1
102
RTVSPropertyOp24
 70
     1
102
RTVSPropertyOp25
 70
     1
102
RTVSPropertyOp26
 70
     1
102
RTVSPropertyOp27
 70
     1
  0
XRECORD
  5
68E
102
{ACAD_REACTORS
330
68D
102
}
330
68D
100
AcDbXrecord
280
     1
102
RTVSPropertyOp0
 70
     1
102
RTVSPropertyOp1
 70
     1
102
RTVSPropertyOp2
 70
     1
102
RTVSPropertyOp3
 70
     1
102
RTVSPropertyOp4
 70
     1
102
RTVSPropertyOp5
 70
     1
102
RTVSPropertyOp6
 70
     1
102
RTVSPropertyOp7
 70
     1
102
RTVSPropertyOp8
 70
     1
102
RTVSPropertyOp9
 70
     1
102
RTVSPropertyOp10
 70
     1
102
RTVSPropertyOp11
 70
     1
102
RTVSPropertyOp12
 70
     1
102
RTVSPropertyOp13
 70
     1
102
RTVSPropertyOp14
 70
     1
102
RTVSPropertyOp15
 70
     1
102
RTVSPropertyOp16
 70
     1
102
RTVSPropertyOp17
 70
     1
102
RTVSPropertyOp18
 70
     1
102
RTVSPropertyOp19
 70
     1
102
RTVSPropertyOp20
 70
     1
102
RTVSPropertyOp21
 70
     1
102
RTVSPropertyOp22
 70
     1
102
RTVSPropertyOp23
 70
     1
102
RTVSPropertyOp24
 70
     1
102
RTVSPropertyOp25
 70
     1
102
RTVSPropertyOp26
 70
     1
102
RTVSPropertyOp27
 70
     1
  0
XRECORD
  5
682
102
{ACAD_REACTORS
330
681
102
}
330
681
100
AcDbXrecord
280
     1
102
RTVSPropertyOp0
 70
     1
102
RTVSPropertyOp1
 70
     1
102
RTVSPropertyOp2
 70
     1
102
RTVSPropertyOp3
 70
     1
102
RTVSPropertyOp4
 70
     1
102
RTVSPropertyOp5
 70
     1
102
RTVSPropertyOp6
 70
     1
102
RTVSPropertyOp7
 70
     1
102
RTVSPropertyOp8
 70
     1
102
RTVSPropertyOp9
 70
     1
102
RTVSPropertyOp10
 70
     1
102
RTVSPropertyOp11
 70
     1
102
RTVSPropertyOp12
 70
     1
102
RTVSPropertyOp13
 70
     1
102
RTVSPropertyOp14
 70
     1
102
RTVSPropertyOp15
 70
     1
102
RTVSPropertyOp16
 70
     1
102
RTVSPropertyOp17
 70
     1
102
RTVSPropertyOp18
 70
     1
102
RTVSPropertyOp19
 70
     1
102
RTVSPropertyOp20
 70
     1
102
RTVSPropertyOp21
 70
     1
102
RTVSPropertyOp22
 70
     1
102
RTVSPropertyOp23
 70
     1
102
RTVSPropertyOp24
 70
     1
102
RTVSPropertyOp25
 70
     1
102
RTVSPropertyOp26
 70
     1
102
RTVSPropertyOp27
 70
     1
  0
XRECORD
  5
684
102
{ACAD_REACTORS
330
683
102
}
330
683
100
AcDbXrecord
280
     1
102
RTVSPropertyOp0
 70
     1
102
RTVSPropertyOp1
 70
     1
102
RTVSPropertyOp2
 70
     1
102
RTVSPropertyOp3
 70
     1
102
RTVSPropertyOp4
 70
     1
102
RTVSPropertyOp5
 70
     1
102
RTVSPropertyOp6
 70
     1
102
RTVSPropertyOp7
 70
     1
102
RTVSPropertyOp8
 70
     1
102
RTVSPropertyOp9
 70
     1
102
RTVSPropertyOp10
 70
     1
102
RTVSPropertyOp11
 70
     1
102
RTVSPropertyOp12
 70
     1
102
RTVSPropertyOp13
 70
     1
102
RTVSPropertyOp14
 70
     1
102
RTVSPropertyOp15
 70
     1
102
RTVSPropertyOp16
 70
     1
102
RTVSPropertyOp17
 70
     1
102
RTVSPropertyOp18
 70
     1
102
RTVSPropertyOp19
 70
     1
102
RTVSPropertyOp20
 70
     1
102
RTVSPropertyOp21
 70
     1
102
RTVSPropertyOp22
 70
     1
102
RTVSPropertyOp23
 70
     1
102
RTVSPropertyOp24
 70
     1
102
RTVSPropertyOp25
 70
     1
102
RTVSPropertyOp26
 70
     1
102
RTVSPropertyOp27
 70
     1
  0
XRECORD
  5
68C
102
{ACAD_REACTORS
330
68B
102
}
330
68B
100
AcDbXrecord
280
     1
102
RTVSPropertyOp0
 70
     1
102
RTVSPropertyOp1
 70
     1
102
RTVSPropertyOp2
 70
     1
102
RTVSPropertyOp3
 70
     1
102
RTVSPropertyOp4
 70
     1
102
RTVSPropertyOp5
 70
     1
102
RTVSPropertyOp6
 70
     1
102
RTVSPropertyOp7
 70
     1
102
RTVSPropertyOp8
 70
     1
102
RTVSPropertyOp9
 70
     1
102
RTVSPropertyOp10
 70
     1
102
RTVSPropertyOp11
 70
     1
102
RTVSPropertyOp12
 70
     1
102
RTVSPropertyOp13
 70
     1
102
RTVSPropertyOp14
 70
     1
102
RTVSPropertyOp15
 70
     1
102
RTVSPropertyOp16
 70
     1
102
RTVSPropertyOp17
 70
     1
102
RTVSPropertyOp18
 70
     1
102
RTVSPropertyOp19
 70
     1
102
RTVSPropertyOp20
 70
     1
102
RTVSPropertyOp21
 70
     1
102
RTVSPropertyOp22
 70
     1
102
RTVSPropertyOp23
 70
     1
102
RTVSPropertyOp24
 70
     1
102
RTVSPropertyOp25
 70
     1
102
RTVSPropertyOp26
 70
     1
102
RTVSPropertyOp27
 70
     1
  0
XRECORD
  5
670
102
{ACAD_REACTORS
330
66F
102
}
330
66F
100
AcDbXrecord
280
     1
102
RTVSPropertyOp0
 70
     1
102
RTVSPropertyOp1
 70
     1
102
RTVSPropertyOp2
 70
     1
102
RTVSPropertyOp3
 70
     1
102
RTVSPropertyOp4
 70
     1
102
RTVSPropertyOp5
 70
     1
102
RTVSPropertyOp6
 70
     1
102
RTVSPropertyOp7
 70
     1
102
RTVSPropertyOp8
 70
     1
102
RTVSPropertyOp9
 70
     1
102
RTVSPropertyOp10
 70
     1
102
RTVSPropertyOp11
 70
     1
102
RTVSPropertyOp12
 70
     1
102
RTVSPropertyOp13
 70
     1
102
RTVSPropertyOp14
 70
     1
102
RTVSPropertyOp15
 70
     1
102
RTVSPropertyOp16
 70
     1
102
RTVSPropertyOp17
 70
     1
102
RTVSPropertyOp18
 70
     1
102
RTVSPropertyOp19
 70
     1
102
RTVSPropertyOp20
 70
     1
102
RTVSPropertyOp21
 70
     1
102
RTVSPropertyOp22
 70
     1
102
RTVSPropertyOp23
 70
     1
102
RTVSPropertyOp24
 70
     1
102
RTVSPropertyOp25
 70
     1
102
RTVSPropertyOp26
 70
     1
102
RTVSPropertyOp27
 70
     1
  0
XRECORD
  5
672
102
{ACAD_REACTORS
330
671
102
}
330
671
100
AcDbXrecord
280
     1
102
RTVSPropertyOp0
 70
     1
102
RTVSPropertyOp1
 70
     1
102
RTVSPropertyOp2
 70
     1
102
RTVSPropertyOp3
 70
     1
102
RTVSPropertyOp4
 70
     1
102
RTVSPropertyOp5
 70
     1
102
RTVSPropertyOp6
 70
     1
102
RTVSPropertyOp7
 70
     1
102
RTVSPropertyOp8
 70
     1
102
RTVSPropertyOp9
 70
     1
102
RTVSPropertyOp10
 70
     1
102
RTVSPropertyOp11
 70
     1
102
RTVSPropertyOp12
 70
     1
102
RTVSPropertyOp13
 70
     1
102
RTVSPropertyOp14
 70
     1
102
RTVSPropertyOp15
 70
     1
102
RTVSPropertyOp16
 70
     1
102
RTVSPropertyOp17
 70
     1
102
RTVSPropertyOp18
 70
     1
102
RTVSPropertyOp19
 70
     1
102
RTVSPropertyOp20
 70
     1
102
RTVSPropertyOp21
 70
     1
102
RTVSPropertyOp22
 70
     1
102
RTVSPropertyOp23
 70
     1
102
RTVSPropertyOp24
 70
     1
102
RTVSPropertyOp25
 70
     1
102
RTVSPropertyOp26
 70
     1
102
RTVSPropertyOp27
 70
     1
  0
XRECORD
  5
674
102
{ACAD_REACTORS
330
673
102
}
330
673
100
AcDbXrecord
280
     1
102
RTVSPropertyOp0
 70
     1
102
RTVSPropertyOp1
 70
     1
102
RTVSPropertyOp2
 70
     1
102
RTVSPropertyOp3
 70
     1
102
RTVSPropertyOp4
 70
     1
102
RTVSPropertyOp5
 70
     1
102
RTVSPropertyOp6
 70
     1
102
RTVSPropertyOp7
 70
     1
102
RTVSPropertyOp8
 70
     1
102
RTVSPropertyOp9
 70
     1
102
RTVSPropertyOp10
 70
     1
102
RTVSPropertyOp11
 70
     1
102
RTVSPropertyOp12
 70
     1
102
RTVSPropertyOp13
 70
     1
102
RTVSPropertyOp14
 70
     1
102
RTVSPropertyOp15
 70
     1
102
RTVSPropertyOp16
 70
     1
102
RTVSPropertyOp17
 70
     1
102
RTVSPropertyOp18
 70
     1
102
RTVSPropertyOp19
 70
     1
102
RTVSPropertyOp20
 70
     1
102
RTVSPropertyOp21
 70
     1
102
RTVSPropertyOp22
 70
     1
102
RTVSPropertyOp23
 70
     1
102
RTVSPropertyOp24
 70
     1
102
RTVSPropertyOp25
 70
     1
102
RTVSPropertyOp26
 70
     1
102
RTVSPropertyOp27
 70
     1
  0
XRECORD
  5
676
102
{ACAD_REACTORS
330
675
102
}
330
675
100
AcDbXrecord
280
     1
102
RTVSPropertyOp0
 70
     1
102
RTVSPropertyOp1
 70
     1
102
RTVSPropertyOp2
 70
     1
102
RTVSPropertyOp3
 70
     1
102
RTVSPropertyOp4
 70
     1
102
RTVSPropertyOp5
 70
     1
102
RTVSPropertyOp6
 70
     1
102
RTVSPropertyOp7
 70
     1
102
RTVSPropertyOp8
 70
     1
102
RTVSPropertyOp9
 70
     1
102
RTVSPropertyOp10
 70
     1
102
RTVSPropertyOp11
 70
     1
102
RTVSPropertyOp12
 70
     1
102
RTVSPropertyOp13
 70
     1
102
RTVSPropertyOp14
 70
     1
102
RTVSPropertyOp15
 70
     1
102
RTVSPropertyOp16
 70
     1
102
RTVSPropertyOp17
 70
     1
102
RTVSPropertyOp18
 70
     1
102
RTVSPropertyOp19
 70
     1
102
RTVSPropertyOp20
 70
     1
102
RTVSPropertyOp21
 70
     1
102
RTVSPropertyOp22
 70
     1
102
RTVSPropertyOp23
 70
     1
102
RTVSPropertyOp24
 70
     1
102
RTVSPropertyOp25
 70
     1
102
RTVSPropertyOp26
 70
     1
102
RTVSPropertyOp27
 70
     1
  0
XRECORD
  5
68A
102
{ACAD_REACTORS
330
689
102
}
330
689
100
AcDbXrecord
280
     1
102
RTVSPropertyOp0
 70
     1
102
RTVSPropertyOp1
 70
     1
102
RTVSPropertyOp2
 70
     1
102
RTVSPropertyOp3
 70
     1
102
RTVSPropertyOp4
 70
     1
102
RTVSPropertyOp5
 70
     1
102
RTVSPropertyOp6
 70
     1
102
RTVSPropertyOp7
 70
     1
102
RTVSPropertyOp8
 70
     1
102
RTVSPropertyOp9
 70
     1
102
RTVSPropertyOp10
 70
     1
102
RTVSPropertyOp11
 70
     1
102
RTVSPropertyOp12
 70
     1
102
RTVSPropertyOp13
 70
     1
102
RTVSPropertyOp14
 70
     1
102
RTVSPropertyOp15
 70
     1
102
RTVSPropertyOp16
 70
     1
102
RTVSPropertyOp17
 70
     1
102
RTVSPropertyOp18
 70
     1
102
RTVSPropertyOp19
 70
     1
102
RTVSPropertyOp20
 70
     1
102
RTVSPropertyOp21
 70
     1
102
RTVSPropertyOp22
 70
     1
102
RTVSPropertyOp23
 70
     1
102
RTVSPropertyOp24
 70
     1
102
RTVSPropertyOp25
 70
     1
102
RTVSPropertyOp26
 70
     1
102
RTVSPropertyOp27
 70
     1
  0
XRECORD
  5
680
102
{ACAD_REACTORS
330
67F
102
}
330
67F
100
AcDbXrecord
280
     1
102
RTVSPropertyOp0
 70
     1
102
RTVSPropertyOp1
 70
     1
102
RTVSPropertyOp2
 70
     1
102
RTVSPropertyOp3
 70
     1
102
RTVSPropertyOp4
 70
     1
102
RTVSPropertyOp5
 70
     1
102
RTVSPropertyOp6
 70
     1
102
RTVSPropertyOp7
 70
     1
102
RTVSPropertyOp8
 70
     1
102
RTVSPropertyOp9
 70
     1
102
RTVSPropertyOp10
 70
     1
102
RTVSPropertyOp11
 70
     1
102
RTVSPropertyOp12
 70
     1
102
RTVSPropertyOp13
 70
     1
102
RTVSPropertyOp14
 70
     1
102
RTVSPropertyOp15
 70
     1
102
RTVSPropertyOp16
 70
     1
102
RTVSPropertyOp17
 70
     1
102
RTVSPropertyOp18
 70
     1
102
RTVSPropertyOp19
 70
     1
102
RTVSPropertyOp20
 70
     1
102
RTVSPropertyOp21
 70
     1
102
RTVSPropertyOp22
 70
     1
102
RTVSPropertyOp23
 70
     1
102
RTVSPropertyOp24
 70
     1
102
RTVSPropertyOp25
 70
     1
102
RTVSPropertyOp26
 70
     1
102
RTVSPropertyOp27
 70
     1
  0
XRECORD
  5
688
102
{ACAD_REACTORS
330
687
102
}
330
687
100
AcDbXrecord
280
     1
102
RTVSPropertyOp0
 70
     1
102
RTVSPropertyOp1
 70
     1
102
RTVSPropertyOp2
 70
     1
102
RTVSPropertyOp3
 70
     1
102
RTVSPropertyOp4
 70
     1
102
RTVSPropertyOp5
 70
     1
102
RTVSPropertyOp6
 70
     1
102
RTVSPropertyOp7
 70
     1
102
RTVSPropertyOp8
 70
     1
102
RTVSPropertyOp9
 70
     1
102
RTVSPropertyOp10
 70
     1
102
RTVSPropertyOp11
 70
     1
102
RTVSPropertyOp12
 70
     1
102
RTVSPropertyOp13
 70
     1
102
RTVSPropertyOp14
 70
     1
102
RTVSPropertyOp15
 70
     1
102
RTVSPropertyOp16
 70
     1
102
RTVSPropertyOp17
 70
     1
102
RTVSPropertyOp18
 70
     1
102
RTVSPropertyOp19
 70
     1
102
RTVSPropertyOp20
 70
     1
102
RTVSPropertyOp21
 70
     1
102
RTVSPropertyOp22
 70
     1
102
RTVSPropertyOp23
 70
     1
102
RTVSPropertyOp24
 70
     1
102
RTVSPropertyOp25
 70
     1
102
RTVSPropertyOp26
 70
     1
102
RTVSPropertyOp27
 70
     1
  0
ENDSEC
  0
EOF
