  0
SECTION
  2
HEADER
  9
$ACADVER
  1
AC1009
  9
$INSBASE
 10
0
 20
0
 30
0
  9
$EXTMIN
 10
0
 20
0
  9
$EXTMAX
 10
420
 20
297
  9
$LIMMIN
 10
0
 20
0
  9
$LIMMAX
 10
420
 20
297
  9
$LTSCALE
 40
1
  0
ENDSEC
  0
SECTION
  2
TABLES
  0
TABLE
  2
LTYPE
 70
     9
  0
LTYPE
  2
CONTINUOUS
 70
    64
  3
実線
 72
    65
 73
     0
 40
0.0
  0
LTYPE
  2
DASHED1
 70
    64
  3
--  --  --  --  --  --  --  --  
 72
    65
 73
     2
 40
2.5
 49
1.25
 49
-1.25
  0
LTYPE
  2
DASHED2
 70
    64
  3
----    ----    ----    ----    
 72
    65
 73
     2
 40
5.0
 49
2.5
 49
-2.5
  0
LTYPE
  2
DASHED3
 70
    64
  3
------  ------  ------  ------  
 72
    65
 73
     2
 40
5.0
 49
3.75
 49
-1.25
  0
LTYPE
  2
CENTER1
 70
    64
  3
----- - ----- - ----- - ----- - 
 72
    65
 73
     4
 40
10.0
 49
6.25
 49
-1.25
 49
1.25
 49
-1.25
  0
LTYPE
  2
CENTER2
 70
    64
  3
----------  --  ----------  --  
 72
    65
 73
     4
 40
20.0
 49
12.5
 49
-2.5
 49
2.5
 49
-2.5
  0
LTYPE
  2
PHANTOM1
 70
    64
  3
--- - - --- - - --- - - --- - - 
 72
    65
 73
     6
 40
10.0
 49
3.25
 49
-1.25
 49
1.25
 49
-1.25
 49
1.25
 49
-1.25
  0
LTYPE
  2
PHANTOM2
 70
    64
  3
--------  -  -  --------  -  -  
 72
    65
 73
     6
 40
20.0
 49
10.0
 49
-2.5
 49
1.25
 49
-2.5
 49
1.25
 49
-2.5
  0
LTYPE
  2
DOT
 70
    64
  3
-   -   -   -   -   -   -   -   
 72
    65
 73
     2
 40
2.5
 49
0.625
 49
-1.875
  0
LTYPE
  2
DUMMY
 70
    64
  3
ダミー
 72
    65
 73
     0
 40
0.0
  0
LTYPE
  2
RAND1
 70
    64
  3
ランダム線1
 72
    65
 73
     4
 40
10.0
 49
1.0
 49
-2.0
 49
3.0
 49
-4.0
  0
LTYPE
  2
RAND2
 70
    64
  3
ランダム線2
 72
    65
 73
     4
 40
14.0
 49
2.0
 49
-3.0
 49
4.0
 49
-5.0
  0
LTYPE
  2
RAND3
 70
    64
  3
ランダム線3
 72
    65
 73
     4
 40
18.0
 49
3.0
 49
-4.0
 49
5.0
 49
-6.0
  0
LTYPE
  2
RAND4
 70
    64
  3
ランダム線4
 72
    65
 73
     4
 40
22.0
 49
4.0
 49
-5.0
 49
6.0
 49
-7.0
  0
LTYPE
  2
RAND5
 70
    64
  3
ランダム線5
 72
    65
 73
     4
 40
26.0
 49
5.0
 49
-6.0
 49
7.0
 49
-8.0
  0
LTYPE
  2
LONG1
 70
    64
  3
----------  --  ----------  --  
 72
    65
 73
     4
 40
40.0
 49
32.5
 49
-2.5
 49
2.5
 49
-2.5
  0
LTYPE
  2
LONG2
 70
    64
  3
--------  -  -  --------  -  -  
 72
    65
 73
     6
 40
40.0
 49
30.0
 49
-2.5
 49
1.25
 49
-2.5
 49
1.25
 49
-2.5
  0
LTYPE
  2
LONG3
 70
    64
  3
+++++++++++++++..+++++++++++++++
 72
    65
 73
     2
 40
40.0
 49
37.5
 49
-2.5
  0
LTYPE
  2
LONG4
 70
    64
  3
+++++++++++++++..+++++++++++++++
 72
    65
 73
     2
 40
80.0
 49
75.0
 49
-5.0
  0
LTYPE
  2
LONG5
 70
    64
  3
----------  --  ----------  --  
 72
    65
 73
     4
 40
60.0
 49
37.5
 49
-7.5
 49
7.5
 49
-7.5
  0
LTYPE
  2
dashed
 70
   64
  3
-------   -------------   ------
 72
   65
 73
    2
 40
7.5
 49
6
 49
-1.5
  0
LTYPE
  2
dashed_spaced
 70
   64
  3
----        --------        ----
 72
   65
 73
    2
 40
12
 49
6
 49
-6
  0
LTYPE
  2
long_dashed_dotted
 70
   64
  3
------------- --- --------------
 72
   65
 73
    4
 40
15.25
 49
12
 49
-1.5
 49
0.25
 49
-1.5
  0
LTYPE
  2
long_dashed_double-dotted
 70
   64
  3
----------- --- --- ------------
 72
   65
 73
    6
 40
17
 49
12
 49
-1.5
 49
0.25
 49
-1.5
 49
0.25
 49
-1.5
  0
LTYPE
  2
long_dashed_triplicate-dotted
 70
   64
  3
--------- --- --- --- ----------
 72
   65
 73
    8
 40
18.75
 49
12
 49
-1.5
 49
0.25
 49
-1.5
 49
0.25
 49
-1.5
 49
0.25
 49
-1.5
  0
LTYPE
  2
dotted
 70
   64
  3
   -       -       -       -    
 72
   65
 73
    2
 40
1.75
 49
0.25
 49
-1.5
  0
LTYPE
  2
chain
 70
   64
  3
-------------- -- --------------
 72
   65
 73
    4
 40
18.5
 49
12
 49
-1.5
 49
3.5
 49
-1.5
  0
LTYPE
  2
chain_double_dash
 70
   64
  3
------------ -- -- -------------
 72
   65
 73
    6
 40
23.5
 49
12
 49
-1.5
 49
3.5
 49
-1.5
 49
3.5
 49
-1.5
  0
LTYPE
  2
dashed_dotted
 70
   64
  3
-----------     -     ----------
 72
   65
 73
    4
 40
9.25
 49
6
 49
-1.5
 49
0.25
 49
-1.5
  0
LTYPE
  2
double-dashed_dotted
 70
   64
  3
------   -----------   -   -----
 72
   65
 73
    6
 40
16.75
 49
6
 49
-1.5
 49
6
 49
-1.5
 49
0.25
 49
-1.5
  0
LTYPE
  2
dashed_double-dotted
 70
   64
  3
---------    -    -    ---------
 72
   65
 73
    6
 40
11
 49
6
 49
-1.5
 49
0.25
 49
-1.5
 49
0.25
 49
-1.5
  0
LTYPE
  2
double-dashed_double-dotted
 70
   64
  3
-----   ---------   -   -   ----
 72
   65
 73
    8
 40
18.5
 49
6
 49
-1.5
 49
6
 49
-1.5
 49
0.25
 49
-1.5
 49
0.25
 49
-1.5
  0
LTYPE
  2
dashed_triplicate-dotted
 70
   64
  3
-------    -    -    -    ------
 72
   65
 73
    8
 40
12.75
 49
6
 49
-1.5
 49
0.25
 49
-1.5
 49
0.25
 49
-1.5
 49
0.25
 49
-1.5
  0
LTYPE
  2
double-dashed_triplicate-dotted
 70
   64
  3
-----  ---------  -  -  -  -----
 72
   65
 73
   10
 40
20.25
 49
6
 49
-1.5
 49
6
 49
-1.5
 49
0.25
 49
-1.5
 49
0.25
 49
-1.5
 49
0.25
 49
-1.5
  0
LTYPE
  2
undefined
 70
   64
  3
--------------------------------
 72
   65
 73
    0
 40
0
  0
LTYPE
  2
PLINE2
 70
   64
  3
------     -----------     -----
 72
   65
 73
    2
 40
3
 49
2.1000000000000001
 49
-0.9
  0
LTYPE
  2
PLINE3
 70
   64
  3
------------   ---   -----------
 72
   65
 73
    4
 40
10
 49
7
 49
-1
 49
1
 49
-1
  0
LTYPE
  2
PLINE4
 70
   64
  3
---------   ---   ---   --------
 72
   65
 73
    6
 40
10
 49
5
 49
-1
 49
1
 49
-1
 49
1
 49
-1
  0
LTYPE
  2
PLINE5
 70
   64
  3
------     -----------     -----
 72
   65
 73
    2
 40
5
 49
3.5
 49
-1.5
  0
LTYPE
  2
PLINE6
 70
   64
  3
------------   ---   -----------
 72
   65
 73
    4
 40
15
 49
10.5
 49
-1.5
 49
1.5
 49
-1.5
  0
LTYPE
  2
PLINE7
 70
   64
  3
---------   ---   ---   --------
 72
   65
 73
    6
 40
15
 49
7.5
 49
-1.5
 49
1.5
 49
-1.5
 49
1.5
 49
-1.5
  0
LTYPE
  2
PLINE8
 70
   64
  3
------     -----------     -----
 72
   65
 73
    2
 40
7
 49
4.9000000000000004
 49
-2.1000000000000001
  0
LTYPE
  2
PLINE9
 70
   64
  3
------------   ---   -----------
 72
   65
 73
    4
 40
20
 49
14
 49
-2
 49
2
 49
-2
  0
LTYPE
  2
PLINE10
 70
   64
  3
---------   ---   ---   --------
 72
   65
 73
    6
 40
20
 49
10
 49
-2
 49
2
 49
-2
 49
2
 49
-2
  0
LTYPE
  2
PLINE11
 70
   64
  3
------     -----------     -----
 72
   65
 73
    2
 40
9
 49
6.2999999999999989
 49
-2.7000000000000002
  0
LTYPE
  2
PLINE12
 70
   64
  3
------------   ---   -----------
 72
   65
 73
    4
 40
25
 49
17.5
 49
-2.5
 49
2.5
 49
-2.5
  0
LTYPE
  2
PLINE13
 70
   64
  3
---------   ---   ---   --------
 72
   65
 73
    6
 40
25
 49
12.5
 49
-2.5
 49
2.5
 49
-2.5
 49
2.5
 49
-2.5
  0
LTYPE
  2
PLINE14
 70
   64
  3
------     -----------     -----
 72
   65
 73
    2
 40
11
 49
7.7000000000000002
 49
-3.2999999999999989
  0
LTYPE
  2
PLINE15
 70
   64
  3
------------   ---   -----------
 72
   65
 73
    4
 40
30
 49
21
 49
-3
 49
3
 49
-3
  0
LTYPE
  2
PLINE16
 70
   64
  3
---------   ---   ---   --------
 72
   65
 73
    6
 40
30
 49
15
 49
-3
 49
3
 49
-3
 49
3
 49
-3
  0
ENDTAB
  0
TABLE
  2
STYLE
  5
3
100
AcDbSymbolTable
 70
     1
  0
STYLE
  5
10
100
AcDbSymbolTableRecord
100
AcDbTextStyleTableRecord
  2
STANDARD
 70
     0
 40
0.0
 41
1.0
 50
0.0
 71
     0
 42
0.2
  3
txt
  4
bigfont.shx
  0
STYLE
  5
26
100
AcDbSymbolTableRecord
100
AcDbTextStyleTableRecord
  2
TATEGAKI
 70
    68
 40
0.0
 41
1.0
 50
0.0
 71
     0
 42
1.0
  3
txt
  4
bigfont.shx
  0
ENDTAB
  0
TABLE
  2
LAYER
 70
    4
  0
LAYER
  2
_0-2_寸法
 70
   64
 62
    7
  6
CONTINUOUS
  0
LAYER
  2
_0-3_躯体と製品
 70
   64
 62
    7
  6
CONTINUOUS
  0
LAYER
  2
_0-4_文字-記号
 70
   64
 62
    7
  6
CONTINUOUS
  0
LAYER
  2
ADD_LINE
 70
   64
 62
    7
  6
CONTINUOUS
  0
ENDTAB
  0
ENDSEC
  0
SECTION
  2
BLOCKS
  0
BLOCK
  2
-000-_Dot
 70
   64
 10
0
 20
0
 30
0
  0
CIRCLE
  8
_0-0_0
  6
CONTINUOUS
 62
    7
 10
0
 20
0
 40
0.125
  0
LINE
  8
_0-0_0
  6
CONTINUOUS
 62
    7
 10
0.125
 20
0
 11
-0.125
 21
0
  0
LINE
  8
_0-0_0
  6
CONTINUOUS
 62
    7
 10
-0.25
 20
0
 11
-0.5
 21
0
  0
ENDBLK
  0
BLOCK
  2
-001-_D4
 70
   64
 10
0
 20
0
 30
0
  0
LINE
  8
_0-2_寸法
  6
CONTINUOUS
 62
    4
 10
426.08282809401572
 20
-385.05747222612092
 11
426.08282809401572
 21
-370.91022222612082
  0
LINE
  8
_0-2_寸法
  6
CONTINUOUS
 62
    4
 10
461.08282809401572
 20
-385.05747222612092
 11
461.08282809401572
 21
-370.91022222612082
  0
LINE
  8
_0-2_寸法
  6
CONTINUOUS
 62
    4
 10
426.58282809401572
 20
-370.91022222612082
 11
460.58282809401572
 21
-370.91022222612082
  0
INSERT
  2
-000-_Dot
  8
_0-2_寸法
 10
426.08282809401572
 20
-370.91022222612082
 41
1
 42
1
 50
180
  0
INSERT
  2
-000-_Dot
  8
_0-2_寸法
 10
461.08282809401572
 20
-370.91022222612082
 41
1
 42
1
 50
0
  0
TEXT
  8
_0-2_寸法
 62
    7
 10
442.33282809401572
 20
-370.51022222612085
 40
2.5
 41
1
 50
0
  1
70
  0
POINT
  8
_0-1_Defpoints
 62
    7
 10
426.08282809401572
 20
-385.05747222612092
  0
POINT
  8
_0-1_Defpoints
 62
    7
 10
461.08282809401572
 20
-385.05747222612092
  0
POINT
  8
_0-1_Defpoints
 62
    7
 10
461.08282809401572
 20
-370.91022222612082
  0
ENDBLK
  0
BLOCK
  2
-002-_D5
 70
   64
 10
0
 20
0
 30
0
  0
LINE
  8
_0-2_寸法
  6
CONTINUOUS
 62
    4
 10
424.00204759401566
 20
-386.85065222612093
 11
408.25546509401573
 21
-386.85065222612093
  0
LINE
  8
_0-2_寸法
  6
CONTINUOUS
 62
    4
 10
424.00204759401566
 20
-411.85065222612093
 11
408.25546509401573
 21
-411.85065222612093
  0
LINE
  8
_0-2_寸法
  6
CONTINUOUS
 62
    4
 10
408.25546509401573
 20
-387.35065222612093
 11
408.25546509401573
 21
-411.35065222612093
  0
INSERT
  2
-000-_Dot
  8
_0-2_寸法
 10
408.25546509401573
 20
-386.85065222612093
 41
1
 42
1
 50
90
  0
INSERT
  2
-000-_Dot
  8
_0-2_寸法
 10
408.25546509401573
 20
-411.85065222612093
 41
1
 42
1
 50
270
  0
TEXT
  8
_0-2_寸法
 62
    7
 10
407.85546509401587
 20
-400.60065222612081
 40
2.5
 41
1
 50
90
  1
50
  0
POINT
  8
_0-1_Defpoints
 62
    7
 10
424.00204759401566
 20
-386.85065222612093
  0
POINT
  8
_0-1_Defpoints
 62
    7
 10
424.00204759401566
 20
-411.85065222612093
  0
POINT
  8
_0-1_Defpoints
 62
    7
 10
408.25546509401573
 20
-411.85065222612093
  0
ENDBLK
  0
BLOCK
  2
-003-_D6
 70
   64
 10
0
 20
0
 30
0
  0
LINE
  8
_0-2_寸法
  6
CONTINUOUS
 62
    4
 10
421.08283209401571
 20
-577.96107222612045
 11
421.08283209401571
 21
-592.90842472612053
  0
LINE
  8
_0-2_寸法
  6
CONTINUOUS
 62
    4
 10
466.08282809401572
 20
-577.96107222612045
 11
466.08282809401572
 21
-592.90842472612053
  0
LINE
  8
_0-2_寸法
  6
CONTINUOUS
 62
    4
 10
421.58283209401571
 20
-592.90842472612053
 11
465.58282809401567
 21
-592.90842472612053
  0
INSERT
  2
-000-_Dot
  8
_0-2_寸法
 10
421.08283209401571
 20
-592.90842472612053
 41
1
 42
1
 50
180
  0
INSERT
  2
-000-_Dot
  8
_0-2_寸法
 10
466.08282809401572
 20
-592.90842472612053
 41
1
 42
1
 50
0
  0
TEXT
  8
_0-2_寸法
 62
    7
 10
442.33283009401572
 20
-592.50842472612055
 40
2.5
 41
1
 50
0
  1
90
  0
POINT
  8
_0-1_Defpoints
 62
    7
 10
421.08283209401571
 20
-577.96107222612045
  0
POINT
  8
_0-1_Defpoints
 62
    7
 10
466.08282809401572
 20
-577.96107222612045
  0
POINT
  8
_0-1_Defpoints
 62
    7
 10
466.08282809401572
 20
-592.90842472612053
  0
ENDBLK
  0
BLOCK
  2
-004-_D7
 70
   64
 10
0
 20
0
 30
0
  0
LINE
  8
_0-2_寸法
  6
CONTINUOUS
 62
    4
 10
518.47386809401553
 20
-385.53135222612093
 11
518.47386809401553
 21
-370.91022222612082
  0
LINE
  8
_0-2_寸法
  6
CONTINUOUS
 62
    4
 10
562.97386809401553
 20
-406.18008222612087
 11
562.97386809401553
 21
-370.91022222612082
  0
LINE
  8
_0-2_寸法
  6
CONTINUOUS
 62
    4
 10
518.97386809401553
 20
-370.91022222612082
 11
562.47386809401553
 21
-370.91022222612082
  0
INSERT
  2
-000-_Dot
  8
_0-2_寸法
 10
518.47386809401553
 20
-370.91022222612082
 41
1
 42
1
 50
180
  0
INSERT
  2
-000-_Dot
  8
_0-2_寸法
 10
562.97386809401553
 20
-370.91022222612082
 41
1
 42
1
 50
0
  0
TEXT
  8
_0-2_寸法
 62
    7
 10
539.47386809401553
 20
-370.51022222612085
 40
2.5
 41
1
 50
0
  1
89
  0
POINT
  8
_0-1_Defpoints
 62
    7
 10
518.47386809401553
 20
-385.53135222612093
  0
POINT
  8
_0-1_Defpoints
 62
    7
 10
562.97386809401553
 20
-406.18008222612087
  0
POINT
  8
_0-1_Defpoints
 62
    7
 10
562.97386809401553
 20
-370.91022222612082
  0
ENDBLK
  0
BLOCK
  2
-005-_D8
 70
   64
 10
0
 20
0
 30
0
  0
LINE
  8
_0-2_寸法
  6
CONTINUOUS
 62
    4
 10
565.05971809401547
 20
-410.20065222612095
 11
589.70527309401552
 21
-410.20065222612095
  0
LINE
  8
_0-2_寸法
  6
CONTINUOUS
 62
    4
 10
565.05971809401547
 20
-575.43120722612048
 11
589.70527309401552
 21
-575.43120722612048
  0
LINE
  8
_0-2_寸法
  6
CONTINUOUS
 62
    4
 10
589.70527309401552
 20
-410.70065222612095
 11
589.70527309401552
 21
-574.93120722612048
  0
INSERT
  2
-000-_Dot
  8
_0-2_寸法
 10
589.70527309401552
 20
-410.20065222612095
 41
1
 42
1
 50
90
  0
INSERT
  2
-000-_Dot
  8
_0-2_寸法
 10
589.70527309401552
 20
-575.43120722612048
 41
1
 42
1
 50
270
  0
TEXT
  8
_0-2_寸法
 62
    7
 10
589.30527309401555
 20
-505.94092972612088
 40
2.5
 41
1
 50
90
  1
適応高さ：130～1190mm
  0
POINT
  8
_0-1_Defpoints
 62
    7
 10
565.05971809401547
 20
-410.20065222612095
  0
POINT
  8
_0-1_Defpoints
 62
    7
 10
565.05971809401547
 20
-575.43120722612048
  0
POINT
  8
_0-1_Defpoints
 62
    7
 10
589.70527309401552
 20
-575.43120722612048
  0
ENDBLK
  0
BLOCK
  2
-006-_D9
 70
   64
 10
0
 20
0
 30
0
  0
LINE
  8
_0-2_寸法
  6
CONTINUOUS
 62
    4
 10
675.95963309401554
 20
-410.17315722612091
 11
675.95963309401554
 21
-395.39822222612082
  0
LINE
  8
_0-2_寸法
  6
CONTINUOUS
 62
    4
 10
720.45963309401554
 20
-410.17315722612091
 11
720.45963309401554
 21
-395.39822222612082
  0
LINE
  8
_0-2_寸法
  6
CONTINUOUS
 62
    4
 10
676.45963309401554
 20
-395.39822222612082
 11
719.95963309401554
 21
-395.39822222612082
  0
INSERT
  2
-000-_Dot
  8
_0-2_寸法
 10
675.95963309401554
 20
-395.39822222612082
 41
1
 42
1
 50
180
  0
INSERT
  2
-000-_Dot
  8
_0-2_寸法
 10
720.45963309401554
 20
-395.39822222612082
 41
1
 42
1
 50
0
  0
TEXT
  8
_0-2_寸法
 62
    7
 10
696.95963309401554
 20
-394.9982222261209
 40
2.5
 41
1
 50
0
  1
89
  0
POINT
  8
_0-1_Defpoints
 62
    7
 10
675.95963309401554
 20
-410.17315722612091
  0
POINT
  8
_0-1_Defpoints
 62
    7
 10
720.45963309401554
 20
-410.17315722612091
  0
POINT
  8
_0-1_Defpoints
 62
    7
 10
720.45963309401554
 20
-395.39822222612082
  0
ENDBLK
  0
BLOCK
  2
-007-_D10
 70
   64
 10
0
 20
0
 30
0
  0
LINE
  8
_0-2_寸法
  6
CONTINUOUS
 62
    4
 10
672.08404309401556
 20
-411.61807222612089
 11
652.75055309401546
 21
-411.61807222612089
  0
LINE
  8
_0-2_寸法
  6
CONTINUOUS
 62
    4
 10
672.08404309401556
 20
-446.61807222612083
 11
652.75055309401546
 21
-446.61807222612083
  0
LINE
  8
_0-2_寸法
  6
CONTINUOUS
 62
    4
 10
652.75055309401546
 20
-412.11807222612083
 11
652.75055309401546
 21
-446.11807222612083
  0
INSERT
  2
-000-_Dot
  8
_0-2_寸法
 10
652.75055309401546
 20
-411.61807222612089
 41
1
 42
1
 50
90
  0
INSERT
  2
-000-_Dot
  8
_0-2_寸法
 10
652.75055309401546
 20
-446.61807222612083
 41
1
 42
1
 50
270
  0
TEXT
  8
_0-2_寸法
 62
    7
 10
652.35055309401548
 20
-430.36807222612077
 40
2.5
 41
1
 50
90
  1
70
  0
POINT
  8
_0-1_Defpoints
 62
    7
 10
672.08404309401556
 20
-411.61807222612089
  0
POINT
  8
_0-1_Defpoints
 62
    7
 10
672.08404309401556
 20
-446.61807222612083
  0
POINT
  8
_0-1_Defpoints
 62
    7
 10
652.75055309401546
 20
-446.61807222612083
  0
ENDBLK
  0
BLOCK
  2
-008-_D11
 70
   64
 10
0
 20
0
 30
0
  0
LINE
  8
_0-2_寸法
  6
CONTINUOUS
 62
    4
 10
675.95963309401554
 20
-518.90160222612053
 11
675.95963309401554
 21
-502.83993722612053
  0
LINE
  8
_0-2_寸法
  6
CONTINUOUS
 62
    4
 10
720.95963309401554
 20
-518.90160222612053
 11
720.95963309401554
 21
-502.83993722612053
  0
LINE
  8
_0-2_寸法
  6
CONTINUOUS
 62
    4
 10
676.45963309401554
 20
-502.83993722612053
 11
720.45963309401554
 21
-502.83993722612053
  0
INSERT
  2
-000-_Dot
  8
_0-2_寸法
 10
675.95963309401554
 20
-502.83993722612053
 41
1
 42
1
 50
180
  0
INSERT
  2
-000-_Dot
  8
_0-2_寸法
 10
720.95963309401554
 20
-502.83993722612053
 41
1
 42
1
 50
0
  0
TEXT
  8
_0-2_寸法
 62
    7
 10
697.20963309401554
 20
-502.439937226121
 40
2.5
 41
1
 50
0
  1
90
  0
POINT
  8
_0-1_Defpoints
 62
    7
 10
675.95963309401554
 20
-518.90160222612053
  0
POINT
  8
_0-1_Defpoints
 62
    7
 10
720.95963309401554
 20
-518.90160222612053
  0
POINT
  8
_0-1_Defpoints
 62
    7
 10
720.95963309401554
 20
-502.83993722612053
  0
ENDBLK
  0
BLOCK
  2
-009-_D12
 70
   64
 10
0
 20
0
 30
0
  0
LINE
  8
_0-2_寸法
  6
CONTINUOUS
 62
    4
 10
674.10748309401549
 20
-520.6581422261205
 11
658.59264309401544
 21
-520.6581422261205
  0
LINE
  8
_0-2_寸法
  6
CONTINUOUS
 62
    4
 10
674.10748309401549
 20
-565.6581422261205
 11
658.59264309401544
 21
-565.6581422261205
  0
LINE
  8
_0-2_寸法
  6
CONTINUOUS
 62
    4
 10
658.59264309401544
 20
-521.1581422261205
 11
658.59264309401544
 21
-565.1581422261205
  0
INSERT
  2
-000-_Dot
  8
_0-2_寸法
 10
658.59264309401544
 20
-520.6581422261205
 41
1
 42
1
 50
90
  0
INSERT
  2
-000-_Dot
  8
_0-2_寸法
 10
658.59264309401544
 20
-565.6581422261205
 41
1
 42
1
 50
270
  0
TEXT
  8
_0-2_寸法
 62
    7
 10
658.19264309401547
 20
-544.4081422261205
 40
2.5
 41
1
 50
90
  1
90
  0
POINT
  8
_0-1_Defpoints
 62
    7
 10
674.10748309401549
 20
-520.6581422261205
  0
POINT
  8
_0-1_Defpoints
 62
    7
 10
674.10748309401549
 20
-565.6581422261205
  0
POINT
  8
_0-1_Defpoints
 62
    7
 10
658.59264309401544
 20
-565.6581422261205
  0
ENDBLK
  0
ENDSEC
  0
SECTION
  2
ENTITIES
  0
TEXT
  8
_0-4_文字-記号
 62
    7
 10
234.70474512736564
 20
326.79585114499901
 40
5
 41
0.8
 50
0
  1
ゴムシート　t=1
  0
TEXT
  8
_0-4_文字-記号
 62
    7
 10
12.318485127365989
 20
135.63364114499905
 40
5
 41
0.8
 50
0
  1
ターンバックル
  0
LINE
  8
_0-4_文字-記号
  6
CONTINUOUS
 62
    4
 10
-16.224144872633929
 20
109.37349114499978
 11
0.4910251273660151
 21
138.32501114499905
  0
LINE
  8
_0-3_躯体と製品
  6
CONTINUOUS
 62
    2
 10
-34.658394872633949
 20
204.96297114499896
 11
-34.658394872633949
 21
43.08853114499982
  0
LINE
  8
_0-3_躯体と製品
  6
CONTINUOUS
 62
    2
 10
-24.658394872633949
 20
204.96297114499896
 11
-24.658394872633949
 21
43.08853114499982
  0
LINE
  8
_0-3_躯体と製品
  6
CONTINUOUS
 62
    2
 10
-39.158394872634062
 20
204.02575114499916
 11
-39.158394872634062
 21
44.025751144999845
  0
LINE
  8
_0-3_躯体と製品
  6
CONTINUOUS
 62
    2
 10
-20.158394872633949
 20
204.02575114499916
 11
-20.158394872633949
 21
44.025751144999845
  0
LINE
  8
_0-3_躯体と製品
  6
CONTINUOUS
 62
    2
 10
160.12368512736566
 20
204.96297114499896
 11
160.12368512736566
 21
43.08853114499982
  0
LINE
  8
_0-3_躯体と製品
  6
CONTINUOUS
 62
    2
 10
170.12368512736566
 20
204.96297114499896
 11
170.12368512736566
 21
43.08853114499982
  0
LINE
  8
_0-3_躯体と製品
  6
CONTINUOUS
 62
    2
 10
155.62368512736566
 20
204.02575114499916
 11
155.62368512736566
 21
44.025751144999845
  0
LINE
  8
_0-3_躯体と製品
  6
CONTINUOUS
 62
    2
 10
174.62368512736566
 20
204.02575114499916
 11
174.62368512736566
 21
44.025751144999845
  0
LINE
  8
_0-3_躯体と製品
  6
CONTINUOUS
 62
    2
 10
15.341605127366051
 20
-38.904808855000169
 11
-74.658386872633969
 21
-38.904808855000169
  0
LINE
  8
_0-3_躯体と製品
  6
CONTINUOUS
 62
    2
 10
15.341605127366051
 20
-41.204808855000124
 11
-74.658386872633969
 21
-41.204808855000124
  0
LINE
  8
_0-3_躯体と製品
  6
CONTINUOUS
 62
    2
 10
5.3416051273660514
 20
-38.904808855000169
 11
-64.658394872633949
 21
-38.904808855000169
  0
LINE
  8
_0-3_躯体と製品
  6
CONTINUOUS
 62
    4
 10
-26.483494872633969
 20
-41.204808855000124
 11
-3.7208948726339486
 21
-41.204808855000124
  0
ARC
  8
_0-3_躯体と製品
  6
CONTINUOUS
 62
    2
 10
-36.948414872633862
 20
42.025751144999845
 40
2
 50
90
 51
185.71059000000372
  0
ARC
  8
_0-3_躯体と製品
  6
CONTINUOUS
 62
    2
 10
-22.368364872633947
 20
42.025751144999845
 40
2
 50
354.28940000000199
 51
90.000000000000014
  0
LINE
  8
_0-3_躯体と製品
  6
CONTINUOUS
 62
    2
 10
-74.658386872633969
 20
-41.204808855000124
 11
-74.658386872633969
 21
-38.904808855000169
  0
ARC
  8
_0-3_躯体と製品
  6
CONTINUOUS
 62
    2
 10
-25.658394872633949
 20
-1.4048088550001694
 40
2
 50
270
 51
0
  0
ARC
  8
_0-3_躯体と製品
  6
CONTINUOUS
 62
    2
 10
-33.658394872633949
 20
-1.4048088550001694
 40
2
 50
180
 51
270
  0
ARC
  8
_0-3_躯体と製品
  6
CONTINUOUS
 62
    2
 10
-37.658394872633949
 20
-1.4048088550001694
 40
2
 50
270
 51
0
  0
ARC
  8
_0-3_躯体と製品
  6
CONTINUOUS
 62
    2
 10
-21.658394872633949
 20
-1.4048088550001694
 40
2
 50
180
 51
270
  0
ARC
  8
_0-3_躯体と製品
  6
CONTINUOUS
 62
    2
 10
-38.958394872634017
 20
-1.9048088550001694
 40
1.5
 50
180
 51
270
  0
ARC
  8
_0-3_躯体と製品
  6
CONTINUOUS
 62
    2
 10
-20.358394872633767
 20
-1.9048088550001694
 40
1.5
 50
270
 51
0
  0
ARC
  8
_0-3_躯体と製品
  6
CONTINUOUS
 62
    2
 10
-38.721374872633987
 20
-44.404808855000169
 40
10
 50
90
 51
122.73522000000121
  0
LINE
  8
_0-3_躯体と製品
  6
CONTINUOUS
 62
    2
 10
-44.128944872634065
 20
-35.993018855000059
 11
-48.658394872633949
 21
-38.904808855000169
  0
LINE
  8
_0-3_躯体と製品
  6
CONTINUOUS
 62
    4
 10
-24.658394872633949
 20
-25.654808855000169
 11
-23.658394872633949
 21
-24.779808855000169
  0
LINE
  8
_0-3_躯体と製品
  6
CONTINUOUS
 62
    4
 10
-35.658394872634062
 20
-25.654808855000169
 11
-23.658394872633949
 21
-24.779808855000169
  0
LINE
  8
_0-3_躯体と製品
  6
CONTINUOUS
 62
    4
 10
-35.658394872634062
 20
-25.654808855000169
 11
-34.658394872633949
 21
-24.779808855000169
  0
LINE
  8
_0-3_躯体と製品
  6
CONTINUOUS
 62
    4
 10
-24.658394872633949
 20
-27.404808855000169
 11
-23.658394872633949
 21
-26.529808855000169
  0
LINE
  8
_0-3_躯体と製品
  6
CONTINUOUS
 62
    4
 10
-23.658394872633949
 20
-26.529808855000169
 11
-24.658394872633949
 21
-25.654808855000169
  0
LINE
  8
_0-3_躯体と製品
  6
CONTINUOUS
 62
    4
 10
-35.658394872634062
 20
-27.404808855000169
 11
-23.658394872633949
 21
-26.529808855000169
  0
LINE
  8
_0-3_躯体と製品
  6
CONTINUOUS
 62
    4
 10
-24.658394872633949
 20
-29.154808855000169
 11
-23.658394872633949
 21
-28.279808855000169
  0
LINE
  8
_0-3_躯体と製品
  6
CONTINUOUS
 62
    4
 10
-23.658394872633949
 20
-28.279808855000169
 11
-24.658394872633949
 21
-27.404808855000169
  0
LINE
  8
_0-3_躯体と製品
  6
CONTINUOUS
 62
    4
 10
-35.658394872634062
 20
-29.154808855000169
 11
-23.658394872633949
 21
-28.279808855000169
  0
LINE
  8
_0-3_躯体と製品
  6
CONTINUOUS
 62
    4
 10
-24.658394872633949
 20
-30.904808855000169
 11
-23.658394872633949
 21
-30.029808855000169
  0
LINE
  8
_0-3_躯体と製品
  6
CONTINUOUS
 62
    4
 10
-23.658394872633949
 20
-30.029808855000169
 11
-24.658394872633949
 21
-29.154808855000169
  0
LINE
  8
_0-3_躯体と製品
  6
CONTINUOUS
 62
    4
 10
-35.658394872634062
 20
-30.904808855000169
 11
-23.658394872633949
 21
-30.029808855000169
  0
LINE
  8
_0-3_躯体と製品
  6
CONTINUOUS
 62
    4
 10
-35.658394872634062
 20
-34.404808855000169
 11
-23.658394872633949
 21
-33.529808855000169
  0
LINE
  8
_0-3_躯体と製品
  6
CONTINUOUS
 62
    4
 10
-35.658394872634062
 20
-32.654808855000169
 11
-23.658394872633949
 21
-31.779808855000169
  0
LINE
  8
_0-3_躯体と製品
  6
CONTINUOUS
 62
    4
 10
-23.658394872633949
 20
-31.779808855000169
 11
-24.658394872633949
 21
-30.904808855000169
  0
LINE
  8
_0-3_躯体と製品
  6
CONTINUOUS
 62
    4
 10
-24.658394872633949
 20
-32.654808855000169
 11
-23.658394872633949
 21
-31.779808855000169
  0
LINE
  8
_0-3_躯体と製品
  6
CONTINUOUS
 62
    4
 10
-23.658394872633949
 20
-33.529808855000169
 11
-24.658394872633949
 21
-32.654808855000169
  0
LINE
  8
_0-3_躯体と製品
  6
CONTINUOUS
 62
    4
 10
-23.658394872633949
 20
-33.529808855000169
 11
-24.658394872633949
 21
-34.404808855000169
  0
LINE
  8
_0-3_躯体と製品
  6
CONTINUOUS
 62
    2
 10
-38.721374872633987
 20
-34.404808855000169
 11
-20.595404872634049
 21
-34.404808855000169
  0
LINE
  8
_0-3_躯体と製品
  6
CONTINUOUS
 62
    4
 10
-34.658394872633949
 20
-26.529808855000169
 11
-24.658394872633949
 21
-25.654808855000169
  0
LINE
  8
_0-3_躯体と製品
  6
CONTINUOUS
 62
    4
 10
-34.658394872633949
 20
-28.279808855000169
 11
-24.658394872633949
 21
-27.404808855000169
  0
LINE
  8
_0-3_躯体と製品
  6
CONTINUOUS
 62
    4
 10
-34.658394872633949
 20
-30.029808855000169
 11
-24.658394872633949
 21
-29.154808855000169
  0
LINE
  8
_0-3_躯体と製品
  6
CONTINUOUS
 62
    4
 10
-34.658394872633949
 20
-31.779808855000169
 11
-24.658394872633949
 21
-30.904808855000169
  0
LINE
  8
_0-3_躯体と製品
  6
CONTINUOUS
 62
    4
 10
-34.658394872633949
 20
-33.529808855000169
 11
-24.658394872633949
 21
-32.654808855000169
  0
LINE
  8
_0-3_躯体と製品
  6
CONTINUOUS
 62
    4
 10
-35.658394872634062
 20
-25.654808855000169
 11
-34.658394872633949
 21
-26.529808855000169
  0
LINE
  8
_0-3_躯体と製品
  6
CONTINUOUS
 62
    4
 10
-35.658394872634062
 20
-27.404808855000169
 11
-34.658394872633949
 21
-28.279808855000169
  0
LINE
  8
_0-3_躯体と製品
  6
CONTINUOUS
 62
    4
 10
-35.658394872634062
 20
-27.404808855000169
 11
-34.658394872633949
 21
-26.529808855000169
  0
LINE
  8
_0-3_躯体と製品
  6
CONTINUOUS
 62
    4
 10
-35.658394872634062
 20
-29.154808855000169
 11
-34.658394872633949
 21
-30.029808855000169
  0
LINE
  8
_0-3_躯体と製品
  6
CONTINUOUS
 62
    4
 10
-35.658394872634062
 20
-29.154808855000169
 11
-34.658394872633949
 21
-28.279808855000169
  0
LINE
  8
_0-3_躯体と製品
  6
CONTINUOUS
 62
    4
 10
-35.658394872634062
 20
-30.904808855000169
 11
-34.658394872633949
 21
-31.779808855000169
  0
LINE
  8
_0-3_躯体と製品
  6
CONTINUOUS
 62
    4
 10
-35.658394872634062
 20
-30.904808855000169
 11
-34.658394872633949
 21
-30.029808855000169
  0
LINE
  8
_0-3_躯体と製品
  6
CONTINUOUS
 62
    4
 10
-34.658394872633949
 20
-33.529808855000169
 11
-35.658394872634062
 21
-34.404808855000169
  0
LINE
  8
_0-3_躯体と製品
  6
CONTINUOUS
 62
    4
 10
-35.658394872634062
 20
-32.654808855000169
 11
-34.658394872633949
 21
-33.529808855000169
  0
LINE
  8
_0-3_躯体と製品
  6
CONTINUOUS
 62
    4
 10
-35.658394872634062
 20
-32.654808855000169
 11
-34.658394872633949
 21
-31.779808855000169
  0
LINE
  8
_0-3_躯体と製品
  6
CONTINUOUS
 62
    2
 10
-15.187834872633971
 20
-35.993018855000059
 11
-10.658394872634062
 21
-38.904808855000169
  0
ARC
  8
_0-3_躯体と製品
  6
CONTINUOUS
 62
    2
 10
-20.595404872634049
 20
-44.404808855000169
 40
10
 50
57.264772999999337
 51
90
  0
LINE
  8
_0-3_躯体と製品
  6
CONTINUOUS
 62
    4
 10
-23.658394872633949
 20
-3.7798088550001694
 11
-24.086964872633757
 21
-3.4048088550001694
  0
LINE
  8
_0-3_躯体と製品
  6
CONTINUOUS
 62
    4
 10
-24.658394872633949
 20
-4.6548088550001694
 11
-23.658394872633949
 21
-3.7798088550001694
  0
LINE
  8
_0-3_躯体と製品
  6
CONTINUOUS
 62
    4
 10
-35.658394872634062
 20
-4.6548088550001694
 11
-23.658394872633949
 21
-3.7798088550001694
  0
LINE
  8
_0-3_躯体と製品
  6
CONTINUOUS
 62
    4
 10
-24.658394872633949
 20
-6.4048088550001694
 11
-23.658394872633949
 21
-5.5298088550001694
  0
LINE
  8
_0-3_躯体と製品
  6
CONTINUOUS
 62
    4
 10
-23.658394872633949
 20
-5.5298088550001694
 11
-24.658394872633949
 21
-4.6548088550001694
  0
LINE
  8
_0-3_躯体と製品
  6
CONTINUOUS
 62
    4
 10
-35.658394872634062
 20
-6.4048088550001694
 11
-23.658394872633949
 21
-5.5298088550001694
  0
LINE
  8
_0-3_躯体と製品
  6
CONTINUOUS
 62
    4
 10
-24.658394872633949
 20
-8.1548088550001694
 11
-23.658394872633949
 21
-7.2798088550001694
  0
LINE
  8
_0-3_躯体と製品
  6
CONTINUOUS
 62
    4
 10
-23.658394872633949
 20
-7.2798088550001694
 11
-24.658394872633949
 21
-6.4048088550001694
  0
LINE
  8
_0-3_躯体と製品
  6
CONTINUOUS
 62
    4
 10
-35.658394872634062
 20
-8.1548088550001694
 11
-23.658394872633949
 21
-7.2798088550001694
  0
LINE
  8
_0-3_躯体と製品
  6
CONTINUOUS
 62
    4
 10
-24.658394872633949
 20
-9.9048088550001694
 11
-23.658394872633949
 21
-9.0298088550001694
  0
LINE
  8
_0-3_躯体と製品
  6
CONTINUOUS
 62
    4
 10
-23.658394872633949
 20
-9.0298088550001694
 11
-24.658394872633949
 21
-8.1548088550001694
  0
LINE
  8
_0-3_躯体と製品
  6
CONTINUOUS
 62
    4
 10
-35.658394872634062
 20
-9.9048088550001694
 11
-23.658394872633949
 21
-9.0298088550001694
  0
LINE
  8
_0-3_躯体と製品
  6
CONTINUOUS
 62
    4
 10
-24.658394872633949
 20
-11.654808855000169
 11
-23.658394872633949
 21
-10.779808855000169
  0
LINE
  8
_0-3_躯体と製品
  6
CONTINUOUS
 62
    4
 10
-23.658394872633949
 20
-10.779808855000169
 11
-24.658394872633949
 21
-9.9048088550001694
  0
LINE
  8
_0-3_躯体と製品
  6
CONTINUOUS
 62
    4
 10
-35.658394872634062
 20
-11.654808855000169
 11
-23.658394872633949
 21
-10.779808855000169
  0
LINE
  8
_0-3_躯体と製品
  6
CONTINUOUS
 62
    4
 10
-24.658394872633949
 20
-13.404808855000169
 11
-23.658394872633949
 21
-12.529808855000169
  0
LINE
  8
_0-3_躯体と製品
  6
CONTINUOUS
 62
    4
 10
-23.658394872633949
 20
-12.529808855000169
 11
-24.658394872633949
 21
-11.654808855000169
  0
LINE
  8
_0-3_躯体と製品
  6
CONTINUOUS
 62
    4
 10
-35.658394872634062
 20
-13.404808855000169
 11
-23.658394872633949
 21
-12.529808855000169
  0
LINE
  8
_0-3_躯体と製品
  6
CONTINUOUS
 62
    4
 10
-24.658394872633949
 20
-15.154808855000169
 11
-23.658394872633949
 21
-14.279808855000169
  0
LINE
  8
_0-3_躯体と製品
  6
CONTINUOUS
 62
    4
 10
-23.658394872633949
 20
-14.279808855000169
 11
-24.658394872633949
 21
-13.404808855000169
  0
LINE
  8
_0-3_躯体と製品
  6
CONTINUOUS
 62
    4
 10
-35.658394872634062
 20
-15.154808855000169
 11
-23.658394872633949
 21
-14.279808855000169
  0
LINE
  8
_0-3_躯体と製品
  6
CONTINUOUS
 62
    4
 10
-24.658394872633949
 20
-16.904808855000169
 11
-23.658394872633949
 21
-16.029808855000169
  0
LINE
  8
_0-3_躯体と製品
  6
CONTINUOUS
 62
    4
 10
-23.658394872633949
 20
-16.029808855000169
 11
-24.658394872633949
 21
-15.154808855000169
  0
LINE
  8
_0-3_躯体と製品
  6
CONTINUOUS
 62
    4
 10
-35.658394872634062
 20
-16.904808855000169
 11
-23.658394872633949
 21
-16.029808855000169
  0
LINE
  8
_0-3_躯体と製品
  6
CONTINUOUS
 62
    4
 10
-24.658394872633949
 20
-18.654808855000169
 11
-23.658394872633949
 21
-17.779808855000169
  0
LINE
  8
_0-3_躯体と製品
  6
CONTINUOUS
 62
    4
 10
-23.658394872633949
 20
-17.779808855000169
 11
-24.658394872633949
 21
-16.904808855000169
  0
LINE
  8
_0-3_躯体と製品
  6
CONTINUOUS
 62
    4
 10
-35.658394872634062
 20
-18.654808855000169
 11
-23.658394872633949
 21
-17.779808855000169
  0
LINE
  8
_0-3_躯体と製品
  6
CONTINUOUS
 62
    4
 10
-24.658394872633949
 20
-20.404808855000169
 11
-23.658394872633949
 21
-19.529808855000169
  0
LINE
  8
_0-3_躯体と製品
  6
CONTINUOUS
 62
    4
 10
-23.658394872633949
 20
-19.529808855000169
 11
-24.658394872633949
 21
-18.654808855000169
  0
LINE
  8
_0-3_躯体と製品
  6
CONTINUOUS
 62
    4
 10
-35.658394872634062
 20
-20.404808855000169
 11
-23.658394872633949
 21
-19.529808855000169
  0
LINE
  8
_0-3_躯体と製品
  6
CONTINUOUS
 62
    4
 10
-24.658394872633949
 20
-22.154808855000169
 11
-23.658394872633949
 21
-21.279808855000169
  0
LINE
  8
_0-3_躯体と製品
  6
CONTINUOUS
 62
    4
 10
-23.658394872633949
 20
-21.279808855000169
 11
-24.658394872633949
 21
-20.404808855000169
  0
LINE
  8
_0-3_躯体と製品
  6
CONTINUOUS
 62
    4
 10
-35.658394872634062
 20
-22.154808855000169
 11
-23.658394872633949
 21
-21.279808855000169
  0
LINE
  8
_0-3_躯体と製品
  6
CONTINUOUS
 62
    4
 10
-24.658394872633949
 20
-23.904808855000169
 11
-23.658394872633949
 21
-23.029808855000169
  0
LINE
  8
_0-3_躯体と製品
  6
CONTINUOUS
 62
    4
 10
-23.658394872633949
 20
-23.029808855000169
 11
-24.658394872633949
 21
-22.154808855000169
  0
LINE
  8
_0-3_躯体と製品
  6
CONTINUOUS
 62
    4
 10
-35.658394872634062
 20
-23.904808855000169
 11
-23.658394872633949
 21
-23.029808855000169
  0
LINE
  8
_0-3_躯体と製品
  6
CONTINUOUS
 62
    4
 10
-23.658394872633949
 20
-24.779808855000169
 11
-24.658394872633949
 21
-23.904808855000169
  0
LINE
  8
_0-3_躯体と製品
  6
CONTINUOUS
 62
    2
 10
-37.658394872633949
 20
-3.4048088550001694
 11
-21.658394872633949
 21
-3.4048088550001694
  0
LINE
  8
_0-3_躯体と製品
  6
CONTINUOUS
 62
    4
 10
-34.658394872633949
 20
-14.279808855000169
 11
-24.658394872633949
 21
-13.404808855000169
  0
LINE
  8
_0-3_躯体と製品
  6
CONTINUOUS
 62
    4
 10
-35.658394872634062
 20
-13.404808855000169
 11
-34.658394872633949
 21
-14.279808855000169
  0
LINE
  8
_0-3_躯体と製品
  6
CONTINUOUS
 62
    4
 10
-34.658394872633949
 20
-16.029808855000169
 11
-24.658394872633949
 21
-15.154808855000169
  0
LINE
  8
_0-3_躯体と製品
  6
CONTINUOUS
 62
    4
 10
-34.658394872633949
 20
-17.779808855000169
 11
-24.658394872633949
 21
-16.904808855000169
  0
LINE
  8
_0-3_躯体と製品
  6
CONTINUOUS
 62
    4
 10
-34.658394872633949
 20
-19.529808855000169
 11
-24.658394872633949
 21
-18.654808855000169
  0
LINE
  8
_0-3_躯体と製品
  6
CONTINUOUS
 62
    4
 10
-34.658394872633949
 20
-21.279808855000169
 11
-24.658394872633949
 21
-20.404808855000169
  0
LINE
  8
_0-3_躯体と製品
  6
CONTINUOUS
 62
    4
 10
-34.658394872633949
 20
-23.029808855000169
 11
-24.658394872633949
 21
-22.154808855000169
  0
LINE
  8
_0-3_躯体と製品
  6
CONTINUOUS
 62
    4
 10
-34.658394872633949
 20
-24.779808855000169
 11
-24.658394872633949
 21
-23.904808855000169
  0
LINE
  8
_0-3_躯体と製品
  6
CONTINUOUS
 62
    4
 10
-35.658394872634062
 20
-15.154808855000169
 11
-34.658394872633949
 21
-16.029808855000169
  0
LINE
  8
_0-3_躯体と製品
  6
CONTINUOUS
 62
    4
 10
-35.658394872634062
 20
-15.154808855000169
 11
-34.658394872633949
 21
-14.279808855000169
  0
LINE
  8
_0-3_躯体と製品
  6
CONTINUOUS
 62
    4
 10
-35.658394872634062
 20
-16.904808855000169
 11
-34.658394872633949
 21
-17.779808855000169
  0
LINE
  8
_0-3_躯体と製品
  6
CONTINUOUS
 62
    4
 10
-35.658394872634062
 20
-16.904808855000169
 11
-34.658394872633949
 21
-16.029808855000169
  0
LINE
  8
_0-3_躯体と製品
  6
CONTINUOUS
 62
    4
 10
-35.658394872634062
 20
-18.654808855000169
 11
-34.658394872633949
 21
-19.529808855000169
  0
LINE
  8
_0-3_躯体と製品
  6
CONTINUOUS
 62
    4
 10
-35.658394872634062
 20
-18.654808855000169
 11
-34.658394872633949
 21
-17.779808855000169
  0
LINE
  8
_0-3_躯体と製品
  6
CONTINUOUS
 62
    4
 10
-35.658394872634062
 20
-20.404808855000169
 11
-34.658394872633949
 21
-21.279808855000169
  0
LINE
  8
_0-3_躯体と製品
  6
CONTINUOUS
 62
    4
 10
-35.658394872634062
 20
-20.404808855000169
 11
-34.658394872633949
 21
-19.529808855000169
  0
LINE
  8
_0-3_躯体と製品
  6
CONTINUOUS
 62
    4
 10
-35.658394872634062
 20
-22.154808855000169
 11
-34.658394872633949
 21
-23.029808855000169
  0
LINE
  8
_0-3_躯体と製品
  6
CONTINUOUS
 62
    4
 10
-35.658394872634062
 20
-22.154808855000169
 11
-34.658394872633949
 21
-21.279808855000169
  0
LINE
  8
_0-3_躯体と製品
  6
CONTINUOUS
 62
    4
 10
-35.658394872634062
 20
-23.904808855000169
 11
-34.658394872633949
 21
-24.779808855000169
  0
LINE
  8
_0-3_躯体と製品
  6
CONTINUOUS
 62
    4
 10
-35.658394872634062
 20
-23.904808855000169
 11
-34.658394872633949
 21
-23.029808855000169
  0
LINE
  8
_0-3_躯体と製品
  6
CONTINUOUS
 62
    4
 10
-34.658394872633949
 20
-3.7798088550001694
 11
-30.372674872633979
 21
-3.4048088550001694
  0
LINE
  8
_0-3_躯体と製品
  6
CONTINUOUS
 62
    4
 10
-34.658394872633949
 20
-5.5298088550001694
 11
-24.658394872633949
 21
-4.6548088550001694
  0
LINE
  8
_0-3_躯体と製品
  6
CONTINUOUS
 62
    4
 10
-34.658394872633949
 20
-7.2798088550001694
 11
-24.658394872633949
 21
-6.4048088550001694
  0
LINE
  8
_0-3_躯体と製品
  6
CONTINUOUS
 62
    4
 10
-34.658394872633949
 20
-9.0298088550001694
 11
-24.658394872633949
 21
-8.1548088550001694
  0
LINE
  8
_0-3_躯体と製品
  6
CONTINUOUS
 62
    4
 10
-34.658394872633949
 20
-10.779808855000169
 11
-24.658394872633949
 21
-9.9048088550001694
  0
LINE
  8
_0-3_躯体と製品
  6
CONTINUOUS
 62
    4
 10
-34.658394872633949
 20
-12.529808855000169
 11
-24.658394872633949
 21
-11.654808855000169
  0
LINE
  8
_0-3_躯体と製品
  6
CONTINUOUS
 62
    4
 10
-25.658394872633949
 20
-3.4048088550001694
 11
-33.658394872633949
 21
-3.4048088550001694
  0
LINE
  8
_0-3_躯体と製品
  6
CONTINUOUS
 62
    4
 10
-35.086964872633871
 20
-3.4048088550001694
 11
-34.658394872633949
 21
-3.7798088550001694
  0
LINE
  8
_0-3_躯体と製品
  6
CONTINUOUS
 62
    4
 10
-35.658394872634062
 20
-4.6548088550001694
 11
-34.658394872633949
 21
-5.5298088550001694
  0
LINE
  8
_0-3_躯体と製品
  6
CONTINUOUS
 62
    4
 10
-35.658394872634062
 20
-4.6548088550001694
 11
-34.658394872633949
 21
-3.7798088550001694
  0
LINE
  8
_0-3_躯体と製品
  6
CONTINUOUS
 62
    4
 10
-35.658394872634062
 20
-6.4048088550001694
 11
-34.658394872633949
 21
-7.2798088550001694
  0
LINE
  8
_0-3_躯体と製品
  6
CONTINUOUS
 62
    4
 10
-35.658394872634062
 20
-6.4048088550001694
 11
-34.658394872633949
 21
-5.5298088550001694
  0
LINE
  8
_0-3_躯体と製品
  6
CONTINUOUS
 62
    4
 10
-35.658394872634062
 20
-8.1548088550001694
 11
-34.658394872633949
 21
-9.0298088550001694
  0
LINE
  8
_0-3_躯体と製品
  6
CONTINUOUS
 62
    4
 10
-35.658394872634062
 20
-8.1548088550001694
 11
-34.658394872633949
 21
-7.2798088550001694
  0
LINE
  8
_0-3_躯体と製品
  6
CONTINUOUS
 62
    4
 10
-35.658394872634062
 20
-9.9048088550001694
 11
-34.658394872633949
 21
-10.779808855000169
  0
LINE
  8
_0-3_躯体と製品
  6
CONTINUOUS
 62
    4
 10
-35.658394872634062
 20
-9.9048088550001694
 11
-34.658394872633949
 21
-9.0298088550001694
  0
LINE
  8
_0-3_躯体と製品
  6
CONTINUOUS
 62
    4
 10
-35.658394872634062
 20
-11.654808855000169
 11
-34.658394872633949
 21
-12.529808855000169
  0
LINE
  8
_0-3_躯体と製品
  6
CONTINUOUS
 62
    4
 10
-35.658394872634062
 20
-11.654808855000169
 11
-34.658394872633949
 21
-10.779808855000169
  0
LINE
  8
_0-3_躯体と製品
  6
CONTINUOUS
 62
    4
 10
-35.658394872634062
 20
-13.404808855000169
 11
-34.658394872633949
 21
-12.529808855000169
  0
LINE
  8
_0-3_躯体と製品
  6
CONTINUOUS
 62
    2
 10
-37.658394872633949
 20
-3.4048088550001694
 11
-38.958394872634017
 21
-3.4048088550001694
  0
LINE
  8
_0-3_躯体と製品
  6
CONTINUOUS
 62
    2
 10
-21.658394872633949
 20
-3.4048088550001694
 11
-20.358394872633767
 21
-3.4048088550001694
  0
LINE
  8
_0-3_躯体と製品
  6
CONTINUOUS
 62
    2
 10
-40.458394872633903
 20
7.0951911449998306
 11
-18.85839487263388
 21
7.0951911449998306
  0
LINE
  8
_0-3_躯体と製品
  6
CONTINUOUS
 62
    2
 10
-18.85839487263388
 20
9.0257511449998447
 11
-40.458394872633903
 21
9.0257511449998447
  0
LINE
  8
_0-3_躯体と製品
  6
CONTINUOUS
 62
    2
 10
-40.458394872633903
 20
-1.9048088550001694
 11
-40.458394872633903
 21
9.0257511449998447
  0
LINE
  8
_0-3_躯体と製品
  6
CONTINUOUS
 62
    2
 10
-21.658394872633949
 20
29.025751144999845
 11
-21.658394872633949
 21
9.0257511449998447
  0
LINE
  8
_0-3_躯体と製品
  6
CONTINUOUS
 62
    2
 10
-37.658394872633949
 20
29.025751144999845
 11
-37.658394872633949
 21
9.0257511449998447
  0
LINE
  8
_0-3_躯体と製品
  6
CONTINUOUS
 62
    2
 10
-35.658394872634062
 20
-1.4048088550001694
 11
-35.658394872634062
 21
7.0951911449998306
  0
LINE
  8
_0-3_躯体と製品
  6
CONTINUOUS
 62
    2
 10
-29.658394872633949
 20
7.0951911449998306
 11
-31.350344872633968
 21
9.0257511449998447
  0
LINE
  8
_0-3_躯体と製品
  6
CONTINUOUS
 62
    2
 10
-29.658394872633949
 20
9.0257511449998447
 11
-27.966434872633954
 21
7.0951911449998306
  0
LINE
  8
_0-3_躯体と製品
  6
CONTINUOUS
 62
    2
 10
-23.658394872633949
 20
-1.4048088550001694
 11
-23.658394872633949
 21
7.0951911449998306
  0
LINE
  8
_0-3_躯体と製品
  6
CONTINUOUS
 62
    2
 10
-18.85839487263388
 20
-1.9048088550001694
 11
-18.85839487263388
 21
9.0257511449998447
  0
LINE
  8
_0-3_躯体と製品
  6
CONTINUOUS
 62
    2
 10
-23.109484872633857
 20
29.025751144999845
 11
-36.457374872633864
 21
29.025751144999845
  0
ARC
  8
_0-3_躯体と製品
  6
CONTINUOUS
 62
    2
 10
-22.964134872633849
 20
42.025751144999845
 40
2
 50
90
 51
170.5376700000044
  0
LINE
  8
_0-3_躯体と製品
  6
CONTINUOUS
 62
    2
 10
-39.158394872634062
 20
44.025751144999845
 11
-37.658394872633949
 21
29.025751144999845
  0
LINE
  8
_0-3_躯体と製品
  6
CONTINUOUS
 62
    2
 10
-34.379854872634041
 20
42.354551144999846
 11
-32.506554872633842
 21
31.114751144999786
  0
LINE
  8
_0-3_躯体と製品
  6
CONTINUOUS
 62
    2
 10
-24.936924872633995
 20
42.354551144999846
 11
-26.810224872633967
 21
31.114751144999786
  0
LINE
  8
_0-3_躯体と製品
  6
CONTINUOUS
 62
    2
 10
-39.158394872634062
 20
44.025751144999845
 11
-37.658394872633949
 21
29.025751144999845
  0
ARC
  8
_0-3_躯体と製品
  6
CONTINUOUS
 62
    2
 10
-30.040574872633897
 20
31.525751144998935
 40
2.5
 50
189.462320000006
 51
270
  0
LINE
  8
_0-3_躯体と製品
  6
CONTINUOUS
 62
    4
 10
-30.040574872633897
 20
29.025751144999845
 11
-29.276204872634025
 21
29.025751144999845
  0
ARC
  8
_0-3_躯体と製品
  6
CONTINUOUS
 62
    2
 10
-29.276204872634025
 20
31.525751144998935
 40
2.5
 50
270
 51
350.53767000000443
  0
LINE
  8
_0-3_躯体と製品
  6
CONTINUOUS
 62
    2
 10
-36.948414872633862
 20
44.025751144999845
 11
-36.352644872633959
 21
44.025751144999845
  0
ARC
  8
_0-3_躯体と製品
  6
CONTINUOUS
 62
    2
 10
-36.352644872633959
 20
42.025751144999845
 40
2
 50
9.4623222000038201
 51
89.999999999999986
  0
LINE
  8
_0-3_躯体と製品
  6
CONTINUOUS
 62
    2
 10
-20.158394872633949
 20
44.025751144999845
 11
-21.658394872633949
 21
29.025751144999845
  0
LINE
  8
_0-3_躯体と製品
  6
CONTINUOUS
 62
    2
 10
-20.158394872633949
 20
44.025751144999845
 11
-21.658394872633949
 21
29.025751144999845
  0
LINE
  8
_0-3_躯体と製品
  6
CONTINUOUS
 62
    2
 10
-22.368364872633947
 20
44.025751144999845
 11
-22.964134872633849
 21
44.025751144999845
  0
LINE
  8
_0-4_文字-記号
  6
CONTINUOUS
 62
    4
 10
-16.224144872633929
 20
109.37349114499978
 11
-14.102824872633846
 21
111.49481114499918
  0
LINE
  8
_0-4_文字-記号
  6
CONTINUOUS
 62
    4
 10
-16.224144872633929
 20
109.37349114499978
 11
-15.447684872633999
 21
112.27126114499924
  0
LINE
  8
_0-3_躯体と製品
  6
CONTINUOUS
 62
    2
 10
210.12368512736566
 20
-38.904808855000169
 11
120.12368512736566
 21
-38.904808855000169
  0
LINE
  8
_0-3_躯体と製品
  6
CONTINUOUS
 62
    2
 10
210.12368512736566
 20
-41.204808855000124
 11
120.12368512736566
 21
-41.204808855000124
  0
TEXT
  8
_0-4_文字-記号
 62
    7
 10
16.516795127366095
 20
-12.387928855000268
 40
5
 41
0.8
 50
0
  1
ベースプレート
  0
LINE
  8
_0-4_文字-記号
  6
CONTINUOUS
 62
    4
 10
0.3471851273660604
 20
-36.260418855000239
 11
7.549155127365907
 21
-9.3822988550001583
  0
LINE
  8
_0-4_文字-記号
  6
CONTINUOUS
 62
    4
 10
0.3471851273660604
 20
-36.260418855000239
 11
1.8471851273659468
 21
-33.662338855000257
  0
LINE
  8
_0-4_文字-記号
  6
CONTINUOUS
 62
    4
 10
0.3471851273660604
 20
-36.260418855000239
 11
0.3471851273660604
 21
-33.260418855000239
  0
LINE
  8
_0-3_躯体と製品
  6
CONTINUOUS
 62
    2
 10
15.341605127366051
 20
-41.204808855000124
 11
15.341605127366051
 21
-38.904808855000169
  0
LINE
  8
_0-4_文字-記号
  6
CONTINUOUS
 62
    4
 10
7.549155127365907
 20
-9.3822988550001583
 11
15.215925127366063
 21
-9.3822988550001583
  0
LINE
  8
_0-3_躯体と製品
  6
CONTINUOUS
 62
    2
 10
120.12368512736566
 20
-41.204808855000124
 11
120.12368512736566
 21
-38.904808855000169
  0
ARC
  8
_0-3_躯体と製品
  6
CONTINUOUS
 62
    2
 10
157.83365512736555
 20
42.025751144999845
 40
2
 50
90
 51
185.71059000000372
  0
ARC
  8
_0-3_躯体と製品
  6
CONTINUOUS
 62
    2
 10
172.41370512736557
 20
42.025751144999845
 40
2
 50
354.28940000000199
 51
90.000000000000014
  0
LINE
  8
_0-3_躯体と製品
  6
CONTINUOUS
 62
    2
 10
200.12368512736566
 20
-38.904808855000169
 11
130.12368512736566
 21
-38.904808855000169
  0
LINE
  8
_0-3_躯体と製品
  6
CONTINUOUS
 62
    4
 10
168.29857512736567
 20
-41.204808855000124
 11
191.06117512736569
 21
-41.204808855000124
  0
ARC
  8
_0-3_躯体と製品
  6
CONTINUOUS
 62
    2
 10
169.12368512736566
 20
-1.4048088550001694
 40
2
 50
270
 51
0
  0
ARC
  8
_0-3_躯体と製品
  6
CONTINUOUS
 62
    2
 10
161.12368512736566
 20
-1.4048088550001694
 40
2
 50
180
 51
270
  0
ARC
  8
_0-3_躯体と製品
  6
CONTINUOUS
 62
    2
 10
157.12368512736566
 20
-1.4048088550001694
 40
2
 50
270
 51
0
  0
ARC
  8
_0-3_躯体と製品
  6
CONTINUOUS
 62
    2
 10
173.12368512736566
 20
-1.4048088550001694
 40
2
 50
180
 51
270
  0
ARC
  8
_0-3_躯体と製品
  6
CONTINUOUS
 62
    2
 10
155.82368512736571
 20
-1.9048088550001694
 40
1.5
 50
180
 51
270
  0
ARC
  8
_0-3_躯体と製品
  6
CONTINUOUS
 62
    2
 10
174.42368512736562
 20
-1.9048088550001694
 40
1.5
 50
270
 51
0
  0
LINE
  8
_0-3_躯体と製品
  6
CONTINUOUS
 62
    2
 10
156.06070512736551
 20
-34.404808855000169
 11
174.18666512736559
 21
-34.404808855000169
  0
LINE
  8
_0-3_躯体と製品
  6
CONTINUOUS
 62
    2
 10
157.12368512736566
 20
-3.4048088550001694
 11
155.82368512736571
 21
-3.4048088550001694
  0
LINE
  8
_0-3_躯体と製品
  6
CONTINUOUS
 62
    2
 10
150.65312512736568
 20
-35.993018855000059
 11
146.12368512736566
 21
-38.904808855000169
  0
ARC
  8
_0-3_躯体と製品
  6
CONTINUOUS
 62
    2
 10
156.06070512736551
 20
-44.404808855000169
 40
10
 50
90
 51
122.73522000000121
  0
LINE
  8
_0-3_躯体と製品
  6
CONTINUOUS
 62
    4
 10
170.12368512736566
 20
-25.654808855000169
 11
171.12368512736566
 21
-24.779808855000169
  0
LINE
  8
_0-3_躯体と製品
  6
CONTINUOUS
 62
    4
 10
159.12368512736566
 20
-25.654808855000169
 11
171.12368512736566
 21
-24.779808855000169
  0
LINE
  8
_0-3_躯体と製品
  6
CONTINUOUS
 62
    4
 10
159.12368512736566
 20
-25.654808855000169
 11
160.12368512736566
 21
-24.779808855000169
  0
LINE
  8
_0-3_躯体と製品
  6
CONTINUOUS
 62
    4
 10
160.12368512736566
 20
-26.529808855000169
 11
170.12368512736566
 21
-25.654808855000169
  0
LINE
  8
_0-3_躯体と製品
  6
CONTINUOUS
 62
    4
 10
160.12368512736566
 20
-28.279808855000169
 11
170.12368512736566
 21
-27.404808855000169
  0
LINE
  8
_0-3_躯体と製品
  6
CONTINUOUS
 62
    4
 10
159.12368512736566
 20
-27.404808855000169
 11
171.12368512736566
 21
-26.529808855000169
  0
LINE
  8
_0-3_躯体と製品
  6
CONTINUOUS
 62
    4
 10
160.12368512736566
 20
-30.029808855000169
 11
170.12368512736566
 21
-29.154808855000169
  0
LINE
  8
_0-3_躯体と製品
  6
CONTINUOUS
 62
    4
 10
159.12368512736566
 20
-29.154808855000169
 11
171.12368512736566
 21
-28.279808855000169
  0
LINE
  8
_0-3_躯体と製品
  6
CONTINUOUS
 62
    4
 10
160.12368512736566
 20
-31.779808855000169
 11
170.12368512736566
 21
-30.904808855000169
  0
LINE
  8
_0-3_躯体と製品
  6
CONTINUOUS
 62
    4
 10
159.12368512736566
 20
-30.904808855000169
 11
171.12368512736566
 21
-30.029808855000169
  0
LINE
  8
_0-3_躯体と製品
  6
CONTINUOUS
 62
    4
 10
160.12368512736566
 20
-33.529808855000169
 11
170.12368512736566
 21
-32.654808855000169
  0
LINE
  8
_0-3_躯体と製品
  6
CONTINUOUS
 62
    4
 10
159.12368512736566
 20
-34.404808855000169
 11
171.12368512736566
 21
-33.529808855000169
  0
LINE
  8
_0-3_躯体と製品
  6
CONTINUOUS
 62
    4
 10
159.12368512736566
 20
-32.654808855000169
 11
171.12368512736566
 21
-31.779808855000169
  0
LINE
  8
_0-3_躯体と製品
  6
CONTINUOUS
 62
    4
 10
159.12368512736566
 20
-25.654808855000169
 11
160.12368512736566
 21
-26.529808855000169
  0
LINE
  8
_0-3_躯体と製品
  6
CONTINUOUS
 62
    4
 10
159.12368512736566
 20
-27.404808855000169
 11
160.12368512736566
 21
-28.279808855000169
  0
LINE
  8
_0-3_躯体と製品
  6
CONTINUOUS
 62
    4
 10
159.12368512736566
 20
-27.404808855000169
 11
160.12368512736566
 21
-26.529808855000169
  0
LINE
  8
_0-3_躯体と製品
  6
CONTINUOUS
 62
    4
 10
159.12368512736566
 20
-29.154808855000169
 11
160.12368512736566
 21
-30.029808855000169
  0
LINE
  8
_0-3_躯体と製品
  6
CONTINUOUS
 62
    4
 10
159.12368512736566
 20
-29.154808855000169
 11
160.12368512736566
 21
-28.279808855000169
  0
LINE
  8
_0-3_躯体と製品
  6
CONTINUOUS
 62
    4
 10
159.12368512736566
 20
-30.904808855000169
 11
160.12368512736566
 21
-31.779808855000169
  0
LINE
  8
_0-3_躯体と製品
  6
CONTINUOUS
 62
    4
 10
159.12368512736566
 20
-30.904808855000169
 11
160.12368512736566
 21
-30.029808855000169
  0
LINE
  8
_0-3_躯体と製品
  6
CONTINUOUS
 62
    4
 10
160.12368512736566
 20
-33.529808855000169
 11
159.12368512736566
 21
-34.404808855000169
  0
LINE
  8
_0-3_躯体と製品
  6
CONTINUOUS
 62
    4
 10
159.12368512736566
 20
-32.654808855000169
 11
160.12368512736566
 21
-33.529808855000169
  0
LINE
  8
_0-3_躯体と製品
  6
CONTINUOUS
 62
    4
 10
159.12368512736566
 20
-32.654808855000169
 11
160.12368512736566
 21
-31.779808855000169
  0
LINE
  8
_0-3_躯体と製品
  6
CONTINUOUS
 62
    4
 10
170.12368512736566
 20
-27.404808855000169
 11
171.12368512736566
 21
-26.529808855000169
  0
LINE
  8
_0-3_躯体と製品
  6
CONTINUOUS
 62
    4
 10
171.12368512736566
 20
-26.529808855000169
 11
170.12368512736566
 21
-25.654808855000169
  0
LINE
  8
_0-3_躯体と製品
  6
CONTINUOUS
 62
    4
 10
170.12368512736566
 20
-29.154808855000169
 11
171.12368512736566
 21
-28.279808855000169
  0
LINE
  8
_0-3_躯体と製品
  6
CONTINUOUS
 62
    4
 10
171.12368512736566
 20
-28.279808855000169
 11
170.12368512736566
 21
-27.404808855000169
  0
LINE
  8
_0-3_躯体と製品
  6
CONTINUOUS
 62
    4
 10
170.12368512736566
 20
-30.904808855000169
 11
171.12368512736566
 21
-30.029808855000169
  0
LINE
  8
_0-3_躯体と製品
  6
CONTINUOUS
 62
    4
 10
171.12368512736566
 20
-30.029808855000169
 11
170.12368512736566
 21
-29.154808855000169
  0
LINE
  8
_0-3_躯体と製品
  6
CONTINUOUS
 62
    4
 10
171.12368512736566
 20
-31.779808855000169
 11
170.12368512736566
 21
-30.904808855000169
  0
LINE
  8
_0-3_躯体と製品
  6
CONTINUOUS
 62
    4
 10
170.12368512736566
 20
-32.654808855000169
 11
171.12368512736566
 21
-31.779808855000169
  0
LINE
  8
_0-3_躯体と製品
  6
CONTINUOUS
 62
    4
 10
171.12368512736566
 20
-33.529808855000169
 11
170.12368512736566
 21
-32.654808855000169
  0
LINE
  8
_0-3_躯体と製品
  6
CONTINUOUS
 62
    4
 10
171.12368512736566
 20
-33.529808855000169
 11
170.12368512736566
 21
-34.404808855000169
  0
LINE
  8
_0-3_躯体と製品
  6
CONTINUOUS
 62
    2
 10
179.59423512736566
 20
-35.993018855000059
 11
184.12368512736566
 21
-38.904808855000169
  0
ARC
  8
_0-3_躯体と製品
  6
CONTINUOUS
 62
    2
 10
174.18666512736559
 20
-44.404808855000169
 40
10
 50
57.264772999999337
 51
90
  0
LINE
  8
_0-3_躯体と製品
  6
CONTINUOUS
 62
    2
 10
157.12368512736566
 20
-3.4048088550001694
 11
173.12368512736566
 21
-3.4048088550001694
  0
LINE
  8
_0-3_躯体と製品
  6
CONTINUOUS
 62
    4
 10
160.12368512736566
 20
-14.279808855000169
 11
170.12368512736566
 21
-13.404808855000169
  0
LINE
  8
_0-3_躯体と製品
  6
CONTINUOUS
 62
    4
 10
159.12368512736566
 20
-13.404808855000169
 11
160.12368512736566
 21
-14.279808855000169
  0
LINE
  8
_0-3_躯体と製品
  6
CONTINUOUS
 62
    4
 10
171.12368512736566
 20
-14.279808855000169
 11
170.12368512736566
 21
-13.404808855000169
  0
LINE
  8
_0-3_躯体と製品
  6
CONTINUOUS
 62
    4
 10
160.12368512736566
 20
-16.029808855000169
 11
170.12368512736566
 21
-15.154808855000169
  0
LINE
  8
_0-3_躯体と製品
  6
CONTINUOUS
 62
    4
 10
159.12368512736566
 20
-15.154808855000169
 11
171.12368512736566
 21
-14.279808855000169
  0
LINE
  8
_0-3_躯体と製品
  6
CONTINUOUS
 62
    4
 10
160.12368512736566
 20
-17.779808855000169
 11
170.12368512736566
 21
-16.904808855000169
  0
LINE
  8
_0-3_躯体と製品
  6
CONTINUOUS
 62
    4
 10
159.12368512736566
 20
-16.904808855000169
 11
171.12368512736566
 21
-16.029808855000169
  0
LINE
  8
_0-3_躯体と製品
  6
CONTINUOUS
 62
    4
 10
160.12368512736566
 20
-19.529808855000169
 11
170.12368512736566
 21
-18.654808855000169
  0
LINE
  8
_0-3_躯体と製品
  6
CONTINUOUS
 62
    4
 10
159.12368512736566
 20
-18.654808855000169
 11
171.12368512736566
 21
-17.779808855000169
  0
LINE
  8
_0-3_躯体と製品
  6
CONTINUOUS
 62
    4
 10
160.12368512736566
 20
-21.279808855000169
 11
170.12368512736566
 21
-20.404808855000169
  0
LINE
  8
_0-3_躯体と製品
  6
CONTINUOUS
 62
    4
 10
159.12368512736566
 20
-20.404808855000169
 11
171.12368512736566
 21
-19.529808855000169
  0
LINE
  8
_0-3_躯体と製品
  6
CONTINUOUS
 62
    4
 10
160.12368512736566
 20
-23.029808855000169
 11
170.12368512736566
 21
-22.154808855000169
  0
LINE
  8
_0-3_躯体と製品
  6
CONTINUOUS
 62
    4
 10
159.12368512736566
 20
-22.154808855000169
 11
171.12368512736566
 21
-21.279808855000169
  0
LINE
  8
_0-3_躯体と製品
  6
CONTINUOUS
 62
    4
 10
160.12368512736566
 20
-24.779808855000169
 11
170.12368512736566
 21
-23.904808855000169
  0
LINE
  8
_0-3_躯体と製品
  6
CONTINUOUS
 62
    4
 10
159.12368512736566
 20
-23.904808855000169
 11
171.12368512736566
 21
-23.029808855000169
  0
LINE
  8
_0-3_躯体と製品
  6
CONTINUOUS
 62
    4
 10
159.12368512736566
 20
-15.154808855000169
 11
160.12368512736566
 21
-16.029808855000169
  0
LINE
  8
_0-3_躯体と製品
  6
CONTINUOUS
 62
    4
 10
159.12368512736566
 20
-15.154808855000169
 11
160.12368512736566
 21
-14.279808855000169
  0
LINE
  8
_0-3_躯体と製品
  6
CONTINUOUS
 62
    4
 10
159.12368512736566
 20
-16.904808855000169
 11
160.12368512736566
 21
-17.779808855000169
  0
LINE
  8
_0-3_躯体と製品
  6
CONTINUOUS
 62
    4
 10
159.12368512736566
 20
-16.904808855000169
 11
160.12368512736566
 21
-16.029808855000169
  0
LINE
  8
_0-3_躯体と製品
  6
CONTINUOUS
 62
    4
 10
159.12368512736566
 20
-18.654808855000169
 11
160.12368512736566
 21
-19.529808855000169
  0
LINE
  8
_0-3_躯体と製品
  6
CONTINUOUS
 62
    4
 10
159.12368512736566
 20
-18.654808855000169
 11
160.12368512736566
 21
-17.779808855000169
  0
LINE
  8
_0-3_躯体と製品
  6
CONTINUOUS
 62
    4
 10
159.12368512736566
 20
-20.404808855000169
 11
160.12368512736566
 21
-21.279808855000169
  0
LINE
  8
_0-3_躯体と製品
  6
CONTINUOUS
 62
    4
 10
159.12368512736566
 20
-20.404808855000169
 11
160.12368512736566
 21
-19.529808855000169
  0
LINE
  8
_0-3_躯体と製品
  6
CONTINUOUS
 62
    4
 10
159.12368512736566
 20
-22.154808855000169
 11
160.12368512736566
 21
-23.029808855000169
  0
LINE
  8
_0-3_躯体と製品
  6
CONTINUOUS
 62
    4
 10
159.12368512736566
 20
-22.154808855000169
 11
160.12368512736566
 21
-21.279808855000169
  0
LINE
  8
_0-3_躯体と製品
  6
CONTINUOUS
 62
    4
 10
159.12368512736566
 20
-23.904808855000169
 11
160.12368512736566
 21
-24.779808855000169
  0
LINE
  8
_0-3_躯体と製品
  6
CONTINUOUS
 62
    4
 10
159.12368512736566
 20
-23.904808855000169
 11
160.12368512736566
 21
-23.029808855000169
  0
LINE
  8
_0-3_躯体と製品
  6
CONTINUOUS
 62
    4
 10
170.12368512736566
 20
-15.154808855000169
 11
171.12368512736566
 21
-14.279808855000169
  0
LINE
  8
_0-3_躯体と製品
  6
CONTINUOUS
 62
    4
 10
170.12368512736566
 20
-16.904808855000169
 11
171.12368512736566
 21
-16.029808855000169
  0
LINE
  8
_0-3_躯体と製品
  6
CONTINUOUS
 62
    4
 10
171.12368512736566
 20
-16.029808855000169
 11
170.12368512736566
 21
-15.154808855000169
  0
LINE
  8
_0-3_躯体と製品
  6
CONTINUOUS
 62
    4
 10
170.12368512736566
 20
-18.654808855000169
 11
171.12368512736566
 21
-17.779808855000169
  0
LINE
  8
_0-3_躯体と製品
  6
CONTINUOUS
 62
    4
 10
171.12368512736566
 20
-17.779808855000169
 11
170.12368512736566
 21
-16.904808855000169
  0
LINE
  8
_0-3_躯体と製品
  6
CONTINUOUS
 62
    4
 10
170.12368512736566
 20
-20.404808855000169
 11
171.12368512736566
 21
-19.529808855000169
  0
LINE
  8
_0-3_躯体と製品
  6
CONTINUOUS
 62
    4
 10
171.12368512736566
 20
-19.529808855000169
 11
170.12368512736566
 21
-18.654808855000169
  0
LINE
  8
_0-3_躯体と製品
  6
CONTINUOUS
 62
    4
 10
170.12368512736566
 20
-22.154808855000169
 11
171.12368512736566
 21
-21.279808855000169
  0
LINE
  8
_0-3_躯体と製品
  6
CONTINUOUS
 62
    4
 10
171.12368512736566
 20
-21.279808855000169
 11
170.12368512736566
 21
-20.404808855000169
  0
LINE
  8
_0-3_躯体と製品
  6
CONTINUOUS
 62
    4
 10
170.12368512736566
 20
-23.904808855000169
 11
171.12368512736566
 21
-23.029808855000169
  0
LINE
  8
_0-3_躯体と製品
  6
CONTINUOUS
 62
    4
 10
171.12368512736566
 20
-23.029808855000169
 11
170.12368512736566
 21
-22.154808855000169
  0
LINE
  8
_0-3_躯体と製品
  6
CONTINUOUS
 62
    4
 10
171.12368512736566
 20
-24.779808855000169
 11
170.12368512736566
 21
-23.904808855000169
  0
LINE
  8
_0-3_躯体と製品
  6
CONTINUOUS
 62
    4
 10
160.12368512736566
 20
-5.5298088550001694
 11
170.12368512736566
 21
-4.6548088550001694
  0
LINE
  8
_0-3_躯体と製品
  6
CONTINUOUS
 62
    4
 10
159.12368512736566
 20
-4.6548088550001694
 11
171.12368512736566
 21
-3.7798088550001694
  0
LINE
  8
_0-3_躯体と製品
  6
CONTINUOUS
 62
    4
 10
160.12368512736566
 20
-7.2798088550001694
 11
170.12368512736566
 21
-6.4048088550001694
  0
LINE
  8
_0-3_躯体と製品
  6
CONTINUOUS
 62
    4
 10
159.12368512736566
 20
-6.4048088550001694
 11
171.12368512736566
 21
-5.5298088550001694
  0
LINE
  8
_0-3_躯体と製品
  6
CONTINUOUS
 62
    4
 10
160.12368512736566
 20
-9.0298088550001694
 11
170.12368512736566
 21
-8.1548088550001694
  0
LINE
  8
_0-3_躯体と製品
  6
CONTINUOUS
 62
    4
 10
159.12368512736566
 20
-8.1548088550001694
 11
171.12368512736566
 21
-7.2798088550001694
  0
LINE
  8
_0-3_躯体と製品
  6
CONTINUOUS
 62
    4
 10
160.12368512736566
 20
-10.779808855000169
 11
170.12368512736566
 21
-9.9048088550001694
  0
LINE
  8
_0-3_躯体と製品
  6
CONTINUOUS
 62
    4
 10
159.12368512736566
 20
-9.9048088550001694
 11
171.12368512736566
 21
-9.0298088550001694
  0
LINE
  8
_0-3_躯体と製品
  6
CONTINUOUS
 62
    4
 10
160.12368512736566
 20
-12.529808855000169
 11
170.12368512736566
 21
-11.654808855000169
  0
LINE
  8
_0-3_躯体と製品
  6
CONTINUOUS
 62
    4
 10
159.12368512736566
 20
-11.654808855000169
 11
171.12368512736566
 21
-10.779808855000169
  0
LINE
  8
_0-3_躯体と製品
  6
CONTINUOUS
 62
    4
 10
159.12368512736566
 20
-13.404808855000169
 11
171.12368512736566
 21
-12.529808855000169
  0
LINE
  8
_0-3_躯体と製品
  6
CONTINUOUS
 62
    4
 10
169.12368512736566
 20
-3.4048088550001694
 11
161.12368512736566
 21
-3.4048088550001694
  0
LINE
  8
_0-3_躯体と製品
  6
CONTINUOUS
 62
    4
 10
159.69511512736563
 20
-3.4048088550001694
 11
160.12368512736566
 21
-3.7798088550001694
  0
LINE
  8
_0-3_躯体と製品
  6
CONTINUOUS
 62
    4
 10
160.12368512736566
 20
-3.7798088550001694
 11
164.40939512736554
 21
-3.4048088550001694
  0
LINE
  8
_0-3_躯体と製品
  6
CONTINUOUS
 62
    4
 10
159.12368512736566
 20
-4.6548088550001694
 11
160.12368512736566
 21
-5.5298088550001694
  0
LINE
  8
_0-3_躯体と製品
  6
CONTINUOUS
 62
    4
 10
159.12368512736566
 20
-4.6548088550001694
 11
160.12368512736566
 21
-3.7798088550001694
  0
LINE
  8
_0-3_躯体と製品
  6
CONTINUOUS
 62
    4
 10
159.12368512736566
 20
-6.4048088550001694
 11
160.12368512736566
 21
-7.2798088550001694
  0
LINE
  8
_0-3_躯体と製品
  6
CONTINUOUS
 62
    4
 10
159.12368512736566
 20
-6.4048088550001694
 11
160.12368512736566
 21
-5.5298088550001694
  0
LINE
  8
_0-3_躯体と製品
  6
CONTINUOUS
 62
    4
 10
159.12368512736566
 20
-8.1548088550001694
 11
160.12368512736566
 21
-9.0298088550001694
  0
LINE
  8
_0-3_躯体と製品
  6
CONTINUOUS
 62
    4
 10
159.12368512736566
 20
-8.1548088550001694
 11
160.12368512736566
 21
-7.2798088550001694
  0
LINE
  8
_0-3_躯体と製品
  6
CONTINUOUS
 62
    4
 10
159.12368512736566
 20
-9.9048088550001694
 11
160.12368512736566
 21
-10.779808855000169
  0
LINE
  8
_0-3_躯体と製品
  6
CONTINUOUS
 62
    4
 10
159.12368512736566
 20
-9.9048088550001694
 11
160.12368512736566
 21
-9.0298088550001694
  0
LINE
  8
_0-3_躯体と製品
  6
CONTINUOUS
 62
    4
 10
159.12368512736566
 20
-11.654808855000169
 11
160.12368512736566
 21
-12.529808855000169
  0
LINE
  8
_0-3_躯体と製品
  6
CONTINUOUS
 62
    4
 10
159.12368512736566
 20
-11.654808855000169
 11
160.12368512736566
 21
-10.779808855000169
  0
LINE
  8
_0-3_躯体と製品
  6
CONTINUOUS
 62
    4
 10
159.12368512736566
 20
-13.404808855000169
 11
160.12368512736566
 21
-12.529808855000169
  0
LINE
  8
_0-3_躯体と製品
  6
CONTINUOUS
 62
    4
 10
171.12368512736566
 20
-3.7798088550001694
 11
170.69511512736563
 21
-3.4048088550001694
  0
LINE
  8
_0-3_躯体と製品
  6
CONTINUOUS
 62
    4
 10
170.12368512736566
 20
-4.6548088550001694
 11
171.12368512736566
 21
-3.7798088550001694
  0
LINE
  8
_0-3_躯体と製品
  6
CONTINUOUS
 62
    4
 10
170.12368512736566
 20
-6.4048088550001694
 11
171.12368512736566
 21
-5.5298088550001694
  0
LINE
  8
_0-3_躯体と製品
  6
CONTINUOUS
 62
    4
 10
171.12368512736566
 20
-5.5298088550001694
 11
170.12368512736566
 21
-4.6548088550001694
  0
LINE
  8
_0-3_躯体と製品
  6
CONTINUOUS
 62
    4
 10
170.12368512736566
 20
-8.1548088550001694
 11
171.12368512736566
 21
-7.2798088550001694
  0
LINE
  8
_0-3_躯体と製品
  6
CONTINUOUS
 62
    4
 10
171.12368512736566
 20
-7.2798088550001694
 11
170.12368512736566
 21
-6.4048088550001694
  0
LINE
  8
_0-3_躯体と製品
  6
CONTINUOUS
 62
    4
 10
170.12368512736566
 20
-9.9048088550001694
 11
171.12368512736566
 21
-9.0298088550001694
  0
LINE
  8
_0-3_躯体と製品
  6
CONTINUOUS
 62
    4
 10
171.12368512736566
 20
-9.0298088550001694
 11
170.12368512736566
 21
-8.1548088550001694
  0
LINE
  8
_0-3_躯体と製品
  6
CONTINUOUS
 62
    4
 10
170.12368512736566
 20
-11.654808855000169
 11
171.12368512736566
 21
-10.779808855000169
  0
LINE
  8
_0-3_躯体と製品
  6
CONTINUOUS
 62
    4
 10
171.12368512736566
 20
-10.779808855000169
 11
170.12368512736566
 21
-9.9048088550001694
  0
LINE
  8
_0-3_躯体と製品
  6
CONTINUOUS
 62
    4
 10
170.12368512736566
 20
-13.404808855000169
 11
171.12368512736566
 21
-12.529808855000169
  0
LINE
  8
_0-3_躯体と製品
  6
CONTINUOUS
 62
    4
 10
171.12368512736566
 20
-12.529808855000169
 11
170.12368512736566
 21
-11.654808855000169
  0
LINE
  8
_0-3_躯体と製品
  6
CONTINUOUS
 62
    2
 10
173.12368512736566
 20
-3.4048088550001694
 11
174.42368512736562
 21
-3.4048088550001694
  0
LINE
  8
_0-3_躯体と製品
  6
CONTINUOUS
 62
    2
 10
154.32368512736571
 20
7.0951911449998306
 11
175.92368512736562
 21
7.0951911449998306
  0
LINE
  8
_0-3_躯体と製品
  6
CONTINUOUS
 62
    2
 10
175.92368512736562
 20
9.0257511449998447
 11
154.32368512736571
 21
9.0257511449998447
  0
LINE
  8
_0-3_躯体と製品
  6
CONTINUOUS
 62
    2
 10
155.62368512736566
 20
44.025751144999845
 11
157.12368512736566
 21
29.025751144999845
  0
LINE
  8
_0-3_躯体と製品
  6
CONTINUOUS
 62
    2
 10
155.62368512736566
 20
44.025751144999845
 11
157.12368512736566
 21
29.025751144999845
  0
LINE
  8
_0-3_躯体と製品
  6
CONTINUOUS
 62
    2
 10
154.32368512736571
 20
-1.9048088550001694
 11
154.32368512736571
 21
9.0257511449998447
  0
LINE
  8
_0-3_躯体と製品
  6
CONTINUOUS
 62
    2
 10
173.12368512736566
 20
29.025751144999845
 11
173.12368512736566
 21
9.0257511449998447
  0
LINE
  8
_0-3_躯体と製品
  6
CONTINUOUS
 62
    2
 10
157.12368512736566
 20
29.025751144999845
 11
157.12368512736566
 21
9.0257511449998447
  0
LINE
  8
_0-3_躯体と製品
  6
CONTINUOUS
 62
    2
 10
165.12368512736566
 20
7.0951911449998306
 11
163.43172512736555
 21
9.0257511449998447
  0
LINE
  8
_0-3_躯体と製品
  6
CONTINUOUS
 62
    2
 10
159.12368512736566
 20
-1.4048088550001694
 11
159.12368512736566
 21
7.0951911449998306
  0
LINE
  8
_0-3_躯体と製品
  6
CONTINUOUS
 62
    2
 10
171.12368512736566
 20
-1.4048088550001694
 11
171.12368512736566
 21
7.0951911449998306
  0
LINE
  8
_0-3_躯体と製品
  6
CONTINUOUS
 62
    2
 10
165.12368512736566
 20
9.0257511449998447
 11
166.81563512736557
 21
7.0951911449998306
  0
LINE
  8
_0-3_躯体と製品
  6
CONTINUOUS
 62
    2
 10
175.92368512736562
 20
-1.9048088550001694
 11
175.92368512736562
 21
9.0257511449998447
  0
LINE
  8
_0-3_躯体と製品
  6
CONTINUOUS
 62
    2
 10
160.40221512736571
 20
42.354551144999846
 11
162.27551512736568
 21
31.114751144999786
  0
LINE
  8
_0-3_躯体と製品
  6
CONTINUOUS
 62
    2
 10
169.84514512736564
 20
42.354551144999846
 11
167.97184512736567
 21
31.114751144999786
  0
LINE
  8
_0-3_躯体と製品
  6
CONTINUOUS
 62
    2
 10
171.67258512736566
 20
29.025751144999845
 11
158.32469512736566
 21
29.025751144999845
  0
ARC
  8
_0-3_躯体と製品
  6
CONTINUOUS
 62
    2
 10
164.7415051273656
 20
31.525751144998935
 40
2.5
 50
189.462320000006
 51
270
  0
LINE
  8
_0-3_躯体と製品
  6
CONTINUOUS
 62
    4
 10
164.7415051273656
 20
29.025751144999845
 11
165.5058651273655
 21
29.025751144999845
  0
ARC
  8
_0-3_躯体と製品
  6
CONTINUOUS
 62
    2
 10
165.5058651273655
 20
31.525751144998935
 40
2.5
 50
270
 51
350.53767000000443
  0
LINE
  8
_0-3_躯体と製品
  6
CONTINUOUS
 62
    2
 10
157.83365512736555
 20
44.025751144999845
 11
158.42942512736568
 21
44.025751144999845
  0
ARC
  8
_0-3_躯体と製品
  6
CONTINUOUS
 62
    2
 10
158.42942512736568
 20
42.025751144999845
 40
2
 50
9.4623222000038201
 51
89.999999999999986
  0
LINE
  8
_0-3_躯体と製品
  6
CONTINUOUS
 62
    2
 10
172.41370512736557
 20
44.025751144999845
 11
171.81793512736567
 21
44.025751144999845
  0
ARC
  8
_0-3_躯体と製品
  6
CONTINUOUS
 62
    2
 10
171.81793512736567
 20
42.025751144999845
 40
2
 50
90
 51
170.5376700000044
  0
LINE
  8
_0-3_躯体と製品
  6
CONTINUOUS
 62
    2
 10
174.62368512736566
 20
44.025751144999845
 11
173.12368512736566
 21
29.025751144999845
  0
LINE
  8
_0-3_躯体と製品
  6
CONTINUOUS
 62
    2
 10
174.62368512736566
 20
44.025751144999845
 11
173.12368512736566
 21
29.025751144999845
  0
LINE
  8
_0-3_躯体と製品
  6
CONTINUOUS
 62
    2
 10
210.12368512736566
 20
-41.204808855000124
 11
210.12368512736566
 21
-38.904808855000169
  0
LINE
  8
_0-4_文字-記号
  6
CONTINUOUS
 62
    4
 10
-10.500424872633971
 20
269.57980114499901
 11
-2.492034872634008
 21
269.57980114499901
  0
LINE
  8
_0-3_躯体と製品
  6
CONTINUOUS
 62
    2
 10
-64.658394872633949
 20
285.95630114499897
 11
5.3416051273660514
 21
285.95630114499897
  0
LINE
  8
_0-3_躯体と製品
  6
CONTINUOUS
 62
    2
 10
0.3416051273660514
 20
335.95630114499897
 11
-59.658394872633949
 21
335.95630114499897
  0
LINE
  8
_0-3_躯体と製品
  6
CONTINUOUS
 62
    2
 10
-64.658394872633949
 20
330.95630114499897
 11
-64.658394872633949
 21
288.25630114499893
  0
LINE
  8
_0-3_躯体と製品
  6
CONTINUOUS
 62
    2
 10
-37.658394872633949
 20
219.02575114499905
 11
-37.658394872633949
 21
239.02575114499916
  0
LINE
  8
_0-3_躯体と製品
  6
CONTINUOUS
 62
    2
 10
-21.658394872633949
 20
219.02575114499905
 11
-21.658394872633949
 21
239.02575114499916
  0
LINE
  8
_0-3_躯体と製品
  6
CONTINUOUS
 62
    2
 10
-39.158394872634062
 20
204.02575114499916
 11
-37.658394872633949
 21
219.02575114499905
  0
LINE
  8
_0-3_躯体と製品
  6
CONTINUOUS
 62
    2
 10
-34.379854872634041
 20
205.69695114499916
 11
-32.506554872633842
 21
216.93675114499899
  0
LINE
  8
_0-3_躯体と製品
  6
CONTINUOUS
 62
    2
 10
-20.158394872633949
 20
204.02575114499916
 11
-21.658394872633949
 21
219.02575114499905
  0
LINE
  8
_0-3_躯体と製品
  6
CONTINUOUS
 62
    2
 10
-24.936924872633995
 20
205.69695114499916
 11
-26.810224872633967
 21
216.93675114499899
  0
ARC
  8
_0-3_躯体と製品
  6
CONTINUOUS
 62
    2
 10
-22.964134872633849
 20
206.02575114499916
 40
2
 50
189.462320000006
 51
270
  0
ARC
  8
_0-3_躯体と製品
  6
CONTINUOUS
 62
    2
 10
-36.948414872633862
 20
206.02575114499916
 40
2
 50
174.28940000000199
 51
270
  0
LINE
  8
_0-3_躯体と製品
  6
CONTINUOUS
 62
    2
 10
-36.948414872633862
 20
204.02575114499916
 11
-36.352644872633959
 21
204.02575114499916
  0
ARC
  8
_0-3_躯体と製品
  6
CONTINUOUS
 62
    2
 10
-36.352644872633959
 20
206.02575114499916
 40
2
 50
270
 51
350.53767000000443
  0
LINE
  8
_0-3_躯体と製品
  6
CONTINUOUS
 62
    2
 10
-22.368364872633947
 20
204.02575114499916
 11
-22.964134872633849
 21
204.02575114499916
  0
ARC
  8
_0-3_躯体と製品
  6
CONTINUOUS
 62
    2
 10
-22.368364872633947
 20
206.02575114499916
 40
2
 50
270
 51
5.7105931000005627
  0
LINE
  8
_0-3_躯体と製品
  6
CONTINUOUS
 62
    2
 10
-23.104814872633938
 20
219.02575114499905
 11
-36.32934487263401
 21
219.02575114499905
  0
ARC
  8
_0-3_躯体と製品
  6
CONTINUOUS
 62
    2
 10
-30.040574872633897
 20
216.52575114499916
 40
2.5
 50
90
 51
170.5376700000044
  0
ARC
  8
_0-3_躯体と製品
  6
CONTINUOUS
 62
    2
 10
-29.276204872634025
 20
216.52575114499916
 40
2.5
 50
9.4623222000038201
 51
89.999999999999986
  0
LINE
  8
_0-3_躯体と製品
  6
CONTINUOUS
 62
    4
 10
-30.040574872633897
 20
219.02575114499905
 11
-29.276204872634025
 21
219.02575114499905
  0
LINE
  8
_0-3_躯体と製品
  6
CONTINUOUS
 62
    4
 10
-24.658394872633949
 20
277.20630114499897
 11
-23.658394872633949
 21
276.33130114499897
  0
LINE
  8
_0-3_躯体と製品
  6
CONTINUOUS
 62
    4
 10
-35.658394872634062
 20
277.20630114499897
 11
-23.658394872633949
 21
276.33130114499897
  0
LINE
  8
_0-3_躯体と製品
  6
CONTINUOUS
 62
    4
 10
-35.658394872634062
 20
277.20630114499897
 11
-34.658394872633949
 21
276.33130114499897
  0
ARC
  8
_0-3_躯体と製品
  6
CONTINUOUS
 62
    2
 10
-38.958394872634017
 20
249.95630114499897
 40
1.5
 50
90
 51
180
  0
LINE
  8
_0-3_躯体と製品
  6
CONTINUOUS
 62
    2
 10
-40.458394872633903
 20
240.95630114499897
 11
-18.85839487263388
 21
240.95630114499897
  0
LINE
  8
_0-3_躯体と製品
  6
CONTINUOUS
 62
    2
 10
-18.85839487263388
 20
239.02575114499916
 11
-40.458394872633903
 21
239.02575114499916
  0
LINE
  8
_0-3_躯体と製品
  6
CONTINUOUS
 62
    2
 10
-40.458394872633903
 20
249.95630114499897
 11
-40.458394872633903
 21
239.02575114499916
  0
LINE
  8
_0-3_躯体と製品
  6
CONTINUOUS
 62
    4
 10
-34.658394872633949
 20
253.58130114499897
 11
-24.658394872633949
 21
252.70630114499897
  0
LINE
  8
_0-3_躯体と製品
  6
CONTINUOUS
 62
    4
 10
-35.658394872634062
 20
252.70630114499897
 11
-34.658394872633949
 21
253.58130114499897
  0
LINE
  8
_0-3_躯体と製品
  6
CONTINUOUS
 62
    4
 10
-23.658394872633949
 20
253.58130114499897
 11
-24.658394872633949
 21
252.70630114499897
  0
LINE
  8
_0-3_躯体と製品
  6
CONTINUOUS
 62
    4
 10
-23.658394872633949
 20
251.83130114499897
 11
-24.086964872633757
 21
251.45630114499897
  0
LINE
  8
_0-3_躯体と製品
  6
CONTINUOUS
 62
    4
 10
-24.658394872633949
 20
252.70630114499897
 11
-23.658394872633949
 21
251.83130114499897
  0
LINE
  8
_0-3_躯体と製品
  6
CONTINUOUS
 62
    4
 10
-35.658394872634062
 20
252.70630114499897
 11
-23.658394872633949
 21
251.83130114499897
  0
LINE
  8
_0-3_躯体と製品
  6
CONTINUOUS
 62
    2
 10
-37.658394872633949
 20
251.45630114499897
 11
-21.658394872633949
 21
251.45630114499897
  0
ARC
  8
_0-3_躯体と製品
  6
CONTINUOUS
 62
    2
 10
-25.658394872633949
 20
249.45630114499897
 40
2
 50
0
 51
90
  0
ARC
  8
_0-3_躯体と製品
  6
CONTINUOUS
 62
    2
 10
-21.658394872633949
 20
249.45630114499897
 40
2
 50
90
 51
180
  0
LINE
  8
_0-3_躯体と製品
  6
CONTINUOUS
 62
    2
 10
-35.658394872634062
 20
249.45630114499897
 11
-35.658394872634062
 21
240.95630114499897
  0
LINE
  8
_0-3_躯体と製品
  6
CONTINUOUS
 62
    2
 10
-29.658394872633949
 20
240.95630114499897
 11
-31.350344872633968
 21
239.02575114499916
  0
LINE
  8
_0-3_躯体と製品
  6
CONTINUOUS
 62
    2
 10
-29.658394872633949
 20
239.02575114499916
 11
-27.966434872633954
 21
240.95630114499897
  0
LINE
  8
_0-3_躯体と製品
  6
CONTINUOUS
 62
    4
 10
-34.658394872633949
 20
251.83130114499897
 11
-30.372674872633979
 21
251.45630114499897
  0
LINE
  8
_0-3_躯体と製品
  6
CONTINUOUS
 62
    4
 10
-25.658394872633949
 20
251.45630114499897
 11
-33.658394872633949
 21
251.45630114499897
  0
LINE
  8
_0-3_躯体と製品
  6
CONTINUOUS
 62
    4
 10
-25.658394872633949
 20
251.45630114499897
 11
-33.658394872633949
 21
251.45630114499897
  0
LINE
  8
_0-3_躯体と製品
  6
CONTINUOUS
 62
    4
 10
-35.086964872633871
 20
251.45630114499897
 11
-34.658394872633949
 21
251.83130114499897
  0
LINE
  8
_0-3_躯体と製品
  6
CONTINUOUS
 62
    4
 10
-35.658394872634062
 20
252.70630114499897
 11
-34.658394872633949
 21
251.83130114499897
  0
ARC
  8
_0-3_躯体と製品
  6
CONTINUOUS
 62
    2
 10
-33.658394872633949
 20
249.45630114499897
 40
2
 50
90
 51
180
  0
ARC
  8
_0-3_躯体と製品
  6
CONTINUOUS
 62
    2
 10
-37.658394872633949
 20
249.45630114499897
 40
2
 50
0
 51
90
  0
LINE
  8
_0-3_躯体と製品
  6
CONTINUOUS
 62
    2
 10
-37.658394872633949
 20
251.45630114499897
 11
-38.958394872634017
 21
251.45630114499897
  0
LINE
  8
_0-3_躯体と製品
  6
CONTINUOUS
 62
    2
 10
-23.658394872633949
 20
249.45630114499897
 11
-23.658394872633949
 21
240.95630114499897
  0
LINE
  8
_0-3_躯体と製品
  6
CONTINUOUS
 62
    2
 10
-18.85839487263388
 20
249.95630114499897
 11
-18.85839487263388
 21
239.02575114499916
  0
LINE
  8
_0-3_躯体と製品
  6
CONTINUOUS
 62
    2
 10
-21.658394872633949
 20
251.45630114499897
 11
-20.358394872633767
 21
251.45630114499897
  0
ARC
  8
_0-3_躯体と製品
  6
CONTINUOUS
 62
    2
 10
-20.358394872633767
 20
249.95630114499897
 40
1.5
 50
0
 51
90
  0
LINE
  8
_0-3_躯体と製品
  6
CONTINUOUS
 62
    4
 10
-24.658394872633949
 20
254.45630114499897
 11
-23.658394872633949
 21
253.58130114499897
  0
LINE
  8
_0-3_躯体と製品
  6
CONTINUOUS
 62
    4
 10
-35.658394872634062
 20
254.45630114499897
 11
-23.658394872633949
 21
253.58130114499897
  0
LINE
  8
_0-3_躯体と製品
  6
CONTINUOUS
 62
    4
 10
-24.658394872633949
 20
256.20630114499897
 11
-23.658394872633949
 21
255.33130114499897
  0
LINE
  8
_0-3_躯体と製品
  6
CONTINUOUS
 62
    4
 10
-23.658394872633949
 20
255.33130114499897
 11
-24.658394872633949
 21
254.45630114499897
  0
LINE
  8
_0-3_躯体と製品
  6
CONTINUOUS
 62
    4
 10
-35.658394872634062
 20
256.20630114499897
 11
-23.658394872633949
 21
255.33130114499897
  0
LINE
  8
_0-3_躯体と製品
  6
CONTINUOUS
 62
    4
 10
-24.658394872633949
 20
257.95630114499897
 11
-23.658394872633949
 21
257.08130114499897
  0
LINE
  8
_0-3_躯体と製品
  6
CONTINUOUS
 62
    4
 10
-23.658394872633949
 20
257.08130114499897
 11
-24.658394872633949
 21
256.20630114499897
  0
LINE
  8
_0-3_躯体と製品
  6
CONTINUOUS
 62
    4
 10
-35.658394872634062
 20
257.95630114499897
 11
-23.658394872633949
 21
257.08130114499897
  0
LINE
  8
_0-3_躯体と製品
  6
CONTINUOUS
 62
    4
 10
-24.658394872633949
 20
259.70630114499897
 11
-23.658394872633949
 21
258.83130114499897
  0
LINE
  8
_0-3_躯体と製品
  6
CONTINUOUS
 62
    4
 10
-23.658394872633949
 20
258.83130114499897
 11
-24.658394872633949
 21
257.95630114499897
  0
LINE
  8
_0-3_躯体と製品
  6
CONTINUOUS
 62
    4
 10
-35.658394872634062
 20
259.70630114499897
 11
-23.658394872633949
 21
258.83130114499897
  0
LINE
  8
_0-3_躯体と製品
  6
CONTINUOUS
 62
    4
 10
-24.658394872633949
 20
261.45630114499909
 11
-23.658394872633949
 21
260.58130114499897
  0
LINE
  8
_0-3_躯体と製品
  6
CONTINUOUS
 62
    4
 10
-23.658394872633949
 20
260.58130114499897
 11
-24.658394872633949
 21
259.70630114499897
  0
LINE
  8
_0-3_躯体と製品
  6
CONTINUOUS
 62
    4
 10
-35.658394872634062
 20
261.45630114499909
 11
-23.658394872633949
 21
260.58130114499897
  0
LINE
  8
_0-3_躯体と製品
  6
CONTINUOUS
 62
    4
 10
-24.658394872633949
 20
263.20630114499909
 11
-23.658394872633949
 21
262.33130114499897
  0
LINE
  8
_0-3_躯体と製品
  6
CONTINUOUS
 62
    4
 10
-23.658394872633949
 20
262.33130114499897
 11
-24.658394872633949
 21
261.45630114499909
  0
LINE
  8
_0-3_躯体と製品
  6
CONTINUOUS
 62
    4
 10
-35.658394872634062
 20
263.20630114499909
 11
-23.658394872633949
 21
262.33130114499897
  0
LINE
  8
_0-3_躯体と製品
  6
CONTINUOUS
 62
    4
 10
-24.658394872633949
 20
264.95630114499909
 11
-23.658394872633949
 21
264.08130114499897
  0
LINE
  8
_0-3_躯体と製品
  6
CONTINUOUS
 62
    4
 10
-23.658394872633949
 20
264.08130114499897
 11
-24.658394872633949
 21
263.20630114499909
  0
LINE
  8
_0-3_躯体と製品
  6
CONTINUOUS
 62
    4
 10
-35.658394872634062
 20
264.95630114499909
 11
-23.658394872633949
 21
264.08130114499897
  0
LINE
  8
_0-3_躯体と製品
  6
CONTINUOUS
 62
    4
 10
-24.658394872633949
 20
266.70630114499897
 11
-23.658394872633949
 21
265.83130114499897
  0
LINE
  8
_0-3_躯体と製品
  6
CONTINUOUS
 62
    4
 10
-23.658394872633949
 20
265.83130114499897
 11
-24.658394872633949
 21
264.95630114499909
  0
LINE
  8
_0-3_躯体と製品
  6
CONTINUOUS
 62
    4
 10
-35.658394872634062
 20
266.70630114499897
 11
-23.658394872633949
 21
265.83130114499897
  0
LINE
  8
_0-3_躯体と製品
  6
CONTINUOUS
 62
    4
 10
-24.658394872633949
 20
268.45630114499897
 11
-23.658394872633949
 21
267.58130114499897
  0
LINE
  8
_0-3_躯体と製品
  6
CONTINUOUS
 62
    4
 10
-23.658394872633949
 20
267.58130114499897
 11
-24.658394872633949
 21
266.70630114499897
  0
LINE
  8
_0-3_躯体と製品
  6
CONTINUOUS
 62
    4
 10
-35.658394872634062
 20
268.45630114499897
 11
-23.658394872633949
 21
267.58130114499897
  0
LINE
  8
_0-3_躯体と製品
  6
CONTINUOUS
 62
    4
 10
-24.658394872633949
 20
270.20630114499897
 11
-23.658394872633949
 21
269.33130114499897
  0
LINE
  8
_0-3_躯体と製品
  6
CONTINUOUS
 62
    4
 10
-23.658394872633949
 20
269.33130114499897
 11
-24.658394872633949
 21
268.45630114499897
  0
LINE
  8
_0-3_躯体と製品
  6
CONTINUOUS
 62
    4
 10
-35.658394872634062
 20
270.20630114499897
 11
-23.658394872633949
 21
269.33130114499897
  0
LINE
  8
_0-3_躯体と製品
  6
CONTINUOUS
 62
    4
 10
-24.658394872633949
 20
271.95630114499897
 11
-23.658394872633949
 21
271.08130114499897
  0
LINE
  8
_0-3_躯体と製品
  6
CONTINUOUS
 62
    4
 10
-23.658394872633949
 20
271.08130114499897
 11
-24.658394872633949
 21
270.20630114499897
  0
LINE
  8
_0-3_躯体と製品
  6
CONTINUOUS
 62
    4
 10
-35.658394872634062
 20
271.95630114499897
 11
-23.658394872633949
 21
271.08130114499897
  0
LINE
  8
_0-3_躯体と製品
  6
CONTINUOUS
 62
    4
 10
-24.658394872633949
 20
273.70630114499897
 11
-23.658394872633949
 21
272.83130114499897
  0
LINE
  8
_0-3_躯体と製品
  6
CONTINUOUS
 62
    4
 10
-23.658394872633949
 20
272.83130114499897
 11
-24.658394872633949
 21
271.95630114499897
  0
LINE
  8
_0-3_躯体と製品
  6
CONTINUOUS
 62
    4
 10
-35.658394872634062
 20
273.70630114499897
 11
-23.658394872633949
 21
272.83130114499897
  0
LINE
  8
_0-3_躯体と製品
  6
CONTINUOUS
 62
    4
 10
-24.658394872633949
 20
275.45630114499897
 11
-23.658394872633949
 21
274.58130114499897
  0
LINE
  8
_0-3_躯体と製品
  6
CONTINUOUS
 62
    4
 10
-23.658394872633949
 20
274.58130114499897
 11
-24.658394872633949
 21
273.70630114499897
  0
LINE
  8
_0-3_躯体と製品
  6
CONTINUOUS
 62
    4
 10
-35.658394872634062
 20
275.45630114499897
 11
-23.658394872633949
 21
274.58130114499897
  0
LINE
  8
_0-3_躯体と製品
  6
CONTINUOUS
 62
    4
 10
-23.658394872633949
 20
276.33130114499897
 11
-24.658394872633949
 21
275.45630114499897
  0
LINE
  8
_0-3_躯体と製品
  6
CONTINUOUS
 62
    4
 10
-35.658394872634062
 20
264.95630114499909
 11
-34.658394872633949
 21
264.08130114499897
  0
LINE
  8
_0-3_躯体と製品
  6
CONTINUOUS
 62
    4
 10
-34.658394872633949
 20
255.33130114499897
 11
-24.658394872633949
 21
254.45630114499897
  0
LINE
  8
_0-3_躯体と製品
  6
CONTINUOUS
 62
    4
 10
-34.658394872633949
 20
257.08130114499897
 11
-24.658394872633949
 21
256.20630114499897
  0
LINE
  8
_0-3_躯体と製品
  6
CONTINUOUS
 62
    4
 10
-34.658394872633949
 20
258.83130114499897
 11
-24.658394872633949
 21
257.95630114499897
  0
LINE
  8
_0-3_躯体と製品
  6
CONTINUOUS
 62
    4
 10
-34.658394872633949
 20
260.58130114499897
 11
-24.658394872633949
 21
259.70630114499897
  0
LINE
  8
_0-3_躯体と製品
  6
CONTINUOUS
 62
    4
 10
-34.658394872633949
 20
262.33130114499897
 11
-24.658394872633949
 21
261.45630114499909
  0
LINE
  8
_0-3_躯体と製品
  6
CONTINUOUS
 62
    4
 10
-34.658394872633949
 20
264.08130114499897
 11
-24.658394872633949
 21
263.20630114499909
  0
LINE
  8
_0-3_躯体と製品
  6
CONTINUOUS
 62
    4
 10
-35.658394872634062
 20
254.45630114499897
 11
-34.658394872633949
 21
255.33130114499897
  0
LINE
  8
_0-3_躯体と製品
  6
CONTINUOUS
 62
    4
 10
-35.658394872634062
 20
254.45630114499897
 11
-34.658394872633949
 21
253.58130114499897
  0
LINE
  8
_0-3_躯体と製品
  6
CONTINUOUS
 62
    4
 10
-35.658394872634062
 20
256.20630114499897
 11
-34.658394872633949
 21
257.08130114499897
  0
LINE
  8
_0-3_躯体と製品
  6
CONTINUOUS
 62
    4
 10
-35.658394872634062
 20
256.20630114499897
 11
-34.658394872633949
 21
255.33130114499897
  0
LINE
  8
_0-3_躯体と製品
  6
CONTINUOUS
 62
    4
 10
-35.658394872634062
 20
257.95630114499897
 11
-34.658394872633949
 21
258.83130114499897
  0
LINE
  8
_0-3_躯体と製品
  6
CONTINUOUS
 62
    4
 10
-35.658394872634062
 20
257.95630114499897
 11
-34.658394872633949
 21
257.08130114499897
  0
LINE
  8
_0-3_躯体と製品
  6
CONTINUOUS
 62
    4
 10
-35.658394872634062
 20
259.70630114499897
 11
-34.658394872633949
 21
260.58130114499897
  0
LINE
  8
_0-3_躯体と製品
  6
CONTINUOUS
 62
    4
 10
-35.658394872634062
 20
259.70630114499897
 11
-34.658394872633949
 21
258.83130114499897
  0
LINE
  8
_0-3_躯体と製品
  6
CONTINUOUS
 62
    4
 10
-35.658394872634062
 20
261.45630114499909
 11
-34.658394872633949
 21
262.33130114499897
  0
LINE
  8
_0-3_躯体と製品
  6
CONTINUOUS
 62
    4
 10
-35.658394872634062
 20
261.45630114499909
 11
-34.658394872633949
 21
260.58130114499897
  0
LINE
  8
_0-3_躯体と製品
  6
CONTINUOUS
 62
    4
 10
-35.658394872634062
 20
263.20630114499909
 11
-34.658394872633949
 21
264.08130114499897
  0
LINE
  8
_0-3_躯体と製品
  6
CONTINUOUS
 62
    4
 10
-35.658394872634062
 20
263.20630114499909
 11
-34.658394872633949
 21
262.33130114499897
  0
LINE
  8
_0-3_躯体と製品
  6
CONTINUOUS
 62
    4
 10
-34.658394872633949
 20
265.83130114499897
 11
-24.658394872633949
 21
264.95630114499909
  0
LINE
  8
_0-3_躯体と製品
  6
CONTINUOUS
 62
    4
 10
-34.658394872633949
 20
267.58130114499897
 11
-24.658394872633949
 21
266.70630114499897
  0
LINE
  8
_0-3_躯体と製品
  6
CONTINUOUS
 62
    4
 10
-34.658394872633949
 20
269.33130114499897
 11
-24.658394872633949
 21
268.45630114499897
  0
LINE
  8
_0-3_躯体と製品
  6
CONTINUOUS
 62
    4
 10
-34.658394872633949
 20
271.08130114499897
 11
-24.658394872633949
 21
270.20630114499897
  0
LINE
  8
_0-3_躯体と製品
  6
CONTINUOUS
 62
    4
 10
-34.658394872633949
 20
272.83130114499897
 11
-24.658394872633949
 21
271.95630114499897
  0
LINE
  8
_0-3_躯体と製品
  6
CONTINUOUS
 62
    4
 10
-34.658394872633949
 20
274.58130114499897
 11
-24.658394872633949
 21
273.70630114499897
  0
LINE
  8
_0-3_躯体と製品
  6
CONTINUOUS
 62
    4
 10
-34.658394872633949
 20
276.33130114499897
 11
-24.658394872633949
 21
275.45630114499897
  0
LINE
  8
_0-3_躯体と製品
  6
CONTINUOUS
 62
    4
 10
-35.658394872634062
 20
264.95630114499909
 11
-34.658394872633949
 21
265.83130114499897
  0
LINE
  8
_0-3_躯体と製品
  6
CONTINUOUS
 62
    4
 10
-35.658394872634062
 20
266.70630114499897
 11
-34.658394872633949
 21
267.58130114499897
  0
LINE
  8
_0-3_躯体と製品
  6
CONTINUOUS
 62
    4
 10
-35.658394872634062
 20
266.70630114499897
 11
-34.658394872633949
 21
265.83130114499897
  0
LINE
  8
_0-3_躯体と製品
  6
CONTINUOUS
 62
    4
 10
-35.658394872634062
 20
268.45630114499897
 11
-34.658394872633949
 21
269.33130114499897
  0
LINE
  8
_0-3_躯体と製品
  6
CONTINUOUS
 62
    4
 10
-35.658394872634062
 20
268.45630114499897
 11
-34.658394872633949
 21
267.58130114499897
  0
LINE
  8
_0-3_躯体と製品
  6
CONTINUOUS
 62
    4
 10
-35.658394872634062
 20
270.20630114499897
 11
-34.658394872633949
 21
271.08130114499897
  0
LINE
  8
_0-3_躯体と製品
  6
CONTINUOUS
 62
    4
 10
-35.658394872634062
 20
270.20630114499897
 11
-34.658394872633949
 21
269.33130114499897
  0
LINE
  8
_0-3_躯体と製品
  6
CONTINUOUS
 62
    4
 10
-35.658394872634062
 20
271.95630114499897
 11
-34.658394872633949
 21
272.83130114499897
  0
LINE
  8
_0-3_躯体と製品
  6
CONTINUOUS
 62
    4
 10
-35.658394872634062
 20
271.95630114499897
 11
-34.658394872633949
 21
271.08130114499897
  0
LINE
  8
_0-3_躯体と製品
  6
CONTINUOUS
 62
    4
 10
-35.658394872634062
 20
273.70630114499897
 11
-34.658394872633949
 21
274.58130114499897
  0
LINE
  8
_0-3_躯体と製品
  6
CONTINUOUS
 62
    4
 10
-35.658394872634062
 20
273.70630114499897
 11
-34.658394872633949
 21
272.83130114499897
  0
LINE
  8
_0-3_躯体と製品
  6
CONTINUOUS
 62
    4
 10
-35.658394872634062
 20
275.45630114499897
 11
-34.658394872633949
 21
276.33130114499897
  0
LINE
  8
_0-3_躯体と製品
  6
CONTINUOUS
 62
    4
 10
-35.658394872634062
 20
275.45630114499897
 11
-34.658394872633949
 21
274.58130114499897
  0
LINE
  8
_0-4_文字-記号
  6
CONTINUOUS
 62
    4
 10
-17.926194872634028
 20
256.7179911449989
 11
-10.500424872633971
 21
269.57980114499901
  0
LINE
  8
_0-4_文字-記号
  6
CONTINUOUS
 62
    4
 10
-17.926194872634028
 20
256.7179911449989
 11
-15.804874872633945
 21
258.83932114499896
  0
LINE
  8
_0-4_文字-記号
  6
CONTINUOUS
 62
    4
 10
-17.926194872634028
 20
256.7179911449989
 11
-17.149734872634099
 21
259.61577114499914
  0
ARC
  8
_0-3_躯体と製品
  6
CONTINUOUS
 62
    2
 10
-38.721374872633987
 20
291.45630114499897
 40
10
 50
237.26476999999511
 51
270
  0
LINE
  8
_0-3_躯体と製品
  6
CONTINUOUS
 62
    2
 10
-64.658394872633949
 20
285.95630114499897
 11
-64.658394872633949
 21
288.25630114499893
  0
LINE
  8
_0-3_躯体と製品
  6
CONTINUOUS
 62
    2
 10
-44.128944872634065
 20
283.04452114499907
 11
-48.658394872633949
 21
285.95630114499897
  0
LINE
  8
_0-3_躯体と製品
  6
CONTINUOUS
 62
    4
 10
-23.801244872633902
 20
281.45630114499897
 11
-24.658394872633949
 21
280.70630114499897
  0
LINE
  8
_0-3_躯体と製品
  6
CONTINUOUS
 62
    4
 10
-24.658394872633949
 20
278.95630114499897
 11
-23.658394872633949
 21
278.08130114499897
  0
LINE
  8
_0-3_躯体と製品
  6
CONTINUOUS
 62
    4
 10
-23.658394872633949
 20
278.08130114499897
 11
-24.658394872633949
 21
277.20630114499897
  0
LINE
  8
_0-3_躯体と製品
  6
CONTINUOUS
 62
    4
 10
-35.658394872634062
 20
278.95630114499897
 11
-23.658394872633949
 21
278.08130114499897
  0
LINE
  8
_0-3_躯体と製品
  6
CONTINUOUS
 62
    4
 10
-35.658394872634062
 20
280.70630114499897
 11
-23.658394872633949
 21
279.83130114499897
  0
LINE
  8
_0-3_躯体と製品
  6
CONTINUOUS
 62
    4
 10
-23.658394872633949
 20
279.83130114499897
 11
-24.658394872633949
 21
278.95630114499897
  0
LINE
  8
_0-3_躯体と製品
  6
CONTINUOUS
 62
    4
 10
-24.658394872633949
 20
280.70630114499897
 11
-23.658394872633949
 21
279.83130114499897
  0
LINE
  8
_0-3_躯体と製品
  6
CONTINUOUS
 62
    2
 10
-20.595404872634049
 20
281.45630114499897
 11
-38.721374872633987
 21
281.45630114499897
  0
LINE
  8
_0-3_躯体と製品
  6
CONTINUOUS
 62
    2
 10
-22.158394872633949
 20
281.45630114499897
 11
-37.158394872633949
 21
281.45630114499897
  0
LINE
  8
_0-3_躯体と製品
  6
CONTINUOUS
 62
    4
 10
-33.229814872633938
 20
281.45630114499897
 11
-24.658394872633949
 21
280.70630114499897
  0
LINE
  8
_0-3_躯体と製品
  6
CONTINUOUS
 62
    4
 10
-34.658394872633949
 20
278.08130114499897
 11
-24.658394872633949
 21
277.20630114499897
  0
LINE
  8
_0-3_躯体と製品
  6
CONTINUOUS
 62
    4
 10
-34.658394872633949
 20
279.83130114499897
 11
-24.658394872633949
 21
278.95630114499897
  0
LINE
  8
_0-3_躯体と製品
  6
CONTINUOUS
 62
    4
 10
-34.158394872633949
 20
281.45630114499897
 11
-25.158394872633949
 21
281.45630114499897
  0
LINE
  8
_0-3_躯体と製品
  6
CONTINUOUS
 62
    4
 10
-35.658394872634062
 20
280.70630114499897
 11
-34.801244872634015
 21
281.45630114499897
  0
LINE
  8
_0-3_躯体と製品
  6
CONTINUOUS
 62
    4
 10
-35.658394872634062
 20
277.20630114499897
 11
-34.658394872633949
 21
278.08130114499897
  0
LINE
  8
_0-3_躯体と製品
  6
CONTINUOUS
 62
    4
 10
-35.658394872634062
 20
278.95630114499897
 11
-34.658394872633949
 21
279.83130114499897
  0
LINE
  8
_0-3_躯体と製品
  6
CONTINUOUS
 62
    4
 10
-35.658394872634062
 20
278.95630114499897
 11
-34.658394872633949
 21
278.08130114499897
  0
LINE
  8
_0-3_躯体と製品
  6
CONTINUOUS
 62
    4
 10
-35.658394872634062
 20
280.70630114499897
 11
-34.658394872633949
 21
279.83130114499897
  0
LINE
  8
_0-3_躯体と製品
  6
CONTINUOUS
 62
    2
 10
-37.158394872633949
 20
281.45630114499897
 11
-38.958394872634017
 21
281.45630114499897
  0
ARC
  8
_0-3_躯体と製品
  6
CONTINUOUS
 62
    2
 10
-20.595404872634049
 20
291.45630114499897
 40
10
 50
270
 51
302.73522000000128
  0
LINE
  8
_0-3_躯体と製品
  6
CONTINUOUS
 62
    2
 10
-22.158394872633949
 20
281.45630114499897
 11
-20.358394872633767
 21
281.45630114499897
  0
LINE
  8
_0-3_躯体と製品
  6
CONTINUOUS
 62
    2
 10
-15.187834872633971
 20
283.04452114499907
 11
-10.658394872634062
 21
285.95630114499897
  0
CIRCLE
  8
_0-3_躯体と製品
  6
CONTINUOUS
 62
    2
 10
-54.658394872633949
 20
325.95630114499897
 40
2.5
  0
ARC
  8
_0-3_躯体と製品
  6
CONTINUOUS
 62
    2
 10
-59.658394872633949
 20
330.95630114499897
 40
5
 50
90
 51
180
  0
LINE
  8
_0-4_文字-記号
  6
CONTINUOUS
 62
    4
 10
191.19272512736552
 20
290.93016114499915
 11
201.43337512736571
 21
329.14881114499917
  0
LINE
  8
_0-3_躯体と製品
  6
CONTINUOUS
 62
    2
 10
5.3416051273660514
 20
330.95630114499897
 11
5.3416051273660514
 21
288.25630114499893
  0
LINE
  8
_0-3_躯体と製品
  6
CONTINUOUS
 62
    2
 10
117.82368512736571
 20
289.25630114499893
 11
117.82368512736571
 21
335.95630114499897
  0
LINE
  8
_0-3_躯体と製品
  6
CONTINUOUS
 62
    2
 10
120.12368512736566
 20
289.25630114499893
 11
120.12368512736566
 21
335.95630114499897
  0
LINE
  8
_0-4_文字-記号
  6
CONTINUOUS
 62
    4
 10
135.78961512736555
 20
284.11465114499913
 11
119.98753512736562
 21
225.14049114499915
  0
LINE
  8
_0-3_躯体と製品
  6
CONTINUOUS
 62
    2
 10
121.12368512736566
 20
289.25630114499893
 11
209.12368512736566
 21
289.25630114499893
  0
LINE
  8
_0-3_躯体と製品
  6
CONTINUOUS
 62
    2
 10
121.12368512736566
 20
285.95630114499897
 11
209.12368512736566
 21
285.95630114499897
  0
LINE
  8
_0-3_躯体と製品
  6
CONTINUOUS
 62
    2
 10
121.12368512736566
 20
288.25630114499893
 11
209.12368512736566
 21
288.25630114499893
  0
LINE
  8
_0-4_文字-記号
  6
CONTINUOUS
 62
    4
 10
0.4910251273660151
 20
138.32501114499905
 11
11.711545127365866
 21
138.32501114499905
  0
TEXT
  8
_0-4_文字-記号
 62
    7
 10
73.388985127365913
 20
221.57208114499906
 40
5
 41
0.8
 50
0
  1
大引受け金具
  0
LINE
  8
_0-4_文字-記号
  6
CONTINUOUS
 62
    4
 10
119.98753512736562
 20
225.14049114499915
 11
110.83126512736567
 21
225.14049114499915
  0
TEXT
  8
_0-4_文字-記号
 62
    7
 10
-1.8871148726337879
 20
266.81964114499908
 40
5
 41
0.8
 50
0
  1
M12ボルト・ナット
  0
LINE
  8
_0-3_躯体と製品
  6
CONTINUOUS
 62
    2
 10
5.3416051273660514
 20
285.95630114499897
 11
5.3416051273660514
 21
288.25630114499893
  0
CIRCLE
  8
_0-3_躯体と製品
  6
CONTINUOUS
 62
    2
 10
-4.6583948726339486
 20
310.95630114499897
 40
2.5
  0
LINE
  8
_0-3_躯体と製品
  6
CONTINUOUS
 62
    4
 10
117.82368512736571
 20
294.57430114499903
 11
117.82368512736571
 21
303.0757911449989
  0
ARC
  8
_0-3_躯体と製品
  6
CONTINUOUS
 62
    2
 10
121.12368512736566
 20
289.25630114499893
 40
3.2999999999999989
 50
180
 51
270
  0
ARC
  8
_0-3_躯体と製品
  6
CONTINUOUS
 62
    2
 10
121.12368512736566
 20
289.25630114499893
 40
1
 50
180
 51
270
  0
LINE
  8
_0-3_躯体と製品
  6
CONTINUOUS
 62
    2
 10
121.12368512736566
 20
289.25630114499893
 11
121.12368512736566
 21
288.25630114499893
  0
LINE
  8
_0-3_躯体と製品
  6
CONTINUOUS
 62
    2
 10
157.12368512736566
 20
219.02575114499905
 11
157.12368512736566
 21
239.02575114499916
  0
LINE
  8
_0-3_躯体と製品
  6
CONTINUOUS
 62
    2
 10
173.12368512736566
 20
219.02575114499905
 11
173.12368512736566
 21
239.02575114499916
  0
LINE
  8
_0-3_躯体と製品
  6
CONTINUOUS
 62
    2
 10
155.62368512736566
 20
204.02575114499916
 11
157.12368512736566
 21
219.02575114499905
  0
ARC
  8
_0-3_躯体と製品
  6
CONTINUOUS
 62
    2
 10
157.83365512736555
 20
206.02575114499916
 40
2
 50
174.28940000000199
 51
270
  0
LINE
  8
_0-3_躯体と製品
  6
CONTINUOUS
 62
    2
 10
160.40221512736571
 20
205.69695114499916
 11
162.27551512736568
 21
216.93675114499899
  0
LINE
  8
_0-3_躯体と製品
  6
CONTINUOUS
 62
    2
 10
174.62368512736566
 20
204.02575114499916
 11
173.12368512736566
 21
219.02575114499905
  0
LINE
  8
_0-3_躯体と製品
  6
CONTINUOUS
 62
    2
 10
169.84514512736564
 20
205.69695114499916
 11
167.97184512736567
 21
216.93675114499899
  0
ARC
  8
_0-3_躯体と製品
  6
CONTINUOUS
 62
    2
 10
172.41370512736557
 20
206.02575114499916
 40
2
 50
270
 51
5.7105931000005627
  0
LINE
  8
_0-3_躯体と製品
  6
CONTINUOUS
 62
    2
 10
157.83365512736555
 20
204.02575114499916
 11
158.42942512736568
 21
204.02575114499916
  0
ARC
  8
_0-3_躯体と製品
  6
CONTINUOUS
 62
    2
 10
158.42942512736568
 20
206.02575114499916
 40
2
 50
270
 51
350.53767000000443
  0
LINE
  8
_0-3_躯体と製品
  6
CONTINUOUS
 62
    2
 10
172.41370512736557
 20
204.02575114499916
 11
171.81793512736567
 21
204.02575114499916
  0
ARC
  8
_0-3_躯体と製品
  6
CONTINUOUS
 62
    2
 10
171.81793512736567
 20
206.02575114499916
 40
2
 50
189.462320000006
 51
270
  0
ARC
  8
_0-3_躯体と製品
  6
CONTINUOUS
 62
    2
 10
164.7415051273656
 20
216.52575114499916
 40
2.5
 50
90
 51
170.5376700000044
  0
ARC
  8
_0-3_躯体と製品
  6
CONTINUOUS
 62
    2
 10
165.5058651273655
 20
216.52575114499916
 40
2.5
 50
9.4623222000038201
 51
89.999999999999986
  0
LINE
  8
_0-3_躯体と製品
  6
CONTINUOUS
 62
    2
 10
171.6772551273657
 20
219.02575114499905
 11
158.45272512736551
 21
219.02575114499905
  0
LINE
  8
_0-3_躯体と製品
  6
CONTINUOUS
 62
    4
 10
164.7415051273656
 20
219.02575114499905
 11
165.5058651273655
 21
219.02575114499905
  0
LINE
  8
_0-3_躯体と製品
  6
CONTINUOUS
 62
    2
 10
184.12368512736566
 20
285.95630114499897
 11
198.30200512736565
 21
285.95630114499897
  0
LINE
  8
_0-3_躯体と製品
  6
CONTINUOUS
 62
    2
 10
198.01873512736552
 20
288.25630114499893
 11
183.44816512736566
 21
288.25630114499893
  0
LINE
  8
_0-3_躯体と製品
  6
CONTINUOUS
 62
    4
 10
170.12368512736566
 20
277.20630114499897
 11
171.12368512736566
 21
276.33130114499897
  0
LINE
  8
_0-3_躯体と製品
  6
CONTINUOUS
 62
    4
 10
159.12368512736566
 20
277.20630114499897
 11
171.12368512736566
 21
276.33130114499897
  0
LINE
  8
_0-3_躯体と製品
  6
CONTINUOUS
 62
    4
 10
159.12368512736566
 20
277.20630114499897
 11
160.12368512736566
 21
276.33130114499897
  0
LINE
  8
_0-3_躯体と製品
  6
CONTINUOUS
 62
    2
 10
157.12368512736566
 20
251.45630114499897
 11
155.82368512736571
 21
251.45630114499897
  0
LINE
  8
_0-3_躯体と製品
  6
CONTINUOUS
 62
    2
 10
154.32368512736571
 20
240.95630114499897
 11
175.92368512736562
 21
240.95630114499897
  0
LINE
  8
_0-3_躯体と製品
  6
CONTINUOUS
 62
    2
 10
175.92368512736562
 20
239.02575114499916
 11
154.32368512736571
 21
239.02575114499916
  0
LINE
  8
_0-3_躯体と製品
  6
CONTINUOUS
 62
    2
 10
154.32368512736571
 20
249.95630114499897
 11
154.32368512736571
 21
239.02575114499916
  0
ARC
  8
_0-3_躯体と製品
  6
CONTINUOUS
 62
    2
 10
155.82368512736571
 20
249.95630114499897
 40
1.5
 50
90
 51
180
  0
LINE
  8
_0-3_躯体と製品
  6
CONTINUOUS
 62
    4
 10
160.12368512736566
 20
253.58130114499897
 11
170.12368512736566
 21
252.70630114499897
  0
LINE
  8
_0-3_躯体と製品
  6
CONTINUOUS
 62
    4
 10
159.12368512736566
 20
252.70630114499897
 11
160.12368512736566
 21
253.58130114499897
  0
LINE
  8
_0-3_躯体と製品
  6
CONTINUOUS
 62
    4
 10
171.12368512736566
 20
253.58130114499897
 11
170.12368512736566
 21
252.70630114499897
  0
LINE
  8
_0-3_躯体と製品
  6
CONTINUOUS
 62
    2
 10
157.12368512736566
 20
251.45630114499897
 11
173.12368512736566
 21
251.45630114499897
  0
ARC
  8
_0-3_躯体と製品
  6
CONTINUOUS
 62
    2
 10
173.12368512736566
 20
249.45630114499897
 40
2
 50
90
 51
180
  0
LINE
  8
_0-3_躯体と製品
  6
CONTINUOUS
 62
    2
 10
159.12368512736566
 20
249.45630114499897
 11
159.12368512736566
 21
240.95630114499897
  0
LINE
  8
_0-3_躯体と製品
  6
CONTINUOUS
 62
    2
 10
171.12368512736566
 20
249.45630114499897
 11
171.12368512736566
 21
240.95630114499897
  0
LINE
  8
_0-3_躯体と製品
  6
CONTINUOUS
 62
    2
 10
165.12368512736566
 20
240.95630114499897
 11
163.43172512736555
 21
239.02575114499916
  0
LINE
  8
_0-3_躯体と製品
  6
CONTINUOUS
 62
    2
 10
165.12368512736566
 20
239.02575114499916
 11
166.81563512736557
 21
240.95630114499897
  0
LINE
  8
_0-3_躯体と製品
  6
CONTINUOUS
 62
    4
 10
159.12368512736566
 20
252.70630114499897
 11
171.12368512736566
 21
251.83130114499897
  0
LINE
  8
_0-3_躯体と製品
  6
CONTINUOUS
 62
    4
 10
169.12368512736566
 20
251.45630114499897
 11
161.12368512736566
 21
251.45630114499897
  0
LINE
  8
_0-3_躯体と製品
  6
CONTINUOUS
 62
    4
 10
169.12368512736566
 20
251.45630114499897
 11
161.12368512736566
 21
251.45630114499897
  0
LINE
  8
_0-3_躯体と製品
  6
CONTINUOUS
 62
    4
 10
159.69511512736563
 20
251.45630114499897
 11
160.12368512736566
 21
251.83130114499897
  0
LINE
  8
_0-3_躯体と製品
  6
CONTINUOUS
 62
    4
 10
160.12368512736566
 20
251.83130114499897
 11
164.40939512736554
 21
251.45630114499897
  0
LINE
  8
_0-3_躯体と製品
  6
CONTINUOUS
 62
    4
 10
159.12368512736566
 20
252.70630114499897
 11
160.12368512736566
 21
251.83130114499897
  0
ARC
  8
_0-3_躯体と製品
  6
CONTINUOUS
 62
    2
 10
161.12368512736566
 20
249.45630114499897
 40
2
 50
90
 51
180
  0
ARC
  8
_0-3_躯体と製品
  6
CONTINUOUS
 62
    2
 10
157.12368512736566
 20
249.45630114499897
 40
2
 50
0
 51
90
  0
LINE
  8
_0-3_躯体と製品
  6
CONTINUOUS
 62
    4
 10
171.12368512736566
 20
251.83130114499897
 11
170.69511512736563
 21
251.45630114499897
  0
LINE
  8
_0-3_躯体と製品
  6
CONTINUOUS
 62
    4
 10
170.12368512736566
 20
252.70630114499897
 11
171.12368512736566
 21
251.83130114499897
  0
ARC
  8
_0-3_躯体と製品
  6
CONTINUOUS
 62
    2
 10
169.12368512736566
 20
249.45630114499897
 40
2
 50
0
 51
90
  0
LINE
  8
_0-3_躯体と製品
  6
CONTINUOUS
 62
    2
 10
175.92368512736562
 20
249.95630114499897
 11
175.92368512736562
 21
239.02575114499916
  0
LINE
  8
_0-3_躯体と製品
  6
CONTINUOUS
 62
    2
 10
173.12368512736566
 20
251.45630114499897
 11
174.42368512736562
 21
251.45630114499897
  0
ARC
  8
_0-3_躯体と製品
  6
CONTINUOUS
 62
    2
 10
174.42368512736562
 20
249.95630114499897
 40
1.5
 50
0
 51
90
  0
LINE
  8
_0-3_躯体と製品
  6
CONTINUOUS
 62
    4
 10
170.12368512736566
 20
264.95630114499909
 11
171.12368512736566
 21
264.08130114499897
  0
LINE
  8
_0-3_躯体と製品
  6
CONTINUOUS
 62
    4
 10
159.12368512736566
 20
264.95630114499909
 11
171.12368512736566
 21
264.08130114499897
  0
LINE
  8
_0-3_躯体と製品
  6
CONTINUOUS
 62
    4
 10
159.12368512736566
 20
264.95630114499909
 11
160.12368512736566
 21
264.08130114499897
  0
LINE
  8
_0-3_躯体と製品
  6
CONTINUOUS
 62
    4
 10
160.12368512736566
 20
255.33130114499897
 11
170.12368512736566
 21
254.45630114499897
  0
LINE
  8
_0-3_躯体と製品
  6
CONTINUOUS
 62
    4
 10
159.12368512736566
 20
254.45630114499897
 11
171.12368512736566
 21
253.58130114499897
  0
LINE
  8
_0-3_躯体と製品
  6
CONTINUOUS
 62
    4
 10
160.12368512736566
 20
257.08130114499897
 11
170.12368512736566
 21
256.20630114499897
  0
LINE
  8
_0-3_躯体と製品
  6
CONTINUOUS
 62
    4
 10
159.12368512736566
 20
256.20630114499897
 11
171.12368512736566
 21
255.33130114499897
  0
LINE
  8
_0-3_躯体と製品
  6
CONTINUOUS
 62
    4
 10
160.12368512736566
 20
258.83130114499897
 11
170.12368512736566
 21
257.95630114499897
  0
LINE
  8
_0-3_躯体と製品
  6
CONTINUOUS
 62
    4
 10
159.12368512736566
 20
257.95630114499897
 11
171.12368512736566
 21
257.08130114499897
  0
LINE
  8
_0-3_躯体と製品
  6
CONTINUOUS
 62
    4
 10
160.12368512736566
 20
260.58130114499897
 11
170.12368512736566
 21
259.70630114499897
  0
LINE
  8
_0-3_躯体と製品
  6
CONTINUOUS
 62
    4
 10
159.12368512736566
 20
259.70630114499897
 11
171.12368512736566
 21
258.83130114499897
  0
LINE
  8
_0-3_躯体と製品
  6
CONTINUOUS
 62
    4
 10
160.12368512736566
 20
262.33130114499897
 11
170.12368512736566
 21
261.45630114499909
  0
LINE
  8
_0-3_躯体と製品
  6
CONTINUOUS
 62
    4
 10
159.12368512736566
 20
261.45630114499909
 11
171.12368512736566
 21
260.58130114499897
  0
LINE
  8
_0-3_躯体と製品
  6
CONTINUOUS
 62
    4
 10
160.12368512736566
 20
264.08130114499897
 11
170.12368512736566
 21
263.20630114499909
  0
LINE
  8
_0-3_躯体と製品
  6
CONTINUOUS
 62
    4
 10
159.12368512736566
 20
263.20630114499909
 11
171.12368512736566
 21
262.33130114499897
  0
LINE
  8
_0-3_躯体と製品
  6
CONTINUOUS
 62
    4
 10
159.12368512736566
 20
254.45630114499897
 11
160.12368512736566
 21
255.33130114499897
  0
LINE
  8
_0-3_躯体と製品
  6
CONTINUOUS
 62
    4
 10
159.12368512736566
 20
254.45630114499897
 11
160.12368512736566
 21
253.58130114499897
  0
LINE
  8
_0-3_躯体と製品
  6
CONTINUOUS
 62
    4
 10
159.12368512736566
 20
256.20630114499897
 11
160.12368512736566
 21
257.08130114499897
  0
LINE
  8
_0-3_躯体と製品
  6
CONTINUOUS
 62
    4
 10
159.12368512736566
 20
256.20630114499897
 11
160.12368512736566
 21
255.33130114499897
  0
LINE
  8
_0-3_躯体と製品
  6
CONTINUOUS
 62
    4
 10
159.12368512736566
 20
257.95630114499897
 11
160.12368512736566
 21
258.83130114499897
  0
LINE
  8
_0-3_躯体と製品
  6
CONTINUOUS
 62
    4
 10
159.12368512736566
 20
257.95630114499897
 11
160.12368512736566
 21
257.08130114499897
  0
LINE
  8
_0-3_躯体と製品
  6
CONTINUOUS
 62
    4
 10
159.12368512736566
 20
259.70630114499897
 11
160.12368512736566
 21
260.58130114499897
  0
LINE
  8
_0-3_躯体と製品
  6
CONTINUOUS
 62
    4
 10
159.12368512736566
 20
259.70630114499897
 11
160.12368512736566
 21
258.83130114499897
  0
LINE
  8
_0-3_躯体と製品
  6
CONTINUOUS
 62
    4
 10
159.12368512736566
 20
261.45630114499909
 11
160.12368512736566
 21
262.33130114499897
  0
LINE
  8
_0-3_躯体と製品
  6
CONTINUOUS
 62
    4
 10
159.12368512736566
 20
261.45630114499909
 11
160.12368512736566
 21
260.58130114499897
  0
LINE
  8
_0-3_躯体と製品
  6
CONTINUOUS
 62
    4
 10
159.12368512736566
 20
263.20630114499909
 11
160.12368512736566
 21
264.08130114499897
  0
LINE
  8
_0-3_躯体と製品
  6
CONTINUOUS
 62
    4
 10
159.12368512736566
 20
263.20630114499909
 11
160.12368512736566
 21
262.33130114499897
  0
LINE
  8
_0-3_躯体と製品
  6
CONTINUOUS
 62
    4
 10
170.12368512736566
 20
254.45630114499897
 11
171.12368512736566
 21
253.58130114499897
  0
LINE
  8
_0-3_躯体と製品
  6
CONTINUOUS
 62
    4
 10
170.12368512736566
 20
256.20630114499897
 11
171.12368512736566
 21
255.33130114499897
  0
LINE
  8
_0-3_躯体と製品
  6
CONTINUOUS
 62
    4
 10
171.12368512736566
 20
255.33130114499897
 11
170.12368512736566
 21
254.45630114499897
  0
LINE
  8
_0-3_躯体と製品
  6
CONTINUOUS
 62
    4
 10
170.12368512736566
 20
257.95630114499897
 11
171.12368512736566
 21
257.08130114499897
  0
LINE
  8
_0-3_躯体と製品
  6
CONTINUOUS
 62
    4
 10
171.12368512736566
 20
257.08130114499897
 11
170.12368512736566
 21
256.20630114499897
  0
LINE
  8
_0-3_躯体と製品
  6
CONTINUOUS
 62
    4
 10
170.12368512736566
 20
259.70630114499897
 11
171.12368512736566
 21
258.83130114499897
  0
LINE
  8
_0-3_躯体と製品
  6
CONTINUOUS
 62
    4
 10
171.12368512736566
 20
258.83130114499897
 11
170.12368512736566
 21
257.95630114499897
  0
LINE
  8
_0-3_躯体と製品
  6
CONTINUOUS
 62
    4
 10
170.12368512736566
 20
261.45630114499909
 11
171.12368512736566
 21
260.58130114499897
  0
LINE
  8
_0-3_躯体と製品
  6
CONTINUOUS
 62
    4
 10
171.12368512736566
 20
260.58130114499897
 11
170.12368512736566
 21
259.70630114499897
  0
LINE
  8
_0-3_躯体と製品
  6
CONTINUOUS
 62
    4
 10
170.12368512736566
 20
263.20630114499909
 11
171.12368512736566
 21
262.33130114499897
  0
LINE
  8
_0-3_躯体と製品
  6
CONTINUOUS
 62
    4
 10
171.12368512736566
 20
262.33130114499897
 11
170.12368512736566
 21
261.45630114499909
  0
LINE
  8
_0-3_躯体と製品
  6
CONTINUOUS
 62
    4
 10
171.12368512736566
 20
264.08130114499897
 11
170.12368512736566
 21
263.20630114499909
  0
LINE
  8
_0-3_躯体と製品
  6
CONTINUOUS
 62
    4
 10
160.12368512736566
 20
265.83130114499897
 11
170.12368512736566
 21
264.95630114499909
  0
LINE
  8
_0-3_躯体と製品
  6
CONTINUOUS
 62
    4
 10
160.12368512736566
 20
267.58130114499897
 11
170.12368512736566
 21
266.70630114499897
  0
LINE
  8
_0-3_躯体と製品
  6
CONTINUOUS
 62
    4
 10
159.12368512736566
 20
266.70630114499897
 11
171.12368512736566
 21
265.83130114499897
  0
LINE
  8
_0-3_躯体と製品
  6
CONTINUOUS
 62
    4
 10
160.12368512736566
 20
269.33130114499897
 11
170.12368512736566
 21
268.45630114499897
  0
LINE
  8
_0-3_躯体と製品
  6
CONTINUOUS
 62
    4
 10
159.12368512736566
 20
268.45630114499897
 11
171.12368512736566
 21
267.58130114499897
  0
LINE
  8
_0-3_躯体と製品
  6
CONTINUOUS
 62
    4
 10
160.12368512736566
 20
271.08130114499897
 11
170.12368512736566
 21
270.20630114499897
  0
LINE
  8
_0-3_躯体と製品
  6
CONTINUOUS
 62
    4
 10
159.12368512736566
 20
270.20630114499897
 11
171.12368512736566
 21
269.33130114499897
  0
LINE
  8
_0-3_躯体と製品
  6
CONTINUOUS
 62
    4
 10
160.12368512736566
 20
272.83130114499897
 11
170.12368512736566
 21
271.95630114499897
  0
LINE
  8
_0-3_躯体と製品
  6
CONTINUOUS
 62
    4
 10
159.12368512736566
 20
271.95630114499897
 11
171.12368512736566
 21
271.08130114499897
  0
LINE
  8
_0-3_躯体と製品
  6
CONTINUOUS
 62
    4
 10
160.12368512736566
 20
274.58130114499897
 11
170.12368512736566
 21
273.70630114499897
  0
LINE
  8
_0-3_躯体と製品
  6
CONTINUOUS
 62
    4
 10
159.12368512736566
 20
273.70630114499897
 11
171.12368512736566
 21
272.83130114499897
  0
LINE
  8
_0-3_躯体と製品
  6
CONTINUOUS
 62
    4
 10
160.12368512736566
 20
276.33130114499897
 11
170.12368512736566
 21
275.45630114499897
  0
LINE
  8
_0-3_躯体と製品
  6
CONTINUOUS
 62
    4
 10
159.12368512736566
 20
275.45630114499897
 11
171.12368512736566
 21
274.58130114499897
  0
LINE
  8
_0-3_躯体と製品
  6
CONTINUOUS
 62
    4
 10
159.12368512736566
 20
264.95630114499909
 11
160.12368512736566
 21
265.83130114499897
  0
LINE
  8
_0-3_躯体と製品
  6
CONTINUOUS
 62
    4
 10
159.12368512736566
 20
266.70630114499897
 11
160.12368512736566
 21
267.58130114499897
  0
LINE
  8
_0-3_躯体と製品
  6
CONTINUOUS
 62
    4
 10
159.12368512736566
 20
266.70630114499897
 11
160.12368512736566
 21
265.83130114499897
  0
LINE
  8
_0-3_躯体と製品
  6
CONTINUOUS
 62
    4
 10
159.12368512736566
 20
268.45630114499897
 11
160.12368512736566
 21
269.33130114499897
  0
LINE
  8
_0-3_躯体と製品
  6
CONTINUOUS
 62
    4
 10
159.12368512736566
 20
268.45630114499897
 11
160.12368512736566
 21
267.58130114499897
  0
LINE
  8
_0-3_躯体と製品
  6
CONTINUOUS
 62
    4
 10
159.12368512736566
 20
270.20630114499897
 11
160.12368512736566
 21
271.08130114499897
  0
LINE
  8
_0-3_躯体と製品
  6
CONTINUOUS
 62
    4
 10
159.12368512736566
 20
270.20630114499897
 11
160.12368512736566
 21
269.33130114499897
  0
LINE
  8
_0-3_躯体と製品
  6
CONTINUOUS
 62
    4
 10
159.12368512736566
 20
271.95630114499897
 11
160.12368512736566
 21
272.83130114499897
  0
LINE
  8
_0-3_躯体と製品
  6
CONTINUOUS
 62
    4
 10
159.12368512736566
 20
271.95630114499897
 11
160.12368512736566
 21
271.08130114499897
  0
LINE
  8
_0-3_躯体と製品
  6
CONTINUOUS
 62
    4
 10
159.12368512736566
 20
273.70630114499897
 11
160.12368512736566
 21
274.58130114499897
  0
LINE
  8
_0-3_躯体と製品
  6
CONTINUOUS
 62
    4
 10
159.12368512736566
 20
273.70630114499897
 11
160.12368512736566
 21
272.83130114499897
  0
LINE
  8
_0-3_躯体と製品
  6
CONTINUOUS
 62
    4
 10
159.12368512736566
 20
275.45630114499897
 11
160.12368512736566
 21
276.33130114499897
  0
LINE
  8
_0-3_躯体と製品
  6
CONTINUOUS
 62
    4
 10
159.12368512736566
 20
275.45630114499897
 11
160.12368512736566
 21
274.58130114499897
  0
LINE
  8
_0-3_躯体と製品
  6
CONTINUOUS
 62
    4
 10
170.12368512736566
 20
266.70630114499897
 11
171.12368512736566
 21
265.83130114499897
  0
LINE
  8
_0-3_躯体と製品
  6
CONTINUOUS
 62
    4
 10
171.12368512736566
 20
265.83130114499897
 11
170.12368512736566
 21
264.95630114499909
  0
LINE
  8
_0-3_躯体と製品
  6
CONTINUOUS
 62
    4
 10
170.12368512736566
 20
268.45630114499897
 11
171.12368512736566
 21
267.58130114499897
  0
LINE
  8
_0-3_躯体と製品
  6
CONTINUOUS
 62
    4
 10
171.12368512736566
 20
267.58130114499897
 11
170.12368512736566
 21
266.70630114499897
  0
LINE
  8
_0-3_躯体と製品
  6
CONTINUOUS
 62
    4
 10
170.12368512736566
 20
270.20630114499897
 11
171.12368512736566
 21
269.33130114499897
  0
LINE
  8
_0-3_躯体と製品
  6
CONTINUOUS
 62
    4
 10
171.12368512736566
 20
269.33130114499897
 11
170.12368512736566
 21
268.45630114499897
  0
LINE
  8
_0-3_躯体と製品
  6
CONTINUOUS
 62
    4
 10
170.12368512736566
 20
271.95630114499897
 11
171.12368512736566
 21
271.08130114499897
  0
LINE
  8
_0-3_躯体と製品
  6
CONTINUOUS
 62
    4
 10
171.12368512736566
 20
271.08130114499897
 11
170.12368512736566
 21
270.20630114499897
  0
LINE
  8
_0-3_躯体と製品
  6
CONTINUOUS
 62
    4
 10
170.12368512736566
 20
273.70630114499897
 11
171.12368512736566
 21
272.83130114499897
  0
LINE
  8
_0-3_躯体と製品
  6
CONTINUOUS
 62
    4
 10
171.12368512736566
 20
272.83130114499897
 11
170.12368512736566
 21
271.95630114499897
  0
LINE
  8
_0-3_躯体と製品
  6
CONTINUOUS
 62
    4
 10
170.12368512736566
 20
275.45630114499897
 11
171.12368512736566
 21
274.58130114499897
  0
LINE
  8
_0-3_躯体と製品
  6
CONTINUOUS
 62
    4
 10
171.12368512736566
 20
274.58130114499897
 11
170.12368512736566
 21
273.70630114499897
  0
LINE
  8
_0-3_躯体と製品
  6
CONTINUOUS
 62
    4
 10
171.12368512736566
 20
276.33130114499897
 11
170.12368512736566
 21
275.45630114499897
  0
LINE
  8
_0-3_躯体と製品
  6
CONTINUOUS
 62
    2
 10
174.18666512736559
 20
281.45630114499897
 11
156.06070512736551
 21
281.45630114499897
  0
LINE
  8
_0-3_躯体と製品
  6
CONTINUOUS
 62
    2
 10
157.62368512736566
 20
281.45630114499897
 11
155.82368512736571
 21
281.45630114499897
  0
LINE
  8
_0-3_躯体と製品
  6
CONTINUOUS
 62
    2
 10
175.12368512736566
 20
288.25630114499893
 11
155.12368512736566
 21
288.25630114499893
  0
LINE
  8
_0-3_躯体と製品
  6
CONTINUOUS
 62
    4
 10
126.44168512736564
 20
285.95630114499897
 11
134.94316512736555
 21
285.95630114499897
  0
LINE
  8
_0-4_文字-記号
  6
CONTINUOUS
 62
    4
 10
135.78961512736555
 20
284.11465114499913
 11
134.28961512736555
 21
281.51658114499912
  0
LINE
  8
_0-4_文字-記号
  6
CONTINUOUS
 62
    4
 10
135.78961512736555
 20
284.11465114499913
 11
135.78961512736555
 21
281.11465114499902
  0
LINE
  8
_0-3_躯体と製品
  6
CONTINUOUS
 62
    2
 10
150.65312512736568
 20
283.04452114499907
 11
146.12368512736566
 21
285.95630114499897
  0
ARC
  8
_0-3_躯体と製品
  6
CONTINUOUS
 62
    2
 10
156.06070512736551
 20
291.45630114499897
 40
10
 50
237.26476999999511
 51
270
  0
LINE
  8
_0-3_躯体と製品
  6
CONTINUOUS
 62
    2
 10
172.62368512736566
 20
281.45630114499897
 11
174.42368512736562
 21
281.45630114499897
  0
LINE
  8
_0-3_躯体と製品
  6
CONTINUOUS
 62
    4
 10
161.5522551273657
 20
281.45630114499897
 11
170.12368512736566
 21
280.70630114499897
  0
LINE
  8
_0-3_躯体と製品
  6
CONTINUOUS
 62
    4
 10
160.12368512736566
 20
278.08130114499897
 11
170.12368512736566
 21
277.20630114499897
  0
LINE
  8
_0-3_躯体と製品
  6
CONTINUOUS
 62
    4
 10
160.12368512736566
 20
279.83130114499897
 11
170.12368512736566
 21
278.95630114499897
  0
LINE
  8
_0-3_躯体と製品
  6
CONTINUOUS
 62
    4
 10
159.12368512736566
 20
278.95630114499897
 11
171.12368512736566
 21
278.08130114499897
  0
LINE
  8
_0-3_躯体と製品
  6
CONTINUOUS
 62
    4
 10
159.12368512736566
 20
280.70630114499897
 11
171.12368512736566
 21
279.83130114499897
  0
LINE
  8
_0-3_躯体と製品
  6
CONTINUOUS
 62
    4
 10
160.62368512736566
 20
281.45630114499897
 11
169.62368512736566
 21
281.45630114499897
  0
LINE
  8
_0-3_躯体と製品
  6
CONTINUOUS
 62
    2
 10
172.62368512736566
 20
281.45630114499897
 11
157.62368512736566
 21
281.45630114499897
  0
LINE
  8
_0-3_躯体と製品
  6
CONTINUOUS
 62
    4
 10
159.12368512736566
 20
280.70630114499897
 11
159.98082512736551
 21
281.45630114499897
  0
LINE
  8
_0-3_躯体と製品
  6
CONTINUOUS
 62
    4
 10
159.12368512736566
 20
277.20630114499897
 11
160.12368512736566
 21
278.08130114499897
  0
LINE
  8
_0-3_躯体と製品
  6
CONTINUOUS
 62
    4
 10
159.12368512736566
 20
278.95630114499897
 11
160.12368512736566
 21
279.83130114499897
  0
LINE
  8
_0-3_躯体と製品
  6
CONTINUOUS
 62
    4
 10
159.12368512736566
 20
278.95630114499897
 11
160.12368512736566
 21
278.08130114499897
  0
LINE
  8
_0-3_躯体と製品
  6
CONTINUOUS
 62
    4
 10
159.12368512736566
 20
280.70630114499897
 11
160.12368512736566
 21
279.83130114499897
  0
LINE
  8
_0-3_躯体と製品
  6
CONTINUOUS
 62
    4
 10
170.98082512736551
 20
281.45630114499897
 11
170.12368512736566
 21
280.70630114499897
  0
LINE
  8
_0-3_躯体と製品
  6
CONTINUOUS
 62
    4
 10
170.12368512736566
 20
278.95630114499897
 11
171.12368512736566
 21
278.08130114499897
  0
LINE
  8
_0-3_躯体と製品
  6
CONTINUOUS
 62
    4
 10
171.12368512736566
 20
278.08130114499897
 11
170.12368512736566
 21
277.20630114499897
  0
LINE
  8
_0-3_躯体と製品
  6
CONTINUOUS
 62
    4
 10
171.12368512736566
 20
279.83130114499897
 11
170.12368512736566
 21
278.95630114499897
  0
LINE
  8
_0-3_躯体と製品
  6
CONTINUOUS
 62
    4
 10
170.12368512736566
 20
280.70630114499897
 11
171.12368512736566
 21
279.83130114499897
  0
LINE
  8
_0-3_躯体と製品
  6
CONTINUOUS
 62
    2
 10
179.59423512736566
 20
283.04452114499907
 11
184.12368512736566
 21
285.95630114499897
  0
ARC
  8
_0-3_躯体と製品
  6
CONTINUOUS
 62
    2
 10
174.18666512736559
 20
291.45630114499897
 40
10
 50
270
 51
302.73522000000128
  0
LINE
  8
_0-4_文字-記号
  6
CONTINUOUS
 62
    4
 10
191.19272512736552
 20
290.93016114499915
 11
192.69272512736552
 21
293.52824114499901
  0
LINE
  8
_0-4_文字-記号
  6
CONTINUOUS
 62
    4
 10
191.19272512736552
 20
290.93016114499915
 11
191.19272512736552
 21
293.93016114499903
  0
LINE
  8
_0-3_躯体と製品
  6
CONTINUOUS
 62
    2
 10
209.12368512736566
 20
285.95630114499897
 11
209.12368512736566
 21
288.25630114499893
  0
LINE
  8
_0-3_躯体と製品
  6
CONTINUOUS
 62
    2
 10
209.12368512736566
 20
288.25630114499893
 11
209.12368512736566
 21
289.25630114499893
  0
ARC
  8
_0-3_躯体と製品
  6
CONTINUOUS
 62
    2
 10
0.3416051273660514
 20
330.95630114499897
 40
5
 50
0
 51
90
  0
LINE
  8
_0-3_躯体と製品
  6
CONTINUOUS
 62
    2
 10
117.82368512736571
 20
335.95630114499897
 11
120.12368512736566
 21
335.95630114499897
  0
LINE
  8
_0-4_文字-記号
  6
CONTINUOUS
 62
    4
 10
201.43337512736571
 20
329.14881114499917
 11
233.58998512736571
 21
329.14881114499917
  0
LINE
  8
_0-3_躯体と製品
  6
CENTER2
 62
    4
 10
520.40647512736564
 20
23.341321144999824
 11
440.04385512736553
 21
23.341321144999824
  0
CIRCLE
  8
_0-3_躯体と製品
  6
CONTINUOUS
 62
    2
 10
515.09521512736569
 20
58.341321144999824
 40
3
  0
LINE
  8
_0-3_躯体と製品
  6
CONTINUOUS
 62
    2
 10
440.09521512736569
 20
-21.658678855000176
 11
520.09521512736569
 21
-21.658678855000176
  0
LINE
  8
_0-3_躯体と製品
  6
CONTINUOUS
 62
    2
 10
520.09521512736569
 20
68.341321144999824
 11
440.09521512736569
 21
68.341321144999824
  0
LINE
  8
_0-3_躯体と製品
  6
CENTER2
 62
    4
 10
509.77614512736568
 20
-11.658678855000176
 11
520.09521512736569
 21
-11.658678855000176
  0
LINE
  8
_0-3_躯体と製品
  6
CENTER2
 62
    4
 10
520.09521512736569
 20
58.341321144999824
 11
508.69664512736563
 21
58.341321144999824
  0
LINE
  8
_0-3_躯体と製品
  6
CENTER2
 62
    4
 10
480.09521512736569
 20
64.064641144999882
 11
480.09521512736569
 21
-16.581938855000203
  0
LINE
  8
_0-3_躯体と製品
  6
CONTINUOUS
 62
    2
 10
435.09521512736569
 20
-16.658678855000176
 11
435.09521512736569
 21
63.341321144999824
  0
CIRCLE
  8
_0-3_躯体と製品
  6
CONTINUOUS
 62
    2
 10
450.09521512736569
 20
23.341321144999824
 40
3
  0
ARC
  8
_0-3_躯体と製品
  6
CONTINUOUS
 62
    2
 10
440.09521512736569
 20
-16.658678855000176
 40
5
 50
180
 51
270
  0
CIRCLE
  8
_0-3_躯体と製品
  6
CONTINUOUS
 62
    2
 10
445.09521512736569
 20
-11.658678855000176
 40
3
  0
LINE
  8
_0-3_躯体と製品
  6
CENTER2
 62
    4
 10
445.09521512736569
 20
-16.658678855000176
 11
445.09521512736569
 21
-4.7154588550012022
  0
LINE
  8
_0-3_躯体と製品
  6
CENTER2
 62
    4
 10
440.09521512736569
 20
-11.658678855000176
 11
450.76339512736558
 21
-11.658678855000176
  0
LINE
  8
_0-4_文字-記号
  6
CONTINUOUS
 62
    4
 10
505.90093512736553
 20
-43.592228855000144
 11
454.54773512736551
 21
-43.592228855000144
  0
LINE
  8
_0-4_文字-記号
  6
CONTINUOUS
 62
    4
 10
454.54773512736551
 20
-33.890328855000121
 11
505.90093512736553
 21
-33.890328855000121
  0
TEXT
  8
_0-4_文字-記号
 62
    7
 10
460.43642512736551
 20
-41.410328855000103
 40
5
 41
0.8
 50
0
  1
ベースプレート
  0
LINE
  8
_0-4_文字-記号
  6
CONTINUOUS
 62
    4
 10
454.54773512736551
 20
-43.592228855000144
 11
454.54773512736551
 21
-33.890328855000121
  0
CIRCLE
  8
_0-3_躯体と製品
  6
CONTINUOUS
 62
    2
 10
480.09521512736569
 20
-6.6586788550001756
 40
3
  0
LINE
  8
_0-4_文字-記号
  6
CONTINUOUS
 62
    4
 10
505.90093512736553
 20
-33.890328855000121
 11
505.90093512736553
 21
-43.592228855000144
  0
CIRCLE
  8
_0-3_躯体と製品
  6
CONTINUOUS
 62
    2
 10
515.09521512736569
 20
-11.658678855000176
 40
2
  0
LINE
  8
_0-3_躯体と製品
  6
CENTER2
 62
    4
 10
515.09521512736569
 20
-16.658678855000176
 11
515.09521512736569
 21
-6.5146288550012059
  0
CIRCLE
  8
_0-3_躯体と製品
  6
CONTINUOUS
 62
    2
 10
480.09521512736569
 20
23.341321144999824
 40
18
  0
CIRCLE
  8
_0-3_躯体と製品
  6
CONTINUOUS
 62
    2
 10
480.09521512736569
 20
23.341321144999824
 40
12
  0
ARC
  8
_0-3_躯体と製品
  6
CONTINUOUS
 62
    2
 10
468.09521512736569
 20
23.341321144999824
 40
3
 50
82.819243999997497
 51
277.18074999999715
  0
ARC
  8
_0-3_躯体と製品
  6
CONTINUOUS
 62
    2
 10
480.09521512736569
 20
11.341321144999824
 40
3
 50
172.81924000000163
 51
7.1807556999961548
  0
ARC
  8
_0-3_躯体と製品
  6
CONTINUOUS
 62
    2
 10
480.09521512736569
 20
35.341321144999824
 40
3
 50
352.81924000000168
 51
187.18075000000357
  0
ARC
  8
_0-3_躯体と製品
  6
CONTINUOUS
 62
    2
 10
492.09521512736569
 20
23.341321144999824
 40
3
 50
262.81924000000248
 51
97.180755000000559
  0
CIRCLE
  8
_0-3_躯体と製品
  6
CONTINUOUS
 62
    2
 10
510.09521512736569
 20
23.341321144999824
 40
3
  0
ARC
  8
_0-3_躯体と製品
  6
CONTINUOUS
 62
    2
 10
440.09521512736569
 20
63.341321144999824
 40
5
 50
90
 51
180
  0
LINE
  8
_0-3_躯体と製品
  6
CENTER2
 62
    4
 10
445.09521512736569
 20
54.297291144999804
 11
445.09521512736569
 21
63.341321144999824
  0
CIRCLE
  8
_0-3_躯体と製品
  6
CONTINUOUS
 62
    2
 10
445.09521512736569
 20
58.341321144999824
 40
2
  0
LINE
  8
_0-3_躯体と製品
  6
CENTER2
 62
    4
 10
449.68389512736553
 20
58.341321144999824
 11
440.09521512736569
 21
58.341321144999824
  0
CIRCLE
  8
_0-3_躯体と製品
  6
CONTINUOUS
 62
    2
 10
480.09521512736569
 20
53.341321144999824
 40
3
  0
LINE
  8
_0-3_躯体と製品
  6
CENTER2
 62
    4
 10
515.09521512736569
 20
52.49812114499889
 11
515.09521512736569
 21
63.341321144999824
  0
LINE
  8
_0-3_躯体と製品
  6
CONTINUOUS
 62
    2
 10
525.09521512736569
 20
-16.658678855000176
 11
525.09521512736569
 21
63.341321144999824
  0
ARC
  8
_0-3_躯体と製品
  6
CONTINUOUS
 62
    2
 10
520.09521512736569
 20
-16.658678855000176
 40
5
 50
270
 51
0
  0
ARC
  8
_0-3_躯体と製品
  6
CONTINUOUS
 62
    2
 10
520.09521512736569
 20
63.341321144999824
 40
5
 50
0
 51
90
  0
LINE
  8
_0-3_躯体と製品
  6
CONTINUOUS
 62
    2
 10
519.09521512736569
 20
216.42146114499917
 11
432.79521512736551
 21
216.42146114499917
  0
LINE
  8
_0-3_躯体と製品
  6
CONTINUOUS
 62
    2
 10
519.09521512736569
 20
286.42146114499906
 11
432.79521512736551
 21
286.42146114499906
  0
LINE
  8
_0-3_躯体と製品
  6
CENTER2
 62
    4
 10
480.09521512736569
 20
276.42006114499918
 11
480.09521512736569
 21
221.83564114499916
  0
LINE
  8
_0-3_躯体と製品
  6
CONTINUOUS
 62
    2
 10
435.09521512736569
 20
286.42146114499906
 11
435.09521512736569
 21
216.42146114499917
  0
LINE
  8
_0-3_躯体と製品
  6
CONTINUOUS
 62
    2
 10
432.79521512736551
 20
286.42146114499906
 11
432.79521512736551
 21
216.42146114499917
  0
LINE
  8
_0-3_躯体と製品
  6
CENTER2
 62
    4
 10
509.09521512736569
 20
232.17973114499898
 11
509.09521512736569
 21
220.9022211449992
  0
LINE
  8
_0-4_文字-記号
  6
CONTINUOUS
 62
    4
 10
504.21651512736571
 20
191.6579811449991
 11
449.30068512736557
 21
191.6579811449991
  0
LINE
  8
_0-4_文字-記号
  6
CONTINUOUS
 62
    4
 10
449.30068512736557
 20
201.32794114499904
 11
504.21651512736571
 21
201.32794114499904
  0
LINE
  8
_0-4_文字-記号
  6
CONTINUOUS
 62
    4
 10
449.30068512736557
 20
191.6579811449991
 11
449.30068512736557
 21
201.32794114499904
  0
LINE
  8
_0-3_躯体と製品
  6
CENTER2
 62
    4
 10
422.68560512736553
 20
226.42146114499917
 11
443.11913512736555
 21
226.42146114499917
  0
LINE
  8
_0-3_躯体と製品
  6
CONTINUOUS
 62
    4
 10
432.79521512736551
 20
223.92146114499906
 11
435.09521512736569
 21
223.92146114499906
  0
LINE
  8
_0-3_躯体と製品
  6
CONTINUOUS
 62
    4
 10
432.79521512736551
 20
228.92146114499917
 11
435.09521512736569
 21
228.92146114499917
  0
TEXT
  8
_0-4_文字-記号
 62
    7
 10
459.94360512736557
 20
193.12204114499912
 40
5
 41
0.8
 50
0
  1
大引受け金具
  0
LINE
  8
_0-4_文字-記号
  6
CONTINUOUS
 62
    4
 10
504.21651512736571
 20
201.32794114499904
 11
504.21651512736571
 21
191.6579811449991
  0
CIRCLE
  8
_0-3_躯体と製品
  6
CONTINUOUS
 62
    2
 10
509.09521512736569
 20
226.42146114499917
 40
2.5
  0
LINE
  8
_0-3_躯体と製品
  6
CENTER2
 62
    4
 10
501.45155512736551
 20
226.42146114499917
 11
515.17252512736559
 21
226.42146114499917
  0
LINE
  8
_0-3_躯体と製品
  6
CENTER2
 62
    4
 10
422.68560512736553
 20
276.42146114499917
 11
443.11913512736555
 21
276.42146114499917
  0
LINE
  8
_0-3_躯体と製品
  6
CONTINUOUS
 62
    4
 10
432.79521512736551
 20
273.92146114499906
 11
435.09521512736569
 21
273.92146114499906
  0
LINE
  8
_0-3_躯体と製品
  6
CONTINUOUS
 62
    4
 10
432.79521512736551
 20
278.92146114499917
 11
435.09521512736569
 21
278.92146114499917
  0
CIRCLE
  8
_0-3_躯体と製品
  6
CONTINUOUS
 62
    2
 10
509.09521512736569
 20
276.42146114499917
 40
2.5
  0
LINE
  8
_0-3_躯体と製品
  6
CENTER2
 62
    4
 10
509.09521512736569
 20
282.17669114499904
 11
509.09521512736569
 21
270.52327114499906
  0
LINE
  8
_0-3_躯体と製品
  6
CENTER2
 62
    4
 10
455.43614512736553
 20
251.42146114499917
 11
507.34283512736556
 21
251.42146114499917
  0
CIRCLE
  8
_0-3_躯体と製品
  6
CONTINUOUS
 62
    2
 10
480.09521512736569
 20
251.42146114499917
 40
12
  0
CIRCLE
  8
_0-3_躯体と製品
  6
CONTINUOUS
 62
    2
 10
480.09521512736569
 20
251.42146114499917
 40
18
  0
ARC
  8
_0-3_躯体と製品
  6
CONTINUOUS
 62
    2
 10
468.09521512736569
 20
251.42146114499917
 40
3
 50
82.819243999997497
 51
277.18074999999715
  0
ARC
  8
_0-3_躯体と製品
  6
CONTINUOUS
 62
    2
 10
480.09521512736569
 20
239.42146114499906
 40
3
 50
172.81924000000163
 51
7.1807556999961548
  0
ARC
  8
_0-3_躯体と製品
  6
CONTINUOUS
 62
    2
 10
480.09521512736569
 20
263.42146114499906
 40
3
 50
352.81924000000168
 51
187.18075000000357
  0
ARC
  8
_0-3_躯体と製品
  6
CONTINUOUS
 62
    2
 10
492.09521512736569
 20
251.42146114499917
 40
3
 50
262.81924000000248
 51
97.180755000000559
  0
LINE
  8
_0-3_躯体と製品
  6
CENTER2
 62
    4
 10
502.01543512736566
 20
276.42146114499917
 11
514.79660512736564
 21
276.42146114499917
  0
LINE
  8
_0-3_躯体と製品
  6
CONTINUOUS
 62
    2
 10
524.09521512736569
 20
221.42146114499906
 11
524.09521512736569
 21
281.42146114499906
  0
ARC
  8
_0-3_躯体と製品
  6
CONTINUOUS
 62
    2
 10
519.09521512736569
 20
221.42146114499906
 40
5
 50
270
 51
0
  0
ARC
  8
_0-3_躯体と製品
  6
CONTINUOUS
 62
    2
 10
519.09521512736569
 20
281.42146114499906
 40
5
 50
0
 51
90
  0
INSERT
  2
-001-_D4
  8
_0-2_寸法
 10
-916.8240510606654
 20
1109.6576055972409
 41
2
 42
2
 50
0
  0
INSERT
  2
-002-_D5
  8
_0-2_寸法
 10
-916.8240510606654
 20
1109.6576055972409
 41
2
 42
2
 50
0
  0
INSERT
  2
-003-_D6
  8
_0-2_寸法
 10
-916.8240510606654
 20
1109.6576055972409
 41
2
 42
2
 50
0
  0
INSERT
  2
-004-_D7
  8
_0-2_寸法
 10
-916.8240510606654
 20
1109.6576055972409
 41
2
 42
2
 50
0
  0
INSERT
  2
-005-_D8
  8
_0-2_寸法
 10
-916.8240510606654
 20
1109.6576055972409
 41
2
 42
2
 50
0
  0
INSERT
  2
-006-_D9
  8
_0-2_寸法
 10
-916.8240510606654
 20
1109.6576055972409
 41
2
 42
2
 50
0
  0
INSERT
  2
-007-_D10
  8
_0-2_寸法
 10
-916.8240510606654
 20
1109.6576055972409
 41
2
 42
2
 50
0
  0
INSERT
  2
-008-_D11
  8
_0-2_寸法
 10
-916.8240510606654
 20
1109.6576055972409
 41
2
 42
2
 50
0
  0
INSERT
  2
-009-_D12
  8
_0-2_寸法
 10
-916.8240510606654
 20
1109.6576055972409
 41
2
 42
2
 50
0
  0
ENDSEC
  0
EOF
