  0
SECTION
  2
HEADER
  9
$ACADVER
  1
AC1009
  9
$INSBASE
 10
0
 20
0
 30
0
  9
$EXTMIN
 10
0
 20
0
  9
$EXTMAX
 10
420
 20
297
  9
$LIMMIN
 10
0
 20
0
  9
$LIMMAX
 10
420
 20
297
  9
$LTSCALE
 40
1
  0
ENDSEC
  0
SECTION
  2
TABLES
  0
TABLE
  2
LTYPE
 70
     9
  0
LTYPE
  2
CONTINUOUS
 70
    64
  3
実線
 72
    65
 73
     0
 40
0.0
  0
LTYPE
  2
DASHED1
 70
    64
  3
--  --  --  --  --  --  --  --  
 72
    65
 73
     2
 40
2.5
 49
1.25
 49
-1.25
  0
LTYPE
  2
DASHED2
 70
    64
  3
----    ----    ----    ----    
 72
    65
 73
     2
 40
5.0
 49
2.5
 49
-2.5
  0
LTYPE
  2
DASHED3
 70
    64
  3
------  ------  ------  ------  
 72
    65
 73
     2
 40
5.0
 49
3.75
 49
-1.25
  0
LTYPE
  2
CENTER1
 70
    64
  3
----- - ----- - ----- - ----- - 
 72
    65
 73
     4
 40
10.0
 49
6.25
 49
-1.25
 49
1.25
 49
-1.25
  0
LTYPE
  2
CENTER2
 70
    64
  3
----------  --  ----------  --  
 72
    65
 73
     4
 40
20.0
 49
12.5
 49
-2.5
 49
2.5
 49
-2.5
  0
LTYPE
  2
PHANTOM1
 70
    64
  3
--- - - --- - - --- - - --- - - 
 72
    65
 73
     6
 40
10.0
 49
3.25
 49
-1.25
 49
1.25
 49
-1.25
 49
1.25
 49
-1.25
  0
LTYPE
  2
PHANTOM2
 70
    64
  3
--------  -  -  --------  -  -  
 72
    65
 73
     6
 40
20.0
 49
10.0
 49
-2.5
 49
1.25
 49
-2.5
 49
1.25
 49
-2.5
  0
LTYPE
  2
DOT
 70
    64
  3
-   -   -   -   -   -   -   -   
 72
    65
 73
     2
 40
2.5
 49
0.625
 49
-1.875
  0
LTYPE
  2
DUMMY
 70
    64
  3
ダミー
 72
    65
 73
     0
 40
0.0
  0
LTYPE
  2
RAND1
 70
    64
  3
ランダム線1
 72
    65
 73
     4
 40
10.0
 49
1.0
 49
-2.0
 49
3.0
 49
-4.0
  0
LTYPE
  2
RAND2
 70
    64
  3
ランダム線2
 72
    65
 73
     4
 40
14.0
 49
2.0
 49
-3.0
 49
4.0
 49
-5.0
  0
LTYPE
  2
RAND3
 70
    64
  3
ランダム線3
 72
    65
 73
     4
 40
18.0
 49
3.0
 49
-4.0
 49
5.0
 49
-6.0
  0
LTYPE
  2
RAND4
 70
    64
  3
ランダム線4
 72
    65
 73
     4
 40
22.0
 49
4.0
 49
-5.0
 49
6.0
 49
-7.0
  0
LTYPE
  2
RAND5
 70
    64
  3
ランダム線5
 72
    65
 73
     4
 40
26.0
 49
5.0
 49
-6.0
 49
7.0
 49
-8.0
  0
LTYPE
  2
LONG1
 70
    64
  3
----------  --  ----------  --  
 72
    65
 73
     4
 40
40.0
 49
32.5
 49
-2.5
 49
2.5
 49
-2.5
  0
LTYPE
  2
LONG2
 70
    64
  3
--------  -  -  --------  -  -  
 72
    65
 73
     6
 40
40.0
 49
30.0
 49
-2.5
 49
1.25
 49
-2.5
 49
1.25
 49
-2.5
  0
LTYPE
  2
LONG3
 70
    64
  3
+++++++++++++++..+++++++++++++++
 72
    65
 73
     2
 40
40.0
 49
37.5
 49
-2.5
  0
LTYPE
  2
LONG4
 70
    64
  3
+++++++++++++++..+++++++++++++++
 72
    65
 73
     2
 40
80.0
 49
75.0
 49
-5.0
  0
LTYPE
  2
LONG5
 70
    64
  3
----------  --  ----------  --  
 72
    65
 73
     4
 40
60.0
 49
37.5
 49
-7.5
 49
7.5
 49
-7.5
  0
LTYPE
  2
dashed
 70
   64
  3
-------   -------------   ------
 72
   65
 73
    2
 40
7.5
 49
6
 49
-1.5
  0
LTYPE
  2
dashed_spaced
 70
   64
  3
----        --------        ----
 72
   65
 73
    2
 40
12
 49
6
 49
-6
  0
LTYPE
  2
long_dashed_dotted
 70
   64
  3
------------- --- --------------
 72
   65
 73
    4
 40
15.25
 49
12
 49
-1.5
 49
0.25
 49
-1.5
  0
LTYPE
  2
long_dashed_double-dotted
 70
   64
  3
----------- --- --- ------------
 72
   65
 73
    6
 40
17
 49
12
 49
-1.5
 49
0.25
 49
-1.5
 49
0.25
 49
-1.5
  0
LTYPE
  2
long_dashed_triplicate-dotted
 70
   64
  3
--------- --- --- --- ----------
 72
   65
 73
    8
 40
18.75
 49
12
 49
-1.5
 49
0.25
 49
-1.5
 49
0.25
 49
-1.5
 49
0.25
 49
-1.5
  0
LTYPE
  2
dotted
 70
   64
  3
   -       -       -       -    
 72
   65
 73
    2
 40
1.75
 49
0.25
 49
-1.5
  0
LTYPE
  2
chain
 70
   64
  3
-------------- -- --------------
 72
   65
 73
    4
 40
18.5
 49
12
 49
-1.5
 49
3.5
 49
-1.5
  0
LTYPE
  2
chain_double_dash
 70
   64
  3
------------ -- -- -------------
 72
   65
 73
    6
 40
23.5
 49
12
 49
-1.5
 49
3.5
 49
-1.5
 49
3.5
 49
-1.5
  0
LTYPE
  2
dashed_dotted
 70
   64
  3
-----------     -     ----------
 72
   65
 73
    4
 40
9.25
 49
6
 49
-1.5
 49
0.25
 49
-1.5
  0
LTYPE
  2
double-dashed_dotted
 70
   64
  3
------   -----------   -   -----
 72
   65
 73
    6
 40
16.75
 49
6
 49
-1.5
 49
6
 49
-1.5
 49
0.25
 49
-1.5
  0
LTYPE
  2
dashed_double-dotted
 70
   64
  3
---------    -    -    ---------
 72
   65
 73
    6
 40
11
 49
6
 49
-1.5
 49
0.25
 49
-1.5
 49
0.25
 49
-1.5
  0
LTYPE
  2
double-dashed_double-dotted
 70
   64
  3
-----   ---------   -   -   ----
 72
   65
 73
    8
 40
18.5
 49
6
 49
-1.5
 49
6
 49
-1.5
 49
0.25
 49
-1.5
 49
0.25
 49
-1.5
  0
LTYPE
  2
dashed_triplicate-dotted
 70
   64
  3
-------    -    -    -    ------
 72
   65
 73
    8
 40
12.75
 49
6
 49
-1.5
 49
0.25
 49
-1.5
 49
0.25
 49
-1.5
 49
0.25
 49
-1.5
  0
LTYPE
  2
double-dashed_triplicate-dotted
 70
   64
  3
-----  ---------  -  -  -  -----
 72
   65
 73
   10
 40
20.25
 49
6
 49
-1.5
 49
6
 49
-1.5
 49
0.25
 49
-1.5
 49
0.25
 49
-1.5
 49
0.25
 49
-1.5
  0
LTYPE
  2
undefined
 70
   64
  3
--------------------------------
 72
   65
 73
    0
 40
0
  0
LTYPE
  2
PLINE2
 70
   64
  3
------     -----------     -----
 72
   65
 73
    2
 40
3
 49
2.1000000000000001
 49
-0.9
  0
LTYPE
  2
PLINE3
 70
   64
  3
------------   ---   -----------
 72
   65
 73
    4
 40
10
 49
7
 49
-1
 49
1
 49
-1
  0
LTYPE
  2
PLINE4
 70
   64
  3
---------   ---   ---   --------
 72
   65
 73
    6
 40
10
 49
5
 49
-1
 49
1
 49
-1
 49
1
 49
-1
  0
LTYPE
  2
PLINE5
 70
   64
  3
------     -----------     -----
 72
   65
 73
    2
 40
5
 49
3.5
 49
-1.5
  0
LTYPE
  2
PLINE6
 70
   64
  3
------------   ---   -----------
 72
   65
 73
    4
 40
15
 49
10.5
 49
-1.5
 49
1.5
 49
-1.5
  0
LTYPE
  2
PLINE7
 70
   64
  3
---------   ---   ---   --------
 72
   65
 73
    6
 40
15
 49
7.5
 49
-1.5
 49
1.5
 49
-1.5
 49
1.5
 49
-1.5
  0
LTYPE
  2
PLINE8
 70
   64
  3
------     -----------     -----
 72
   65
 73
    2
 40
7
 49
4.9000000000000004
 49
-2.1000000000000001
  0
LTYPE
  2
PLINE9
 70
   64
  3
------------   ---   -----------
 72
   65
 73
    4
 40
20
 49
14
 49
-2
 49
2
 49
-2
  0
LTYPE
  2
PLINE10
 70
   64
  3
---------   ---   ---   --------
 72
   65
 73
    6
 40
20
 49
10
 49
-2
 49
2
 49
-2
 49
2
 49
-2
  0
LTYPE
  2
PLINE11
 70
   64
  3
------     -----------     -----
 72
   65
 73
    2
 40
9
 49
6.2999999999999989
 49
-2.7000000000000002
  0
LTYPE
  2
PLINE12
 70
   64
  3
------------   ---   -----------
 72
   65
 73
    4
 40
25
 49
17.5
 49
-2.5
 49
2.5
 49
-2.5
  0
LTYPE
  2
PLINE13
 70
   64
  3
---------   ---   ---   --------
 72
   65
 73
    6
 40
25
 49
12.5
 49
-2.5
 49
2.5
 49
-2.5
 49
2.5
 49
-2.5
  0
LTYPE
  2
PLINE14
 70
   64
  3
------     -----------     -----
 72
   65
 73
    2
 40
11
 49
7.7000000000000002
 49
-3.2999999999999989
  0
LTYPE
  2
PLINE15
 70
   64
  3
------------   ---   -----------
 72
   65
 73
    4
 40
30
 49
21
 49
-3
 49
3
 49
-3
  0
LTYPE
  2
PLINE16
 70
   64
  3
---------   ---   ---   --------
 72
   65
 73
    6
 40
30
 49
15
 49
-3
 49
3
 49
-3
 49
3
 49
-3
  0
ENDTAB
  0
TABLE
  2
STYLE
  5
3
100
AcDbSymbolTable
 70
     1
  0
STYLE
  5
10
100
AcDbSymbolTableRecord
100
AcDbTextStyleTableRecord
  2
STANDARD
 70
     0
 40
0.0
 41
1.0
 50
0.0
 71
     0
 42
0.2
  3
txt
  4
bigfont.shx
  0
STYLE
  5
26
100
AcDbSymbolTableRecord
100
AcDbTextStyleTableRecord
  2
TATEGAKI
 70
    68
 40
0.0
 41
1.0
 50
0.0
 71
     0
 42
1.0
  3
txt
  4
bigfont.shx
  0
ENDTAB
  0
TABLE
  2
LAYER
 70
    3
  0
LAYER
  2
_0-2_躯体と製品
 70
   64
 62
    7
  6
CONTINUOUS
  0
LAYER
  2
_0-3_文字-記号
 70
   64
 62
    7
  6
CONTINUOUS
  0
LAYER
  2
ADD_LINE
 70
   64
 62
    7
  6
CONTINUOUS
  0
ENDTAB
  0
ENDSEC
  0
SECTION
  2
BLOCKS
  0
ENDSEC
  0
SECTION
  2
ENTITIES
  0
LINE
  8
_0-2_躯体と製品
  6
CONTINUOUS
 62
    2
 10
156.43281405095172
 20
138.44729726210312
 11
156.43281405095172
 21
168.1533102621031
  0
LINE
  8
_0-2_躯体と製品
  6
CONTINUOUS
 62
    2
 10
157.43281405095172
 20
169.1533102621031
 11
157.43281405095172
 21
137.58464026210322
  0
LINE
  8
_0-2_躯体と製品
  6
CONTINUOUS
 62
    2
 10
155.15282305095172
 20
136.9635202621032
 11
129.56613405095163
 21
133.16963126210317
  0
LINE
  8
_0-2_躯体と製品
  6
CONTINUOUS
 62
    2
 10
128.43281505095172
 20
113.35331226210315
 11
155.43281405095172
 21
115.35331226210315
  0
LINE
  8
_0-2_躯体と製品
  6
CONTINUOUS
 62
    2
 10
128.43281505095172
 20
114.35605226210305
 11
156.43281405095172
 21
116.43012626210316
  0
LINE
  8
_0-2_躯体と製品
  6
CONTINUOUS
 62
    2
 10
156.15282205095173
 20
136.10086226210319
 11
129.71280705095171
 21
132.18044626210326
  0
LINE
  8
_0-2_躯体と製品
  6
CONTINUOUS
 62
    2
 10
127.43281505095172
 20
130.69666926210311
 11
127.43281505095172
 21
110.35331326210326
  0
LINE
  8
_0-2_躯体と製品
  6
CONTINUOUS
 62
    2
 10
128.43281505095172
 20
130.69666926210311
 11
128.43281505095172
 21
114.35605226210305
  0
LINE
  8
_0-2_躯体と製品
  6
CONTINUOUS
 62
    2
 10
128.43281505095172
 20
110.35331326210326
 11
128.43281505095172
 21
113.35331226210315
  0
LINE
  8
_0-2_躯体と製品
  6
CONTINUOUS
 62
    2
 10
127.43281505095172
 20
110.35331326210326
 11
128.43281505095172
 21
110.35331326210326
  0
ARC
  8
_0-2_躯体と製品
  6
CONTINUOUS
 62
    2
 10
129.93281505095172
 20
130.69666926210311
 40
1.5
 50
98.434129000001406
 51
180
  0
ARC
  8
_0-2_躯体と製品
  6
CONTINUOUS
 62
    2
 10
129.93281505095172
 20
130.69666926210311
 40
2.5
 50
98.434129000001406
 51
180
  0
LINE
  8
_0-2_躯体と製品
  6
CONTINUOUS
 62
    2
 10
156.43281405095172
 20
116.43012626210316
 11
156.93281405095172
 21
112.35331326210326
  0
LINE
  8
_0-2_躯体と製品
  6
CONTINUOUS
 62
    2
 10
155.43281405095172
 20
115.35331226210315
 11
155.81094005095167
 21
112.2702112621032
  0
LINE
  8
_0-2_躯体と製品
  6
CONTINUOUS
 62
    2
 10
155.81094005095167
 20
112.2702112621032
 11
156.93281405095172
 21
112.35331326210326
  0
ARC
  8
_0-2_躯体と製品
  6
CONTINUOUS
 62
    2
 10
154.93281405095172
 20
138.44729726210312
 40
1.5
 50
278.43412900000141
 51
0.0000000000000254
  0
ARC
  8
_0-2_躯体と製品
  6
CONTINUOUS
 62
    2
 10
155.93281405095172
 20
137.58464026210322
 40
1.5
 50
278.43412900000141
 51
0.0000000000000254
  0
TEXT
  8
_0-3_文字-記号
 62
    7
 10
128.63123405095166
 20
181.96204726210317
 40
5
 41
0.8
 50
0
  1
ＡＤＭ３７５０
  0
LINE
  8
_0-2_躯体と製品
  6
CONTINUOUS
 62
    2
 10
156.43281405095172
 20
168.1533102621031
 11
155.43281405095172
 21
168.1533102621031
  0
LINE
  8
_0-2_躯体と製品
  6
CONTINUOUS
 62
    2
 10
155.43281405095172
 20
169.1533102621031
 11
157.43281405095172
 21
169.1533102621031
  0
LINE
  8
_0-2_躯体と製品
  6
CONTINUOUS
 62
    2
 10
155.43281405095172
 20
168.1533102621031
 11
155.43281405095172
 21
169.1533102621031
  0
LINE
  8
_0-2_躯体と製品
  6
CONTINUOUS
 62
    2
 10
275.5347240509517
 20
138.01596926210323
 11
275.5347240509517
 21
168.1533102621031
  0
LINE
  8
_0-2_躯体と製品
  6
CONTINUOUS
 62
    2
 10
276.5347240509517
 20
138.44729726210312
 11
276.5347240509517
 21
169.00948026210312
  0
LINE
  8
_0-2_躯体と製品
  6
CONTINUOUS
 62
    2
 10
292.03472405095158
 20
120.35331226210315
 11
276.5347240509517
 21
119.35331226210315
  0
LINE
  8
_0-2_躯体と製品
  6
CONTINUOUS
 62
    2
 10
275.5347240509517
 20
120.35331226210315
 11
292.03472405095158
 21
121.35331226210315
  0
LINE
  8
_0-2_躯体と製品
  6
CONTINUOUS
 62
    2
 10
246.53472505095169
 20
110.4133132621032
 11
246.53472505095169
 21
130.69666926210311
  0
LINE
  8
_0-2_躯体と製品
  6
CONTINUOUS
 62
    2
 10
247.53472505095169
 20
131.12799726210324
 11
247.53472505095169
 21
114.35331226210315
  0
LINE
  8
_0-2_躯体と製品
  6
CONTINUOUS
 62
    2
 10
247.53472505095169
 20
114.35605226210305
 11
275.5347240509517
 21
116.43012626210316
  0
LINE
  8
_0-2_躯体と製品
  6
CONTINUOUS
 62
    2
 10
274.5347240509517
 20
115.35331226210315
 11
247.53472505095169
 21
113.35331226210315
  0
LINE
  8
_0-2_躯体と製品
  6
CONTINUOUS
 62
    2
 10
247.53472505095169
 20
110.4133132621032
 11
247.53472505095169
 21
113.35331226210315
  0
LINE
  8
_0-2_躯体と製品
  6
CONTINUOUS
 62
    2
 10
247.47472505095175
 20
110.35331326210326
 11
246.59472505095164
 21
110.35331326210326
  0
ARC
  8
_0-2_躯体と製品
  6
CONTINUOUS
 62
    2
 10
247.47472505095175
 20
110.4133132621032
 40
0.0599999999999999
 50
270
 51
0
  0
ARC
  8
_0-2_躯体と製品
  6
CONTINUOUS
 62
    2
 10
246.59472505095164
 20
110.4133132621032
 40
0.0599999999999999
 50
180
 51
270
  0
LINE
  8
_0-2_躯体と製品
  6
CONTINUOUS
 62
    2
 10
275.5347240509517
 20
116.43012626210316
 11
275.5347240509517
 21
120.35331226210315
  0
LINE
  8
_0-2_躯体と製品
  6
CONTINUOUS
 62
    2
 10
276.5347240509517
 20
115.50146126210325
 11
276.5347240509517
 21
119.35331226210315
  0
LINE
  8
_0-2_躯体と製品
  6
CONTINUOUS
 62
    2
 10
274.5347240509517
 20
115.35331226210315
 11
276.5347240509517
 21
115.50146126210325
  0
LINE
  8
_0-2_躯体と製品
  6
CONTINUOUS
 62
    2
 10
274.68139705095177
 20
137.02678426210309
 11
248.66804505095183
 21
133.16963126210317
  0
LINE
  8
_0-2_躯体と製品
  6
CONTINUOUS
 62
    2
 10
248.38805305095173
 20
132.11718226210314
 11
274.40140505095167
 21
135.97433526210307
  0
ARC
  8
_0-2_躯体と製品
  6
CONTINUOUS
 62
    2
 10
249.03472505095169
 20
130.69666926210311
 40
2.5
 50
98.434129000001406
 51
180
  0
ARC
  8
_0-2_躯体と製品
  6
CONTINUOUS
 62
    2
 10
248.53472505095169
 20
131.12799726210324
 40
1
 50
98.434129000001406
 51
180
  0
ARC
  8
_0-2_躯体と製品
  6
CONTINUOUS
 62
    2
 10
274.5347240509517
 20
138.01596926210323
 40
1
 50
278.43412900000141
 51
0.0000000000000254
  0
ARC
  8
_0-2_躯体と製品
  6
CONTINUOUS
 62
    2
 10
274.03472405095158
 20
138.44729726210312
 40
2.5
 50
278.43412900000141
 51
0.0000000000000254
  0
LINE
  8
_0-2_躯体と製品
  6
CONTINUOUS
 62
    2
 10
293.03472405095158
 20
123.35331226210315
 11
293.03472405095158
 21
115.35331226210315
  0
LINE
  8
_0-2_躯体と製品
  6
CONTINUOUS
 62
    2
 10
292.03472405095158
 20
115.35331226210315
 11
292.03472405095158
 21
120.35331226210315
  0
LINE
  8
_0-2_躯体と製品
  6
CONTINUOUS
 62
    2
 10
293.03472405095158
 20
115.35331226210315
 11
292.03472405095158
 21
115.35331226210315
  0
LINE
  8
_0-2_躯体と製品
  6
CONTINUOUS
 62
    2
 10
292.03472405095158
 20
123.35331226210315
 11
293.03472405095158
 21
123.35331226210315
  0
LINE
  8
_0-2_躯体と製品
  6
CONTINUOUS
 62
    2
 10
292.03472405095158
 20
121.35331226210315
 11
292.03472405095158
 21
123.35331226210315
  0
LINE
  8
_0-2_躯体と製品
  6
CONTINUOUS
 62
    2
 10
274.5347240509517
 20
168.1533102621031
 11
275.5347240509517
 21
168.1533102621031
  0
LINE
  8
_0-2_躯体と製品
  6
CONTINUOUS
 62
    2
 10
274.5347240509517
 20
169.00948026210312
 11
276.58823905095153
 21
169.00948026210312
  0
LINE
  8
_0-2_躯体と製品
  6
CONTINUOUS
 62
    2
 10
274.5347240509517
 20
169.00948026210312
 11
274.5347240509517
 21
168.1533102621031
  0
TEXT
  8
_0-3_文字-記号
 62
    7
 10
245.23371205095168
 20
179.29188126210306
 40
5
 41
0.8
 50
0
  1
ＳＤＭ３７５０
  0
ENDSEC
  0
EOF
