  0
SECTION
  2
HEADER
  9
$ACADVER
  1
AC1009
  9
$INSBASE
 10
0
 20
0
 30
0
  9
$EXTMIN
 10
0
 20
0
  9
$EXTMAX
 10
420
 20
297
  9
$LIMMIN
 10
0
 20
0
  9
$LIMMAX
 10
420
 20
297
  9
$LTSCALE
 40
1
  0
ENDSEC
  0
SECTION
  2
TABLES
  0
TABLE
  2
LTYPE
 70
     9
  0
LTYPE
  2
CONTINUOUS
 70
    64
  3
実線
 72
    65
 73
     0
 40
0.0
  0
LTYPE
  2
DASHED1
 70
    64
  3
--  --  --  --  --  --  --  --  
 72
    65
 73
     2
 40
2.5
 49
1.25
 49
-1.25
  0
LTYPE
  2
DASHED2
 70
    64
  3
----    ----    ----    ----    
 72
    65
 73
     2
 40
5.0
 49
2.5
 49
-2.5
  0
LTYPE
  2
DASHED3
 70
    64
  3
------  ------  ------  ------  
 72
    65
 73
     2
 40
5.0
 49
3.75
 49
-1.25
  0
LTYPE
  2
CENTER1
 70
    64
  3
----- - ----- - ----- - ----- - 
 72
    65
 73
     4
 40
10.0
 49
6.25
 49
-1.25
 49
1.25
 49
-1.25
  0
LTYPE
  2
CENTER2
 70
    64
  3
----------  --  ----------  --  
 72
    65
 73
     4
 40
20.0
 49
12.5
 49
-2.5
 49
2.5
 49
-2.5
  0
LTYPE
  2
PHANTOM1
 70
    64
  3
--- - - --- - - --- - - --- - - 
 72
    65
 73
     6
 40
10.0
 49
3.25
 49
-1.25
 49
1.25
 49
-1.25
 49
1.25
 49
-1.25
  0
LTYPE
  2
PHANTOM2
 70
    64
  3
--------  -  -  --------  -  -  
 72
    65
 73
     6
 40
20.0
 49
10.0
 49
-2.5
 49
1.25
 49
-2.5
 49
1.25
 49
-2.5
  0
LTYPE
  2
DOT
 70
    64
  3
-   -   -   -   -   -   -   -   
 72
    65
 73
     2
 40
2.5
 49
0.625
 49
-1.875
  0
LTYPE
  2
DUMMY
 70
    64
  3
ダミー
 72
    65
 73
     0
 40
0.0
  0
LTYPE
  2
RAND1
 70
    64
  3
ランダム線1
 72
    65
 73
     4
 40
10.0
 49
1.0
 49
-2.0
 49
3.0
 49
-4.0
  0
LTYPE
  2
RAND2
 70
    64
  3
ランダム線2
 72
    65
 73
     4
 40
14.0
 49
2.0
 49
-3.0
 49
4.0
 49
-5.0
  0
LTYPE
  2
RAND3
 70
    64
  3
ランダム線3
 72
    65
 73
     4
 40
18.0
 49
3.0
 49
-4.0
 49
5.0
 49
-6.0
  0
LTYPE
  2
RAND4
 70
    64
  3
ランダム線4
 72
    65
 73
     4
 40
22.0
 49
4.0
 49
-5.0
 49
6.0
 49
-7.0
  0
LTYPE
  2
RAND5
 70
    64
  3
ランダム線5
 72
    65
 73
     4
 40
26.0
 49
5.0
 49
-6.0
 49
7.0
 49
-8.0
  0
LTYPE
  2
LONG1
 70
    64
  3
----------  --  ----------  --  
 72
    65
 73
     4
 40
40.0
 49
32.5
 49
-2.5
 49
2.5
 49
-2.5
  0
LTYPE
  2
LONG2
 70
    64
  3
--------  -  -  --------  -  -  
 72
    65
 73
     6
 40
40.0
 49
30.0
 49
-2.5
 49
1.25
 49
-2.5
 49
1.25
 49
-2.5
  0
LTYPE
  2
LONG3
 70
    64
  3
+++++++++++++++..+++++++++++++++
 72
    65
 73
     2
 40
40.0
 49
37.5
 49
-2.5
  0
LTYPE
  2
LONG4
 70
    64
  3
+++++++++++++++..+++++++++++++++
 72
    65
 73
     2
 40
80.0
 49
75.0
 49
-5.0
  0
LTYPE
  2
LONG5
 70
    64
  3
----------  --  ----------  --  
 72
    65
 73
     4
 40
60.0
 49
37.5
 49
-7.5
 49
7.5
 49
-7.5
  0
LTYPE
  2
dashed
 70
   64
  3
-------   -------------   ------
 72
   65
 73
    2
 40
7.5
 49
6
 49
-1.5
  0
LTYPE
  2
dashed_spaced
 70
   64
  3
----        --------        ----
 72
   65
 73
    2
 40
12
 49
6
 49
-6
  0
LTYPE
  2
long_dashed_dotted
 70
   64
  3
------------- --- --------------
 72
   65
 73
    4
 40
15.25
 49
12
 49
-1.5
 49
0.25
 49
-1.5
  0
LTYPE
  2
long_dashed_double-dotted
 70
   64
  3
----------- --- --- ------------
 72
   65
 73
    6
 40
17
 49
12
 49
-1.5
 49
0.25
 49
-1.5
 49
0.25
 49
-1.5
  0
LTYPE
  2
long_dashed_triplicate-dotted
 70
   64
  3
--------- --- --- --- ----------
 72
   65
 73
    8
 40
18.75
 49
12
 49
-1.5
 49
0.25
 49
-1.5
 49
0.25
 49
-1.5
 49
0.25
 49
-1.5
  0
LTYPE
  2
dotted
 70
   64
  3
   -       -       -       -    
 72
   65
 73
    2
 40
1.75
 49
0.25
 49
-1.5
  0
LTYPE
  2
chain
 70
   64
  3
-------------- -- --------------
 72
   65
 73
    4
 40
18.5
 49
12
 49
-1.5
 49
3.5
 49
-1.5
  0
LTYPE
  2
chain_double_dash
 70
   64
  3
------------ -- -- -------------
 72
   65
 73
    6
 40
23.5
 49
12
 49
-1.5
 49
3.5
 49
-1.5
 49
3.5
 49
-1.5
  0
LTYPE
  2
dashed_dotted
 70
   64
  3
-----------     -     ----------
 72
   65
 73
    4
 40
9.25
 49
6
 49
-1.5
 49
0.25
 49
-1.5
  0
LTYPE
  2
double-dashed_dotted
 70
   64
  3
------   -----------   -   -----
 72
   65
 73
    6
 40
16.75
 49
6
 49
-1.5
 49
6
 49
-1.5
 49
0.25
 49
-1.5
  0
LTYPE
  2
dashed_double-dotted
 70
   64
  3
---------    -    -    ---------
 72
   65
 73
    6
 40
11
 49
6
 49
-1.5
 49
0.25
 49
-1.5
 49
0.25
 49
-1.5
  0
LTYPE
  2
double-dashed_double-dotted
 70
   64
  3
-----   ---------   -   -   ----
 72
   65
 73
    8
 40
18.5
 49
6
 49
-1.5
 49
6
 49
-1.5
 49
0.25
 49
-1.5
 49
0.25
 49
-1.5
  0
LTYPE
  2
dashed_triplicate-dotted
 70
   64
  3
-------    -    -    -    ------
 72
   65
 73
    8
 40
12.75
 49
6
 49
-1.5
 49
0.25
 49
-1.5
 49
0.25
 49
-1.5
 49
0.25
 49
-1.5
  0
LTYPE
  2
double-dashed_triplicate-dotted
 70
   64
  3
-----  ---------  -  -  -  -----
 72
   65
 73
   10
 40
20.25
 49
6
 49
-1.5
 49
6
 49
-1.5
 49
0.25
 49
-1.5
 49
0.25
 49
-1.5
 49
0.25
 49
-1.5
  0
LTYPE
  2
undefined
 70
   64
  3
--------------------------------
 72
   65
 73
    0
 40
0
  0
LTYPE
  2
PLINE2
 70
   64
  3
------     -----------     -----
 72
   65
 73
    2
 40
3
 49
2.1000000000000001
 49
-0.9
  0
LTYPE
  2
PLINE3
 70
   64
  3
------------   ---   -----------
 72
   65
 73
    4
 40
10
 49
7
 49
-1
 49
1
 49
-1
  0
LTYPE
  2
PLINE4
 70
   64
  3
---------   ---   ---   --------
 72
   65
 73
    6
 40
10
 49
5
 49
-1
 49
1
 49
-1
 49
1
 49
-1
  0
LTYPE
  2
PLINE5
 70
   64
  3
------     -----------     -----
 72
   65
 73
    2
 40
5
 49
3.5
 49
-1.5
  0
LTYPE
  2
PLINE6
 70
   64
  3
------------   ---   -----------
 72
   65
 73
    4
 40
15
 49
10.5
 49
-1.5
 49
1.5
 49
-1.5
  0
LTYPE
  2
PLINE7
 70
   64
  3
---------   ---   ---   --------
 72
   65
 73
    6
 40
15
 49
7.5
 49
-1.5
 49
1.5
 49
-1.5
 49
1.5
 49
-1.5
  0
LTYPE
  2
PLINE8
 70
   64
  3
------     -----------     -----
 72
   65
 73
    2
 40
7
 49
4.9000000000000004
 49
-2.1000000000000001
  0
LTYPE
  2
PLINE9
 70
   64
  3
------------   ---   -----------
 72
   65
 73
    4
 40
20
 49
14
 49
-2
 49
2
 49
-2
  0
LTYPE
  2
PLINE10
 70
   64
  3
---------   ---   ---   --------
 72
   65
 73
    6
 40
20
 49
10
 49
-2
 49
2
 49
-2
 49
2
 49
-2
  0
LTYPE
  2
PLINE11
 70
   64
  3
------     -----------     -----
 72
   65
 73
    2
 40
9
 49
6.2999999999999989
 49
-2.7000000000000002
  0
LTYPE
  2
PLINE12
 70
   64
  3
------------   ---   -----------
 72
   65
 73
    4
 40
25
 49
17.5
 49
-2.5
 49
2.5
 49
-2.5
  0
LTYPE
  2
PLINE13
 70
   64
  3
---------   ---   ---   --------
 72
   65
 73
    6
 40
25
 49
12.5
 49
-2.5
 49
2.5
 49
-2.5
 49
2.5
 49
-2.5
  0
LTYPE
  2
PLINE14
 70
   64
  3
------     -----------     -----
 72
   65
 73
    2
 40
11
 49
7.7000000000000002
 49
-3.2999999999999989
  0
LTYPE
  2
PLINE15
 70
   64
  3
------------   ---   -----------
 72
   65
 73
    4
 40
30
 49
21
 49
-3
 49
3
 49
-3
  0
LTYPE
  2
PLINE16
 70
   64
  3
---------   ---   ---   --------
 72
   65
 73
    6
 40
30
 49
15
 49
-3
 49
3
 49
-3
 49
3
 49
-3
  0
ENDTAB
  0
TABLE
  2
STYLE
  5
3
100
AcDbSymbolTable
 70
     1
  0
STYLE
  5
10
100
AcDbSymbolTableRecord
100
AcDbTextStyleTableRecord
  2
STANDARD
 70
     0
 40
0.0
 41
1.0
 50
0.0
 71
     0
 42
0.2
  3
txt
  4
bigfont.shx
  0
STYLE
  5
26
100
AcDbSymbolTableRecord
100
AcDbTextStyleTableRecord
  2
TATEGAKI
 70
    68
 40
0.0
 41
1.0
 50
0.0
 71
     0
 42
1.0
  3
txt
  4
bigfont.shx
  0
ENDTAB
  0
TABLE
  2
LAYER
 70
    4
  0
LAYER
  2
_0-2_寸法
 70
   64
 62
    7
  6
CONTINUOUS
  0
LAYER
  2
_0-3_躯体と製品
 70
   64
 62
    7
  6
CONTINUOUS
  0
LAYER
  2
_0-4_文字-記号
 70
   64
 62
    7
  6
CONTINUOUS
  0
LAYER
  2
ADD_LINE
 70
   64
 62
    7
  6
CONTINUOUS
  0
ENDTAB
  0
ENDSEC
  0
SECTION
  2
BLOCKS
  0
BLOCK
  2
-000-_DOT
 70
   64
 10
0
 20
0
 30
0
  0
CIRCLE
  8
_0-0_0
  6
CONTINUOUS
 62
    7
 10
0
 20
0
 40
0.03125
  0
LINE
  8
_0-0_0
  6
CONTINUOUS
 62
    7
 10
0.03125
 20
0
 11
-0.03125
 21
0
  0
LINE
  8
_0-0_0
  6
CONTINUOUS
 62
    7
 10
-0.0625
 20
0
 11
-0.125
 21
0
  0
ENDBLK
  0
BLOCK
  2
-001-_D6
 70
   64
 10
0
 20
0
 30
0
  0
LINE
  8
_0-2_寸法
  6
CONTINUOUS
 62
    4
 10
275.54684198145549
 20
184.21910327337574
 11
275.54684198145549
 21
147.06160327337574
  0
LINE
  8
_0-2_寸法
  6
CONTINUOUS
 62
    4
 10
431.79684198145549
 20
184.21910327337574
 11
431.79684198145549
 21
147.06160327337574
  0
LINE
  8
_0-2_寸法
  6
CONTINUOUS
 62
    4
 10
275.67184198145549
 20
147.06160327337574
 11
431.67184198145549
 21
147.06160327337574
  0
INSERT
  2
-000-_DOT
  8
_0-2_寸法
 10
275.54684198145549
 20
147.06160327337574
 41
1
 42
1
 50
180
  0
INSERT
  2
-000-_DOT
  8
_0-2_寸法
 10
431.79684198145549
 20
147.06160327337574
 41
1
 42
1
 50
0
  0
TEXT
  8
_0-2_寸法
 62
    7
 10
349.92184198145549
 20
147.18660327337574
 40
3.75
 41
1
 50
0
  1
1250
  0
POINT
  8
_0-1_DEFPOINTS
 62
    7
 10
275.54684198145549
 20
184.21910327337574
  0
POINT
  8
_0-1_DEFPOINTS
 62
    7
 10
431.79684198145549
 20
184.21910327337574
  0
POINT
  8
_0-1_DEFPOINTS
 62
    7
 10
431.79684198145549
 20
147.06160327337574
  0
ENDBLK
  0
BLOCK
  2
-002-_D8
 70
   64
 10
0
 20
0
 30
0
  0
LINE
  8
_0-2_寸法
  6
CONTINUOUS
 62
    4
 10
52.200840731455735
 20
146.71910327337574
 11
52.200840731455735
 21
118.63660327337575
  0
LINE
  8
_0-2_寸法
  6
CONTINUOUS
 62
    4
 10
164.70084073145563
 20
146.71910327337574
 11
164.70084073145563
 21
118.63660327337575
  0
LINE
  8
_0-2_寸法
  6
CONTINUOUS
 62
    4
 10
52.325840731455735
 20
118.63660327337575
 11
164.57584073145574
 21
118.63660327337575
  0
INSERT
  2
-000-_DOT
  8
_0-2_寸法
 10
52.200840731455735
 20
118.63660327337575
 41
1
 42
1
 50
180
  0
INSERT
  2
-000-_DOT
  8
_0-2_寸法
 10
164.70084073145563
 20
118.63660327337575
 41
1
 42
1
 50
0
  0
TEXT
  8
_0-2_寸法
 62
    7
 10
105.63834073145574
 20
118.76160327337575
 40
3.75
 41
1
 50
0
  1
900
  0
POINT
  8
_0-1_DEFPOINTS
 62
    7
 10
52.200840731455735
 20
146.71910327337574
  0
POINT
  8
_0-1_DEFPOINTS
 62
    7
 10
164.70084073145563
 20
146.71910327337574
  0
POINT
  8
_0-1_DEFPOINTS
 62
    7
 10
164.70084073145563
 20
118.63660327337575
  0
ENDBLK
  0
BLOCK
  2
-003-_D9
 70
   64
 10
0
 20
0
 30
0
  0
LINE
  8
_0-2_寸法
  6
CONTINUOUS
 62
    4
 10
164.70084073145563
 20
146.71910327337574
 11
164.70084073145563
 21
118.63660327337575
  0
LINE
  8
_0-2_寸法
  6
CONTINUOUS
 62
    4
 10
180.16334073145549
 20
146.71910327337574
 11
180.16334073145549
 21
118.63660327337575
  0
LINE
  8
_0-2_寸法
  6
CONTINUOUS
 62
    4
 10
164.82584073145574
 20
118.63660327337575
 11
180.03834073145563
 21
118.63660327337575
  0
INSERT
  2
-000-_DOT
  8
_0-2_寸法
 10
164.70084073145563
 20
118.63660327337575
 41
1
 42
1
 50
180
  0
INSERT
  2
-000-_DOT
  8
_0-2_寸法
 10
180.16334073145549
 20
118.63660327337575
 41
1
 42
1
 50
0
  0
TEXT
  8
_0-2_寸法
 62
    7
 10
165.86959073145562
 20
118.76160327337575
 40
3.75
 41
1
 50
0
  1
150以内
  0
POINT
  8
_0-1_DEFPOINTS
 62
    7
 10
164.70084073145563
 20
146.71910327337574
  0
POINT
  8
_0-1_DEFPOINTS
 62
    7
 10
180.16334073145549
 20
146.71910327337574
  0
POINT
  8
_0-1_DEFPOINTS
 62
    7
 10
180.16334073145549
 20
118.63660327337575
  0
ENDBLK
  0
BLOCK
  2
-004-_D10
 70
   64
 10
0
 20
0
 30
0
  0
LINE
  8
_0-2_寸法
  6
CONTINUOUS
 62
    4
 10
180.16334073145549
 20
310.75980702337574
 11
180.16334073145549
 21
327.22693202337575
  0
LINE
  8
_0-2_寸法
  6
CONTINUOUS
 62
    4
 10
195.16334073145549
 20
310.75980702337574
 11
195.16334073145549
 21
327.22693202337575
  0
LINE
  8
_0-2_寸法
  6
CONTINUOUS
 62
    4
 10
180.28834073145549
 20
327.22693202337575
 11
195.03834073145563
 21
327.22693202337575
  0
INSERT
  2
-000-_DOT
  8
_0-2_寸法
 10
180.16334073145549
 20
327.22693202337575
 41
1
 42
1
 50
180
  0
INSERT
  2
-000-_DOT
  8
_0-2_寸法
 10
195.16334073145549
 20
327.22693202337575
 41
1
 42
1
 50
0
  0
TEXT
  8
_0-2_寸法
 62
    7
 10
184.85084073145563
 20
327.35193202337575
 40
3.75
 41
1
 50
0
  1
120
  0
POINT
  8
_0-1_DEFPOINTS
 62
    7
 10
180.16334073145549
 20
310.75980702337574
  0
POINT
  8
_0-1_DEFPOINTS
 62
    7
 10
195.16334073145549
 20
310.75980702337574
  0
POINT
  8
_0-1_DEFPOINTS
 62
    7
 10
195.16334073145549
 20
327.22693202337575
  0
ENDBLK
  0
BLOCK
  2
-005-_D11
 70
   64
 10
0
 20
0
 30
0
  0
LINE
  8
_0-2_寸法
  6
CONTINUOUS
 62
    4
 10
179.33517198145563
 20
284.46910327337588
 11
164.90442198145576
 21
284.46910327337588
  0
LINE
  8
_0-2_寸法
  6
CONTINUOUS
 62
    4
 10
179.33517198145563
 20
309.46910327337577
 11
164.90442198145576
 21
309.46910327337577
  0
LINE
  8
_0-2_寸法
  6
CONTINUOUS
 62
    4
 10
164.90442198145576
 20
284.59410327337577
 11
164.90442198145576
 21
309.34410327337577
  0
INSERT
  2
-000-_DOT
  8
_0-2_寸法
 10
164.90442198145576
 20
284.46910327337588
 41
1
 42
1
 50
270
  0
INSERT
  2
-000-_DOT
  8
_0-2_寸法
 10
164.90442198145576
 20
309.46910327337577
 41
1
 42
1
 50
90
  0
TEXT
  8
_0-2_寸法
 62
    7
 10
164.77942198145561
 20
290.40660327337588
 40
3.75
 41
1
 50
90
  1
150.200
  0
POINT
  8
_0-1_DEFPOINTS
 62
    7
 10
179.33517198145563
 20
284.46910327337588
  0
POINT
  8
_0-1_DEFPOINTS
 62
    7
 10
179.33517198145563
 20
309.46910327337577
  0
POINT
  8
_0-1_DEFPOINTS
 62
    7
 10
164.90442198145576
 20
309.46910327337577
  0
ENDBLK
  0
BLOCK
  2
-006-_D12
 70
   64
 10
0
 20
0
 30
0
  0
LINE
  8
_0-2_寸法
  6
CONTINUOUS
 62
    4
 10
192.44900198145575
 20
183.03500702337575
 11
192.44900198145575
 21
147.06160327337574
  0
LINE
  8
_0-2_寸法
  6
CONTINUOUS
 62
    4
 10
216.10084073145563
 20
184.21910327337574
 11
216.10084073145563
 21
147.06160327337574
  0
LINE
  8
_0-2_寸法
  6
CONTINUOUS
 62
    4
 10
192.57400198145575
 20
147.06160327337574
 11
215.97584073145549
 21
147.06160327337574
  0
INSERT
  2
-000-_DOT
  8
_0-2_寸法
 10
192.44900198145575
 20
147.06160327337574
 41
1
 42
1
 50
180
  0
INSERT
  2
-000-_DOT
  8
_0-2_寸法
 10
216.10084073145563
 20
147.06160327337574
 41
1
 42
1
 50
0
  0
TEXT
  8
_0-2_寸法
 62
    7
 10
197.71242135645562
 20
147.18660327337574
 40
3.75
 41
1
 50
0
  1
175~200
  0
POINT
  8
_0-1_DEFPOINTS
 62
    7
 10
192.44900198145575
 20
183.03500702337575
  0
POINT
  8
_0-1_DEFPOINTS
 62
    7
 10
216.10084073145563
 20
184.21910327337574
  0
POINT
  8
_0-1_DEFPOINTS
 62
    7
 10
216.10084073145563
 20
147.06160327337574
  0
ENDBLK
  0
ENDSEC
  0
SECTION
  2
ENTITIES
  0
LINE
  8
_0-3_躯体と製品
  6
CONTINUOUS
 62
    7
 10
-253.65568326174707
 20
446.70231425213547
 11
-253.65568326174707
 21
-192.49768574786344
  0
LINE
  8
_0-3_躯体と製品
  6
PLINE3
 62
    3
 10
-286.15568326174707
 20
585.50231425213565
 11
-286.15568326174707
 21
-154.49768574786458
  0
LINE
  8
_0-3_躯体と製品
  6
PLINE3
 62
    3
 10
-316.15568326174707
 20
585.50231425213565
 11
-316.15568326174707
 21
-154.49768574786458
  0
LINE
  8
_0-3_躯体と製品
  6
CONTINUOUS
 62
    7
 10
-178.65568326174707
 20
471.10231425213556
 11
-178.65568326174707
 21
-111.56968574786447
  0
LINE
  8
_0-3_躯体と製品
  6
CONTINUOUS
 62
    7
 10
-7.3056832617460259
 20
477.50031425213569
 11
-7.3056832617460259
 21
-168.69968574786458
  0
LINE
  8
_0-3_躯体と製品
  6
CONTINUOUS
 62
    7
 10
-50.005683261746071
 20
477.50031425213569
 11
-50.005683261746071
 21
-168.69968574786458
  0
LINE
  8
_0-3_躯体と製品
  6
CONTINUOUS
 62
    4
 10
-1314.8556832617451
 20
-237.49768574786344
 11
-464.85568326174507
 21
-237.49768574786344
  0
LINE
  8
_0-3_躯体と製品
  6
CONTINUOUS
 62
    4
 10
-1314.8556832617451
 20
-287.49768574786344
 11
-464.85568326174507
 21
-287.49768574786344
  0
LINE
  8
_0-3_躯体と製品
  6
CONTINUOUS
 62
    7
 10
-1441.0175332617459
 20
-474.49768574786458
 11
-316.15568326174707
 21
-474.49768574786458
  0
TEXT
  8
_0-4_文字-記号
 62
    7
 10
-1038.5378532617447
 20
-70.835755747864368
 40
50
 41
0.8
 50
0
  1
アリーナ
  0
LINE
  8
_0-3_躯体と製品
  6
CONTINUOUS
 62
    3
 10
-1441.0175332617459
 20
-207.49768574786344
 11
-321.15568326174707
 21
-207.49768574786344
  0
LINE
  8
_0-3_躯体と製品
  6
CONTINUOUS
 62
    3
 10
-1441.0175332617459
 20
-192.49768574786344
 11
-316.15568326174707
 21
-192.49768574786344
  0
LINE
  8
_0-3_躯体と製品
  6
CONTINUOUS
 62
    7
 10
-1441.0175332617459
 20
-174.49768574786458
 11
-316.15568326174707
 21
-174.49768574786458
  0
LINE
  8
_0-3_躯体と製品
  6
CONTINUOUS
 62
    3
 10
-1329.8557332617461
 20
-229.71618574786453
 11
-1329.8557332617461
 21
-290.27962574786352
  0
LINE
  8
_0-3_躯体と製品
  6
CONTINUOUS
 62
    3
 10
-1349.8556332617463
 20
-229.71618574786453
 11
-1349.8556332617463
 21
-290.27962574786352
  0
LINE
  8
_0-3_躯体と製品
  6
CONTINUOUS
 62
    3
 10
-1359.8555832617453
 20
-229.71618574786453
 11
-1359.8555832617453
 21
-290.27962574786352
  0
LINE
  8
_0-3_躯体と製品
  6
CONTINUOUS
 62
    3
 10
-1319.8557832617448
 20
-229.71618574786453
 11
-1319.8557832617448
 21
-290.27962574786352
  0
LINE
  8
_0-3_躯体と製品
  6
CONTINUOUS
 62
    4
 10
-1314.8558132617459
 20
-304.79768574786453
 11
-1314.8558132617459
 21
-221.49810574786443
  0
LINE
  8
_0-3_躯体と製品
  6
CONTINUOUS
 62
    4
 10
-1364.8555532617465
 20
-221.49810574786443
 11
-1364.8555532617465
 21
-304.79768574786453
  0
LINE
  8
_0-3_躯体と製品
  6
CONTINUOUS
 62
    4
 10
-1369.8555332617466
 20
-372.48183574786458
 11
-1309.8558332617458
 21
-372.48183574786458
  0
LINE
  8
_0-3_躯体と製品
  6
CONTINUOUS
 62
    4
 10
-1369.8555332617466
 20
-469.29770574786448
 11
-1309.8558332617458
 21
-469.29770574786448
  0
LINE
  8
_0-3_躯体と製品
  6
CONTINUOUS
 62
    4
 10
-1369.8555332617466
 20
-472.49769574786546
 11
-1309.8558332617458
 21
-472.49769574786546
  0
ARC
  8
_0-3_躯体と製品
  6
CONTINUOUS
 62
    3
 10
-1324.8557632617449
 20
-290.27962574786352
 40
4.9999700000000002
 50
180
 51
0
  0
LINE
  8
_0-3_躯体と製品
  6
CONTINUOUS
 62
    4
 10
-1358.3555832617467
 20
-306.29767574786342
 11
-1321.3557732617446
 21
-306.29767574786342
  0
LINE
  8
_0-3_躯体と製品
  6
CONTINUOUS
 62
    4
 10
-1364.8555532617465
 20
-304.79768574786453
 11
-1314.8558132617459
 21
-304.79768574786453
  0
LINE
  8
_0-3_躯体と製品
  6
CONTINUOUS
 62
    4
 10
-1364.8555532617465
 20
-378.58980574786438
 11
-1364.8555532617465
 21
-469.29770574786448
  0
LINE
  8
_0-3_躯体と製品
  6
CONTINUOUS
 62
    4
 10
-1361.6555732617448
 20
-469.29770574786448
 11
-1361.6555732617448
 21
-372.48183574786458
  0
LINE
  8
_0-3_躯体と製品
  6
CONTINUOUS
 62
    4
 10
-1369.8555332617466
 20
-469.29770574786448
 11
-1369.8555332617466
 21
-474.49768574786458
  0
LINE
  8
_0-3_躯体と製品
  6
PLINE3
 62
    3
 10
-1356.6552632617445
 20
-483.90066574786442
 11
-1356.6552632617445
 21
-474.55687574786339
  0
ARC
  8
_0-3_躯体と製品
  6
CONTINUOUS
 62
    3
 10
-1358.3275932617457
 20
-467.51771574786449
 40
1.9999899999999999
 50
90
 51
180
  0
LINE
  8
_0-3_躯体と製品
  6
CONTINUOUS
 62
    3
 10
-1360.3275732617462
 20
-469.29770574786448
 11
-1360.3275732617462
 21
-467.51771574786449
  0
LINE
  8
_0-3_躯体と製品
  6
CONTINUOUS
 62
    3
 10
-1358.3275932617457
 20
-465.51772574786446
 11
-1355.327603261745
 21
-465.51772574786446
  0
LINE
  8
_0-3_躯体と製品
  6
CONTINUOUS
 62
    3
 10
-1353.3276132617457
 20
-467.51771574786449
 11
-1353.3276132617457
 21
-469.29770574786448
  0
ARC
  8
_0-3_躯体と製品
  6
CONTINUOUS
 62
    3
 10
-1355.327603261745
 20
-467.51771574786449
 40
1.9999899999999999
 50
0
 51
90
  0
LINE
  8
_0-3_躯体と製品
  6
CONTINUOUS
 62
    4
 10
-1441.0175332617459
 20
-287.49768574786344
 11
-1364.8556832617451
 21
-287.49768574786344
  0
LINE
  8
_0-3_躯体と製品
  6
CONTINUOUS
 62
    3
 10
-1345.8556832617464
 20
-355.48192574786458
 11
-1345.8556832617464
 21
-336.32768574786451
  0
LINE
  8
_0-3_躯体と製品
  6
CONTINUOUS
 62
    3
 10
-1333.855683261746
 20
-355.48192574786458
 11
-1333.855683261746
 21
-336.32768574786451
  0
LINE
  8
_0-3_躯体と製品
  6
CONTINUOUS
 62
    4
 10
-1364.8555532617465
 20
-378.58980574786438
 11
-1361.6555732617448
 21
-378.58980574786438
  0
LINE
  8
_0-3_躯体と製品
  6
CONTINUOUS
 62
    4
 10
-1369.8555332617466
 20
-375.68181574786445
 11
-1361.6555732617448
 21
-375.68181574786445
  0
LINE
  8
_0-3_躯体と製品
  6
CONTINUOUS
 62
    4
 10
-1369.8555332617466
 20
-372.48183574786458
 11
-1369.8555332617466
 21
-375.68181574786445
  0
LINE
  8
_0-3_躯体と製品
  6
CONTINUOUS
 62
    3
 10
-1353.855613261745
 20
-368.48185574786453
 11
-1353.855613261745
 21
-372.48183574786458
  0
LINE
  8
_0-3_躯体と製品
  6
CONTINUOUS
 62
    3
 10
-1325.8557532617451
 20
-368.48185574786453
 11
-1353.855613261745
 21
-368.48185574786453
  0
LINE
  8
_0-3_躯体と製品
  6
CONTINUOUS
 62
    3
 10
-1325.8557532617451
 20
-372.48183574786458
 11
-1325.8557532617451
 21
-368.48185574786453
  0
LINE
  8
_0-3_躯体と製品
  6
CONTINUOUS
 62
    3
 10
-1339.8556832617451
 20
-357.08191574786451
 11
-1339.8556832617451
 21
-368.48185574786453
  0
ARC
  8
_0-3_躯体と製品
  6
CONTINUOUS
 62
    3
 10
-1345.8556532617454
 20
-367.53186574786355
 40
12.049939999999999
 50
60.137165999993961
 51
90
  0
ARC
  8
_0-3_躯体と製品
  6
CONTINUOUS
 62
    3
 10
-1333.8557132617448
 20
-367.53186574786355
 40
12.049939999999999
 50
90
 51
119.86283400000599
  0
LINE
  8
_0-3_躯体と製品
  6
CONTINUOUS
 62
    3
 10
-1351.8556232617457
 20
-357.08191574786451
 11
-1350.255633261746
 21
-355.48192574786458
  0
LINE
  8
_0-3_躯体と製品
  6
CONTINUOUS
 62
    3
 10
-1329.4557332617464
 20
-355.48192574786458
 11
-1327.8557432617467
 21
-357.08191574786451
  0
LINE
  8
_0-3_躯体と製品
  6
CONTINUOUS
 62
    3
 10
-1351.8556232617457
 20
-368.48185574786453
 11
-1327.8557432617467
 21
-368.48185574786453
  0
LINE
  8
_0-3_躯体と製品
  6
CONTINUOUS
 62
    3
 10
-1351.8556232617457
 20
-357.08191574786451
 11
-1351.8556232617457
 21
-368.48185574786453
  0
LINE
  8
_0-3_躯体と製品
  6
CONTINUOUS
 62
    3
 10
-1327.8557432617467
 20
-368.48185574786453
 11
-1327.8557432617467
 21
-357.08191574786451
  0
LINE
  8
_0-3_躯体と製品
  6
CONTINUOUS
 62
    3
 10
-1329.4557332617464
 20
-355.48192574786458
 11
-1350.255633261746
 21
-355.48192574786458
  0
LINE
  8
_0-3_躯体と製品
  6
CONTINUOUS
 62
    3
 10
-1351.8556232617457
 20
-323.29758574786456
 11
-1351.8556232617457
 21
-334.69752574786457
  0
LINE
  8
_0-3_躯体と製品
  6
CONTINUOUS
 62
    3
 10
-1327.8557432617467
 20
-334.69752574786457
 11
-1327.8557432617467
 21
-323.29758574786456
  0
LINE
  8
_0-3_躯体と製品
  6
CONTINUOUS
 62
    3
 10
-1339.8556832617451
 20
-334.69752574786457
 11
-1339.8556832617451
 21
-323.29758574786456
  0
LINE
  8
_0-3_躯体と製品
  6
CONTINUOUS
 62
    3
 10
-1350.255633261746
 20
-336.29751574786451
 11
-1329.4557332617464
 21
-336.29751574786451
  0
LINE
  8
_0-3_躯体と製品
  6
CONTINUOUS
 62
    3
 10
-1350.255633261746
 20
-336.29751574786451
 11
-1351.8556232617457
 21
-334.69752574786457
  0
LINE
  8
_0-3_躯体と製品
  6
CONTINUOUS
 62
    3
 10
-1327.8557432617467
 20
-334.69752574786457
 11
-1329.4557332617464
 21
-336.29751574786451
  0
ARC
  8
_0-3_躯体と製品
  6
CONTINUOUS
 62
    3
 10
-1345.8556532617454
 20
-324.24758574786438
 40
12.049939999999999
 50
270
 51
299.86283400000599
  0
ARC
  8
_0-3_躯体と製品
  6
CONTINUOUS
 62
    3
 10
-1333.8557132617448
 20
-324.24758574786438
 40
12.049939999999999
 50
240.1371659999939
 51
270
  0
LINE
  8
_0-3_躯体と製品
  6
CONTINUOUS
 62
    3
 10
-1327.8557432617467
 20
-323.29758574786456
 11
-1351.8556232617457
 21
-323.29758574786456
  0
LINE
  8
_0-3_躯体と製品
  6
CONTINUOUS
 62
    3
 10
-1325.8557532617451
 20
-323.29758574786456
 11
-1325.8557532617451
 21
-319.29760574786451
  0
LINE
  8
_0-3_躯体と製品
  6
CONTINUOUS
 62
    3
 10
-1353.855613261745
 20
-323.29758574786456
 11
-1325.8557532617451
 21
-323.29758574786456
  0
LINE
  8
_0-3_躯体と製品
  6
CONTINUOUS
 62
    3
 10
-1353.855613261745
 20
-319.29760574786451
 11
-1353.855613261745
 21
-323.29758574786456
  0
LINE
  8
_0-3_躯体と製品
  6
CONTINUOUS
 62
    3
 10
-1325.8557532617451
 20
-319.29760574786451
 11
-1353.855613261745
 21
-319.29760574786451
  0
LINE
  8
_0-3_躯体と製品
  6
CONTINUOUS
 62
    3
 10
-1350.255633261746
 20
-319.29760574786451
 11
-1329.4557332617464
 21
-319.29760574786451
  0
LINE
  8
_0-3_躯体と製品
  6
CONTINUOUS
 62
    3
 10
-1351.8556232617457
 20
-306.29767574786342
 11
-1351.8556232617457
 21
-317.69761574786344
  0
LINE
  8
_0-3_躯体と製品
  6
CONTINUOUS
 62
    3
 10
-1327.8557432617467
 20
-317.69761574786344
 11
-1327.8557432617467
 21
-306.29767574786342
  0
LINE
  8
_0-3_躯体と製品
  6
CONTINUOUS
 62
    3
 10
-1350.255633261746
 20
-319.29760574786451
 11
-1351.8556232617457
 21
-317.69761574786344
  0
LINE
  8
_0-3_躯体と製品
  6
CONTINUOUS
 62
    3
 10
-1327.8557432617467
 20
-317.69761574786344
 11
-1329.4557332617464
 21
-319.29760574786451
  0
ARC
  8
_0-3_躯体と製品
  6
CONTINUOUS
 62
    3
 10
-1345.8556532617454
 20
-307.2476657478644
 40
12.049939999999999
 50
270
 51
299.86283400000599
  0
ARC
  8
_0-3_躯体と製品
  6
CONTINUOUS
 62
    3
 10
-1333.8557132617448
 20
-307.2476657478644
 40
12.049939999999999
 50
240.1371659999939
 51
270
  0
LINE
  8
_0-3_躯体と製品
  6
CONTINUOUS
 62
    3
 10
-1339.8556832617451
 20
-317.69761574786344
 11
-1339.8556832617451
 21
-306.29767574786342
  0
ARC
  8
_0-3_躯体と製品
  6
CONTINUOUS
 62
    3
 10
-1354.8556032617453
 20
-290.27962574786352
 40
4.9999700000000002
 50
180
 51
0
  0
ARC
  8
_0-3_躯体と製品
  6
CONTINUOUS
 62
    4
 10
-1358.3555832617467
 20
-304.79768574786453
 40
1.499989999999999
 50
180
 51
270
  0
LINE
  8
_0-3_躯体と製品
  6
CONTINUOUS
 62
    3
 10
-1221.7756832617451
 20
-574.04768574786453
 11
-1164.2986832617462
 21
-474.49768574786458
  0
LINE
  8
_0-3_躯体と製品
  6
CONTINUOUS
 62
    3
 10
-1229.8556832617451
 20
-574.04768574786453
 11
-1172.3816832617454
 21
-474.49768574786458
  0
LINE
  8
_0-3_躯体と製品
  6
CONTINUOUS
 62
    3
 10
-1213.6856832617455
 20
-574.04768574786453
 11
-1156.2156832617447
 21
-474.49768574786458
  0
LINE
  8
_0-3_躯体と製品
  6
CONTINUOUS
 62
    4
 10
-1314.8558132617459
 20
-378.58980574786438
 11
-1314.8558132617459
 21
-469.29770574786448
  0
LINE
  8
_0-3_躯体と製品
  6
CONTINUOUS
 62
    4
 10
-1318.0557932617453
 20
-469.29770574786448
 11
-1318.0557932617453
 21
-372.48183574786458
  0
LINE
  8
_0-3_躯体と製品
  6
CONTINUOUS
 62
    4
 10
-1309.8558332617458
 20
-469.29770574786448
 11
-1309.8558332617458
 21
-474.49768574786458
  0
LINE
  8
_0-3_躯体と製品
  6
CONTINUOUS
 62
    4
 10
-1318.0557932617453
 20
-378.58980574786438
 11
-1314.8558132617459
 21
-378.58980574786438
  0
LINE
  8
_0-3_躯体と製品
  6
CONTINUOUS
 62
    4
 10
-1318.0557932617453
 20
-375.68181574786445
 11
-1309.8558332617458
 21
-375.68181574786445
  0
LINE
  8
_0-3_躯体と製品
  6
CONTINUOUS
 62
    4
 10
-1309.8558332617458
 20
-372.48183574786458
 11
-1309.8558332617458
 21
-375.68181574786445
  0
ARC
  8
_0-3_躯体と製品
  6
CONTINUOUS
 62
    4
 10
-1321.3557732617446
 20
-304.79768574786453
 40
1.499989999999999
 50
270
 51
0
  0
ARC
  8
_0-3_躯体と製品
  6
CONTINUOUS
 62
    3
 10
-1324.8557632617449
 20
-229.71618574786453
 40
4.9999700000000002
 50
0
 51
180
  0
LINE
  8
_0-3_躯体と製品
  6
CONTINUOUS
 62
    4
 10
-1318.8557932617446
 20
-217.49812574786438
 11
-1360.8555732617456
 21
-217.49812574786438
  0
LINE
  8
_0-3_躯体と製品
  6
CONTINUOUS
 62
    4
 10
-1441.0175332617459
 20
-237.49768574786344
 11
-1364.8556832617451
 21
-237.49768574786344
  0
LINE
  8
_0-3_躯体と製品
  6
CONTINUOUS
 62
    3
 10
-1364.8555532617465
 20
-238.62463574786443
 11
-1359.8555832617453
 21
-238.62463574786443
  0
LINE
  8
_0-3_躯体と製品
  6
CONTINUOUS
 62
    3
 10
-1349.8556332617463
 20
-238.62463574786443
 11
-1329.8557332617461
 21
-238.62463574786443
  0
LINE
  8
_0-3_躯体と製品
  6
CONTINUOUS
 62
    3
 10
-1364.8555532617465
 20
-231.86254574786449
 11
-1359.8555832617453
 21
-231.86254574786449
  0
ARC
  8
_0-3_躯体と製品
  6
CONTINUOUS
 62
    4
 10
-1360.8555732617456
 20
-221.49810574786443
 40
3.9999799999999999
 50
90
 51
180
  0
LINE
  8
_0-3_躯体と製品
  6
CONTINUOUS
 62
    3
 10
-1334.855703261745
 20
-229.38481574786442
 11
-1339.8556832617451
 21
-232.27155574786457
  0
LINE
  8
_0-3_躯体と製品
  6
CONTINUOUS
 62
    3
 10
-1334.855703261745
 20
-223.61134574786456
 11
-1334.855703261745
 21
-229.38481574786442
  0
LINE
  8
_0-3_躯体と製品
  6
CONTINUOUS
 62
    3
 10
-1339.8556832617451
 20
-220.72460574786442
 11
-1334.855703261745
 21
-223.61134574786456
  0
LINE
  8
_0-3_躯体と製品
  6
CONTINUOUS
 62
    3
 10
-1344.8556532617463
 20
-223.61134574786456
 11
-1339.8556832617451
 21
-220.72460574786442
  0
LINE
  8
_0-3_躯体と製品
  6
CONTINUOUS
 62
    3
 10
-1344.8556532617463
 20
-229.38481574786442
 11
-1344.8556532617463
 21
-223.61134574786456
  0
LINE
  8
_0-3_躯体と製品
  6
CONTINUOUS
 62
    3
 10
-1339.8556832617451
 20
-232.27155574786457
 11
-1344.8556532617463
 21
-229.38481574786442
  0
CIRCLE
  8
_0-3_躯体と製品
  6
CONTINUOUS
 62
    3
 10
-1339.8556832617451
 20
-226.49807574786541
 40
2.499989999999999
  0
CIRCLE
  8
_0-3_躯体と製品
  6
CONTINUOUS
 62
    3
 10
-1339.8556832617451
 20
-226.49807574786541
 40
2.999979999999999
  0
CIRCLE
  8
_0-3_躯体と製品
  6
CONTINUOUS
 62
    3
 10
-1339.8556832617451
 20
-226.49807574786541
 40
4.9999700000000002
  0
LINE
  8
_0-3_躯体と製品
  6
CONTINUOUS
 62
    4
 10
-1345.3556532617458
 20
-227.7480757478645
 11
-1344.9546732617464
 21
-227.7480757478645
  0
ARC
  8
_0-3_躯体と製品
  6
CONTINUOUS
 62
    4
 10
-1345.3556532617458
 20
-227.2480757478645
 40
0.5
 50
180
 51
270
  0
LINE
  8
_0-3_躯体と製品
  6
CONTINUOUS
 62
    4
 10
-1345.8556532617454
 20
-225.74808574786448
 11
-1345.8556532617454
 21
-227.2480757478645
  0
ARC
  8
_0-3_躯体と製品
  6
CONTINUOUS
 62
    4
 10
-1345.3556532617458
 20
-225.74808574786448
 40
0.5
 50
90
 51
180
  0
LINE
  8
_0-3_躯体と製品
  6
CONTINUOUS
 62
    4
 10
-1344.9546732617464
 20
-225.24808574786539
 11
-1345.3556532617458
 21
-225.24808574786539
  0
LINE
  8
_0-3_躯体と製品
  6
CONTINUOUS
 62
    4
 10
-1334.3557132617466
 20
-227.7480757478645
 11
-1334.756693261746
 21
-227.7480757478645
  0
ARC
  8
_0-3_躯体と製品
  6
CONTINUOUS
 62
    4
 10
-1334.3557132617466
 20
-227.2480757478645
 40
0.5
 50
270
 51
0
  0
LINE
  8
_0-3_躯体と製品
  6
CONTINUOUS
 62
    4
 10
-1333.8557132617448
 20
-225.74808574786448
 11
-1333.8557132617448
 21
-227.2480757478645
  0
ARC
  8
_0-3_躯体と製品
  6
CONTINUOUS
 62
    4
 10
-1334.3557132617466
 20
-225.74808574786448
 40
0.5
 50
0
 51
90
  0
LINE
  8
_0-3_躯体と製品
  6
CONTINUOUS
 62
    4
 10
-1334.756693261746
 20
-225.24808574786539
 11
-1334.3557132617466
 21
-225.24808574786539
  0
LINE
  8
_0-3_躯体と製品
  6
CONTINUOUS
 62
    3
 10
-1349.8556332617463
 20
-231.86254574786449
 11
-1340.5641132617448
 21
-231.86254574786449
  0
LINE
  8
_0-3_躯体と製品
  6
CONTINUOUS
 62
    3
 10
-1339.1472532617454
 20
-231.86254574786449
 11
-1329.8557332617461
 21
-231.86254574786449
  0
ARC
  8
_0-3_躯体と製品
  6
CONTINUOUS
 62
    3
 10
-1354.8556032617453
 20
-229.71618574786453
 40
4.9999700000000002
 50
0
 51
180
  0
ARC
  8
_0-3_躯体と製品
  6
CONTINUOUS
 62
    3
 10
-1170.5556832617444
 20
-233.49768574786458
 40
1.79999
 50
180
 51
270
  0
ARC
  8
_0-3_躯体と製品
  6
CONTINUOUS
 62
    3
 10
-1169.5556832617453
 20
-233.49768574786458
 40
4
 50
180
 51
270
  0
ARC
  8
_0-3_躯体と製品
  6
CONTINUOUS
 62
    3
 10
-1175.3556832617446
 20
-210.49768574786458
 40
3
 50
0
 51
90
  0
LINE
  8
_0-3_躯体と製品
  6
CONTINUOUS
 62
    3
 10
-1319.8557832617448
 20
-238.62463574786443
 11
-1314.8558132617459
 21
-238.62463574786443
  0
LINE
  8
_0-3_躯体と製品
  6
CONTINUOUS
 62
    3
 10
-1319.8557832617448
 20
-231.86254574786449
 11
-1314.8558132617459
 21
-231.86254574786449
  0
ARC
  8
_0-3_躯体と製品
  6
CONTINUOUS
 62
    4
 10
-1318.8557932617446
 20
-221.49810574786443
 40
3.9999799999999999
 50
0
 51
90
  0
ARC
  8
_0-3_躯体と製品
  6
CONTINUOUS
 62
    3
 10
-1217.6556832617448
 20
-233.49768574786458
 40
4
 50
180
 51
270
  0
ARC
  8
_0-3_躯体と製品
  6
CONTINUOUS
 62
    3
 10
-1210.1556832617448
 20
-233.49768574786458
 40
4
 50
270
 51
0
  0
ARC
  8
_0-3_躯体と製品
  6
CONTINUOUS
 62
    3
 10
-1209.1556832617457
 20
-233.49768574786458
 40
1.79999
 50
270
 51
0
  0
ARC
  8
_0-3_躯体と製品
  6
CONTINUOUS
 62
    3
 10
-1218.6556832617462
 20
-233.49768574786458
 40
1.79999
 50
180
 51
270
  0
LINE
  8
_0-3_躯体と製品
  6
CONTINUOUS
 62
    3
 10
-1218.6556832617462
 20
-235.29768574786453
 11
-1209.1556832617457
 21
-235.29768574786453
  0
LINE
  8
_0-3_躯体と製品
  6
CONTINUOUS
 62
    3
 10
-1221.6156832617467
 20
-233.49768574786458
 11
-1220.4556832617445
 21
-233.49768574786458
  0
LINE
  8
_0-3_躯体と製品
  6
CONTINUOUS
 62
    3
 10
-1173.5556832617463
 20
-210.49768574786458
 11
-1173.5556832617463
 21
-233.49768574786458
  0
LINE
  8
_0-3_躯体と製品
  6
CONTINUOUS
 62
    3
 10
-1206.1556832617462
 20
-210.49768574786458
 11
-1206.1556832617462
 21
-233.49768574786458
  0
LINE
  8
_0-3_躯体と製品
  6
CONTINUOUS
 62
    3
 10
-1172.3556832617451
 20
-210.49768574786458
 11
-1172.3556832617451
 21
-233.49768574786458
  0
LINE
  8
_0-3_躯体と製品
  6
CONTINUOUS
 62
    3
 10
-1207.3556832617451
 20
-210.49768574786458
 11
-1207.3556832617451
 21
-233.49768574786458
  0
ARC
  8
_0-3_躯体と製品
  6
CONTINUOUS
 62
    3
 10
-1204.3556832617455
 20
-210.49768574786458
 40
3
 50
90
 51
180
  0
ARC
  8
_0-3_躯体と製品
  6
CONTINUOUS
 62
    3
 10
-1204.3556832617455
 20
-210.49768574786458
 40
1.79999
 50
90
 51
180
  0
ARC
  8
_0-3_躯体と製品
  6
CONTINUOUS
 62
    3
 10
-1175.3556832617446
 20
-210.49768574786458
 40
1.79999
 50
0
 51
90
  0
LINE
  8
_0-3_躯体と製品
  6
CONTINUOUS
 62
    3
 10
-1204.3556832617455
 20
-208.6976857478644
 11
-1175.3556832617446
 21
-208.6976857478644
  0
ARC
  8
_0-3_躯体と製品
  6
CONTINUOUS
 62
    3
 10
-1161.0556832617463
 20
-233.49768574786458
 40
1.79999
 50
270
 51
0
  0
ARC
  8
_0-3_躯体と製品
  6
CONTINUOUS
 62
    3
 10
-1162.0556832617453
 20
-233.49768574786458
 40
4
 50
270
 51
0
  0
LINE
  8
_0-3_躯体と製品
  6
CONTINUOUS
 62
    3
 10
-1161.0556832617463
 20
-235.29768574786453
 11
-1170.5556832617444
 21
-235.29768574786453
  0
LINE
  8
_0-3_躯体と製品
  6
CONTINUOUS
 62
    3
 10
-1159.2556832617456
 20
-233.49768574786458
 11
-1158.0556832617444
 21
-233.49768574786458
  0
LINE
  8
_0-3_躯体と製品
  6
CONTINUOUS
 62
    4
 10
-418.05579326174598
 20
-375.68181574786445
 11
-409.85583326174606
 21
-375.68181574786445
  0
LINE
  8
_0-3_躯体と製品
  6
CONTINUOUS
 62
    4
 10
-469.85553326174704
 20
-372.48183574786458
 11
-409.85583326174606
 21
-372.48183574786458
  0
LINE
  8
_0-3_躯体と製品
  6
CONTINUOUS
 62
    4
 10
-469.85553326174704
 20
-469.29770574786448
 11
-409.85583326174606
 21
-469.29770574786448
  0
LINE
  8
_0-3_躯体と製品
  6
CONTINUOUS
 62
    4
 10
-469.85553326174704
 20
-472.49769574786546
 11
-409.85583326174606
 21
-472.49769574786546
  0
LINE
  8
_0-3_躯体と製品
  6
CONTINUOUS
 62
    4
 10
-414.85568326174507
 20
-237.49768574786344
 11
-328.65568326174593
 21
-237.49768574786344
  0
LINE
  8
_0-3_躯体と製品
  6
CONTINUOUS
 62
    4
 10
-414.85568326174507
 20
-287.49768574786344
 11
-328.65568326174593
 21
-287.49768574786344
  0
LINE
  8
_0-3_躯体と製品
  6
CONTINUOUS
 62
    3
 10
-429.85573326174608
 20
-229.71618574786453
 11
-429.85573326174608
 21
-290.27962574786352
  0
LINE
  8
_0-3_躯体と製品
  6
CONTINUOUS
 62
    3
 10
-449.85563326174702
 20
-229.71618574786453
 11
-449.85563326174702
 21
-290.27962574786352
  0
LINE
  8
_0-3_躯体と製品
  6
CONTINUOUS
 62
    3
 10
-459.85558326174601
 20
-229.71618574786453
 11
-459.85558326174601
 21
-290.27962574786352
  0
LINE
  8
_0-3_躯体と製品
  6
CONTINUOUS
 62
    3
 10
-419.85578326174505
 20
-229.71618574786453
 11
-419.85578326174505
 21
-290.27962574786352
  0
LINE
  8
_0-3_躯体と製品
  6
CONTINUOUS
 62
    4
 10
-414.85581326174611
 20
-304.79768574786453
 11
-414.85581326174611
 21
-221.49810574786443
  0
LINE
  8
_0-3_躯体と製品
  6
CONTINUOUS
 62
    4
 10
-464.85555326174699
 20
-221.49810574786443
 11
-464.85555326174699
 21
-304.79768574786453
  0
LINE
  8
_0-3_躯体と製品
  6
CONTINUOUS
 62
    3
 10
-721.7736832617461
 20
-574.04768574786453
 11
-664.2986832617471
 21
-474.49768574786458
  0
LINE
  8
_0-3_躯体と製品
  6
CONTINUOUS
 62
    3
 10
-729.85668326174505
 20
-574.04768574786453
 11
-672.38168326174605
 21
-474.49768574786458
  0
LINE
  8
_0-3_躯体と製品
  6
CONTINUOUS
 62
    3
 10
-713.69068326174693
 20
-574.04768574786453
 11
-656.21568326174497
 21
-474.49768574786458
  0
LINE
  8
_0-3_躯体と製品
  6
CONTINUOUS
 62
    4
 10
-464.85555326174699
 20
-378.58980574786438
 11
-464.85555326174699
 21
-469.29770574786448
  0
LINE
  8
_0-3_躯体と製品
  6
CONTINUOUS
 62
    4
 10
-414.85581326174611
 20
-378.58980574786438
 11
-414.85581326174611
 21
-469.29770574786448
  0
LINE
  8
_0-3_躯体と製品
  6
CONTINUOUS
 62
    4
 10
-418.05579326174598
 20
-469.29770574786448
 11
-418.05579326174598
 21
-372.48183574786458
  0
LINE
  8
_0-3_躯体と製品
  6
CONTINUOUS
 62
    4
 10
-461.65557326174508
 20
-469.29770574786448
 11
-461.65557326174508
 21
-372.48183574786458
  0
LINE
  8
_0-3_躯体と製品
  6
PLINE3
 62
    3
 10
-456.65526326174495
 20
-483.90066574786442
 11
-456.65526326174495
 21
-474.55687574786339
  0
ARC
  8
_0-3_躯体と製品
  6
CONTINUOUS
 62
    3
 10
-458.32759326174596
 20
-467.51771574786449
 40
1.9999899999999999
 50
90
 51
180
  0
LINE
  8
_0-3_躯体と製品
  6
CONTINUOUS
 62
    3
 10
-460.32757326174692
 20
-469.29770574786448
 11
-460.32757326174692
 21
-467.51771574786449
  0
LINE
  8
_0-3_躯体と製品
  6
CONTINUOUS
 62
    3
 10
-458.32759326174596
 20
-465.51772574786446
 11
-455.32760326174503
 21
-465.51772574786446
  0
LINE
  8
_0-3_躯体と製品
  6
CONTINUOUS
 62
    3
 10
-453.32761326174591
 20
-467.51771574786449
 11
-453.32761326174591
 21
-469.29770574786448
  0
ARC
  8
_0-3_躯体と製品
  6
CONTINUOUS
 62
    3
 10
-455.32760326174503
 20
-467.51771574786449
 40
1.9999899999999999
 50
0
 51
90
  0
LINE
  8
_0-3_躯体と製品
  6
CONTINUOUS
 62
    4
 10
-469.85553326174704
 20
-469.29770574786448
 11
-469.85553326174704
 21
-474.49768574786458
  0
LINE
  8
_0-3_躯体と製品
  6
CONTINUOUS
 62
    3
 10
-445.85568326174712
 20
-355.48192574786458
 11
-445.85568326174712
 21
-336.32768574786451
  0
LINE
  8
_0-3_躯体と製品
  6
CONTINUOUS
 62
    3
 10
-433.85568326174598
 20
-355.48192574786458
 11
-433.85568326174598
 21
-336.32768574786451
  0
LINE
  8
_0-3_躯体と製品
  6
CONTINUOUS
 62
    3
 10
-425.85575326174603
 20
-368.48185574786453
 11
-453.85561326174502
 21
-368.48185574786453
  0
LINE
  8
_0-3_躯体と製品
  6
CONTINUOUS
 62
    3
 10
-451.8556232617459
 20
-368.48185574786453
 11
-427.85574326174697
 21
-368.48185574786453
  0
LINE
  8
_0-3_躯体と製品
  6
CONTINUOUS
 62
    3
 10
-429.4557332617469
 20
-355.48192574786458
 11
-450.25563326174597
 21
-355.48192574786458
  0
LINE
  8
_0-3_躯体と製品
  6
CONTINUOUS
 62
    4
 10
-464.85555326174699
 20
-378.58980574786438
 11
-461.65557326174508
 21
-378.58980574786438
  0
LINE
  8
_0-3_躯体と製品
  6
CONTINUOUS
 62
    3
 10
-453.85561326174502
 20
-368.48185574786453
 11
-453.85561326174502
 21
-372.48183574786458
  0
LINE
  8
_0-3_躯体と製品
  6
CONTINUOUS
 62
    3
 10
-451.8556232617459
 20
-357.08191574786451
 11
-450.25563326174597
 21
-355.48192574786458
  0
LINE
  8
_0-3_躯体と製品
  6
CONTINUOUS
 62
    3
 10
-451.8556232617459
 20
-357.08191574786451
 11
-451.8556232617459
 21
-368.48185574786453
  0
LINE
  8
_0-3_躯体と製品
  6
CONTINUOUS
 62
    4
 10
-469.85553326174704
 20
-375.68181574786445
 11
-461.65557326174508
 21
-375.68181574786445
  0
LINE
  8
_0-3_躯体と製品
  6
CONTINUOUS
 62
    4
 10
-469.85553326174704
 20
-372.48183574786458
 11
-469.85553326174704
 21
-375.68181574786445
  0
LINE
  8
_0-3_躯体と製品
  6
CONTINUOUS
 62
    4
 10
-418.05579326174598
 20
-378.58980574786438
 11
-414.85581326174611
 21
-378.58980574786438
  0
LINE
  8
_0-3_躯体と製品
  6
CONTINUOUS
 62
    3
 10
-425.85575326174603
 20
-372.48183574786458
 11
-425.85575326174603
 21
-368.48185574786453
  0
LINE
  8
_0-3_躯体と製品
  6
CONTINUOUS
 62
    3
 10
-439.85568326174598
 20
-357.08191574786451
 11
-439.85568326174598
 21
-368.48185574786453
  0
ARC
  8
_0-3_躯体と製品
  6
CONTINUOUS
 62
    3
 10
-445.85565326174606
 20
-367.53186574786355
 40
12.049939999999999
 50
60.137165999993961
 51
90
  0
ARC
  8
_0-3_躯体と製品
  6
CONTINUOUS
 62
    3
 10
-433.855713261745
 20
-367.53186574786355
 40
12.049939999999999
 50
90
 51
119.86283400000599
  0
LINE
  8
_0-3_躯体と製品
  6
CONTINUOUS
 62
    3
 10
-429.4557332617469
 20
-355.48192574786458
 11
-427.85574326174697
 21
-357.08191574786451
  0
LINE
  8
_0-3_躯体と製品
  6
CONTINUOUS
 62
    3
 10
-427.85574326174697
 20
-368.48185574786453
 11
-427.85574326174697
 21
-357.08191574786451
  0
LINE
  8
_0-3_躯体と製品
  6
CONTINUOUS
 62
    3
 10
-450.25563326174597
 20
-336.29751574786451
 11
-429.4557332617469
 21
-336.29751574786451
  0
LINE
  8
_0-3_躯体と製品
  6
CONTINUOUS
 62
    3
 10
-427.85574326174697
 20
-323.29758574786456
 11
-451.8556232617459
 21
-323.29758574786456
  0
LINE
  8
_0-3_躯体と製品
  6
CONTINUOUS
 62
    3
 10
-453.85561326174502
 20
-323.29758574786456
 11
-425.85575326174603
 21
-323.29758574786456
  0
LINE
  8
_0-3_躯体と製品
  6
CONTINUOUS
 62
    3
 10
-425.85575326174603
 20
-319.29760574786451
 11
-453.85561326174502
 21
-319.29760574786451
  0
LINE
  8
_0-3_躯体と製品
  6
CONTINUOUS
 62
    3
 10
-450.25563326174597
 20
-319.29760574786451
 11
-429.4557332617469
 21
-319.29760574786451
  0
LINE
  8
_0-3_躯体と製品
  6
CONTINUOUS
 62
    4
 10
-458.35558326174692
 20
-306.29767574786342
 11
-421.35577326174712
 21
-306.29767574786342
  0
LINE
  8
_0-3_躯体と製品
  6
CONTINUOUS
 62
    4
 10
-464.85555326174699
 20
-304.79768574786453
 11
-414.85581326174611
 21
-304.79768574786453
  0
LINE
  8
_0-3_躯体と製品
  6
CONTINUOUS
 62
    3
 10
-451.8556232617459
 20
-323.29758574786456
 11
-451.8556232617459
 21
-334.69752574786457
  0
LINE
  8
_0-3_躯体と製品
  6
CONTINUOUS
 62
    3
 10
-450.25563326174597
 20
-336.29751574786451
 11
-451.8556232617459
 21
-334.69752574786457
  0
LINE
  8
_0-3_躯体と製品
  6
CONTINUOUS
 62
    3
 10
-453.85561326174502
 20
-319.29760574786451
 11
-453.85561326174502
 21
-323.29758574786456
  0
LINE
  8
_0-3_躯体と製品
  6
CONTINUOUS
 62
    3
 10
-451.8556232617459
 20
-306.29767574786342
 11
-451.8556232617459
 21
-317.69761574786344
  0
LINE
  8
_0-3_躯体と製品
  6
CONTINUOUS
 62
    3
 10
-450.25563326174597
 20
-319.29760574786451
 11
-451.8556232617459
 21
-317.69761574786344
  0
ARC
  8
_0-3_躯体と製品
  6
CONTINUOUS
 62
    3
 10
-454.85560326174596
 20
-290.27962574786352
 40
4.9999700000000002
 50
180
 51
0
  0
ARC
  8
_0-3_躯体と製品
  6
CONTINUOUS
 62
    4
 10
-458.35558326174692
 20
-304.79768574786453
 40
1.499989999999999
 50
180
 51
270
  0
LINE
  8
_0-3_躯体と製品
  6
CONTINUOUS
 62
    3
 10
-427.85574326174697
 20
-334.69752574786457
 11
-427.85574326174697
 21
-323.29758574786456
  0
LINE
  8
_0-3_躯体と製品
  6
CONTINUOUS
 62
    3
 10
-439.85568326174598
 20
-334.69752574786457
 11
-439.85568326174598
 21
-323.29758574786456
  0
LINE
  8
_0-3_躯体と製品
  6
CONTINUOUS
 62
    3
 10
-427.85574326174697
 20
-334.69752574786457
 11
-429.4557332617469
 21
-336.29751574786451
  0
ARC
  8
_0-3_躯体と製品
  6
CONTINUOUS
 62
    3
 10
-445.85565326174606
 20
-324.24758574786438
 40
12.049939999999999
 50
270
 51
299.86283400000599
  0
ARC
  8
_0-3_躯体と製品
  6
CONTINUOUS
 62
    3
 10
-433.855713261745
 20
-324.24758574786438
 40
12.049939999999999
 50
240.1371659999939
 51
270
  0
LINE
  8
_0-3_躯体と製品
  6
CONTINUOUS
 62
    3
 10
-425.85575326174603
 20
-323.29758574786456
 11
-425.85575326174603
 21
-319.29760574786451
  0
LINE
  8
_0-3_躯体と製品
  6
CONTINUOUS
 62
    3
 10
-427.85574326174697
 20
-317.69761574786344
 11
-427.85574326174697
 21
-306.29767574786342
  0
LINE
  8
_0-3_躯体と製品
  6
CONTINUOUS
 62
    3
 10
-427.85574326174697
 20
-317.69761574786344
 11
-429.4557332617469
 21
-319.29760574786451
  0
ARC
  8
_0-3_躯体と製品
  6
CONTINUOUS
 62
    3
 10
-445.85565326174606
 20
-307.2476657478644
 40
12.049939999999999
 50
270
 51
299.86283400000599
  0
ARC
  8
_0-3_躯体と製品
  6
CONTINUOUS
 62
    3
 10
-433.855713261745
 20
-307.2476657478644
 40
12.049939999999999
 50
240.1371659999939
 51
270
  0
LINE
  8
_0-3_躯体と製品
  6
CONTINUOUS
 62
    3
 10
-439.85568326174598
 20
-317.69761574786344
 11
-439.85568326174598
 21
-306.29767574786342
  0
ARC
  8
_0-3_躯体と製品
  6
CONTINUOUS
 62
    4
 10
-421.35577326174712
 20
-304.79768574786453
 40
1.499989999999999
 50
270
 51
0
  0
ARC
  8
_0-3_躯体と製品
  6
CONTINUOUS
 62
    3
 10
-424.8557632617451
 20
-290.27962574786352
 40
4.9999700000000002
 50
180
 51
0
  0
LINE
  8
_0-3_躯体と製品
  6
CONTINUOUS
 62
    3
 10
-861.05568326174625
 20
-235.29768574786453
 11
-870.55568326174443
 21
-235.29768574786453
  0
ARC
  8
_0-3_躯体と製品
  6
CONTINUOUS
 62
    3
 10
-917.6556832617448
 20
-233.49768574786458
 40
4
 50
180
 51
270
  0
ARC
  8
_0-3_躯体と製品
  6
CONTINUOUS
 62
    3
 10
-910.1556832617448
 20
-233.49768574786458
 40
4
 50
270
 51
0
  0
ARC
  8
_0-3_躯体と製品
  6
CONTINUOUS
 62
    3
 10
-909.15568326174571
 20
-233.49768574786458
 40
1.79999
 50
270
 51
0
  0
ARC
  8
_0-3_躯体と製品
  6
CONTINUOUS
 62
    3
 10
-870.55568326174443
 20
-233.49768574786458
 40
1.79999
 50
180
 51
270
  0
ARC
  8
_0-3_躯体と製品
  6
CONTINUOUS
 62
    3
 10
-918.65568326174616
 20
-233.49768574786458
 40
1.79999
 50
180
 51
270
  0
ARC
  8
_0-3_躯体と製品
  6
CONTINUOUS
 62
    3
 10
-869.55568326174534
 20
-233.49768574786458
 40
4
 50
180
 51
270
  0
LINE
  8
_0-3_躯体と製品
  6
CONTINUOUS
 62
    3
 10
-918.65568326174616
 20
-235.29768574786453
 11
-909.15568326174571
 21
-235.29768574786453
  0
ARC
  8
_0-3_躯体と製品
  6
CONTINUOUS
 62
    3
 10
-904.35568326174553
 20
-210.49768574786458
 40
3
 50
90
 51
180
  0
ARC
  8
_0-3_躯体と製品
  6
CONTINUOUS
 62
    3
 10
-904.35568326174553
 20
-210.49768574786458
 40
1.79999
 50
90
 51
180
  0
LINE
  8
_0-3_躯体と製品
  6
CONTINUOUS
 62
    3
 10
-906.15568326174616
 20
-210.49768574786458
 11
-906.15568326174616
 21
-233.49768574786458
  0
LINE
  8
_0-3_躯体と製品
  6
CONTINUOUS
 62
    3
 10
-907.35568326174507
 20
-210.49768574786458
 11
-907.35568326174507
 21
-233.49768574786458
  0
LINE
  8
_0-3_躯体と製品
  6
CONTINUOUS
 62
    3
 10
-921.61968326174565
 20
-233.49768574786458
 11
-920.4556832617468
 21
-233.49768574786458
  0
LINE
  8
_0-3_躯体と製品
  6
CONTINUOUS
 62
    3
 10
-873.55568326174625
 20
-210.49768574786458
 11
-873.55568326174625
 21
-233.49768574786458
  0
LINE
  8
_0-3_躯体と製品
  6
CONTINUOUS
 62
    3
 10
-872.35568326174507
 20
-210.49768574786458
 11
-872.35568326174507
 21
-233.49768574786458
  0
ARC
  8
_0-3_躯体と製品
  6
CONTINUOUS
 62
    3
 10
-875.35568326174462
 20
-210.49768574786458
 40
3
 50
0
 51
90
  0
ARC
  8
_0-3_躯体と製品
  6
CONTINUOUS
 62
    3
 10
-875.35568326174462
 20
-210.49768574786458
 40
1.79999
 50
0
 51
90
  0
LINE
  8
_0-3_躯体と製品
  6
CONTINUOUS
 62
    3
 10
-904.35568326174553
 20
-208.6976857478644
 11
-875.35568326174462
 21
-208.6976857478644
  0
ARC
  8
_0-3_躯体と製品
  6
CONTINUOUS
 62
    3
 10
-861.05568326174625
 20
-233.49768574786458
 40
1.79999
 50
270
 51
0
  0
ARC
  8
_0-3_躯体と製品
  6
CONTINUOUS
 62
    3
 10
-862.05568326174534
 20
-233.49768574786458
 40
4
 50
270
 51
0
  0
LINE
  8
_0-3_躯体と製品
  6
CONTINUOUS
 62
    3
 10
-859.25568326174562
 20
-233.49768574786458
 11
-858.05568326174443
 21
-233.49768574786458
  0
LINE
  8
_0-3_躯体と製品
  6
CONTINUOUS
 62
    3
 10
-561.05568326174694
 20
-235.29768574786453
 11
-570.55568326174512
 21
-235.29768574786453
  0
ARC
  8
_0-3_躯体と製品
  6
CONTINUOUS
 62
    3
 10
-617.65568326174503
 20
-233.49768574786458
 40
4
 50
180
 51
270
  0
ARC
  8
_0-3_躯体と製品
  6
CONTINUOUS
 62
    3
 10
-610.15568326174503
 20
-233.49768574786458
 40
4
 50
270
 51
0
  0
ARC
  8
_0-3_躯体と製品
  6
CONTINUOUS
 62
    3
 10
-609.15568326174593
 20
-233.49768574786458
 40
1.79999
 50
270
 51
0
  0
ARC
  8
_0-3_躯体と製品
  6
CONTINUOUS
 62
    3
 10
-570.55568326174512
 20
-233.49768574786458
 40
1.79999
 50
180
 51
270
  0
ARC
  8
_0-3_躯体と製品
  6
CONTINUOUS
 62
    3
 10
-618.65568326174707
 20
-233.49768574786458
 40
1.79999
 50
180
 51
270
  0
ARC
  8
_0-3_躯体と製品
  6
CONTINUOUS
 62
    3
 10
-569.55568326174603
 20
-233.49768574786458
 40
4
 50
180
 51
270
  0
LINE
  8
_0-3_躯体と製品
  6
CONTINUOUS
 62
    3
 10
-618.65568326174707
 20
-235.29768574786453
 11
-609.15568326174593
 21
-235.29768574786453
  0
LINE
  8
_0-3_躯体と製品
  6
CONTINUOUS
 62
    3
 10
-604.35568326174598
 20
-208.6976857478644
 11
-575.35568326174507
 21
-208.6976857478644
  0
LINE
  8
_0-3_躯体と製品
  6
CONTINUOUS
 62
    3
 10
-606.15568326174707
 20
-210.49768574786458
 11
-606.15568326174707
 21
-233.49768574786458
  0
LINE
  8
_0-3_躯体と製品
  6
CONTINUOUS
 62
    3
 10
-607.35568326174598
 20
-210.49768574786458
 11
-607.35568326174598
 21
-233.49768574786458
  0
LINE
  8
_0-3_躯体と製品
  6
CONTINUOUS
 62
    3
 10
-621.6196832617461
 20
-233.49768574786458
 11
-620.45568326174703
 21
-233.49768574786458
  0
ARC
  8
_0-3_躯体と製品
  6
CONTINUOUS
 62
    3
 10
-604.35568326174598
 20
-210.49768574786458
 40
3
 50
90
 51
180
  0
ARC
  8
_0-3_躯体と製品
  6
CONTINUOUS
 62
    3
 10
-604.35568326174598
 20
-210.49768574786458
 40
1.79999
 50
90
 51
180
  0
LINE
  8
_0-3_躯体と製品
  6
CONTINUOUS
 62
    3
 10
-573.55568326174694
 20
-210.49768574786458
 11
-573.55568326174694
 21
-233.49768574786458
  0
LINE
  8
_0-3_躯体と製品
  6
CONTINUOUS
 62
    3
 10
-572.35568326174507
 20
-210.49768574786458
 11
-572.35568326174507
 21
-233.49768574786458
  0
ARC
  8
_0-3_躯体と製品
  6
CONTINUOUS
 62
    3
 10
-575.35568326174507
 20
-210.49768574786458
 40
3
 50
0
 51
90
  0
ARC
  8
_0-3_躯体と製品
  6
CONTINUOUS
 62
    3
 10
-575.35568326174507
 20
-210.49768574786458
 40
1.79999
 50
0
 51
90
  0
ARC
  8
_0-3_躯体と製品
  6
CONTINUOUS
 62
    3
 10
-561.05568326174694
 20
-233.49768574786458
 40
1.79999
 50
270
 51
0
  0
ARC
  8
_0-3_躯体と製品
  6
CONTINUOUS
 62
    3
 10
-562.05568326174603
 20
-233.49768574786458
 40
4
 50
270
 51
0
  0
LINE
  8
_0-3_躯体と製品
  6
CONTINUOUS
 62
    3
 10
-559.25568326174607
 20
-233.49768574786458
 11
-558.05568326174512
 21
-233.49768574786458
  0
LINE
  8
_0-3_躯体と製品
  6
CONTINUOUS
 62
    3
 10
-449.85563326174702
 20
-238.62463574786443
 11
-429.85573326174608
 21
-238.62463574786443
  0
LINE
  8
_0-3_躯体と製品
  6
CONTINUOUS
 62
    3
 10
-464.85555326174699
 20
-238.62463574786443
 11
-459.85558326174601
 21
-238.62463574786443
  0
LINE
  8
_0-3_躯体と製品
  6
CONTINUOUS
 62
    3
 10
-419.85578326174505
 20
-238.62463574786443
 11
-414.85581326174611
 21
-238.62463574786443
  0
LINE
  8
_0-3_躯体と製品
  6
CONTINUOUS
 62
    3
 10
-449.85563326174702
 20
-231.86254574786449
 11
-440.56411326174498
 21
-231.86254574786449
  0
LINE
  8
_0-3_躯体と製品
  6
CONTINUOUS
 62
    4
 10
-418.85579326174502
 20
-217.49812574786438
 11
-460.85557326174603
 21
-217.49812574786438
  0
LINE
  8
_0-3_躯体と製品
  6
CONTINUOUS
 62
    3
 10
-464.85555326174699
 20
-231.86254574786449
 11
-459.85558326174601
 21
-231.86254574786449
  0
ARC
  8
_0-3_躯体と製品
  6
CONTINUOUS
 62
    3
 10
-454.85560326174596
 20
-229.71618574786453
 40
4.9999700000000002
 50
0
 51
180
  0
ARC
  8
_0-3_躯体と製品
  6
CONTINUOUS
 62
    4
 10
-460.85557326174603
 20
-221.49810574786443
 40
3.9999799999999999
 50
90
 51
180
  0
LINE
  8
_0-3_躯体と製品
  6
CONTINUOUS
 62
    3
 10
-434.85570326174593
 20
-229.38481574786442
 11
-439.85568326174598
 21
-232.27155574786457
  0
LINE
  8
_0-3_躯体と製品
  6
CONTINUOUS
 62
    3
 10
-434.85570326174593
 20
-223.61134574786456
 11
-434.85570326174593
 21
-229.38481574786442
  0
LINE
  8
_0-3_躯体と製品
  6
CONTINUOUS
 62
    3
 10
-439.85568326174598
 20
-220.72460574786442
 11
-434.85570326174593
 21
-223.61134574786456
  0
LINE
  8
_0-3_躯体と製品
  6
CONTINUOUS
 62
    3
 10
-444.85565326174697
 20
-223.61134574786456
 11
-439.85568326174598
 21
-220.72460574786442
  0
LINE
  8
_0-3_躯体と製品
  6
CONTINUOUS
 62
    3
 10
-444.85565326174697
 20
-229.38481574786442
 11
-444.85565326174697
 21
-223.61134574786456
  0
LINE
  8
_0-3_躯体と製品
  6
CONTINUOUS
 62
    3
 10
-439.85568326174598
 20
-232.27155574786457
 11
-444.85565326174697
 21
-229.38481574786442
  0
CIRCLE
  8
_0-3_躯体と製品
  6
CONTINUOUS
 62
    3
 10
-439.85568326174598
 20
-226.49807574786541
 40
2.499989999999999
  0
CIRCLE
  8
_0-3_躯体と製品
  6
CONTINUOUS
 62
    3
 10
-439.85568326174598
 20
-226.49807574786541
 40
2.999979999999999
  0
CIRCLE
  8
_0-3_躯体と製品
  6
CONTINUOUS
 62
    3
 10
-439.85568326174598
 20
-226.49807574786541
 40
4.9999700000000002
  0
LINE
  8
_0-3_躯体と製品
  6
CONTINUOUS
 62
    4
 10
-445.35565326174606
 20
-227.7480757478645
 11
-444.95467326174708
 21
-227.7480757478645
  0
ARC
  8
_0-3_躯体と製品
  6
CONTINUOUS
 62
    4
 10
-445.35565326174606
 20
-227.2480757478645
 40
0.5
 50
180
 51
270
  0
LINE
  8
_0-3_躯体と製品
  6
CONTINUOUS
 62
    4
 10
-445.85565326174606
 20
-225.74808574786448
 11
-445.85565326174606
 21
-227.2480757478645
  0
ARC
  8
_0-3_躯体と製品
  6
CONTINUOUS
 62
    4
 10
-445.35565326174606
 20
-225.74808574786448
 40
0.5
 50
90
 51
180
  0
LINE
  8
_0-3_躯体と製品
  6
CONTINUOUS
 62
    4
 10
-444.95467326174708
 20
-225.24808574786539
 11
-445.35565326174606
 21
-225.24808574786539
  0
LINE
  8
_0-3_躯体と製品
  6
CONTINUOUS
 62
    4
 10
-434.35571326174704
 20
-227.7480757478645
 11
-434.75669326174602
 21
-227.7480757478645
  0
ARC
  8
_0-3_躯体と製品
  6
CONTINUOUS
 62
    4
 10
-434.35571326174704
 20
-227.2480757478645
 40
0.5
 50
270
 51
0
  0
LINE
  8
_0-3_躯体と製品
  6
CONTINUOUS
 62
    4
 10
-433.855713261745
 20
-225.74808574786448
 11
-433.855713261745
 21
-227.2480757478645
  0
ARC
  8
_0-3_躯体と製品
  6
CONTINUOUS
 62
    4
 10
-434.35571326174704
 20
-225.74808574786448
 40
0.5
 50
0
 51
90
  0
LINE
  8
_0-3_躯体と製品
  6
CONTINUOUS
 62
    4
 10
-434.75669326174602
 20
-225.24808574786539
 11
-434.35571326174704
 21
-225.24808574786539
  0
ARC
  8
_0-3_躯体と製品
  6
CONTINUOUS
 62
    3
 10
-424.8557632617451
 20
-229.71618574786453
 40
4.9999700000000002
 50
0
 51
180
  0
LINE
  8
_0-3_躯体と製品
  6
CONTINUOUS
 62
    3
 10
-419.85578326174505
 20
-231.86254574786449
 11
-414.85581326174611
 21
-231.86254574786449
  0
LINE
  8
_0-3_躯体と製品
  6
CONTINUOUS
 62
    3
 10
-439.14725326174607
 20
-231.86254574786449
 11
-429.85573326174608
 21
-231.86254574786449
  0
ARC
  8
_0-3_躯体と製品
  6
CONTINUOUS
 62
    4
 10
-418.85579326174502
 20
-221.49810574786443
 40
3.9999799999999999
 50
0
 51
90
  0
LINE
  8
_0-3_躯体と製品
  6
CONTINUOUS
 62
    7
 10
-316.15568326174707
 20
-174.49768574786458
 11
-316.15568326174707
 21
-474.49768574786458
  0
LINE
  8
_0-3_躯体と製品
  6
CONTINUOUS
 62
    4
 10
-328.65568326174593
 20
-237.49768574786344
 11
-328.65568326174593
 21
-287.49768574786344
  0
LINE
  8
_0-3_躯体と製品
  6
CONTINUOUS
 62
    4
 10
-409.85583326174606
 20
-469.29770574786448
 11
-409.85583326174606
 21
-474.49768574786458
  0
LINE
  8
_0-3_躯体と製品
  6
CONTINUOUS
 62
    4
 10
-409.85583326174606
 20
-372.48183574786458
 11
-409.85583326174606
 21
-375.68181574786445
  0
CIRCLE
  8
_0-3_躯体と製品
  6
PLINE3
 62
    3
 10
-116.15568326174707
 20
-144.49768574786458
 40
30
  0
LINE
  8
_0-3_躯体と製品
  6
CONTINUOUS
 62
    3
 10
-159.27338326174709
 20
-274.04668574786342
 11
-101.79868326174596
 21
-174.49768574786458
  0
LINE
  8
_0-3_躯体と製品
  6
CONTINUOUS
 62
    3
 10
-151.19038326174496
 20
-274.04668574786342
 11
-93.715683261744971
 21
-174.49768574786458
  0
LINE
  8
_0-3_躯体と製品
  6
PLINE3
 62
    3
 10
-50.005683261746071
 20
-144.49768574786458
 11
-163.30123326174703
 21
-144.49768574786458
  0
LINE
  8
_0-3_躯体と製品
  6
CONTINUOUS
 62
    7
 10
188.73286673825396
 20
-174.49768574786458
 11
-316.15568326174707
 21
-174.49768574786458
  0
LINE
  8
_0-3_躯体と製品
  6
PLINE3
 62
    3
 10
-286.15568326174707
 20
-144.49768574786458
 11
-253.15568326174707
 21
-144.49768574786458
  0
LINE
  8
_0-3_躯体と製品
  6
CONTINUOUS
 62
    7
 10
-316.15568326174707
 20
-192.49768574786344
 11
-253.65568326174707
 21
-192.49768574786344
  0
LINE
  8
_0-3_躯体と製品
  6
CONTINUOUS
 62
    3
 10
-316.15568326174707
 20
-174.49768574786458
 11
-334.15568326174593
 21
-192.49768574786344
  0
LINE
  8
_0-3_躯体と製品
  6
CONTINUOUS
 62
    3
 10
-334.15568326174593
 20
-174.49768574786458
 11
-316.15568326174707
 21
-192.49768574786344
  0
LINE
  8
_0-3_躯体と製品
  6
CONTINUOUS
 62
    4
 10
-334.15568326174593
 20
-174.49768574786458
 11
-334.15568326174593
 21
-192.49768574786344
  0
LINE
  8
_0-3_躯体と製品
  6
CONTINUOUS
 62
    3
 10
-333.05568326174512
 20
-235.29768574786453
 11
-342.55568326174512
 21
-235.29768574786453
  0
ARC
  8
_0-3_躯体と製品
  6
CONTINUOUS
 62
    3
 10
-389.65568326174593
 20
-233.49768574786458
 40
4
 50
180
 51
270
  0
ARC
  8
_0-3_躯体と製品
  6
CONTINUOUS
 62
    3
 10
-382.15568326174593
 20
-233.49768574786458
 40
4
 50
270
 51
0
  0
ARC
  8
_0-3_躯体と製品
  6
CONTINUOUS
 62
    3
 10
-381.15568326174593
 20
-233.49768574786458
 40
1.79999
 50
270
 51
0
  0
ARC
  8
_0-3_躯体と製品
  6
CONTINUOUS
 62
    3
 10
-342.55568326174512
 20
-233.49768574786458
 40
1.7999999999999989
 50
180
 51
270
  0
ARC
  8
_0-3_躯体と製品
  6
CONTINUOUS
 62
    3
 10
-390.65568326174707
 20
-233.49768574786458
 40
1.7999999999999989
 50
180
 51
270
  0
ARC
  8
_0-3_躯体と製品
  6
CONTINUOUS
 62
    3
 10
-341.55568326174603
 20
-233.49768574786458
 40
4
 50
180
 51
270
  0
LINE
  8
_0-3_躯体と製品
  6
CONTINUOUS
 62
    3
 10
-390.65568326174707
 20
-235.29768574786453
 11
-381.15568326174593
 21
-235.29768574786453
  0
LINE
  8
_0-3_躯体と製品
  6
CONTINUOUS
 62
    3
 10
-376.35568326174598
 20
-208.6976857478644
 11
-347.35568326174507
 21
-208.6976857478644
  0
LINE
  8
_0-3_躯体と製品
  6
CONTINUOUS
 62
    3
 10
-378.15568326174707
 20
-210.49768574786458
 11
-378.15568326174707
 21
-233.49768574786458
  0
LINE
  8
_0-3_躯体と製品
  6
CONTINUOUS
 62
    3
 10
-379.35568326174598
 20
-210.49768574786458
 11
-379.35568326174598
 21
-233.49768574786458
  0
LINE
  8
_0-3_躯体と製品
  6
CONTINUOUS
 62
    3
 10
-393.6196832617461
 20
-233.49768574786458
 11
-392.45568326174498
 21
-233.49768574786458
  0
ARC
  8
_0-3_躯体と製品
  6
CONTINUOUS
 62
    3
 10
-376.35568326174598
 20
-210.49768574786458
 40
3
 50
90
 51
180
  0
ARC
  8
_0-3_躯体と製品
  6
CONTINUOUS
 62
    3
 10
-376.35568326174598
 20
-210.49768574786458
 40
1.79999
 50
90
 51
180
  0
LINE
  8
_0-3_躯体と製品
  6
CONTINUOUS
 62
    3
 10
-345.55568326174512
 20
-210.49768574786458
 11
-345.55568326174512
 21
-233.49768574786458
  0
LINE
  8
_0-3_躯体と製品
  6
CONTINUOUS
 62
    3
 10
-344.35568326174598
 20
-210.49768574786458
 11
-344.35568326174598
 21
-233.49768574786458
  0
ARC
  8
_0-3_躯体と製品
  6
CONTINUOUS
 62
    3
 10
-347.35568326174507
 20
-210.49768574786458
 40
3
 50
0
 51
90
  0
ARC
  8
_0-3_躯体と製品
  6
CONTINUOUS
 62
    3
 10
-347.35568326174507
 20
-210.49768574786458
 40
1.7999999999999989
 50
0
 51
90
  0
ARC
  8
_0-3_躯体と製品
  6
CONTINUOUS
 62
    3
 10
-333.05568326174512
 20
-233.49768574786458
 40
1.79999
 50
270
 51
0
  0
ARC
  8
_0-3_躯体と製品
  6
CONTINUOUS
 62
    3
 10
-334.05568326174603
 20
-233.49768574786458
 40
4
 50
270
 51
0
  0
LINE
  8
_0-3_躯体と製品
  6
CONTINUOUS
 62
    3
 10
-331.25568326174607
 20
-233.49768574786458
 11
-330.05568326174512
 21
-233.49768574786458
  0
LINE
  8
_0-3_躯体と製品
  6
CONTINUOUS
 62
    3
 10
-321.15568326174707
 20
-192.49768574786344
 11
-321.15568326174707
 21
-207.49768574786344
  0
LINE
  8
_0-3_躯体と製品
  6
PLINE3
 62
    3
 10
-316.15568326174707
 20
-154.49768574786458
 11
-286.15568326174707
 21
-154.49768574786458
  0
LINE
  8
_0-3_躯体と製品
  6
CONTINUOUS
 62
    3
 10
-167.35618326174699
 20
-274.04668574786342
 11
-109.8813832617459
 21
-174.49768574786458
  0
ARC
  8
_0-3_躯体と製品
  6
CONTINUOUS
 62
    3
 10
-182.34098326174603
 20
-115.49768574786458
 40
5
 50
25.000100000004931
 51
90
  0
LINE
  8
_0-3_躯体と製品
  6
CONTINUOUS
 62
    3
 10
-253.15568326174707
 20
-170.49768574786458
 11
-147.99188326174703
 21
-170.49768574786458
  0
LINE
  8
_0-3_躯体と製品
  6
CONTINUOUS
 62
    3
 10
-253.15568326174707
 20
-115.49768574786458
 11
-253.15568326174707
 21
-174.49768574786458
  0
LINE
  8
_0-3_躯体と製品
  6
CONTINUOUS
 62
    3
 10
-229.8841832617461
 20
-136.99768574786458
 11
-223.02558326174608
 21
-125.11868574786445
  0
CIRCLE
  8
_0-3_躯体と製品
  6
CONTINUOUS
 62
    3
 10
-216.15568326174593
 20
-136.99768574786458
 40
11.8794
  0
LINE
  8
_0-3_躯体と製品
  6
CONTINUOUS
 62
    3
 10
-202.42728326174711
 20
-136.99768574786458
 11
-209.28586326174695
 21
-125.11868574786445
  0
LINE
  8
_0-3_躯体と製品
  6
CONTINUOUS
 62
    3
 10
-223.02558326174608
 20
-148.87668574786449
 11
-209.28578326174693
 21
-148.87668574786449
  0
LINE
  8
_0-3_躯体と製品
  6
CONTINUOUS
 62
    3
 10
-223.02578326174489
 20
-148.87668574786449
 11
-229.88438326174605
 21
-136.99768574786458
  0
LINE
  8
_0-3_躯体と製品
  6
CONTINUOUS
 62
    3
 10
-209.28569326174602
 20
-148.87768574786446
 11
-202.42711326174594
 21
-136.99768574786458
  0
LINE
  8
_0-3_躯体と製品
  6
CONTINUOUS
 62
    3
 10
-209.28574326174498
 20
-125.11868574786445
 11
-223.02558326174608
 21
-125.11868574786445
  0
LINE
  8
_0-3_躯体と製品
  6
CONTINUOUS
 62
    3
 10
-248.15568326174707
 20
-110.49768574786458
 11
-182.34108326174601
 21
-110.49768574786458
  0
ARC
  8
_0-3_躯体と製品
  6
CONTINUOUS
 62
    3
 10
-248.15568326174707
 20
-115.49768574786458
 40
5
 50
90
 51
180
  0
CIRCLE
  8
_0-3_躯体と製品
  6
CONTINUOUS
 62
    3
 10
-241.15568326174707
 20
-120.49768574786458
 40
4
  0
LINE
  8
_0-3_躯体と製品
  6
CONTINUOUS
 62
    3
 10
-241.15568326174707
 20
-117.63468574786543
 11
-241.15568326174707
 21
-123.54468574786438
  0
LINE
  8
_0-3_躯体と製品
  6
CONTINUOUS
 62
    3
 10
-244.34648326174602
 20
-120.49768574786458
 11
-237.93318326174699
 21
-120.49768574786458
  0
CIRCLE
  8
_0-3_躯体と製品
  6
CONTINUOUS
 62
    3
 10
-191.15568326174707
 20
-120.49768574786458
 40
4
  0
LINE
  8
_0-3_躯体と製品
  6
CONTINUOUS
 62
    3
 10
-194.34648326174693
 20
-120.49768574786458
 11
-187.93318326174699
 21
-120.49768574786458
  0
LINE
  8
_0-3_躯体と製品
  6
CONTINUOUS
 62
    3
 10
-191.15568326174707
 20
-117.63468574786543
 11
-191.15568326174707
 21
-123.54468574786438
  0
LINE
  8
_0-3_躯体と製品
  6
CONTINUOUS
 62
    3
 10
-177.80958326174505
 20
-113.38468574786452
 11
-152.52338326174504
 21
-167.61068574786441
  0
LINE
  8
_0-3_躯体と製品
  6
CONTINUOUS
 62
    3
 10
-147.99188326174703
 20
-170.49768574786458
 11
-113.15568326174707
 21
-170.49768574786458
  0
ARC
  8
_0-3_躯体と製品
  6
CONTINUOUS
 62
    3
 10
-147.99188326174703
 20
-165.49768574786458
 40
5
 50
204.99999999999932
 51
270
  0
LINE
  8
_0-3_躯体と製品
  6
CONTINUOUS
 62
    3
 10
-147.15568326174593
 20
-174.49768574786458
 11
-147.15568326174593
 21
-170.49768574786458
  0
ARC
  8
_0-3_躯体と製品
  6
CONTINUOUS
 62
    3
 10
-122.65488326174705
 20
-163.62668574786449
 40
3.0038100000000001
 50
33.692500000002077
 51
90
  0
ARC
  8
_0-3_躯体と製品
  6
CONTINUOUS
 62
    3
 10
-122.65488326174705
 20
-163.62668574786449
 40
3.0038100000000001
 50
269.56700000000262
 51
270
  0
ARC
  8
_0-3_躯体と製品
  6
CONTINUOUS
 62
    3
 10
-137.65638326174599
 20
-163.62668574786449
 40
3.0038
 50
33.640799999994748
 51
90
  0
ARC
  8
_0-3_躯体と製品
  6
CONTINUOUS
 62
    3
 10
-137.65638326174599
 20
-163.62668574786449
 40
3.0037799999999999
 50
267.54999999999359
 51
270
  0
ARC
  8
_0-3_躯体と製品
  6
CONTINUOUS
 62
    3
 10
-130.15568326174503
 20
-170.62268574786344
 40
10
 50
60.000099999997055
 51
120.00000000000053
  0
ARC
  8
_0-3_躯体と製品
  6
CONTINUOUS
 62
    3
 10
-130.15568326174503
 20
-163.74768574786344
 40
5.625020000000001
 50
88.412899999995759
 51
90
  0
ARC
  8
_0-3_躯体と製品
  6
CONTINUOUS
 62
    3
 10
-137.65638326174599
 20
-163.62668574786449
 40
3.0037799999999999
 50
90
 51
146.30799999999951
  0
ARC
  8
_0-3_躯体と製品
  6
CONTINUOUS
 62
    3
 10
-122.65488326174705
 20
-163.62668574786449
 40
3.0037799999999999
 50
90
 51
146.35899999999859
  0
ARC
  8
_0-3_躯体と製品
  6
CONTINUOUS
 62
    3
 10
-130.15568326174503
 20
-154.95068574786455
 40
3.2031199999999989
 50
12.680400000001001
 51
167.31999999999761
  0
LINE
  8
_0-3_躯体と製品
  6
CONTINUOUS
 62
    3
 10
-113.15568326174707
 20
-174.49768574786458
 11
-113.15568326174707
 21
-170.49768574786458
  0
LINE
  8
_0-3_躯体と製品
  6
CONTINUOUS
 62
    3
 10
-140.65568326174707
 20
-170.49768574786458
 11
-140.65568326174707
 21
-174.49768574786458
  0
LINE
  8
_0-3_躯体と製品
  6
CONTINUOUS
 62
    3
 10
-119.65568326174593
 20
-170.49768574786458
 11
-119.65568326174593
 21
-174.49768574786458
  0
LINE
  8
_0-3_躯体と製品
  6
CONTINUOUS
 62
    3
 10
-125.15568326174503
 20
-161.9626857478645
 11
-125.15568326174503
 21
-168.62268574786458
  0
LINE
  8
_0-3_躯体と製品
  6
CONTINUOUS
 62
    3
 10
-135.15568326174503
 20
-161.9626857478645
 11
-135.15568326174503
 21
-168.62268574786458
  0
LINE
  8
_0-3_躯体と製品
  6
CONTINUOUS
 62
    3
 10
-134.15568326174593
 20
-154.24768574786458
 11
-126.15568326174707
 21
-154.24768574786458
  0
LINE
  8
_0-3_躯体と製品
  6
CONTINUOUS
 62
    3
 10
-126.15588326174611
 20
-154.24768574786458
 11
-125.15588326174498
 21
-155.24768574786458
  0
LINE
  8
_0-3_躯体と製品
  6
CONTINUOUS
 62
    3
 10
-134.15558326174596
 20
-154.24768574786458
 11
-135.15558326174596
 21
-155.24768574786458
  0
LINE
  8
_0-3_躯体と製品
  6
CONTINUOUS
 62
    3
 10
-118.90568326174503
 20
-168.62268574786458
 11
-118.90568326174503
 21
-170.49768574786458
  0
LINE
  8
_0-3_躯体と製品
  6
CONTINUOUS
 62
    3
 10
-141.40568326174503
 20
-168.62268574786458
 11
-141.40568326174503
 21
-170.49768574786458
  0
LINE
  8
_0-3_躯体と製品
  6
CONTINUOUS
 62
    3
 10
-130.15568326174503
 20
-168.62268574786458
 11
-118.90568326174503
 21
-168.62268574786458
  0
LINE
  8
_0-3_躯体と製品
  6
CONTINUOUS
 62
    3
 10
-141.40568326174503
 20
-168.62268574786458
 11
-130.15568326174503
 21
-168.62268574786458
  0
LINE
  8
_0-3_躯体と製品
  6
CONTINUOUS
 62
    3
 10
-140.15568326174503
 20
-168.62268574786458
 11
-120.15568326174503
 21
-168.62268574786458
  0
LINE
  8
_0-3_躯体と製品
  6
CONTINUOUS
 62
    3
 10
-140.15568326174503
 20
-161.95968574786457
 11
-140.15568326174503
 21
-168.62268574786458
  0
LINE
  8
_0-3_躯体と製品
  6
CONTINUOUS
 62
    3
 10
-140.15568326174503
 20
-168.62268574786458
 11
-125.15568326174503
 21
-168.62268574786458
  0
LINE
  8
_0-3_躯体と製品
  6
CONTINUOUS
 62
    3
 10
-125.15568326174503
 20
-161.9626857478645
 11
-125.15568326174503
 21
-168.62268574786458
  0
LINE
  8
_0-3_躯体と製品
  6
CONTINUOUS
 62
    3
 10
-135.15568326174503
 20
-161.9626857478645
 11
-135.15568326174503
 21
-168.62268574786458
  0
LINE
  8
_0-3_躯体と製品
  6
CONTINUOUS
 62
    3
 10
-140.15568326174503
 20
-164.76268574786354
 11
-140.15568326174503
 21
-168.62268574786458
  0
LINE
  8
_0-3_躯体と製品
  6
CONTINUOUS
 62
    3
 10
-120.15568326174503
 20
-161.95968574786457
 11
-120.15568326174503
 21
-168.62268574786458
  0
LINE
  8
_0-3_躯体と製品
  6
CONTINUOUS
 62
    3
 10
-140.15568326174503
 20
-168.62268574786458
 11
-125.15568326174503
 21
-168.62268574786458
  0
LINE
  8
_0-3_躯体と製品
  6
CONTINUOUS
 62
    3
 10
-120.15568326174503
 20
-161.95968574786457
 11
-120.15568326174503
 21
-167.12268574786458
  0
LINE
  8
_0-3_躯体と製品
  6
CONTINUOUS
 62
    3
 10
-137.65568326174503
 20
-160.62268574786344
 11
-135.15568326174503
 21
-160.62268574786344
  0
LINE
  8
_0-3_躯体と製品
  6
CONTINUOUS
 62
    3
 10
-125.15568326174503
 20
-160.62268574786344
 11
-122.65568326174503
 21
-160.62268574786344
  0
LINE
  8
_0-3_躯体と製品
  6
CONTINUOUS
 62
    3
 10
-125.15568326174503
 20
-160.62268574786344
 11
-135.15568326174503
 21
-160.62268574786344
  0
LINE
  8
_0-3_躯体と製品
  6
CONTINUOUS
 62
    3
 10
-120.15568326174503
 20
-163.96468574786354
 11
-120.15568326174503
 21
-167.12268574786458
  0
LINE
  8
_0-3_躯体と製品
  6
CONTINUOUS
 62
    3
 10
-125.15568326174503
 20
-161.9626857478645
 11
-125.15568326174503
 21
-167.12268574786458
  0
LINE
  8
_0-3_躯体と製品
  6
CONTINUOUS
 62
    3
 10
-135.15568326174503
 20
-161.9626857478645
 11
-135.15568326174503
 21
-167.12268574786458
  0
LINE
  8
_0-3_躯体と製品
  6
CONTINUOUS
 62
    3
 10
-140.15568326174503
 20
-161.95968574786457
 11
-140.15568326174503
 21
-167.12268574786458
  0
LINE
  8
_0-3_躯体と製品
  6
CONTINUOUS
 62
    3
 10
-125.15568326174503
 20
-155.24768574786458
 11
-125.15568326174503
 21
-160.62268574786344
  0
LINE
  8
_0-3_躯体と製品
  6
CONTINUOUS
 62
    3
 10
-135.15568326174503
 20
-155.24768574786458
 11
-135.15568326174503
 21
-160.62268574786344
  0
LINE
  8
_0-3_躯体と製品
  6
PLINE3
 62
    3
 10
188.73286673825396
 20
-144.49768574786458
 11
-7.3056832617460259
 21
-144.49768574786458
  0
LINE
  8
_0-3_躯体と製品
  6
CONTINUOUS
 62
    3
 10
-50.005683261746071
 20
-168.69968574786458
 11
-7.3056832617460259
 21
-168.69968574786458
  0
LINE
  8
_0-3_躯体と製品
  6
CONTINUOUS
 62
    3
 10
-78.655683261745935
 20
-171.69968574786344
 11
21.344316738252928
 21
-171.69968574786344
  0
LINE
  8
_0-3_躯体と製品
  6
CONTINUOUS
 62
    3
 10
-78.655683261745935
 20
-171.69968574786344
 11
-78.655683261745935
 21
-174.4996857478634
  0
ARC
  8
_0-3_躯体と製品
  6
CONTINUOUS
 62
    3
 10
-50.005683261746071
 20
-171.69968574786344
 40
3
 50
90
 51
180
  0
ARC
  8
_0-3_躯体と製品
  6
CONTINUOUS
 62
    3
 10
-7.3056832617460259
 20
-171.69968574786344
 40
3
 50
0
 51
90
  0
LINE
  8
_0-3_躯体と製品
  6
CONTINUOUS
 62
    3
 10
21.344316738252928
 20
-171.69968574786344
 11
21.344316738252928
 21
-174.4996857478634
  0
ARC
  8
_0-3_躯体と製品
  6
CONTINUOUS
 62
    3
 10
78.902316738254967
 20
-165.49768574786458
 40
5.0000099999999996
 50
337.05199999999678
 51
339.86399999999787
  0
TEXT
  8
_0-4_文字-記号
 62
    7
 10
-644.90396992841306
 20
236.72062425213448
 40
50
 41
0.8
 50
0
  1
支持脚　框用
  0
LINE
  8
_0-4_文字-記号
  6
CONTINUOUS
 62
    3
 10
-361.01753326174594
 20
231.7205842521355
 11
-570.27679326174507
 21
231.7205842521355
  0
LINE
  8
_0-3_躯体と製品
  6
CONTINUOUS
 62
    3
 10
-20.655683261747072
 20
562.70231425213547
 11
-20.655683261747072
 21
555.90231425213574
  0
LINE
  8
_0-3_躯体と製品
  6
CONTINUOUS
 62
    3
 10
-36.655683261745935
 20
562.70231425213547
 11
-36.655683261745935
 21
555.90231425213574
  0
LINE
  8
_0-3_躯体と製品
  6
CONTINUOUS
 62
    3
 10
-14.805683261746935
 20
562.70231425213547
 11
-14.805683261746935
 21
555.90231425213574
  0
LINE
  8
_0-3_躯体と製品
  6
CONTINUOUS
 62
    3
 10
-42.505683261746981
 20
562.70231425213547
 11
-42.505683261746981
 21
555.90231425213574
  0
LINE
  8
_0-3_躯体と製品
  6
CONTINUOUS
 62
    3
 10
-208.15558326174505
 20
551.30231425213537
 11
-208.15558326174505
 21
562.70231425213547
  0
LINE
  8
_0-3_躯体と製品
  6
CONTINUOUS
 62
    3
 10
-224.15558326174596
 20
551.30231425213537
 11
-224.15558326174596
 21
562.70231425213547
  0
LINE
  8
_0-3_躯体と製品
  6
CONTINUOUS
 62
    3
 10
-202.30558326174696
 20
551.30231425213537
 11
-202.30558326174696
 21
562.70231425213547
  0
LINE
  8
_0-3_躯体と製品
  6
CONTINUOUS
 62
    3
 10
-230.00558326174701
 20
562.70231425213547
 11
-230.00558326174701
 21
551.30231425213537
  0
LINE
  8
_0-3_躯体と製品
  6
CONTINUOUS
 62
    3
 10
-233.70318326174493
 20
585.18931425213555
 11
-261.04548326174495
 21
502.04631425213552
  0
LINE
  8
_0-3_躯体と製品
  6
CONTINUOUS
 62
    3
 10
-232.5631832617471
 20
584.81431425213555
 11
-259.90548326174508
 21
501.67131425213552
  0
LINE
  8
_0-3_躯体と製品
  6
PLINE3
 62
    3
 10
-192.38182326174501
 20
525.50231425213565
 11
-42.505683261746981
 21
525.50231425213565
  0
LINE
  8
_0-4_文字-記号
  6
CONTINUOUS
 62
    3
 10
-258.32498326174505
 20
385.3273142521366
 11
-361.01753326174594
 21
231.7205842521355
  0
LINE
  8
_0-3_躯体と製品
  6
CONTINUOUS
 62
    3
 10
-261.35578326174596
 20
446.70231425213547
 11
-236.45568326174612
 21
446.70231425213547
  0
LINE
  8
_0-3_躯体と製品
  6
CONTINUOUS
 62
    3
 10
-260.15578326174705
 20
466.70231425213547
 11
-236.45568326174612
 21
466.70231425213547
  0
LINE
  8
_0-3_躯体と製品
  6
PLINE3
 62
    3
 10
-286.15568326174707
 20
525.50231425213565
 11
-237.50568326174607
 21
526.10231425213465
  0
LINE
  8
_0-3_躯体と製品
  6
CONTINUOUS
 62
    3
 10
-261.35578326174596
 20
500.10931425213562
 11
-261.35578326174596
 21
446.70231425213547
  0
LINE
  8
_0-3_躯体と製品
  6
CONTINUOUS
 62
    3
 10
-260.15578326174705
 20
500.10931425213562
 11
-260.15578326174705
 21
446.70231425213547
  0
LINE
  8
_0-4_文字-記号
  6
CONTINUOUS
 62
    3
 10
-258.32498326174505
 20
385.3273142521366
 11
-273.59721326174508
 21
371.47961425213543
  0
LINE
  8
_0-4_文字-記号
  6
CONTINUOUS
 62
    3
 10
-258.32498326174505
 20
385.3273142521366
 11
-265.28391326174597
 21
365.92182425213559
  0
ARC
  8
_0-3_躯体と製品
  6
CONTINUOUS
 62
    3
 10
-255.15578326174705
 20
500.10931425213562
 40
5
 50
161.79600000000113
 51
180.00000000000003
  0
ARC
  8
_0-3_躯体と製品
  6
CONTINUOUS
 62
    3
 10
-255.15578326174705
 20
500.10931425213562
 40
6.2000000000000002
 50
161.79600000000113
 51
180.00000000000003
  0
ARC
  8
_0-3_躯体と製品
  6
CONTINUOUS
 62
    3
 10
-236.45568326174612
 20
451.70231425213547
 40
5
 50
270
 51
0
  0
LINE
  8
_0-3_躯体と製品
  6
CONTINUOUS
 62
    3
 10
-257.15568326174593
 20
471.10231425213556
 11
-175.15568326174503
 21
471.10231425213556
  0
LINE
  8
_0-3_躯体と製品
  6
CONTINUOUS
 62
    3
 10
-257.15568326174593
 20
501.10231425213556
 11
-175.15568326174503
 21
501.10231425213556
  0
LINE
  8
_0-3_躯体と製品
  6
CONTINUOUS
 62
    3
 10
-175.33868326174706
 20
501.36131425213648
 11
-192.50678326174602
 21
525.67931425213533
  0
LINE
  8
_0-3_躯体と製品
  6
CONTINUOUS
 62
    3
 10
-256.9725832617471
 20
501.36131425213648
 11
-239.80458326174698
 21
525.67931425213533
  0
LINE
  8
_0-3_躯体と製品
  6
CONTINUOUS
 62
    3
 10
-253.65568326174707
 20
471.10231425213556
 11
-253.65568326174707
 21
466.70231425213547
  0
LINE
  8
_0-3_躯体と製品
  6
CONTINUOUS
 62
    3
 10
-257.15568326174593
 20
500.78531425213555
 11
-257.15568326174593
 21
471.10231425213556
  0
LINE
  8
_0-3_躯体と製品
  6
CONTINUOUS
 62
    3
 10
-231.45568326174612
 20
461.70231425213547
 11
-231.45568326174612
 21
451.70231425213547
  0
LINE
  8
_0-3_躯体と製品
  6
CONTINUOUS
 62
    3
 10
-241.45568326174612
 20
459.59131425213559
 11
-241.45568326174612
 21
453.80431425213533
  0
LINE
  8
_0-3_躯体と製品
  6
CONTINUOUS
 62
    3
 10
-244.2428832617461
 20
456.70231425213547
 11
-238.86868326174499
 21
456.70231425213547
  0
ARC
  8
_0-3_躯体と製品
  6
CONTINUOUS
 62
    3
 10
-236.45568326174612
 20
461.70231425213547
 40
5
 50
0
 51
90
  0
CIRCLE
  8
_0-3_躯体と製品
  6
CONTINUOUS
 62
    3
 10
-241.45568326174612
 20
456.70231425213547
 40
4
  0
LINE
  8
_0-3_躯体と製品
  6
CONTINUOUS
 62
    3
 10
-189.64488326174592
 20
493.90231425213574
 11
-198.66645326174603
 21
493.90231425213574
  0
LINE
  8
_0-3_躯体と製品
  6
CONTINUOUS
 62
    3
 10
-198.66653326174492
 20
478.30231425213537
 11
-203.1698832617451
 21
486.10231425213556
  0
LINE
  8
_0-3_躯体と製品
  6
CONTINUOUS
 62
    3
 10
-198.66645326174603
 20
478.30231425213537
 11
-189.64488326174592
 21
478.30231425213537
  0
LINE
  8
_0-3_躯体と製品
  6
CONTINUOUS
 62
    3
 10
-189.64488326174592
 20
478.30231425213537
 11
-185.14158326174697
 21
486.10231425213556
  0
LINE
  8
_0-3_躯体と製品
  6
CONTINUOUS
 62
    3
 10
-185.14158326174697
 20
486.10231425213556
 11
-189.64498326174498
 21
493.90231425213574
  0
LINE
  8
_0-3_躯体と製品
  6
CONTINUOUS
 62
    3
 10
-203.16970326174601
 20
486.10231425213556
 11
-198.66638326174711
 21
493.90231425213574
  0
CIRCLE
  8
_0-3_躯体と製品
  6
CONTINUOUS
 62
    3
 10
-194.15568326174593
 20
486.10231425213556
 40
7.7999999999999998
  0
LINE
  8
_0-3_躯体と製品
  6
CONTINUOUS
 62
    3
 10
-194.80568326174694
 20
526.10231425213465
 11
-238.98758326174493
 21
526.10231425213465
  0
LINE
  8
_0-3_躯体と製品
  6
CONTINUOUS
 62
    3
 10
-241.35568326174598
 20
540.10231425213647
 11
-210.11372326174592
 21
540.10231425213647
  0
LINE
  8
_0-3_躯体と製品
  6
CONTINUOUS
 62
    3
 10
-237.35568326174507
 20
551.30231425213537
 11
-216.15568326174593
 21
551.30231425213537
  0
LINE
  8
_0-3_躯体と製品
  6
CONTINUOUS
 62
    3
 10
-241.35568326174598
 20
547.30231425213674
 11
-241.35568326174598
 21
540.10231425213647
  0
LINE
  8
_0-3_躯体と製品
  6
CONTINUOUS
 62
    3
 10
-237.50568326174607
 20
540.10231425213647
 11
-237.50568326174607
 21
526.10231425213465
  0
ARC
  8
_0-3_躯体と製品
  6
CONTINUOUS
 62
    3
 10
-237.35568326174507
 20
547.30231425213674
 40
4
 50
90
 51
180
  0
ARC
  8
_0-3_躯体と製品
  6
CONTINUOUS
 62
    3
 10
-238.98758326174493
 20
525.10231425213556
 40
1
 50
90
 51
144.777999999999
  0
LINE
  8
_0-3_躯体と製品
  6
CONTINUOUS
 62
    3
 10
-197.98936326174589
 20
528.10231425213556
 11
-211.78950326174709
 21
528.10231425213556
  0
LINE
  8
_0-3_躯体と製品
  6
CONTINUOUS
 62
    3
 10
-200.49775326174699
 20
534.10231425213556
 11
-206.24684326174611
 21
534.10231425213556
  0
LINE
  8
_0-3_躯体と製品
  6
CONTINUOUS
 62
    3
 10
-216.15568326174593
 20
551.30231425213537
 11
-194.95568326174498
 21
551.30231425213537
  0
CIRCLE
  8
_0-3_躯体と製品
  6
CONTINUOUS
 62
    3
 10
-203.55567326174605
 20
534.10231425213556
 40
4
  0
LINE
  8
_0-3_躯体と製品
  6
CONTINUOUS
 62
    3
 10
-194.80568326174694
 20
540.10231425213647
 11
-194.80568326174694
 21
526.10231425213465
  0
LINE
  8
_0-3_躯体と製品
  6
CONTINUOUS
 62
    3
 10
-194.80568326174694
 20
526.10231425213465
 11
-193.32378326174603
 21
526.10231425213465
  0
LINE
  8
_0-3_躯体と製品
  6
CONTINUOUS
 62
    3
 10
-190.95568326174703
 20
547.30231425213674
 11
-190.95568326174703
 21
540.10231425213647
  0
LINE
  8
_0-3_躯体と製品
  6
CONTINUOUS
 62
    3
 10
-203.55567326174605
 20
537.09231425213534
 11
-203.55567326174605
 21
531.27231425213563
  0
LINE
  8
_0-3_躯体と製品
  6
CONTINUOUS
 62
    3
 10
-197.98936326174589
 20
540.10231425213647
 11
-197.98936326174589
 21
528.10231425213556
  0
LINE
  8
_0-3_躯体と製品
  6
CONTINUOUS
 62
    3
 10
-197.98936326174589
 20
540.10231425213647
 11
-190.95568326174703
 21
540.10231425213647
  0
ARC
  8
_0-3_躯体と製品
  6
CONTINUOUS
 62
    3
 10
-194.95568326174498
 20
547.30231425213674
 40
4
 50
0
 51
90
  0
ARC
  8
_0-3_躯体と製品
  6
CONTINUOUS
 62
    3
 10
-193.32378326174603
 20
525.10231425213556
 40
1
 50
35.222299999998967
 51
90
  0
LINE
  8
_0-3_躯体と製品
  6
CONTINUOUS
 62
    3
 10
-211.7895332617461
 20
540.10231425213647
 11
-211.7895332617461
 21
528.10231425213556
  0
LINE
  8
_0-3_躯体と製品
  6
CONTINUOUS
 62
    3
 10
-210.11372326174592
 20
540.10231425213647
 11
-210.11372326174592
 21
528.10231425213556
  0
LINE
  8
_0-3_躯体と製品
  6
CONTINUOUS
 62
    3
 10
-175.15568326174503
 20
500.78531425213555
 11
-175.15568326174503
 21
471.10231425213556
  0
TEXT
  8
_0-4_文字-記号
 62
    7
 10
56.123476738253885
 20
339.39625425213558
 40
50
 41
0.8
 50
0
  1
振れ止
  0
LINE
  8
_0-4_文字-記号
  6
CONTINUOUS
 62
    3
 10
13.725316738253923
 20
427.72431425213631
 11
49.05731673825494
 21
339.39631425213656
  0
LINE
  8
_0-4_文字-記号
  6
CONTINUOUS
 62
    3
 10
49.05731673825494
 20
339.39631425213656
 11
161.266316738255
 21
339.39631425213656
  0
LINE
  8
_0-3_躯体と製品
  6
CONTINUOUS
 62
    4
 10
188.73286673825396
 20
456.61431425213664
 11
-98.159683261746068
 21
456.61431425213664
  0
LINE
  8
_0-3_躯体と製品
  6
CONTINUOUS
 62
    4
 10
188.73286673825396
 20
424.61431425213573
 11
-98.159683261746068
 21
424.61431425213573
  0
LINE
  8
_0-3_躯体と製品
  6
PLINE3
 62
    3
 10
188.73286673825396
 20
525.50231425213565
 11
-14.805683261746935
 21
525.50231425213565
  0
LINE
  8
_0-3_躯体と製品
  6
CONTINUOUS
 62
    4
 10
-98.159683261746068
 20
456.61431425213664
 11
-98.159683261746068
 21
424.61431425213573
  0
CIRCLE
  8
_0-3_躯体と製品
  6
CONTINUOUS
 62
    4
 10
-29.164683261745949
 20
440.87731425213565
 40
3
  0
LINE
  8
_0-4_文字-記号
  6
CONTINUOUS
 62
    3
 10
13.725316738253923
 20
427.72431425213631
 11
16.510906738255017
 21
407.29785425213663
  0
LINE
  8
_0-4_文字-記号
  6
CONTINUOUS
 62
    3
 10
13.725316738253923
 20
427.72431425213631
 11
25.795646738253026
 21
411.01183425213662
  0
LINE
  8
_0-3_躯体と製品
  6
CONTINUOUS
 62
    3
 10
-16.305683261745116
 20
554.30231425213537
 11
-41.005683261744934
 21
554.30231425213537
  0
ARC
  8
_0-3_躯体と製品
  6
CONTINUOUS
 62
    3
 10
-28.655683261745935
 20
575.10231425213647
 40
20.800000000000001
 50
247.38013500000261
 51
292.61986499999728
  0
LINE
  8
_0-3_躯体と製品
  6
CONTINUOUS
 62
    3
 10
-16.305683261745116
 20
531.7003142521346
 11
-41.005683261744934
 21
531.7003142521346
  0
ARC
  8
_0-3_躯体と製品
  6
CONTINUOUS
 62
    3
 10
-28.655683261745935
 20
510.90031425213533
 40
20.800000000000001
 50
67.380135000002696
 51
112.61986499999719
  0
LINE
  8
_0-3_躯体と製品
  6
CONTINUOUS
 62
    3
 10
-43.005683261746071
 20
518.70031425213551
 11
-14.305683261745116
 21
518.70031425213551
  0
LINE
  8
_0-3_躯体と製品
  6
CONTINUOUS
 62
    3
 10
-14.305683261745116
 20
513.70031425213551
 11
-43.005683261746071
 21
513.70031425213551
  0
ARC
  8
_0-3_躯体と製品
  6
CONTINUOUS
 62
    3
 10
-28.655683261745935
 20
492.9003142521367
 40
20.800000000000001
 50
67.380135000002696
 51
112.61986499999719
  0
LINE
  8
_0-3_躯体と製品
  6
CONTINUOUS
 62
    3
 10
-46.12068326174608
 20
489.50031425213569
 11
-4.72068326174508
 21
489.50031425213569
  0
LINE
  8
_0-3_躯体と製品
  6
CONTINUOUS
 62
    3
 10
-49.855683261745071
 20
500.70031425213642
 11
-28.655683261745935
 21
500.70031425213642
  0
LINE
  8
_0-3_躯体と製品
  6
CONTINUOUS
 62
    3
 10
-36.655683261745935
 20
500.70031425213642
 11
-36.655683261745935
 21
512.1003142521356
  0
LINE
  8
_0-3_躯体と製品
  6
CONTINUOUS
 62
    3
 10
-42.505683261746981
 20
512.1003142521356
 11
-42.505683261746981
 21
500.70031425213642
  0
LINE
  8
_0-3_躯体と製品
  6
CONTINUOUS
 62
    3
 10
-51.766683261746039
 20
488.0003142521366
 11
-50.479683261746004
 21
488.0003142521366
  0
LINE
  8
_0-3_躯体と製品
  6
CONTINUOUS
 62
    3
 10
-51.766683261746039
 20
479.00031425213569
 11
-50.479683261746004
 21
479.00031425213569
  0
LINE
  8
_0-3_躯体と製品
  6
CONTINUOUS
 62
    3
 10
-53.85568326174598
 20
489.50031425213569
 11
-53.12068326174699
 21
489.50031425213569
  0
LINE
  8
_0-3_躯体と製品
  6
CONTINUOUS
 62
    3
 10
-53.12068326174699
 20
489.50031425213569
 11
-53.12068326174699
 21
487.2533142521354
  0
LINE
  8
_0-3_躯体と製品
  6
CONTINUOUS
 62
    3
 10
-46.12068326174608
 20
489.50031425213569
 11
-46.12068326174608
 21
477.50031425213569
  0
LINE
  8
_0-3_躯体と製品
  6
CONTINUOUS
 62
    3
 10
-43.217683261744924
 20
489.50031425213569
 11
-43.217683261744924
 21
477.50031425213569
  0
LINE
  8
_0-3_躯体と製品
  6
CONTINUOUS
 62
    3
 10
-43.217683261744924
 20
477.50031425213569
 11
-53.12068326174699
 21
477.50031425213569
  0
LINE
  8
_0-3_躯体と製品
  6
CONTINUOUS
 62
    3
 10
-53.12068326174699
 20
479.74731425213463
 11
-53.12068326174699
 21
477.50031425213569
  0
LINE
  8
_0-3_躯体と製品
  6
CONTINUOUS
 62
    3
 10
-53.85568326174598
 20
496.70031425213551
 11
-53.85568326174598
 21
489.50031425213569
  0
ARC
  8
_0-3_躯体と製品
  6
CONTINUOUS
 62
    3
 10
-51.766683261746039
 20
486.40031425213533
 40
1.6000099999999999
 50
90
 51
163.80899999999659
  0
ARC
  8
_0-3_躯体と製品
  6
CONTINUOUS
 62
    3
 10
-41.779683261747095
 20
483.50031425213569
 40
12
 50
163.80899999999662
 51
196.19100000000333
  0
ARC
  8
_0-3_躯体と製品
  6
CONTINUOUS
 62
    3
 10
-51.766683261746039
 20
480.6003142521356
 40
1.6000099999999999
 50
196.1910000000033
 51
270
  0
ARC
  8
_0-3_躯体と製品
  6
CONTINUOUS
 62
    3
 10
-49.855683261745071
 20
496.70031425213551
 40
4
 50
90
 51
180
  0
LINE
  8
_0-3_躯体と製品
  6
CONTINUOUS
 62
    3
 10
-50.479683261746004
 20
479.00031425213569
 11
-50.178883261746023
 21
479.03580425213545
  0
LINE
  8
_0-3_躯体と製品
  6
CONTINUOUS
 62
    3
 10
-50.178883261746023
 20
479.03580425213545
 11
-49.882823261744988
 21
479.14169425213572
  0
LINE
  8
_0-3_躯体と製品
  6
CONTINUOUS
 62
    3
 10
-49.882823261744988
 20
479.14169425213572
 11
-49.596183261746091
 21
479.3163242521357
  0
LINE
  8
_0-3_躯体と製品
  6
CONTINUOUS
 62
    3
 10
-49.596183261746091
 20
479.3163242521357
 11
-49.323473261745903
 21
479.55693425213553
  0
LINE
  8
_0-3_躯体と製品
  6
CONTINUOUS
 62
    3
 10
-49.323473261745903
 20
479.55693425213553
 11
-49.069003261746957
 21
479.85974425213567
  0
LINE
  8
_0-3_躯体と製品
  6
CONTINUOUS
 62
    3
 10
-49.069003261746957
 20
479.85974425213567
 11
-48.836773261745066
 21
480.2199642521357
  0
LINE
  8
_0-3_躯体と製品
  6
CONTINUOUS
 62
    3
 10
-48.836773261745066
 20
480.2199642521357
 11
-48.63045326174506
 21
480.6319142521354
  0
LINE
  8
_0-3_躯体と製品
  6
CONTINUOUS
 62
    3
 10
-48.63045326174506
 20
480.6319142521354
 11
-48.453303261745987
 21
481.08909425213574
  0
LINE
  8
_0-3_躯体と製品
  6
CONTINUOUS
 62
    3
 10
-48.453303261745987
 20
481.08909425213574
 11
-48.308103261746055
 21
481.58431425213553
  0
LINE
  8
_0-3_躯体と製品
  6
CONTINUOUS
 62
    3
 10
-48.308103261746055
 20
481.58431425213553
 11
-48.197153261746053
 21
482.10974425213567
  0
LINE
  8
_0-3_躯体と製品
  6
CONTINUOUS
 62
    3
 10
-48.197153261746053
 20
482.10974425213567
 11
-48.122193261745906
 21
482.6571042521357
  0
LINE
  8
_0-3_躯体と製品
  6
CONTINUOUS
 62
    3
 10
-48.122193261745906
 20
482.6571042521357
 11
-48.084423261745087
 21
483.2177642521367
  0
LINE
  8
_0-3_躯体と製品
  6
CONTINUOUS
 62
    3
 10
-48.084423261745087
 20
483.2177642521367
 11
-48.084423261745087
 21
483.78287425213443
  0
LINE
  8
_0-3_躯体と製品
  6
CONTINUOUS
 62
    3
 10
-48.084423261745087
 20
483.78287425213443
 11
-48.122193261745906
 21
484.34353425213544
  0
LINE
  8
_0-3_躯体と製品
  6
CONTINUOUS
 62
    3
 10
-48.122193261745906
 20
484.34353425213544
 11
-48.197153261746053
 21
484.89089425213547
  0
LINE
  8
_0-3_躯体と製品
  6
CONTINUOUS
 62
    3
 10
-48.197153261746053
 20
484.89089425213547
 11
-48.308103261746055
 21
485.41632425213561
  0
LINE
  8
_0-3_躯体と製品
  6
CONTINUOUS
 62
    3
 10
-48.308103261746055
 20
485.41632425213561
 11
-48.453303261745987
 21
485.91153425213565
  0
LINE
  8
_0-3_躯体と製品
  6
CONTINUOUS
 62
    3
 10
-48.453303261745987
 20
485.91153425213565
 11
-48.63045326174506
 21
486.36872425213573
  0
LINE
  8
_0-3_躯体と製品
  6
CONTINUOUS
 62
    3
 10
-48.63045326174506
 20
486.36872425213573
 11
-48.836773261745066
 21
486.78067425213544
  0
LINE
  8
_0-3_躯体と製品
  6
CONTINUOUS
 62
    3
 10
-48.836773261745066
 20
486.78067425213544
 11
-49.069003261746957
 21
487.14089425213547
  0
LINE
  8
_0-3_躯体と製品
  6
CONTINUOUS
 62
    3
 10
-49.069003261746957
 20
487.14089425213547
 11
-49.323473261745903
 21
487.4436942521354
  0
LINE
  8
_0-3_躯体と製品
  6
CONTINUOUS
 62
    3
 10
-49.323473261745903
 20
487.4436942521354
 11
-49.596183261746091
 21
487.68431425213544
  0
LINE
  8
_0-3_躯体と製品
  6
CONTINUOUS
 62
    3
 10
-49.596183261746091
 20
487.68431425213544
 11
-49.882823261744988
 21
487.85894425213451
  0
LINE
  8
_0-3_躯体と製品
  6
CONTINUOUS
 62
    3
 10
-49.882823261744988
 20
487.85894425213451
 11
-50.178883261746023
 21
487.96483425213432
  0
LINE
  8
_0-3_躯体と製品
  6
CONTINUOUS
 62
    3
 10
-50.178883261746023
 20
487.96483425213432
 11
-50.479683261746004
 21
488.0003142521366
  0
LINE
  8
_0-3_躯体と製品
  6
CONTINUOUS
 62
    3
 10
-52.142533261745939
 20
479.04494425213556
 11
-51.847383261746018
 21
479.1593042521356
  0
LINE
  8
_0-3_躯体と製品
  6
CONTINUOUS
 62
    3
 10
-51.847383261746018
 20
479.1593042521356
 11
-51.562193261747097
 21
479.34212425213559
  0
LINE
  8
_0-3_躯体と製品
  6
CONTINUOUS
 62
    3
 10
-51.562193261747097
 20
479.34212425213559
 11
-51.291473261745978
 21
479.59052425213554
  0
LINE
  8
_0-3_躯体と製品
  6
CONTINUOUS
 62
    3
 10
-51.291473261745978
 20
479.59052425213554
 11
-51.039503261745949
 21
479.90058425213533
  0
LINE
  8
_0-3_躯体と製品
  6
CONTINUOUS
 62
    3
 10
-51.039503261745949
 20
479.90058425213533
 11
-50.810233261747044
 21
480.26740425213552
  0
LINE
  8
_0-3_躯体と製品
  6
CONTINUOUS
 62
    3
 10
-50.810233261747044
 20
480.26740425213552
 11
-50.607293261745099
 21
480.68522425213564
  0
LINE
  8
_0-3_躯体と製品
  6
CONTINUOUS
 62
    3
 10
-50.607293261745099
 20
480.68522425213564
 11
-50.433883261745905
 21
481.14743425213442
  0
LINE
  8
_0-3_躯体と製品
  6
CONTINUOUS
 62
    3
 10
-50.433883261745905
 20
481.14743425213442
 11
-50.292743261747091
 21
481.64674425213457
  0
LINE
  8
_0-3_躯体と製品
  6
CONTINUOUS
 62
    3
 10
-50.292743261747091
 20
481.64674425213457
 11
-50.186083261746035
 21
482.17529425213638
  0
LINE
  8
_0-3_躯体と製品
  6
CONTINUOUS
 62
    3
 10
-50.186083261746035
 20
482.17529425213638
 11
-50.115603261745946
 21
482.72473425213661
  0
LINE
  8
_0-3_躯体と製品
  6
CONTINUOUS
 62
    3
 10
-50.115603261745946
 20
482.72473425213661
 11
-50.082403261746094
 21
483.2864142521355
  0
LINE
  8
_0-3_躯体と製品
  6
CONTINUOUS
 62
    3
 10
-50.082403261746094
 20
483.2864142521355
 11
-50.087003261746077
 21
483.85146425213566
  0
LINE
  8
_0-3_躯体と製品
  6
CONTINUOUS
 62
    3
 10
-50.087003261746077
 20
483.85146425213566
 11
-50.129343261746044
 21
484.4109742521357
  0
LINE
  8
_0-3_躯体と製品
  6
CONTINUOUS
 62
    3
 10
-50.129343261746044
 20
484.4109742521357
 11
-50.208753261746097
 21
484.95612425213562
  0
LINE
  8
_0-3_躯体と製品
  6
CONTINUOUS
 62
    3
 10
-50.208753261746097
 20
484.95612425213562
 11
-50.323973261746914
 21
485.47831425213531
  0
LINE
  8
_0-3_躯体と製品
  6
CONTINUOUS
 62
    3
 10
-50.323973261746914
 20
485.47831425213531
 11
-50.473183261746044
 21
485.96931425213575
  0
LINE
  8
_0-3_躯体と製品
  6
CONTINUOUS
 62
    3
 10
-50.473183261746044
 20
485.96931425213575
 11
-50.654043261745983
 21
486.42136425213562
  0
LINE
  8
_0-3_躯体と製品
  6
CONTINUOUS
 62
    3
 10
-50.654043261745983
 20
486.42136425213562
 11
-50.863693261745993
 21
486.82736425213648
  0
LINE
  8
_0-3_躯体と製品
  6
CONTINUOUS
 62
    3
 10
-50.863693261745993
 20
486.82736425213648
 11
-51.098833261745995
 21
487.18088425213568
  0
LINE
  8
_0-3_躯体と製品
  6
CONTINUOUS
 62
    3
 10
-51.098833261745995
 20
487.18088425213568
 11
-51.355743261746056
 21
487.47636425213545
  0
LINE
  8
_0-3_躯体と製品
  6
CONTINUOUS
 62
    3
 10
-51.355743261746056
 20
487.47636425213545
 11
-51.630383261745919
 21
487.70913425213553
  0
LINE
  8
_0-3_躯体と製品
  6
CONTINUOUS
 62
    3
 10
-51.630383261745919
 20
487.70913425213553
 11
-51.918413261744945
 21
487.87553425213468
  0
LINE
  8
_0-3_躯体と製品
  6
CONTINUOUS
 62
    3
 10
-51.918413261744945
 20
487.87553425213468
 11
-52.141943261746064
 21
487.95553425213552
  0
ARC
  8
_0-3_躯体と製品
  6
CONTINUOUS
 62
    3
 10
-39.563353261745988
 20
557.74259425213563
 40
3.4410999999999992
 50
271.25475600000351
 51
327.67012200000238
  0
LINE
  8
_0-3_躯体と製品
  6
CONTINUOUS
 62
    3
 10
-41.005683261744934
 20
554.30231425213537
 11
-42.505683261746981
 21
555.90231425213574
  0
ARC
  8
_0-3_躯体と製品
  6
CONTINUOUS
 62
    3
 10
-39.563353261745988
 20
528.26004425213637
 40
3.4410999999999992
 50
32.329877999997528
 51
88.745243999996518
  0
LINE
  8
_0-3_躯体と製品
  6
CONTINUOUS
 62
    3
 10
-36.655683261745935
 20
518.70031425213551
 11
-36.655683261745935
 21
530.1003142521356
  0
LINE
  8
_0-3_躯体と製品
  6
CONTINUOUS
 62
    3
 10
-42.505683261746981
 20
530.1003142521356
 11
-42.505683261746981
 21
518.70031425213551
  0
LINE
  8
_0-3_躯体と製品
  6
CONTINUOUS
 62
    3
 10
-41.005683261744934
 20
531.7003142521346
 11
-42.505683261746981
 21
530.1003142521356
  0
LINE
  8
_0-3_躯体と製品
  6
CONTINUOUS
 62
    3
 10
-43.005683261746071
 20
513.70031425213551
 11
-43.005683261746071
 21
518.70031425213551
  0
ARC
  8
_0-3_躯体と製品
  6
CONTINUOUS
 62
    3
 10
-39.563353261745988
 20
510.26004425213546
 40
3.4410999999999992
 50
32.329877999997528
 51
88.745243999996518
  0
LINE
  8
_0-3_躯体と製品
  6
CONTINUOUS
 62
    3
 10
-41.005683261744934
 20
513.70031425213551
 11
-42.505683261746981
 21
512.1003142521356
  0
LINE
  8
_0-3_躯体と製品
  6
CONTINUOUS
 62
    3
 10
-36.655683261745935
 20
554.30231425213537
 11
-36.655683261745935
 21
531.7003142521346
  0
LINE
  8
_0-3_躯体と製品
  6
CONTINUOUS
 62
    3
 10
-20.655683261747072
 20
500.70031425213642
 11
-20.655683261747072
 21
512.1003142521356
  0
LINE
  8
_0-3_躯体と製品
  6
CONTINUOUS
 62
    3
 10
-14.805683261746935
 20
500.70031425213642
 11
-14.805683261746935
 21
512.1003142521356
  0
LINE
  8
_0-3_躯体と製品
  6
CONTINUOUS
 62
    3
 10
-2.1686832617469918
 20
488.0003142521366
 11
-3.4556832617470263
 21
488.0003142521366
  0
LINE
  8
_0-3_躯体と製品
  6
CONTINUOUS
 62
    3
 10
-2.1686832617469918
 20
479.00031425213569
 11
-3.4556832617470263
 21
479.00031425213569
  0
LINE
  8
_0-3_躯体と製品
  6
CONTINUOUS
 62
    3
 10
-4.72068326174508
 20
489.50031425213569
 11
-4.72068326174508
 21
477.50031425213569
  0
LINE
  8
_0-3_躯体と製品
  6
CONTINUOUS
 62
    3
 10
-0.6316832617460477
 20
486.8463142521357
 11
-0.6316832617460477
 21
480.15431425213569
  0
LINE
  8
_0-3_躯体と製品
  6
CONTINUOUS
 62
    3
 10
-3.4556832617470263
 20
496.70031425213551
 11
-3.4556832617470263
 21
477.50031425213569
  0
ARC
  8
_0-3_躯体と製品
  6
CONTINUOUS
 62
    3
 10
-2.1686832617469918
 20
486.40031425213533
 40
1.6000099999999999
 50
16.191200000000642
 51
90.000000000000014
  0
ARC
  8
_0-3_躯体と製品
  6
CONTINUOUS
 62
    3
 10
-2.1686832617469918
 20
480.6003142521356
 40
1.6000099999999999
 50
270
 51
343.80899999999667
  0
LINE
  8
_0-3_躯体と製品
  6
CONTINUOUS
 62
    3
 10
-7.9206832617469445
 20
477.50031425213569
 11
-3.4556832617470263
 21
477.50031425213569
  0
ARC
  8
_0-3_躯体と製品
  6
CONTINUOUS
 62
    3
 10
-7.45568326174498
 20
496.70031425213551
 40
4
 50
0
 51
90
  0
LINE
  8
_0-3_躯体と製品
  6
CONTINUOUS
 62
    3
 10
-7.9206832617469445
 20
489.50031425213569
 11
-7.9206832617469445
 21
477.50031425213569
  0
LINE
  8
_0-3_躯体と製品
  6
CONTINUOUS
 62
    3
 10
-28.655683261745935
 20
500.70031425213642
 11
-7.45568326174498
 21
500.70031425213642
  0
LINE
  8
_0-3_躯体と製品
  6
CONTINUOUS
 62
    3
 10
-16.305683261745116
 20
554.30231425213537
 11
-14.805683261746935
 21
555.90231425213574
  0
ARC
  8
_0-3_躯体と製品
  6
CONTINUOUS
 62
    3
 10
-17.748013261744973
 20
557.74259425213563
 40
3.4410999999999992
 50
212.32987799999739
 51
268.74524399999638
  0
LINE
  8
_0-3_躯体と製品
  6
CONTINUOUS
 62
    3
 10
-20.655683261747072
 20
518.70031425213551
 11
-20.655683261747072
 21
530.1003142521356
  0
LINE
  8
_0-3_躯体と製品
  6
CONTINUOUS
 62
    3
 10
-14.805683261746935
 20
518.70031425213551
 11
-14.805683261746935
 21
530.1003142521356
  0
LINE
  8
_0-3_躯体と製品
  6
CONTINUOUS
 62
    3
 10
-16.305683261745116
 20
531.7003142521346
 11
-14.805683261746935
 21
530.1003142521356
  0
ARC
  8
_0-3_躯体と製品
  6
CONTINUOUS
 62
    3
 10
-17.748013261744973
 20
528.26004425213637
 40
3.4410999999999992
 50
91.254756000003511
 51
147.67012200000244
  0
LINE
  8
_0-3_躯体と製品
  6
CONTINUOUS
 62
    3
 10
-14.305683261745116
 20
518.70031425213551
 11
-14.305683261745116
 21
513.70031425213551
  0
LINE
  8
_0-3_躯体と製品
  6
CONTINUOUS
 62
    3
 10
-16.305683261745116
 20
513.70031425213551
 11
-14.805683261746935
 21
512.1003142521356
  0
ARC
  8
_0-3_躯体と製品
  6
CONTINUOUS
 62
    3
 10
-17.748013261744973
 20
510.26004425213546
 40
3.4410999999999992
 50
91.254756000003511
 51
147.67012200000244
  0
LINE
  8
_0-3_躯体と製品
  6
CONTINUOUS
 62
    3
 10
-25.334833261747008
 20
518.70031425213551
 11
-26.674833261746926
 21
513.70031425213551
  0
LINE
  8
_0-3_躯体と製品
  6
CONTINUOUS
 62
    3
 10
-26.887833261745072
 20
518.70031425213551
 11
-28.2278332617459
 21
513.70031425213551
  0
LINE
  8
_0-3_躯体と製品
  6
CONTINUOUS
 62
    3
 10
-20.655683261747072
 20
554.30231425213537
 11
-20.655683261747072
 21
531.7003142521346
  0
LINE
  8
_0-3_躯体と製品
  6
CONTINUOUS
 62
    3
 10
188.73286673825396
 20
807.50231425213656
 11
-171.15568326174593
 21
807.50231425213656
  0
LINE
  8
_0-3_躯体と製品
  6
CONTINUOUS
 62
    3
 10
188.73286673825396
 20
792.50231425213656
 11
-147.15568326174593
 21
792.50231425213656
  0
LINE
  8
_0-3_躯体と製品
  6
CONTINUOUS
 62
    7
 10
-147.15568326174593
 20
762.50231425213656
 11
-62.45568326174498
 21
762.50231425213656
  0
LINE
  8
_0-3_躯体と製品
  6
CONTINUOUS
 62
    7
 10
188.73286673825396
 20
825.50231425213565
 11
-196.15568326174707
 21
825.50231425213565
  0
LINE
  8
_0-3_躯体と製品
  6
CONTINUOUS
 62
    3
 10
-231.15568326174707
 20
567.50231425213656
 11
6.8443167382529282
 21
567.50231425213656
  0
LINE
  8
_0-3_躯体と製品
  6
CONTINUOUS
 62
    3
 10
-231.15568326174707
 20
564.30231425213537
 11
6.8443167382529282
 21
564.30231425213537
  0
LINE
  8
_0-3_躯体と製品
  6
CONTINUOUS
 62
    3
 10
-196.15571326174495
 20
570.50231425213565
 11
-68.155683261747072
 21
570.50231425213565
  0
LINE
  8
_0-3_躯体と製品
  6
CONTINUOUS
 62
    4
 10
-316.15568326174707
 20
758.93415425213448
 11
-249.586853261746
 21
825.50231425213565
  0
LINE
  8
_0-3_躯体と製品
  6
CONTINUOUS
 62
    3
 10
-173.65568326174707
 20
769.0613142521363
 11
-173.65568326174707
 21
765.30231425213537
  0
LINE
  8
_0-3_躯体と製品
  6
CONTINUOUS
 62
    3
 10
-167.15568326174593
 20
778.30231425213537
 11
-167.15568326174593
 21
754.30231425213537
  0
LINE
  8
_0-3_躯体と製品
  6
CONTINUOUS
 62
    3
 10
-186.65568326174593
 20
769.0613142521363
 11
-186.65568326174593
 21
765.30231425213537
  0
LINE
  8
_0-3_躯体と製品
  6
CONTINUOUS
 62
    7
 10
-147.15568326174593
 20
807.50231425213656
 11
-147.15568326174593
 21
762.50231425213656
  0
ARC
  8
_0-3_躯体と製品
  6
CONTINUOUS
 62
    3
 10
-175.15568326174503
 20
765.30231425213537
 40
4
 50
292.02400000000569
 51
67.975699999996223
  0
ARC
  8
_0-3_躯体と製品
  6
CONTINUOUS
 62
    3
 10
-185.15568326174503
 20
765.30231425213537
 40
4
 50
112.02400000000581
 51
247.9759999999942
  0
CIRCLE
  8
_0-3_躯体と製品
  6
CONTINUOUS
 62
    3
 10
-180.15568326174503
 20
765.30231425213537
 40
6.5
  0
LINE
  8
_0-3_躯体と製品
  6
CONTINUOUS
 62
    3
 10
-272.95568326174703
 20
781.30231425213537
 11
-272.95568326174703
 21
755.10231425213647
  0
LINE
  8
_0-3_躯体と製品
  6
CONTINUOUS
 62
    3
 10
-305.95558326174705
 20
768.30241425213558
 11
-304.55838326174603
 21
766.9052142521366
  0
ARC
  8
_0-3_躯体と製品
  6
CONTINUOUS
 62
    3
 10
-280.6890832617471
 20
768.30231425213537
 40
10.66659999999999
 50
343.80899999999667
 51
16.191300000001348
  0
LINE
  8
_0-3_躯体と製品
  6
CONTINUOUS
 62
    7
 10
-316.15568326174707
 20
815.50231425213565
 11
-316.15568326174707
 21
625.50231425213656
  0
LINE
  8
_0-3_躯体と製品
  6
CONTINUOUS
 62
    4
 10
-276.15568326174593
 20
785.50231425213565
 11
-276.15568326174593
 21
625.50231425213656
  0
LINE
  8
_0-3_躯体と製品
  6
PLINE2
 62
    3
 10
-271.95568326174612
 20
648.78810425213555
 11
-191.15568326174707
 21
648.70231425213547
  0
LINE
  8
_0-3_躯体と製品
  6
CONTINUOUS
 62
    3
 10
-268.95568326174612
 20
753.30231425213537
 11
-170.15568326174503
 21
753.30231425213537
  0
LINE
  8
_0-3_躯体と製品
  6
CONTINUOUS
 62
    3
 10
-263.15568326174707
 20
751.30231425213537
 11
-170.15568326174503
 21
751.30231425213537
  0
LINE
  8
_0-3_躯体と製品
  6
CONTINUOUS
 62
    3
 10
-271.95568326174612
 20
645.50231425213565
 11
-191.15568326174707
 21
645.50231425213565
  0
LINE
  8
_0-3_躯体と製品
  6
CONTINUOUS
 62
    3
 10
-271.95568326174612
 20
654.70231425213638
 11
-191.15568326174707
 21
654.70231425213638
  0
LINE
  8
_0-3_躯体と製品
  6
CONTINUOUS
 62
    4
 10
-316.15568326174707
 20
645.79764425213557
 11
-276.15568326174593
 21
685.79724425213567
  0
LINE
  8
_0-3_躯体と製品
  6
CONTINUOUS
 62
    3
 10
-272.95568326174703
 20
650.20231425213547
 11
-272.95568326174703
 21
675.50231425213565
  0
ARC
  8
_0-3_躯体と製品
  6
CONTINUOUS
 62
    3
 10
-271.81138326174596
 20
662.92461425213446
 40
1.42221
 50
270
 51
343.80899999999667
  0
LINE
  8
_0-3_躯体と製品
  6
PLINE3
 62
    3
 10
-316.15568326174707
 20
585.50231425213565
 11
-286.15568326174707
 21
585.50231425213565
  0
LINE
  8
_0-3_躯体と製品
  6
CONTINUOUS
 62
    7
 10
-316.15568326174707
 20
625.50231425213656
 11
-276.15568326174593
 21
625.50231425213656
  0
LINE
  8
_0-3_躯体と製品
  6
CONTINUOUS
 62
    3
 10
-271.81138326174596
 20
661.5024142521354
 11
-272.955783261747
 21
661.5024142521354
  0
LINE
  8
_0-3_躯体と製品
  6
CONTINUOUS
 62
    3
 10
-271.95568326174612
 20
648.70231425213547
 11
-271.95568326174612
 21
654.70231425213638
  0
ARC
  8
_0-3_躯体と製品
  6
CONTINUOUS
 62
    3
 10
-271.45568326174612
 20
650.20231425213547
 40
1.5
 50
180
 51
250.52899999999863
  0
ARC
  8
_0-3_躯体と製品
  6
CONTINUOUS
 62
    3
 10
-271.95568326174612
 20
649.70231425213638
 40
4.2000000000000002
 50
180
 51
270
  0
LINE
  8
_0-3_躯体と製品
  6
CONTINUOUS
 62
    4
 10
-316.15568326174707
 20
702.36590425213649
 11
-276.15568326174593
 21
742.36550425213568
  0
LINE
  8
_0-3_躯体と製品
  6
CONTINUOUS
 62
    3
 10
-272.955783261747
 20
663.98241425213541
 11
-303.15578326174705
 21
663.98241425213541
  0
LINE
  8
_0-3_躯体と製品
  6
CONTINUOUS
 62
    3
 10
-272.95568326174703
 20
667.02231425213654
 11
-303.15568326174707
 21
667.02231425213654
  0
LINE
  8
_0-3_躯体と製品
  6
CONTINUOUS
 62
    3
 10
-305.95558326174705
 20
665.5024142521354
 11
-304.55838326174603
 21
664.10521425213551
  0
LINE
  8
_0-3_躯体と製品
  6
CONTINUOUS
 62
    3
 10
-305.95578326174609
 20
665.5024142521354
 11
-304.5584832617451
 21
666.89961425213573
  0
LINE
  8
_0-3_躯体と製品
  6
CONTINUOUS
 62
    3
 10
-303.15568326174707
 20
667.02231425213654
 11
-304.55838326174603
 21
666.89961425213573
  0
LINE
  8
_0-3_躯体と製品
  6
CONTINUOUS
 62
    3
 10
-303.15578326174705
 20
663.98231425213567
 11
-304.5584832617451
 21
664.10501425213556
  0
LINE
  8
_0-3_躯体と製品
  6
CONTINUOUS
 62
    3
 10
-271.81138326174596
 20
669.50231425213565
 11
-272.955783261747
 21
669.50231425213565
  0
LINE
  8
_0-3_躯体と製品
  6
CONTINUOUS
 62
    3
 10
-276.15568326174593
 20
675.50231425213565
 11
-272.95568326174703
 21
675.50231425213565
  0
ARC
  8
_0-3_躯体と製品
  6
CONTINUOUS
 62
    3
 10
-280.6890832617471
 20
665.50231425213565
 40
10.66659999999999
 50
343.80899999999667
 51
16.191300000001348
  0
ARC
  8
_0-3_躯体と製品
  6
CONTINUOUS
 62
    3
 10
-271.81138326174596
 20
668.08011425213567
 40
1.42221
 50
16.191300000001309
 51
90.000000000000014
  0
LINE
  8
_0-3_躯体と製品
  6
CONTINUOUS
 62
    3
 10
-272.95568326174703
 20
766.82231425213672
 11
-303.15568326174707
 21
766.82231425213672
  0
LINE
  8
_0-3_躯体と製品
  6
CONTINUOUS
 62
    3
 10
-303.15578326174705
 20
766.7823142521363
 11
-304.5584832617451
 21
766.90511425213458
  0
LINE
  8
_0-3_躯体と製品
  6
CONTINUOUS
 62
    3
 10
-276.15568326174593
 20
755.10231425213647
 11
-272.95568326174703
 21
755.10231425213647
  0
LINE
  8
_0-3_躯体と製品
  6
CONTINUOUS
 62
    3
 10
-271.95568326174612
 20
764.3097142521367
 11
-271.95568326174612
 21
756.30231425213537
  0
LINE
  8
_0-3_躯体と製品
  6
CONTINUOUS
 62
    3
 10
-271.81138326174596
 20
764.30241425213558
 11
-272.955783261747
 21
764.30241425213558
  0
ARC
  8
_0-3_躯体と製品
  6
CONTINUOUS
 62
    3
 10
-268.95568326174612
 20
756.30231425213537
 40
3
 50
180
 51
270
  0
ARC
  8
_0-3_躯体と製品
  6
CONTINUOUS
 62
    3
 10
-263.15568326174707
 20
754.30231425213537
 40
3
 50
199.47099999999921
 51
270
  0
ARC
  8
_0-3_躯体と製品
  6
CONTINUOUS
 62
    3
 10
-271.81138326174596
 20
765.72461425213646
 40
1.42221
 50
270
 51
343.80899999999667
  0
LINE
  8
_0-3_躯体と製品
  6
CONTINUOUS
 62
    3
 10
-208.15567326174596
 20
652.72939425213531
 11
-208.15567326174596
 21
664.1293942521354
  0
LINE
  8
_0-3_躯体と製品
  6
CONTINUOUS
 62
    3
 10
-224.15567326174505
 20
652.72939425213531
 11
-224.15567326174505
 21
664.1293942521354
  0
LINE
  8
_0-3_躯体と製品
  6
CONTINUOUS
 62
    3
 10
-202.30567326174491
 20
652.72939425213531
 11
-202.30567326174491
 21
664.1293942521354
  0
LINE
  8
_0-3_躯体と製品
  6
CONTINUOUS
 62
    3
 10
-230.00567326174496
 20
664.1293942521354
 11
-230.00567326174496
 21
652.72939425213531
  0
LINE
  8
_0-3_躯体と製品
  6
CONTINUOUS
 62
    3
 10
-232.00568326174698
 20
588.90231425213665
 11
-232.00568326174698
 21
642.90231425213574
  0
LINE
  8
_0-3_躯体と製品
  6
CONTINUOUS
 62
    3
 10
-233.20568326174612
 20
588.90231425213665
 11
-233.20568326174612
 21
642.90231425213574
  0
LINE
  8
_0-3_躯体と製品
  6
CONTINUOUS
 62
    3
 10
-224.15568326174593
 20
635.70231425213547
 11
-224.15568326174593
 21
597.90231425213574
  0
LINE
  8
_0-3_躯体と製品
  6
CONTINUOUS
 62
    3
 10
-208.15568326174707
 20
635.70231425213547
 11
-208.15568326174707
 21
597.90231425213574
  0
LINE
  8
_0-3_躯体と製品
  6
CONTINUOUS
 62
    3
 10
-228.50567326174701
 20
597.90231425213574
 11
-203.80567326174605
 21
597.90231425213574
  0
ARC
  8
_0-3_躯体と製品
  6
CONTINUOUS
 62
    3
 10
-216.15567326174596
 20
577.10231425213556
 40
20.800000000000001
 50
67.380135000002696
 51
112.61986499999719
  0
ARC
  8
_0-3_躯体と製品
  6
CONTINUOUS
 62
    3
 10
-216.15567326174596
 20
608.70231425213547
 40
20.800000000000001
 50
247.38013500000261
 51
292.61986499999728
  0
ARC
  8
_0-3_躯体と製品
  6
CONTINUOUS
 62
    3
 10
-216.1555832617471
 20
543.50231425213565
 40
20.800000000000001
 50
67.380135000002696
 51
112.61986499999719
  0
ARC
  8
_0-3_躯体と製品
  6
CONTINUOUS
 62
    3
 10
-216.1555832617471
 20
564.70231425213638
 40
20.800000000000001
 50
67.380135000002696
 51
112.61986499999719
  0
LINE
  8
_0-3_躯体と製品
  6
CONTINUOUS
 62
    3
 10
-201.80567326174605
 20
572.50231425213656
 11
-230.50568326174607
 21
572.50231425213656
  0
LINE
  8
_0-3_躯体と製品
  6
CONTINUOUS
 62
    3
 10
-231.61328326174589
 20
586.70231425213547
 11
-200.15568326174503
 21
586.70231425213547
  0
LINE
  8
_0-3_躯体と製品
  6
CONTINUOUS
 62
    3
 10
-231.00568326174607
 20
587.90231425213574
 11
-200.15568326174503
 21
587.90231425213574
  0
LINE
  8
_0-3_躯体と製品
  6
CONTINUOUS
 62
    3
 10
-200.15568326174503
 20
585.50231425213565
 11
-231.61328326174589
 21
585.50231425213565
  0
ARC
  8
_0-3_躯体と製品
  6
CONTINUOUS
 62
    3
 10
-227.06335326174599
 20
594.46204425213568
 40
3.4410999999999992
 50
32.329877999997528
 51
88.745243999996518
  0
LINE
  8
_0-3_躯体と製品
  6
CONTINUOUS
 62
    3
 10
-228.50567326174701
 20
597.90231425213574
 11
-230.00567326174496
 21
596.30231425213674
  0
ARC
  8
_0-3_躯体と製品
  6
CONTINUOUS
 62
    3
 10
-227.06335326174599
 20
591.34259425213554
 40
3.4410999999999992
 50
271.25475600000351
 51
327.67012200000238
  0
LINE
  8
_0-3_躯体と製品
  6
CONTINUOUS
 62
    3
 10
-224.15567326174505
 20
596.30231425213674
 11
-224.15567326174505
 21
589.50231425213565
  0
LINE
  8
_0-3_躯体と製品
  6
CONTINUOUS
 62
    3
 10
-230.00567326174496
 20
596.30231425213674
 11
-230.00567326174496
 21
589.50231425213565
  0
LINE
  8
_0-3_躯体と製品
  6
CONTINUOUS
 62
    3
 10
-228.50567326174701
 20
587.90231425213574
 11
-230.00567326174496
 21
589.50231425213565
  0
ARC
  8
_0-3_躯体と製品
  6
CONTINUOUS
 62
    3
 10
-227.06325326174601
 20
560.86204425213668
 40
3.4410999999999992
 50
32.329877999997528
 51
88.745243999996518
  0
LINE
  8
_0-3_躯体と製品
  6
CONTINUOUS
 62
    3
 10
-228.5055832617461
 20
564.30231425213537
 11
-230.00558326174701
 21
562.70231425213547
  0
ARC
  8
_0-3_躯体と製品
  6
CONTINUOUS
 62
    3
 10
-227.06325326174601
 20
582.06204425213559
 40
3.4410999999999992
 50
32.329877999997528
 51
88.745243999996518
  0
LINE
  8
_0-3_躯体と製品
  6
CONTINUOUS
 62
    3
 10
-224.15558326174596
 20
572.50231425213656
 11
-224.15558326174596
 21
583.90231425213574
  0
LINE
  8
_0-3_躯体と製品
  6
CONTINUOUS
 62
    3
 10
-230.00558326174701
 20
583.90231425213574
 11
-230.00558326174701
 21
572.50231425213656
  0
LINE
  8
_0-3_躯体と製品
  6
CONTINUOUS
 62
    3
 10
-228.5055832617461
 20
585.50231425213565
 11
-230.00558326174701
 21
583.90231425213574
  0
LINE
  8
_0-3_躯体と製品
  6
CONTINUOUS
 62
    3
 10
-230.50568326174607
 20
567.50231425213656
 11
-230.50568326174607
 21
572.50231425213656
  0
LINE
  8
_0-3_躯体と製品
  6
CONTINUOUS
 62
    3
 10
-231.15568326174707
 20
567.50231425213656
 11
-231.15568326174707
 21
564.30231425213537
  0
ARC
  8
_0-3_躯体と製品
  6
CONTINUOUS
 62
    3
 10
-231.00568326174607
 20
588.90231425213665
 40
1
 50
180
 51
270
  0
ARC
  8
_0-3_躯体と製品
  6
CONTINUOUS
 62
    3
 10
-231.00568326174607
 20
588.90231425213665
 40
2.2000000000000002
 50
180
 51
270
  0
ARC
  8
_0-3_躯体と製品
  6
CONTINUOUS
 62
    3
 10
-231.61328326174589
 20
584.50231425213565
 40
2.2000000000000002
 50
90
 51
161.7960000000011
  0
ARC
  8
_0-3_躯体と製品
  6
CONTINUOUS
 62
    3
 10
-231.61328326174589
 20
584.50231425213565
 40
1
 50
90
 51
161.7960000000011
  0
LINE
  8
_0-3_躯体と製品
  6
CONTINUOUS
 62
    3
 10
-203.80567326174605
 20
597.90231425213574
 11
-202.30567326174491
 21
596.30231425213674
  0
ARC
  8
_0-3_躯体と製品
  6
CONTINUOUS
 62
    3
 10
-205.24800326174591
 20
594.46204425213568
 40
3.4410999999999992
 50
91.254756000003511
 51
147.67012200000244
  0
LINE
  8
_0-3_躯体と製品
  6
CONTINUOUS
 62
    3
 10
-208.15567326174596
 20
596.30231425213674
 11
-208.15567326174596
 21
589.50231425213565
  0
LINE
  8
_0-3_躯体と製品
  6
CONTINUOUS
 62
    3
 10
-202.30567326174491
 20
596.30231425213674
 11
-202.30567326174491
 21
589.50231425213565
  0
LINE
  8
_0-3_躯体と製品
  6
CONTINUOUS
 62
    3
 10
-203.80567326174605
 20
587.90231425213574
 11
-202.30567326174491
 21
589.50231425213565
  0
ARC
  8
_0-3_躯体と製品
  6
CONTINUOUS
 62
    3
 10
-205.24800326174591
 20
591.34259425213554
 40
3.4410999999999992
 50
212.32987799999739
 51
268.74524399999638
  0
LINE
  8
_0-3_躯体と製品
  6
CONTINUOUS
 62
    3
 10
-203.80558326174605
 20
564.30231425213537
 11
-202.30558326174696
 21
562.70231425213547
  0
ARC
  8
_0-3_躯体と製品
  6
CONTINUOUS
 62
    3
 10
-205.247913261745
 20
560.86204425213668
 40
3.4410999999999992
 50
91.254756000003511
 51
147.67012200000244
  0
LINE
  8
_0-3_躯体と製品
  6
CONTINUOUS
 62
    3
 10
-208.15558326174505
 20
572.50231425213656
 11
-208.15558326174505
 21
583.90231425213574
  0
LINE
  8
_0-3_躯体と製品
  6
CONTINUOUS
 62
    3
 10
-202.30558326174696
 20
572.50231425213656
 11
-202.30558326174696
 21
583.90231425213574
  0
LINE
  8
_0-3_躯体と製品
  6
CONTINUOUS
 62
    3
 10
-203.80558326174605
 20
585.50231425213565
 11
-202.30558326174696
 21
583.90231425213574
  0
ARC
  8
_0-3_躯体と製品
  6
CONTINUOUS
 62
    3
 10
-205.247913261745
 20
582.06204425213559
 40
3.4410999999999992
 50
91.254756000003511
 51
147.67012200000244
  0
ARC
  8
_0-3_躯体と製品
  6
CONTINUOUS
 62
    3
 10
-195.25098326174611
 20
563.32777425213567
 40
7.2313599999999996
 50
97.187178999994885
 51
144.7403340000044
  0
LINE
  8
_0-3_躯体と製品
  6
CONTINUOUS
 62
    3
 10
-201.80567326174605
 20
567.50231425213656
 11
-201.80567326174605
 21
572.50231425213656
  0
LINE
  8
_0-3_躯体と製品
  6
CONTINUOUS
 62
    3
 10
-200.15568326174503
 20
587.90231425213574
 11
-200.15568326174503
 21
585.50231425213565
  0
LINE
  8
_0-3_躯体と製品
  6
CONTINUOUS
 62
    3
 10
-217.03718326174703
 20
567.50231425213656
 11
-216.1555832617471
 21
572.50231425213656
  0
LINE
  8
_0-3_躯体と製品
  6
CONTINUOUS
 62
    3
 10
-216.02183326174691
 20
567.50231425213656
 11
-215.14019326174707
 21
572.50231425213656
  0
LINE
  8
_0-3_躯体と製品
  6
CONTINUOUS
 62
    3
 10
-203.80567326174605
 20
632.50231425213656
 11
-228.50567326174701
 21
632.50231425213656
  0
ARC
  8
_0-3_躯体と製品
  6
CONTINUOUS
 62
    3
 10
-216.15567326174596
 20
653.30231425213537
 40
20.800000000000001
 50
247.38013500000261
 51
292.61986499999728
  0
LINE
  8
_0-3_躯体と製品
  6
CONTINUOUS
 62
    3
 10
-230.15753326174604
 20
652.72939425213531
 11
-202.15382326174608
 21
652.72939425213531
  0
ARC
  8
_0-3_躯体と製品
  6
CONTINUOUS
 62
    3
 10
-227.06335326174599
 20
635.94259425213636
 40
3.4410999999999992
 50
271.25475600000351
 51
327.67012200000238
  0
LINE
  8
_0-3_躯体と製品
  6
CONTINUOUS
 62
    3
 10
-224.15567326174505
 20
645.50231425213565
 11
-224.15567326174505
 21
634.10231425213556
  0
LINE
  8
_0-3_躯体と製品
  6
CONTINUOUS
 62
    3
 10
-230.00567326174496
 20
634.10231425213556
 11
-230.00567326174496
 21
645.50231425213565
  0
LINE
  8
_0-3_躯体と製品
  6
CONTINUOUS
 62
    3
 10
-228.50567326174701
 20
632.50231425213656
 11
-230.00567326174496
 21
634.10231425213556
  0
LINE
  8
_0-3_躯体と製品
  6
CONTINUOUS
 62
    3
 10
-230.15753326174604
 20
648.72886425213551
 11
-230.15753326174604
 21
652.72939425213531
  0
LINE
  8
_0-3_躯体と製品
  6
CONTINUOUS
 62
    3
 10
-233.20568326174612
 20
642.90231425213574
 11
-232.00568326174698
 21
642.90231425213574
  0
LINE
  8
_0-3_躯体と製品
  6
CONTINUOUS
 62
    3
 10
-208.15567326174596
 20
645.50231425213565
 11
-208.15567326174596
 21
634.10231425213556
  0
LINE
  8
_0-3_躯体と製品
  6
CONTINUOUS
 62
    3
 10
-202.30567326174491
 20
645.50231425213565
 11
-202.30567326174491
 21
634.10231425213556
  0
LINE
  8
_0-3_躯体と製品
  6
CONTINUOUS
 62
    3
 10
-203.80567326174605
 20
632.50231425213656
 11
-202.30567326174491
 21
634.10231425213556
  0
ARC
  8
_0-3_躯体と製品
  6
CONTINUOUS
 62
    3
 10
-205.24800326174591
 20
635.94259425213636
 40
3.4410999999999992
 50
212.32987799999739
 51
268.74524399999638
  0
LINE
  8
_0-3_躯体と製品
  6
CONTINUOUS
 62
    3
 10
-202.15382326174608
 20
652.72939425213531
 11
-202.15382326174608
 21
648.72886425213551
  0
LINE
  8
_0-3_躯体と製品
  6
CONTINUOUS
 62
    3
 10
-191.15568326174707
 20
654.70231425213638
 11
-191.15568326174707
 21
645.50231425213565
  0
LINE
  8
_0-3_躯体と製品
  6
CONTINUOUS
 62
    3
 10
-186.6555832617471
 20
761.54321425213652
 11
-180.15558326174505
 21
757.79051425213652
  0
LINE
  8
_0-3_躯体と製品
  6
CONTINUOUS
 62
    3
 10
-208.15568326174707
 20
743.10231425213556
 11
-208.15568326174707
 21
666.70231425213547
  0
LINE
  8
_0-3_躯体と製品
  6
CONTINUOUS
 62
    3
 10
-224.15568326174593
 20
743.10231425213556
 11
-224.15568326174593
 21
666.70231425213547
  0
LINE
  8
_0-3_躯体と製品
  6
CONTINUOUS
 62
    3
 10
-203.80567326174605
 20
665.72939425213531
 11
-228.50567326174701
 21
665.72939425213531
  0
ARC
  8
_0-3_躯体と製品
  6
CONTINUOUS
 62
    3
 10
-216.15567326174596
 20
644.92939425213558
 40
20.800000000000001
 50
67.380135000002696
 51
112.61986499999719
  0
ARC
  8
_0-3_躯体と製品
  6
CONTINUOUS
 62
    3
 10
-227.06335326174599
 20
662.28911425213551
 40
3.4410999999999992
 50
32.329877999997528
 51
88.745243999996518
  0
LINE
  8
_0-3_躯体と製品
  6
CONTINUOUS
 62
    3
 10
-228.50567326174701
 20
665.72939425213531
 11
-230.00567326174496
 21
664.1293942521354
  0
LINE
  8
_0-3_躯体と製品
  6
CONTINUOUS
 62
    3
 10
-203.80567326174605
 20
665.72939425213531
 11
-202.30567326174491
 21
664.1293942521354
  0
ARC
  8
_0-3_躯体と製品
  6
CONTINUOUS
 62
    3
 10
-205.24800326174591
 20
662.28911425213551
 40
3.4410999999999992
 50
91.254756000003511
 51
147.67012200000244
  0
LINE
  8
_0-3_躯体と製品
  6
CONTINUOUS
 62
    3
 10
-204.15568326174593
 20
743.10231425213556
 11
-228.15568326174707
 21
743.10231425213556
  0
LINE
  8
_0-3_躯体と製品
  6
CONTINUOUS
 62
    3
 10
-228.15568326174707
 20
743.10231425213556
 11
-228.15568326174707
 21
751.30231425213537
  0
LINE
  8
_0-3_躯体と製品
  6
CONTINUOUS
 62
    3
 10
-204.15568326174593
 20
743.10231425213556
 11
-204.15568326174593
 21
751.30231425213537
  0
LINE
  8
_0-3_躯体と製品
  6
CONTINUOUS
 62
    3
 10
-186.65568326174593
 20
761.54331425213672
 11
-186.65568326174593
 21
765.30231425213537
  0
LINE
  8
_0-3_躯体と製品
  6
CONTINUOUS
 62
    3
 10
-216.15568326174593
 20
743.10231425213556
 11
-216.15568326174593
 21
751.30231425213537
  0
LINE
  8
_0-3_躯体と製品
  6
CONTINUOUS
 62
    3
 10
-180.15568326174503
 20
757.79061425213536
 11
-173.65568326174707
 21
761.54331425213672
  0
LINE
  8
_0-3_躯体と製品
  6
CONTINUOUS
 62
    3
 10
-173.65568326174707
 20
761.54331425213672
 11
-173.65568326174707
 21
765.30231425213537
  0
ARC
  8
_0-3_躯体と製品
  6
CONTINUOUS
 62
    3
 10
-170.15568326174503
 20
756.30231425213537
 40
3
 50
270
 51
0
  0
ARC
  8
_0-3_躯体と製品
  6
CONTINUOUS
 62
    3
 10
-170.15568326174503
 20
754.30231425213537
 40
3
 50
270
 51
0
  0
LINE
  8
_0-3_躯体と製品
  6
CONTINUOUS
 62
    7
 10
-306.15568326174593
 20
825.50231425213565
 11
-196.15568326174707
 21
825.50231425213565
  0
LINE
  8
_0-3_躯体と製品
  6
CONTINUOUS
 62
    3
 10
-276.15568326174593
 20
785.50231425213565
 11
-172.15568326174593
 21
785.50231425213565
  0
LINE
  8
_0-3_躯体と製品
  6
CONTINUOUS
 62
    3
 10
-271.95568326174612
 20
782.30231425213674
 11
-172.15568326174593
 21
782.30231425213674
  0
LINE
  8
_0-3_躯体と製品
  6
CONTINUOUS
 62
    7
 10
-306.15568326174593
 20
825.50231425213565
 11
-316.15568326174707
 21
815.5024142521354
  0
LINE
  8
_0-3_躯体と製品
  6
CONTINUOUS
 62
    3
 10
-272.95568326174703
 20
769.82231425213672
 11
-303.15568326174707
 21
769.82231425213672
  0
LINE
  8
_0-3_躯体と製品
  6
CONTINUOUS
 62
    3
 10
-305.95578326174609
 20
768.30241425213558
 11
-304.5584832617451
 21
769.69971425213566
  0
LINE
  8
_0-3_躯体と製品
  6
CONTINUOUS
 62
    3
 10
-303.15568326174707
 20
769.82231425213672
 11
-304.5584832617451
 21
769.69961425213546
  0
LINE
  8
_0-3_躯体と製品
  6
CONTINUOUS
 62
    3
 10
-271.95568326174612
 20
785.50231425213565
 11
-271.95568326174612
 21
772.30231425213674
  0
LINE
  8
_0-3_躯体と製品
  6
CONTINUOUS
 62
    3
 10
-276.15568326174593
 20
781.30231425213537
 11
-272.95568326174703
 21
781.30231425213537
  0
LINE
  8
_0-3_躯体と製品
  6
CONTINUOUS
 62
    3
 10
-271.81138326174596
 20
772.30231425213674
 11
-272.955783261747
 21
772.30231425213674
  0
ARC
  8
_0-3_躯体と製品
  6
CONTINUOUS
 62
    3
 10
-271.95568326174612
 20
781.30231425213537
 40
4.2000000000000002
 50
90
 51
180
  0
ARC
  8
_0-3_躯体と製品
  6
CONTINUOUS
 62
    3
 10
-271.95568326174612
 20
781.30231425213537
 40
1
 50
90
 51
180
  0
ARC
  8
_0-3_躯体と製品
  6
CONTINUOUS
 62
    3
 10
-271.81138326174596
 20
770.8801142521354
 40
1.42221
 50
16.191300000001309
 51
90.000000000000014
  0
LINE
  8
_0-3_躯体と製品
  6
CONTINUOUS
 62
    3
 10
-186.65568326174593
 20
769.0613142521363
 11
-180.15568326174503
 21
772.8141142521356
  0
LINE
  8
_0-3_躯体と製品
  6
CONTINUOUS
 62
    4
 10
-196.15568326174707
 20
807.50231425213656
 11
-171.15568326174593
 21
807.50231425213656
  0
LINE
  8
_0-3_躯体と製品
  6
CONTINUOUS
 62
    3
 10
-167.955783261747
 20
793.98231425213567
 11
-198.15574326174692
 21
793.98231425213567
  0
LINE
  8
_0-3_躯体と製品
  6
CONTINUOUS
 62
    3
 10
-167.95568326174703
 20
797.02231425213654
 11
-198.15568326174707
 21
797.02231425213654
  0
LINE
  8
_0-3_躯体と製品
  6
CONTINUOUS
 62
    4
 10
-233.01843326174708
 20
785.50231425213565
 11
-196.15568326174707
 21
822.36470425213543
  0
LINE
  8
_0-3_躯体と製品
  6
CONTINUOUS
 62
    4
 10
-196.15568326174707
 20
825.50231425213565
 11
-196.15568326174707
 21
807.50231425213656
  0
LINE
  8
_0-3_躯体と製品
  6
CONTINUOUS
 62
    3
 10
-200.9556432617469
 20
795.50231425213565
 11
-199.55839326174691
 21
794.10511425213531
  0
LINE
  8
_0-3_躯体と製品
  6
CONTINUOUS
 62
    3
 10
-200.95572326174693
 20
795.5024142521354
 11
-199.55845326174699
 21
796.89971425213548
  0
LINE
  8
_0-3_躯体と製品
  6
CONTINUOUS
 62
    3
 10
-198.15575326174599
 20
797.02231425213654
 11
-199.55844326174497
 21
796.89961425213573
  0
LINE
  8
_0-3_躯体と製品
  6
CONTINUOUS
 62
    3
 10
-198.15566326174508
 20
793.98231425213567
 11
-199.55838326174603
 21
794.10511425213531
  0
LINE
  8
_0-3_躯体と製品
  6
CONTINUOUS
 62
    4
 10
-176.44960326174601
 20
785.50231425213565
 11
-171.15568326174593
 21
790.79619425213446
  0
LINE
  8
_0-3_躯体と製品
  6
CONTINUOUS
 62
    4
 10
-171.15568326174593
 20
807.50231425213656
 11
-171.15568326174593
 21
786.50231425213656
  0
LINE
  8
_0-3_躯体と製品
  6
CONTINUOUS
 62
    3
 10
-171.15568326174593
 20
805.50231425213565
 11
-167.95568326174703
 21
805.50231425213565
  0
LINE
  8
_0-3_躯体と製品
  6
CONTINUOUS
 62
    3
 10
-167.95568326174703
 20
805.50231425213565
 11
-167.95568326174703
 21
786.50231425213656
  0
LINE
  8
_0-3_躯体と製品
  6
CONTINUOUS
 62
    3
 10
-180.15568326174503
 20
772.8141142521356
 11
-173.65568326174707
 21
769.0613142521363
  0
LINE
  8
_0-3_躯体と製品
  6
CONTINUOUS
 62
    3
 10
-172.15568326174593
 20
781.30231425213537
 11
-170.15568326174503
 21
781.30231425213537
  0
LINE
  8
_0-3_躯体と製品
  6
CONTINUOUS
 62
    3
 10
-172.15568326174593
 20
785.50231425213565
 11
-172.15568326174593
 21
781.30231425213537
  0
LINE
  8
_0-3_躯体と製品
  6
CONTINUOUS
 62
    3
 10
-166.81138326174596
 20
799.50231425213565
 11
-167.955783261747
 21
799.50231425213565
  0
LINE
  8
_0-3_躯体と製品
  6
CONTINUOUS
 62
    4
 10
-166.81138326174596
 20
791.5024142521354
 11
-167.955783261747
 21
791.5024142521354
  0
ARC
  8
_0-3_躯体と製品
  6
CONTINUOUS
 62
    3
 10
-172.15568326174593
 20
786.50231425213656
 40
1
 50
270
 51
0
  0
ARC
  8
_0-3_躯体と製品
  6
CONTINUOUS
 62
    3
 10
-172.15568326174593
 20
786.50231425213656
 40
4.2000000000000002
 50
270
 51
0
  0
ARC
  8
_0-3_躯体と製品
  6
CONTINUOUS
 62
    3
 10
-170.15568326174503
 20
778.30231425213537
 40
3
 50
0
 51
90
  0
ARC
  8
_0-3_躯体と製品
  6
CONTINUOUS
 62
    3
 10
-166.81138326174596
 20
798.08011425213567
 40
1.42221
 50
16.191300000001309
 51
90.000000000000014
  0
ARC
  8
_0-3_躯体と製品
  6
CONTINUOUS
 62
    3
 10
-166.81138326174596
 20
792.92461425213446
 40
1.42221
 50
270
 51
343.80899999999667
  0
ARC
  8
_0-3_躯体と製品
  6
CONTINUOUS
 62
    3
 10
-175.6890832617471
 20
795.50231425213565
 40
10.66659999999999
 50
343.80899999999667
 51
16.191300000001348
  0
LINE
  8
_0-3_躯体と製品
  6
CONTINUOUS
 62
    4
 10
-8.6530332617448948
 20
767.4974242521364
 11
-8.6530332617448948
 21
760.5048442521354
  0
LINE
  8
_0-3_躯体と製品
  6
CONTINUOUS
 62
    3
 10
-62.460153261747109
 20
704.22406425213535
 11
-62.460153261747109
 21
771.8462142521355
  0
ARC
  8
_0-3_躯体と製品
  6
CONTINUOUS
 62
    3
 10
-61.960093261744987
 20
768.95082425213673
 40
3.0004
 50
180
 51
260.40593200000461
  0
LINE
  8
_0-3_躯体と製品
  6
CONTINUOUS
 62
    4
 10
-48.658333261744929
 20
767.4974242521364
 11
-48.658333261744929
 21
760.5048442521354
  0
LINE
  8
_0-3_躯体と製品
  6
CONTINUOUS
 62
    4
 10
-60.959963261745088
 20
765.83790425213533
 11
-60.959963261745088
 21
780.20231425213638
  0
LINE
  8
_0-3_躯体と製品
  6
CONTINUOUS
 62
    4
 10
-58.659653261747053
 20
766.75127425213645
 11
-58.659653261747053
 21
780.20231425213638
  0
LINE
  8
_0-3_躯体と製品
  6
CONTINUOUS
 62
    3
 10
5.1487967382549868
 20
704.22406425213535
 11
5.1487967382549868
 21
771.8462142521355
  0
LINE
  8
_0-3_躯体と製品
  6
CONTINUOUS
 62
    3
 10
5.1487967382549868
 20
775.57670425213541
 11
5.1487967382549868
 21
766.82554425213652
  0
LINE
  8
_0-3_躯体と製品
  6
CONTINUOUS
 62
    3
 10
5.1487967382549868
 20
766.82554425213652
 11
5.1487967382549868
 21
775.57670425213541
  0
LINE
  8
_0-3_躯体と製品
  6
CONTINUOUS
 62
    3
 10
10.149456738253093
 20
775.57670425213541
 11
10.149456738253093
 21
766.82554425213652
  0
LINE
  8
_0-3_躯体と製品
  6
CONTINUOUS
 62
    3
 10
10.149456738253093
 20
766.82554425213652
 11
10.149456738253093
 21
775.57670425213541
  0
LINE
  8
_0-3_躯体と製品
  6
CONTINUOUS
 62
    3
 10
5.1487967382549868
 20
765.1003142521356
 11
5.1487967382549868
 21
777.30193425213452
  0
LINE
  8
_0-3_躯体と製品
  6
CONTINUOUS
 62
    4
 10
3.6485967382539002
 20
765.83790425213533
 11
3.6485967382539002
 21
780.20231425213638
  0
LINE
  8
_0-3_躯体と製品
  6
CONTINUOUS
 62
    4
 10
1.3482867382540462
 20
766.75127425213645
 11
1.3482867382540462
 21
780.20231425213638
  0
LINE
  8
_0-3_躯体と製品
  6
CONTINUOUS
 62
    3
 10
3.6485967382539002
 20
765.9754342521353
 11
3.6485967382539002
 21
777.30193425213452
  0
LINE
  8
_0-3_躯体と製品
  6
CONTINUOUS
 62
    7
 10
188.73286673825396
 20
762.50231425213656
 11
5.1443167382549291
 21
762.50231425213656
  0
ARC
  8
_0-3_躯体と製品
  6
CONTINUOUS
 62
    3
 10
-39.563353261745988
 20
664.83030425213542
 40
3.4410999999999992
 50
271.25475600000351
 51
327.67012200000238
  0
LINE
  8
_0-3_躯体と製品
  6
CONTINUOUS
 62
    3
 10
-16.305683261745116
 20
661.39003425213673
 11
-14.805683261746935
 21
662.99003425213573
  0
LINE
  8
_0-3_躯体と製品
  6
CONTINUOUS
 62
    3
 10
-41.005683261744934
 20
661.39003425213673
 11
-42.505683261746981
 21
662.99003425213573
  0
ARC
  8
_0-3_躯体と製品
  6
CONTINUOUS
 62
    3
 10
-17.748013261744973
 20
664.83030425213542
 40
3.4410999999999992
 50
212.32987799999739
 51
268.74524399999638
  0
ARC
  8
_0-3_躯体と製品
  6
CONTINUOUS
 62
    3
 10
-28.655683261745935
 20
682.19003425213555
 40
20.800000000000001
 50
247.38013500000261
 51
292.61986499999728
  0
LINE
  8
_0-3_躯体と製品
  6
CONTINUOUS
 62
    3
 10
-41.005683261744934
 20
582.50231425213656
 11
-16.305683261745116
 21
582.50231425213656
  0
ARC
  8
_0-3_躯体と製品
  6
CONTINUOUS
 62
    3
 10
-28.655683261745935
 20
561.70231425213547
 40
20.800000000000001
 50
67.380135000002696
 51
112.61986499999719
  0
ARC
  8
_0-3_躯体と製品
  6
CONTINUOUS
 62
    3
 10
-28.655683261745935
 20
593.30231425213537
 40
20.800000000000001
 50
247.38013500000261
 51
292.61986499999728
  0
ARC
  8
_0-3_躯体と製品
  6
CONTINUOUS
 62
    3
 10
-28.655683261745935
 20
543.50231425213565
 40
20.800000000000001
 50
67.380135000002696
 51
112.61986499999719
  0
LINE
  8
_0-3_躯体と製品
  6
CONTINUOUS
 62
    3
 10
-16.305683261745116
 20
661.39003425213673
 11
-41.005683261744934
 21
661.39003425213673
  0
LINE
  8
_0-3_躯体と製品
  6
CONTINUOUS
 62
    3
 10
-43.005683261746071
 20
572.50231425213656
 11
-14.305683261745116
 21
572.50231425213656
  0
LINE
  8
_0-3_躯体と製品
  6
CONTINUOUS
 62
    3
 10
-36.655683261745935
 20
661.39003425213673
 11
-36.655683261745935
 21
582.50231425213656
  0
ARC
  8
_0-3_躯体と製品
  6
CONTINUOUS
 62
    3
 10
-68.958993261745945
 20
563.49680425213569
 40
7.0514299999999999
 50
34.613929999999108
 51
83.458556999994187
  0
ARC
  8
_0-3_躯体と製品
  6
CONTINUOUS
 62
    3
 10
-39.563353261745988
 20
579.06204425213468
 40
3.4410999999999992
 50
32.329877999997528
 51
88.745243999996518
  0
LINE
  8
_0-3_躯体と製品
  6
CONTINUOUS
 62
    3
 10
-41.005683261744934
 20
582.50231425213656
 11
-42.505683261746981
 21
580.90231425213574
  0
ARC
  8
_0-3_躯体と製品
  6
CONTINUOUS
 62
    3
 10
-39.563353261745988
 20
575.94259425213636
 40
3.4410999999999992
 50
271.25475600000351
 51
327.67012200000238
  0
LINE
  8
_0-3_躯体と製品
  6
CONTINUOUS
 62
    3
 10
-36.655683261745935
 20
580.90231425213574
 11
-36.655683261745935
 21
574.10231425213556
  0
LINE
  8
_0-3_躯体と製品
  6
CONTINUOUS
 62
    3
 10
-42.505683261746981
 20
580.90231425213574
 11
-42.505683261746981
 21
574.10231425213556
  0
LINE
  8
_0-3_躯体と製品
  6
CONTINUOUS
 62
    3
 10
-41.005683261744934
 20
572.50231425213656
 11
-42.505683261746981
 21
574.10231425213556
  0
ARC
  8
_0-3_躯体と製品
  6
CONTINUOUS
 62
    3
 10
-39.563353261745988
 20
560.86204425213668
 40
3.4410999999999992
 50
32.329877999997528
 51
88.745243999996518
  0
LINE
  8
_0-3_躯体と製品
  6
CONTINUOUS
 62
    3
 10
-41.005683261744934
 20
564.30231425213537
 11
-42.505683261746981
 21
562.70231425213547
  0
LINE
  8
_0-3_躯体と製品
  6
CONTINUOUS
 62
    3
 10
-43.005683261746071
 20
567.50231425213656
 11
-43.005683261746071
 21
572.50231425213656
  0
LINE
  8
_0-3_躯体と製品
  6
CONTINUOUS
 62
    3
 10
-20.655683261747072
 20
661.39003425213673
 11
-20.655683261747072
 21
582.50231425213656
  0
LINE
  8
_0-3_躯体と製品
  6
CONTINUOUS
 62
    3
 10
-16.305683261745116
 20
582.50231425213656
 11
-14.805683261746935
 21
580.90231425213574
  0
ARC
  8
_0-3_躯体と製品
  6
CONTINUOUS
 62
    3
 10
-17.748013261744973
 20
579.06204425213468
 40
3.4410999999999992
 50
91.254756000003511
 51
147.67012200000244
  0
LINE
  8
_0-3_躯体と製品
  6
CONTINUOUS
 62
    3
 10
-20.655683261747072
 20
580.90231425213574
 11
-20.655683261747072
 21
574.10231425213556
  0
LINE
  8
_0-3_躯体と製品
  6
CONTINUOUS
 62
    3
 10
-14.805683261746935
 20
580.90231425213574
 11
-14.805683261746935
 21
574.10231425213556
  0
LINE
  8
_0-3_躯体と製品
  6
CONTINUOUS
 62
    3
 10
-16.305683261745116
 20
572.50231425213656
 11
-14.805683261746935
 21
574.10231425213556
  0
ARC
  8
_0-3_躯体と製品
  6
CONTINUOUS
 62
    3
 10
-17.748013261744973
 20
575.94259425213636
 40
3.4410999999999992
 50
212.32987799999739
 51
268.74524399999638
  0
LINE
  8
_0-3_躯体と製品
  6
CONTINUOUS
 62
    3
 10
-16.305683261745116
 20
564.30231425213537
 11
-14.805683261746935
 21
562.70231425213547
  0
ARC
  8
_0-3_躯体と製品
  6
CONTINUOUS
 62
    3
 10
-17.748013261744973
 20
560.86204425213668
 40
3.4410999999999992
 50
91.254756000003511
 51
147.67012200000244
  0
LINE
  8
_0-3_躯体と製品
  6
CONTINUOUS
 62
    3
 10
6.8443167382529282
 20
567.50231425213656
 11
6.8443167382529282
 21
564.30231425213537
  0
LINE
  8
_0-3_躯体と製品
  6
CONTINUOUS
 62
    3
 10
-14.305683261745116
 20
567.50231425213656
 11
-14.305683261745116
 21
572.50231425213656
  0
LINE
  8
_0-3_躯体と製品
  6
CONTINUOUS
 62
    3
 10
-29.537683261745997
 20
567.50231425213656
 11
-28.655683261745935
 21
572.50231425213656
  0
LINE
  8
_0-3_躯体と製品
  6
CONTINUOUS
 62
    3
 10
-28.52168326174592
 20
567.50231425213656
 11
-27.640683261746972
 21
572.50231425213656
  0
LINE
  8
_0-3_躯体と製品
  6
CONTINUOUS
 62
    3
 10
-42.657533261746039
 20
674.39003425213537
 11
-14.653833261746968
 21
674.39003425213537
  0
LINE
  8
_0-3_躯体と製品
  6
CONTINUOUS
 62
    3
 10
-14.653833261746968
 20
678.39056425213562
 11
-42.657533261746039
 21
678.39056425213562
  0
ARC
  8
_0-3_躯体と製品
  6
CONTINUOUS
 62
    3
 10
-28.655683261745935
 20
699.19056425213671
 40
20.800000000000001
 50
247.38013500000261
 51
292.61986499999728
  0
LINE
  8
_0-3_躯体と製品
  6
CONTINUOUS
 62
    4
 10
-48.865563261746047
 20
760.5048442521354
 11
-8.3457832617471013
 21
760.5048442521354
  0
LINE
  8
_0-3_躯体と製品
  6
CONTINUOUS
 62
    4
 10
-46.608063261746111
 20
758.51119425213551
 11
-10.603293261746103
 21
758.51119425213551
  0
LINE
  8
_0-3_躯体と製品
  6
CONTINUOUS
 62
    4
 10
-53.658993261745991
 20
695.19106425213636
 11
-3.6523732617470159
 21
695.19106425213636
  0
LINE
  8
_0-3_躯体と製品
  6
CONTINUOUS
 62
    4
 10
-38.607003261746058
 20
710.50484425213449
 11
-18.604353261745928
 21
710.50484425213449
  0
LINE
  8
_0-3_躯体と製品
  6
CONTINUOUS
 62
    4
 10
-55.959293261746097
 20
692.89075425213537
 11
-1.3520632617469346
 21
692.89075425213537
  0
LINE
  8
_0-3_躯体と製品
  6
CONTINUOUS
 62
    4
 10
-54.159063261746041
 20
691.39056425213653
 11
-3.1523032617460558
 21
691.39056425213653
  0
LINE
  8
_0-3_躯体と製品
  6
CONTINUOUS
 62
    3
 10
-28.653833261744921
 20
678.39056425213562
 11
-29.725833261747084
 21
674.39056425213562
  0
LINE
  8
_0-3_躯体と製品
  6
CONTINUOUS
 62
    4
 10
-60.959963261745088
 20
759.07580425213541
 11
-60.959963261745088
 21
697.89142425213572
  0
LINE
  8
_0-3_躯体と製品
  6
CONTINUOUS
 62
    4
 10
-58.659653261747053
 20
758.16243425213656
 11
-58.659653261747053
 21
700.1917242521356
  0
ARC
  8
_0-3_躯体と製品
  6
CONTINUOUS
 62
    4
 10
-48.608323261744999
 20
715.50550425213555
 40
5.000659999999999
 50
180
 51
270
  0
ARC
  8
_0-3_躯体と製品
  6
CONTINUOUS
 62
    4
 10
-46.608063261746111
 20
717.50576425213535
 40
5.000659999999999
 50
180
 51
270
  0
LINE
  8
_0-3_躯体と製品
  6
CONTINUOUS
 62
    3
 10
-36.655683261745935
 20
674.39003425213537
 11
-36.655683261745935
 21
662.99003425213573
  0
LINE
  8
_0-3_躯体と製品
  6
CONTINUOUS
 62
    3
 10
-42.505683261746981
 20
662.99003425213573
 11
-42.505683261746981
 21
674.39003425213537
  0
LINE
  8
_0-3_躯体と製品
  6
CONTINUOUS
 62
    3
 10
-42.657533261746039
 20
678.39056425213562
 11
-42.657533261746039
 21
674.39003425213537
  0
ARC
  8
_0-3_躯体と製品
  6
CONTINUOUS
 62
    3
 10
-39.563353261745988
 20
681.83083425213567
 40
3.4410999999999992
 50
271.25475600000351
 51
327.67012200000238
  0
LINE
  8
_0-3_躯体と製品
  6
CONTINUOUS
 62
    3
 10
-36.655683261745935
 20
691.39056425213653
 11
-36.655683261745935
 21
679.99056425213553
  0
LINE
  8
_0-3_躯体と製品
  6
CONTINUOUS
 62
    3
 10
-42.505683261746981
 20
679.99056425213553
 11
-42.505683261746981
 21
691.39056425213653
  0
LINE
  8
_0-3_躯体と製品
  6
CONTINUOUS
 62
    3
 10
-41.005683261744934
 20
678.39056425213562
 11
-42.505683261746981
 21
679.99056425213553
  0
ARC
  8
_0-3_躯体と製品
  6
CONTINUOUS
 62
    3
 10
-60.959963261745088
 20
704.22406425213535
 40
1.5002
 50
180
 51
270
  0
LINE
  8
_0-3_躯体と製品
  6
CONTINUOUS
 62
    4
 10
-38.607003261746058
 20
710.50484425213449
 11
-48.608323261744999
 21
710.50484425213449
  0
LINE
  8
_0-3_躯体と製品
  6
CONTINUOUS
 62
    4
 10
-38.607003261746058
 20
712.50510425213565
 11
-46.608063261746111
 21
712.50510425213565
  0
LINE
  8
_0-3_躯体と製品
  6
CONTINUOUS
 62
    4
 10
-38.607003261746058
 20
710.50484425213449
 11
-38.607003261746058
 21
712.50510425213565
  0
ARC
  8
_0-3_躯体と製品
  6
CONTINUOUS
 62
    4
 10
-55.959293261746097
 20
697.89142425213572
 40
5.000659999999999
 50
180
 51
270
  0
ARC
  8
_0-3_躯体と製品
  6
CONTINUOUS
 62
    4
 10
-53.658993261745991
 20
700.1917242521356
 40
5.000659999999999
 50
180
 51
270
  0
ARC
  8
_0-3_躯体と製品
  6
CONTINUOUS
 62
    4
 10
-54.159063261746041
 20
692.89075425213537
 40
1.5002
 50
180
 51
270
  0
ARC
  8
_0-3_躯体と製品
  6
CONTINUOUS
 62
    4
 10
-63.946263261745116
 20
762.45685425213537
 40
6.8110400000000002
 50
320.91229999999882
 51
39.08770000000122
  0
ARC
  8
_0-3_躯体と製品
  6
CONTINUOUS
 62
    4
 10
-63.946263261745116
 20
762.45685425213537
 40
4.5110400000000004
 50
311.45244999999773
 51
48.547550000002239
  0
LINE
  8
_0-3_躯体と製品
  6
CONTINUOUS
 62
    3
 10
-53.658993261745991
 20
765.50352425213555
 11
-48.658333261744929
 21
765.50352425213555
  0
ARC
  8
_0-3_躯体と製品
  6
CONTINUOUS
 62
    4
 10
-48.608323261744999
 20
755.51079425213561
 40
5.000659999999999
 50
90
 51
180
  0
ARC
  8
_0-3_躯体と製品
  6
CONTINUOUS
 62
    4
 10
-46.608063261746111
 20
753.51053425213536
 40
5.000659999999999
 50
90
 51
180
  0
LINE
  8
_0-3_躯体と製品
  6
CONTINUOUS
 62
    4
 10
-58.09945326174693
 20
765.95043425213566
 11
-53.658993261745991
 21
765.95043425213566
  0
LINE
  8
_0-3_躯体と製品
  6
CONTINUOUS
 62
    4
 10
-51.608723261746036
 20
717.50576425213535
 11
-51.608723261746036
 21
753.51053425213536
  0
LINE
  8
_0-3_躯体と製品
  6
CONTINUOUS
 62
    4
 10
-53.658993261745991
 20
765.95043425213566
 11
-53.658993261745991
 21
715.32372425213566
  0
LINE
  8
_0-3_躯体と製品
  6
CONTINUOUS
 62
    4
 10
-53.658993261745991
 20
762.50339425213565
 11
-48.658333261744929
 21
762.50339425213565
  0
ARC
  8
_0-3_躯体と製品
  6
CONTINUOUS
 62
    4
 10
-8.6030232617449656
 20
715.50550425213555
 40
5.000659999999999
 50
270
 51
0
  0
ARC
  8
_0-3_躯体と製品
  6
CONTINUOUS
 62
    4
 10
-10.603293261746103
 20
717.50576425213535
 40
5.000659999999999
 50
270
 51
0
  0
LINE
  8
_0-3_躯体と製品
  6
CONTINUOUS
 62
    4
 10
3.6485967382539002
 20
759.07580425213541
 11
3.6485967382539002
 21
697.89142425213572
  0
LINE
  8
_0-3_躯体と製品
  6
CONTINUOUS
 62
    4
 10
1.3482867382540462
 20
758.16243425213656
 11
1.3482867382540462
 21
700.1917242521356
  0
LINE
  8
_0-3_躯体と製品
  6
CONTINUOUS
 62
    3
 10
-20.655683261747072
 20
674.39003425213537
 11
-20.655683261747072
 21
662.99003425213573
  0
LINE
  8
_0-3_躯体と製品
  6
CONTINUOUS
 62
    3
 10
-14.805683261746935
 20
674.39003425213537
 11
-14.805683261746935
 21
662.99003425213573
  0
LINE
  8
_0-3_躯体と製品
  6
CONTINUOUS
 62
    3
 10
-14.653833261746968
 20
674.39003425213537
 11
-14.653833261746968
 21
678.39056425213562
  0
LINE
  8
_0-3_躯体と製品
  6
CONTINUOUS
 62
    3
 10
-20.655683261747072
 20
691.39056425213653
 11
-20.655683261747072
 21
679.99056425213553
  0
LINE
  8
_0-3_躯体と製品
  6
CONTINUOUS
 62
    3
 10
-14.805683261746935
 20
691.39056425213653
 11
-14.805683261746935
 21
679.99056425213553
  0
LINE
  8
_0-3_躯体と製品
  6
CONTINUOUS
 62
    3
 10
-16.305683261745116
 20
678.39056425213562
 11
-14.805683261746935
 21
679.99056425213553
  0
ARC
  8
_0-3_躯体と製品
  6
CONTINUOUS
 62
    3
 10
-17.748013261744973
 20
681.83083425213567
 40
3.4410999999999992
 50
212.32987799999739
 51
268.74524399999638
  0
LINE
  8
_0-3_躯体と製品
  6
CONTINUOUS
 62
    4
 10
-8.6030232617449656
 20
710.50484425213449
 11
-18.604353261745928
 21
710.50484425213449
  0
LINE
  8
_0-3_躯体と製品
  6
CONTINUOUS
 62
    4
 10
-10.603293261746103
 20
712.50510425213565
 11
-18.604353261745928
 21
712.50510425213565
  0
LINE
  8
_0-3_躯体と製品
  6
CONTINUOUS
 62
    4
 10
-18.604353261745928
 20
712.50510425213565
 11
-18.604353261745928
 21
710.50484425213449
  0
ARC
  8
_0-3_躯体と製品
  6
CONTINUOUS
 62
    4
 10
-3.6523732617470159
 20
700.1917242521356
 40
5.000659999999999
 50
270
 51
0
  0
ARC
  8
_0-3_躯体と製品
  6
CONTINUOUS
 62
    3
 10
3.6485967382539002
 20
704.22406425213535
 40
1.5002
 50
270
 51
0
  0
ARC
  8
_0-3_躯体と製品
  6
CONTINUOUS
 62
    4
 10
-1.3520632617469346
 20
697.89142425213572
 40
5.000659999999999
 50
270
 51
0
  0
ARC
  8
_0-3_躯体と製品
  6
CONTINUOUS
 62
    4
 10
-3.1523032617460558
 20
692.89075425213537
 40
1.5002
 50
270
 51
0
  0
LINE
  8
_0-3_躯体と製品
  6
CONTINUOUS
 62
    3
 10
-27.100833261745947
 20
678.39056425213562
 11
-28.172833261746064
 21
674.39056425213562
  0
LINE
  8
_0-3_躯体と製品
  6
CONTINUOUS
 62
    3
 10
9.5493767382540682
 20
766.20046425213673
 11
5.7488767382540118
 21
766.20046425213673
  0
LINE
  8
_0-3_躯体と製品
  6
CONTINUOUS
 62
    3
 10
-8.6530332617448948
 20
765.50352425213555
 11
-3.6523732617470159
 21
765.50352425213555
  0
ARC
  8
_0-3_躯体と製品
  6
CONTINUOUS
 62
    4
 10
6.6348967382539286
 20
762.45685425213537
 40
6.8110400000000002
 50
140.91229999999874
 51
219.08770000000123
  0
ARC
  8
_0-3_躯体と製品
  6
CONTINUOUS
 62
    4
 10
6.6348967382539286
 20
762.45685425213537
 40
4.5110400000000004
 50
131.45244999999773
 51
228.54755000000219
  0
ARC
  8
_0-3_躯体と製品
  6
CONTINUOUS
 62
    4
 10
-8.6030232617449656
 20
755.51079425213561
 40
5.000659999999999
 50
0
 51
90
  0
ARC
  8
_0-3_躯体と製品
  6
CONTINUOUS
 62
    4
 10
-10.603293261746103
 20
753.51053425213536
 40
5.000659999999999
 50
0
 51
90
  0
LINE
  8
_0-3_躯体と製品
  6
CONTINUOUS
 62
    4
 10
-5.6026332617459502
 20
753.51053425213536
 11
-5.6026332617459502
 21
717.50576425213535
  0
LINE
  8
_0-3_躯体と製品
  6
CONTINUOUS
 62
    4
 10
-3.6523732617470159
 20
716.43562425213645
 11
-3.6523732617470159
 21
714.79540425213531
  0
LINE
  8
_0-3_躯体と製品
  6
CONTINUOUS
 62
    4
 10
-8.6530332617448948
 20
762.50339425213565
 11
-3.6523732617470159
 21
762.50339425213565
  0
LINE
  8
_0-3_躯体と製品
  6
CONTINUOUS
 62
    4
 10
0.7643667382540115
 20
765.9104242521355
 11
-3.6523732617470159
 21
765.9104242521355
  0
LINE
  8
_0-3_躯体と製品
  6
CONTINUOUS
 62
    4
 10
-3.6523732617470159
 20
716.2538542521354
 11
-3.6523732617470159
 21
765.9104242521355
  0
LINE
  8
_0-3_躯体と製品
  6
CONTINUOUS
 62
    3
 10
5.1487967382549868
 20
766.82554425213652
 11
5.7488767382540118
 21
766.20046425213673
  0
LINE
  8
_0-3_躯体と製品
  6
CONTINUOUS
 62
    3
 10
10.149456738253093
 20
766.82554425213652
 11
9.5493767382540682
 21
766.20046425213673
  0
LINE
  8
_0-3_躯体と製品
  6
CONTINUOUS
 62
    4
 10
-48.658333261744929
 20
767.4974242521364
 11
-8.6530332617448948
 21
767.4974242521364
  0
LINE
  8
_0-3_躯体と製品
  6
CONTINUOUS
 62
    3
 10
-60.959963261745088
 20
773.70145425213536
 11
1.3482867382540462
 21
773.70145425213536
  0
LINE
  8
_0-3_躯体と製品
  6
CONTINUOUS
 62
    3
 10
-60.959963261745088
 20
768.70079425213567
 11
1.3482867382540462
 21
768.70079425213567
  0
LINE
  8
_0-3_躯体と製品
  6
CONTINUOUS
 62
    3
 10
-81.399683261746986
 20
825.50231425213565
 11
-81.399683261746986
 21
819.50231425213565
  0
LINE
  8
_0-3_躯体と製品
  6
CONTINUOUS
 62
    3
 10
-81.399683261746986
 20
813.50231425213565
 11
-76.399683261746986
 21
813.50231425213565
  0
LINE
  8
_0-3_躯体と製品
  6
CONTINUOUS
 62
    3
 10
-81.399683261746986
 20
813.50231425213565
 11
-81.399683261746986
 21
807.50231425213656
  0
LINE
  8
_0-3_躯体と製品
  6
CONTINUOUS
 62
    3
 10
-76.399683261746986
 20
819.50231425213565
 11
-76.399683261746986
 21
813.50231425213565
  0
LINE
  8
_0-3_躯体と製品
  6
CONTINUOUS
 62
    3
 10
-81.399683261746986
 20
819.50231425213565
 11
-76.399683261746986
 21
819.50231425213565
  0
ARC
  8
_0-3_躯体と製品
  6
CONTINUOUS
 62
    3
 10
-60.959963261745088
 20
771.8462142521355
 40
1.5002
 50
90
 51
180
  0
LINE
  8
_0-3_躯体と製品
  6
CONTINUOUS
 62
    3
 10
-64.960493261746024
 20
773.45142425213567
 11
-64.960493261746024
 21
768.95082425213673
  0
ARC
  8
_0-3_躯体と製品
  6
CONTINUOUS
 62
    3
 10
-61.960093261744987
 20
773.45142425213567
 40
3.0004
 50
90
 51
180
  0
LINE
  8
_0-3_躯体と製品
  6
CONTINUOUS
 62
    3
 10
-60.959963261745088
 20
776.45182425213648
 11
-61.960093261744987
 21
776.45182425213648
  0
LINE
  8
_0-3_躯体と製品
  6
CONTINUOUS
 62
    4
 10
-60.959963261745088
 20
780.20231425213638
 11
-58.659653261747053
 21
780.20231425213638
  0
LINE
  8
_0-3_躯体と製品
  6
CONTINUOUS
 62
    3
 10
38.600316738253014
 20
825.50231425213565
 11
38.600316738253014
 21
819.50231425213565
  0
LINE
  8
_0-3_躯体と製品
  6
CONTINUOUS
 62
    3
 10
9.5493767382540682
 20
768.70079425213567
 11
5.7488767382540118
 21
768.70079425213567
  0
LINE
  8
_0-3_躯体と製品
  6
CONTINUOUS
 62
    3
 10
9.5493767382540682
 20
773.70145425213536
 11
5.7488767382540118
 21
773.70145425213536
  0
LINE
  8
_0-3_躯体と製品
  6
CONTINUOUS
 62
    3
 10
9.5493767382540682
 20
776.20178425213567
 11
5.7488767382540118
 21
776.20178425213567
  0
LINE
  8
_0-3_躯体と製品
  6
CONTINUOUS
 62
    3
 10
-5.9526732617468952
 20
768.20073425213536
 11
-5.9526732617468952
 21
774.20152425213541
  0
LINE
  8
_0-3_躯体と製品
  6
CONTINUOUS
 62
    3
 10
-5.9526732617468952
 20
768.20073425213536
 11
-6.4527432617469458
 21
768.70079425213567
  0
LINE
  8
_0-3_躯体と製品
  6
CONTINUOUS
 62
    3
 10
-5.9526732617468952
 20
774.20152425213541
 11
-6.4527432617469458
 21
773.70145425213536
  0
LINE
  8
_0-3_躯体と製品
  6
CONTINUOUS
 62
    3
 10
-5.9526732617468952
 20
774.20152425213541
 11
1.3482867382540462
 21
774.20152425213541
  0
LINE
  8
_0-3_躯体と製品
  6
CONTINUOUS
 62
    3
 10
1.3482867382540462
 20
768.20073425213536
 11
-5.9526732617468952
 21
768.20073425213536
  0
ARC
  8
_0-3_躯体と製品
  6
CONTINUOUS
 62
    3
 10
3.6485967382539002
 20
771.8462142521355
 40
1.5002
 50
0
 51
90
  0
LINE
  8
_0-3_躯体と製品
  6
CONTINUOUS
 62
    3
 10
5.1487967382549868
 20
775.57670425213541
 11
5.7488767382540118
 21
776.20178425213567
  0
ARC
  8
_0-3_躯体と製品
  6
CONTINUOUS
 62
    3
 10
6.7510867382529796
 20
767.45063425213561
 40
1.6022999999999989
 50
128.71798799999499
 51
180
  0
ARC
  8
_0-3_躯体と製品
  6
CONTINUOUS
 62
    3
 10
10.65785673825394
 20
771.20112425213551
 40
5.509059999999999
 50
153.00853300000171
 51
206.99146699999821
  0
ARC
  8
_0-3_躯体と製品
  6
CONTINUOUS
 62
    3
 10
6.7510867382529796
 20
774.95162425213653
 40
1.6022999999999989
 50
180
 51
231.28201200000493
  0
LINE
  8
_0-3_躯体と製品
  6
CONTINUOUS
 62
    3
 10
5.1487967382549868
 20
777.30193425213452
 11
3.6485967382539002
 21
777.30193425213452
  0
LINE
  8
_0-3_躯体と製品
  6
CONTINUOUS
 62
    4
 10
1.3482867382540462
 20
780.20231425213638
 11
3.6485967382539002
 21
780.20231425213638
  0
LINE
  8
_0-3_躯体と製品
  6
CONTINUOUS
 62
    3
 10
10.149456738253093
 20
773.70145425213536
 11
19.050636738252933
 21
773.70145425213536
  0
LINE
  8
_0-3_躯体と製品
  6
CONTINUOUS
 62
    3
 10
10.149456738253093
 20
768.70079425213567
 11
19.050636738252933
 21
768.70079425213567
  0
LINE
  8
_0-3_躯体と製品
  6
CONTINUOUS
 62
    3
 10
10.149456738253093
 20
774.20152425213541
 11
19.050636738252933
 21
774.20152425213541
  0
LINE
  8
_0-3_躯体と製品
  6
CONTINUOUS
 62
    3
 10
19.050636738252933
 20
768.20073425213536
 11
10.149456738253093
 21
768.20073425213536
  0
LINE
  8
_0-3_躯体と製品
  6
CONTINUOUS
 62
    3
 10
19.050636738252933
 20
774.20152425213541
 11
19.050636738252933
 21
768.20073425213536
  0
LINE
  8
_0-3_躯体と製品
  6
CONTINUOUS
 62
    3
 10
10.149456738253093
 20
775.57670425213541
 11
9.5493767382540682
 21
776.20178425213567
  0
ARC
  8
_0-3_躯体と製品
  6
CONTINUOUS
 62
    3
 10
8.5471567382530793
 20
767.45063425213561
 40
1.6022999999999989
 50
0
 51
51.282012000004997
  0
ARC
  8
_0-3_躯体と製品
  6
CONTINUOUS
 62
    3
 10
4.6403967382539122
 20
771.20112425213551
 40
5.509059999999999
 50
333.00853300000171
 51
26.991466999998245
  0
ARC
  8
_0-3_躯体と製品
  6
CONTINUOUS
 62
    3
 10
8.5471567382530793
 20
774.95162425213653
 40
1.6022999999999989
 50
308.71798799999499
 51
0
  0
LINE
  8
_0-3_躯体と製品
  6
CONTINUOUS
 62
    3
 10
38.600316738253014
 20
813.50231425213565
 11
43.600316738253014
 21
813.50231425213565
  0
LINE
  8
_0-3_躯体と製品
  6
CONTINUOUS
 62
    3
 10
38.600316738253014
 20
813.50231425213565
 11
38.600316738253014
 21
807.50231425213656
  0
LINE
  8
_0-3_躯体と製品
  6
CONTINUOUS
 62
    3
 10
43.600316738253014
 20
819.50231425213565
 11
43.600316738253014
 21
813.50231425213565
  0
LINE
  8
_0-3_躯体と製品
  6
CONTINUOUS
 62
    3
 10
38.600316738253014
 20
819.50231425213565
 11
43.600316738253014
 21
819.50231425213565
  0
LINE
  8
_0-3_躯体と製品
  6
CONTINUOUS
 62
    7
 10
425.56232673825298
 20
-168.69968574786458
 11
425.56232673825298
 21
489.50031425213569
  0
LINE
  8
_0-3_躯体と製品
  6
CONTINUOUS
 62
    7
 10
468.2623267382528
 20
-168.69968574786458
 11
468.2623267382528
 21
489.50031425213569
  0
LINE
  8
_0-3_躯体と製品
  6
CONTINUOUS
 62
    7
 10
1675.562326738253
 20
-168.69968574786458
 11
1675.562326738253
 21
489.50031425213569
  0
LINE
  8
_0-3_躯体と製品
  6
CONTINUOUS
 62
    7
 10
1718.2623267382551
 20
-168.69968574786458
 11
1718.2623267382551
 21
489.50031425213569
  0
LINE
  8
_0-3_躯体と製品
  6
PLINE3
 62
    3
 10
1575.562326738253
 20
525.50231425213565
 11
1575.562326738253
 21
-144.49768574786458
  0
LINE
  8
_0-3_躯体と製品
  6
PLINE3
 62
    3
 10
1575.562326738253
 20
525.50231425213565
 11
1575.562326738253
 21
-144.49768574786458
  0
LINE
  8
_0-3_躯体と製品
  6
PLINE3
 62
    3
 10
568.2623267382528
 20
-144.49768574786458
 11
568.2623267382528
 21
525.50231425213565
  0
LINE
  8
_0-3_躯体と製品
  6
CONTINUOUS
 62
    7
 10
1860.952606738254
 20
-174.49768574786458
 11
287.94010673825505
 21
-174.49768574786458
  0
LINE
  8
_0-3_躯体と製品
  6
PLINE3
 62
    3
 10
633.2623267382528
 20
-144.49768574786458
 11
1510.562326738253
 21
-144.49768574786458
  0
LINE
  8
_0-3_躯体と製品
  6
CONTINUOUS
 62
    3
 10
396.91232673825289
 20
-171.69968574786344
 11
496.91232673825289
 21
-171.69968574786344
  0
LINE
  8
_0-3_躯体と製品
  6
CONTINUOUS
 62
    3
 10
425.56232673825298
 20
-168.69968574786458
 11
468.2623267382528
 21
-168.69968574786458
  0
ARC
  8
_0-3_躯体と製品
  6
CONTINUOUS
 62
    3
 10
425.56232673825298
 20
-171.69968574786344
 40
3
 50
90
 51
180
  0
LINE
  8
_0-3_躯体と製品
  6
CONTINUOUS
 62
    3
 10
396.91232673825289
 20
-171.69968574786344
 11
396.91232673825289
 21
-174.4996857478634
  0
ARC
  8
_0-3_躯体と製品
  6
CONTINUOUS
 62
    3
 10
468.2623267382528
 20
-171.69968574786344
 40
3
 50
0
 51
90
  0
LINE
  8
_0-3_躯体と製品
  6
CONTINUOUS
 62
    3
 10
496.91232673825289
 20
-171.69968574786344
 11
496.91232673825289
 21
-174.4996857478634
  0
LINE
  8
_0-3_躯体と製品
  6
CONTINUOUS
 62
    3
 10
546.29432673825295
 20
-274.04768574786453
 11
603.76932673825286
 21
-174.49768574786458
  0
LINE
  8
_0-3_躯体と製品
  6
CONTINUOUS
 62
    3
 10
538.21232673825398
 20
-274.04768574786453
 11
595.68732673825389
 21
-174.49768574786458
  0
LINE
  8
_0-3_躯体と製品
  6
CONTINUOUS
 62
    3
 10
554.37832673825415
 20
-274.04768574786453
 11
611.85232673825385
 21
-174.49768574786458
  0
LINE
  8
_0-3_躯体と製品
  6
PLINE3
 62
    3
 10
603.51582673825396
 20
-144.49768574786458
 11
568.2623267382528
 21
-144.49768574786458
  0
LINE
  8
_0-3_躯体と製品
  6
PLINE3
 62
    3
 10
633.2623267382528
 20
-114.49768574786458
 11
633.2623267382528
 21
-174.49768574786458
  0
LINE
  8
_0-3_躯体と製品
  6
PLINE3
 62
    3
 10
603.2623267382528
 20
-114.49768574786458
 11
603.76932673825286
 21
-174.49768574786458
  0
LINE
  8
_0-3_躯体と製品
  6
PLINE3
 62
    3
 10
603.2623267382528
 20
-114.49768574786458
 11
633.2623267382528
 21
-114.49768574786458
  0
LINE
  8
_0-3_躯体と製品
  6
CONTINUOUS
 62
    3
 10
1046.2923267382539
 20
-274.04768574786453
 11
1103.7723267382539
 21
-174.49768574786458
  0
LINE
  8
_0-3_躯体と製品
  6
CONTINUOUS
 62
    3
 10
1038.212326738254
 20
-274.04768574786453
 11
1095.682326738252
 21
-174.49768574786458
  0
LINE
  8
_0-3_躯体と製品
  6
CONTINUOUS
 62
    3
 10
1054.3823267382541
 20
-274.04768574786453
 11
1111.8523267382539
 21
-174.49768574786458
  0
LINE
  8
_0-3_躯体と製品
  6
CONTINUOUS
 62
    3
 10
1646.9123267382529
 20
-171.69968574786344
 11
1746.9123267382529
 21
-171.69968574786344
  0
LINE
  8
_0-3_躯体と製品
  6
CONTINUOUS
 62
    3
 10
1554.3823267382541
 20
-274.04768574786453
 11
1611.8523267382539
 21
-174.49768574786458
  0
LINE
  8
_0-3_躯体と製品
  6
CONTINUOUS
 62
    3
 10
1546.2923267382539
 20
-274.04768574786453
 11
1603.7723267382539
 21
-174.49768574786458
  0
LINE
  8
_0-3_躯体と製品
  6
CONTINUOUS
 62
    3
 10
1538.212326738254
 20
-274.04768574786453
 11
1595.682326738252
 21
-174.49768574786458
  0
LINE
  8
_0-3_躯体と製品
  6
PLINE3
 62
    3
 10
1575.562326738253
 20
-144.49768574786458
 11
1540.562326738253
 21
-144.49768574786458
  0
LINE
  8
_0-3_躯体と製品
  6
PLINE3
 62
    3
 10
1510.562326738253
 20
-114.49768574786458
 11
1510.562326738253
 21
-174.49768574786458
  0
LINE
  8
_0-3_躯体と製品
  6
PLINE3
 62
    3
 10
1540.562326738253
 20
-114.49768574786458
 11
1540.562326738253
 21
-174.49768574786458
  0
LINE
  8
_0-3_躯体と製品
  6
PLINE3
 62
    3
 10
1510.562326738253
 20
-114.49768574786458
 11
1540.562326738253
 21
-114.49768574786458
  0
LINE
  8
_0-3_躯体と製品
  6
CONTINUOUS
 62
    3
 10
1675.562326738253
 20
-168.69968574786458
 11
1718.2623267382551
 21
-168.69968574786458
  0
ARC
  8
_0-3_躯体と製品
  6
CONTINUOUS
 62
    3
 10
1675.562326738253
 20
-171.69968574786344
 40
3
 50
90
 51
180
  0
LINE
  8
_0-3_躯体と製品
  6
CONTINUOUS
 62
    3
 10
1646.9123267382529
 20
-171.69968574786344
 11
1646.9123267382529
 21
-174.4996857478634
  0
ARC
  8
_0-3_躯体と製品
  6
CONTINUOUS
 62
    3
 10
1718.2623267382551
 20
-171.69968574786344
 40
3
 50
0
 51
90
  0
LINE
  8
_0-3_躯体と製品
  6
CONTINUOUS
 62
    3
 10
1746.9123267382529
 20
-171.69968574786344
 11
1746.9123267382529
 21
-174.4996857478634
  0
LINE
  8
_0-3_躯体と製品
  6
PLINE3
 62
    3
 10
568.2623267382528
 20
525.50231425213565
 11
1575.562326738253
 21
525.50231425213565
  0
LINE
  8
_0-3_躯体と製品
  6
CONTINUOUS
 62
    7
 10
471.91232673825289
 20
712.50231425213656
 11
1671.9123267382529
 21
712.50231425213656
  0
LINE
  8
_0-3_躯体と製品
  6
CONTINUOUS
 62
    7
 10
471.91232673825289
 20
762.50231425213656
 11
1671.9123267382529
 21
762.50231425213656
  0
LINE
  8
_0-3_躯体と製品
  6
CONTINUOUS
 62
    7
 10
1860.952606738254
 20
825.50231425213565
 11
287.94010673825505
 21
825.50231425213565
  0
LINE
  8
_0-3_躯体と製品
  6
CONTINUOUS
 62
    3
 10
1860.952606738254
 20
807.50231425213656
 11
287.94010673825505
 21
807.50231425213656
  0
LINE
  8
_0-3_躯体と製品
  6
CONTINUOUS
 62
    3
 10
1860.952606738254
 20
792.50231425213656
 11
287.94010673825505
 21
792.50231425213656
  0
TEXT
  8
_0-4_文字-記号
 62
    7
 10
602.73312673825421
 20
188.75767425213644
 40
50
 41
0.8
 50
0
  1
支持脚　ステ－ジ用
  0
LINE
  8
_0-4_文字-記号
  6
CONTINUOUS
 62
    3
 10
595.27875673825383
 20
183.75762425213543
 11
883.08739673825494
 21
183.75762425213543
  0
LINE
  8
_0-3_躯体と製品
  6
CONTINUOUS
 62
    3
 10
438.91232673825289
 20
576.92531425213542
 11
438.91232673825289
 21
531.7003142521346
  0
LINE
  8
_0-3_躯体と製品
  6
CONTINUOUS
 62
    3
 10
454.91232673825516
 20
663.67521425213567
 11
454.91232673825516
 21
531.62731425213565
  0
LINE
  8
_0-3_躯体と製品
  6
CONTINUOUS
 62
    3
 10
438.91232673825289
 20
663.67521425213567
 11
438.91232673825289
 21
531.7003142521346
  0
LINE
  8
_0-4_文字-記号
  6
CONTINUOUS
 62
    3
 10
464.87732673825394
 20
360.59531425213549
 11
595.27875673825383
 21
183.75762425213543
  0
LINE
  8
_0-4_文字-記号
  6
CONTINUOUS
 62
    3
 10
464.87732673825394
 20
360.59531425213549
 11
472.72300673825521
 21
341.53108425213554
  0
LINE
  8
_0-3_躯体と製品
  6
CONTINUOUS
 62
    3
 10
424.36132673825387
 20
455.41431425213455
 11
424.36132673825387
 21
425.81431425213555
  0
LINE
  8
_0-3_躯体と製品
  6
CONTINUOUS
 62
    3
 10
413.56132673825277
 20
424.61431425213573
 11
425.56132673825277
 21
424.61431425213573
  0
LINE
  8
_0-3_躯体と製品
  6
CONTINUOUS
 62
    3
 10
413.56132673825277
 20
425.81431425213555
 11
424.36132673825387
 21
425.81431425213555
  0
LINE
  8
_0-3_躯体と製品
  6
CONTINUOUS
 62
    3
 10
413.47832673825314
 20
425.81431425213555
 11
413.47832673825314
 21
424.61431425213573
  0
LINE
  8
_0-4_文字-記号
  6
CONTINUOUS
 62
    3
 10
464.87732673825394
 20
360.59531425213549
 11
480.77139673825377
 21
347.46601425213544
  0
LINE
  8
_0-3_躯体と製品
  6
CONTINUOUS
 62
    3
 10
425.71232673825398
 20
500.70031425213642
 11
446.91232673825289
 21
500.70031425213642
  0
LINE
  8
_0-3_躯体と製品
  6
CONTINUOUS
 62
    3
 10
421.71232673825307
 20
489.50031425213569
 11
472.11232673825316
 21
489.50031425213569
  0
LINE
  8
_0-3_躯体と製品
  6
CONTINUOUS
 62
    3
 10
413.56132673825277
 20
456.61431425213664
 11
425.56132673825277
 21
456.61431425213664
  0
LINE
  8
_0-3_躯体と製品
  6
CONTINUOUS
 62
    3
 10
413.56132673825277
 20
455.41431425213455
 11
424.36132673825387
 21
455.41431425213455
  0
LINE
  8
_0-3_躯体と製品
  6
CONTINUOUS
 62
    3
 10
413.47832673825314
 20
456.61431425213664
 11
413.47832673825314
 21
455.41431425213455
  0
LINE
  8
_0-3_躯体と製品
  6
CONTINUOUS
 62
    3
 10
421.71232673825307
 20
496.70031425213551
 11
421.71232673825307
 21
489.50031425213569
  0
LINE
  8
_0-3_躯体と製品
  6
CONTINUOUS
 62
    3
 10
421.71232673825307
 20
489.50031425213569
 11
421.71232673825307
 21
470.30031425213633
  0
LINE
  8
_0-3_躯体と製品
  6
CONTINUOUS
 62
    3
 10
425.56232673825298
 20
470.30031425213633
 11
421.71232673825307
 21
470.30031425213633
  0
LINE
  8
_0-3_躯体と製品
  6
CONTINUOUS
 62
    3
 10
420.42432673825306
 20
480.80031425213542
 11
421.71232673825307
 21
480.80031425213542
  0
LINE
  8
_0-3_躯体と製品
  6
CONTINUOUS
 62
    3
 10
421.71232673825307
 20
480.80031425213542
 11
421.71232673825307
 21
471.80031425213633
  0
LINE
  8
_0-3_躯体と製品
  6
CONTINUOUS
 62
    3
 10
420.42432673825306
 20
471.80031425213633
 11
421.71232673825307
 21
471.80031425213633
  0
ARC
  8
_0-3_躯体と製品
  6
CONTINUOUS
 62
    3
 10
425.71232673825398
 20
496.70031425213551
 40
4
 50
90
 51
180
  0
ARC
  8
_0-3_躯体と製品
  6
CONTINUOUS
 62
    3
 10
430.4123267382538
 20
476.30031425213542
 40
12
 50
163.80899999999662
 51
196.19100000000333
  0
ARC
  8
_0-3_躯体と製品
  6
CONTINUOUS
 62
    3
 10
420.42432673825306
 20
473.40031425213533
 40
1.59999
 50
196.1910000000033
 51
270
  0
ARC
  8
_0-3_躯体と製品
  6
CONTINUOUS
 62
    3
 10
420.42432673825306
 20
479.20031425213551
 40
1.6000099999999999
 50
90
 51
163.80899999999659
  0
LINE
  8
_0-3_躯体と製品
  6
CONTINUOUS
 62
    3
 10
446.91232673825289
 20
512.10026425213641
 11
446.91232673825289
 21
500.70031425213642
  0
LINE
  8
_0-3_躯体と製品
  6
CONTINUOUS
 62
    3
 10
434.91238673825501
 20
512.10026425213641
 11
434.91238673825501
 21
500.70031425213642
  0
LINE
  8
_0-3_躯体と製品
  6
CONTINUOUS
 62
    3
 10
458.91226673825304
 20
500.70031425213642
 11
458.91226673825304
 21
512.10026425213641
  0
LINE
  8
_0-3_躯体と製品
  6
CONTINUOUS
 62
    3
 10
446.91232673825289
 20
500.70031425213642
 11
468.11232673825407
 21
500.70031425213642
  0
LINE
  8
_0-3_躯体と製品
  6
CONTINUOUS
 62
    3
 10
472.11232673825316
 20
489.50031425213569
 11
472.11232673825316
 21
470.30031425213633
  0
LINE
  8
_0-3_躯体と製品
  6
CONTINUOUS
 62
    3
 10
468.2623267382528
 20
470.30031425213633
 11
472.11232673825316
 21
470.30031425213633
  0
LINE
  8
_0-3_躯体と製品
  6
CONTINUOUS
 62
    3
 10
473.40032673825408
 20
480.80031425213542
 11
472.11232673825316
 21
480.80031425213542
  0
LINE
  8
_0-3_躯体と製品
  6
CONTINUOUS
 62
    3
 10
472.11232673825316
 20
480.80031425213542
 11
472.11232673825316
 21
471.80031425213633
  0
LINE
  8
_0-3_躯体と製品
  6
CONTINUOUS
 62
    3
 10
473.40032673825408
 20
471.80031425213633
 11
472.11232673825316
 21
471.80031425213633
  0
LINE
  8
_0-3_躯体と製品
  6
CONTINUOUS
 62
    3
 10
472.11232673825316
 20
496.70031425213551
 11
472.11232673825316
 21
489.50031425213569
  0
ARC
  8
_0-3_躯体と製品
  6
CONTINUOUS
 62
    3
 10
463.4123267382538
 20
476.30031425213542
 40
12
 50
343.80899999999667
 51
16.191300000001348
  0
ARC
  8
_0-3_躯体と製品
  6
CONTINUOUS
 62
    3
 10
473.40032673825408
 20
473.40031425213533
 40
1.6000099999999999
 50
270
 51
343.80899999999667
  0
ARC
  8
_0-3_躯体と製品
  6
CONTINUOUS
 62
    3
 10
473.40032673825408
 20
479.20031425213551
 40
1.59999
 50
16.19139999999916
 51
90
  0
ARC
  8
_0-3_躯体と製品
  6
CONTINUOUS
 62
    3
 10
468.11232673825407
 20
496.70031425213551
 40
4
 50
0
 51
90
  0
ARC
  8
_0-3_躯体と製品
  6
CONTINUOUS
 62
    3
 10
440.91235673825486
 20
501.6503142521367
 40
12.049939999999999
 50
60.137165999993961
 51
90
  0
ARC
  8
_0-3_躯体と製品
  6
CONTINUOUS
 62
    3
 10
452.91229673825319
 20
501.6503142521367
 40
12.049939999999999
 50
90
 51
119.86283400000599
  0
LINE
  8
_0-3_躯体と製品
  6
CONTINUOUS
 62
    3
 10
434.91238673825501
 20
512.10026425213641
 11
436.51237673825381
 21
513.70025425213566
  0
LINE
  8
_0-3_躯体と製品
  6
CONTINUOUS
 62
    3
 10
457.31226673825495
 20
513.70025425213566
 11
458.91226673825304
 21
512.10026425213641
  0
LINE
  8
_0-3_躯体と製品
  6
CONTINUOUS
 62
    3
 10
457.31226673825495
 20
513.70025425213566
 11
436.51237673825381
 21
513.70025425213566
  0
LINE
  8
_0-3_躯体と製品
  6
CONTINUOUS
 62
    3
 10
446.91232673825289
 20
530.1002642521355
 11
446.91232673825289
 21
518.70031425213551
  0
ARC
  8
_0-3_躯体と製品
  6
CONTINUOUS
 62
    3
 10
440.91235673825486
 20
519.65031425213533
 40
12.049939999999999
 50
60.137165999993961
 51
90
  0
ARC
  8
_0-3_躯体と製品
  6
CONTINUOUS
 62
    3
 10
452.91229673825319
 20
519.65031425213533
 40
12.049939999999999
 50
90
 51
119.86283400000599
  0
LINE
  8
_0-3_躯体と製品
  6
CONTINUOUS
 62
    3
 10
434.91238673825501
 20
530.1002642521355
 11
436.51237673825381
 21
531.70025425213566
  0
LINE
  8
_0-3_躯体と製品
  6
CONTINUOUS
 62
    3
 10
457.31226673825495
 20
531.70025425213566
 11
458.91226673825304
 21
530.1002642521355
  0
LINE
  8
_0-3_躯体と製品
  6
CONTINUOUS
 62
    3
 10
434.91238673825501
 20
530.1002642521355
 11
434.91238673825501
 21
518.70031425213551
  0
LINE
  8
_0-3_躯体と製品
  6
CONTINUOUS
 62
    3
 10
458.91226673825304
 20
518.70031425213551
 11
458.91226673825304
 21
530.1002642521355
  0
LINE
  8
_0-3_躯体と製品
  6
CONTINUOUS
 62
    3
 10
457.31226673825495
 20
531.70025425213566
 11
436.51237673825381
 21
531.70025425213566
  0
LINE
  8
_0-3_躯体と製品
  6
CONTINUOUS
 62
    3
 10
461.26232673825507
 20
518.70031425213551
 11
461.26232673825507
 21
513.70031425213551
  0
LINE
  8
_0-3_躯体と製品
  6
CONTINUOUS
 62
    3
 10
432.56232673825389
 20
518.70031425213551
 11
461.26232673825507
 21
518.70031425213551
  0
LINE
  8
_0-3_躯体と製品
  6
CONTINUOUS
 62
    3
 10
432.56232673825389
 20
513.70031425213551
 11
432.56232673825389
 21
518.70031425213551
  0
LINE
  8
_0-3_躯体と製品
  6
CONTINUOUS
 62
    3
 10
461.26232673825507
 20
513.70031425213551
 11
432.56232673825389
 21
513.70031425213551
  0
LINE
  8
_0-3_躯体と製品
  6
CONTINUOUS
 62
    3
 10
451.91216673825284
 20
769.89565425213573
 11
446.9121967382539
 21
767.00891425213672
  0
LINE
  8
_0-3_躯体と製品
  6
CONTINUOUS
 62
    3
 10
446.9121967382539
 20
767.00891425213672
 11
441.91222673825314
 21
769.89565425213573
  0
LINE
  8
_0-3_躯体と製品
  6
CONTINUOUS
 62
    3
 10
456.91214673825289
 20
769.56427425213565
 11
456.91214673825289
 21
709.00083425213575
  0
LINE
  8
_0-3_躯体と製品
  6
CONTINUOUS
 62
    3
 10
436.91224673825309
 20
769.56427425213565
 11
436.91224673825309
 21
709.00083425213575
  0
LINE
  8
_0-3_躯体と製品
  6
CONTINUOUS
 62
    3
 10
426.9122967382541
 20
769.56427425213565
 11
426.9122967382541
 21
709.00083425213575
  0
LINE
  8
_0-3_躯体と製品
  6
CONTINUOUS
 62
    3
 10
466.91209673825415
 20
769.56427425213565
 11
466.91209673825415
 21
709.00083425213575
  0
LINE
  8
_0-3_躯体と製品
  6
CONTINUOUS
 62
    4
 10
421.91232673825289
 20
778.47871425213657
 11
421.91232673825289
 21
695.20231425213638
  0
LINE
  8
_0-3_躯体と製品
  6
CONTINUOUS
 62
    4
 10
471.91232673825289
 20
777.78236425213549
 11
471.91232673825289
 21
695.20231425213638
  0
LINE
  8
_0-3_躯体と製品
  6
CONTINUOUS
 62
    7
 10
287.94010673825505
 20
712.50231425213656
 11
421.91232673825289
 21
712.50231425213656
  0
LINE
  8
_0-3_躯体と製品
  6
CONTINUOUS
 62
    7
 10
287.94010673825505
 20
762.50231425213656
 11
421.91232673825289
 21
762.50231425213656
  0
ARC
  8
_0-3_躯体と製品
  6
CONTINUOUS
 62
    3
 10
431.91227673825506
 20
709.00083425213575
 40
4.9999700000000002
 50
180
 51
0
  0
ARC
  8
_0-3_躯体と製品
  6
CONTINUOUS
 62
    3
 10
429.51032673825284
 20
696.70231425213547
 40
3.0000100000000001
 50
209.99999999999719
 51
270
  0
LINE
  8
_0-3_躯体と製品
  6
CONTINUOUS
 62
    4
 10
421.91232673825289
 20
695.20231425213638
 11
471.91232673825289
 21
695.20231425213638
  0
LINE
  8
_0-3_躯体と製品
  6
CONTINUOUS
 62
    3
 10
421.91232673825289
 20
760.65582425213574
 11
426.9122967382541
 21
760.65582425213574
  0
ARC
  8
_0-3_躯体と製品
  6
CONTINUOUS
 62
    3
 10
461.91211673825501
 20
709.00083425213575
 40
4.9999700000000002
 50
180
 51
0
  0
ARC
  8
_0-3_躯体と製品
  6
CONTINUOUS
 62
    3
 10
464.3143267382552
 20
696.70231425213547
 40
3
 50
270
 51
330.00000000000267
  0
LINE
  8
_0-3_躯体と製品
  6
CONTINUOUS
 62
    3
 10
434.91238673825501
 20
676.70240425213547
 11
434.91238673825501
 21
665.30246425213568
  0
LINE
  8
_0-3_躯体と製品
  6
CONTINUOUS
 62
    3
 10
458.91226673825304
 20
665.30246425213568
 11
458.91226673825304
 21
676.70240425213547
  0
LINE
  8
_0-3_躯体と製品
  6
CONTINUOUS
 62
    3
 10
446.91232673825289
 20
665.30246425213568
 11
446.91232673825289
 21
676.70240425213547
  0
LINE
  8
_0-3_躯体と製品
  6
CONTINUOUS
 62
    3
 10
436.51237673825381
 20
663.70247425213552
 11
457.31226673825495
 21
663.70247425213552
  0
LINE
  8
_0-3_躯体と製品
  6
CONTINUOUS
 62
    3
 10
436.51237673825381
 20
663.70247425213552
 11
434.91238673825501
 21
665.30246425213568
  0
LINE
  8
_0-3_躯体と製品
  6
CONTINUOUS
 62
    3
 10
458.91226673825304
 20
665.30246425213568
 11
457.31226673825495
 21
663.70247425213552
  0
ARC
  8
_0-3_躯体と製品
  6
CONTINUOUS
 62
    3
 10
440.91235673825486
 20
675.7524142521354
 40
12.049939999999999
 50
270
 51
299.86283400000599
  0
ARC
  8
_0-3_躯体と製品
  6
CONTINUOUS
 62
    3
 10
452.91229673825319
 20
675.7524142521354
 40
12.049939999999999
 50
240.1371659999939
 51
270
  0
LINE
  8
_0-3_躯体と製品
  6
CONTINUOUS
 62
    3
 10
458.91226673825304
 20
676.70240425213547
 11
434.91238673825501
 21
676.70240425213547
  0
LINE
  8
_0-3_躯体と製品
  6
CONTINUOUS
 62
    3
 10
460.91225673825284
 20
676.70240425213547
 11
460.91225673825284
 21
680.70238425213552
  0
LINE
  8
_0-3_躯体と製品
  6
CONTINUOUS
 62
    3
 10
432.91239673825294
 20
676.70240425213547
 11
460.91225673825284
 21
676.70240425213547
  0
LINE
  8
_0-3_躯体と製品
  6
CONTINUOUS
 62
    3
 10
432.91239673825294
 20
680.70238425213552
 11
432.91239673825294
 21
676.70240425213547
  0
LINE
  8
_0-3_躯体と製品
  6
CONTINUOUS
 62
    3
 10
460.91225673825284
 20
680.70238425213552
 11
432.91239673825294
 21
680.70238425213552
  0
LINE
  8
_0-3_躯体と製品
  6
CONTINUOUS
 62
    3
 10
436.51237673825381
 20
680.70238425213552
 11
457.31226673825495
 21
680.70238425213552
  0
LINE
  8
_0-3_躯体と製品
  6
CONTINUOUS
 62
    3
 10
434.91238673825501
 20
693.70231425213547
 11
434.91238673825501
 21
682.30237425213659
  0
LINE
  8
_0-3_躯体と製品
  6
CONTINUOUS
 62
    3
 10
458.91226673825304
 20
682.30237425213659
 11
458.91226673825304
 21
693.70231425213547
  0
LINE
  8
_0-3_躯体と製品
  6
CONTINUOUS
 62
    3
 10
436.51237673825381
 20
680.70238425213552
 11
434.91238673825501
 21
682.30237425213659
  0
LINE
  8
_0-3_躯体と製品
  6
CONTINUOUS
 62
    3
 10
458.91226673825304
 20
682.30237425213659
 11
457.31226673825495
 21
680.70238425213552
  0
ARC
  8
_0-3_躯体と製品
  6
CONTINUOUS
 62
    3
 10
440.91235673825486
 20
692.75232425213539
 40
12.049939999999999
 50
270
 51
299.86283400000599
  0
ARC
  8
_0-3_躯体と製品
  6
CONTINUOUS
 62
    3
 10
452.91229673825319
 20
692.75232425213539
 40
12.049939999999999
 50
240.1371659999939
 51
270
  0
LINE
  8
_0-3_躯体と製品
  6
CONTINUOUS
 62
    3
 10
446.91232673825289
 20
682.30237425213659
 11
446.91232673825289
 21
693.70231425213547
  0
LINE
  8
_0-3_躯体と製品
  6
CONTINUOUS
 62
    3
 10
429.51032673825284
 20
693.70231425213547
 11
464.3143267382552
 21
693.70231425213547
  0
LINE
  8
_0-3_躯体と製品
  6
CONTINUOUS
 62
    3
 10
436.91224673825309
 20
760.65582425213574
 11
456.91214673825289
 21
760.65582425213574
  0
LINE
  8
_0-3_躯体と製品
  6
CONTINUOUS
 62
    3
 10
466.91209673825415
 20
760.65582425213574
 11
471.912066738254
 21
760.65582425213574
  0
ARC
  8
_0-3_躯体と製品
  6
CONTINUOUS
 62
    3
 10
431.91227673825506
 20
769.56427425213565
 40
4.9999700000000002
 50
0
 51
180
  0
LINE
  8
_0-3_躯体と製品
  6
CONTINUOUS
 62
    4
 10
467.91208673825486
 20
781.78234425213645
 11
425.91230673825385
 21
781.78234425213645
  0
LINE
  8
_0-3_躯体と製品
  6
CONTINUOUS
 62
    3
 10
421.91232673825289
 20
767.41792425213566
 11
426.9122967382541
 21
767.41792425213566
  0
ARC
  8
_0-3_躯体と製品
  6
CONTINUOUS
 62
    4
 10
425.91230673825385
 20
777.78236425213549
 40
3.9999799999999999
 50
90
 51
180
  0
ARC
  8
_0-3_躯体と製品
  6
CONTINUOUS
 62
    3
 10
461.91211673825501
 20
769.56427425213565
 40
4.9999700000000002
 50
0
 51
180
  0
LINE
  8
_0-3_躯体と製品
  6
CONTINUOUS
 62
    3
 10
451.91216673825284
 20
775.66912425213536
 11
451.91216673825284
 21
769.89565425213573
  0
LINE
  8
_0-3_躯体と製品
  6
CONTINUOUS
 62
    3
 10
446.9121967382539
 20
778.55586425213573
 11
451.91216673825284
 21
775.66912425213536
  0
LINE
  8
_0-3_躯体と製品
  6
CONTINUOUS
 62
    3
 10
441.91222673825314
 20
775.66912425213536
 11
446.9121967382539
 21
778.55586425213573
  0
LINE
  8
_0-3_躯体と製品
  6
CONTINUOUS
 62
    3
 10
441.91222673825314
 20
769.89565425213573
 11
441.91222673825314
 21
775.66912425213536
  0
CIRCLE
  8
_0-3_躯体と製品
  6
CONTINUOUS
 62
    3
 10
446.9121967382539
 20
772.78238425213544
 40
2.499989999999999
  0
CIRCLE
  8
_0-3_躯体と製品
  6
CONTINUOUS
 62
    3
 10
446.9121967382539
 20
772.78238425213544
 40
2.999979999999999
  0
CIRCLE
  8
_0-3_躯体と製品
  6
CONTINUOUS
 62
    3
 10
446.9121967382539
 20
772.78238425213544
 40
4.9999700000000002
  0
LINE
  8
_0-3_躯体と製品
  6
CONTINUOUS
 62
    4
 10
441.41222673825405
 20
771.53239425213656
 11
441.81320673825303
 21
771.53239425213656
  0
ARC
  8
_0-3_躯体と製品
  6
CONTINUOUS
 62
    4
 10
441.41222673825405
 20
772.03239425213565
 40
0.5
 50
180
 51
270
  0
LINE
  8
_0-3_躯体と製品
  6
CONTINUOUS
 62
    4
 10
440.91222673825405
 20
773.53238425213544
 11
440.91222673825405
 21
772.03239425213565
  0
ARC
  8
_0-3_躯体と製品
  6
CONTINUOUS
 62
    4
 10
441.41222673825405
 20
773.53238425213544
 40
0.5
 50
90
 51
180
  0
LINE
  8
_0-3_躯体と製品
  6
CONTINUOUS
 62
    4
 10
441.81320673825303
 20
774.03238425213544
 11
441.41222673825405
 21
774.03238425213544
  0
LINE
  8
_0-3_躯体と製品
  6
CONTINUOUS
 62
    4
 10
452.41216673825511
 20
771.53239425213656
 11
452.01118673825295
 21
771.53239425213656
  0
ARC
  8
_0-3_躯体と製品
  6
CONTINUOUS
 62
    4
 10
452.41216673825511
 20
772.03239425213565
 40
0.5
 50
270
 51
0
  0
LINE
  8
_0-3_躯体と製品
  6
CONTINUOUS
 62
    4
 10
452.91216673825511
 20
773.53238425213544
 11
452.91216673825511
 21
772.03239425213565
  0
ARC
  8
_0-3_躯体と製品
  6
CONTINUOUS
 62
    4
 10
452.41216673825511
 20
773.53238425213544
 40
0.5
 50
0
 51
90
  0
LINE
  8
_0-3_躯体と製品
  6
CONTINUOUS
 62
    4
 10
452.01118673825295
 20
774.03238425213544
 11
452.41216673825511
 21
774.03238425213544
  0
LINE
  8
_0-3_躯体と製品
  6
CONTINUOUS
 62
    3
 10
436.91224673825309
 20
767.41792425213566
 11
446.20376673825513
 21
767.41792425213566
  0
LINE
  8
_0-3_躯体と製品
  6
CONTINUOUS
 62
    3
 10
447.62062673825403
 20
767.41792425213566
 11
456.91214673825289
 21
767.41792425213566
  0
LINE
  8
_0-3_躯体と製品
  6
CONTINUOUS
 62
    3
 10
466.91209673825415
 20
767.41792425213566
 11
471.912066738254
 21
767.41792425213566
  0
ARC
  8
_0-3_躯体と製品
  6
CONTINUOUS
 62
    4
 10
467.91208673825486
 20
777.78236425213549
 40
3.9999799999999999
 50
0
 51
90
  0
LINE
  8
_0-3_躯体と製品
  6
CONTINUOUS
 62
    3
 10
613.21232673825398
 20
789.50231425213565
 11
613.21232673825398
 21
766.50231425213656
  0
LINE
  8
_0-3_躯体と製品
  6
CONTINUOUS
 62
    3
 10
580.61232673825407
 20
789.50231425213565
 11
580.61232673825407
 21
766.50231425213656
  0
LINE
  8
_0-3_躯体と製品
  6
CONTINUOUS
 62
    3
 10
614.41232673825289
 20
789.50231425213565
 11
614.41232673825289
 21
766.50231425213656
  0
LINE
  8
_0-3_躯体と製品
  6
CONTINUOUS
 62
    3
 10
579.41232673825289
 20
789.50231425213565
 11
579.41232673825289
 21
766.50231425213656
  0
ARC
  8
_0-3_躯体と製品
  6
CONTINUOUS
 62
    3
 10
577.61232673825498
 20
766.50231425213656
 40
3
 50
270
 51
0
  0
ARC
  8
_0-3_躯体と製品
  6
CONTINUOUS
 62
    3
 10
577.61232673825498
 20
766.50231425213656
 40
1.7999999999999989
 50
270
 51
0
  0
LINE
  8
_0-3_躯体と製品
  6
CONTINUOUS
 62
    3
 10
572.31232673825298
 20
764.70231425213638
 11
577.61232673825498
 21
764.70231425213638
  0
LINE
  8
_0-3_躯体と製品
  6
CONTINUOUS
 62
    3
 10
571.91232673825289
 20
764.70241425213658
 11
572.11232673825316
 21
764.5024142521354
  0
LINE
  8
_0-3_躯体と製品
  6
CONTINUOUS
 62
    3
 10
572.11232673825316
 20
764.50221425213545
 11
572.31232673825298
 21
764.70211425213552
  0
LINE
  8
_0-3_躯体と製品
  6
CONTINUOUS
 62
    3
 10
568.11232673825407
 20
764.70231425213638
 11
571.91232673825289
 21
764.70231425213638
  0
LINE
  8
_0-3_躯体と製品
  6
CONTINUOUS
 62
    3
 10
568.61232673825407
 20
763.50231425213565
 11
577.61232673825498
 21
763.50231425213565
  0
ARC
  8
_0-3_躯体と製品
  6
CONTINUOUS
 62
    3
 10
568.61232673825407
 20
767.00231425213565
 40
3.5000100000000001
 50
188.2130000000034
 51
270
  0
ARC
  8
_0-3_躯体と製品
  6
CONTINUOUS
 62
    3
 10
568.11232673825407
 20
766.50231425213656
 40
1.79999
 50
180
 51
270
  0
LINE
  8
_0-3_躯体と製品
  6
CONTINUOUS
 62
    3
 10
565.14832673825504
 20
766.50231425213656
 11
566.31232673825389
 21
766.50231425213656
  0
LINE
  8
_0-3_躯体と製品
  6
CONTINUOUS
 62
    3
 10
616.21232673825398
 20
763.50231425213565
 11
625.21232673825489
 21
763.50231425213565
  0
LINE
  8
_0-3_躯体と製品
  6
CONTINUOUS
 62
    3
 10
616.21232673825398
 20
764.70231425213638
 11
621.5123267382528
 21
764.70231425213638
  0
ARC
  8
_0-3_躯体と製品
  6
CONTINUOUS
 62
    3
 10
616.21232673825398
 20
766.50231425213656
 40
3
 50
180
 51
270
  0
ARC
  8
_0-3_躯体と製品
  6
CONTINUOUS
 62
    3
 10
616.21232673825398
 20
766.50231425213656
 40
1.79999
 50
180
 51
270
  0
ARC
  8
_0-3_躯体と製品
  6
CONTINUOUS
 62
    3
 10
625.21232673825489
 20
767.00231425213565
 40
3.5
 50
270
 51
351.78699999999651
  0
ARC
  8
_0-3_躯体と製品
  6
CONTINUOUS
 62
    3
 10
625.71232673825398
 20
766.50231425213656
 40
1.7999999999999989
 50
270
 51
0
  0
LINE
  8
_0-3_躯体と製品
  6
CONTINUOUS
 62
    3
 10
621.91232673825289
 20
764.70231425213638
 11
625.71232673825398
 21
764.70231425213638
  0
LINE
  8
_0-3_躯体と製品
  6
CONTINUOUS
 62
    3
 10
621.5123267382528
 20
764.70241425213658
 11
621.71232673825307
 21
764.50231425213565
  0
LINE
  8
_0-3_躯体と製品
  6
CONTINUOUS
 62
    3
 10
621.71232673825307
 20
764.50221425213545
 11
621.91232673825289
 21
764.70211425213552
  0
LINE
  8
_0-3_躯体と製品
  6
CONTINUOUS
 62
    3
 10
627.51232673825416
 20
766.50231425213656
 11
628.71232673825307
 21
766.50231425213656
  0
TEXT
  8
_0-4_文字-記号
 62
    7
 10
623.49911673825409
 20
906.01612425213557
 40
50
 41
0.8
 50
0
  1
ステージ
  0
ARC
  8
_0-3_躯体と製品
  6
CONTINUOUS
 62
    3
 10
582.41232673825516
 20
789.50231425213565
 40
3
 50
90
 51
180
  0
ARC
  8
_0-3_躯体と製品
  6
CONTINUOUS
 62
    3
 10
611.41232673825289
 20
789.50231425213565
 40
3
 50
0
 51
90
  0
ARC
  8
_0-3_躯体と製品
  6
CONTINUOUS
 62
    3
 10
582.41232673825516
 20
789.50231425213565
 40
1.7999999999999989
 50
90
 51
180
  0
ARC
  8
_0-3_躯体と製品
  6
CONTINUOUS
 62
    3
 10
611.41232673825289
 20
789.50231425213565
 40
1.79999
 50
0
 51
90
  0
LINE
  8
_0-3_躯体と製品
  6
CONTINUOUS
 62
    3
 10
582.41232673825516
 20
791.30231425213537
 11
611.41232673825289
 21
791.30231425213537
  0
TEXT
  8
_0-4_文字-記号
 62
    7
 10
1039.228796738254
 20
135.5836942521355
 40
50
 41
0.8
 50
0
  1
台車
  0
LINE
  8
_0-3_躯体と製品
  6
CONTINUOUS
 62
    3
 10
913.21232673825398
 20
789.50231425213565
 11
913.21232673825398
 21
766.50231425213656
  0
LINE
  8
_0-3_躯体と製品
  6
CONTINUOUS
 62
    3
 10
880.61232673825407
 20
789.50231425213565
 11
880.61232673825407
 21
766.50231425213656
  0
LINE
  8
_0-3_躯体と製品
  6
CONTINUOUS
 62
    3
 10
914.41232673825289
 20
789.50231425213565
 11
914.41232673825289
 21
766.50231425213656
  0
LINE
  8
_0-3_躯体と製品
  6
CONTINUOUS
 62
    3
 10
879.41232673825289
 20
789.50231425213565
 11
879.41232673825289
 21
766.50231425213656
  0
ARC
  8
_0-3_躯体と製品
  6
CONTINUOUS
 62
    3
 10
868.61232673825407
 20
767.00231425213565
 40
3.5000100000000001
 50
188.2130000000034
 51
270
  0
ARC
  8
_0-3_躯体と製品
  6
CONTINUOUS
 62
    3
 10
877.61232673825498
 20
766.50231425213656
 40
3
 50
270
 51
0
  0
ARC
  8
_0-3_躯体と製品
  6
CONTINUOUS
 62
    3
 10
877.61232673825498
 20
766.50231425213656
 40
1.7999999999999989
 50
270
 51
0
  0
ARC
  8
_0-3_躯体と製品
  6
CONTINUOUS
 62
    3
 10
868.11232673825407
 20
766.50231425213656
 40
1.79999
 50
180
 51
270
  0
LINE
  8
_0-3_躯体と製品
  6
CONTINUOUS
 62
    3
 10
872.31232673825207
 20
764.70231425213638
 11
877.61232673825498
 21
764.70231425213638
  0
LINE
  8
_0-3_躯体と製品
  6
CONTINUOUS
 62
    3
 10
871.91232673825289
 20
764.70241425213658
 11
872.11232673825316
 21
764.50231425213565
  0
LINE
  8
_0-3_躯体と製品
  6
CONTINUOUS
 62
    3
 10
872.11232673825316
 20
764.50221425213545
 11
872.31232673825207
 21
764.70211425213552
  0
LINE
  8
_0-3_躯体と製品
  6
CONTINUOUS
 62
    3
 10
865.14832673825504
 20
766.50231425213656
 11
866.31232673825389
 21
766.50231425213656
  0
LINE
  8
_0-3_躯体と製品
  6
CONTINUOUS
 62
    3
 10
868.11232673825407
 20
764.70231425213638
 11
871.91232673825289
 21
764.70231425213638
  0
LINE
  8
_0-3_躯体と製品
  6
CONTINUOUS
 62
    3
 10
868.61232673825407
 20
763.50231425213565
 11
877.61232673825498
 21
763.50231425213565
  0
LINE
  8
_0-3_躯体と製品
  6
CONTINUOUS
 62
    3
 10
921.91232673825289
 20
764.70231425213638
 11
925.71232673825398
 21
764.70231425213638
  0
LINE
  8
_0-3_躯体と製品
  6
CONTINUOUS
 62
    3
 10
916.21232673825398
 20
763.50231425213565
 11
925.21232673825489
 21
763.50231425213565
  0
ARC
  8
_0-3_躯体と製品
  6
CONTINUOUS
 62
    3
 10
916.21232673825398
 20
766.50231425213656
 40
3
 50
180
 51
270
  0
ARC
  8
_0-3_躯体と製品
  6
CONTINUOUS
 62
    3
 10
916.21232673825398
 20
766.50231425213656
 40
1.79999
 50
180
 51
270
  0
LINE
  8
_0-3_躯体と製品
  6
CONTINUOUS
 62
    3
 10
921.5123267382528
 20
764.70241425213658
 11
921.71232673825307
 21
764.50231425213565
  0
LINE
  8
_0-3_躯体と製品
  6
CONTINUOUS
 62
    3
 10
921.71232673825307
 20
764.5021142521357
 11
921.91232673825289
 21
764.70201425213531
  0
LINE
  8
_0-3_躯体と製品
  6
CONTINUOUS
 62
    3
 10
916.21232673825398
 20
764.70231425213638
 11
921.5123267382528
 21
764.70231425213638
  0
ARC
  8
_0-3_躯体と製品
  6
CONTINUOUS
 62
    3
 10
925.21232673825489
 20
767.00231425213565
 40
3.5
 50
270
 51
351.78699999999651
  0
ARC
  8
_0-3_躯体と製品
  6
CONTINUOUS
 62
    3
 10
925.71232673825398
 20
766.50231425213656
 40
1.7999999999999989
 50
270
 51
0
  0
LINE
  8
_0-3_躯体と製品
  6
CONTINUOUS
 62
    3
 10
927.5123267382528
 20
766.50231425213656
 11
928.71232673825398
 21
766.50231425213656
  0
LINE
  8
_0-3_躯体と製品
  6
CONTINUOUS
 62
    3
 10
882.41232673825516
 20
791.30231425213537
 11
911.4123267382538
 21
791.30231425213537
  0
ARC
  8
_0-3_躯体と製品
  6
CONTINUOUS
 62
    3
 10
882.41232673825516
 20
789.50231425213565
 40
3
 50
90
 51
180
  0
ARC
  8
_0-3_躯体と製品
  6
CONTINUOUS
 62
    3
 10
882.41232673825516
 20
789.50231425213565
 40
1.7999999999999989
 50
90
 51
180
  0
ARC
  8
_0-3_躯体と製品
  6
CONTINUOUS
 62
    3
 10
911.4123267382538
 20
789.50231425213565
 40
3
 50
0
 51
90
  0
ARC
  8
_0-3_躯体と製品
  6
CONTINUOUS
 62
    3
 10
911.4123267382538
 20
789.50231425213565
 40
1.79999
 50
0
 51
90
  0
LINE
  8
_0-3_躯体と製品
  6
CONTINUOUS
 62
    3
 10
1213.212326738254
 20
789.50231425213565
 11
1213.212326738254
 21
766.50231425213656
  0
LINE
  8
_0-3_躯体と製品
  6
CONTINUOUS
 62
    3
 10
1180.6123267382541
 20
789.50231425213565
 11
1180.6123267382541
 21
766.50231425213656
  0
LINE
  8
_0-3_躯体と製品
  6
CONTINUOUS
 62
    3
 10
1214.4123267382529
 20
789.50231425213565
 11
1214.4123267382529
 21
766.50231425213656
  0
LINE
  8
_0-3_躯体と製品
  6
CONTINUOUS
 62
    3
 10
1179.4123267382529
 20
789.50231425213565
 11
1179.4123267382529
 21
766.50231425213656
  0
ARC
  8
_0-3_躯体と製品
  6
CONTINUOUS
 62
    3
 10
1168.6123267382541
 20
767.00231425213565
 40
3.5000100000000001
 50
188.2130000000034
 51
270
  0
ARC
  8
_0-3_躯体と製品
  6
CONTINUOUS
 62
    3
 10
1168.1123267382541
 20
766.50231425213656
 40
1.800049999999999
 50
180
 51
270
  0
LINE
  8
_0-3_躯体と製品
  6
CONTINUOUS
 62
    3
 10
1165.152326738254
 20
766.50231425213656
 11
1166.3123267382539
 21
766.50231425213656
  0
LINE
  8
_0-3_躯体と製品
  6
CONTINUOUS
 62
    3
 10
1168.1123267382541
 20
764.70231425213638
 11
1171.9123267382529
 21
764.70231425213638
  0
LINE
  8
_0-3_躯体と製品
  6
CONTINUOUS
 62
    3
 10
1168.6123267382541
 20
763.50231425213565
 11
1177.612326738255
 21
763.50231425213565
  0
ARC
  8
_0-3_躯体と製品
  6
CONTINUOUS
 62
    3
 10
1177.612326738255
 20
766.50231425213656
 40
3
 50
270
 51
0
  0
ARC
  8
_0-3_躯体と製品
  6
CONTINUOUS
 62
    3
 10
1177.612326738255
 20
766.50231425213656
 40
1.7999999999999989
 50
270
 51
0
  0
LINE
  8
_0-3_躯体と製品
  6
CONTINUOUS
 62
    3
 10
1172.312326738253
 20
764.70231425213638
 11
1177.612326738255
 21
764.70231425213638
  0
LINE
  8
_0-3_躯体と製品
  6
CONTINUOUS
 62
    3
 10
1171.9123267382529
 20
764.70261425213562
 11
1172.1123267382532
 21
764.50251425213651
  0
LINE
  8
_0-3_躯体と製品
  6
CONTINUOUS
 62
    3
 10
1172.1123267382532
 20
764.5021142521357
 11
1172.312326738253
 21
764.70201425213531
  0
ARC
  8
_0-3_躯体と製品
  6
CONTINUOUS
 62
    3
 10
1225.2123267382549
 20
767.00231425213565
 40
3.5
 50
270
 51
351.78699999999651
  0
ARC
  8
_0-3_躯体と製品
  6
CONTINUOUS
 62
    3
 10
1225.712326738254
 20
766.50231425213656
 40
1.7999999999999989
 50
270
 51
0
  0
ARC
  8
_0-3_躯体と製品
  6
CONTINUOUS
 62
    3
 10
1216.212326738254
 20
766.50231425213656
 40
3
 50
180
 51
270
  0
ARC
  8
_0-3_躯体と製品
  6
CONTINUOUS
 62
    3
 10
1216.212326738254
 20
766.50231425213656
 40
1.800049999999999
 50
180
 51
270
  0
LINE
  8
_0-3_躯体と製品
  6
CONTINUOUS
 62
    3
 10
1221.9123267382529
 20
764.70231425213638
 11
1225.712326738254
 21
764.70231425213638
  0
LINE
  8
_0-3_躯体と製品
  6
CONTINUOUS
 62
    3
 10
1221.5123267382542
 20
764.70261425213562
 11
1221.7123267382531
 21
764.50251425213651
  0
LINE
  8
_0-3_躯体と製品
  6
CONTINUOUS
 62
    3
 10
1221.7123267382531
 20
764.5021142521357
 11
1221.9123267382529
 21
764.70201425213531
  0
LINE
  8
_0-3_躯体と製品
  6
CONTINUOUS
 62
    3
 10
1216.212326738254
 20
763.50231425213565
 11
1225.2123267382549
 21
763.50231425213565
  0
LINE
  8
_0-3_躯体と製品
  6
CONTINUOUS
 62
    3
 10
1216.212326738254
 20
764.70231425213638
 11
1221.5123267382542
 21
764.70231425213638
  0
LINE
  8
_0-3_躯体と製品
  6
CONTINUOUS
 62
    3
 10
1227.5123267382519
 20
766.50231425213656
 11
1228.7123267382531
 21
766.50231425213656
  0
LINE
  8
_0-3_躯体と製品
  6
CONTINUOUS
 62
    3
 10
1182.4123267382552
 20
791.30231425213537
 11
1211.4123267382529
 21
791.30231425213537
  0
ARC
  8
_0-3_躯体と製品
  6
CONTINUOUS
 62
    3
 10
1182.4123267382552
 20
789.50231425213565
 40
3
 50
90
 51
180
  0
ARC
  8
_0-3_躯体と製品
  6
CONTINUOUS
 62
    3
 10
1182.4123267382552
 20
789.50231425213565
 40
1.7999999999999989
 50
90
 51
180
  0
ARC
  8
_0-3_躯体と製品
  6
CONTINUOUS
 62
    3
 10
1211.4123267382529
 20
789.50231425213565
 40
3
 50
0
 51
90
  0
ARC
  8
_0-3_躯体と製品
  6
CONTINUOUS
 62
    3
 10
1211.4123267382529
 20
789.50231425213565
 40
1.800049999999999
 50
0
 51
90
  0
LINE
  8
_0-3_躯体と製品
  6
CONTINUOUS
 62
    3
 10
1688.9123267382529
 20
576.92531425213542
 11
1688.9123267382529
 21
531.7003142521346
  0
LINE
  8
_0-3_躯体と製品
  6
CONTINUOUS
 62
    3
 10
1704.9123267382552
 20
663.67521425213567
 11
1704.9123267382552
 21
531.62731425213565
  0
LINE
  8
_0-3_躯体と製品
  6
CONTINUOUS
 62
    3
 10
1688.9123267382529
 20
663.67521425213567
 11
1688.9123267382529
 21
531.7003142521346
  0
LINE
  8
_0-3_躯体と製品
  6
CONTINUOUS
 62
    3
 10
1723.400326738255
 20
480.80031425213542
 11
1722.1123267382532
 21
480.80031425213542
  0
LINE
  8
_0-3_躯体と製品
  6
CONTINUOUS
 62
    3
 10
1723.400326738255
 20
471.80031425213633
 11
1722.1123267382532
 21
471.80031425213633
  0
ARC
  8
_0-3_躯体と製品
  6
CONTINUOUS
 62
    3
 10
1718.112326738255
 20
496.70031425213551
 40
4
 50
0
 51
90
  0
LINE
  8
_0-3_躯体と製品
  6
CONTINUOUS
 62
    3
 10
1674.3613267382539
 20
455.41431425213455
 11
1674.3613267382539
 21
425.81431425213555
  0
LINE
  8
_0-3_躯体と製品
  6
CONTINUOUS
 62
    3
 10
1663.561326738255
 20
424.61431425213573
 11
1675.5613267382528
 21
424.61431425213573
  0
LINE
  8
_0-3_躯体と製品
  6
CONTINUOUS
 62
    3
 10
1663.561326738255
 20
425.81431425213555
 11
1674.3613267382539
 21
425.81431425213555
  0
LINE
  8
_0-3_躯体と製品
  6
CONTINUOUS
 62
    3
 10
1663.4783267382531
 20
425.81431425213555
 11
1663.4783267382531
 21
424.61431425213573
  0
LINE
  8
_0-3_躯体と製品
  6
CONTINUOUS
 62
    3
 10
1696.9123267382529
 20
512.10026425213641
 11
1696.9123267382529
 21
500.70031425213642
  0
LINE
  8
_0-3_躯体と製品
  6
CONTINUOUS
 62
    3
 10
1684.9123867382541
 20
512.10026425213641
 11
1684.9123867382541
 21
500.70031425213642
  0
LINE
  8
_0-3_躯体と製品
  6
CONTINUOUS
 62
    3
 10
1708.9122667382539
 20
500.70031425213642
 11
1708.9122667382539
 21
512.10026425213641
  0
LINE
  8
_0-3_躯体と製品
  6
CONTINUOUS
 62
    3
 10
1675.712326738254
 20
500.70031425213642
 11
1696.9123267382529
 21
500.70031425213642
  0
LINE
  8
_0-3_躯体と製品
  6
CONTINUOUS
 62
    3
 10
1671.7123267382531
 20
489.50031425213569
 11
1722.1123267382532
 21
489.50031425213569
  0
LINE
  8
_0-3_躯体と製品
  6
CONTINUOUS
 62
    3
 10
1663.561326738255
 20
456.61431425213664
 11
1675.5613267382528
 21
456.61431425213664
  0
LINE
  8
_0-3_躯体と製品
  6
CONTINUOUS
 62
    3
 10
1663.561326738255
 20
455.41431425213455
 11
1674.3613267382539
 21
455.41431425213455
  0
LINE
  8
_0-3_躯体と製品
  6
CONTINUOUS
 62
    3
 10
1663.4783267382531
 20
456.61431425213664
 11
1663.4783267382531
 21
455.41431425213455
  0
LINE
  8
_0-3_躯体と製品
  6
CONTINUOUS
 62
    3
 10
1671.7123267382531
 20
496.70031425213551
 11
1671.7123267382531
 21
489.50031425213569
  0
LINE
  8
_0-3_躯体と製品
  6
CONTINUOUS
 62
    3
 10
1671.7123267382531
 20
489.50031425213569
 11
1671.7123267382531
 21
470.30031425213633
  0
LINE
  8
_0-3_躯体と製品
  6
CONTINUOUS
 62
    3
 10
1675.562326738253
 20
470.30031425213633
 11
1671.7123267382531
 21
470.30031425213633
  0
LINE
  8
_0-3_躯体と製品
  6
CONTINUOUS
 62
    3
 10
1670.424326738254
 20
480.80031425213542
 11
1671.7123267382531
 21
480.80031425213542
  0
LINE
  8
_0-3_躯体と製品
  6
CONTINUOUS
 62
    3
 10
1671.7123267382531
 20
480.80031425213542
 11
1671.7123267382531
 21
471.80031425213633
  0
LINE
  8
_0-3_躯体と製品
  6
CONTINUOUS
 62
    3
 10
1670.424326738254
 20
471.80031425213633
 11
1671.7123267382531
 21
471.80031425213633
  0
ARC
  8
_0-3_躯体と製品
  6
CONTINUOUS
 62
    3
 10
1675.712326738254
 20
496.70031425213551
 40
4
 50
90
 51
180
  0
ARC
  8
_0-3_躯体と製品
  6
CONTINUOUS
 62
    3
 10
1680.4123267382538
 20
476.30031425213542
 40
12
 50
163.80899999999662
 51
196.19100000000333
  0
ARC
  8
_0-3_躯体と製品
  6
CONTINUOUS
 62
    3
 10
1670.424326738254
 20
473.40031425213533
 40
1.59999
 50
196.1910000000033
 51
270
  0
ARC
  8
_0-3_躯体と製品
  6
CONTINUOUS
 62
    3
 10
1670.424326738254
 20
479.20031425213551
 40
1.6000099999999999
 50
90
 51
163.80899999999659
  0
LINE
  8
_0-3_躯体と製品
  6
CONTINUOUS
 62
    3
 10
1722.1123267382532
 20
489.50031425213569
 11
1722.1123267382532
 21
470.30031425213633
  0
LINE
  8
_0-3_躯体と製品
  6
CONTINUOUS
 62
    3
 10
1718.2623267382551
 20
470.30031425213633
 11
1722.1123267382532
 21
470.30031425213633
  0
LINE
  8
_0-3_躯体と製品
  6
CONTINUOUS
 62
    3
 10
1722.1123267382532
 20
480.80031425213542
 11
1722.1123267382532
 21
471.80031425213633
  0
LINE
  8
_0-3_躯体と製品
  6
CONTINUOUS
 62
    3
 10
1696.9123267382529
 20
500.70031425213642
 11
1718.112326738255
 21
500.70031425213642
  0
LINE
  8
_0-3_躯体と製品
  6
CONTINUOUS
 62
    3
 10
1722.1123267382532
 20
496.70031425213551
 11
1722.1123267382532
 21
489.50031425213569
  0
LINE
  8
_0-3_躯体と製品
  6
CONTINUOUS
 62
    3
 10
1682.5623267382539
 20
518.70031425213551
 11
1711.2623267382519
 21
518.70031425213551
  0
LINE
  8
_0-3_躯体と製品
  6
CONTINUOUS
 62
    3
 10
1711.2623267382519
 20
513.70031425213551
 11
1682.5623267382539
 21
513.70031425213551
  0
LINE
  8
_0-3_躯体と製品
  6
CONTINUOUS
 62
    3
 10
1682.5623267382539
 20
513.70031425213551
 11
1682.5623267382539
 21
518.70031425213551
  0
ARC
  8
_0-3_躯体と製品
  6
CONTINUOUS
 62
    3
 10
1690.9123567382549
 20
501.6503142521367
 40
12.049939999999999
 50
60.137165999993961
 51
90
  0
ARC
  8
_0-3_躯体と製品
  6
CONTINUOUS
 62
    3
 10
1702.9122967382532
 20
501.6503142521367
 40
12.049939999999999
 50
90
 51
119.86283400000599
  0
LINE
  8
_0-3_躯体と製品
  6
CONTINUOUS
 62
    3
 10
1684.9123867382541
 20
512.10026425213641
 11
1686.5123767382538
 21
513.70025425213566
  0
LINE
  8
_0-3_躯体と製品
  6
CONTINUOUS
 62
    3
 10
1707.3122667382549
 20
513.70025425213566
 11
1708.9122667382539
 21
512.10026425213641
  0
LINE
  8
_0-3_躯体と製品
  6
CONTINUOUS
 62
    3
 10
1707.3122667382549
 20
513.70025425213566
 11
1686.5123767382538
 21
513.70025425213566
  0
LINE
  8
_0-3_躯体と製品
  6
CONTINUOUS
 62
    3
 10
1696.9123267382529
 20
530.1002642521355
 11
1696.9123267382529
 21
518.70031425213551
  0
ARC
  8
_0-3_躯体と製品
  6
CONTINUOUS
 62
    3
 10
1690.9123567382549
 20
519.65031425213533
 40
12.049939999999999
 50
60.137165999993961
 51
90
  0
ARC
  8
_0-3_躯体と製品
  6
CONTINUOUS
 62
    3
 10
1702.9122967382532
 20
519.65031425213533
 40
12.049939999999999
 50
90
 51
119.86283400000599
  0
LINE
  8
_0-3_躯体と製品
  6
CONTINUOUS
 62
    3
 10
1684.9123867382541
 20
530.1002642521355
 11
1686.5123767382538
 21
531.70025425213566
  0
LINE
  8
_0-3_躯体と製品
  6
CONTINUOUS
 62
    3
 10
1707.3122667382549
 20
531.70025425213566
 11
1708.9122667382539
 21
530.1002642521355
  0
LINE
  8
_0-3_躯体と製品
  6
CONTINUOUS
 62
    3
 10
1684.9123867382541
 20
530.1002642521355
 11
1684.9123867382541
 21
518.70031425213551
  0
LINE
  8
_0-3_躯体と製品
  6
CONTINUOUS
 62
    3
 10
1708.9122667382539
 20
518.70031425213551
 11
1708.9122667382539
 21
530.1002642521355
  0
LINE
  8
_0-3_躯体と製品
  6
CONTINUOUS
 62
    3
 10
1707.3122667382549
 20
531.70025425213566
 11
1686.5123767382538
 21
531.70025425213566
  0
LINE
  8
_0-3_躯体と製品
  6
CONTINUOUS
 62
    3
 10
1711.2623267382519
 20
518.70031425213551
 11
1711.2623267382519
 21
513.70031425213551
  0
ARC
  8
_0-3_躯体と製品
  6
CONTINUOUS
 62
    3
 10
1713.4123267382538
 20
476.30031425213542
 40
12
 50
343.80899999999667
 51
16.191300000001348
  0
ARC
  8
_0-3_躯体と製品
  6
CONTINUOUS
 62
    3
 10
1723.400326738255
 20
473.40031425213533
 40
1.6000099999999999
 50
270
 51
343.80899999999667
  0
ARC
  8
_0-3_躯体と製品
  6
CONTINUOUS
 62
    3
 10
1723.400326738255
 20
479.20031425213551
 40
1.59999
 50
16.19139999999916
 51
90
  0
ARC
  8
_0-3_躯体と製品
  6
CONTINUOUS
 62
    4
 10
1717.912086738253
 20
777.78236425213549
 40
3.9999799999999999
 50
0
 51
90
  0
LINE
  8
_0-3_躯体と製品
  6
CONTINUOUS
 62
    7
 10
1860.952606738254
 20
712.50231425213656
 11
1721.9123267382529
 21
712.50231425213656
  0
LINE
  8
_0-3_躯体と製品
  6
CONTINUOUS
 62
    7
 10
1860.952606738254
 20
762.50231425213656
 11
1721.9123267382529
 21
762.50231425213656
  0
LINE
  8
_0-3_躯体と製品
  6
CONTINUOUS
 62
    3
 10
1701.9121667382528
 20
769.89565425213573
 11
1696.9121967382548
 21
767.00891425213672
  0
LINE
  8
_0-3_躯体と製品
  6
CONTINUOUS
 62
    3
 10
1696.9121967382548
 20
767.00891425213672
 11
1691.9122267382559
 21
769.89565425213573
  0
LINE
  8
_0-3_躯体と製品
  6
CONTINUOUS
 62
    3
 10
1706.9121467382529
 20
769.56427425213565
 11
1706.9121467382529
 21
709.00083425213575
  0
LINE
  8
_0-3_躯体と製品
  6
CONTINUOUS
 62
    3
 10
1686.9122467382531
 20
769.56427425213565
 11
1686.9122467382531
 21
709.00083425213575
  0
LINE
  8
_0-3_躯体と製品
  6
CONTINUOUS
 62
    3
 10
1676.9122967382541
 20
769.56427425213565
 11
1676.9122967382541
 21
709.00083425213575
  0
LINE
  8
_0-3_躯体と製品
  6
CONTINUOUS
 62
    3
 10
1716.9120967382528
 20
769.56427425213565
 11
1716.9120967382528
 21
709.00083425213575
  0
LINE
  8
_0-3_躯体と製品
  6
CONTINUOUS
 62
    4
 10
1671.9123267382529
 20
778.47871425213657
 11
1671.9123267382529
 21
695.20231425213638
  0
LINE
  8
_0-3_躯体と製品
  6
CONTINUOUS
 62
    4
 10
1721.9123267382529
 20
777.78236425213549
 11
1721.9123267382529
 21
695.20231425213638
  0
LINE
  8
_0-3_躯体と製品
  6
CONTINUOUS
 62
    3
 10
1513.212326738254
 20
789.50231425213565
 11
1513.212326738254
 21
766.50231425213656
  0
LINE
  8
_0-3_躯体と製品
  6
CONTINUOUS
 62
    3
 10
1480.6123267382541
 20
789.50231425213565
 11
1480.6123267382541
 21
766.50231425213656
  0
LINE
  8
_0-3_躯体と製品
  6
CONTINUOUS
 62
    3
 10
1514.4123267382529
 20
789.50231425213565
 11
1514.4123267382529
 21
766.50231425213656
  0
LINE
  8
_0-3_躯体と製品
  6
CONTINUOUS
 62
    3
 10
1479.4123267382529
 20
789.50231425213565
 11
1479.4123267382529
 21
766.50231425213656
  0
ARC
  8
_0-3_躯体と製品
  6
CONTINUOUS
 62
    3
 10
1468.6123267382541
 20
767.00231425213565
 40
3.5000100000000001
 50
188.2130000000034
 51
270
  0
ARC
  8
_0-3_躯体と製品
  6
CONTINUOUS
 62
    3
 10
1477.6123267382541
 20
766.50231425213656
 40
3
 50
270
 51
0
  0
ARC
  8
_0-3_躯体と製品
  6
CONTINUOUS
 62
    3
 10
1477.6123267382541
 20
766.50231425213656
 40
1.7999999999999989
 50
270
 51
0
  0
ARC
  8
_0-3_躯体と製品
  6
CONTINUOUS
 62
    3
 10
1468.112326738255
 20
766.50231425213656
 40
1.800049999999999
 50
180
 51
270
  0
LINE
  8
_0-3_躯体と製品
  6
CONTINUOUS
 62
    3
 10
1472.3123267382521
 20
764.70231425213638
 11
1477.6123267382541
 21
764.70231425213638
  0
LINE
  8
_0-3_躯体と製品
  6
CONTINUOUS
 62
    3
 10
1471.9123267382529
 20
764.70281425213557
 11
1472.1123267382532
 21
764.50271425213555
  0
LINE
  8
_0-3_躯体と製品
  6
CONTINUOUS
 62
    3
 10
1472.1123267382532
 20
764.5020142521355
 11
1472.3123267382521
 21
764.70201425213531
  0
LINE
  8
_0-3_躯体と製品
  6
CONTINUOUS
 62
    3
 10
1465.152326738254
 20
766.50231425213656
 11
1466.3123267382539
 21
766.50231425213656
  0
LINE
  8
_0-3_躯体と製品
  6
CONTINUOUS
 62
    3
 10
1468.112326738255
 20
764.70231425213638
 11
1471.9123267382529
 21
764.70231425213638
  0
LINE
  8
_0-3_躯体と製品
  6
CONTINUOUS
 62
    3
 10
1468.6123267382541
 20
763.50231425213565
 11
1477.6123267382541
 21
763.50231425213565
  0
ARC
  8
_0-3_躯体と製品
  6
CONTINUOUS
 62
    3
 10
1525.212326738254
 20
767.00231425213565
 40
3.5
 50
270
 51
351.78699999999651
  0
ARC
  8
_0-3_躯体と製品
  6
CONTINUOUS
 62
    3
 10
1516.212326738254
 20
766.50231425213656
 40
3
 50
180
 51
270
  0
ARC
  8
_0-3_躯体と製品
  6
CONTINUOUS
 62
    3
 10
1525.712326738254
 20
766.50231425213656
 40
1.7999999999999989
 50
270
 51
0
  0
ARC
  8
_0-3_躯体と製品
  6
CONTINUOUS
 62
    3
 10
1516.212326738254
 20
766.50231425213656
 40
1.800049999999999
 50
180
 51
270
  0
LINE
  8
_0-3_躯体と製品
  6
CONTINUOUS
 62
    3
 10
1521.9123267382529
 20
764.70231425213638
 11
1525.712326738254
 21
764.70231425213638
  0
LINE
  8
_0-3_躯体と製品
  6
CONTINUOUS
 62
    3
 10
1521.5123267382542
 20
764.70281425213557
 11
1521.7123267382531
 21
764.50271425213555
  0
LINE
  8
_0-3_躯体と製品
  6
CONTINUOUS
 62
    3
 10
1521.7123267382531
 20
764.5020142521355
 11
1521.9123267382529
 21
764.70191425213557
  0
LINE
  8
_0-3_躯体と製品
  6
CONTINUOUS
 62
    3
 10
1527.5123267382528
 20
766.50231425213656
 11
1528.712326738254
 21
766.50231425213656
  0
LINE
  8
_0-3_躯体と製品
  6
CONTINUOUS
 62
    3
 10
1516.212326738254
 20
763.50231425213565
 11
1525.212326738254
 21
763.50231425213565
  0
LINE
  8
_0-3_躯体と製品
  6
CONTINUOUS
 62
    3
 10
1516.212326738254
 20
764.70231425213638
 11
1521.5123267382542
 21
764.70231425213638
  0
ARC
  8
_0-3_躯体と製品
  6
CONTINUOUS
 62
    3
 10
1681.9122767382551
 20
709.00083425213575
 40
4.9999700000000002
 50
180
 51
0
  0
LINE
  8
_0-3_躯体と製品
  6
CONTINUOUS
 62
    3
 10
1682.9123967382529
 20
676.70240425213547
 11
1710.9122567382528
 21
676.70240425213547
  0
LINE
  8
_0-3_躯体と製品
  6
CONTINUOUS
 62
    3
 10
1710.9122567382528
 20
680.70238425213552
 11
1682.9123967382529
 21
680.70238425213552
  0
LINE
  8
_0-3_躯体と製品
  6
CONTINUOUS
 62
    4
 10
1671.9123267382529
 20
695.20231425213638
 11
1721.9123267382529
 21
695.20231425213638
  0
LINE
  8
_0-3_躯体と製品
  6
CONTINUOUS
 62
    3
 10
1679.5103267382542
 20
693.70231425213547
 11
1714.3143267382552
 21
693.70231425213547
  0
LINE
  8
_0-3_躯体と製品
  6
CONTINUOUS
 62
    3
 10
1682.9123967382529
 20
680.70238425213552
 11
1682.9123967382529
 21
676.70240425213547
  0
ARC
  8
_0-3_躯体と製品
  6
CONTINUOUS
 62
    3
 10
1679.5103267382542
 20
696.70231425213547
 40
3.0000100000000001
 50
209.99999999999719
 51
270
  0
ARC
  8
_0-3_躯体と製品
  6
CONTINUOUS
 62
    3
 10
1711.9121167382541
 20
709.00083425213575
 40
4.9999700000000002
 50
180
 51
0
  0
LINE
  8
_0-3_躯体と製品
  6
CONTINUOUS
 62
    3
 10
1684.9123867382541
 20
676.70240425213547
 11
1684.9123867382541
 21
665.30246425213568
  0
LINE
  8
_0-3_躯体と製品
  6
CONTINUOUS
 62
    3
 10
1708.9122667382539
 20
665.30246425213568
 11
1708.9122667382539
 21
676.70240425213547
  0
LINE
  8
_0-3_躯体と製品
  6
CONTINUOUS
 62
    3
 10
1696.9123267382529
 20
665.30246425213568
 11
1696.9123267382529
 21
676.70240425213547
  0
LINE
  8
_0-3_躯体と製品
  6
CONTINUOUS
 62
    3
 10
1686.5123767382538
 20
663.70247425213552
 11
1707.3122667382549
 21
663.70247425213552
  0
LINE
  8
_0-3_躯体と製品
  6
CONTINUOUS
 62
    3
 10
1686.5123767382538
 20
663.70247425213552
 11
1684.9123867382541
 21
665.30246425213568
  0
LINE
  8
_0-3_躯体と製品
  6
CONTINUOUS
 62
    3
 10
1708.9122667382539
 20
665.30246425213568
 11
1707.3122667382549
 21
663.70247425213552
  0
ARC
  8
_0-3_躯体と製品
  6
CONTINUOUS
 62
    3
 10
1690.9123567382549
 20
675.7524142521354
 40
12.049939999999999
 50
270
 51
299.86283400000599
  0
ARC
  8
_0-3_躯体と製品
  6
CONTINUOUS
 62
    3
 10
1702.9122967382532
 20
675.7524142521354
 40
12.049939999999999
 50
240.1371659999939
 51
270
  0
LINE
  8
_0-3_躯体と製品
  6
CONTINUOUS
 62
    3
 10
1708.9122667382539
 20
676.70240425213547
 11
1684.9123867382541
 21
676.70240425213547
  0
LINE
  8
_0-3_躯体と製品
  6
CONTINUOUS
 62
    3
 10
1710.9122567382528
 20
676.70240425213547
 11
1710.9122567382528
 21
680.70238425213552
  0
LINE
  8
_0-3_躯体と製品
  6
CONTINUOUS
 62
    3
 10
1686.5123767382538
 20
680.70238425213552
 11
1707.3122667382549
 21
680.70238425213552
  0
LINE
  8
_0-3_躯体と製品
  6
CONTINUOUS
 62
    3
 10
1684.9123867382541
 20
693.70231425213547
 11
1684.9123867382541
 21
682.30237425213659
  0
LINE
  8
_0-3_躯体と製品
  6
CONTINUOUS
 62
    3
 10
1708.9122667382539
 20
682.30237425213659
 11
1708.9122667382539
 21
693.70231425213547
  0
LINE
  8
_0-3_躯体と製品
  6
CONTINUOUS
 62
    3
 10
1686.5123767382538
 20
680.70238425213552
 11
1684.9123867382541
 21
682.30237425213659
  0
LINE
  8
_0-3_躯体と製品
  6
CONTINUOUS
 62
    3
 10
1708.9122667382539
 20
682.30237425213659
 11
1707.3122667382549
 21
680.70238425213552
  0
ARC
  8
_0-3_躯体と製品
  6
CONTINUOUS
 62
    3
 10
1690.9123567382549
 20
692.75232425213539
 40
12.049939999999999
 50
270
 51
299.86283400000599
  0
ARC
  8
_0-3_躯体と製品
  6
CONTINUOUS
 62
    3
 10
1702.9122967382532
 20
692.75232425213539
 40
12.049939999999999
 50
240.1371659999939
 51
270
  0
LINE
  8
_0-3_躯体と製品
  6
CONTINUOUS
 62
    3
 10
1696.9123267382529
 20
682.30237425213659
 11
1696.9123267382529
 21
693.70231425213547
  0
ARC
  8
_0-3_躯体と製品
  6
CONTINUOUS
 62
    3
 10
1714.3143267382552
 20
696.70231425213547
 40
3
 50
270
 51
330.00000000000267
  0
LINE
  8
_0-3_躯体と製品
  6
CONTINUOUS
 62
    3
 10
1671.9123267382529
 20
760.65582425213574
 11
1676.9122967382541
 21
760.65582425213574
  0
LINE
  8
_0-3_躯体と製品
  6
CONTINUOUS
 62
    3
 10
1716.9120967382528
 20
760.65582425213574
 11
1721.912066738254
 21
760.65582425213574
  0
LINE
  8
_0-3_躯体と製品
  6
CONTINUOUS
 62
    3
 10
1686.9122467382531
 20
760.65582425213574
 11
1706.9121467382529
 21
760.65582425213574
  0
LINE
  8
_0-3_躯体と製品
  6
CONTINUOUS
 62
    3
 10
1482.4123267382552
 20
791.30231425213537
 11
1511.4123267382538
 21
791.30231425213537
  0
ARC
  8
_0-3_躯体と製品
  6
CONTINUOUS
 62
    3
 10
1482.4123267382552
 20
789.50231425213565
 40
3
 50
90
 51
180
  0
ARC
  8
_0-3_躯体と製品
  6
CONTINUOUS
 62
    3
 10
1482.4123267382552
 20
789.50231425213565
 40
1.7999999999999989
 50
90
 51
180
  0
ARC
  8
_0-3_躯体と製品
  6
CONTINUOUS
 62
    3
 10
1511.4123267382538
 20
789.50231425213565
 40
3
 50
0
 51
90
  0
ARC
  8
_0-3_躯体と製品
  6
CONTINUOUS
 62
    3
 10
1511.4123267382538
 20
789.50231425213565
 40
1.800049999999999
 50
0
 51
90
  0
ARC
  8
_0-3_躯体と製品
  6
CONTINUOUS
 62
    3
 10
1681.9122767382551
 20
769.56427425213565
 40
4.9999700000000002
 50
0
 51
180
  0
LINE
  8
_0-3_躯体と製品
  6
CONTINUOUS
 62
    4
 10
1717.912086738253
 20
781.78234425213645
 11
1675.9123067382538
 21
781.78234425213645
  0
LINE
  8
_0-3_躯体と製品
  6
CONTINUOUS
 62
    3
 10
1671.9123267382529
 20
767.41792425213566
 11
1676.9122967382541
 21
767.41792425213566
  0
ARC
  8
_0-3_躯体と製品
  6
CONTINUOUS
 62
    4
 10
1675.9123067382538
 20
777.78236425213549
 40
3.9999799999999999
 50
90
 51
180
  0
LINE
  8
_0-3_躯体と製品
  6
CONTINUOUS
 62
    3
 10
1701.9121667382528
 20
775.66912425213536
 11
1701.9121667382528
 21
769.89565425213573
  0
LINE
  8
_0-3_躯体と製品
  6
CONTINUOUS
 62
    3
 10
1696.9121967382548
 20
778.55586425213573
 11
1701.9121667382528
 21
775.66912425213536
  0
LINE
  8
_0-3_躯体と製品
  6
CONTINUOUS
 62
    3
 10
1691.9122267382559
 20
775.66912425213536
 11
1696.9121967382548
 21
778.55586425213573
  0
LINE
  8
_0-3_躯体と製品
  6
CONTINUOUS
 62
    3
 10
1691.9122267382559
 20
769.89565425213573
 11
1691.9122267382559
 21
775.66912425213536
  0
CIRCLE
  8
_0-3_躯体と製品
  6
CONTINUOUS
 62
    3
 10
1696.9121967382548
 20
772.78238425213544
 40
2.499989999999999
  0
CIRCLE
  8
_0-3_躯体と製品
  6
CONTINUOUS
 62
    3
 10
1696.9121967382548
 20
772.78238425213544
 40
2.999979999999999
  0
CIRCLE
  8
_0-3_躯体と製品
  6
CONTINUOUS
 62
    3
 10
1696.9121967382548
 20
772.78238425213544
 40
4.9999700000000002
  0
LINE
  8
_0-3_躯体と製品
  6
CONTINUOUS
 62
    4
 10
1691.412226738254
 20
771.53239425213656
 11
1691.813206738253
 21
771.53239425213656
  0
ARC
  8
_0-3_躯体と製品
  6
CONTINUOUS
 62
    4
 10
1691.412226738254
 20
772.03239425213565
 40
0.5
 50
180
 51
270
  0
LINE
  8
_0-3_躯体と製品
  6
CONTINUOUS
 62
    4
 10
1690.912226738254
 20
773.53238425213544
 11
1690.912226738254
 21
772.03239425213565
  0
ARC
  8
_0-3_躯体と製品
  6
CONTINUOUS
 62
    4
 10
1691.412226738254
 20
773.53238425213544
 40
0.5
 50
90
 51
180
  0
LINE
  8
_0-3_躯体と製品
  6
CONTINUOUS
 62
    4
 10
1691.813206738253
 20
774.03238425213544
 11
1691.412226738254
 21
774.03238425213544
  0
LINE
  8
_0-3_躯体と製品
  6
CONTINUOUS
 62
    4
 10
1702.4121667382551
 20
771.53239425213656
 11
1702.0111867382539
 21
771.53239425213656
  0
ARC
  8
_0-3_躯体と製品
  6
CONTINUOUS
 62
    4
 10
1702.4121667382551
 20
772.03239425213565
 40
0.5
 50
270
 51
0
  0
LINE
  8
_0-3_躯体と製品
  6
CONTINUOUS
 62
    4
 10
1702.9121667382551
 20
773.53238425213544
 11
1702.9121667382551
 21
772.03239425213565
  0
ARC
  8
_0-3_躯体と製品
  6
CONTINUOUS
 62
    4
 10
1702.4121667382551
 20
773.53238425213544
 40
0.5
 50
0
 51
90
  0
LINE
  8
_0-3_躯体と製品
  6
CONTINUOUS
 62
    4
 10
1702.0111867382539
 20
774.03238425213544
 11
1702.4121667382551
 21
774.03238425213544
  0
ARC
  8
_0-3_躯体と製品
  6
CONTINUOUS
 62
    3
 10
1711.9121167382541
 20
769.56427425213565
 40
4.9999700000000002
 50
0
 51
180
  0
LINE
  8
_0-3_躯体と製品
  6
CONTINUOUS
 62
    3
 10
1716.9120967382528
 20
767.41792425213566
 11
1721.912066738254
 21
767.41792425213566
  0
LINE
  8
_0-3_躯体と製品
  6
CONTINUOUS
 62
    3
 10
1686.9122467382531
 20
767.41792425213566
 11
1696.2037667382551
 21
767.41792425213566
  0
LINE
  8
_0-3_躯体と製品
  6
CONTINUOUS
 62
    3
 10
1697.620626738254
 20
767.41792425213566
 11
1706.9121467382529
 21
767.41792425213566
  0
INSERT
  2
-001-_D6
  8
_0-2_寸法
 10
-1757.462409113391
 20
-1650.2505119348705
 41
8
 42
8
 50
0
  0
INSERT
  2
-002-_D8
  8
_0-2_寸法
 10
-1757.462409113391
 20
-1650.2505119348705
 41
8
 42
8
 50
0
  0
INSERT
  2
-003-_D9
  8
_0-2_寸法
 10
-1757.462409113391
 20
-1650.2505119348705
 41
8
 42
8
 50
0
  0
INSERT
  2
-004-_D10
  8
_0-2_寸法
 10
-1757.462409113391
 20
-1650.2505119348705
 41
8
 42
8
 50
0
  0
INSERT
  2
-005-_D11
  8
_0-2_寸法
 10
-1757.462409113391
 20
-1650.2505119348705
 41
8
 42
8
 50
0
  0
TEXT
  8
_0-2_寸法
 62
    7
 10
1710.585896714213
 20
-465.91855553536448
 40
35
 41
0.8
 50
0
  1
@1250
  0
TEXT
  8
_0-2_寸法
 62
    7
 10
301.38166862295384
 20
-465.04438687888455
 40
35
 41
0.8
 50
0
  1
@1250
  0
INSERT
  2
-006-_D12
  8
_0-2_寸法
 10
-1757.462409113391
 20
-1650.2505119348705
 41
8
 42
8
 50
0
  0
TEXT
  8
_0-2_寸法
 62
    7
 10
-19.376799553507908
 20
-466.93660972352541
 40
35
 41
0.8
 50
0
  1
@900以内
  0
ENDSEC
  0
EOF
