  0
SECTION
  2
HEADER
  9
$ACADVER
  1
AC1009
  9
$INSBASE
 10
0
 20
0
 30
0
  9
$EXTMIN
 10
0
 20
0
  9
$EXTMAX
 10
420
 20
297
  9
$LIMMIN
 10
0
 20
0
  9
$LIMMAX
 10
420
 20
297
  9
$LTSCALE
 40
1
  0
ENDSEC
  0
SECTION
  2
TABLES
  0
TABLE
  2
LTYPE
 70
     9
  0
LTYPE
  2
CONTINUOUS
 70
    64
  3
実線
 72
    65
 73
     0
 40
0.0
  0
LTYPE
  2
DASHED1
 70
    64
  3
--  --  --  --  --  --  --  --  
 72
    65
 73
     2
 40
2.5
 49
1.25
 49
-1.25
  0
LTYPE
  2
DASHED2
 70
    64
  3
----    ----    ----    ----    
 72
    65
 73
     2
 40
5.0
 49
2.5
 49
-2.5
  0
LTYPE
  2
DASHED3
 70
    64
  3
------  ------  ------  ------  
 72
    65
 73
     2
 40
5.0
 49
3.75
 49
-1.25
  0
LTYPE
  2
CENTER1
 70
    64
  3
----- - ----- - ----- - ----- - 
 72
    65
 73
     4
 40
10.0
 49
6.25
 49
-1.25
 49
1.25
 49
-1.25
  0
LTYPE
  2
CENTER2
 70
    64
  3
----------  --  ----------  --  
 72
    65
 73
     4
 40
20.0
 49
12.5
 49
-2.5
 49
2.5
 49
-2.5
  0
LTYPE
  2
PHANTOM1
 70
    64
  3
--- - - --- - - --- - - --- - - 
 72
    65
 73
     6
 40
10.0
 49
3.25
 49
-1.25
 49
1.25
 49
-1.25
 49
1.25
 49
-1.25
  0
LTYPE
  2
PHANTOM2
 70
    64
  3
--------  -  -  --------  -  -  
 72
    65
 73
     6
 40
20.0
 49
10.0
 49
-2.5
 49
1.25
 49
-2.5
 49
1.25
 49
-2.5
  0
LTYPE
  2
DOT
 70
    64
  3
-   -   -   -   -   -   -   -   
 72
    65
 73
     2
 40
2.5
 49
0.625
 49
-1.875
  0
LTYPE
  2
DUMMY
 70
    64
  3
ダミー
 72
    65
 73
     0
 40
0.0
  0
LTYPE
  2
RAND1
 70
    64
  3
ランダム線1
 72
    65
 73
     4
 40
10.0
 49
1.0
 49
-2.0
 49
3.0
 49
-4.0
  0
LTYPE
  2
RAND2
 70
    64
  3
ランダム線2
 72
    65
 73
     4
 40
14.0
 49
2.0
 49
-3.0
 49
4.0
 49
-5.0
  0
LTYPE
  2
RAND3
 70
    64
  3
ランダム線3
 72
    65
 73
     4
 40
18.0
 49
3.0
 49
-4.0
 49
5.0
 49
-6.0
  0
LTYPE
  2
RAND4
 70
    64
  3
ランダム線4
 72
    65
 73
     4
 40
22.0
 49
4.0
 49
-5.0
 49
6.0
 49
-7.0
  0
LTYPE
  2
RAND5
 70
    64
  3
ランダム線5
 72
    65
 73
     4
 40
26.0
 49
5.0
 49
-6.0
 49
7.0
 49
-8.0
  0
LTYPE
  2
LONG1
 70
    64
  3
----------  --  ----------  --  
 72
    65
 73
     4
 40
40.0
 49
32.5
 49
-2.5
 49
2.5
 49
-2.5
  0
LTYPE
  2
LONG2
 70
    64
  3
--------  -  -  --------  -  -  
 72
    65
 73
     6
 40
40.0
 49
30.0
 49
-2.5
 49
1.25
 49
-2.5
 49
1.25
 49
-2.5
  0
LTYPE
  2
LONG3
 70
    64
  3
+++++++++++++++..+++++++++++++++
 72
    65
 73
     2
 40
40.0
 49
37.5
 49
-2.5
  0
LTYPE
  2
LONG4
 70
    64
  3
+++++++++++++++..+++++++++++++++
 72
    65
 73
     2
 40
80.0
 49
75.0
 49
-5.0
  0
LTYPE
  2
LONG5
 70
    64
  3
----------  --  ----------  --  
 72
    65
 73
     4
 40
60.0
 49
37.5
 49
-7.5
 49
7.5
 49
-7.5
  0
LTYPE
  2
dashed
 70
   64
  3
-------   -------------   ------
 72
   65
 73
    2
 40
7.5
 49
6
 49
-1.5
  0
LTYPE
  2
dashed_spaced
 70
   64
  3
----        --------        ----
 72
   65
 73
    2
 40
12
 49
6
 49
-6
  0
LTYPE
  2
long_dashed_dotted
 70
   64
  3
------------- --- --------------
 72
   65
 73
    4
 40
15.25
 49
12
 49
-1.5
 49
0.25
 49
-1.5
  0
LTYPE
  2
long_dashed_double-dotted
 70
   64
  3
----------- --- --- ------------
 72
   65
 73
    6
 40
17
 49
12
 49
-1.5
 49
0.25
 49
-1.5
 49
0.25
 49
-1.5
  0
LTYPE
  2
long_dashed_triplicate-dotted
 70
   64
  3
--------- --- --- --- ----------
 72
   65
 73
    8
 40
18.75
 49
12
 49
-1.5
 49
0.25
 49
-1.5
 49
0.25
 49
-1.5
 49
0.25
 49
-1.5
  0
LTYPE
  2
dotted
 70
   64
  3
   -       -       -       -    
 72
   65
 73
    2
 40
1.75
 49
0.25
 49
-1.5
  0
LTYPE
  2
chain
 70
   64
  3
-------------- -- --------------
 72
   65
 73
    4
 40
18.5
 49
12
 49
-1.5
 49
3.5
 49
-1.5
  0
LTYPE
  2
chain_double_dash
 70
   64
  3
------------ -- -- -------------
 72
   65
 73
    6
 40
23.5
 49
12
 49
-1.5
 49
3.5
 49
-1.5
 49
3.5
 49
-1.5
  0
LTYPE
  2
dashed_dotted
 70
   64
  3
-----------     -     ----------
 72
   65
 73
    4
 40
9.25
 49
6
 49
-1.5
 49
0.25
 49
-1.5
  0
LTYPE
  2
double-dashed_dotted
 70
   64
  3
------   -----------   -   -----
 72
   65
 73
    6
 40
16.75
 49
6
 49
-1.5
 49
6
 49
-1.5
 49
0.25
 49
-1.5
  0
LTYPE
  2
dashed_double-dotted
 70
   64
  3
---------    -    -    ---------
 72
   65
 73
    6
 40
11
 49
6
 49
-1.5
 49
0.25
 49
-1.5
 49
0.25
 49
-1.5
  0
LTYPE
  2
double-dashed_double-dotted
 70
   64
  3
-----   ---------   -   -   ----
 72
   65
 73
    8
 40
18.5
 49
6
 49
-1.5
 49
6
 49
-1.5
 49
0.25
 49
-1.5
 49
0.25
 49
-1.5
  0
LTYPE
  2
dashed_triplicate-dotted
 70
   64
  3
-------    -    -    -    ------
 72
   65
 73
    8
 40
12.75
 49
6
 49
-1.5
 49
0.25
 49
-1.5
 49
0.25
 49
-1.5
 49
0.25
 49
-1.5
  0
LTYPE
  2
double-dashed_triplicate-dotted
 70
   64
  3
-----  ---------  -  -  -  -----
 72
   65
 73
   10
 40
20.25
 49
6
 49
-1.5
 49
6
 49
-1.5
 49
0.25
 49
-1.5
 49
0.25
 49
-1.5
 49
0.25
 49
-1.5
  0
LTYPE
  2
undefined
 70
   64
  3
--------------------------------
 72
   65
 73
    0
 40
0
  0
LTYPE
  2
PLINE2
 70
   64
  3
------     -----------     -----
 72
   65
 73
    2
 40
3
 49
2.1000000000000001
 49
-0.9
  0
LTYPE
  2
PLINE3
 70
   64
  3
------------   ---   -----------
 72
   65
 73
    4
 40
10
 49
7
 49
-1
 49
1
 49
-1
  0
LTYPE
  2
PLINE4
 70
   64
  3
---------   ---   ---   --------
 72
   65
 73
    6
 40
10
 49
5
 49
-1
 49
1
 49
-1
 49
1
 49
-1
  0
LTYPE
  2
PLINE5
 70
   64
  3
------     -----------     -----
 72
   65
 73
    2
 40
5
 49
3.5
 49
-1.5
  0
LTYPE
  2
PLINE6
 70
   64
  3
------------   ---   -----------
 72
   65
 73
    4
 40
15
 49
10.5
 49
-1.5
 49
1.5
 49
-1.5
  0
LTYPE
  2
PLINE7
 70
   64
  3
---------   ---   ---   --------
 72
   65
 73
    6
 40
15
 49
7.5
 49
-1.5
 49
1.5
 49
-1.5
 49
1.5
 49
-1.5
  0
LTYPE
  2
PLINE8
 70
   64
  3
------     -----------     -----
 72
   65
 73
    2
 40
7
 49
4.9000000000000004
 49
-2.1000000000000001
  0
LTYPE
  2
PLINE9
 70
   64
  3
------------   ---   -----------
 72
   65
 73
    4
 40
20
 49
14
 49
-2
 49
2
 49
-2
  0
LTYPE
  2
PLINE10
 70
   64
  3
---------   ---   ---   --------
 72
   65
 73
    6
 40
20
 49
10
 49
-2
 49
2
 49
-2
 49
2
 49
-2
  0
LTYPE
  2
PLINE11
 70
   64
  3
------     -----------     -----
 72
   65
 73
    2
 40
9
 49
6.2999999999999989
 49
-2.7000000000000002
  0
LTYPE
  2
PLINE12
 70
   64
  3
------------   ---   -----------
 72
   65
 73
    4
 40
25
 49
17.5
 49
-2.5
 49
2.5
 49
-2.5
  0
LTYPE
  2
PLINE13
 70
   64
  3
---------   ---   ---   --------
 72
   65
 73
    6
 40
25
 49
12.5
 49
-2.5
 49
2.5
 49
-2.5
 49
2.5
 49
-2.5
  0
LTYPE
  2
PLINE14
 70
   64
  3
------     -----------     -----
 72
   65
 73
    2
 40
11
 49
7.7000000000000002
 49
-3.2999999999999989
  0
LTYPE
  2
PLINE15
 70
   64
  3
------------   ---   -----------
 72
   65
 73
    4
 40
30
 49
21
 49
-3
 49
3
 49
-3
  0
LTYPE
  2
PLINE16
 70
   64
  3
---------   ---   ---   --------
 72
   65
 73
    6
 40
30
 49
15
 49
-3
 49
3
 49
-3
 49
3
 49
-3
  0
ENDTAB
  0
TABLE
  2
STYLE
  5
3
100
AcDbSymbolTable
 70
     1
  0
STYLE
  5
10
100
AcDbSymbolTableRecord
100
AcDbTextStyleTableRecord
  2
STANDARD
 70
     0
 40
0.0
 41
1.0
 50
0.0
 71
     0
 42
0.2
  3
txt
  4
bigfont.shx
  0
STYLE
  5
26
100
AcDbSymbolTableRecord
100
AcDbTextStyleTableRecord
  2
TATEGAKI
 70
    68
 40
0.0
 41
1.0
 50
0.0
 71
     0
 42
1.0
  3
txt
  4
bigfont.shx
  0
ENDTAB
  0
TABLE
  2
LAYER
 70
    4
  0
LAYER
  2
_0-2_寸法
 70
   64
 62
    7
  6
CONTINUOUS
  0
LAYER
  2
_0-3_躯体と製品
 70
   64
 62
    7
  6
CONTINUOUS
  0
LAYER
  2
_0-4_文字-記号
 70
   64
 62
    7
  6
CONTINUOUS
  0
LAYER
  2
ADD_LINE
 70
   64
 62
    7
  6
CONTINUOUS
  0
ENDTAB
  0
ENDSEC
  0
SECTION
  2
BLOCKS
  0
BLOCK
  2
-000-_Dot
 70
   64
 10
0
 20
0
 30
0
  0
CIRCLE
  8
_0-0_0
  6
CONTINUOUS
 62
    7
 10
0
 20
0
 40
0.03125
  0
LINE
  8
_0-0_0
  6
CONTINUOUS
 62
    7
 10
0.03125
 20
0
 11
-0.03125
 21
0
  0
LINE
  8
_0-0_0
  6
CONTINUOUS
 62
    7
 10
-0.0625
 20
0
 11
-0.125
 21
0
  0
ENDBLK
  0
BLOCK
  2
-001-_D4
 70
   64
 10
0
 20
0
 30
0
  0
LINE
  8
_0-2_寸法
  6
CONTINUOUS
 62
    4
 10
287.23940972670499
 20
247.46594259775088
 11
272.80865972670478
 21
247.46594259775088
  0
LINE
  8
_0-2_寸法
  6
CONTINUOUS
 62
    4
 10
287.23940972670499
 20
272.46594259775077
 11
272.80865972670478
 21
272.46594259775077
  0
LINE
  8
_0-2_寸法
  6
CONTINUOUS
 62
    4
 10
272.80865972670478
 20
247.59094259775088
 11
272.80865972670478
 21
272.34094259775088
  0
INSERT
  2
-000-_Dot
  8
_0-2_寸法
 10
272.80865972670478
 20
247.46594259775088
 41
1
 42
1
 50
270
  0
INSERT
  2
-000-_Dot
  8
_0-2_寸法
 10
272.80865972670478
 20
272.46594259775077
 41
1
 42
1
 50
90
  0
TEXT
  8
_0-2_寸法
 62
    7
 10
272.68365972670478
 20
254.96594259775088
 40
2.5
 41
1
 50
90
  1
150・200
  0
POINT
  8
_0-1_Defpoints
 62
    7
 10
287.23940972670499
 20
247.46594259775088
  0
POINT
  8
_0-1_Defpoints
 62
    7
 10
287.23940972670499
 20
272.46594259775077
  0
POINT
  8
_0-1_Defpoints
 62
    7
 10
272.80865972670478
 20
272.46594259775077
  0
ENDBLK
  0
BLOCK
  2
-002-_D5
 70
   64
 10
0
 20
0
 30
0
  0
LINE
  8
_0-2_寸法
  6
CONTINUOUS
 62
    4
 10
288.12716472670502
 20
273.86390134775075
 11
288.12716472670502
 21
290.33102634775076
  0
LINE
  8
_0-2_寸法
  6
CONTINUOUS
 62
    4
 10
303.12716472670502
 20
273.86390134775075
 11
303.12716472670502
 21
290.33102634775076
  0
LINE
  8
_0-2_寸法
  6
CONTINUOUS
 62
    4
 10
288.25216472670502
 20
290.33102634775076
 11
303.00216472670502
 21
290.33102634775076
  0
INSERT
  2
-000-_Dot
  8
_0-2_寸法
 10
288.12716472670502
 20
290.33102634775076
 41
1
 42
1
 50
180
  0
INSERT
  2
-000-_Dot
  8
_0-2_寸法
 10
303.12716472670502
 20
290.33102634775076
 41
1
 42
1
 50
0
  0
TEXT
  8
_0-2_寸法
 62
    7
 10
293.75216472670502
 20
290.45602634775076
 40
2.5
 41
1
 50
0
  1
120
  0
POINT
  8
_0-1_Defpoints
 62
    7
 10
288.12716472670502
 20
273.86390134775075
  0
POINT
  8
_0-1_Defpoints
 62
    7
 10
303.12716472670502
 20
273.86390134775075
  0
POINT
  8
_0-1_Defpoints
 62
    7
 10
303.12716472670502
 20
290.33102634775076
  0
ENDBLK
  0
BLOCK
  2
-003-_D6
 70
   64
 10
0
 20
0
 30
0
  0
LINE
  8
_0-2_寸法
  6
CONTINUOUS
 62
    4
 10
167.97716472670487
 20
109.71594259775081
 11
167.97716472670487
 21
81.6334425977508
  0
LINE
  8
_0-2_寸法
  6
CONTINUOUS
 62
    4
 10
280.47716472670487
 20
109.71594259775081
 11
280.47716472670487
 21
81.6334425977508
  0
LINE
  8
_0-2_寸法
  6
CONTINUOUS
 62
    4
 10
168.10216472670487
 20
81.6334425977508
 11
280.35216472670487
 21
81.6334425977508
  0
INSERT
  2
-000-_Dot
  8
_0-2_寸法
 10
167.97716472670487
 20
81.6334425977508
 41
1
 42
1
 50
180
  0
INSERT
  2
-000-_Dot
  8
_0-2_寸法
 10
280.47716472670487
 20
81.6334425977508
 41
1
 42
1
 50
0
  0
TEXT
  8
_0-2_寸法
 62
    7
 10
221.72716472670487
 20
81.758442597750786
 40
2.5
 41
1
 50
0
  1
@900
  0
POINT
  8
_0-1_Defpoints
 62
    7
 10
167.97716472670487
 20
109.71594259775081
  0
POINT
  8
_0-1_Defpoints
 62
    7
 10
280.47716472670487
 20
109.71594259775081
  0
POINT
  8
_0-1_Defpoints
 62
    7
 10
280.47716472670487
 20
81.6334425977508
  0
ENDBLK
  0
BLOCK
  2
-004-_D7
 70
   64
 10
0
 20
0
 30
0
  0
LINE
  8
_0-2_寸法
  6
CONTINUOUS
 62
    4
 10
280.47716472670487
 20
109.71594259775081
 11
280.47716472670487
 21
81.6334425977508
  0
LINE
  8
_0-2_寸法
  6
CONTINUOUS
 62
    4
 10
295.93966472670502
 20
109.71594259775081
 11
295.93966472670502
 21
81.6334425977508
  0
LINE
  8
_0-2_寸法
  6
CONTINUOUS
 62
    4
 10
280.60216472670487
 20
81.6334425977508
 11
295.81466472670502
 21
81.6334425977508
  0
INSERT
  2
-000-_Dot
  8
_0-2_寸法
 10
280.47716472670487
 20
81.6334425977508
 41
1
 42
1
 50
180
  0
INSERT
  2
-000-_Dot
  8
_0-2_寸法
 10
295.93966472670502
 20
81.6334425977508
 41
1
 42
1
 50
0
  0
TEXT
  8
_0-2_寸法
 62
    7
 10
283.83341472670486
 20
81.758442597750786
 40
2.5
 41
1
 50
0
  1
150以内
  0
POINT
  8
_0-1_Defpoints
 62
    7
 10
280.47716472670487
 20
109.71594259775081
  0
POINT
  8
_0-1_Defpoints
 62
    7
 10
295.93966472670502
 20
109.71594259775081
  0
POINT
  8
_0-1_Defpoints
 62
    7
 10
295.93966472670502
 20
81.6334425977508
  0
ENDBLK
  0
BLOCK
  2
-005-_D8
 70
   64
 10
0
 20
0
 30
0
  0
LINE
  8
_0-2_寸法
  6
CONTINUOUS
 62
    4
 10
300.528447226705
 20
109.64098759775075
 11
300.528447226705
 21
81.6334425977508
  0
LINE
  8
_0-2_寸法
  6
CONTINUOUS
 62
    4
 10
324.06466472670502
 20
109.71594259775081
 11
324.06466472670502
 21
81.6334425977508
  0
LINE
  8
_0-2_寸法
  6
CONTINUOUS
 62
    4
 10
300.653447226705
 20
81.6334425977508
 11
323.93966472670502
 21
81.6334425977508
  0
INSERT
  2
-000-_Dot
  8
_0-2_寸法
 10
300.528447226705
 20
81.6334425977508
 41
1
 42
1
 50
180
  0
INSERT
  2
-000-_Dot
  8
_0-2_寸法
 10
324.06466472670502
 20
81.6334425977508
 41
1
 42
1
 50
0
  0
TEXT
  8
_0-2_寸法
 62
    7
 10
307.29655597670501
 20
81.758442597750786
 40
2.5
 41
1
 50
0
  1
175～200
  0
POINT
  8
_0-1_Defpoints
 62
    7
 10
300.528447226705
 20
109.64098759775075
  0
POINT
  8
_0-1_Defpoints
 62
    7
 10
324.06466472670502
 20
109.71594259775081
  0
POINT
  8
_0-1_Defpoints
 62
    7
 10
324.06466472670502
 20
81.6334425977508
  0
ENDBLK
  0
BLOCK
  2
-006-_D9
 70
   64
 10
0
 20
0
 30
0
  0
LINE
  8
_0-2_寸法
  6
CONTINUOUS
 62
    4
 10
324.06466472670502
 20
109.71594259775081
 11
324.06466472670502
 21
81.6334425977508
  0
LINE
  8
_0-2_寸法
  6
CONTINUOUS
 62
    4
 10
324.18966472670502
 20
81.6334425977508
 11
342.77091472670497
 21
81.6334425977508
  0
INSERT
  2
-000-_Dot
  8
_0-2_寸法
 10
324.06466472670502
 20
81.6334425977508
 41
1
 42
1
 50
180
  0
INSERT
  2
-000-_Dot
  8
_0-2_寸法
 10
342.89591472670497
 20
81.6334425977508
 41
1
 42
1
 50
0
  0
TEXT
  8
_0-2_寸法
 62
    7
 10
329.105289726705
 20
81.758442597750786
 40
2.5
 41
1
 50
0
  1
900以内
  0
POINT
  8
_0-1_Defpoints
 62
    7
 10
324.06466472670502
 20
109.71594259775081
  0
POINT
  8
_0-1_Defpoints
 62
    7
 10
342.89591472670497
 20
81.6334425977508
  0
POINT
  8
_0-1_Defpoints
 62
    7
 10
342.89591472670497
 20
81.6334425977508
  0
ENDBLK
  0
BLOCK
  2
-007-_D10
 70
   64
 10
0
 20
0
 30
0
  0
LINE
  8
_0-2_寸法
  6
CONTINUOUS
 62
    4
 10
384.119550976705
 20
118.7909425977508
 11
384.119550976705
 21
81.6334425977508
  0
LINE
  8
_0-2_寸法
  6
CONTINUOUS
 62
    4
 10
370.00391097670473
 20
81.6334425977508
 11
383.994550976705
 21
81.6334425977508
  0
INSERT
  2
-000-_Dot
  8
_0-2_寸法
 10
369.8789109767049
 20
81.6334425977508
 41
1
 42
1
 50
180
  0
INSERT
  2
-000-_Dot
  8
_0-2_寸法
 10
384.119550976705
 20
81.6334425977508
 41
1
 42
1
 50
0
  0
TEXT
  8
_0-2_寸法
 62
    7
 10
373.24923097670489
 20
81.758442597750786
 40
2.5
 41
1
 50
0
  1
＠1250
  0
POINT
  8
_0-1_Defpoints
 62
    7
 10
369.8789109767049
 20
81.6334425977508
  0
POINT
  8
_0-1_Defpoints
 62
    7
 10
384.119550976705
 20
118.7909425977508
  0
POINT
  8
_0-1_Defpoints
 62
    7
 10
384.119550976705
 20
81.6334425977508
  0
ENDBLK
  0
BLOCK
  2
-008-_D11
 70
   64
 10
0
 20
0
 30
0
  0
LINE
  8
_0-2_寸法
  6
CONTINUOUS
 62
    4
 10
384.119550976705
 20
118.7909425977508
 11
384.119550976705
 21
81.6334425977508
  0
LINE
  8
_0-2_寸法
  6
CONTINUOUS
 62
    4
 10
540.369550976705
 20
109.71594259775081
 11
540.369550976705
 21
81.6334425977508
  0
LINE
  8
_0-2_寸法
  6
CONTINUOUS
 62
    4
 10
384.244550976705
 20
81.6334425977508
 11
540.24455097670489
 21
81.6334425977508
  0
INSERT
  2
-000-_Dot
  8
_0-2_寸法
 10
384.119550976705
 20
81.6334425977508
 41
1
 42
1
 50
180
  0
INSERT
  2
-000-_Dot
  8
_0-2_寸法
 10
540.369550976705
 20
81.6334425977508
 41
1
 42
1
 50
0
  0
TEXT
  8
_0-2_寸法
 62
    7
 10
459.744550976705
 20
81.758442597750786
 40
2.5
 41
1
 50
0
  1
1250
  0
POINT
  8
_0-1_Defpoints
 62
    7
 10
384.119550976705
 20
118.7909425977508
  0
POINT
  8
_0-1_Defpoints
 62
    7
 10
540.369550976705
 20
109.71594259775081
  0
POINT
  8
_0-1_Defpoints
 62
    7
 10
540.369550976705
 20
81.6334425977508
  0
ENDBLK
  0
BLOCK
  2
-009-_D12
 70
   64
 10
0
 20
0
 30
0
  0
LINE
  8
_0-2_寸法
  6
CONTINUOUS
 62
    4
 10
540.369550976705
 20
109.71594259775081
 11
540.369550976705
 21
81.6334425977508
  0
LINE
  8
_0-2_寸法
  6
CONTINUOUS
 62
    4
 10
540.494550976705
 20
81.6334425977508
 11
560.76330097670484
 21
81.6334425977508
  0
INSERT
  2
-000-_Dot
  8
_0-2_寸法
 10
540.369550976705
 20
81.6334425977508
 41
1
 42
1
 50
180
  0
INSERT
  2
-000-_Dot
  8
_0-2_寸法
 10
560.88830097670495
 20
81.6334425977508
 41
1
 42
1
 50
0
  0
TEXT
  8
_0-2_寸法
 62
    7
 10
546.87892597670498
 20
81.758442597750786
 40
2.5
 41
1
 50
0
  1
＠1250
  0
POINT
  8
_0-1_Defpoints
 62
    7
 10
540.369550976705
 20
109.71594259775081
  0
POINT
  8
_0-1_Defpoints
 62
    7
 10
560.88830097670495
 20
81.6334425977508
  0
POINT
  8
_0-1_Defpoints
 62
    7
 10
560.88830097670495
 20
81.6334425977508
  0
ENDBLK
  0
ENDSEC
  0
SECTION
  2
ENTITIES
  0
LINE
  8
_0-3_躯体と製品
  6
CONTINUOUS
 62
    4
 10
260.25835500000176
 20
767.11966499999994
 11
382.12954500000069
 21
767.11966499999994
  0
LINE
  8
_0-3_躯体と製品
  6
CONTINUOUS
 62
    3
 10
1815.0222250000006
 20
797.11966499999994
 11
260.25835500000176
 21
797.11966499999994
  0
LINE
  8
_0-3_躯体と製品
  6
CONTINUOUS
 62
    3
 10
1815.0222250000006
 20
812.11966499999994
 11
260.25835500000176
 21
812.11966499999994
  0
LINE
  8
_0-3_躯体と製品
  6
CONTINUOUS
 62
    7
 10
1815.0222250000006
 20
830.11966499999994
 11
260.25835500000176
 21
830.11966499999994
  0
LINE
  8
_0-3_躯体と製品
  6
CONTINUOUS
 62
    4
 10
260.25835500000176
 20
717.11966499999994
 11
382.12954500000069
 21
717.11966499999994
  0
LINE
  8
_0-3_躯体と製品
  6
CONTINUOUS
 62
    4
 10
260.25835500000176
 20
-232.88033500000029
 11
1007.1295449999998
 21
-232.88033500000029
  0
LINE
  8
_0-3_躯体と製品
  6
CONTINUOUS
 62
    7
 10
1815.0222250000006
 20
-169.88033499999915
 11
260.25835500000176
 21
-169.88033499999915
  0
LINE
  8
_0-3_躯体と製品
  6
CONTINUOUS
 62
    3
 10
1815.0222250000006
 20
-187.88033500000029
 11
260.25835500000176
 21
-187.88033500000029
  0
LINE
  8
_0-3_躯体と製品
  6
CONTINUOUS
 62
    3
 10
1815.0222250000006
 20
-202.88033500000029
 11
260.25835500000176
 21
-202.88033500000029
  0
LINE
  8
_0-3_躯体と製品
  6
CONTINUOUS
 62
    4
 10
260.25835500000176
 20
-281.4803350000002
 11
362.12954500000069
 21
-281.4803350000002
  0
LINE
  8
_0-3_躯体と製品
  6
CONTINUOUS
 62
    7
 10
1815.0222250000006
 20
-469.88033499999915
 11
260.25835500000176
 21
-469.88033499999915
  0
LINE
  8
_0-3_躯体と製品
  6
CONTINUOUS
 62
    7
 10
-51.959544999999252
 20
482.11766499999976
 11
-51.959544999999252
 21
-169.88033499999915
  0
LINE
  8
_0-3_躯体と製品
  6
CONTINUOUS
 62
    7
 10
-94.659544999999525
 20
482.11766499999976
 11
-94.659544999999525
 21
-169.88033499999915
  0
LINE
  8
_0-3_躯体と製品
  6
PLINE3
 62
    3
 10
-360.80954499999916
 20
590.11966500000085
 11
-360.80954499999916
 21
-149.88033499999915
  0
LINE
  8
_0-3_躯体と製品
  6
PLINE3
 62
    3
 10
-330.80954499999916
 20
590.11966500000085
 11
-330.80954499999916
 21
-149.88033499999915
  0
LINE
  8
_0-3_躯体と製品
  6
CONTINUOUS
 62
    7
 10
-223.30954499999916
 20
475.71966499999985
 11
-223.30954499999916
 21
-407.50033499999984
  0
LINE
  8
_0-3_躯体と製品
  6
CONTINUOUS
 62
    7
 10
-298.30954499999916
 20
451.31966499999885
 11
-298.30954499999916
 21
-469.88033499999915
  0
LINE
  8
_0-3_躯体と製品
  6
CONTINUOUS
 62
    7
 10
-1401.7795449999994
 20
-169.88033499999915
 11
-298.30954499999916
 21
-169.88033499999915
  0
LINE
  8
_0-3_躯体と製品
  6
CONTINUOUS
 62
    3
 10
-1401.4395450000004
 20
-187.88033500000029
 11
-298.30954499999916
 21
-187.88033500000029
  0
LINE
  8
_0-3_躯体と製品
  6
CONTINUOUS
 62
    3
 10
-1401.4395450000004
 20
-202.88033500000029
 11
-303.30954499999916
 21
-202.88033500000029
  0
LINE
  8
_0-3_躯体と製品
  6
CONTINUOUS
 62
    4
 10
-1297.0095450000003
 20
-232.88033500000029
 11
-447.00954500000034
 21
-232.88033500000029
  0
TEXT
  8
_0-4_文字-記号
 62
    7
 10
-981.46199499999921
 20
-61.588615000000118
 40
50
 41
0.8
 50
0
  1
アリーナ
  0
LINE
  8
_0-3_躯体と製品
  6
CONTINUOUS
 62
    7
 10
158.27535500000067
 20
-469.88033499999915
 11
-1401.7795449999994
 21
-469.88033499999915
  0
LINE
  8
_0-3_躯体と製品
  6
CONTINUOUS
 62
    4
 10
-1297.0095450000003
 20
-282.88033500000029
 11
-447.00954500000034
 21
-282.88033500000029
  0
LINE
  8
_0-3_躯体と製品
  6
CONTINUOUS
 62
    3
 10
-1328.0095450000003
 20
-350.86457499999949
 11
-1328.0095450000003
 21
-331.71033500000021
  0
LINE
  8
_0-3_躯体と製品
  6
CONTINUOUS
 62
    3
 10
-1316.0095449999992
 20
-350.86457499999949
 11
-1316.0095449999992
 21
-331.71033500000021
  0
LINE
  8
_0-3_躯体と製品
  6
CONTINUOUS
 62
    4
 10
-1347.0094150000002
 20
-373.97245499999963
 11
-1347.0094150000002
 21
-464.68036500000051
  0
LINE
  8
_0-3_躯体と製品
  6
CONTINUOUS
 62
    4
 10
-1297.0096749999993
 20
-373.97245499999963
 11
-1297.0096749999993
 21
-464.68036500000051
  0
LINE
  8
_0-3_躯体と製品
  6
CONTINUOUS
 62
    4
 10
-1300.2096550000012
 20
-464.68036500000051
 11
-1300.2096550000012
 21
-367.86448500000017
  0
LINE
  8
_0-3_躯体と製品
  6
CONTINUOUS
 62
    4
 10
-1343.8094350000003
 20
-464.68036500000051
 11
-1343.8094350000003
 21
-367.86448500000017
  0
LINE
  8
_0-3_躯体と製品
  6
CONTINUOUS
 62
    4
 10
-1352.0093950000003
 20
-464.68036500000051
 11
-1292.0096949999993
 21
-464.68036500000051
  0
LINE
  8
_0-3_躯体と製品
  6
CONTINUOUS
 62
    4
 10
-1352.0093950000003
 20
-467.88034499999992
 11
-1292.0096949999993
 21
-467.88034499999992
  0
LINE
  8
_0-3_躯体と製品
  6
PLINE3
 62
    3
 10
-1338.8091250000002
 20
-479.28331500000036
 11
-1338.8091250000002
 21
-469.93953499999986
  0
ARC
  8
_0-3_躯体と製品
  6
CONTINUOUS
 62
    3
 10
-1340.4814549999994
 20
-462.90036499999928
 40
1.9999899999999999
 50
90
 51
180
  0
LINE
  8
_0-3_躯体と製品
  6
CONTINUOUS
 62
    3
 10
-1342.4814450000003
 20
-464.68036500000051
 11
-1342.4814450000003
 21
-462.90036499999928
  0
LINE
  8
_0-3_躯体と製品
  6
CONTINUOUS
 62
    3
 10
-1340.4814549999994
 20
-460.90037500000005
 11
-1337.4814650000003
 21
-460.90037500000005
  0
LINE
  8
_0-3_躯体と製品
  6
CONTINUOUS
 62
    3
 10
-1335.4814749999994
 20
-462.90036499999928
 11
-1335.4814749999994
 21
-464.68036500000051
  0
ARC
  8
_0-3_躯体と製品
  6
CONTINUOUS
 62
    3
 10
-1337.4814650000003
 20
-462.90036499999928
 40
1.9999899999999999
 50
0
 51
90
  0
LINE
  8
_0-3_躯体と製品
  6
CONTINUOUS
 62
    4
 10
-1352.0093950000003
 20
-464.68036500000051
 11
-1352.0093950000003
 21
-469.88033499999915
  0
LINE
  8
_0-3_躯体と製品
  6
CONTINUOUS
 62
    4
 10
-1292.0096949999993
 20
-464.68036500000051
 11
-1292.0096949999993
 21
-469.88033499999915
  0
LINE
  8
_0-3_躯体と製品
  6
CONTINUOUS
 62
    3
 10
-1308.0096150000013
 20
-363.86450500000035
 11
-1336.0094750000003
 21
-363.86450500000035
  0
ARC
  8
_0-3_躯体と製品
  6
CONTINUOUS
 62
    3
 10
-1328.0095150000013
 20
-362.91451500000005
 40
12.049939999999999
 50
60.137165999993961
 51
90
  0
LINE
  8
_0-3_躯体と製品
  6
CONTINUOUS
 62
    3
 10
-1334.0094849999994
 20
-363.86450500000035
 11
-1310.0096050000004
 21
-363.86450500000035
  0
LINE
  8
_0-3_躯体と製品
  6
CONTINUOUS
 62
    3
 10
-1311.6095950000004
 20
-350.86457499999949
 11
-1332.4094949999992
 21
-350.86457499999949
  0
LINE
  8
_0-3_躯体と製品
  6
CONTINUOUS
 62
    4
 10
-1352.0093950000003
 20
-367.86448500000017
 11
-1292.0096949999993
 21
-367.86448500000017
  0
LINE
  8
_0-3_躯体と製品
  6
CONTINUOUS
 62
    4
 10
-1347.0094150000002
 20
-373.97245499999963
 11
-1343.8094350000003
 21
-373.97245499999963
  0
LINE
  8
_0-3_躯体と製品
  6
CONTINUOUS
 62
    3
 10
-1336.0094750000003
 20
-363.86450500000035
 11
-1336.0094750000003
 21
-367.86448500000017
  0
LINE
  8
_0-3_躯体と製品
  6
CONTINUOUS
 62
    3
 10
-1334.0094849999994
 20
-352.46456500000033
 11
-1332.4094949999992
 21
-350.86457499999949
  0
LINE
  8
_0-3_躯体と製品
  6
CONTINUOUS
 62
    3
 10
-1334.0094849999994
 20
-352.46456500000033
 11
-1334.0094849999994
 21
-363.86450500000035
  0
LINE
  8
_0-3_躯体と製品
  6
CONTINUOUS
 62
    4
 10
-1352.0093950000003
 20
-371.06447499999956
 11
-1343.8094350000003
 21
-371.06447499999956
  0
LINE
  8
_0-3_躯体と製品
  6
CONTINUOUS
 62
    4
 10
-1352.0093950000003
 20
-367.86448500000017
 11
-1352.0093950000003
 21
-371.06447499999956
  0
LINE
  8
_0-3_躯体と製品
  6
CONTINUOUS
 62
    4
 10
-1300.2096550000012
 20
-373.97245499999963
 11
-1297.0096749999993
 21
-373.97245499999963
  0
LINE
  8
_0-3_躯体と製品
  6
CONTINUOUS
 62
    3
 10
-1308.0096150000013
 20
-367.86448500000017
 11
-1308.0096150000013
 21
-363.86450500000035
  0
LINE
  8
_0-3_躯体と製品
  6
CONTINUOUS
 62
    3
 10
-1322.0095450000003
 20
-352.46456500000033
 11
-1322.0095450000003
 21
-363.86450500000035
  0
ARC
  8
_0-3_躯体と製品
  6
CONTINUOUS
 62
    3
 10
-1316.0095750000003
 20
-362.91451500000005
 40
12.049939999999999
 50
90
 51
119.86283400000599
  0
LINE
  8
_0-3_躯体と製品
  6
CONTINUOUS
 62
    3
 10
-1311.6095950000004
 20
-350.86457499999949
 11
-1310.0096050000004
 21
-352.46456500000033
  0
LINE
  8
_0-3_躯体と製品
  6
CONTINUOUS
 62
    3
 10
-1310.0096050000004
 20
-363.86450500000035
 11
-1310.0096050000004
 21
-352.46456500000033
  0
LINE
  8
_0-3_躯体と製品
  6
CONTINUOUS
 62
    4
 10
-1300.2096550000012
 20
-371.06447499999956
 11
-1292.0096949999993
 21
-371.06447499999956
  0
LINE
  8
_0-3_躯体と製品
  6
CONTINUOUS
 62
    4
 10
-1292.0096949999993
 20
-367.86448500000017
 11
-1292.0096949999993
 21
-371.06447499999956
  0
LINE
  8
_0-3_躯体と製品
  6
CONTINUOUS
 62
    3
 10
-1195.8445449999992
 20
-569.43033499999967
 11
-1138.3695450000002
 21
-469.88033499999915
  0
LINE
  8
_0-3_躯体と製品
  6
CONTINUOUS
 62
    3
 10
-1212.0105450000003
 20
-569.43033499999967
 11
-1154.5355450000013
 21
-469.88033499999915
  0
LINE
  8
_0-3_躯体と製品
  6
CONTINUOUS
 62
    3
 10
-1203.9275449999993
 20
-569.43033499999967
 11
-1146.4525449999994
 21
-469.88033499999915
  0
LINE
  8
_0-3_躯体と製品
  6
CONTINUOUS
 62
    4
 10
-1401.4395450000004
 20
-232.88033500000029
 11
-1347.0095450000003
 21
-232.88033500000029
  0
LINE
  8
_0-3_躯体と製品
  6
CONTINUOUS
 62
    4
 10
-1401.4395450000004
 20
-282.88033500000029
 11
-1347.0095450000003
 21
-282.88033500000029
  0
LINE
  8
_0-3_躯体と製品
  6
CONTINUOUS
 62
    3
 10
-1312.0095949999993
 20
-225.09884500000021
 11
-1312.0095949999993
 21
-285.66228500000011
  0
LINE
  8
_0-3_躯体と製品
  6
CONTINUOUS
 62
    3
 10
-1332.0094949999993
 20
-225.09884500000021
 11
-1332.0094949999993
 21
-285.66228500000011
  0
LINE
  8
_0-3_躯体と製品
  6
CONTINUOUS
 62
    3
 10
-1342.0094450000013
 20
-225.09884500000021
 11
-1342.0094450000013
 21
-285.66228500000011
  0
LINE
  8
_0-3_躯体と製品
  6
CONTINUOUS
 62
    3
 10
-1302.0096450000003
 20
-225.09884500000021
 11
-1302.0096450000003
 21
-285.66228500000011
  0
LINE
  8
_0-3_躯体と製品
  6
CONTINUOUS
 62
    4
 10
-1297.0096749999993
 20
-300.18033500000024
 11
-1297.0096749999993
 21
-216.88075500000014
  0
LINE
  8
_0-3_躯体と製品
  6
CONTINUOUS
 62
    4
 10
-1347.0094150000002
 20
-216.88075500000014
 11
-1347.0094150000002
 21
-300.18033500000024
  0
LINE
  8
_0-3_躯体と製品
  6
CONTINUOUS
 62
    3
 10
-1332.4094949999992
 20
-331.68017500000019
 11
-1311.6095950000004
 21
-331.68017500000019
  0
ARC
  8
_0-3_躯体と製品
  6
CONTINUOUS
 62
    3
 10
-1328.0095150000013
 20
-319.63023500000031
 40
12.049939999999999
 50
270
 51
299.86283400000599
  0
LINE
  8
_0-3_躯体と製品
  6
CONTINUOUS
 62
    3
 10
-1332.0094949999993
 20
-234.00729500000011
 11
-1312.0095949999993
 21
-234.00729500000011
  0
LINE
  8
_0-3_躯体と製品
  6
CONTINUOUS
 62
    3
 10
-1310.0096050000004
 20
-318.68023500000027
 11
-1334.0094849999994
 21
-318.68023500000027
  0
LINE
  8
_0-3_躯体と製品
  6
CONTINUOUS
 62
    3
 10
-1336.0094750000003
 20
-318.68023500000027
 11
-1308.0096150000013
 21
-318.68023500000027
  0
LINE
  8
_0-3_躯体と製品
  6
CONTINUOUS
 62
    3
 10
-1308.0096150000013
 20
-314.68026500000019
 11
-1336.0094750000003
 21
-314.68026500000019
  0
LINE
  8
_0-3_躯体と製品
  6
CONTINUOUS
 62
    3
 10
-1332.4094949999992
 20
-314.68026500000019
 11
-1311.6095950000004
 21
-314.68026500000019
  0
ARC
  8
_0-3_躯体と製品
  6
CONTINUOUS
 62
    3
 10
-1328.0095150000013
 20
-302.63032500000122
 40
12.049939999999999
 50
270
 51
299.86283400000599
  0
LINE
  8
_0-3_躯体と製品
  6
CONTINUOUS
 62
    4
 10
-1340.5094549999992
 20
-301.68032500000027
 11
-1303.5096350000003
 21
-301.68032500000027
  0
LINE
  8
_0-3_躯体と製品
  6
CONTINUOUS
 62
    4
 10
-1347.0094150000002
 20
-300.18033500000024
 11
-1297.0096749999993
 21
-300.18033500000024
  0
LINE
  8
_0-3_躯体と製品
  6
CONTINUOUS
 62
    3
 10
-1334.0094849999994
 20
-318.68023500000027
 11
-1334.0094849999994
 21
-330.08018500000026
  0
LINE
  8
_0-3_躯体と製品
  6
CONTINUOUS
 62
    3
 10
-1332.4094949999992
 20
-331.68017500000019
 11
-1334.0094849999994
 21
-330.08018500000026
  0
LINE
  8
_0-3_躯体と製品
  6
CONTINUOUS
 62
    3
 10
-1336.0094750000003
 20
-314.68026500000019
 11
-1336.0094750000003
 21
-318.68023500000027
  0
LINE
  8
_0-3_躯体と製品
  6
CONTINUOUS
 62
    3
 10
-1334.0094849999994
 20
-301.68032500000027
 11
-1334.0094849999994
 21
-313.08026500000028
  0
LINE
  8
_0-3_躯体と製品
  6
CONTINUOUS
 62
    3
 10
-1332.4094949999992
 20
-314.68026500000019
 11
-1334.0094849999994
 21
-313.08026500000028
  0
ARC
  8
_0-3_躯体と製品
  6
CONTINUOUS
 62
    3
 10
-1337.0094650000012
 20
-285.66228500000011
 40
4.9999700000000002
 50
180
 51
0
  0
ARC
  8
_0-3_躯体と製品
  6
CONTINUOUS
 62
    4
 10
-1340.5094549999992
 20
-300.18033500000024
 40
1.499989999999999
 50
180
 51
270
  0
LINE
  8
_0-3_躯体と製品
  6
CONTINUOUS
 62
    3
 10
-1347.0094150000002
 20
-234.00729500000011
 11
-1342.0094450000013
 21
-234.00729500000011
  0
LINE
  8
_0-3_躯体と製品
  6
CONTINUOUS
 62
    3
 10
-1310.0096050000004
 20
-330.08018500000026
 11
-1310.0096050000004
 21
-318.68023500000027
  0
LINE
  8
_0-3_躯体と製品
  6
CONTINUOUS
 62
    3
 10
-1322.0095450000003
 20
-330.08018500000026
 11
-1322.0095450000003
 21
-318.68023500000027
  0
LINE
  8
_0-3_躯体と製品
  6
CONTINUOUS
 62
    3
 10
-1310.0096050000004
 20
-330.08018500000026
 11
-1311.6095950000004
 21
-331.68017500000019
  0
ARC
  8
_0-3_躯体と製品
  6
CONTINUOUS
 62
    3
 10
-1316.0095750000003
 20
-319.63023500000031
 40
12.049939999999999
 50
240.1371659999939
 51
270
  0
LINE
  8
_0-3_躯体と製品
  6
CONTINUOUS
 62
    3
 10
-1308.0096150000013
 20
-318.68023500000027
 11
-1308.0096150000013
 21
-314.68026500000019
  0
LINE
  8
_0-3_躯体と製品
  6
CONTINUOUS
 62
    3
 10
-1310.0096050000004
 20
-313.08026500000028
 11
-1310.0096050000004
 21
-301.68032500000027
  0
LINE
  8
_0-3_躯体と製品
  6
CONTINUOUS
 62
    3
 10
-1310.0096050000004
 20
-313.08026500000028
 11
-1311.6095950000004
 21
-314.68026500000019
  0
ARC
  8
_0-3_躯体と製品
  6
CONTINUOUS
 62
    3
 10
-1316.0095750000003
 20
-302.63032500000122
 40
12.049939999999999
 50
240.1371659999939
 51
270
  0
LINE
  8
_0-3_躯体と製品
  6
CONTINUOUS
 62
    3
 10
-1322.0095450000003
 20
-313.08026500000028
 11
-1322.0095450000003
 21
-301.68032500000027
  0
ARC
  8
_0-3_躯体と製品
  6
CONTINUOUS
 62
    4
 10
-1303.5096350000003
 20
-300.18033500000024
 40
1.499989999999999
 50
270
 51
0
  0
ARC
  8
_0-3_躯体と製品
  6
CONTINUOUS
 62
    3
 10
-1307.0096250000004
 20
-285.66228500000011
 40
4.9999700000000002
 50
180
 51
0
  0
LINE
  8
_0-3_躯体と製品
  6
CONTINUOUS
 62
    3
 10
-1302.0096450000003
 20
-234.00729500000011
 11
-1297.0096749999993
 21
-234.00729500000011
  0
LINE
  8
_0-3_躯体と製品
  6
CONTINUOUS
 62
    3
 10
-1327.0095149999993
 20
-218.99399500000027
 11
-1322.0095450000003
 21
-216.1072650000001
  0
LINE
  8
_0-3_躯体と製品
  6
CONTINUOUS
 62
    3
 10
-1322.0095450000003
 20
-227.65420500000027
 11
-1327.0095149999993
 21
-224.76746500000013
  0
CIRCLE
  8
_0-3_躯体と製品
  6
CONTINUOUS
 62
    3
 10
-1322.0095450000003
 20
-221.88073500000019
 40
2.499989999999999
  0
CIRCLE
  8
_0-3_躯体と製品
  6
CONTINUOUS
 62
    3
 10
-1322.0095450000003
 20
-221.88073500000019
 40
2.999979999999999
  0
CIRCLE
  8
_0-3_躯体と製品
  6
CONTINUOUS
 62
    3
 10
-1322.0095450000003
 20
-221.88073500000019
 40
4.9999700000000002
  0
LINE
  8
_0-3_躯体と製品
  6
CONTINUOUS
 62
    3
 10
-1332.0094949999993
 20
-227.24519499999928
 11
-1322.7179750000003
 21
-227.24519499999928
  0
LINE
  8
_0-3_躯体と製品
  6
CONTINUOUS
 62
    4
 10
-1301.0096550000003
 20
-212.88077500000031
 11
-1343.0094349999993
 21
-212.88077500000031
  0
LINE
  8
_0-3_躯体と製品
  6
CONTINUOUS
 62
    3
 10
-1327.0095149999993
 20
-224.76746500000013
 11
-1327.0095149999993
 21
-218.99399500000027
  0
LINE
  8
_0-3_躯体と製品
  6
CONTINUOUS
 62
    4
 10
-1327.5095149999993
 20
-223.13072500000021
 11
-1327.1085349999994
 21
-223.13072500000021
  0
ARC
  8
_0-3_躯体と製品
  6
CONTINUOUS
 62
    4
 10
-1327.5095149999993
 20
-222.63072500000021
 40
0.5
 50
180
 51
270
  0
LINE
  8
_0-3_躯体と製品
  6
CONTINUOUS
 62
    4
 10
-1328.0095150000013
 20
-221.13073500000019
 11
-1328.0095150000013
 21
-222.63072500000021
  0
ARC
  8
_0-3_躯体と製品
  6
CONTINUOUS
 62
    4
 10
-1327.5095149999993
 20
-221.13073500000019
 40
0.5
 50
90
 51
180
  0
LINE
  8
_0-3_躯体と製品
  6
CONTINUOUS
 62
    4
 10
-1327.1085349999994
 20
-220.63073500000019
 11
-1327.5095149999993
 21
-220.63073500000019
  0
LINE
  8
_0-3_躯体と製品
  6
CONTINUOUS
 62
    3
 10
-1347.0094150000002
 20
-227.24519499999928
 11
-1342.0094450000013
 21
-227.24519499999928
  0
ARC
  8
_0-3_躯体と製品
  6
CONTINUOUS
 62
    3
 10
-1337.0094650000012
 20
-225.09884500000021
 40
4.9999700000000002
 50
0
 51
180
  0
ARC
  8
_0-3_躯体と製品
  6
CONTINUOUS
 62
    4
 10
-1343.0094349999993
 20
-216.88075500000014
 40
3.9999799999999999
 50
90
 51
180
  0
LINE
  8
_0-3_躯体と製品
  6
CONTINUOUS
 62
    3
 10
-1317.0095749999994
 20
-224.76746500000013
 11
-1322.0095450000003
 21
-227.65420500000027
  0
LINE
  8
_0-3_躯体と製品
  6
CONTINUOUS
 62
    3
 10
-1317.0095749999994
 20
-218.99399500000027
 11
-1317.0095749999994
 21
-224.76746500000013
  0
LINE
  8
_0-3_躯体と製品
  6
CONTINUOUS
 62
    3
 10
-1322.0095450000003
 20
-216.1072650000001
 11
-1317.0095749999994
 21
-218.99399500000027
  0
LINE
  8
_0-3_躯体と製品
  6
CONTINUOUS
 62
    4
 10
-1316.5095750000003
 20
-223.13072500000021
 11
-1316.9105549999992
 21
-223.13072500000021
  0
ARC
  8
_0-3_躯体と製品
  6
CONTINUOUS
 62
    4
 10
-1316.5095750000003
 20
-222.63072500000021
 40
0.5
 50
270
 51
0
  0
LINE
  8
_0-3_躯体と製品
  6
CONTINUOUS
 62
    4
 10
-1316.0095750000003
 20
-221.13073500000019
 11
-1316.0095750000003
 21
-222.63072500000021
  0
ARC
  8
_0-3_躯体と製品
  6
CONTINUOUS
 62
    4
 10
-1316.5095750000003
 20
-221.13073500000019
 40
0.5
 50
0
 51
90
  0
LINE
  8
_0-3_躯体と製品
  6
CONTINUOUS
 62
    4
 10
-1316.9105549999992
 20
-220.63073500000019
 11
-1316.5095750000003
 21
-220.63073500000019
  0
ARC
  8
_0-3_躯体と製品
  6
CONTINUOUS
 62
    3
 10
-1307.0096250000004
 20
-225.09884500000021
 40
4.9999700000000002
 50
0
 51
180
  0
LINE
  8
_0-3_躯体と製品
  6
CONTINUOUS
 62
    3
 10
-1302.0096450000003
 20
-227.24519499999928
 11
-1297.0096749999993
 21
-227.24519499999928
  0
LINE
  8
_0-3_躯体と製品
  6
CONTINUOUS
 62
    3
 10
-1321.3011149999984
 20
-227.24519499999928
 11
-1312.0095949999993
 21
-227.24519499999928
  0
ARC
  8
_0-3_躯体と製品
  6
CONTINUOUS
 62
    4
 10
-1301.0096550000003
 20
-216.88075500000014
 40
3.9999799999999999
 50
0
 51
90
  0
ARC
  8
_0-3_躯体と製品
  6
CONTINUOUS
 62
    3
 10
-1144.2095450000013
 20
-228.88033500000029
 40
4
 50
270
 51
0
  0
ARC
  8
_0-3_躯体と製品
  6
CONTINUOUS
 62
    3
 10
-1151.7095450000013
 20
-228.88033500000029
 40
4
 50
180
 51
270
  0
ARC
  8
_0-3_躯体と製品
  6
CONTINUOUS
 62
    3
 10
-1192.3095450000003
 20
-228.88033500000029
 40
4
 50
270
 51
0
  0
ARC
  8
_0-3_躯体と製品
  6
CONTINUOUS
 62
    3
 10
-1199.8095450000003
 20
-228.88033500000029
 40
4
 50
180
 51
270
  0
LINE
  8
_0-3_躯体と製品
  6
CONTINUOUS
 62
    3
 10
-1186.5095449999992
 20
-204.0803350000001
 11
-1157.5095450000003
 21
-204.0803350000001
  0
LINE
  8
_0-3_躯体と製品
  6
CONTINUOUS
 62
    3
 10
-1189.5095450000003
 20
-205.88033500000029
 11
-1189.5095450000003
 21
-228.88033500000029
  0
LINE
  8
_0-3_躯体と製品
  6
CONTINUOUS
 62
    3
 10
-1188.3095449999994
 20
-205.88033500000029
 11
-1188.3095449999994
 21
-228.88033500000029
  0
LINE
  8
_0-3_躯体と製品
  6
CONTINUOUS
 62
    3
 10
-1203.7735449999993
 20
-228.88033500000029
 11
-1202.6095450000003
 21
-228.88033500000029
  0
LINE
  8
_0-3_躯体と製品
  6
CONTINUOUS
 62
    3
 10
-1200.8095449999994
 20
-230.68033500000024
 11
-1191.3095449999994
 21
-230.68033500000024
  0
ARC
  8
_0-3_躯体と製品
  6
CONTINUOUS
 62
    3
 10
-1200.8095449999994
 20
-228.88033500000029
 40
1.79999
 50
180
 51
270
  0
ARC
  8
_0-3_躯体と製品
  6
CONTINUOUS
 62
    3
 10
-1186.5095449999992
 20
-205.88033500000029
 40
1.79999
 50
90
 51
180
  0
ARC
  8
_0-3_躯体と製品
  6
CONTINUOUS
 62
    3
 10
-1191.3095449999994
 20
-228.88033500000029
 40
1.79999
 50
270
 51
0
  0
ARC
  8
_0-3_躯体と製品
  6
CONTINUOUS
 62
    3
 10
-1186.5095449999992
 20
-205.88033500000029
 40
3
 50
90
 51
180
  0
LINE
  8
_0-3_躯体と製品
  6
CONTINUOUS
 62
    3
 10
-1154.5095450000003
 20
-205.88033500000029
 11
-1154.5095450000003
 21
-228.88033500000029
  0
LINE
  8
_0-3_躯体と製品
  6
CONTINUOUS
 62
    3
 10
-1155.7095449999993
 20
-205.88033500000029
 11
-1155.7095449999993
 21
-228.88033500000029
  0
LINE
  8
_0-3_躯体と製品
  6
CONTINUOUS
 62
    3
 10
-1141.4095449999993
 20
-228.88033500000029
 11
-1140.2095450000004
 21
-228.88033500000029
  0
LINE
  8
_0-3_躯体と製品
  6
CONTINUOUS
 62
    3
 10
-1143.2095449999993
 20
-230.68033500000024
 11
-1152.7095450000004
 21
-230.68033500000024
  0
ARC
  8
_0-3_躯体と製品
  6
CONTINUOUS
 62
    3
 10
-1157.5095450000003
 20
-205.88033500000029
 40
1.79999
 50
0
 51
90
  0
ARC
  8
_0-3_躯体と製品
  6
CONTINUOUS
 62
    3
 10
-1152.7095450000004
 20
-228.88033500000029
 40
1.79999
 50
180
 51
270
  0
ARC
  8
_0-3_躯体と製品
  6
CONTINUOUS
 62
    3
 10
-1143.2095449999993
 20
-228.88033500000029
 40
1.79999
 50
270
 51
0
  0
ARC
  8
_0-3_躯体と製品
  6
CONTINUOUS
 62
    3
 10
-1157.5095450000003
 20
-205.88033500000029
 40
3
 50
0
 51
90
  0
LINE
  8
_0-3_躯体と製品
  6
PLINE3
 62
    3
 10
-360.80954499999916
 20
-149.88033499999915
 11
-330.80954499999916
 21
-149.88033499999915
  0
LINE
  8
_0-3_躯体と製品
  6
CONTINUOUS
 62
    4
 10
-397.00954500000034
 20
-232.88033500000029
 11
-310.80954500000053
 21
-232.88033500000029
  0
LINE
  8
_0-3_躯体と製品
  6
CONTINUOUS
 62
    3
 10
-358.50954499999943
 20
-204.0803350000001
 11
-329.50954500000034
 21
-204.0803350000001
  0
LINE
  8
_0-3_躯体と製品
  6
CONTINUOUS
 62
    4
 10
-397.00954500000034
 20
-282.88033500000029
 11
-310.80954500000053
 21
-282.88033500000029
  0
LINE
  8
_0-3_躯体と製品
  6
CONTINUOUS
 62
    3
 10
-428.00954499999943
 20
-350.86457499999949
 11
-428.00954499999943
 21
-331.71033500000021
  0
LINE
  8
_0-3_躯体と製品
  6
CONTINUOUS
 62
    3
 10
-416.00954499999943
 20
-350.86457499999949
 11
-416.00954499999943
 21
-331.71033500000021
  0
LINE
  8
_0-3_躯体と製品
  6
CONTINUOUS
 62
    3
 10
-695.84454499999924
 20
-569.43033499999967
 11
-638.36954500000024
 21
-469.88033499999915
  0
LINE
  8
_0-3_躯体と製品
  6
CONTINUOUS
 62
    3
 10
-712.01054500000032
 20
-569.43033499999967
 11
-654.53554500000132
 21
-469.88033499999915
  0
LINE
  8
_0-3_躯体と製品
  6
CONTINUOUS
 62
    3
 10
-703.92754499999933
 20
-569.43033499999967
 11
-646.45254499999942
 21
-469.88033499999915
  0
LINE
  8
_0-3_躯体と製品
  6
CONTINUOUS
 62
    4
 10
-447.00941500000044
 20
-373.97245499999963
 11
-447.00941500000044
 21
-464.68036500000051
  0
LINE
  8
_0-3_躯体と製品
  6
CONTINUOUS
 62
    4
 10
-397.00967499999933
 20
-373.97245499999963
 11
-397.00967499999933
 21
-464.68036500000051
  0
LINE
  8
_0-3_躯体と製品
  6
CONTINUOUS
 62
    4
 10
-400.20965500000148
 20
-464.68036500000051
 11
-400.20965500000148
 21
-367.86448500000017
  0
LINE
  8
_0-3_躯体と製品
  6
CONTINUOUS
 62
    4
 10
-443.80943500000012
 20
-464.68036500000051
 11
-443.80943500000012
 21
-367.86448500000017
  0
LINE
  8
_0-3_躯体と製品
  6
CONTINUOUS
 62
    4
 10
-452.0093950000005
 20
-464.68036500000051
 11
-392.00969499999928
 21
-464.68036500000051
  0
LINE
  8
_0-3_躯体と製品
  6
CONTINUOUS
 62
    4
 10
-452.0093950000005
 20
-467.88034499999992
 11
-392.00969499999928
 21
-467.88034499999992
  0
LINE
  8
_0-3_躯体と製品
  6
CONTINUOUS
 62
    4
 10
-452.0093950000005
 20
-464.68036500000051
 11
-452.0093950000005
 21
-469.88033499999915
  0
LINE
  8
_0-3_躯体と製品
  6
PLINE3
 62
    3
 10
-438.80912500000022
 20
-479.28331500000036
 11
-438.80912500000022
 21
-469.93953499999986
  0
ARC
  8
_0-3_躯体と製品
  6
CONTINUOUS
 62
    3
 10
-440.48145499999919
 20
-462.90036499999928
 40
1.9999899999999999
 50
90
 51
180
  0
LINE
  8
_0-3_躯体と製品
  6
CONTINUOUS
 62
    3
 10
-442.48144500000035
 20
-464.68036500000051
 11
-442.48144500000035
 21
-462.90036499999928
  0
LINE
  8
_0-3_躯体と製品
  6
CONTINUOUS
 62
    3
 10
-440.48145499999919
 20
-460.90037500000005
 11
-437.48146500000121
 21
-460.90037500000005
  0
LINE
  8
_0-3_躯体と製品
  6
CONTINUOUS
 62
    3
 10
-435.48147499999914
 20
-462.90036499999928
 11
-435.48147499999914
 21
-464.68036500000051
  0
ARC
  8
_0-3_躯体と製品
  6
CONTINUOUS
 62
    3
 10
-437.48146500000121
 20
-462.90036499999928
 40
1.9999899999999999
 50
0
 51
90
  0
LINE
  8
_0-3_躯体と製品
  6
CONTINUOUS
 62
    4
 10
-392.00969499999928
 20
-464.68036500000051
 11
-392.00969499999928
 21
-469.88033499999915
  0
LINE
  8
_0-3_躯体と製品
  6
CONTINUOUS
 62
    3
 10
-408.00961500000039
 20
-363.86450500000035
 11
-436.00947500000029
 21
-363.86450500000035
  0
LINE
  8
_0-3_躯体と製品
  6
CONTINUOUS
 62
    4
 10
-452.0093950000005
 20
-367.86448500000017
 11
-392.00969499999928
 21
-367.86448500000017
  0
LINE
  8
_0-3_躯体と製品
  6
CONTINUOUS
 62
    4
 10
-452.0093950000005
 20
-371.06447499999956
 11
-443.80943500000012
 21
-371.06447499999956
  0
LINE
  8
_0-3_躯体と製品
  6
CONTINUOUS
 62
    4
 10
-452.0093950000005
 20
-367.86448500000017
 11
-452.0093950000005
 21
-371.06447499999956
  0
LINE
  8
_0-3_躯体と製品
  6
CONTINUOUS
 62
    4
 10
-447.00941500000044
 20
-373.97245499999963
 11
-443.80943500000012
 21
-373.97245499999963
  0
LINE
  8
_0-3_躯体と製品
  6
CONTINUOUS
 62
    3
 10
-436.00947500000029
 20
-363.86450500000035
 11
-436.00947500000029
 21
-367.86448500000017
  0
LINE
  8
_0-3_躯体と製品
  6
CONTINUOUS
 62
    3
 10
-422.00954500000034
 20
-352.46456500000033
 11
-422.00954500000034
 21
-363.86450500000035
  0
ARC
  8
_0-3_躯体と製品
  6
CONTINUOUS
 62
    3
 10
-428.0095150000011
 20
-362.91451500000005
 40
12.049939999999999
 50
60.137165999993961
 51
90
  0
ARC
  8
_0-3_躯体と製品
  6
CONTINUOUS
 62
    3
 10
-416.0095750000005
 20
-362.91451500000005
 40
12.049939999999999
 50
90
 51
119.86283400000599
  0
LINE
  8
_0-3_躯体と製品
  6
CONTINUOUS
 62
    3
 10
-434.00948499999913
 20
-352.46456500000033
 11
-432.40949499999942
 21
-350.86457499999949
  0
LINE
  8
_0-3_躯体と製品
  6
CONTINUOUS
 62
    3
 10
-411.60959500000035
 20
-350.86457499999949
 11
-410.00960500000019
 21
-352.46456500000033
  0
LINE
  8
_0-3_躯体と製品
  6
CONTINUOUS
 62
    3
 10
-434.00948499999913
 20
-363.86450500000035
 11
-410.00960500000019
 21
-363.86450500000035
  0
LINE
  8
_0-3_躯体と製品
  6
CONTINUOUS
 62
    3
 10
-434.00948499999913
 20
-352.46456500000033
 11
-434.00948499999913
 21
-363.86450500000035
  0
LINE
  8
_0-3_躯体と製品
  6
CONTINUOUS
 62
    3
 10
-410.00960500000019
 20
-363.86450500000035
 11
-410.00960500000019
 21
-352.46456500000033
  0
LINE
  8
_0-3_躯体と製品
  6
CONTINUOUS
 62
    3
 10
-411.60959500000035
 20
-350.86457499999949
 11
-432.40949499999942
 21
-350.86457499999949
  0
LINE
  8
_0-3_躯体と製品
  6
CONTINUOUS
 62
    4
 10
-400.20965500000148
 20
-373.97245499999963
 11
-397.00967499999933
 21
-373.97245499999963
  0
LINE
  8
_0-3_躯体と製品
  6
CONTINUOUS
 62
    3
 10
-408.00961500000039
 20
-367.86448500000017
 11
-408.00961500000039
 21
-363.86450500000035
  0
LINE
  8
_0-3_躯体と製品
  6
CONTINUOUS
 62
    4
 10
-400.20965500000148
 20
-371.06447499999956
 11
-392.00969499999928
 21
-371.06447499999956
  0
LINE
  8
_0-3_躯体と製品
  6
CONTINUOUS
 62
    4
 10
-392.00969499999928
 20
-367.86448500000017
 11
-392.00969499999928
 21
-371.06447499999956
  0
ARC
  8
_0-3_躯体と製品
  6
CONTINUOUS
 62
    3
 10
-844.2095450000013
 20
-228.88033500000029
 40
4
 50
270
 51
0
  0
ARC
  8
_0-3_躯体と製品
  6
CONTINUOUS
 62
    3
 10
-851.7095450000013
 20
-228.88033500000029
 40
4
 50
180
 51
270
  0
ARC
  8
_0-3_躯体と製品
  6
CONTINUOUS
 62
    3
 10
-892.3095450000003
 20
-228.88033500000029
 40
4
 50
270
 51
0
  0
ARC
  8
_0-3_躯体と製品
  6
CONTINUOUS
 62
    3
 10
-899.8095450000003
 20
-228.88033500000029
 40
4
 50
180
 51
270
  0
LINE
  8
_0-3_躯体と製品
  6
CONTINUOUS
 62
    3
 10
-886.50954499999921
 20
-204.0803350000001
 11
-857.50954500000034
 21
-204.0803350000001
  0
LINE
  8
_0-3_躯体と製品
  6
CONTINUOUS
 62
    3
 10
-889.50954500000034
 20
-205.88033500000029
 11
-889.50954500000034
 21
-228.88033500000029
  0
LINE
  8
_0-3_躯体と製品
  6
CONTINUOUS
 62
    3
 10
-888.30954499999939
 20
-205.88033500000029
 11
-888.30954499999939
 21
-228.88033500000029
  0
LINE
  8
_0-3_躯体と製品
  6
CONTINUOUS
 62
    3
 10
-903.77354499999842
 20
-228.88033500000029
 11
-902.60954500000025
 21
-228.88033500000029
  0
LINE
  8
_0-3_躯体と製品
  6
CONTINUOUS
 62
    3
 10
-900.80954499999939
 20
-230.68033500000024
 11
-891.30954499999939
 21
-230.68033500000024
  0
ARC
  8
_0-3_躯体と製品
  6
CONTINUOUS
 62
    3
 10
-900.80954499999939
 20
-228.88033500000029
 40
1.79999
 50
180
 51
270
  0
ARC
  8
_0-3_躯体と製品
  6
CONTINUOUS
 62
    3
 10
-886.50954499999921
 20
-205.88033500000029
 40
1.79999
 50
90
 51
180
  0
ARC
  8
_0-3_躯体と製品
  6
CONTINUOUS
 62
    3
 10
-891.30954499999939
 20
-228.88033500000029
 40
1.79999
 50
270
 51
0
  0
ARC
  8
_0-3_躯体と製品
  6
CONTINUOUS
 62
    3
 10
-886.50954499999921
 20
-205.88033500000029
 40
3
 50
90
 51
180
  0
LINE
  8
_0-3_躯体と製品
  6
CONTINUOUS
 62
    3
 10
-854.50954500000034
 20
-205.88033500000029
 11
-854.50954500000034
 21
-228.88033500000029
  0
LINE
  8
_0-3_躯体と製品
  6
CONTINUOUS
 62
    3
 10
-855.70954499999925
 20
-205.88033500000029
 11
-855.70954499999925
 21
-228.88033500000029
  0
LINE
  8
_0-3_躯体と製品
  6
CONTINUOUS
 62
    3
 10
-841.4095449999993
 20
-228.88033500000029
 11
-840.20954500000039
 21
-228.88033500000029
  0
LINE
  8
_0-3_躯体と製品
  6
CONTINUOUS
 62
    3
 10
-843.20954499999925
 20
-230.68033500000024
 11
-852.70954500000039
 21
-230.68033500000024
  0
ARC
  8
_0-3_躯体と製品
  6
CONTINUOUS
 62
    3
 10
-857.50954500000034
 20
-205.88033500000029
 40
1.79999
 50
0
 51
90
  0
ARC
  8
_0-3_躯体と製品
  6
CONTINUOUS
 62
    3
 10
-852.70954500000039
 20
-228.88033500000029
 40
1.79999
 50
180
 51
270
  0
ARC
  8
_0-3_躯体と製品
  6
CONTINUOUS
 62
    3
 10
-843.20954499999925
 20
-228.88033500000029
 40
1.79999
 50
270
 51
0
  0
ARC
  8
_0-3_躯体と製品
  6
CONTINUOUS
 62
    3
 10
-857.50954500000034
 20
-205.88033500000029
 40
3
 50
0
 51
90
  0
ARC
  8
_0-3_躯体と製品
  6
CONTINUOUS
 62
    3
 10
-544.20954500000153
 20
-228.88033500000029
 40
4
 50
270
 51
0
  0
ARC
  8
_0-3_躯体と製品
  6
CONTINUOUS
 62
    3
 10
-551.70954500000153
 20
-228.88033500000029
 40
4
 50
180
 51
270
  0
ARC
  8
_0-3_躯体と製品
  6
CONTINUOUS
 62
    3
 10
-592.30954500000053
 20
-228.88033500000029
 40
4
 50
270
 51
0
  0
ARC
  8
_0-3_躯体と製品
  6
CONTINUOUS
 62
    3
 10
-599.80954500000053
 20
-228.88033500000029
 40
4
 50
180
 51
270
  0
LINE
  8
_0-3_躯体と製品
  6
CONTINUOUS
 62
    3
 10
-586.50954499999852
 20
-204.0803350000001
 11
-557.50954500000034
 21
-204.0803350000001
  0
LINE
  8
_0-3_躯体と製品
  6
CONTINUOUS
 62
    3
 10
-600.80954499999916
 20
-230.68033500000024
 11
-591.30954499999916
 21
-230.68033500000024
  0
LINE
  8
_0-3_躯体と製品
  6
CONTINUOUS
 62
    3
 10
-603.7735449999991
 20
-228.88033500000029
 11
-602.60954500000025
 21
-228.88033500000029
  0
ARC
  8
_0-3_躯体と製品
  6
CONTINUOUS
 62
    3
 10
-600.80954499999916
 20
-228.88033500000029
 40
1.79999
 50
180
 51
270
  0
LINE
  8
_0-3_躯体と製品
  6
CONTINUOUS
 62
    3
 10
-589.50954500000034
 20
-205.88033500000029
 11
-589.50954500000034
 21
-228.88033500000029
  0
LINE
  8
_0-3_躯体と製品
  6
CONTINUOUS
 62
    3
 10
-588.30954499999916
 20
-205.88033500000029
 11
-588.30954499999916
 21
-228.88033500000029
  0
ARC
  8
_0-3_躯体と製品
  6
CONTINUOUS
 62
    3
 10
-586.50954499999852
 20
-205.88033500000029
 40
1.79999
 50
90
 51
180
  0
ARC
  8
_0-3_躯体と製品
  6
CONTINUOUS
 62
    3
 10
-591.30954499999916
 20
-228.88033500000029
 40
1.79999
 50
270
 51
0
  0
ARC
  8
_0-3_躯体と製品
  6
CONTINUOUS
 62
    3
 10
-586.50954499999852
 20
-205.88033500000029
 40
3
 50
90
 51
180
  0
LINE
  8
_0-3_躯体と製品
  6
CONTINUOUS
 62
    3
 10
-554.50954500000034
 20
-205.88033500000029
 11
-554.50954500000034
 21
-228.88033500000029
  0
LINE
  8
_0-3_躯体と製品
  6
CONTINUOUS
 62
    3
 10
-555.70954499999925
 20
-205.88033500000029
 11
-555.70954499999925
 21
-228.88033500000029
  0
LINE
  8
_0-3_躯体と製品
  6
CONTINUOUS
 62
    3
 10
-541.40954499999953
 20
-228.88033500000029
 11
-540.20954500000016
 21
-228.88033500000029
  0
LINE
  8
_0-3_躯体と製品
  6
CONTINUOUS
 62
    3
 10
-543.20954499999925
 20
-230.68033500000024
 11
-552.70954500000016
 21
-230.68033500000024
  0
ARC
  8
_0-3_躯体と製品
  6
CONTINUOUS
 62
    3
 10
-557.50954500000034
 20
-205.88033500000029
 40
1.79999
 50
0
 51
90
  0
ARC
  8
_0-3_躯体と製品
  6
CONTINUOUS
 62
    3
 10
-552.70954500000016
 20
-228.88033500000029
 40
1.79999
 50
180
 51
270
  0
ARC
  8
_0-3_躯体と製品
  6
CONTINUOUS
 62
    3
 10
-543.20954499999925
 20
-228.88033500000029
 40
1.79999
 50
270
 51
0
  0
ARC
  8
_0-3_躯体と製品
  6
CONTINUOUS
 62
    3
 10
-557.50954500000034
 20
-205.88033500000029
 40
3
 50
0
 51
90
  0
LINE
  8
_0-3_躯体と製品
  6
CONTINUOUS
 62
    3
 10
-412.00959499999954
 20
-225.09884500000021
 11
-412.00959499999954
 21
-285.66228500000011
  0
LINE
  8
_0-3_躯体と製品
  6
CONTINUOUS
 62
    3
 10
-432.00949499999933
 20
-225.09884500000021
 11
-432.00949499999933
 21
-285.66228500000011
  0
LINE
  8
_0-3_躯体と製品
  6
CONTINUOUS
 62
    3
 10
-442.00944500000151
 20
-225.09884500000021
 11
-442.00944500000151
 21
-285.66228500000011
  0
LINE
  8
_0-3_躯体と製品
  6
CONTINUOUS
 62
    3
 10
-402.00964500000009
 20
-225.09884500000021
 11
-402.00964500000009
 21
-285.66228500000011
  0
LINE
  8
_0-3_躯体と製品
  6
CONTINUOUS
 62
    4
 10
-397.00967499999933
 20
-300.18033500000024
 11
-397.00967499999933
 21
-216.88075500000014
  0
LINE
  8
_0-3_躯体と製品
  6
CONTINUOUS
 62
    4
 10
-447.00941500000044
 20
-216.88075500000014
 11
-447.00941500000044
 21
-300.18033500000024
  0
ARC
  8
_0-3_躯体と製品
  6
CONTINUOUS
 62
    3
 10
-364.30954500000144
 20
-228.88033500000029
 40
4
 50
270
 51
0
  0
ARC
  8
_0-3_躯体と製品
  6
CONTINUOUS
 62
    3
 10
-371.80954500000144
 20
-228.88033500000029
 40
4
 50
180
 51
270
  0
LINE
  8
_0-3_躯体と製品
  6
CONTINUOUS
 62
    3
 10
-436.00947500000029
 20
-318.68023500000027
 11
-408.00961500000039
 21
-318.68023500000027
  0
LINE
  8
_0-3_躯体と製品
  6
CONTINUOUS
 62
    3
 10
-408.00961500000039
 20
-314.68026500000019
 11
-436.00947500000029
 21
-314.68026500000019
  0
ARC
  8
_0-3_躯体と製品
  6
CONTINUOUS
 62
    3
 10
-407.00962500000014
 20
-285.66228500000011
 40
4.9999700000000002
 50
180
 51
0
  0
LINE
  8
_0-3_躯体と製品
  6
CONTINUOUS
 62
    4
 10
-440.50945499999943
 20
-301.68032500000027
 11
-403.50963500000034
 21
-301.68032500000027
  0
LINE
  8
_0-3_躯体と製品
  6
CONTINUOUS
 62
    4
 10
-447.00941500000044
 20
-300.18033500000024
 11
-397.00967499999933
 21
-300.18033500000024
  0
LINE
  8
_0-3_躯体と製品
  6
CONTINUOUS
 62
    3
 10
-434.00948499999913
 20
-318.68023500000027
 11
-434.00948499999913
 21
-330.08018500000026
  0
LINE
  8
_0-3_躯体と製品
  6
CONTINUOUS
 62
    3
 10
-410.00960500000019
 20
-330.08018500000026
 11
-410.00960500000019
 21
-318.68023500000027
  0
LINE
  8
_0-3_躯体と製品
  6
CONTINUOUS
 62
    3
 10
-422.00954500000034
 20
-330.08018500000026
 11
-422.00954500000034
 21
-318.68023500000027
  0
LINE
  8
_0-3_躯体と製品
  6
CONTINUOUS
 62
    3
 10
-432.40949499999942
 20
-331.68017500000019
 11
-411.60959500000035
 21
-331.68017500000019
  0
LINE
  8
_0-3_躯体と製品
  6
CONTINUOUS
 62
    3
 10
-432.40949499999942
 20
-331.68017500000019
 11
-434.00948499999913
 21
-330.08018500000026
  0
LINE
  8
_0-3_躯体と製品
  6
CONTINUOUS
 62
    3
 10
-410.00960500000019
 20
-330.08018500000026
 11
-411.60959500000035
 21
-331.68017500000019
  0
ARC
  8
_0-3_躯体と製品
  6
CONTINUOUS
 62
    3
 10
-428.0095150000011
 20
-319.63023500000031
 40
12.049939999999999
 50
270
 51
299.86283400000599
  0
ARC
  8
_0-3_躯体と製品
  6
CONTINUOUS
 62
    3
 10
-416.0095750000005
 20
-319.63023500000031
 40
12.049939999999999
 50
240.1371659999939
 51
270
  0
LINE
  8
_0-3_躯体と製品
  6
CONTINUOUS
 62
    3
 10
-410.00960500000019
 20
-318.68023500000027
 11
-434.00948499999913
 21
-318.68023500000027
  0
LINE
  8
_0-3_躯体と製品
  6
CONTINUOUS
 62
    3
 10
-436.00947500000029
 20
-314.68026500000019
 11
-436.00947500000029
 21
-318.68023500000027
  0
LINE
  8
_0-3_躯体と製品
  6
CONTINUOUS
 62
    3
 10
-432.40949499999942
 20
-314.68026500000019
 11
-411.60959500000035
 21
-314.68026500000019
  0
LINE
  8
_0-3_躯体と製品
  6
CONTINUOUS
 62
    3
 10
-434.00948499999913
 20
-301.68032500000027
 11
-434.00948499999913
 21
-313.08026500000028
  0
LINE
  8
_0-3_躯体と製品
  6
CONTINUOUS
 62
    3
 10
-410.00960500000019
 20
-313.08026500000028
 11
-410.00960500000019
 21
-301.68032500000027
  0
LINE
  8
_0-3_躯体と製品
  6
CONTINUOUS
 62
    3
 10
-432.40949499999942
 20
-314.68026500000019
 11
-434.00948499999913
 21
-313.08026500000028
  0
LINE
  8
_0-3_躯体と製品
  6
CONTINUOUS
 62
    3
 10
-410.00960500000019
 20
-313.08026500000028
 11
-411.60959500000035
 21
-314.68026500000019
  0
ARC
  8
_0-3_躯体と製品
  6
CONTINUOUS
 62
    3
 10
-428.0095150000011
 20
-302.63032500000122
 40
12.049939999999999
 50
270
 51
299.86283400000599
  0
ARC
  8
_0-3_躯体と製品
  6
CONTINUOUS
 62
    3
 10
-416.0095750000005
 20
-302.63032500000122
 40
12.049939999999999
 50
240.1371659999939
 51
270
  0
LINE
  8
_0-3_躯体と製品
  6
CONTINUOUS
 62
    3
 10
-422.00954500000034
 20
-313.08026500000028
 11
-422.00954500000034
 21
-301.68032500000027
  0
ARC
  8
_0-3_躯体と製品
  6
CONTINUOUS
 62
    3
 10
-437.00946500000146
 20
-285.66228500000011
 40
4.9999700000000002
 50
180
 51
0
  0
ARC
  8
_0-3_躯体と製品
  6
CONTINUOUS
 62
    4
 10
-440.50945499999943
 20
-300.18033500000024
 40
1.499989999999999
 50
180
 51
270
  0
LINE
  8
_0-3_躯体と製品
  6
CONTINUOUS
 62
    3
 10
-432.00949499999933
 20
-234.00729500000011
 11
-412.00959499999954
 21
-234.00729500000011
  0
LINE
  8
_0-3_躯体と製品
  6
CONTINUOUS
 62
    3
 10
-447.00941500000044
 20
-234.00729500000011
 11
-442.00944500000151
 21
-234.00729500000011
  0
LINE
  8
_0-3_躯体と製品
  6
CONTINUOUS
 62
    3
 10
-408.00961500000039
 20
-318.68023500000027
 11
-408.00961500000039
 21
-314.68026500000019
  0
ARC
  8
_0-3_躯体と製品
  6
CONTINUOUS
 62
    4
 10
-403.50963500000034
 20
-300.18033500000024
 40
1.499989999999999
 50
270
 51
0
  0
LINE
  8
_0-3_躯体と製品
  6
CONTINUOUS
 62
    3
 10
-402.00964500000009
 20
-234.00729500000011
 11
-397.00967499999933
 21
-234.00729500000011
  0
ARC
  8
_0-3_躯体と製品
  6
CONTINUOUS
 62
    3
 10
-407.00962500000014
 20
-225.09884500000021
 40
4.9999700000000002
 50
0
 51
180
  0
LINE
  8
_0-3_躯体と製品
  6
CONTINUOUS
 62
    4
 10
-401.00965500000029
 20
-212.88077500000031
 11
-443.00943499999812
 21
-212.88077500000031
  0
ARC
  8
_0-3_躯体と製品
  6
CONTINUOUS
 62
    4
 10
-443.00943499999812
 20
-216.88075500000014
 40
3.9999799999999999
 50
90
 51
180
  0
LINE
  8
_0-3_躯体と製品
  6
CONTINUOUS
 62
    3
 10
-417.00957499999913
 20
-224.76746500000013
 11
-422.00954500000034
 21
-227.65420500000027
  0
LINE
  8
_0-3_躯体と製品
  6
CONTINUOUS
 62
    3
 10
-417.00957499999913
 20
-218.99399500000027
 11
-417.00957499999913
 21
-224.76746500000013
  0
LINE
  8
_0-3_躯体と製品
  6
CONTINUOUS
 62
    3
 10
-422.00954500000034
 20
-216.1072650000001
 11
-417.00957499999913
 21
-218.99399500000027
  0
LINE
  8
_0-3_躯体と製品
  6
CONTINUOUS
 62
    3
 10
-427.00951499999928
 20
-218.99399500000027
 11
-422.00954500000034
 21
-216.1072650000001
  0
LINE
  8
_0-3_躯体と製品
  6
CONTINUOUS
 62
    3
 10
-427.00951499999928
 20
-224.76746500000013
 11
-427.00951499999928
 21
-218.99399500000027
  0
LINE
  8
_0-3_躯体と製品
  6
CONTINUOUS
 62
    3
 10
-422.00954500000034
 20
-227.65420500000027
 11
-427.00951499999928
 21
-224.76746500000013
  0
CIRCLE
  8
_0-3_躯体と製品
  6
CONTINUOUS
 62
    3
 10
-422.00954500000034
 20
-221.88073500000019
 40
2.499989999999999
  0
CIRCLE
  8
_0-3_躯体と製品
  6
CONTINUOUS
 62
    3
 10
-422.00954500000034
 20
-221.88073500000019
 40
2.999979999999999
  0
CIRCLE
  8
_0-3_躯体と製品
  6
CONTINUOUS
 62
    3
 10
-422.00954500000034
 20
-221.88073500000019
 40
4.9999700000000002
  0
LINE
  8
_0-3_躯体と製品
  6
CONTINUOUS
 62
    4
 10
-427.50951499999928
 20
-223.13072500000021
 11
-427.10853499999939
 21
-223.13072500000021
  0
ARC
  8
_0-3_躯体と製品
  6
CONTINUOUS
 62
    4
 10
-427.50951499999928
 20
-222.63072500000021
 40
0.5
 50
180
 51
270
  0
LINE
  8
_0-3_躯体と製品
  6
CONTINUOUS
 62
    4
 10
-428.0095150000011
 20
-221.13073500000019
 11
-428.0095150000011
 21
-222.63072500000021
  0
ARC
  8
_0-3_躯体と製品
  6
CONTINUOUS
 62
    4
 10
-427.50951499999928
 20
-221.13073500000019
 40
0.5
 50
90
 51
180
  0
LINE
  8
_0-3_躯体と製品
  6
CONTINUOUS
 62
    4
 10
-427.10853499999939
 20
-220.63073500000019
 11
-427.50951499999928
 21
-220.63073500000019
  0
LINE
  8
_0-3_躯体と製品
  6
CONTINUOUS
 62
    4
 10
-416.50957499999913
 20
-223.13072500000021
 11
-416.91055499999948
 21
-223.13072500000021
  0
ARC
  8
_0-3_躯体と製品
  6
CONTINUOUS
 62
    4
 10
-416.50957499999913
 20
-222.63072500000021
 40
0.5
 50
270
 51
0
  0
LINE
  8
_0-3_躯体と製品
  6
CONTINUOUS
 62
    4
 10
-416.0095750000005
 20
-221.13073500000019
 11
-416.0095750000005
 21
-222.63072500000021
  0
ARC
  8
_0-3_躯体と製品
  6
CONTINUOUS
 62
    4
 10
-416.50957499999913
 20
-221.13073500000019
 40
0.5
 50
0
 51
90
  0
LINE
  8
_0-3_躯体と製品
  6
CONTINUOUS
 62
    4
 10
-416.91055499999948
 20
-220.63073500000019
 11
-416.50957499999913
 21
-220.63073500000019
  0
LINE
  8
_0-3_躯体と製品
  6
CONTINUOUS
 62
    3
 10
-432.00949499999933
 20
-227.24519499999928
 11
-422.71797500000048
 21
-227.24519499999928
  0
LINE
  8
_0-3_躯体と製品
  6
CONTINUOUS
 62
    3
 10
-421.30111499999839
 20
-227.24519499999928
 11
-412.00959499999954
 21
-227.24519499999928
  0
LINE
  8
_0-3_躯体と製品
  6
CONTINUOUS
 62
    3
 10
-447.00941500000044
 20
-227.24519499999928
 11
-442.00944500000151
 21
-227.24519499999928
  0
ARC
  8
_0-3_躯体と製品
  6
CONTINUOUS
 62
    3
 10
-437.00946500000146
 20
-225.09884500000021
 40
4.9999700000000002
 50
0
 51
180
  0
LINE
  8
_0-3_躯体と製品
  6
CONTINUOUS
 62
    3
 10
-372.80954500000053
 20
-230.68033500000024
 11
-363.30954499999916
 21
-230.68033500000024
  0
LINE
  8
_0-3_躯体と製品
  6
CONTINUOUS
 62
    3
 10
-402.00964500000009
 20
-227.24519499999928
 11
-397.00967499999933
 21
-227.24519499999928
  0
ARC
  8
_0-3_躯体と製品
  6
CONTINUOUS
 62
    4
 10
-401.00965500000029
 20
-216.88075500000014
 40
3.9999799999999999
 50
0
 51
90
  0
LINE
  8
_0-3_躯体と製品
  6
CONTINUOUS
 62
    3
 10
-375.7735449999991
 20
-228.88033500000029
 11
-374.60954500000025
 21
-228.88033500000029
  0
ARC
  8
_0-3_躯体と製品
  6
CONTINUOUS
 62
    3
 10
-372.80954500000053
 20
-228.88033500000029
 40
1.7999999999999989
 50
180
 51
270
  0
LINE
  8
_0-3_躯体と製品
  6
CONTINUOUS
 62
    3
 10
-361.50954500000125
 20
-205.88033500000029
 11
-361.50954500000125
 21
-228.88033500000029
  0
LINE
  8
_0-3_躯体と製品
  6
CONTINUOUS
 62
    3
 10
-360.30954500000053
 20
-205.88033500000029
 11
-360.30954500000053
 21
-228.88033500000029
  0
ARC
  8
_0-3_躯体と製品
  6
CONTINUOUS
 62
    3
 10
-358.50954499999943
 20
-205.88033500000029
 40
1.79999
 50
90
 51
180
  0
ARC
  8
_0-3_躯体と製品
  6
CONTINUOUS
 62
    3
 10
-363.30954499999916
 20
-228.88033500000029
 40
1.79999
 50
270
 51
0
  0
ARC
  8
_0-3_躯体と製品
  6
CONTINUOUS
 62
    3
 10
-358.50954499999943
 20
-205.88033500000029
 40
3
 50
90
 51
180
  0
LINE
  8
_0-3_躯体と製品
  6
CONTINUOUS
 62
    4
 10
4.3425750000005792
 20
-332.58106500000019
 11
4.3425750000005792
 21
-350.99435499999936
  0
LINE
  8
_0-3_躯体と製品
  6
CONTINUOUS
 62
    4
 10
-11.659544999999525
 20
-332.58106500000019
 11
-11.659544999999525
 21
-350.99435499999936
  0
LINE
  8
_0-3_躯体と製品
  6
CONTINUOUS
 62
    3
 10
2.8423750000006294
 20
-332.58106500000019
 11
2.8423750000006294
 21
-350.99435499999936
  0
LINE
  8
_0-3_躯体と製品
  6
CONTINUOUS
 62
    3
 10
-10.159344999999121
 20
-332.58106500000019
 11
-10.159344999999121
 21
-350.99435499999936
  0
LINE
  8
_0-3_躯体と製品
  6
CONTINUOUS
 62
    7
 10
-94.659544999999525
 20
-289.03033500000129
 11
-94.659544999999525
 21
-464.08033499999999
  0
LINE
  8
_0-3_躯体と製品
  6
CONTINUOUS
 62
    7
 10
-51.959544999999252
 20
-289.18033500000024
 11
-51.959544999999252
 21
-464.08033499999999
  0
LINE
  8
_0-3_躯体と製品
  6
CONTINUOUS
 62
    4
 10
-25.652454999999463
 20
-374.37758499999984
 11
-30.435095000000274
 21
-375.68926499999975
  0
LINE
  8
_0-3_躯体と製品
  6
CONTINUOUS
 62
    4
 10
-22.462035000000469
 20
-374.66632499999969
 11
-34.191585000001396
 21
-461.64144500000032
  0
LINE
  8
_0-3_躯体と製品
  6
CONTINUOUS
 62
    3
 10
-123.30954499999916
 20
-467.08033499999954
 11
-23.309544999999162
 21
-467.08033499999954
  0
LINE
  8
_0-3_躯体と製品
  6
CONTINUOUS
 62
    3
 10
-195.84434500000043
 20
-569.43033499999967
 11
-138.36954500000047
 21
-469.88033499999915
  0
LINE
  8
_0-3_躯体と製品
  6
CONTINUOUS
 62
    3
 10
-212.01014499999928
 20
-569.43033499999967
 11
-154.53524499999912
 21
-469.88033499999915
  0
LINE
  8
_0-3_躯体と製品
  6
CONTINUOUS
 62
    3
 10
-203.9272449999994
 20
-569.43033499999967
 11
-146.45254499999919
 21
-469.88033499999915
  0
LINE
  8
_0-3_躯体と製品
  6
CONTINUOUS
 62
    3
 10
-157.80954499999916
 20
-465.88033499999949
 11
-297.80954500000053
 21
-465.88033499999949
  0
LINE
  8
_0-3_躯体と製品
  6
CONTINUOUS
 62
    3
 10
-167.30874500000027
 20
-456.00033500000006
 11
-182.30954500000053
 21
-456.00033500000006
  0
LINE
  8
_0-3_躯体と製品
  6
CONTINUOUS
 62
    3
 10
-163.55954500000053
 20
-464.00033499999961
 11
-186.05954500000053
 21
-464.00033499999961
  0
ARC
  8
_0-3_躯体と製品
  6
CONTINUOUS
 62
    3
 10
-182.31024500000149
 20
-459.01033499999926
 40
3.0038
 50
33.640799999994748
 51
90
  0
LINE
  8
_0-3_躯体と製品
  6
CONTINUOUS
 62
    3
 10
-253.93959499999937
 20
-444.26033500000028
 11
-247.08101500000021
 21
-432.38033499999915
  0
CIRCLE
  8
_0-3_躯体と製品
  6
CONTINUOUS
 62
    3
 10
-260.80954499999916
 20
-432.38033499999915
 40
11.8794
  0
LINE
  8
_0-3_躯体と製品
  6
CONTINUOUS
 62
    3
 10
-222.46334500000148
 20
-408.77033499999936
 11
-197.17724500000031
 21
-462.99033499999973
  0
LINE
  8
_0-3_躯体と製品
  6
CONTINUOUS
 62
    3
 10
-267.67964500000016
 20
-444.26033500000028
 11
-274.5382450000011
 21
-432.38033499999915
  0
LINE
  8
_0-3_躯体と製品
  6
CONTINUOUS
 62
    3
 10
-297.80954500000053
 20
-410.88033499999938
 11
-297.80954500000053
 21
-469.88033499999915
  0
LINE
  8
_0-3_躯体と製品
  6
CONTINUOUS
 62
    3
 10
-267.67944500000021
 20
-444.26033500000028
 11
-253.93964500000038
 21
-444.26033500000028
  0
LINE
  8
_0-3_躯体と製品
  6
CONTINUOUS
 62
    3
 10
-184.80954500000053
 20
-457.34033500000021
 11
-184.80954500000053
 21
-462.50033499999995
  0
LINE
  8
_0-3_躯体と製品
  6
CONTINUOUS
 62
    3
 10
-184.80954500000053
 20
-460.14033499999994
 11
-184.80954500000053
 21
-464.00033499999961
  0
LINE
  8
_0-3_躯体と製品
  6
CONTINUOUS
 62
    3
 10
-184.80954500000053
 20
-457.34033500000021
 11
-184.80954500000053
 21
-464.00033499999961
  0
LINE
  8
_0-3_躯体と製品
  6
CONTINUOUS
 62
    3
 10
-186.05954500000053
 20
-464.00033499999961
 11
-186.05954500000053
 21
-465.88033499999949
  0
LINE
  8
_0-3_躯体と製品
  6
CONTINUOUS
 62
    3
 10
-185.30954500000053
 20
-465.88033499999949
 11
-185.30954500000053
 21
-469.88033499999915
  0
LINE
  8
_0-3_躯体と製品
  6
CONTINUOUS
 62
    3
 10
-191.80954500000144
 20
-469.88033499999915
 11
-191.80954500000144
 21
-465.88033499999949
  0
ARC
  8
_0-3_躯体と製品
  6
CONTINUOUS
 62
    3
 10
-192.64574499999935
 20
-460.88033499999938
 40
4.9999799999999981
 50
204.999
 51
270
  0
ARC
  8
_0-3_躯体と製品
  6
CONTINUOUS
 62
    3
 10
-182.31024500000149
 20
-459.01033499999926
 40
3.0037799999999999
 50
90
 51
146.3089999999971
  0
LINE
  8
_0-3_躯体と製品
  6
CONTINUOUS
 62
    3
 10
-292.80954500000053
 20
-405.88033499999949
 11
-226.9949449999981
 21
-405.88033499999949
  0
LINE
  8
_0-3_躯体と製品
  6
CONTINUOUS
 62
    3
 10
-253.93960500000048
 20
-420.50033499999938
 11
-267.67944500000021
 21
-420.50033499999938
  0
ARC
  8
_0-3_躯体と製品
  6
CONTINUOUS
 62
    3
 10
-292.80954500000053
 20
-410.88033499999938
 40
5
 50
90
 51
180
  0
LINE
  8
_0-3_躯体と製品
  6
CONTINUOUS
 62
    3
 10
-274.53804499999933
 20
-432.38033499999915
 11
-267.67944500000021
 21
-420.50033499999938
  0
LINE
  8
_0-3_躯体と製品
  6
CONTINUOUS
 62
    3
 10
-289.00034499999947
 20
-415.88033499999949
 11
-282.58704499999931
 21
-415.88033499999949
  0
LINE
  8
_0-3_躯体と製品
  6
CONTINUOUS
 62
    3
 10
-285.80954499999916
 20
-413.02033500000016
 11
-285.80954499999916
 21
-418.93033500000024
  0
CIRCLE
  8
_0-3_躯体と製品
  6
CONTINUOUS
 62
    3
 10
-285.80954499999916
 20
-415.88033499999949
 40
4
  0
LINE
  8
_0-3_躯体と製品
  6
CONTINUOUS
 62
    3
 10
-247.08113500000036
 20
-432.38033499999915
 11
-253.93968500000028
 21
-420.50033499999938
  0
LINE
  8
_0-3_躯体と製品
  6
CONTINUOUS
 62
    3
 10
-235.80954499999916
 20
-413.02033500000016
 11
-235.80954499999916
 21
-418.93033500000024
  0
LINE
  8
_0-3_躯体と製品
  6
CONTINUOUS
 62
    3
 10
-239.00034499999947
 20
-415.88033499999949
 11
-232.58704500000022
 21
-415.88033499999949
  0
ARC
  8
_0-3_躯体と製品
  6
CONTINUOUS
 62
    3
 10
-226.9949449999981
 20
-410.88033499999938
 40
4.9999799999999981
 50
24.999399999998975
 51
90
  0
CIRCLE
  8
_0-3_躯体と製品
  6
CONTINUOUS
 62
    3
 10
-235.80954499999916
 20
-415.88033499999949
 40
4
  0
LINE
  8
_0-3_躯体と製品
  6
CONTINUOUS
 62
    4
 10
-33.342474999999467
 20
-379.01260499999933
 11
-44.913005000000339
 21
-464.81286500000033
  0
LINE
  8
_0-3_躯体と製品
  6
CONTINUOUS
 62
    3
 10
-179.80954500000053
 20
-450.63033499999972
 11
-179.80954500000053
 21
-456.00033500000006
  0
LINE
  8
_0-3_躯体と製品
  6
CONTINUOUS
 62
    3
 10
-169.80954500000053
 20
-450.63033499999972
 11
-169.80954500000053
 21
-456.00033500000006
  0
LINE
  8
_0-3_躯体と製品
  6
CONTINUOUS
 62
    3
 10
-164.80954500000053
 20
-459.35033500000054
 11
-164.80954500000053
 21
-462.50033499999995
  0
LINE
  8
_0-3_躯体と製品
  6
CONTINUOUS
 62
    3
 10
-164.80954500000053
 20
-457.34033500000021
 11
-164.80954500000053
 21
-462.50033499999995
  0
LINE
  8
_0-3_躯体と製品
  6
CONTINUOUS
 62
    3
 10
-164.80954500000053
 20
-457.34033500000021
 11
-164.80954500000053
 21
-464.00033499999961
  0
LINE
  8
_0-3_躯体と製品
  6
CONTINUOUS
 62
    3
 10
-163.55954500000053
 20
-464.00033499999961
 11
-163.55954500000053
 21
-465.88033499999949
  0
LINE
  8
_0-3_躯体と製品
  6
CONTINUOUS
 62
    3
 10
-178.80944499999941
 20
-449.63033499999949
 11
-179.80944500000032
 21
-450.63033499999972
  0
LINE
  8
_0-3_躯体と製品
  6
CONTINUOUS
 62
    3
 10
-170.80974499999911
 20
-449.63033499999949
 11
-169.80964500000027
 21
-450.63033499999972
  0
LINE
  8
_0-3_躯体と製品
  6
CONTINUOUS
 62
    3
 10
-178.80954499999916
 20
-449.63033499999949
 11
-170.80954499999916
 21
-449.63033499999949
  0
LINE
  8
_0-3_躯体と製品
  6
CONTINUOUS
 62
    3
 10
-179.80954500000053
 20
-457.34033500000021
 11
-179.80954500000053
 21
-464.00033499999961
  0
LINE
  8
_0-3_躯体と製品
  6
CONTINUOUS
 62
    3
 10
-169.80954500000053
 20
-457.34033500000021
 11
-169.80954500000053
 21
-464.00033499999961
  0
LINE
  8
_0-3_躯体と製品
  6
CONTINUOUS
 62
    3
 10
-164.30954500000053
 20
-465.88033499999949
 11
-164.30954500000053
 21
-469.88033499999915
  0
LINE
  8
_0-3_躯体と製品
  6
CONTINUOUS
 62
    3
 10
-157.80954499999916
 20
-469.88033499999915
 11
-157.80954499999916
 21
-465.88033499999949
  0
ARC
  8
_0-3_躯体と製品
  6
CONTINUOUS
 62
    3
 10
-174.80954500000053
 20
-450.33033499999999
 40
3.2031199999999989
 50
12.680400000001001
 51
167.31999999999761
  0
ARC
  8
_0-3_躯体と製品
  6
CONTINUOUS
 62
    3
 10
-167.30874500000027
 20
-459.01033499999926
 40
3.0037799999999999
 50
90
 51
146.35899999999859
  0
ARC
  8
_0-3_躯体と製品
  6
CONTINUOUS
 62
    3
 10
-174.80954500000053
 20
-466.00033500000006
 40
10
 50
60.000099999997055
 51
120.00000000000053
  0
ARC
  8
_0-3_躯体と製品
  6
CONTINUOUS
 62
    3
 10
-167.30874500000027
 20
-459.01033499999926
 40
3.0037799999999999
 50
33.691499999998868
 51
90
  0
LINE
  8
_0-3_躯体と製品
  6
CONTINUOUS
 62
    3
 10
-123.30954499999916
 20
-467.08033499999954
 11
-123.30954499999916
 21
-469.88033499999915
  0
LINE
  8
_0-3_躯体と製品
  6
CONTINUOUS
 62
    3
 10
-94.659544999999525
 20
-464.08033499999999
 11
-51.959544999999252
 21
-464.08033499999999
  0
ARC
  8
_0-3_躯体と製品
  6
CONTINUOUS
 62
    3
 10
-94.659544999999525
 20
-467.08033499999954
 40
3
 50
90
 51
180
  0
ARC
  8
_0-3_躯体と製品
  6
CONTINUOUS
 62
    4
 10
-41.328534999999192
 20
-460.67911499999934
 40
7.200949999999998
 50
294.18310699999711
 51
314.23799999999858
  0
LINE
  8
_0-3_躯体と製品
  6
CONTINUOUS
 62
    4
 10
-43.533824999999524
 20
-467.08033499999954
 11
-43.533824999999524
 21
-464.67964500000005
  0
ARC
  8
_0-3_躯体と製品
  6
CONTINUOUS
 62
    4
 10
-41.328534999999192
 20
-460.67911499999934
 40
7.200949999999998
 50
314.23799999999858
 51
352.31900000000383
  0
LINE
  8
_0-3_躯体と製品
  6
CONTINUOUS
 62
    4
 10
-50.160464999999476
 20
-464.67964500000005
 11
-43.533824999999524
 21
-464.67964500000005
  0
ARC
  8
_0-3_躯体と製品
  6
CONTINUOUS
 62
    3
 10
-51.959544999999252
 20
-467.08033499999954
 40
3
 50
0
 51
90
  0
ARC
  8
_0-3_躯体と製品
  6
CONTINUOUS
 62
    4
 10
-29.377955000000384
 20
-379.54727500000013
 40
4.0005300000000004
 50
105.33499999999938
 51
172.3190000000038
  0
LINE
  8
_0-3_躯体と製品
  6
CONTINUOUS
 62
    4
 10
14.882904999999482
 20
-374.66632499999969
 11
26.612465000000611
 21
-461.64154500000006
  0
LINE
  8
_0-3_躯体と製品
  6
CONTINUOUS
 62
    4
 10
25.762354999999843
 20
-379.01260499999933
 11
37.333885000000464
 21
-464.81286500000033
  0
LINE
  8
_0-3_躯体と製品
  6
CONTINUOUS
 62
    4
 10
32.708734999998796
 20
-468.01328499999966
 11
64.476174999999785
 21
-468.01328499999966
  0
ARC
  8
_0-3_躯体と製品
  6
CONTINUOUS
 62
    3
 10
49.790235000000848
 20
-463.03262499999971
 40
2.000259999999999
 50
90
 51
180
  0
LINE
  8
_0-3_躯体と製品
  6
CONTINUOUS
 62
    4
 10
35.954695000000811
 20
-464.81286500000033
 11
64.476174999999785
 21
-464.81286500000033
  0
LINE
  8
_0-3_躯体と製品
  6
CONTINUOUS
 62
    3
 10
-23.309544999999162
 20
-467.08033499999954
 11
-23.309544999999162
 21
-469.88033499999915
  0
LINE
  8
_0-3_躯体と製品
  6
CONTINUOUS
 62
    3
 10
34.472204999999576
 20
-468.01328499999966
 11
34.472204999999576
 21
-470.01355499999943
  0
ARC
  8
_0-3_躯体と製品
  6
CONTINUOUS
 62
    4
 10
33.766404999998485
 20
-460.81233499999951
 40
7.200949999999998
 50
187.68099999999609
 51
270
  0
LINE
  8
_0-3_躯体と製品
  6
CONTINUOUS
 62
    4
 10
35.954695000000811
 20
-464.67964500000005
 11
35.954695000000811
 21
-467.88006499999949
  0
LINE
  8
_0-3_躯体と製品
  6
CONTINUOUS
 62
    3
 10
47.789964999999484
 20
-464.81286500000033
 11
47.789964999999484
 21
-463.03262499999971
  0
LINE
  8
_0-3_躯体と製品
  6
CONTINUOUS
 62
    3
 10
54.790894999998727
 20
-463.03262499999971
 11
54.790894999998727
 21
-464.81286500000033
  0
LINE
  8
_0-3_躯体と製品
  6
CONTINUOUS
 62
    3
 10
49.790235000000848
 20
-461.03236499999991
 11
52.790625000000546
 21
-461.03236499999991
  0
ARC
  8
_0-3_躯体と製品
  6
CONTINUOUS
 62
    3
 10
52.790625000000546
 20
-463.03262499999971
 40
2.000259999999999
 50
0
 51
90
  0
LINE
  8
_0-3_躯体と製品
  6
CONTINUOUS
 62
    4
 10
64.476174999999785
 20
-464.81286500000033
 11
64.476174999999785
 21
-470.01355499999943
  0
LINE
  8
_0-3_躯体と製品
  6
PLINE3
 62
    3
 10
51.421445000000858
 20
-479.28331500000036
 11
51.421445000000858
 21
-470.01355499999943
  0
LINE
  8
_0-3_躯体と製品
  6
CONTINUOUS
 62
    4
 10
-11.790625000000091
 20
-384.20219500000042
 11
-11.790625000000091
 21
-416.51013499999999
  0
LINE
  8
_0-3_躯体と製品
  6
CONTINUOUS
 62
    4
 10
4.2114949999995588
 20
-384.20219500000042
 11
4.2114949999995588
 21
-416.51013499999999
  0
LINE
  8
_0-3_躯体と製品
  6
CONTINUOUS
 62
    3
 10
2.711294999999609
 20
-384.20219500000042
 11
2.711294999999609
 21
-418.01033500000017
  0
LINE
  8
_0-3_躯体と製品
  6
CONTINUOUS
 62
    3
 10
-10.290425000000141
 20
-384.20219500000042
 11
-10.290425000000141
 21
-418.01033500000017
  0
LINE
  8
_0-3_躯体と製品
  6
CONTINUOUS
 62
    4
 10
-10.290425000000141
 20
-418.01033500000017
 11
2.711294999999609
 21
-418.01033500000017
  0
LINE
  8
_0-3_躯体と製品
  6
CONTINUOUS
 62
    4
 10
-11.790625000000091
 20
-416.51013499999999
 11
-10.290425000000141
 21
-418.01033500000017
  0
LINE
  8
_0-3_躯体と製品
  6
CONTINUOUS
 62
    4
 10
4.2114949999995588
 20
-416.51013499999999
 11
2.711294999999609
 21
-418.01033500000017
  0
LINE
  8
_0-3_躯体と製品
  6
CONTINUOUS
 62
    3
 10
-11.790625000000091
 20
-416.51013499999999
 11
4.2114949999995588
 21
-416.51013499999999
  0
LINE
  8
_0-3_躯体と製品
  6
CONTINUOUS
 62
    3
 10
8.6904550000008385
 20
-384.20046500000024
 11
10.190454999999474
 21
-382.60046499999942
  0
LINE
  8
_0-3_躯体と製品
  6
CONTINUOUS
 62
    3
 10
8.6904550000008385
 20
-350.99951499999986
 11
10.190454999999474
 21
-352.59951499999966
  0
LINE
  8
_0-3_躯体と製品
  6
CONTINUOUS
 62
    3
 10
-17.661395000000084
 20
-363.99951499999952
 11
10.342304999999669
 21
-363.99951499999952
  0
LINE
  8
_0-3_躯体と製品
  6
CONTINUOUS
 62
    4
 10
-18.509515000000192
 20
-368.00004500000011
 11
10.935354999999618
 21
-368.00004500000011
  0
LINE
  8
_0-3_躯体と製品
  6
CONTINUOUS
 62
    4
 10
10.918385000000853
 20
-371.20046499999955
 11
-18.497505000000274
 21
-371.20046499999955
  0
LINE
  8
_0-3_躯体と製品
  6
CONTINUOUS
 62
    3
 10
-3.6605450000001838
 20
-368.00046500000019
 11
-4.7325449999993907
 21
-364.00046500000042
  0
LINE
  8
_0-3_躯体と製品
  6
CONTINUOUS
 62
    3
 10
-2.1075450000012097
 20
-368.00046500000019
 11
-3.1785450000002129
 21
-364.00046500000042
  0
ARC
  8
_0-3_躯体と製品
  6
CONTINUOUS
 62
    3
 10
-14.567214999999123
 20
-380.76019500000052
 40
3.4410999999999992
 50
271.25475600000351
 51
327.67012200000238
  0
LINE
  8
_0-3_躯体と製品
  6
CONTINUOUS
 62
    3
 10
4.3404549999995652
 20
-371.20046499999955
 11
4.3404549999995652
 21
-382.60046499999942
  0
LINE
  8
_0-3_躯体と製品
  6
CONTINUOUS
 62
    3
 10
-11.659544999999525
 20
-371.20046499999955
 11
-11.659544999999525
 21
-382.60046499999942
  0
LINE
  8
_0-3_躯体と製品
  6
CONTINUOUS
 62
    3
 10
8.6904550000008385
 20
-384.20046500000024
 11
-16.009544999999434
 21
-384.20046500000024
  0
LINE
  8
_0-3_躯体と製品
  6
CONTINUOUS
 62
    3
 10
-17.509545000000344
 20
-382.60046499999942
 11
-17.509545000000344
 21
-371.20046499999955
  0
LINE
  8
_0-3_躯体と製品
  6
CONTINUOUS
 62
    3
 10
-16.009544999999434
 20
-384.20046500000024
 11
-17.509545000000344
 21
-382.60046499999942
  0
ARC
  8
_0-3_躯体と製品
  6
CONTINUOUS
 62
    3
 10
7.2481250000005275
 20
-380.76019500000052
 40
3.4410999999999992
 50
212.32987799999739
 51
268.74524399999638
  0
ARC
  8
_0-3_躯体と製品
  6
CONTINUOUS
 62
    3
 10
-3.6595450000004348
 20
-363.40046499999994
 40
20.800000000000001
 50
247.38013500000261
 51
292.61986499999728
  0
ARC
  8
_0-3_躯体と製品
  6
CONTINUOUS
 62
    3
 10
-14.567214999999123
 20
-354.43979499999955
 40
3.4410999999999992
 50
32.329877999997528
 51
88.745243999996518
  0
LINE
  8
_0-3_躯体と製品
  6
CONTINUOUS
 62
    3
 10
4.3404549999995652
 20
-363.99951499999952
 11
4.3404549999995652
 21
-352.59951499999966
  0
LINE
  8
_0-3_躯体と製品
  6
CONTINUOUS
 62
    3
 10
-11.659544999999525
 20
-363.99951499999952
 11
-11.659544999999525
 21
-352.59951499999966
  0
LINE
  8
_0-3_躯体と製品
  6
CONTINUOUS
 62
    3
 10
8.6904550000008385
 20
-350.99951499999986
 11
-16.009544999999434
 21
-350.99951499999986
  0
LINE
  8
_0-3_躯体と製品
  6
CONTINUOUS
 62
    3
 10
-17.509545000000344
 20
-352.59951499999966
 11
-17.509545000000344
 21
-363.99951499999952
  0
LINE
  8
_0-3_躯体と製品
  6
CONTINUOUS
 62
    3
 10
-16.009544999999434
 20
-350.99951499999986
 11
-17.509545000000344
 21
-352.59951499999966
  0
ARC
  8
_0-3_躯体と製品
  6
CONTINUOUS
 62
    3
 10
7.2481250000005275
 20
-354.43979499999955
 40
3.4410999999999992
 50
91.254756000003511
 51
147.67012200000244
  0
ARC
  8
_0-3_躯体と製品
  6
CONTINUOUS
 62
    3
 10
-3.6595450000004348
 20
-371.79951500000027
 40
20.800000000000001
 50
67.380135000002696
 51
112.61986499999719
  0
LINE
  8
_0-3_躯体と製品
  6
CONTINUOUS
 62
    3
 10
-17.661395000000084
 20
-368.00004500000011
 11
-17.661395000000084
 21
-363.99951499999952
  0
LINE
  8
_0-3_躯体と製品
  6
CONTINUOUS
 62
    4
 10
-19.791685000000143
 20
-368.1172849999997
 11
-19.291614999999183
 21
-371.2800749999999
  0
ARC
  8
_0-3_躯体と製品
  6
CONTINUOUS
 62
    4
 10
-18.497505000000274
 20
-375.20099500000015
 40
7.2009599999999994
 50
90
 51
172.3190000000038
  0
ARC
  8
_0-3_躯体と製品
  6
CONTINUOUS
 62
    4
 10
-18.497505000000274
 20
-375.20099500000015
 40
4.0005300000000004
 50
90
 51
172.3190000000038
  0
LINE
  8
_0-3_躯体と製品
  6
CONTINUOUS
 62
    3
 10
10.190454999999474
 20
-371.20046499999955
 11
10.190454999999474
 21
-382.60046499999942
  0
LINE
  8
_0-3_躯体と製品
  6
CONTINUOUS
 62
    3
 10
10.190454999999474
 20
-363.99951499999952
 11
10.190454999999474
 21
-352.59951499999966
  0
LINE
  8
_0-3_躯体と製品
  6
CONTINUOUS
 62
    3
 10
10.342304999999669
 20
-363.99951499999952
 11
10.342304999999669
 21
-368.00004500000011
  0
ARC
  8
_0-3_躯体と製品
  6
CONTINUOUS
 62
    4
 10
10.918385000000853
 20
-375.20099500000015
 40
4.0005300000000004
 50
7.6806099999994091
 51
90
  0
ARC
  8
_0-3_躯体と製品
  6
CONTINUOUS
 62
    4
 10
10.918385000000853
 20
-375.20099500000015
 40
7.200969999999999
 50
7.6805900000016916
 51
90
  0
LINE
  8
_0-3_躯体と製品
  6
CONTINUOUS
 62
    4
 10
12.212555000001885
 20
-368.1172849999997
 11
11.71248500000047
 21
-371.2800749999999
  0
LINE
  8
_0-3_躯体と製品
  6
CONTINUOUS
 62
    4
 10
18.073334999999588
 20
-374.37758499999984
 11
22.855965000001561
 21
-375.68916500000012
  0
ARC
  8
_0-3_躯体と製品
  6
CONTINUOUS
 62
    4
 10
21.797825000001467
 20
-379.54727500000013
 40
4.0005300000000004
 50
7.6805599999989136
 51
74.664600000004128
  0
ARC
  8
_0-3_躯体と製品
  6
CONTINUOUS
 62
    4
 10
-28.662855000000491
 20
-293.77936499999919
 40
5.000659999999999
 50
180
 51
270
  0
LINE
  8
_0-3_躯体と製品
  6
CONTINUOUS
 62
    4
 10
-30.963165000000117
 20
-301.08033500000124
 11
9.8596350000007078
 21
-301.08033500000124
  0
LINE
  8
_0-3_躯体と製品
  6
CONTINUOUS
 62
    4
 10
-29.162925000000087
 20
-302.58053500000028
 11
12.232584999999744
 21
-302.58053500000028
  0
LINE
  8
_0-3_躯体と製品
  6
CONTINUOUS
 62
    3
 10
-39.959544999999252
 20
-219.18033500000024
 11
-27.959545000001526
 21
-218.13033500000029
  0
CIRCLE
  8
_0-3_躯体と製品
  6
CONTINUOUS
 62
    3
 10
-27.959545000001526
 20
-226.13033499999915
 40
5
  0
LINE
  8
_0-3_躯体と製品
  6
CONTINUOUS
 62
    7
 10
158.27535500000067
 20
-169.88033499999915
 11
-223.30954499999916
 21
-169.88033499999915
  0
LINE
  8
_0-3_躯体と製品
  6
CONTINUOUS
 62
    3
 10
9.062725000001592
 20
-202.88033500000029
 11
-223.30954499999916
 21
-202.88033500000029
  0
LINE
  8
_0-3_躯体と製品
  6
CONTINUOUS
 62
    3
 10
158.27535500000067
 20
-187.88033500000029
 11
-223.30954499999916
 21
-187.88033500000029
  0
LINE
  8
_0-3_躯体と製品
  6
PLINE3
 62
    3
 10
158.27535500000067
 20
-139.88033499999915
 11
-51.959544999999252
 21
-139.88033499999915
  0
LINE
  8
_0-3_躯体と製品
  6
CONTINUOUS
 62
    3
 10
-1.3635449999992488
 20
-292.21033500000021
 11
-39.959544999999252
 21
-284.91033500000026
  0
LINE
  8
_0-3_躯体と製品
  6
CONTINUOUS
 62
    3
 10
9.9124550000005911
 20
-301.08033500000124
 11
-31.159545000000435
 21
-301.08033500000124
  0
CIRCLE
  8
_0-3_躯体と製品
  6
PLINE3
 62
    3
 10
-160.80954499999916
 20
-139.88033499999915
 40
30
  0
LINE
  8
_0-3_躯体と製品
  6
CONTINUOUS
 62
    7
 10
-223.30954499999916
 20
-232.88033500000029
 11
-39.959544999999252
 21
-232.88033500000029
  0
LINE
  8
_0-3_躯体と製品
  6
PLINE3
 62
    3
 10
-223.30954499999916
 20
-139.88033499999915
 11
-94.659544999999525
 21
-139.88033499999915
  0
ARC
  8
_0-3_躯体と製品
  6
CONTINUOUS
 62
    3
 10
-316.20954499999925
 20
-228.88033500000029
 40
4
 50
270
 51
0
  0
ARC
  8
_0-3_躯体と製品
  6
CONTINUOUS
 62
    3
 10
-323.70954499999925
 20
-228.88033500000029
 40
4
 50
180
 51
270
  0
LINE
  8
_0-3_躯体と製品
  6
CONTINUOUS
 62
    4
 10
-310.80954500000053
 20
-232.88033500000029
 11
-310.80954500000053
 21
-282.88033500000029
  0
LINE
  8
_0-3_躯体と製品
  6
CONTINUOUS
 62
    3
 10
-316.30954499999916
 20
-169.88033499999915
 11
-316.30954499999916
 21
-187.88033500000029
  0
LINE
  8
_0-3_躯体と製品
  6
CONTINUOUS
 62
    3
 10
-316.30954499999916
 20
-169.88033499999915
 11
-298.30954499999916
 21
-187.88033500000029
  0
LINE
  8
_0-3_躯体と製品
  6
CONTINUOUS
 62
    3
 10
-298.30964499999936
 20
-169.88033499999915
 11
-316.30964499999936
 21
-187.88033500000029
  0
LINE
  8
_0-3_躯体と製品
  6
CONTINUOUS
 62
    3
 10
-326.50954500000125
 20
-205.88033500000029
 11
-326.50954500000125
 21
-228.88033500000029
  0
LINE
  8
_0-3_躯体と製品
  6
CONTINUOUS
 62
    3
 10
-327.70954500000016
 20
-205.88033500000029
 11
-327.70954500000016
 21
-228.88033500000029
  0
LINE
  8
_0-3_躯体と製品
  6
CONTINUOUS
 62
    3
 10
-313.40954499999953
 20
-228.88033500000029
 11
-312.20954500000016
 21
-228.88033500000029
  0
LINE
  8
_0-3_躯体と製品
  6
CONTINUOUS
 62
    3
 10
-315.20954500000016
 20
-230.68033500000024
 11
-324.70954500000016
 21
-230.68033500000024
  0
LINE
  8
_0-3_躯体と製品
  6
CONTINUOUS
 62
    3
 10
-303.30954499999916
 20
-187.88033500000029
 11
-303.30954499999916
 21
-202.88033500000029
  0
ARC
  8
_0-3_躯体と製品
  6
CONTINUOUS
 62
    3
 10
-329.50954500000034
 20
-205.88033500000029
 40
1.7999999999999989
 50
0
 51
90
  0
ARC
  8
_0-3_躯体と製品
  6
CONTINUOUS
 62
    3
 10
-324.70954500000016
 20
-228.88033500000029
 40
1.7999999999999989
 50
180
 51
270
  0
ARC
  8
_0-3_躯体と製品
  6
CONTINUOUS
 62
    3
 10
-315.20954500000016
 20
-228.88033500000029
 40
1.79999
 50
270
 51
0
  0
ARC
  8
_0-3_躯体と製品
  6
CONTINUOUS
 62
    3
 10
-329.50954500000034
 20
-205.88033500000029
 40
3
 50
0
 51
90
  0
LINE
  8
_0-3_躯体と製品
  6
PLINE3
 62
    3
 10
-330.80954499999916
 20
-139.88033499999915
 11
-298.30954499999916
 21
-139.88033499999915
  0
LINE
  8
_0-3_躯体と製品
  6
CONTINUOUS
 62
    3
 10
-39.959544999999252
 20
-219.18033500000024
 11
-39.959544999999252
 21
-287.18033500000024
  0
LINE
  8
_0-3_躯体と製品
  6
CONTINUOUS
 62
    3
 10
-113.95954500000016
 20
-259.18033500000024
 11
-90.662545000000136
 21
-259.18033500000024
  0
LINE
  8
_0-3_躯体と製品
  6
CONTINUOUS
 62
    3
 10
-113.95954500000016
 20
-269.18033500000024
 11
-89.662544999998318
 21
-269.18033500000024
  0
LINE
  8
_0-3_躯体と製品
  6
CONTINUOUS
 62
    3
 10
-113.95954500000016
 20
-259.18033500000024
 11
-113.95954500000016
 21
-264.18033500000024
  0
LINE
  8
_0-3_躯体と製品
  6
CONTINUOUS
 62
    3
 10
-113.95954500000016
 20
-269.18033500000024
 11
-113.95954500000016
 21
-264.18033500000024
  0
LINE
  8
_0-3_躯体と製品
  6
CONTINUOUS
 62
    3
 10
-59.959544999999252
 20
-272.48033500000111
 11
-51.959544999999252
 21
-289.18033500000024
  0
LINE
  8
_0-3_躯体と製品
  6
CONTINUOUS
 62
    3
 10
-96.959544999999252
 20
-289.18033500000024
 11
-96.959544999999252
 21
-283.18033500000024
  0
LINE
  8
_0-3_躯体と製品
  6
CONTINUOUS
 62
    3
 10
-66.959544999999252
 20
-285.31033500000126
 11
-66.959544999999252
 21
-277.40033500000027
  0
ARC
  8
_0-3_躯体と製品
  6
CONTINUOUS
 62
    3
 10
-68.959545000000162
 20
-284.18033500000024
 40
2
 50
0
 51
90
  0
ARC
  8
_0-3_躯体と製品
  6
CONTINUOUS
 62
    3
 10
-68.959545000000162
 20
-285.31033500000126
 40
1.99997
 50
273.81399999999769
 51
0.0000000000000254
  0
LINE
  8
_0-3_躯体と製品
  6
CONTINUOUS
 62
    3
 10
-66.959544999999252
 20
-285.31033500000126
 11
-66.959544999999252
 21
-284.3303350000001
  0
LINE
  8
_0-3_躯体と製品
  6
CONTINUOUS
 62
    3
 10
-68.826544999999442
 20
-287.30033500000013
 11
-96.959544999999252
 21
-289.18033500000024
  0
LINE
  8
_0-3_躯体と製品
  6
CONTINUOUS
 62
    3
 10
-37.46402499999931
 20
-285.38233500000024
 11
-37.46402499999931
 21
-289.74702500000126
  0
ARC
  8
_0-3_躯体と製品
  6
CONTINUOUS
 62
    3
 10
-35.963825000001179
 20
-289.74702500000126
 40
1.5002
 50
180
 51
270
  0
LINE
  8
_0-3_躯体と製品
  6
CONTINUOUS
 62
    4
 10
-35.963825000001179
 20
-285.66608499999916
 11
-35.963825000001179
 21
-296.07967500000018
  0
LINE
  8
_0-3_躯体と製品
  6
CONTINUOUS
 62
    4
 10
-33.663515000000189
 20
-286.10115500000029
 11
-33.663515000000189
 21
-293.77936499999919
  0
ARC
  8
_0-3_躯体と製品
  6
CONTINUOUS
 62
    4
 10
-30.963165000000117
 20
-296.07967500000018
 40
5.000659999999999
 50
180
 51
270
  0
ARC
  8
_0-3_躯体と製品
  6
CONTINUOUS
 62
    4
 10
-29.162925000000087
 20
-301.08033500000124
 40
1.5002
 50
180
 51
270
  0
LINE
  8
_0-3_躯体と製品
  6
CONTINUOUS
 62
    3
 10
-51.959544999999252
 20
-289.18033500000024
 11
-39.959544999999252
 21
-287.18033500000024
  0
LINE
  8
_0-3_躯体と製品
  6
CONTINUOUS
 62
    3
 10
-82.088564999999107
 20
-259.18033500000024
 11
-43.259545000000344
 21
-259.18033500000024
  0
ARC
  8
_0-3_躯体と製品
  6
CONTINUOUS
 62
    3
 10
-68.959545000000162
 20
-243.05133500000125
 40
2
 50
0
 51
86.185799999996945
  0
ARC
  8
_0-3_躯体と製品
  6
CONTINUOUS
 62
    3
 10
-68.959545000000162
 20
-244.18033500000024
 40
2
 50
270
 51
0
  0
ARC
  8
_0-3_躯体と製品
  6
CONTINUOUS
 62
    3
 10
-68.959545000000162
 20
-250.95833499999912
 40
1.99997
 50
284.99999999999437
 51
0.0000000000000127
  0
LINE
  8
_0-3_躯体と製品
  6
CONTINUOUS
 62
    3
 10
-82.088564999999107
 20
-269.18033500000024
 11
-43.259545000000344
 21
-269.18033500000024
  0
ARC
  8
_0-3_躯体と製品
  6
CONTINUOUS
 62
    3
 10
-68.959545000000162
 20
-277.40033500000027
 40
2
 50
0
 51
74.999799999993513
  0
LINE
  8
_0-3_躯体と製品
  6
CONTINUOUS
 62
    3
 10
-88.679165000001376
 20
-264.29932500000018
 11
-89.662544999998318
 21
-269.18033500000024
  0
LINE
  8
_0-3_躯体と製品
  6
CONTINUOUS
 62
    3
 10
-90.662545000000136
 20
-259.18033500000024
 11
-88.679165000001376
 21
-264.29932500000018
  0
LINE
  8
_0-3_躯体と製品
  6
CONTINUOUS
 62
    3
 10
-82.817545000000337
 20
-272.38033499999915
 11
-84.235544999998183
 21
-273.68033500000115
  0
LINE
  8
_0-3_躯体と製品
  6
CONTINUOUS
 62
    3
 10
-80.949545000000398
 20
-264.18033500000024
 11
-82.817545000000337
 21
-272.38033499999915
  0
LINE
  8
_0-3_躯体と製品
  6
CONTINUOUS
 62
    3
 10
-82.817545000000337
 20
-255.9803350000002
 11
-80.949545000000398
 21
-264.18033500000024
  0
LINE
  8
_0-3_躯体と製品
  6
CONTINUOUS
 62
    3
 10
-84.235544999998183
 20
-254.68033500000024
 11
-82.817545000000337
 21
-255.9803350000002
  0
LINE
  8
_0-3_躯体と製品
  6
CONTINUOUS
 62
    3
 10
-96.959544999999252
 20
-239.18033500000024
 11
-96.959544999999252
 21
-245.18033500000115
  0
LINE
  8
_0-3_躯体と製品
  6
CONTINUOUS
 62
    3
 10
-99.959544999998343
 20
-247.18033500000024
 11
-99.959544999998343
 21
-250.18033500000024
  0
LINE
  8
_0-3_躯体と製品
  6
CONTINUOUS
 62
    3
 10
-68.826544999999442
 20
-241.05533500000024
 11
-96.959544999999252
 21
-239.18033500000024
  0
LINE
  8
_0-3_躯体と製品
  6
CONTINUOUS
 62
    3
 10
-98.959544999999252
 20
-246.18033500000115
 11
-66.959544999999252
 21
-246.18033500000115
  0
LINE
  8
_0-3_躯体と製品
  6
CONTINUOUS
 62
    3
 10
-88.817544999999427
 20
-255.9803350000002
 11
-82.817545000000337
 21
-255.9803350000002
  0
LINE
  8
_0-3_躯体と製品
  6
CONTINUOUS
 62
    3
 10
-90.357544999999391
 20
-254.68033500000024
 11
-88.817544999999427
 21
-255.9803350000002
  0
LINE
  8
_0-3_躯体と製品
  6
CONTINUOUS
 62
    3
 10
-98.959544999999252
 20
-251.18033500000024
 11
-87.949544999998125
 21
-251.18033500000024
  0
LINE
  8
_0-3_躯体と製品
  6
CONTINUOUS
 62
    3
 10
-97.959545000000162
 20
-251.18033500000024
 11
-97.959545000000162
 21
-259.18033500000024
  0
LINE
  8
_0-3_躯体と製品
  6
CONTINUOUS
 62
    3
 10
-66.959544999999252
 20
-243.05133500000125
 11
-66.959544999999252
 21
-250.95833499999912
  0
LINE
  8
_0-3_躯体と製品
  6
CONTINUOUS
 62
    3
 10
-72.6775449999991
 20
-258.18033500000024
 11
-71.777544999999463
 21
-254.81933500000014
  0
LINE
  8
_0-3_躯体と製品
  6
CONTINUOUS
 62
    3
 10
-82.316375000000335
 20
-258.18033500000024
 11
-72.6775449999991
 21
-258.18033500000024
  0
LINE
  8
_0-3_躯体と製品
  6
CONTINUOUS
 62
    3
 10
-85.949545000000398
 20
-253.18033500000024
 11
-85.949545000000398
 21
-254.68033500000024
  0
LINE
  8
_0-3_躯体と製品
  6
CONTINUOUS
 62
    3
 10
-70.363545000000158
 20
-253.40533500000015
 11
-68.441545000000133
 21
-252.89033500000028
  0
LINE
  8
_0-3_躯体と製品
  6
CONTINUOUS
 62
    3
 10
-90.357544999999391
 20
-254.68033500000024
 11
-84.235544999998183
 21
-254.68033500000024
  0
LINE
  8
_0-3_躯体と製品
  6
CONTINUOUS
 62
    3
 10
-90.357544999999391
 20
-254.68033500000024
 11
-91.831544999999096
 21
-259.18033500000024
  0
LINE
  8
_0-3_躯体と製品
  6
CONTINUOUS
 62
    7
 10
-94.659544999999525
 20
-232.88033500000029
 11
-94.659544999999525
 21
-239.33333500000026
  0
ARC
  8
_0-3_躯体と製品
  6
CONTINUOUS
 62
    3
 10
-97.959545000000162
 20
-245.18033500000115
 40
1
 50
270
 51
0
  0
ARC
  8
_0-3_躯体と製品
  6
CONTINUOUS
 62
    3
 10
-98.959544999999252
 20
-247.18033500000024
 40
1
 50
90
 51
180
  0
ARC
  8
_0-3_躯体と製品
  6
CONTINUOUS
 62
    3
 10
-98.959544999999252
 20
-250.18033500000024
 40
1
 50
180
 51
270
  0
ARC
  8
_0-3_躯体と製品
  6
CONTINUOUS
 62
    3
 10
-87.949544999998125
 20
-253.18033500000024
 40
2
 50
0
 51
90
  0
ARC
  8
_0-3_躯体と製品
  6
CONTINUOUS
 62
    3
 10
-69.845545000000129
 20
-255.33733500000017
 40
1.99997
 50
104.9999999999944
 51
164.9999999999992
  0
LINE
  8
_0-3_躯体と製品
  6
CONTINUOUS
 62
    3
 10
-86.949544999999489
 20
-264.18033500000024
 11
-80.949545000000398
 21
-264.18033500000024
  0
LINE
  8
_0-3_躯体と製品
  6
CONTINUOUS
 62
    3
 10
-88.817544999999427
 20
-255.9803350000002
 11
-86.949544999999489
 21
-264.18033500000024
  0
LINE
  8
_0-3_躯体と製品
  6
CONTINUOUS
 62
    3
 10
-99.959544999998343
 20
-281.18033500000024
 11
-99.959544999998343
 21
-278.18033500000024
  0
LINE
  8
_0-3_躯体と製品
  6
CONTINUOUS
 62
    3
 10
-98.959544999999252
 20
-282.18033500000024
 11
-66.959544999999252
 21
-282.18033500000024
  0
LINE
  8
_0-3_躯体と製品
  6
CONTINUOUS
 62
    3
 10
-88.817544999999427
 20
-272.38033499999915
 11
-82.817545000000337
 21
-272.38033499999915
  0
LINE
  8
_0-3_躯体と製品
  6
CONTINUOUS
 62
    3
 10
-90.357544999999391
 20
-273.68033500000115
 11
-88.817544999999427
 21
-272.38033499999915
  0
LINE
  8
_0-3_躯体と製品
  6
CONTINUOUS
 62
    3
 10
-97.959545000000162
 20
-277.18033500000024
 11
-97.959545000000162
 21
-269.18033500000024
  0
LINE
  8
_0-3_躯体と製品
  6
CONTINUOUS
 62
    3
 10
-90.357544999999391
 20
-273.68033500000115
 11
-84.235544999998183
 21
-273.68033500000115
  0
LINE
  8
_0-3_躯体と製品
  6
CONTINUOUS
 62
    3
 10
-90.357544999999391
 20
-273.68033500000115
 11
-91.830545000000257
 21
-269.18033500000024
  0
LINE
  8
_0-3_躯体と製品
  6
CONTINUOUS
 62
    3
 10
-98.959544999999252
 20
-277.18033500000024
 11
-87.949544999998125
 21
-277.18033500000024
  0
LINE
  8
_0-3_躯体と製品
  6
CONTINUOUS
 62
    3
 10
-85.949545000000398
 20
-275.18033500000024
 11
-85.949545000000398
 21
-273.68033500000115
  0
LINE
  8
_0-3_躯体と製品
  6
CONTINUOUS
 62
    3
 10
-70.363545000000158
 20
-274.95033500000022
 11
-68.441545000000133
 21
-275.47033500000111
  0
LINE
  8
_0-3_躯体と製品
  6
CONTINUOUS
 62
    3
 10
-72.6775449999991
 20
-270.18033500000115
 11
-71.777544999999463
 21
-273.54033500000128
  0
LINE
  8
_0-3_躯体と製品
  6
CONTINUOUS
 62
    3
 10
-82.316375000000335
 20
-270.18033500000115
 11
-72.6775449999991
 21
-270.18033500000115
  0
ARC
  8
_0-3_躯体と製品
  6
CONTINUOUS
 62
    3
 10
-97.959545000000162
 20
-283.18033500000024
 40
1
 50
0
 51
90
  0
ARC
  8
_0-3_躯体と製品
  6
CONTINUOUS
 62
    3
 10
-98.959544999999252
 20
-281.18033500000024
 40
1
 50
180
 51
270
  0
ARC
  8
_0-3_躯体と製品
  6
CONTINUOUS
 62
    3
 10
-98.959544999999252
 20
-278.18033500000024
 40
1
 50
90
 51
180
  0
ARC
  8
_0-3_躯体と製品
  6
CONTINUOUS
 62
    3
 10
-87.949544999998125
 20
-275.18033500000024
 40
2
 50
270
 51
0
  0
ARC
  8
_0-3_躯体と製品
  6
CONTINUOUS
 62
    3
 10
-69.845545000000129
 20
-273.02033500000016
 40
2
 50
195.00000000000071
 51
255.00000000000551
  0
LINE
  8
_0-3_躯体と製品
  6
CONTINUOUS
 62
    3
 10
-88.817544999999427
 20
-272.38033499999915
 11
-86.949544999999489
 21
-264.18033500000024
  0
LINE
  8
_0-3_躯体と製品
  6
CONTINUOUS
 62
    3
 10
-59.959544999999252
 20
-255.88033500000029
 11
-39.959544999999252
 21
-255.88033500000029
  0
LINE
  8
_0-3_躯体と製品
  6
CONTINUOUS
 62
    3
 10
-51.959544999999252
 20
-239.18033500000024
 11
-39.959544999999252
 21
-241.18033500000024
  0
LINE
  8
_0-3_躯体と製品
  6
CONTINUOUS
 62
    3
 10
-59.959544999999252
 20
-255.88033500000029
 11
-59.959544999999252
 21
-259.18033500000024
  0
LINE
  8
_0-3_躯体と製品
  6
CONTINUOUS
 62
    3
 10
-59.959544999999252
 20
-255.88033500000029
 11
-51.959544999999252
 21
-239.18033500000024
  0
LINE
  8
_0-3_躯体と製品
  6
CONTINUOUS
 62
    7
 10
-51.959544999999252
 20
-232.88033500000029
 11
-51.959544999999252
 21
-239.18033500000024
  0
LINE
  8
_0-3_躯体と製品
  6
CONTINUOUS
 62
    3
 10
-59.959544999999252
 20
-272.48033500000111
 11
-39.959544999999252
 21
-272.48033500000111
  0
LINE
  8
_0-3_躯体と製品
  6
CONTINUOUS
 62
    3
 10
-59.959544999999252
 20
-269.18033500000024
 11
-59.959544999999252
 21
-272.48033500000111
  0
LINE
  8
_0-3_躯体と製品
  6
CONTINUOUS
 62
    3
 10
-43.259545000000344
 20
-259.18033500000024
 11
-43.259545000000344
 21
-269.18033500000024
  0
LINE
  8
_0-3_躯体と製品
  6
CONTINUOUS
 62
    7
 10
15.65630499999952
 20
-232.88033500000029
 11
158.27535500000067
 21
-232.88033500000029
  0
LINE
  8
_0-3_躯体と製品
  6
CONTINUOUS
 62
    3
 10
11.344475000001694
 20
-202.88033500000029
 11
158.27535500000067
 21
-202.88033500000029
  0
LINE
  8
_0-3_躯体と製品
  6
CONTINUOUS
 62
    3
 10
-3.6595450000004348
 20
-224.77133499999923
 11
-3.6595450000004348
 21
-232.88033500000029
  0
LINE
  8
_0-3_躯体と製品
  6
CONTINUOUS
 62
    3
 10
-18.993594999999459
 20
-225.34531500000026
 11
-26.805544999999256
 21
-249.78033499999924
  0
LINE
  8
_0-3_躯体と製品
  6
CONTINUOUS
 62
    3
 10
11.302455000000464
 20
-202.58133500000031
 11
15.371454999999514
 21
-231.53533500000026
  0
LINE
  8
_0-3_躯体と製品
  6
CONTINUOUS
 62
    3
 10
30.144935000001624
 20
-232.88033500000029
 11
30.144935000001624
 21
-289.74702500000126
  0
LINE
  8
_0-3_躯体と製品
  6
CONTINUOUS
 62
    4
 10
28.644735000000765
 20
-232.88033500000029
 11
28.644735000000765
 21
-296.07967500000018
  0
LINE
  8
_0-3_躯体と製品
  6
CONTINUOUS
 62
    4
 10
26.344424999999774
 20
-232.88033500000029
 11
26.344424999999774
 21
-293.77936499999919
  0
LINE
  8
_0-3_躯体と製品
  6
CONTINUOUS
 62
    3
 10
24.062455000000682
 20
-289.16692500000022
 11
24.062455000000682
 21
-269.2303350000002
  0
ARC
  8
_0-3_躯体と製品
  6
CONTINUOUS
 62
    3
 10
16.062454999998863
 20
-289.18033500000024
 40
7.9999900000000004
 50
330.00000000000267
 51
90.000000000000028
  0
LINE
  8
_0-3_躯体と製品
  6
CONTINUOUS
 62
    3
 10
8.6904550000008385
 20
-332.58106500000019
 11
10.190454999999474
 21
-330.98106500000017
  0
LINE
  8
_0-3_躯体と製品
  6
CONTINUOUS
 62
    3
 10
-17.661395000000084
 20
-319.58106500000031
 11
10.342304999999669
 21
-319.58106500000031
  0
LINE
  8
_0-3_躯体と製品
  6
CONTINUOUS
 62
    3
 10
10.342304999999669
 20
-315.58053500000119
 11
-17.661395000000084
 21
-315.58053500000119
  0
LINE
  8
_0-3_躯体と製品
  6
CONTINUOUS
 62
    3
 10
8.6904550000008385
 20
-315.58053500000119
 11
10.190454999999474
 21
-313.98053500000015
  0
LINE
  8
_0-3_躯体と製品
  6
CONTINUOUS
 62
    3
 10
3.8484550000007403
 20
-294.9703350000002
 11
10.062455000000682
 21
-301.18033500000024
  0
LINE
  8
_0-3_躯体と製品
  6
CONTINUOUS
 62
    4
 10
-28.662855000000491
 20
-298.78002500000025
 11
7.6844250000008287
 21
-298.78002500000025
  0
LINE
  8
_0-3_躯体と製品
  6
CONTINUOUS
 62
    3
 10
-3.1785450000002129
 20
-315.95629500000018
 11
-2.106544999999187
 21
-319.95629500000018
  0
LINE
  8
_0-3_躯体と製品
  6
CONTINUOUS
 62
    3
 10
-4.731544999999187
 20
-315.95629500000018
 11
-3.6595450000004348
 21
-319.95629500000018
  0
ARC
  8
_0-3_躯体と製品
  6
CONTINUOUS
 62
    3
 10
-14.567214999999123
 20
-329.14078500000016
 40
3.4410999999999992
 50
271.25475600000351
 51
327.67012200000238
  0
LINE
  8
_0-3_躯体と製品
  6
CONTINUOUS
 62
    3
 10
4.3404549999995652
 20
-319.58106500000031
 11
4.3404549999995652
 21
-330.98106500000017
  0
LINE
  8
_0-3_躯体と製品
  6
CONTINUOUS
 62
    3
 10
-11.659544999999525
 20
-319.58106500000031
 11
-11.659544999999525
 21
-330.98106500000017
  0
LINE
  8
_0-3_躯体と製品
  6
CONTINUOUS
 62
    3
 10
8.6904550000008385
 20
-332.58106500000019
 11
-16.009544999999434
 21
-332.58106500000019
  0
LINE
  8
_0-3_躯体と製品
  6
CONTINUOUS
 62
    3
 10
-17.509545000000344
 20
-330.98106500000017
 11
-17.509545000000344
 21
-319.58106500000031
  0
LINE
  8
_0-3_躯体と製品
  6
CONTINUOUS
 62
    3
 10
-16.009544999999434
 20
-332.58106500000019
 11
-17.509545000000344
 21
-330.98106500000017
  0
ARC
  8
_0-3_躯体と製品
  6
CONTINUOUS
 62
    3
 10
7.2481250000005275
 20
-329.14078500000016
 40
3.4410999999999992
 50
212.32987799999739
 51
268.74524399999638
  0
ARC
  8
_0-3_躯体と製品
  6
CONTINUOUS
 62
    3
 10
-3.6595450000004348
 20
-311.78106500000126
 40
20.800000000000001
 50
247.38013500000261
 51
292.61986499999728
  0
LINE
  8
_0-3_躯体と製品
  6
CONTINUOUS
 62
    3
 10
-17.661395000000084
 20
-315.58053500000119
 11
-17.661395000000084
 21
-319.58106500000031
  0
ARC
  8
_0-3_躯体と製品
  6
CONTINUOUS
 62
    3
 10
-14.567214999999123
 20
-312.14025500000025
 40
3.4410999999999992
 50
271.25475600000351
 51
327.67012200000238
  0
LINE
  8
_0-3_躯体と製品
  6
CONTINUOUS
 62
    3
 10
4.3404549999995652
 20
-302.58053500000028
 11
4.3404549999995652
 21
-313.98053500000015
  0
LINE
  8
_0-3_躯体と製品
  6
CONTINUOUS
 62
    3
 10
-11.659544999999525
 20
-302.58053500000028
 11
-11.659544999999525
 21
-313.98053500000015
  0
LINE
  8
_0-3_躯体と製品
  6
CONTINUOUS
 62
    3
 10
-17.509545000000344
 20
-313.98053500000015
 11
-17.509545000000344
 21
-302.58053500000028
  0
LINE
  8
_0-3_躯体と製品
  6
CONTINUOUS
 62
    3
 10
-16.009544999999434
 20
-315.58053500000119
 11
-17.509545000000344
 21
-313.98053500000015
  0
ARC
  8
_0-3_躯体と製品
  6
CONTINUOUS
 62
    3
 10
7.2481250000005275
 20
-312.14025500000025
 40
3.4410999999999992
 50
212.32987799999739
 51
268.74524399999638
  0
ARC
  8
_0-3_躯体と製品
  6
CONTINUOUS
 62
    3
 10
-3.6595450000004348
 20
-294.7805350000001
 40
20.800000000000001
 50
247.38013500000261
 51
292.61986499999728
  0
ARC
  8
_0-3_躯体と製品
  6
CONTINUOUS
 62
    3
 10
-3.2225450000014462
 20
-302.04033500000128
 40
9.9999799999999972
 50
44.99990000000259
 51
79.286799999999261
  0
LINE
  8
_0-3_躯体と製品
  6
CONTINUOUS
 62
    4
 10
19.796355000000858
 20
-298.78002500000025
 11
21.343764999999621
 21
-298.78002500000025
  0
ARC
  8
_0-3_躯体と製品
  6
CONTINUOUS
 62
    4
 10
21.343764999999621
 20
-293.77936499999919
 40
5.000659999999999
 50
270
 51
0
  0
ARC
  8
_0-3_躯体と製品
  6
CONTINUOUS
 62
    3
 10
28.644735000000765
 20
-289.74702500000126
 40
1.5002
 50
270
 51
0
  0
ARC
  8
_0-3_躯体と製品
  6
CONTINUOUS
 62
    4
 10
23.644065000001774
 20
-296.07967500000018
 40
5.000659999999999
 50
270
 51
0
  0
LINE
  8
_0-3_躯体と製品
  6
CONTINUOUS
 62
    3
 10
10.190454999999474
 20
-319.58106500000031
 11
10.190454999999474
 21
-330.98106500000017
  0
LINE
  8
_0-3_躯体と製品
  6
CONTINUOUS
 62
    3
 10
10.342304999999669
 20
-319.58106500000031
 11
10.342304999999669
 21
-315.58053500000119
  0
LINE
  8
_0-3_躯体と製品
  6
CONTINUOUS
 62
    3
 10
10.190454999999474
 20
-302.58053500000028
 11
10.190454999999474
 21
-313.98053500000015
  0
LINE
  8
_0-3_躯体と製品
  6
CONTINUOUS
 62
    4
 10
18.51100500000075
 20
-301.08033500000124
 11
23.644065000001774
 21
-301.08033500000124
  0
LINE
  8
_0-3_躯体と製品
  6
CONTINUOUS
 62
    4
 10
17.564975000000686
 20
-302.58053500000028
 11
21.843834999999672
 21
-302.58053500000028
  0
ARC
  8
_0-3_躯体と製品
  6
CONTINUOUS
 62
    4
 10
21.843834999999672
 20
-301.08033500000124
 40
1.5002
 50
270
 51
0
  0
LINE
  8
_0-3_躯体と製品
  6
CONTINUOUS
 62
    3
 10
23.840454999999565
 20
-301.08033500000124
 11
18.429455000000871
 21
-301.08033500000124
  0
LINE
  8
_0-3_躯体と製品
  6
CONTINUOUS
 62
    3
 10
10.062455000000682
 20
-301.18033500000024
 11
15.174454999998488
 21
-304.59033499999919
  0
LINE
  8
_0-3_躯体と製品
  6
CONTINUOUS
 62
    3
 10
16.595454999999674
 20
-304.26033500000017
 11
22.990454999999656
 21
-293.18033500000024
  0
CIRCLE
  8
_0-3_躯体と製品
  6
CONTINUOUS
 62
    3
 10
16.062454999998863
 20
-289.18033500000024
 40
4
  0
ARC
  8
_0-3_躯体と製品
  6
CONTINUOUS
 62
    3
 10
15.729455000000598
 20
-303.76033500000017
 40
0.9999799999999999
 50
236.30999999999801
 51
330.00000000000267
  0
CIRCLE
  8
_0-3_躯体と製品
  6
CONTINUOUS
 62
    4
 10
-3.6595450000004348
 20
-257.18033500000024
 40
22.29999999999999
  0
ARC
  8
_0-3_躯体と製品
  6
CONTINUOUS
 62
    3
 10
5.1061950000007528
 20
-209.32563500000128
 40
72.685199999999995
 50
263.07334300000542
 51
278.6695669999977
  0
CIRCLE
  8
_0-3_躯体と製品
  6
CONTINUOUS
 62
    4
 10
-3.6595450000004348
 20
-257.18033500000024
 40
24.300000000000001
  0
ARC
  8
_0-3_躯体と製品
  6
CONTINUOUS
 62
    3
 10
25.274455000001581
 20
-230.14333500000112
 40
10
 50
187.99999999999989
 51
223.058999999999
  0
ARC
  8
_0-3_躯体と製品
  6
CONTINUOUS
 62
    3
 10
34.062455000000682
 20
-269.2303350000002
 40
10
 50
162.28399999999931
 51
180
  0
ARC
  8
_0-3_躯体と製品
  6
CONTINUOUS
 62
    3
 10
-3.6595450000004348
 20
-257.18033500000024
 40
29.600000000000001
 50
342.28399999999937
 51
43.058800000000922
  0
LINE
  8
_0-3_躯体と製品
  6
CONTINUOUS
 62
    3
 10
-3.6595450000004348
 20
-224.77133499999923
 11
9.4474549999995361
 21
-202.21833500000025
  0
ARC
  8
_0-3_躯体と製品
  6
CONTINUOUS
 62
    3
 10
-26.659394999999222
 20
-225.69307500000127
 40
7.6736899999999988
 50
2.5898300000017511
 51
99.754682000002404
  0
LINE
  8
_0-3_躯体と製品
  6
CONTINUOUS
 62
    3
 10
-21.312545000000227
 20
-220.14733500000125
 11
0.8364550000005692
 21
-217.03433500000028
  0
LINE
  8
_0-3_躯体と製品
  6
CONTINUOUS
 62
    3
 10
-20.524545000000217
 20
-230.1343350000011
 11
-3.6595450000004348
 21
-227.7643350000003
  0
LINE
  8
_0-3_躯体と製品
  6
CONTINUOUS
 62
    3
 10
13.091455000001588
 20
-215.3123350000003
 11
35.867455000000518
 21
-212.11133500000028
  0
LINE
  8
_0-3_躯体と製品
  6
CONTINUOUS
 62
    3
 10
14.483454999999594
 20
-225.21433500000012
 11
37.259455000001708
 21
-222.01333500000123
  0
LINE
  8
_0-3_躯体と製品
  6
CONTINUOUS
 62
    3
 10
20.457455000000664
 20
-210.23733500000026
 11
22.962454999999864
 21
-228.0623350000003
  0
LINE
  8
_0-3_躯体と製品
  6
CONTINUOUS
 62
    3
 10
12.395455000000766
 20
-210.36033499999917
 11
19.327455000000555
 21
-209.38633500000128
  0
LINE
  8
_0-3_躯体と製品
  6
CONTINUOUS
 62
    3
 10
15.179455000000871
 20
-230.16633500000012
 11
22.111454999999751
 21
-229.1913349999993
  0
LINE
  8
_0-3_躯体と製品
  6
CONTINUOUS
 62
    3
 10
22.962454999999864
 20
-228.0623350000003
 11
22.111454999999751
 21
-229.1913349999993
  0
LINE
  8
_0-3_躯体と製品
  6
CONTINUOUS
 62
    3
 10
20.457455000000664
 20
-210.23733500000026
 11
19.327455000000555
 21
-209.38633500000128
  0
LINE
  8
_0-3_躯体と製品
  6
CONTINUOUS
 62
    3
 10
35.867455000000518
 20
-212.11133500000028
 11
37.259455000001708
 21
-222.01333500000123
  0
ARC
  8
_0-3_躯体と製品
  6
CONTINUOUS
 62
    3
 10
10.312455000000682
 20
-202.72133500000018
 40
1
 50
7.9992900000004452
 51
149.83499999999609
  0
LINE
  8
_0-3_躯体と製品
  6
CONTINUOUS
 62
    4
 10
-360.80954499999916
 20
763.55150499999968
 11
-294.24071500000127
 21
830.11966499999994
  0
LINE
  8
_0-3_躯体と製品
  6
CONTINUOUS
 62
    7
 10
-350.80954499999916
 20
830.11966499999994
 11
-240.80954499999916
 21
830.11966499999994
  0
LINE
  8
_0-3_躯体と製品
  6
CONTINUOUS
 62
    3
 10
-317.60954500000025
 20
774.43966499999965
 11
-347.80954500000053
 21
774.43966499999965
  0
LINE
  8
_0-3_躯体と製品
  6
CONTINUOUS
 62
    3
 10
-317.60954500000025
 20
771.43966499999965
 11
-347.80954500000053
 21
771.43966499999965
  0
LINE
  8
_0-3_躯体と製品
  6
CONTINUOUS
 62
    4
 10
-360.80954499999916
 20
706.98324499999967
 11
-320.80954499999916
 21
746.98284499999977
  0
LINE
  8
_0-3_躯体と製品
  6
CONTINUOUS
 62
    4
 10
-360.80954499999916
 20
650.4149850000008
 11
-320.80954499999916
 21
690.41458499999976
  0
LINE
  8
_0-3_躯体と製品
  6
PLINE3
 62
    3
 10
-360.80954499999916
 20
590.11966500000085
 11
-330.80954499999916
 21
590.11966500000085
  0
LINE
  8
_0-3_躯体と製品
  6
CONTINUOUS
 62
    7
 10
-360.80954499999916
 20
630.11966500000085
 11
-320.80954499999916
 21
630.11966500000085
  0
LINE
  8
_0-3_躯体と製品
  6
CONTINUOUS
 62
    3
 10
-317.60964499999909
 20
668.59976499999971
 11
-347.80964500000027
 21
668.59976499999971
  0
LINE
  8
_0-3_躯体と製品
  6
CONTINUOUS
 62
    3
 10
-317.60954500000025
 20
671.6396649999997
 11
-347.80954500000053
 21
671.6396649999997
  0
LINE
  8
_0-4_文字-記号
  6
CONTINUOUS
 62
    3
 10
-302.97884500000009
 20
389.94466499999976
 11
-380.67830499999809
 21
255.36525499999971
  0
TEXT
  8
_0-4_文字-記号
 62
    7
 10
-649.87057166666727
 20
260.36526499999991
 40
50
 41
0.8
 50
0
  1
支持脚　框用
  0
LINE
  8
_0-4_文字-記号
  6
CONTINUOUS
 62
    3
 10
-380.67830499999809
 20
255.36525499999971
 11
-555.84930499999928
 21
255.36525499999971
  0
LINE
  8
_0-3_躯体と製品
  6
CONTINUOUS
 62
    7
 10
-360.80954499999916
 20
820.11966500000085
 11
-360.80954499999916
 21
630.11966500000085
  0
LINE
  8
_0-3_躯体と製品
  6
CONTINUOUS
 62
    3
 10
-350.60944500000051
 20
670.11976500000083
 11
-349.21224500000153
 21
668.7225649999998
  0
LINE
  8
_0-3_躯体と製品
  6
CONTINUOUS
 62
    3
 10
-350.60964499999909
 20
670.11976500000083
 11
-349.21234500000037
 21
671.51696500000071
  0
LINE
  8
_0-3_躯体と製品
  6
CONTINUOUS
 62
    3
 10
-347.80954500000053
 20
671.6396649999997
 11
-349.21224500000153
 21
671.51696500000071
  0
LINE
  8
_0-3_躯体と製品
  6
CONTINUOUS
 62
    3
 10
-347.80964500000027
 20
668.59966499999973
 11
-349.21234500000037
 21
668.72236499999985
  0
LINE
  8
_0-3_躯体と製品
  6
CONTINUOUS
 62
    7
 10
-350.80954499999916
 20
830.11966499999994
 11
-360.80954499999916
 21
820.11976499999969
  0
LINE
  8
_0-3_躯体と製品
  6
CONTINUOUS
 62
    3
 10
-350.60944500000051
 20
772.91976499999987
 11
-349.21224500000153
 21
771.52256499999999
  0
LINE
  8
_0-3_躯体と製品
  6
CONTINUOUS
 62
    3
 10
-350.60964499999909
 20
772.91976499999987
 11
-349.21234500000037
 21
774.31706499999996
  0
LINE
  8
_0-3_躯体と製品
  6
CONTINUOUS
 62
    3
 10
-347.80954500000053
 20
774.43966499999965
 11
-349.21234500000037
 21
774.31696499999975
  0
LINE
  8
_0-3_躯体と製品
  6
CONTINUOUS
 62
    3
 10
-347.80964500000027
 20
771.39966499999969
 11
-349.21234500000037
 21
771.52246499999978
  0
LINE
  8
_0-3_躯体と製品
  6
CONTINUOUS
 62
    3
 10
-65.309544999999162
 20
505.3176649999989
 11
-65.309544999999162
 21
516.71766499999876
  0
LINE
  8
_0-3_躯体と製品
  6
CONTINUOUS
 62
    3
 10
-81.309544999999162
 20
505.3176649999989
 11
-81.309544999999162
 21
516.71766499999876
  0
LINE
  8
_0-3_躯体と製品
  6
CONTINUOUS
 62
    3
 10
-59.459544999999252
 20
505.3176649999989
 11
-59.459544999999252
 21
516.71766499999876
  0
LINE
  8
_0-3_躯体と製品
  6
CONTINUOUS
 62
    3
 10
-87.159544999999525
 20
516.71766499999876
 11
-87.159544999999525
 21
505.3176649999989
  0
LINE
  8
_0-3_躯体と製品
  6
CONTINUOUS
 62
    3
 10
-219.99254500000052
 20
505.97866499999986
 11
-237.16064499999948
 21
530.29666499999871
  0
LINE
  8
_0-3_躯体と製品
  6
CONTINUOUS
 62
    3
 10
-301.62644499999942
 20
505.97866499999986
 11
-284.45844500000021
 21
530.29666499999871
  0
LINE
  8
_0-3_躯体と製品
  6
CONTINUOUS
 62
    3
 10
-278.3570450000002
 20
589.80666499999984
 11
-305.69934500000045
 21
506.66366499999981
  0
LINE
  8
_0-3_躯体と製品
  6
CONTINUOUS
 62
    3
 10
-277.21704499999942
 20
589.43166499999984
 11
-304.55934500000012
 21
506.28866499999981
  0
LINE
  8
_0-3_躯体と製品
  6
CONTINUOUS
 62
    4
 10
158.27535500000067
 20
461.23166499999979
 11
-142.81354499999952
 21
461.23166499999979
  0
LINE
  8
_0-3_躯体と製品
  6
CONTINUOUS
 62
    4
 10
158.27535500000067
 20
429.2316650000007
 11
-142.81354499999952
 21
429.2316650000007
  0
LINE
  8
_0-4_文字-記号
  6
CONTINUOUS
 62
    3
 10
-302.97884500000009
 20
389.94466499999976
 11
-317.30897500000037
 21
375.12415499999975
  0
LINE
  8
_0-4_文字-記号
  6
CONTINUOUS
 62
    3
 10
-302.97884500000009
 20
389.94466499999976
 11
-308.64871499999936
 21
370.12415499999975
  0
LINE
  8
_0-3_躯体と製品
  6
CONTINUOUS
 62
    3
 10
-301.80954500000144
 20
475.71966499999985
 11
-219.80954500000053
 21
475.71966499999985
  0
LINE
  8
_0-3_躯体と製品
  6
CONTINUOUS
 62
    3
 10
-301.80954500000144
 20
505.71966499999985
 11
-219.80954500000053
 21
505.71966499999985
  0
LINE
  8
_0-3_躯体と製品
  6
CONTINUOUS
 62
    3
 10
-306.00964499999918
 20
504.72666499999968
 11
-306.00964499999918
 21
451.31966499999885
  0
LINE
  8
_0-3_躯体と製品
  6
CONTINUOUS
 62
    3
 10
-304.80964500000027
 20
504.72666499999968
 11
-304.80964500000027
 21
451.31966499999885
  0
ARC
  8
_0-3_躯体と製品
  6
CONTINUOUS
 62
    3
 10
-281.10954499999934
 20
456.31966499999976
 40
5
 50
270
 51
0
  0
LINE
  8
_0-3_躯体と製品
  6
CONTINUOUS
 62
    3
 10
-306.00964499999918
 20
451.31966499999885
 11
-281.10954499999934
 21
451.31966499999885
  0
LINE
  8
_0-3_躯体と製品
  6
CONTINUOUS
 62
    3
 10
-304.80964500000027
 20
471.31966499999976
 11
-281.10954499999934
 21
471.31966499999976
  0
LINE
  8
_0-3_躯体と製品
  6
CONTINUOUS
 62
    3
 10
-298.30954499999916
 20
475.71966499999985
 11
-298.30954499999916
 21
471.31966499999976
  0
LINE
  8
_0-3_躯体と製品
  6
CONTINUOUS
 62
    3
 10
-301.80954500000144
 20
505.40266499999984
 11
-301.80954500000144
 21
475.71966499999985
  0
ARC
  8
_0-3_躯体と製品
  6
CONTINUOUS
 62
    3
 10
-299.80964500000027
 20
504.72666499999968
 40
5
 50
161.79600000000113
 51
180.00000000000003
  0
ARC
  8
_0-3_躯体と製品
  6
CONTINUOUS
 62
    3
 10
-299.80964500000027
 20
504.72666499999968
 40
6.2000000000000002
 50
161.79600000000113
 51
180.00000000000003
  0
LINE
  8
_0-3_躯体と製品
  6
CONTINUOUS
 62
    3
 10
-276.10954499999934
 20
466.31966499999976
 11
-276.10954499999934
 21
456.31966499999976
  0
LINE
  8
_0-3_躯体と製品
  6
CONTINUOUS
 62
    3
 10
-286.10954499999934
 20
464.20866499999988
 11
-286.10954499999934
 21
458.42166499999985
  0
LINE
  8
_0-3_躯体と製品
  6
CONTINUOUS
 62
    3
 10
-288.8967449999991
 20
461.31966499999976
 11
-283.52254500000026
 21
461.31966499999976
  0
ARC
  8
_0-3_躯体と製品
  6
CONTINUOUS
 62
    3
 10
-281.10954499999934
 20
466.31966499999976
 40
5
 50
0
 51
90
  0
CIRCLE
  8
_0-3_躯体と製品
  6
CONTINUOUS
 62
    3
 10
-286.10954499999934
 20
461.31966499999976
 40
4
  0
LINE
  8
_0-3_躯体と製品
  6
CONTINUOUS
 62
    3
 10
-219.80954500000053
 20
505.40266499999984
 11
-219.80954500000053
 21
475.71966499999985
  0
LINE
  8
_0-3_躯体と製品
  6
CONTINUOUS
 62
    3
 10
-234.29874500000142
 20
498.5196649999998
 11
-243.32031500000039
 21
498.5196649999998
  0
LINE
  8
_0-3_躯体と製品
  6
CONTINUOUS
 62
    3
 10
-243.32039500000019
 20
482.9196649999999
 11
-247.82374500000014
 21
490.71966499999985
  0
LINE
  8
_0-3_躯体と製品
  6
CONTINUOUS
 62
    3
 10
-243.32031500000039
 20
482.9196649999999
 11
-234.29874500000142
 21
482.9196649999999
  0
LINE
  8
_0-3_躯体と製品
  6
CONTINUOUS
 62
    3
 10
-234.29874500000142
 20
482.9196649999999
 11
-229.79544499999929
 21
490.71966499999985
  0
LINE
  8
_0-3_躯体と製品
  6
CONTINUOUS
 62
    3
 10
-229.79544499999929
 20
490.71966499999985
 11
-234.29884500000026
 21
498.5196649999998
  0
LINE
  8
_0-3_躯体と製品
  6
CONTINUOUS
 62
    3
 10
-247.82356500000014
 20
490.71966499999985
 11
-243.32024499999943
 21
498.5196649999998
  0
CIRCLE
  8
_0-3_躯体と製品
  6
CONTINUOUS
 62
    3
 10
-238.80954499999916
 20
490.71966499999985
 40
7.7999999999999998
  0
LINE
  8
_0-3_躯体と製品
  6
CONTINUOUS
 62
    4
 10
-142.81354499999952
 20
461.23166499999979
 11
-142.81354499999952
 21
429.2316650000007
  0
CIRCLE
  8
_0-3_躯体と製品
  6
CONTINUOUS
 62
    4
 10
-73.818544999999176
 20
445.49466499999971
 40
3
  0
LINE
  8
_0-3_躯体と製品
  6
CONTINUOUS
 62
    3
 10
-90.774544999999307
 20
494.11766499999976
 11
-49.374545000000126
 21
494.11766499999976
  0
LINE
  8
_0-3_躯体と製品
  6
CONTINUOUS
 62
    3
 10
-73.309544999999162
 20
505.3176649999989
 11
-52.109545000000253
 21
505.3176649999989
  0
LINE
  8
_0-3_躯体と製品
  6
CONTINUOUS
 62
    3
 10
-96.420545000000402
 20
492.61766499999976
 11
-95.133545000001504
 21
492.61766499999976
  0
LINE
  8
_0-3_躯体と製品
  6
CONTINUOUS
 62
    3
 10
-96.420545000000402
 20
483.61766499999976
 11
-95.133545000001504
 21
483.61766499999976
  0
LINE
  8
_0-3_躯体と製品
  6
CONTINUOUS
 62
    3
 10
-98.509544999999434
 20
494.11766499999976
 11
-97.774544999999307
 21
494.11766499999976
  0
LINE
  8
_0-3_躯体と製品
  6
CONTINUOUS
 62
    3
 10
-97.774544999999307
 20
494.11766499999976
 11
-97.774544999999307
 21
491.87066499999969
  0
LINE
  8
_0-3_躯体と製品
  6
CONTINUOUS
 62
    3
 10
-90.774544999999307
 20
494.11766499999976
 11
-90.774544999999307
 21
482.11766499999976
  0
LINE
  8
_0-3_躯体と製品
  6
CONTINUOUS
 62
    3
 10
-87.871545000000424
 20
494.11766499999976
 11
-87.871545000000424
 21
482.11766499999976
  0
LINE
  8
_0-3_躯体と製品
  6
CONTINUOUS
 62
    3
 10
-87.871545000000424
 20
482.11766499999976
 11
-97.774544999999307
 21
482.11766499999976
  0
LINE
  8
_0-3_躯体と製品
  6
CONTINUOUS
 62
    3
 10
-97.774544999999307
 20
484.36466499999983
 11
-97.774544999999307
 21
482.11766499999976
  0
LINE
  8
_0-3_躯体と製品
  6
CONTINUOUS
 62
    3
 10
-94.509545000000344
 20
505.3176649999989
 11
-73.309544999999162
 21
505.3176649999989
  0
LINE
  8
_0-3_躯体と製品
  6
CONTINUOUS
 62
    3
 10
-98.509544999999434
 20
501.31766499999981
 11
-98.509544999999434
 21
494.11766499999976
  0
ARC
  8
_0-3_躯体と製品
  6
CONTINUOUS
 62
    3
 10
-96.420545000000402
 20
491.01766499999985
 40
1.6000099999999999
 50
90
 51
163.80899999999659
  0
ARC
  8
_0-3_躯体と製品
  6
CONTINUOUS
 62
    3
 10
-86.433545000000322
 20
488.1176650000009
 40
12
 50
163.80899999999662
 51
196.19100000000333
  0
ARC
  8
_0-3_躯体と製品
  6
CONTINUOUS
 62
    3
 10
-96.420545000000402
 20
485.2176649999999
 40
1.6000099999999999
 50
196.1910000000033
 51
270
  0
ARC
  8
_0-3_躯体と製品
  6
CONTINUOUS
 62
    3
 10
-94.509545000000344
 20
501.31766499999981
 40
4
 50
90
 51
180
  0
LINE
  8
_0-3_躯体と製品
  6
CONTINUOUS
 62
    3
 10
-95.133545000001504
 20
483.61766499999976
 11
-94.832745000001523
 21
483.65314499999886
  0
LINE
  8
_0-3_躯体と製品
  6
CONTINUOUS
 62
    3
 10
-94.832745000001523
 20
483.65314499999886
 11
-94.536694999999327
 21
483.75904499999979
  0
LINE
  8
_0-3_躯体と製品
  6
CONTINUOUS
 62
    3
 10
-94.536694999999327
 20
483.75904499999979
 11
-94.250045000001137
 21
483.93367499999977
  0
LINE
  8
_0-3_躯体と製品
  6
CONTINUOUS
 62
    3
 10
-94.250045000001137
 20
483.93367499999977
 11
-93.97733499999913
 21
484.17428499999983
  0
LINE
  8
_0-3_躯体と製品
  6
CONTINUOUS
 62
    3
 10
-93.97733499999913
 20
484.17428499999983
 11
-93.722865000000183
 21
484.47708499999976
  0
LINE
  8
_0-3_躯体と製品
  6
CONTINUOUS
 62
    3
 10
-93.722865000000183
 20
484.47708499999976
 11
-93.490635000000111
 21
484.83730499999979
  0
LINE
  8
_0-3_躯体と製品
  6
CONTINUOUS
 62
    3
 10
-93.490635000000111
 20
484.83730499999979
 11
-93.284315000000333
 21
485.24925499999972
  0
LINE
  8
_0-3_躯体と製品
  6
CONTINUOUS
 62
    3
 10
-93.284315000000333
 20
485.24925499999972
 11
-93.107164999999441
 21
485.7064449999998
  0
LINE
  8
_0-3_躯体と製品
  6
CONTINUOUS
 62
    3
 10
-93.107164999999441
 20
485.7064449999998
 11
-92.961964999999509
 21
486.20165499999871
  0
LINE
  8
_0-3_躯体と製品
  6
CONTINUOUS
 62
    3
 10
-92.961964999999509
 20
486.20165499999871
 11
-92.85101499999837
 21
486.72708499999885
  0
LINE
  8
_0-3_躯体と製品
  6
CONTINUOUS
 62
    3
 10
-92.85101499999837
 20
486.72708499999885
 11
-92.776065000000472
 21
487.27445499999976
  0
LINE
  8
_0-3_躯体と製品
  6
CONTINUOUS
 62
    3
 10
-92.776065000000472
 20
487.27445499999976
 11
-92.73828500000036
 21
487.83510499999988
  0
LINE
  8
_0-3_躯体と製品
  6
CONTINUOUS
 62
    3
 10
-92.73828500000036
 20
487.83510499999988
 11
-92.73828500000036
 21
488.40022499999986
  0
LINE
  8
_0-3_躯体と製品
  6
CONTINUOUS
 62
    3
 10
-92.73828500000036
 20
488.40022499999986
 11
-92.776065000000472
 21
488.96088499999973
  0
LINE
  8
_0-3_躯体と製品
  6
CONTINUOUS
 62
    3
 10
-92.776065000000472
 20
488.96088499999973
 11
-92.85101499999837
 21
489.5082450000009
  0
LINE
  8
_0-3_躯体と製品
  6
CONTINUOUS
 62
    3
 10
-92.85101499999837
 20
489.5082450000009
 11
-92.961964999999509
 21
490.0336749999999
  0
LINE
  8
_0-3_躯体と製品
  6
CONTINUOUS
 62
    3
 10
-92.961964999999509
 20
490.0336749999999
 11
-93.107164999999441
 21
490.52888499999972
  0
LINE
  8
_0-3_躯体と製品
  6
CONTINUOUS
 62
    3
 10
-93.107164999999441
 20
490.52888499999972
 11
-93.284315000000333
 21
490.98607499999889
  0
LINE
  8
_0-3_躯体と製品
  6
CONTINUOUS
 62
    3
 10
-93.284315000000333
 20
490.98607499999889
 11
-93.490635000000111
 21
491.39802499999973
  0
LINE
  8
_0-3_躯体と製品
  6
CONTINUOUS
 62
    3
 10
-93.490635000000111
 20
491.39802499999973
 11
-93.722865000000183
 21
491.75824499999885
  0
LINE
  8
_0-3_躯体と製品
  6
CONTINUOUS
 62
    3
 10
-93.722865000000183
 20
491.75824499999885
 11
-93.97733499999913
 21
492.06104499999969
  0
LINE
  8
_0-3_躯体と製品
  6
CONTINUOUS
 62
    3
 10
-93.97733499999913
 20
492.06104499999969
 11
-94.250045000001137
 21
492.30166499999973
  0
LINE
  8
_0-3_躯体と製品
  6
CONTINUOUS
 62
    3
 10
-94.250045000001137
 20
492.30166499999973
 11
-94.536694999999327
 21
492.47629499999971
  0
LINE
  8
_0-3_躯体と製品
  6
CONTINUOUS
 62
    3
 10
-94.536694999999327
 20
492.47629499999971
 11
-94.832745000001523
 21
492.58218499999975
  0
LINE
  8
_0-3_躯体と製品
  6
CONTINUOUS
 62
    3
 10
-94.832745000001523
 20
492.58218499999975
 11
-95.133545000001504
 21
492.61766499999976
  0
LINE
  8
_0-3_躯体と製品
  6
CONTINUOUS
 62
    3
 10
-96.79640499999914
 20
483.66228499999988
 11
-96.501244999999471
 21
483.77664499999969
  0
LINE
  8
_0-3_躯体と製品
  6
CONTINUOUS
 62
    3
 10
-96.501244999999471
 20
483.77664499999969
 11
-96.216054999999415
 21
483.95947499999988
  0
LINE
  8
_0-3_躯体と製品
  6
CONTINUOUS
 62
    3
 10
-96.216054999999415
 20
483.95947499999988
 11
-95.945345000000088
 21
484.20786499999872
  0
LINE
  8
_0-3_躯体と製品
  6
CONTINUOUS
 62
    3
 10
-95.945345000000088
 20
484.20786499999872
 11
-95.693364999999176
 21
484.51792499999988
  0
LINE
  8
_0-3_躯体と製品
  6
CONTINUOUS
 62
    3
 10
-95.693364999999176
 20
484.51792499999988
 11
-95.464094999999361
 21
484.88475499999981
  0
LINE
  8
_0-3_躯体と製品
  6
CONTINUOUS
 62
    3
 10
-95.464094999999361
 20
484.88475499999981
 11
-95.261155000000144
 21
485.30256499999973
  0
LINE
  8
_0-3_躯体と製品
  6
CONTINUOUS
 62
    3
 10
-95.261155000000144
 20
485.30256499999973
 11
-95.087754999999106
 21
485.76477499999874
  0
LINE
  8
_0-3_躯体と製品
  6
CONTINUOUS
 62
    3
 10
-95.087754999999106
 20
485.76477499999874
 11
-94.946605000000091
 21
486.26409499999977
  0
LINE
  8
_0-3_躯体と製品
  6
CONTINUOUS
 62
    3
 10
-94.946605000000091
 20
486.26409499999977
 11
-94.839945000001535
 21
486.79264499999977
  0
LINE
  8
_0-3_躯体と製品
  6
CONTINUOUS
 62
    3
 10
-94.839945000001535
 20
486.79264499999977
 11
-94.7694649999994
 21
487.34208499999977
  0
LINE
  8
_0-3_躯体と製品
  6
CONTINUOUS
 62
    3
 10
-94.7694649999994
 20
487.34208499999977
 11
-94.736264999999094
 21
487.90376499999979
  0
LINE
  8
_0-3_躯体と製品
  6
CONTINUOUS
 62
    3
 10
-94.736264999999094
 20
487.90376499999979
 11
-94.740865000001122
 21
488.46881499999972
  0
LINE
  8
_0-3_躯体と製品
  6
CONTINUOUS
 62
    3
 10
-94.740865000001122
 20
488.46881499999972
 11
-94.78320500000018
 21
489.0283250000009
  0
LINE
  8
_0-3_躯体と製品
  6
CONTINUOUS
 62
    3
 10
-94.78320500000018
 20
489.0283250000009
 11
-94.862614999999096
 21
489.57347500000083
  0
LINE
  8
_0-3_躯体と製品
  6
CONTINUOUS
 62
    3
 10
-94.862614999999096
 20
489.57347500000083
 11
-94.977834999999232
 21
490.09566499999983
  0
LINE
  8
_0-3_躯体と製品
  6
CONTINUOUS
 62
    3
 10
-94.977834999999232
 20
490.09566499999983
 11
-95.127044999999271
 21
490.58665500000075
  0
LINE
  8
_0-3_躯体と製品
  6
CONTINUOUS
 62
    3
 10
-95.127044999999271
 20
490.58665500000075
 11
-95.307904999999209
 21
491.03871500000082
  0
LINE
  8
_0-3_躯体と製品
  6
CONTINUOUS
 62
    3
 10
-95.307904999999209
 20
491.03871500000082
 11
-95.517554999998083
 21
491.44470499999989
  0
LINE
  8
_0-3_躯体と製品
  6
CONTINUOUS
 62
    3
 10
-95.517554999998083
 20
491.44470499999989
 11
-95.752694999998312
 21
491.79823499999975
  0
LINE
  8
_0-3_躯体と製品
  6
CONTINUOUS
 62
    3
 10
-95.752694999998312
 20
491.79823499999975
 11
-96.009604999999283
 21
492.09370500000091
  0
LINE
  8
_0-3_躯体と製品
  6
CONTINUOUS
 62
    3
 10
-96.009604999999283
 20
492.09370500000091
 11
-96.284244999999373
 21
492.32648499999982
  0
LINE
  8
_0-3_躯体と製品
  6
CONTINUOUS
 62
    3
 10
-96.284244999999373
 20
492.32648499999982
 11
-96.572275000000445
 21
492.49288499999989
  0
LINE
  8
_0-3_躯体と製品
  6
CONTINUOUS
 62
    3
 10
-96.572275000000445
 20
492.49288499999989
 11
-96.795815000000403
 21
492.57288500000072
  0
LINE
  8
_0-3_躯体と製品
  6
CONTINUOUS
 62
    3
 10
-46.822544999999536
 20
492.61766499999976
 11
-48.109544999999343
 21
492.61766499999976
  0
LINE
  8
_0-3_躯体と製品
  6
CONTINUOUS
 62
    3
 10
-46.822544999999536
 20
483.61766499999976
 11
-48.109544999999343
 21
483.61766499999976
  0
LINE
  8
_0-3_躯体と製品
  6
CONTINUOUS
 62
    3
 10
-49.374545000000126
 20
494.11766499999976
 11
-49.374545000000126
 21
482.11766499999976
  0
LINE
  8
_0-3_躯体と製品
  6
CONTINUOUS
 62
    3
 10
-45.285544999999274
 20
491.46366499999976
 11
-45.285544999999274
 21
484.77166499999976
  0
LINE
  8
_0-3_躯体と製品
  6
CONTINUOUS
 62
    3
 10
-48.109544999999343
 20
501.31766499999981
 11
-48.109544999999343
 21
482.11766499999976
  0
ARC
  8
_0-3_躯体と製品
  6
CONTINUOUS
 62
    3
 10
-46.822544999999536
 20
491.01766499999985
 40
1.6000099999999999
 50
16.191200000000642
 51
90.000000000000014
  0
ARC
  8
_0-3_躯体と製品
  6
CONTINUOUS
 62
    3
 10
-46.822544999999536
 20
485.2176649999999
 40
1.6000099999999999
 50
270
 51
343.80899999999667
  0
LINE
  8
_0-3_躯体と製品
  6
CONTINUOUS
 62
    3
 10
-52.574545000000398
 20
482.11766499999976
 11
-48.109544999999343
 21
482.11766499999976
  0
ARC
  8
_0-3_躯体と製品
  6
CONTINUOUS
 62
    3
 10
-52.109545000000253
 20
501.31766499999981
 40
4
 50
0
 51
90
  0
LINE
  8
_0-3_躯体と製品
  6
CONTINUOUS
 62
    3
 10
-52.574545000000398
 20
494.11766499999976
 11
-52.574545000000398
 21
482.11766499999976
  0
TEXT
  8
_0-4_文字-記号
 62
    7
 10
58.774064999999609
 20
340.46719499999972
 40
50
 41
0.8
 50
0
  1
振れ止
  0
LINE
  8
_0-4_文字-記号
  6
CONTINUOUS
 62
    3
 10
51.708145000000513
 20
340.4672149999999
 11
163.9171450000008
 21
340.4672149999999
  0
LINE
  8
_0-4_文字-記号
  6
CONTINUOUS
 62
    3
 10
16.376144999998814
 20
428.79521499999987
 11
51.708145000000513
 21
340.4672149999999
  0
LINE
  8
_0-4_文字-記号
  6
CONTINUOUS
 62
    3
 10
16.376144999998814
 20
428.79521499999987
 11
19.16173500000059
 21
408.36874499999976
  0
LINE
  8
_0-4_文字-記号
  6
CONTINUOUS
 62
    3
 10
16.376144999998814
 20
428.79521499999987
 11
28.446475000000646
 21
412.08272499999975
  0
LINE
  8
_0-3_躯体と製品
  6
CONTINUOUS
 62
    3
 10
-34.504405000000133
 20
778.31880499999966
 11
-25.603224999999384
 21
778.31880499999966
  0
LINE
  8
_0-3_躯体と製品
  6
CONTINUOUS
 62
    3
 10
-34.504405000000133
 20
773.31814499999996
 11
-25.603224999999384
 21
773.31814499999996
  0
LINE
  8
_0-3_躯体と製品
  6
CONTINUOUS
 62
    3
 10
-34.504405000000133
 20
778.81887499999971
 11
-25.603224999999384
 21
778.81887499999971
  0
LINE
  8
_0-3_躯体と製品
  6
CONTINUOUS
 62
    3
 10
-25.603224999999384
 20
772.81807499999991
 11
-34.504405000000133
 21
772.81807499999991
  0
LINE
  8
_0-3_躯体と製品
  6
CONTINUOUS
 62
    3
 10
158.27535500000067
 20
812.11966499999994
 11
-215.80954499999916
 21
812.11966499999994
  0
LINE
  8
_0-3_躯体と製品
  6
CONTINUOUS
 62
    3
 10
158.27535500000067
 20
797.11966499999994
 11
-191.80954500000144
 21
797.11966499999994
  0
LINE
  8
_0-3_躯体と製品
  6
CONTINUOUS
 62
    7
 10
158.27535500000067
 20
767.11966499999994
 11
-39.509545000000344
 21
767.11966499999994
  0
LINE
  8
_0-3_躯体と製品
  6
CONTINUOUS
 62
    7
 10
158.27535500000067
 20
830.11966499999994
 11
-240.80954499999916
 21
830.11966499999994
  0
LINE
  8
_0-3_躯体と製品
  6
PLINE3
 62
    3
 10
158.27535500000067
 20
530.11966500000085
 11
-59.459544999999252
 21
530.11966500000085
  0
ARC
  8
_0-3_躯体と製品
  6
CONTINUOUS
 62
    4
 10
-53.256894999999531
 20
720.12284499999873
 40
5.000659999999999
 50
270
 51
0
  0
ARC
  8
_0-3_躯体と製品
  6
CONTINUOUS
 62
    4
 10
-55.257154999999329
 20
722.12311499999964
 40
5.000659999999999
 50
270
 51
0
  0
LINE
  8
_0-3_躯体と製品
  6
CONTINUOUS
 62
    3
 10
-107.11402500000031
 20
708.84141499999964
 11
-107.11402500000031
 21
776.46355499999959
  0
LINE
  8
_0-3_躯体と製品
  6
CONTINUOUS
 62
    4
 10
-105.61382500000036
 20
763.6931549999988
 11
-105.61382500000036
 21
702.50876499999981
  0
LINE
  8
_0-3_躯体と製品
  6
CONTINUOUS
 62
    4
 10
-103.31351499999937
 20
762.77977499999974
 11
-103.31351499999937
 21
704.80907499999989
  0
ARC
  8
_0-3_躯体と製品
  6
CONTINUOUS
 62
    4
 10
-93.2621850000005
 20
720.12284499999873
 40
5.000659999999999
 50
180
 51
270
  0
ARC
  8
_0-3_躯体と製品
  6
CONTINUOUS
 62
    4
 10
-91.261925000001156
 20
722.12311499999964
 40
5.000659999999999
 50
180
 51
270
  0
LINE
  8
_0-3_躯体と製品
  6
CONTINUOUS
 62
    3
 10
-39.505065000000286
 20
708.84141499999964
 11
-39.505065000000286
 21
776.46355499999959
  0
LINE
  8
_0-3_躯体と製品
  6
CONTINUOUS
 62
    4
 10
-41.005265000001145
 20
763.6931549999988
 11
-41.005265000001145
 21
702.50876499999981
  0
LINE
  8
_0-3_躯体と製品
  6
CONTINUOUS
 62
    4
 10
-43.305574999999408
 20
762.77977499999974
 11
-43.305574999999408
 21
704.80907499999989
  0
LINE
  8
_0-3_躯体と製品
  6
CONTINUOUS
 62
    4
 10
-320.80954499999916
 20
790.11966500000085
 11
-320.80954499999916
 21
630.11966500000085
  0
LINE
  8
_0-3_躯体と製品
  6
CONTINUOUS
 62
    3
 10
-252.80954499999916
 20
747.71966500000076
 11
-252.80954499999916
 21
671.31966499999885
  0
LINE
  8
_0-3_躯体と製品
  6
CONTINUOUS
 62
    3
 10
-268.80954499999916
 20
747.71966500000076
 11
-268.80954499999916
 21
671.31966499999885
  0
LINE
  8
_0-3_躯体と製品
  6
CONTINUOUS
 62
    3
 10
-275.80954499999916
 20
572.11966499999971
 11
-37.809544999999162
 21
572.11966499999971
  0
LINE
  8
_0-3_躯体と製品
  6
CONTINUOUS
 62
    3
 10
-275.80954499999916
 20
568.91966499999876
 11
-37.809544999999162
 21
568.91966499999876
  0
LINE
  8
_0-3_躯体と製品
  6
CONTINUOUS
 62
    3
 10
-240.80957500000022
 20
575.11966499999971
 11
-112.80954500000053
 21
575.11966499999971
  0
LINE
  8
_0-3_躯体と製品
  6
PLINE3
 62
    3
 10
-237.03568500000029
 20
530.11966500000085
 11
-87.159544999999525
 21
530.11966500000085
  0
LINE
  8
_0-3_躯体と製品
  6
CONTINUOUS
 62
    3
 10
-276.65954500000043
 20
593.5196649999998
 11
-276.65954500000043
 21
647.51966500000071
  0
LINE
  8
_0-3_躯体と製品
  6
CONTINUOUS
 62
    3
 10
-277.85954499999843
 20
593.5196649999998
 11
-277.85954499999843
 21
647.51966500000071
  0
LINE
  8
_0-3_躯体と製品
  6
CONTINUOUS
 62
    3
 10
-268.80954499999916
 20
640.3196650000009
 11
-268.80954499999916
 21
602.51966500000071
  0
LINE
  8
_0-3_躯体と製品
  6
CONTINUOUS
 62
    3
 10
-252.80954499999916
 20
640.3196650000009
 11
-252.80954499999916
 21
602.51966500000071
  0
LINE
  8
_0-3_躯体と製品
  6
CONTINUOUS
 62
    3
 10
-273.15954500000043
 20
602.51966500000071
 11
-248.45954500000016
 21
602.51966500000071
  0
ARC
  8
_0-3_躯体と製品
  6
CONTINUOUS
 62
    3
 10
-260.80954499999916
 20
581.71966499999985
 40
20.800000000000001
 50
67.380135000002696
 51
112.61986499999719
  0
ARC
  8
_0-3_躯体と製品
  6
CONTINUOUS
 62
    3
 10
-260.80954499999916
 20
613.31966499999976
 40
20.800000000000001
 50
247.38013500000261
 51
292.61986499999728
  0
ARC
  8
_0-3_躯体と製品
  6
CONTINUOUS
 62
    3
 10
-260.80944499999941
 20
548.11966499999971
 40
20.800000000000001
 50
67.380135000002696
 51
112.61986499999719
  0
ARC
  8
_0-3_躯体と製品
  6
CONTINUOUS
 62
    3
 10
-260.80944499999941
 20
569.31966499999976
 40
20.800000000000001
 50
67.380135000002696
 51
112.61986499999719
  0
LINE
  8
_0-3_躯体と製品
  6
CONTINUOUS
 62
    3
 10
-246.45953499999951
 20
577.11966499999971
 11
-275.15954499999953
 21
577.11966499999971
  0
LINE
  8
_0-3_躯体と製品
  6
CONTINUOUS
 62
    3
 10
-239.45954499999925
 20
530.71966499999985
 11
-283.6414450000002
 21
530.71966499999985
  0
LINE
  8
_0-3_躯体と製品
  6
CONTINUOUS
 62
    3
 10
-260.80954499999916
 20
555.9196649999999
 11
-239.60954500000025
 21
555.9196649999999
  0
LINE
  8
_0-3_躯体と製品
  6
CONTINUOUS
 62
    3
 10
-276.26714499999935
 20
591.31966499999976
 11
-244.80954500000053
 21
591.31966499999976
  0
LINE
  8
_0-3_躯体と製品
  6
CONTINUOUS
 62
    3
 10
-275.65954500000134
 20
592.51966500000071
 11
-244.80954500000053
 21
592.51966500000071
  0
LINE
  8
_0-3_躯体と製品
  6
CONTINUOUS
 62
    3
 10
-286.00954499999943
 20
544.71966499999985
 11
-254.76758499999914
 21
544.71966499999985
  0
LINE
  8
_0-3_躯体と製品
  6
CONTINUOUS
 62
    3
 10
-244.80954500000053
 20
590.11966500000085
 11
-276.26714499999935
 21
590.11966500000085
  0
LINE
  8
_0-3_躯体と製品
  6
CONTINUOUS
 62
    3
 10
-268.80944499999941
 20
555.9196649999999
 11
-268.80944499999941
 21
567.31966499999976
  0
LINE
  8
_0-3_躯体と製品
  6
CONTINUOUS
 62
    3
 10
-274.65944499999932
 20
567.31966499999976
 11
-274.65944499999932
 21
555.9196649999999
  0
LINE
  8
_0-3_躯体と製品
  6
PLINE3
 62
    3
 10
-330.80954499999916
 20
530.11966500000085
 11
-282.15954499999953
 21
530.71966499999985
  0
LINE
  8
_0-3_躯体と製品
  6
CONTINUOUS
 62
    3
 10
-286.00954499999943
 20
551.9196649999999
 11
-286.00954499999943
 21
544.71966499999985
  0
LINE
  8
_0-3_躯体と製品
  6
CONTINUOUS
 62
    3
 10
-282.15954499999953
 20
544.71966499999985
 11
-282.15954499999953
 21
530.71966499999985
  0
LINE
  8
_0-3_躯体と製品
  6
CONTINUOUS
 62
    3
 10
-282.00954500000034
 20
555.9196649999999
 11
-260.80954499999916
 21
555.9196649999999
  0
ARC
  8
_0-3_躯体と製品
  6
CONTINUOUS
 62
    3
 10
-282.00954500000034
 20
551.9196649999999
 40
4
 50
90
 51
180
  0
ARC
  8
_0-3_躯体と製品
  6
CONTINUOUS
 62
    3
 10
-283.6414450000002
 20
529.71966499999985
 40
1
 50
90
 51
144.777999999999
  0
ARC
  8
_0-3_躯体と製品
  6
CONTINUOUS
 62
    3
 10
-271.71721500000149
 20
599.07938499999977
 40
3.4410999999999992
 50
32.329877999997528
 51
88.745243999996518
  0
LINE
  8
_0-3_躯体と製品
  6
CONTINUOUS
 62
    3
 10
-273.15954500000043
 20
602.51966500000071
 11
-274.65954499999953
 21
600.9196649999999
  0
ARC
  8
_0-3_躯体と製品
  6
CONTINUOUS
 62
    3
 10
-271.71721500000149
 20
595.95994500000074
 40
3.4410999999999992
 50
271.25475600000351
 51
327.67012200000238
  0
LINE
  8
_0-3_躯体と製品
  6
CONTINUOUS
 62
    3
 10
-268.80954499999916
 20
600.9196649999999
 11
-268.80954499999916
 21
594.11966499999971
  0
LINE
  8
_0-3_躯体と製品
  6
CONTINUOUS
 62
    3
 10
-274.65954499999953
 20
600.9196649999999
 11
-274.65954499999953
 21
594.11966499999971
  0
LINE
  8
_0-3_躯体と製品
  6
CONTINUOUS
 62
    3
 10
-273.15954500000043
 20
592.51966500000071
 11
-274.65954499999953
 21
594.11966499999971
  0
ARC
  8
_0-3_躯体と製品
  6
CONTINUOUS
 62
    3
 10
-271.7171149999981
 20
565.47938499999987
 40
3.4410999999999992
 50
32.329877999997528
 51
88.745243999996518
  0
LINE
  8
_0-3_躯体と製品
  6
CONTINUOUS
 62
    3
 10
-273.15944499999932
 20
568.91966499999876
 11
-274.65944499999932
 21
567.31966499999976
  0
ARC
  8
_0-3_躯体と製品
  6
CONTINUOUS
 62
    3
 10
-271.7171149999981
 20
586.67938499999877
 40
3.4410999999999992
 50
32.329877999997528
 51
88.745243999996518
  0
LINE
  8
_0-3_躯体と製品
  6
CONTINUOUS
 62
    3
 10
-268.80944499999941
 20
577.11966499999971
 11
-268.80944499999941
 21
588.5196649999998
  0
LINE
  8
_0-3_躯体と製品
  6
CONTINUOUS
 62
    3
 10
-274.65944499999932
 20
588.5196649999998
 11
-274.65944499999932
 21
577.11966499999971
  0
LINE
  8
_0-3_躯体と製品
  6
CONTINUOUS
 62
    3
 10
-273.15944499999932
 20
590.11966500000085
 11
-274.65944499999932
 21
588.5196649999998
  0
LINE
  8
_0-3_躯体と製品
  6
CONTINUOUS
 62
    3
 10
-261.69104499999912
 20
572.11966499999971
 11
-260.80944499999941
 21
577.11966499999971
  0
LINE
  8
_0-3_躯体と製品
  6
CONTINUOUS
 62
    3
 10
-260.67569499999945
 20
572.11966499999971
 11
-259.79405499999939
 21
577.11966499999971
  0
LINE
  8
_0-3_躯体と製品
  6
CONTINUOUS
 62
    3
 10
-275.15954499999953
 20
572.11966499999971
 11
-275.15954499999953
 21
577.11966499999971
  0
LINE
  8
_0-3_躯体と製品
  6
CONTINUOUS
 62
    3
 10
-275.80954499999916
 20
572.11966499999971
 11
-275.80954499999916
 21
568.91966499999876
  0
ARC
  8
_0-3_躯体と製品
  6
CONTINUOUS
 62
    3
 10
-275.65954500000134
 20
593.5196649999998
 40
1
 50
180
 51
270
  0
ARC
  8
_0-3_躯体と製品
  6
CONTINUOUS
 62
    3
 10
-275.65954500000134
 20
593.5196649999998
 40
2.2000000000000002
 50
180
 51
270
  0
ARC
  8
_0-3_躯体と製品
  6
CONTINUOUS
 62
    3
 10
-276.26714499999935
 20
589.11966499999971
 40
2.2000000000000002
 50
90
 51
161.7960000000011
  0
ARC
  8
_0-3_躯体と製品
  6
CONTINUOUS
 62
    3
 10
-276.26714499999935
 20
589.11966499999971
 40
1
 50
90
 51
161.7960000000011
  0
LINE
  8
_0-3_躯体と製品
  6
CONTINUOUS
 62
    3
 10
-252.80944500000032
 20
555.9196649999999
 11
-252.80944500000032
 21
567.31966499999976
  0
LINE
  8
_0-3_躯体と製品
  6
CONTINUOUS
 62
    3
 10
-246.9594449999995
 20
555.9196649999999
 11
-246.9594449999995
 21
567.31966499999976
  0
LINE
  8
_0-3_躯体と製品
  6
CONTINUOUS
 62
    3
 10
-242.64322499999935
 20
532.71966499999985
 11
-256.44336500000009
 21
532.71966499999985
  0
LINE
  8
_0-3_躯体と製品
  6
CONTINUOUS
 62
    3
 10
-245.15161499999931
 20
538.71966499999985
 11
-250.90070499999911
 21
538.71966499999985
  0
CIRCLE
  8
_0-3_躯体と製品
  6
CONTINUOUS
 62
    3
 10
-248.20953500000041
 20
538.71966499999985
 40
4
  0
LINE
  8
_0-3_躯体と製品
  6
CONTINUOUS
 62
    3
 10
-239.45954499999925
 20
544.71966499999985
 11
-239.45954499999925
 21
530.71966499999985
  0
LINE
  8
_0-3_躯体と製品
  6
CONTINUOUS
 62
    3
 10
-239.45954499999925
 20
530.71966499999985
 11
-237.97764500000039
 21
530.71966499999985
  0
LINE
  8
_0-3_躯体と製品
  6
CONTINUOUS
 62
    3
 10
-235.60954499999934
 20
551.9196649999999
 11
-235.60954499999934
 21
544.71966499999985
  0
LINE
  8
_0-3_躯体と製品
  6
CONTINUOUS
 62
    3
 10
-248.20953500000041
 20
541.70966499999872
 11
-248.20953500000041
 21
535.88966500000083
  0
LINE
  8
_0-3_躯体と製品
  6
CONTINUOUS
 62
    3
 10
-242.64322499999935
 20
544.71966499999985
 11
-242.64322499999935
 21
532.71966499999985
  0
LINE
  8
_0-3_躯体と製品
  6
CONTINUOUS
 62
    3
 10
-242.64322499999935
 20
544.71966499999985
 11
-235.60954499999934
 21
544.71966499999985
  0
ARC
  8
_0-3_躯体と製品
  6
CONTINUOUS
 62
    3
 10
-239.60954500000025
 20
551.9196649999999
 40
4
 50
0
 51
90
  0
ARC
  8
_0-3_躯体と製品
  6
CONTINUOUS
 62
    3
 10
-237.97764500000039
 20
529.71966499999985
 40
1
 50
35.222299999998967
 51
90
  0
LINE
  8
_0-3_躯体と製品
  6
CONTINUOUS
 62
    3
 10
-256.44339499999842
 20
544.71966499999985
 11
-256.44339499999842
 21
532.71966499999985
  0
LINE
  8
_0-3_躯体と製品
  6
CONTINUOUS
 62
    3
 10
-254.76758499999914
 20
544.71966499999985
 11
-254.76758499999914
 21
532.71966499999985
  0
LINE
  8
_0-3_躯体と製品
  6
CONTINUOUS
 62
    3
 10
-248.45954500000016
 20
602.51966500000071
 11
-246.95954499999925
 21
600.9196649999999
  0
ARC
  8
_0-3_躯体と製品
  6
CONTINUOUS
 62
    3
 10
-249.90186499999936
 20
599.07938499999977
 40
3.4410999999999992
 50
91.254756000003511
 51
147.67012200000244
  0
LINE
  8
_0-3_躯体と製品
  6
CONTINUOUS
 62
    3
 10
-252.80954499999916
 20
600.9196649999999
 11
-252.80954499999916
 21
594.11966499999971
  0
LINE
  8
_0-3_躯体と製品
  6
CONTINUOUS
 62
    3
 10
-246.95954499999925
 20
600.9196649999999
 11
-246.95954499999925
 21
594.11966499999971
  0
LINE
  8
_0-3_躯体と製品
  6
CONTINUOUS
 62
    3
 10
-248.45954500000016
 20
592.51966500000071
 11
-246.95954499999925
 21
594.11966499999971
  0
ARC
  8
_0-3_躯体と製品
  6
CONTINUOUS
 62
    3
 10
-249.90186499999936
 20
595.95994500000074
 40
3.4410999999999992
 50
212.32987799999739
 51
268.74524399999638
  0
LINE
  8
_0-3_躯体と製品
  6
CONTINUOUS
 62
    3
 10
-248.45944500000041
 20
568.91966499999876
 11
-246.9594449999995
 21
567.31966499999976
  0
ARC
  8
_0-3_躯体と製品
  6
CONTINUOUS
 62
    3
 10
-249.90177500000027
 20
565.47938499999987
 40
3.4410999999999992
 50
91.254756000003511
 51
147.67012200000244
  0
LINE
  8
_0-3_躯体と製品
  6
CONTINUOUS
 62
    3
 10
-252.80944500000032
 20
577.11966499999971
 11
-252.80944500000032
 21
588.5196649999998
  0
LINE
  8
_0-3_躯体と製品
  6
CONTINUOUS
 62
    3
 10
-246.9594449999995
 20
577.11966499999971
 11
-246.9594449999995
 21
588.5196649999998
  0
LINE
  8
_0-3_躯体と製品
  6
CONTINUOUS
 62
    3
 10
-248.45944500000041
 20
590.11966500000085
 11
-246.9594449999995
 21
588.5196649999998
  0
ARC
  8
_0-3_躯体と製品
  6
CONTINUOUS
 62
    3
 10
-249.90177500000027
 20
586.67938499999877
 40
3.4410999999999992
 50
91.254756000003511
 51
147.67012200000244
  0
ARC
  8
_0-3_躯体と製品
  6
CONTINUOUS
 62
    3
 10
-239.90485499999932
 20
567.94512499999973
 40
7.2313599999999996
 50
97.187178999994885
 51
144.7403340000044
  0
LINE
  8
_0-3_躯体と製品
  6
CONTINUOUS
 62
    3
 10
-246.45953499999951
 20
572.11966499999971
 11
-246.45953499999951
 21
577.11966499999971
  0
LINE
  8
_0-3_躯体と製品
  6
CONTINUOUS
 62
    3
 10
-244.80954500000053
 20
592.51966500000071
 11
-244.80954500000053
 21
590.11966500000085
  0
LINE
  8
_0-3_躯体と製品
  6
CONTINUOUS
 62
    3
 10
-248.45954500000016
 20
637.11966499999971
 11
-273.15954500000043
 21
637.11966499999971
  0
ARC
  8
_0-3_躯体と製品
  6
CONTINUOUS
 62
    3
 10
-260.80954499999916
 20
657.9196649999999
 40
20.800000000000001
 50
247.38013500000261
 51
292.61986499999728
  0
LINE
  8
_0-3_躯体と製品
  6
CONTINUOUS
 62
    3
 10
-248.45954500000016
 20
670.34673499999985
 11
-273.15954500000043
 21
670.34673499999985
  0
ARC
  8
_0-3_躯体と製品
  6
CONTINUOUS
 62
    3
 10
-260.80954499999916
 20
649.5467349999999
 40
20.800000000000001
 50
67.380135000002696
 51
112.61986499999719
  0
LINE
  8
_0-3_躯体と製品
  6
CONTINUOUS
 62
    3
 10
-274.81139499999927
 20
657.34673499999985
 11
-246.80768500000113
 21
657.34673499999985
  0
LINE
  8
_0-3_躯体と製品
  6
PLINE2
 62
    3
 10
-316.60954499999843
 20
653.40545499999985
 11
-235.80954499999916
 21
653.31966499999976
  0
LINE
  8
_0-3_躯体と製品
  6
CONTINUOUS
 62
    3
 10
-316.60954499999843
 20
650.11966499999971
 11
-235.80954499999916
 21
650.11966499999971
  0
LINE
  8
_0-3_躯体と製品
  6
CONTINUOUS
 62
    3
 10
-316.60954499999843
 20
659.31966499999976
 11
-235.80954499999916
 21
659.31966499999976
  0
LINE
  8
_0-3_躯体と製品
  6
CONTINUOUS
 62
    3
 10
-268.80954499999916
 20
657.34673499999985
 11
-268.80954499999916
 21
668.74673500000085
  0
LINE
  8
_0-3_躯体と製品
  6
CONTINUOUS
 62
    3
 10
-274.65954499999953
 20
668.74673500000085
 11
-274.65954499999953
 21
657.34673499999985
  0
LINE
  8
_0-3_躯体と製品
  6
CONTINUOUS
 62
    3
 10
-317.60954500000025
 20
654.81966499999976
 11
-317.60954500000025
 21
680.11966500000085
  0
LINE
  8
_0-3_躯体と製品
  6
CONTINUOUS
 62
    3
 10
-316.60954499999843
 20
653.31966499999976
 11
-316.60954499999843
 21
659.31966499999976
  0
ARC
  8
_0-3_躯体と製品
  6
CONTINUOUS
 62
    3
 10
-316.10954499999934
 20
654.81966499999976
 40
1.5
 50
180
 51
250.52899999999863
  0
ARC
  8
_0-3_躯体と製品
  6
CONTINUOUS
 62
    3
 10
-316.60954499999843
 20
654.31966499999976
 40
4.2000000000000002
 50
180
 51
270
  0
ARC
  8
_0-3_躯体と製品
  6
CONTINUOUS
 62
    3
 10
-271.71721500000149
 20
640.55994499999883
 40
3.4410999999999992
 50
271.25475600000351
 51
327.67012200000238
  0
LINE
  8
_0-3_躯体と製品
  6
CONTINUOUS
 62
    3
 10
-268.80954499999916
 20
650.11966499999971
 11
-268.80954499999916
 21
638.71966499999985
  0
LINE
  8
_0-3_躯体と製品
  6
CONTINUOUS
 62
    3
 10
-274.65954499999953
 20
638.71966499999985
 11
-274.65954499999953
 21
650.11966499999971
  0
LINE
  8
_0-3_躯体と製品
  6
CONTINUOUS
 62
    3
 10
-273.15954500000043
 20
637.11966499999971
 11
-274.65954499999953
 21
638.71966499999985
  0
LINE
  8
_0-3_躯体と製品
  6
CONTINUOUS
 62
    3
 10
-274.81139499999927
 20
653.34620499999983
 11
-274.81139499999927
 21
657.34673499999985
  0
LINE
  8
_0-3_躯体と製品
  6
CONTINUOUS
 62
    3
 10
-277.85954499999843
 20
647.51966500000071
 11
-276.65954500000043
 21
647.51966500000071
  0
LINE
  8
_0-3_躯体と製品
  6
CONTINUOUS
 62
    3
 10
-316.46524499999941
 20
666.11976499999969
 11
-317.60964499999909
 21
666.11976499999969
  0
LINE
  8
_0-3_躯体と製品
  6
CONTINUOUS
 62
    3
 10
-316.46524499999941
 20
674.11966499999971
 11
-317.60964499999909
 21
674.11966499999971
  0
LINE
  8
_0-3_躯体と製品
  6
CONTINUOUS
 62
    3
 10
-320.80954499999916
 20
680.11966500000085
 11
-317.60954500000025
 21
680.11966500000085
  0
ARC
  8
_0-3_躯体と製品
  6
CONTINUOUS
 62
    3
 10
-325.34294499999942
 20
670.11966500000085
 40
10.66659999999999
 50
343.80899999999667
 51
16.191300000001348
  0
ARC
  8
_0-3_躯体と製品
  6
CONTINUOUS
 62
    3
 10
-316.46524499999941
 20
667.54196499999989
 40
1.42221
 50
270
 51
343.80899999999667
  0
ARC
  8
_0-3_躯体と製品
  6
CONTINUOUS
 62
    3
 10
-316.46524499999941
 20
672.69746499999883
 40
1.42221
 50
16.191300000001309
 51
90.000000000000014
  0
ARC
  8
_0-3_躯体と製品
  6
CONTINUOUS
 62
    3
 10
-271.71721500000149
 20
666.9064649999998
 40
3.4410999999999992
 50
32.329877999997528
 51
88.745243999996518
  0
LINE
  8
_0-3_躯体と製品
  6
CONTINUOUS
 62
    3
 10
-273.15954500000043
 20
670.34673499999985
 11
-274.65954499999953
 21
668.74673500000085
  0
LINE
  8
_0-3_躯体と製品
  6
CONTINUOUS
 62
    3
 10
-252.80954499999916
 20
657.34673499999985
 11
-252.80954499999916
 21
668.74673500000085
  0
LINE
  8
_0-3_躯体と製品
  6
CONTINUOUS
 62
    3
 10
-246.95954499999925
 20
657.34673499999985
 11
-246.95954499999925
 21
668.74673500000085
  0
LINE
  8
_0-3_躯体と製品
  6
CONTINUOUS
 62
    3
 10
-252.80954499999916
 20
650.11966499999971
 11
-252.80954499999916
 21
638.71966499999985
  0
LINE
  8
_0-3_躯体と製品
  6
CONTINUOUS
 62
    3
 10
-246.95954499999925
 20
650.11966499999971
 11
-246.95954499999925
 21
638.71966499999985
  0
LINE
  8
_0-3_躯体と製品
  6
CONTINUOUS
 62
    3
 10
-248.45954500000016
 20
637.11966499999971
 11
-246.95954499999925
 21
638.71966499999985
  0
ARC
  8
_0-3_躯体と製品
  6
CONTINUOUS
 62
    3
 10
-249.90186499999936
 20
640.55994499999883
 40
3.4410999999999992
 50
212.32987799999739
 51
268.74524399999638
  0
LINE
  8
_0-3_躯体と製品
  6
CONTINUOUS
 62
    3
 10
-246.80768500000113
 20
657.34673499999985
 11
-246.80768500000113
 21
653.34620499999983
  0
LINE
  8
_0-3_躯体と製品
  6
CONTINUOUS
 62
    3
 10
-235.80954499999916
 20
659.31966499999976
 11
-235.80954499999916
 21
650.11966499999971
  0
LINE
  8
_0-3_躯体と製品
  6
CONTINUOUS
 62
    3
 10
-248.45954500000016
 20
670.34673499999985
 11
-246.95954499999925
 21
668.74673500000085
  0
ARC
  8
_0-3_躯体と製品
  6
CONTINUOUS
 62
    3
 10
-249.90186499999936
 20
666.9064649999998
 40
3.4410999999999992
 50
91.254756000003511
 51
147.67012200000244
  0
LINE
  8
_0-3_躯体と製品
  6
CONTINUOUS
 62
    3
 10
-81.309544999999162
 20
666.00737499999968
 11
-81.309544999999162
 21
587.11966499999971
  0
LINE
  8
_0-3_躯体と製品
  6
CONTINUOUS
 62
    3
 10
-65.309544999999162
 20
666.00737499999968
 11
-65.309544999999162
 21
587.11966499999971
  0
ARC
  8
_0-3_躯体と製品
  6
CONTINUOUS
 62
    3
 10
-113.61285499999849
 20
568.11414500000069
 40
7.0514299999999999
 50
34.613929999999108
 51
83.458556999994187
  0
ARC
  8
_0-3_躯体と製品
  6
CONTINUOUS
 62
    3
 10
-84.217215000001488
 20
562.3599449999997
 40
3.4410999999999992
 50
271.25475600000351
 51
327.67012200000238
  0
LINE
  8
_0-3_躯体と製品
  6
CONTINUOUS
 62
    3
 10
-60.959545000000162
 20
558.9196649999999
 11
-59.459544999999252
 21
560.5196649999998
  0
LINE
  8
_0-3_躯体と製品
  6
CONTINUOUS
 62
    3
 10
-85.659545000000435
 20
558.9196649999999
 11
-87.159544999999525
 21
560.5196649999998
  0
ARC
  8
_0-3_躯体と製品
  6
CONTINUOUS
 62
    3
 10
-62.401875000000473
 20
562.3599449999997
 40
3.4410999999999992
 50
212.32987799999739
 51
268.74524399999638
  0
ARC
  8
_0-3_躯体と製品
  6
CONTINUOUS
 62
    3
 10
-73.309544999999162
 20
579.71966499999985
 40
20.800000000000001
 50
247.38013500000261
 51
292.61986499999728
  0
LINE
  8
_0-3_躯体と製品
  6
CONTINUOUS
 62
    3
 10
-60.959545000000162
 20
558.9196649999999
 11
-85.659545000000435
 21
558.9196649999999
  0
LINE
  8
_0-3_躯体と製品
  6
CONTINUOUS
 62
    3
 10
-60.959545000000162
 20
536.31766499999981
 11
-85.659545000000435
 21
536.31766499999981
  0
ARC
  8
_0-3_躯体と製品
  6
CONTINUOUS
 62
    3
 10
-73.309544999999162
 20
515.51766499999871
 40
20.800000000000001
 50
67.380135000002696
 51
112.61986499999719
  0
LINE
  8
_0-3_躯体と製品
  6
CONTINUOUS
 62
    3
 10
-87.659544999999525
 20
523.31766500000072
 11
-58.959545000000162
 21
523.31766500000072
  0
LINE
  8
_0-3_躯体と製品
  6
CONTINUOUS
 62
    3
 10
-58.959545000000162
 20
518.31766500000072
 11
-87.659544999999525
 21
518.31766500000072
  0
ARC
  8
_0-3_躯体と製品
  6
CONTINUOUS
 62
    3
 10
-73.309544999999162
 20
497.51766499999985
 40
20.800000000000001
 50
67.380135000002696
 51
112.61986499999719
  0
ARC
  8
_0-3_躯体と製品
  6
CONTINUOUS
 62
    3
 10
-84.217215000001488
 20
532.87738499999978
 40
3.4410999999999992
 50
32.329877999997528
 51
88.745243999996518
  0
LINE
  8
_0-3_躯体と製品
  6
CONTINUOUS
 62
    3
 10
-81.309544999999162
 20
523.31766500000072
 11
-81.309544999999162
 21
534.7176649999999
  0
LINE
  8
_0-3_躯体と製品
  6
CONTINUOUS
 62
    3
 10
-87.159544999999525
 20
534.7176649999999
 11
-87.159544999999525
 21
523.31766500000072
  0
LINE
  8
_0-3_躯体と製品
  6
CONTINUOUS
 62
    3
 10
-85.659545000000435
 20
536.31766499999981
 11
-87.159544999999525
 21
534.7176649999999
  0
LINE
  8
_0-3_躯体と製品
  6
CONTINUOUS
 62
    3
 10
-87.659544999999525
 20
518.31766500000072
 11
-87.659544999999525
 21
523.31766500000072
  0
ARC
  8
_0-3_躯体と製品
  6
CONTINUOUS
 62
    3
 10
-84.217215000001488
 20
514.87738500000069
 40
3.4410999999999992
 50
32.329877999997528
 51
88.745243999996518
  0
LINE
  8
_0-3_躯体と製品
  6
CONTINUOUS
 62
    3
 10
-85.659545000000435
 20
518.31766500000072
 11
-87.159544999999525
 21
516.71766499999876
  0
LINE
  8
_0-3_躯体と製品
  6
CONTINUOUS
 62
    3
 10
-69.988694999999097
 20
523.31766500000072
 11
-71.328694999999243
 21
518.31766500000072
  0
LINE
  8
_0-3_躯体と製品
  6
CONTINUOUS
 62
    3
 10
-71.541695000000345
 20
523.31766500000072
 11
-72.881694999998217
 21
518.31766500000072
  0
LINE
  8
_0-3_躯体と製品
  6
CONTINUOUS
 62
    3
 10
-81.309544999999162
 20
558.9196649999999
 11
-81.309544999999162
 21
536.31766499999981
  0
LINE
  8
_0-3_躯体と製品
  6
CONTINUOUS
 62
    3
 10
-65.309544999999162
 20
523.31766500000072
 11
-65.309544999999162
 21
534.7176649999999
  0
LINE
  8
_0-3_躯体と製品
  6
CONTINUOUS
 62
    3
 10
-59.459544999999252
 20
523.31766500000072
 11
-59.459544999999252
 21
534.7176649999999
  0
LINE
  8
_0-3_躯体と製品
  6
CONTINUOUS
 62
    3
 10
-60.959545000000162
 20
536.31766499999981
 11
-59.459544999999252
 21
534.7176649999999
  0
ARC
  8
_0-3_躯体と製品
  6
CONTINUOUS
 62
    3
 10
-62.401875000000473
 20
532.87738499999978
 40
3.4410999999999992
 50
91.254756000003511
 51
147.67012200000244
  0
LINE
  8
_0-3_躯体と製品
  6
CONTINUOUS
 62
    3
 10
-58.959545000000162
 20
523.31766500000072
 11
-58.959545000000162
 21
518.31766500000072
  0
LINE
  8
_0-3_躯体と製品
  6
CONTINUOUS
 62
    3
 10
-60.959545000000162
 20
518.31766500000072
 11
-59.459544999999252
 21
516.71766499999876
  0
ARC
  8
_0-3_躯体と製品
  6
CONTINUOUS
 62
    3
 10
-62.401875000000473
 20
514.87738500000069
 40
3.4410999999999992
 50
91.254756000003511
 51
147.67012200000244
  0
LINE
  8
_0-3_躯体と製品
  6
CONTINUOUS
 62
    3
 10
-65.309544999999162
 20
558.9196649999999
 11
-65.309544999999162
 21
536.31766499999981
  0
LINE
  8
_0-3_躯体と製品
  6
CONTINUOUS
 62
    3
 10
-85.659545000000435
 20
587.11966499999971
 11
-60.959545000000162
 21
587.11966499999971
  0
ARC
  8
_0-3_躯体と製品
  6
CONTINUOUS
 62
    3
 10
-73.309544999999162
 20
566.31966499999976
 40
20.800000000000001
 50
67.380135000002696
 51
112.61986499999719
  0
ARC
  8
_0-3_躯体と製品
  6
CONTINUOUS
 62
    3
 10
-73.309544999999162
 20
597.9196649999999
 40
20.800000000000001
 50
247.38013500000261
 51
292.61986499999728
  0
ARC
  8
_0-3_躯体と製品
  6
CONTINUOUS
 62
    3
 10
-73.309544999999162
 20
548.11966499999971
 40
20.800000000000001
 50
67.380135000002696
 51
112.61986499999719
  0
LINE
  8
_0-3_躯体と製品
  6
CONTINUOUS
 62
    3
 10
-87.659544999999525
 20
577.11966499999971
 11
-58.959545000000162
 21
577.11966499999971
  0
ARC
  8
_0-3_躯体と製品
  6
CONTINUOUS
 62
    3
 10
-84.217215000001488
 20
583.67938499999968
 40
3.4410999999999992
 50
32.329877999997528
 51
88.745243999996518
  0
LINE
  8
_0-3_躯体と製品
  6
CONTINUOUS
 62
    3
 10
-85.659545000000435
 20
587.11966499999971
 11
-87.159544999999525
 21
585.51966500000071
  0
ARC
  8
_0-3_躯体と製品
  6
CONTINUOUS
 62
    3
 10
-84.217215000001488
 20
580.55994499999974
 40
3.4410999999999992
 50
271.25475600000351
 51
327.67012200000238
  0
LINE
  8
_0-3_躯体と製品
  6
CONTINUOUS
 62
    3
 10
-81.309544999999162
 20
585.51966500000071
 11
-81.309544999999162
 21
578.71966499999985
  0
LINE
  8
_0-3_躯体と製品
  6
CONTINUOUS
 62
    3
 10
-87.159544999999525
 20
585.51966500000071
 11
-87.159544999999525
 21
578.71966499999985
  0
LINE
  8
_0-3_躯体と製品
  6
CONTINUOUS
 62
    3
 10
-85.659545000000435
 20
577.11966499999971
 11
-87.159544999999525
 21
578.71966499999985
  0
ARC
  8
_0-3_躯体と製品
  6
CONTINUOUS
 62
    3
 10
-84.217215000001488
 20
565.47938499999987
 40
3.4410999999999992
 50
32.329877999997528
 51
88.745243999996518
  0
LINE
  8
_0-3_躯体と製品
  6
CONTINUOUS
 62
    3
 10
-85.659545000000435
 20
568.91966499999876
 11
-87.159544999999525
 21
567.31966499999976
  0
LINE
  8
_0-3_躯体と製品
  6
CONTINUOUS
 62
    3
 10
-81.309544999999162
 20
567.31966499999976
 11
-81.309544999999162
 21
560.5196649999998
  0
LINE
  8
_0-3_躯体と製品
  6
CONTINUOUS
 62
    3
 10
-87.159544999999525
 20
567.31966499999976
 11
-87.159544999999525
 21
560.5196649999998
  0
LINE
  8
_0-3_躯体と製品
  6
CONTINUOUS
 62
    3
 10
-74.191545000001497
 20
572.11966499999971
 11
-73.309544999999162
 21
577.11966499999971
  0
LINE
  8
_0-3_躯体と製品
  6
CONTINUOUS
 62
    3
 10
-73.175544999999147
 20
572.11966499999971
 11
-72.294544999999289
 21
577.11966499999971
  0
LINE
  8
_0-3_躯体と製品
  6
CONTINUOUS
 62
    3
 10
-87.659544999999525
 20
572.11966499999971
 11
-87.659544999999525
 21
577.11966499999971
  0
LINE
  8
_0-3_躯体と製品
  6
CONTINUOUS
 62
    3
 10
-60.959545000000162
 20
587.11966499999971
 11
-59.459544999999252
 21
585.51966500000071
  0
ARC
  8
_0-3_躯体と製品
  6
CONTINUOUS
 62
    3
 10
-62.401875000000473
 20
583.67938499999968
 40
3.4410999999999992
 50
91.254756000003511
 51
147.67012200000244
  0
LINE
  8
_0-3_躯体と製品
  6
CONTINUOUS
 62
    3
 10
-65.309544999999162
 20
585.51966500000071
 11
-65.309544999999162
 21
578.71966499999985
  0
LINE
  8
_0-3_躯体と製品
  6
CONTINUOUS
 62
    3
 10
-59.459544999999252
 20
585.51966500000071
 11
-59.459544999999252
 21
578.71966499999985
  0
LINE
  8
_0-3_躯体と製品
  6
CONTINUOUS
 62
    3
 10
-60.959545000000162
 20
577.11966499999971
 11
-59.459544999999252
 21
578.71966499999985
  0
ARC
  8
_0-3_躯体と製品
  6
CONTINUOUS
 62
    3
 10
-62.401875000000473
 20
580.55994499999974
 40
3.4410999999999992
 50
212.32987799999739
 51
268.74524399999638
  0
LINE
  8
_0-3_躯体と製品
  6
CONTINUOUS
 62
    3
 10
-60.959545000000162
 20
568.91966499999876
 11
-59.459544999999252
 21
567.31966499999976
  0
ARC
  8
_0-3_躯体と製品
  6
CONTINUOUS
 62
    3
 10
-62.401875000000473
 20
565.47938499999987
 40
3.4410999999999992
 50
91.254756000003511
 51
147.67012200000244
  0
LINE
  8
_0-3_躯体と製品
  6
CONTINUOUS
 62
    3
 10
-65.309544999999162
 20
567.31966499999976
 11
-65.309544999999162
 21
560.5196649999998
  0
LINE
  8
_0-3_躯体と製品
  6
CONTINUOUS
 62
    3
 10
-59.459544999999252
 20
567.31966499999976
 11
-59.459544999999252
 21
560.5196649999998
  0
LINE
  8
_0-3_躯体と製品
  6
CONTINUOUS
 62
    3
 10
-37.809544999999162
 20
572.11966499999971
 11
-37.809544999999162
 21
568.91966499999876
  0
LINE
  8
_0-3_躯体と製品
  6
CONTINUOUS
 62
    3
 10
-58.959545000000162
 20
572.11966499999971
 11
-58.959545000000162
 21
577.11966499999971
  0
ARC
  8
_0-3_躯体と製品
  6
CONTINUOUS
 62
    4
 10
-100.6131649999993
 20
702.50876499999981
 40
5.000659999999999
 50
180
 51
270
  0
ARC
  8
_0-3_躯体と製品
  6
CONTINUOUS
 62
    3
 10
-105.61382500000036
 20
708.84141499999964
 40
1.5002
 50
180
 51
270
  0
LINE
  8
_0-3_躯体と製品
  6
CONTINUOUS
 62
    3
 10
-60.959545000000162
 20
666.00737499999968
 11
-85.659545000000435
 21
666.00737499999968
  0
ARC
  8
_0-3_躯体と製品
  6
CONTINUOUS
 62
    3
 10
-73.309544999999162
 20
686.80737499999987
 40
20.800000000000001
 50
247.38013500000261
 51
292.61986499999728
  0
LINE
  8
_0-3_躯体と製品
  6
CONTINUOUS
 62
    3
 10
-87.311394999999266
 20
679.00737499999968
 11
-59.307695000000422
 21
679.00737499999968
  0
LINE
  8
_0-3_躯体と製品
  6
CONTINUOUS
 62
    3
 10
-59.307695000000422
 20
683.00790499999971
 11
-87.311394999999266
 21
683.00790499999971
  0
ARC
  8
_0-3_躯体と製品
  6
CONTINUOUS
 62
    3
 10
-73.309544999999162
 20
703.80790499999989
 40
20.800000000000001
 50
247.38013500000261
 51
292.61986499999728
  0
LINE
  8
_0-3_躯体と製品
  6
CONTINUOUS
 62
    4
 10
-98.312854999999217
 20
699.80841499999883
 11
-48.306234999999106
 21
699.80841499999883
  0
LINE
  8
_0-3_躯体と製品
  6
CONTINUOUS
 62
    4
 10
-83.260864999999285
 20
715.12218499999994
 11
-63.258215000001201
 21
715.12218499999994
  0
LINE
  8
_0-3_躯体と製品
  6
CONTINUOUS
 62
    4
 10
-100.6131649999993
 20
697.50810499999989
 11
-46.005935000000136
 21
697.50810499999989
  0
LINE
  8
_0-3_躯体と製品
  6
CONTINUOUS
 62
    4
 10
-98.812924999999268
 20
696.00790499999971
 11
-47.80616499999951
 21
696.00790499999971
  0
ARC
  8
_0-3_躯体と製品
  6
CONTINUOUS
 62
    3
 10
-84.217215000001488
 20
669.44765499999971
 40
3.4410999999999992
 50
271.25475600000351
 51
327.67012200000238
  0
LINE
  8
_0-3_躯体と製品
  6
CONTINUOUS
 62
    3
 10
-81.309544999999162
 20
679.00737499999968
 11
-81.309544999999162
 21
667.60737499999982
  0
LINE
  8
_0-3_躯体と製品
  6
CONTINUOUS
 62
    3
 10
-87.159544999999525
 20
667.60737499999982
 11
-87.159544999999525
 21
679.00737499999968
  0
LINE
  8
_0-3_躯体と製品
  6
CONTINUOUS
 62
    3
 10
-85.659545000000435
 20
666.00737499999968
 11
-87.159544999999525
 21
667.60737499999982
  0
LINE
  8
_0-3_躯体と製品
  6
CONTINUOUS
 62
    3
 10
-87.311394999999266
 20
683.00790499999971
 11
-87.311394999999266
 21
679.00737499999968
  0
ARC
  8
_0-3_躯体と製品
  6
CONTINUOUS
 62
    3
 10
-84.217215000001488
 20
686.44818499999974
 40
3.4410999999999992
 50
271.25475600000351
 51
327.67012200000238
  0
LINE
  8
_0-3_躯体と製品
  6
CONTINUOUS
 62
    3
 10
-81.309544999999162
 20
696.00790499999971
 11
-81.309544999999162
 21
684.60790499999985
  0
LINE
  8
_0-3_躯体と製品
  6
CONTINUOUS
 62
    3
 10
-87.159544999999525
 20
684.60790499999985
 11
-87.159544999999525
 21
696.00790499999971
  0
LINE
  8
_0-3_躯体と製品
  6
CONTINUOUS
 62
    3
 10
-85.659545000000435
 20
683.00790499999971
 11
-87.159544999999525
 21
684.60790499999985
  0
LINE
  8
_0-3_躯体と製品
  6
CONTINUOUS
 62
    4
 10
-83.260864999999285
 20
715.12218499999994
 11
-93.2621850000005
 21
715.12218499999994
  0
LINE
  8
_0-3_躯体と製品
  6
CONTINUOUS
 62
    4
 10
-83.260864999999285
 20
717.12245499999995
 11
-91.261925000001156
 21
717.12245499999995
  0
LINE
  8
_0-3_躯体と製品
  6
CONTINUOUS
 62
    4
 10
-83.260864999999285
 20
715.12218499999994
 11
-83.260864999999285
 21
717.12245499999995
  0
ARC
  8
_0-3_躯体と製品
  6
CONTINUOUS
 62
    4
 10
-98.312854999999217
 20
704.80907499999989
 40
5.000659999999999
 50
180
 51
270
  0
ARC
  8
_0-3_躯体と製品
  6
CONTINUOUS
 62
    4
 10
-98.812924999999268
 20
697.50810499999989
 40
1.5002
 50
180
 51
270
  0
LINE
  8
_0-3_躯体と製品
  6
CONTINUOUS
 62
    3
 10
-73.307695000000422
 20
683.00790499999971
 11
-74.379695000000083
 21
679.0079049999988
  0
LINE
  8
_0-3_躯体と製品
  6
CONTINUOUS
 62
    3
 10
-71.754694999999174
 20
683.00790499999971
 11
-72.826695000001109
 21
679.0079049999988
  0
LINE
  8
_0-3_躯体と製品
  6
CONTINUOUS
 62
    3
 10
-65.309544999999162
 20
679.00737499999968
 11
-65.309544999999162
 21
667.60737499999982
  0
LINE
  8
_0-3_躯体と製品
  6
CONTINUOUS
 62
    3
 10
-59.459544999999252
 20
679.00737499999968
 11
-59.459544999999252
 21
667.60737499999982
  0
LINE
  8
_0-3_躯体と製品
  6
CONTINUOUS
 62
    3
 10
-60.959545000000162
 20
666.00737499999968
 11
-59.459544999999252
 21
667.60737499999982
  0
ARC
  8
_0-3_躯体と製品
  6
CONTINUOUS
 62
    3
 10
-62.401875000000473
 20
669.44765499999971
 40
3.4410999999999992
 50
212.32987799999739
 51
268.74524399999638
  0
LINE
  8
_0-3_躯体と製品
  6
CONTINUOUS
 62
    3
 10
-59.307695000000422
 20
679.00737499999968
 11
-59.307695000000422
 21
683.00790499999971
  0
LINE
  8
_0-3_躯体と製品
  6
CONTINUOUS
 62
    3
 10
-65.309544999999162
 20
696.00790499999971
 11
-65.309544999999162
 21
684.60790499999985
  0
LINE
  8
_0-3_躯体と製品
  6
CONTINUOUS
 62
    3
 10
-59.459544999999252
 20
696.00790499999971
 11
-59.459544999999252
 21
684.60790499999985
  0
LINE
  8
_0-3_躯体と製品
  6
CONTINUOUS
 62
    3
 10
-60.959545000000162
 20
683.00790499999971
 11
-59.459544999999252
 21
684.60790499999985
  0
ARC
  8
_0-3_躯体と製品
  6
CONTINUOUS
 62
    3
 10
-62.401875000000473
 20
686.44818499999974
 40
3.4410999999999992
 50
212.32987799999739
 51
268.74524399999638
  0
LINE
  8
_0-3_躯体と製品
  6
CONTINUOUS
 62
    4
 10
-53.256894999999531
 20
715.12218499999994
 11
-63.258215000001201
 21
715.12218499999994
  0
LINE
  8
_0-3_躯体と製品
  6
CONTINUOUS
 62
    4
 10
-55.257154999999329
 20
717.12245499999995
 11
-63.258215000001201
 21
717.12245499999995
  0
LINE
  8
_0-3_躯体と製品
  6
CONTINUOUS
 62
    4
 10
-63.258215000001201
 20
717.12245499999995
 11
-63.258215000001201
 21
715.12218499999994
  0
ARC
  8
_0-3_躯体と製品
  6
CONTINUOUS
 62
    4
 10
-48.306234999999106
 20
704.80907499999989
 40
5.000659999999999
 50
270
 51
0
  0
ARC
  8
_0-3_躯体と製品
  6
CONTINUOUS
 62
    3
 10
-41.005265000001145
 20
708.84141499999964
 40
1.5002
 50
270
 51
0
  0
ARC
  8
_0-3_躯体と製品
  6
CONTINUOUS
 62
    4
 10
-46.005935000000136
 20
702.50876499999981
 40
5.000659999999999
 50
270
 51
0
  0
ARC
  8
_0-3_躯体と製品
  6
CONTINUOUS
 62
    4
 10
-47.80616499999951
 20
697.50810499999989
 40
1.5002
 50
270
 51
0
  0
LINE
  8
_0-3_躯体と製品
  6
CONTINUOUS
 62
    7
 10
-191.80954500000144
 20
767.11966499999994
 11
-107.10954500000025
 21
767.11966499999994
  0
LINE
  8
_0-3_躯体と製品
  6
CONTINUOUS
 62
    4
 10
-277.67229499999939
 20
790.11966500000085
 11
-240.80954499999916
 21
826.98204499999997
  0
LINE
  8
_0-3_躯体と製品
  6
CONTINUOUS
 62
    4
 10
-240.80954499999916
 20
830.11966499999994
 11
-240.80954499999916
 21
812.11966499999994
  0
LINE
  8
_0-3_躯体と製品
  6
CONTINUOUS
 62
    3
 10
-320.80954499999916
 20
790.11966500000085
 11
-216.80954500000144
 21
790.11966500000085
  0
LINE
  8
_0-3_躯体と製品
  6
CONTINUOUS
 62
    3
 10
-316.60954499999843
 20
786.91966499999967
 11
-216.80954500000144
 21
786.91966499999967
  0
LINE
  8
_0-3_躯体と製品
  6
CONTINUOUS
 62
    3
 10
-248.80954499999916
 20
747.71966500000076
 11
-272.80954500000053
 21
747.71966500000076
  0
LINE
  8
_0-3_躯体と製品
  6
CONTINUOUS
 62
    3
 10
-313.60954499999934
 20
757.91966499999967
 11
-214.80954500000053
 21
757.91966499999967
  0
LINE
  8
_0-3_躯体と製品
  6
CONTINUOUS
 62
    3
 10
-307.80954499999916
 20
755.91966499999967
 11
-214.80954500000053
 21
755.91966499999967
  0
LINE
  8
_0-3_躯体と製品
  6
CONTINUOUS
 62
    3
 10
-317.60954500000025
 20
785.91966499999967
 11
-317.60954500000025
 21
759.71966499999985
  0
ARC
  8
_0-3_躯体と製品
  6
CONTINUOUS
 62
    3
 10
-325.34294499999942
 20
772.91966500000058
 40
10.66659999999999
 50
343.80899999999667
 51
16.191300000001348
  0
LINE
  8
_0-3_躯体と製品
  6
CONTINUOUS
 62
    3
 10
-320.80954499999916
 20
759.71966499999985
 11
-317.60954500000025
 21
759.71966499999985
  0
LINE
  8
_0-3_躯体と製品
  6
CONTINUOUS
 62
    3
 10
-316.60954499999843
 20
768.92706499999963
 11
-316.60954499999843
 21
760.91966499999967
  0
LINE
  8
_0-3_躯体と製品
  6
CONTINUOUS
 62
    3
 10
-316.46524499999941
 20
768.91976499999987
 11
-317.60964499999909
 21
768.91976499999987
  0
ARC
  8
_0-3_躯体と製品
  6
CONTINUOUS
 62
    3
 10
-313.60954499999934
 20
760.91966499999967
 40
3
 50
180
 51
270
  0
ARC
  8
_0-3_躯体と製品
  6
CONTINUOUS
 62
    3
 10
-307.80954499999916
 20
758.91966499999876
 40
3
 50
199.47099999999921
 51
270
  0
ARC
  8
_0-3_躯体と製品
  6
CONTINUOUS
 62
    3
 10
-316.46524499999941
 20
770.34196499999985
 40
1.42221
 50
270
 51
343.80899999999667
  0
LINE
  8
_0-3_躯体と製品
  6
CONTINUOUS
 62
    3
 10
-272.80954500000053
 20
747.71966500000076
 11
-272.80954500000053
 21
755.91966499999967
  0
LINE
  8
_0-3_躯体と製品
  6
CONTINUOUS
 62
    3
 10
-260.80954499999916
 20
747.71966500000076
 11
-260.80954499999916
 21
755.91966499999967
  0
LINE
  8
_0-3_躯体と製品
  6
CONTINUOUS
 62
    3
 10
-316.60954499999843
 20
790.11966500000085
 11
-316.60954499999843
 21
776.91966499999967
  0
LINE
  8
_0-3_躯体と製品
  6
CONTINUOUS
 62
    3
 10
-320.80954499999916
 20
785.91966499999967
 11
-317.60954500000025
 21
785.91966499999967
  0
LINE
  8
_0-3_躯体と製品
  6
CONTINUOUS
 62
    3
 10
-316.46524499999941
 20
776.91966499999967
 11
-317.60964499999909
 21
776.91966499999967
  0
ARC
  8
_0-3_躯体と製品
  6
CONTINUOUS
 62
    3
 10
-316.60954499999843
 20
785.91966499999967
 40
4.2000000000000002
 50
90
 51
180
  0
ARC
  8
_0-3_躯体と製品
  6
CONTINUOUS
 62
    3
 10
-316.60954499999843
 20
785.91966499999967
 40
1
 50
90
 51
180
  0
ARC
  8
_0-3_躯体と製品
  6
CONTINUOUS
 62
    3
 10
-316.46524499999941
 20
775.49746499999969
 40
1.42221
 50
16.191300000001309
 51
90.000000000000014
  0
LINE
  8
_0-3_躯体と製品
  6
CONTINUOUS
 62
    3
 10
-218.30954499999916
 20
773.67866499999968
 11
-218.30954499999916
 21
769.91966499999967
  0
LINE
  8
_0-3_躯体と製品
  6
CONTINUOUS
 62
    3
 10
-211.80954500000144
 20
782.91966499999967
 11
-211.80954500000144
 21
758.91966499999876
  0
LINE
  8
_0-3_躯体と製品
  6
CONTINUOUS
 62
    3
 10
-231.30954499999916
 20
773.67866499999968
 11
-231.30954499999916
 21
769.91966499999967
  0
LINE
  8
_0-3_躯体と製品
  6
CONTINUOUS
 62
    7
 10
-191.80954500000144
 20
812.11966499999994
 11
-191.80954500000144
 21
767.11966499999994
  0
ARC
  8
_0-3_躯体と製品
  6
CONTINUOUS
 62
    3
 10
-219.80954500000053
 20
769.91966499999967
 40
4
 50
292.02400000000569
 51
67.975699999996223
  0
ARC
  8
_0-3_躯体と製品
  6
CONTINUOUS
 62
    3
 10
-229.80954500000053
 20
769.91966499999967
 40
4
 50
112.02400000000581
 51
247.9759999999942
  0
CIRCLE
  8
_0-3_躯体と製品
  6
CONTINUOUS
 62
    3
 10
-224.80954500000053
 20
769.91966499999967
 40
6.5
  0
LINE
  8
_0-3_躯体と製品
  6
CONTINUOUS
 62
    3
 10
-224.80954500000053
 20
762.40796500000101
 11
-218.30954499999916
 21
766.16066499999874
  0
LINE
  8
_0-3_躯体と製品
  6
CONTINUOUS
 62
    3
 10
-248.80954499999916
 20
747.71966500000076
 11
-248.80954499999916
 21
755.91966499999967
  0
LINE
  8
_0-3_躯体と製品
  6
CONTINUOUS
 62
    3
 10
-231.30954499999916
 20
766.16066499999874
 11
-231.30954499999916
 21
769.91966499999967
  0
LINE
  8
_0-3_躯体と製品
  6
CONTINUOUS
 62
    3
 10
-231.30944499999941
 20
766.16056499999991
 11
-224.80944500000032
 21
762.4078649999999
  0
LINE
  8
_0-3_躯体と製品
  6
CONTINUOUS
 62
    3
 10
-218.30954499999916
 20
766.16066499999874
 11
-218.30954499999916
 21
769.91966499999967
  0
ARC
  8
_0-3_躯体と製品
  6
CONTINUOUS
 62
    3
 10
-214.80954500000053
 20
760.91966499999967
 40
3
 50
270
 51
0
  0
ARC
  8
_0-3_躯体と製品
  6
CONTINUOUS
 62
    3
 10
-214.80954500000053
 20
758.91966499999876
 40
3
 50
270
 51
0
  0
LINE
  8
_0-3_躯体と製品
  6
CONTINUOUS
 62
    4
 10
-221.10346499999832
 20
790.11966500000085
 11
-215.80954499999916
 21
795.41353499999991
  0
LINE
  8
_0-3_躯体と製品
  6
CONTINUOUS
 62
    3
 10
-224.80954500000053
 20
777.43146499999989
 11
-218.30954499999916
 21
773.67866499999968
  0
LINE
  8
_0-3_躯体と製品
  6
CONTINUOUS
 62
    4
 10
-240.80954499999916
 20
812.11966499999994
 11
-215.80954499999916
 21
812.11966499999994
  0
LINE
  8
_0-3_躯体と製品
  6
CONTINUOUS
 62
    3
 10
-212.60964500000046
 20
798.59966499999996
 11
-242.80960499999946
 21
798.59966499999996
  0
LINE
  8
_0-3_躯体と製品
  6
CONTINUOUS
 62
    3
 10
-212.60954500000025
 20
801.63966499999992
 11
-242.80954499999916
 21
801.63966499999992
  0
LINE
  8
_0-3_躯体と製品
  6
CONTINUOUS
 62
    3
 10
-231.30954499999916
 20
773.67866499999968
 11
-224.80954500000053
 21
777.43146499999989
  0
LINE
  8
_0-3_躯体と製品
  6
CONTINUOUS
 62
    3
 10
-245.60950499999944
 20
800.11966500000085
 11
-244.21225499999946
 21
798.7224649999996
  0
LINE
  8
_0-3_躯体と製品
  6
CONTINUOUS
 62
    3
 10
-245.60958499999924
 20
800.11976499999969
 11
-244.21231499999931
 21
801.51706499999977
  0
LINE
  8
_0-3_躯体と製品
  6
CONTINUOUS
 62
    3
 10
-242.8096149999983
 20
801.63966499999992
 11
-244.21230500000138
 21
801.51696499999957
  0
LINE
  8
_0-3_躯体と製品
  6
CONTINUOUS
 62
    3
 10
-242.80952500000012
 20
798.59966499999996
 11
-244.21224500000153
 21
798.7224649999996
  0
LINE
  8
_0-3_躯体と製品
  6
CONTINUOUS
 62
    4
 10
-215.80954499999916
 20
812.11966499999994
 11
-215.80954499999916
 21
791.11966499999994
  0
LINE
  8
_0-3_躯体と製品
  6
CONTINUOUS
 62
    3
 10
-215.80954499999916
 20
810.11966500000085
 11
-212.60954500000025
 21
810.11966500000085
  0
LINE
  8
_0-3_躯体と製品
  6
CONTINUOUS
 62
    3
 10
-212.60954500000025
 20
810.11966500000085
 11
-212.60954500000025
 21
791.11966499999994
  0
LINE
  8
_0-3_躯体と製品
  6
CONTINUOUS
 62
    3
 10
-216.80954500000144
 20
785.91966499999967
 11
-214.80954500000053
 21
785.91966499999967
  0
LINE
  8
_0-3_躯体と製品
  6
CONTINUOUS
 62
    3
 10
-216.80954500000144
 20
790.11966500000085
 11
-216.80954500000144
 21
785.91966499999967
  0
LINE
  8
_0-3_躯体と製品
  6
CONTINUOUS
 62
    3
 10
-211.46524499999941
 20
804.11966499999994
 11
-212.60964500000046
 21
804.11966499999994
  0
LINE
  8
_0-3_躯体と製品
  6
CONTINUOUS
 62
    4
 10
-211.46524499999941
 20
796.11976499999969
 11
-212.60964500000046
 21
796.11976499999969
  0
ARC
  8
_0-3_躯体と製品
  6
CONTINUOUS
 62
    3
 10
-216.80954500000144
 20
791.11966499999994
 40
1
 50
270
 51
0
  0
ARC
  8
_0-3_躯体と製品
  6
CONTINUOUS
 62
    3
 10
-216.80954500000144
 20
791.11966499999994
 40
4.2000000000000002
 50
270
 51
0
  0
ARC
  8
_0-3_躯体と製品
  6
CONTINUOUS
 62
    3
 10
-214.80954500000053
 20
782.91966499999967
 40
3
 50
0
 51
90
  0
ARC
  8
_0-3_躯体と製品
  6
CONTINUOUS
 62
    3
 10
-211.46524499999941
 20
802.69746499999997
 40
1.42221
 50
16.191300000001309
 51
90.000000000000014
  0
ARC
  8
_0-3_躯体と製品
  6
CONTINUOUS
 62
    3
 10
-211.46524499999941
 20
797.54196499999966
 40
1.42221
 50
270
 51
343.80899999999667
  0
ARC
  8
_0-3_躯体と製品
  6
CONTINUOUS
 62
    3
 10
-220.34294499999942
 20
800.11966500000085
 40
10.66659999999999
 50
343.80899999999667
 51
16.191300000001348
  0
LINE
  8
_0-3_躯体と製品
  6
CONTINUOUS
 62
    3
 10
-121.0535449999993
 20
824.11966499999994
 11
-121.0535449999993
 21
818.11966499999994
  0
ARC
  8
_0-3_躯体と製品
  6
CONTINUOUS
 62
    4
 10
-108.60012500000039
 20
767.07420499999967
 40
4.5110400000000004
 50
311.45244999999773
 51
48.547550000002239
  0
LINE
  8
_0-3_躯体と製品
  6
CONTINUOUS
 62
    4
 10
-105.61382500000036
 20
784.81966499999885
 11
-103.31351499999937
 21
784.81966499999885
  0
LINE
  8
_0-3_躯体と製品
  6
CONTINUOUS
 62
    3
 10
-105.61382500000036
 20
778.31880499999966
 11
-43.305574999999408
 21
778.31880499999966
  0
LINE
  8
_0-3_躯体と製品
  6
CONTINUOUS
 62
    3
 10
-105.61382500000036
 20
773.31814499999996
 11
-43.305574999999408
 21
773.31814499999996
  0
ARC
  8
_0-3_躯体と製品
  6
CONTINUOUS
 62
    3
 10
-106.61395500000026
 20
773.56817499999966
 40
3.0004
 50
180
 51
260.40593200000461
  0
LINE
  8
_0-3_躯体と製品
  6
CONTINUOUS
 62
    4
 10
-105.61382500000036
 20
770.45525500000099
 11
-105.61382500000036
 21
784.81966499999885
  0
ARC
  8
_0-3_躯体と製品
  6
CONTINUOUS
 62
    3
 10
-105.61382500000036
 20
776.46355499999959
 40
1.5002
 50
90
 51
180
  0
LINE
  8
_0-3_躯体と製品
  6
CONTINUOUS
 62
    3
 10
-109.61435500000152
 20
778.06877499999996
 11
-109.61435500000152
 21
773.56817499999966
  0
ARC
  8
_0-3_躯体と製品
  6
CONTINUOUS
 62
    3
 10
-106.61395500000026
 20
778.06877499999996
 40
3.0004
 50
90
 51
180
  0
LINE
  8
_0-3_躯体と製品
  6
CONTINUOUS
 62
    3
 10
-105.61382500000036
 20
781.06916499999966
 11
-106.61395500000026
 21
781.06916499999966
  0
LINE
  8
_0-3_躯体と製品
  6
CONTINUOUS
 62
    3
 10
-126.0535449999993
 20
818.11966499999994
 11
-121.0535449999993
 21
818.11966499999994
  0
LINE
  8
_0-3_躯体と製品
  6
CONTINUOUS
 62
    3
 10
-126.0535449999993
 20
818.11966499999994
 11
-126.0535449999993
 21
812.11966499999994
  0
ARC
  8
_0-3_躯体と製品
  6
CONTINUOUS
 62
    4
 10
-108.60012500000039
 20
767.07420499999967
 40
6.8110400000000002
 50
320.91229999999882
 51
39.08770000000122
  0
ARC
  8
_0-3_躯体と製品
  6
CONTINUOUS
 62
    4
 10
-38.018964999999298
 20
767.07420499999967
 40
6.8110400000000002
 50
140.91229999999874
 51
219.08770000000123
  0
LINE
  8
_0-3_躯体と製品
  6
CONTINUOUS
 62
    4
 10
-53.306895000000168
 20
772.11477499999978
 11
-53.306895000000168
 21
765.12218499999994
  0
LINE
  8
_0-3_躯体と製品
  6
CONTINUOUS
 62
    4
 10
-93.312195000000429
 20
772.11477499999978
 11
-93.312195000000429
 21
765.12218499999994
  0
LINE
  8
_0-3_躯体と製品
  6
CONTINUOUS
 62
    4
 10
-98.312854999999217
 20
770.56777500000067
 11
-98.312854999999217
 21
719.94107499999996
  0
LINE
  8
_0-3_躯体と製品
  6
CONTINUOUS
 62
    4
 10
-48.306234999999106
 20
720.87119500000085
 11
-48.306234999999106
 21
770.52777499999979
  0
LINE
  8
_0-3_躯体と製品
  6
CONTINUOUS
 62
    3
 10
-39.505065000000286
 20
769.7176649999999
 11
-39.505065000000286
 21
781.91928499999972
  0
LINE
  8
_0-3_躯体と製品
  6
CONTINUOUS
 62
    4
 10
-41.005265000001145
 20
770.45525500000099
 11
-41.005265000001145
 21
784.81966499999885
  0
LINE
  8
_0-3_躯体と製品
  6
CONTINUOUS
 62
    4
 10
-93.519424999999501
 20
765.12218499999994
 11
-52.999644999999418
 21
765.12218499999994
  0
LINE
  8
_0-3_躯体と製品
  6
CONTINUOUS
 62
    4
 10
-91.261925000001156
 20
763.1285449999998
 11
-55.257154999999329
 21
763.1285449999998
  0
LINE
  8
_0-3_躯体と製品
  6
CONTINUOUS
 62
    3
 10
-98.312854999999217
 20
770.12087499999984
 11
-93.312195000000429
 21
770.12087499999984
  0
ARC
  8
_0-3_躯体と製品
  6
CONTINUOUS
 62
    4
 10
-93.2621850000005
 20
760.1281449999999
 40
5.000659999999999
 50
90
 51
180
  0
ARC
  8
_0-3_躯体と製品
  6
CONTINUOUS
 62
    4
 10
-91.261925000001156
 20
758.12788499999965
 40
5.000659999999999
 50
90
 51
180
  0
LINE
  8
_0-3_躯体と製品
  6
CONTINUOUS
 62
    4
 10
-96.26258499999949
 20
722.12311499999964
 11
-96.26258499999949
 21
758.12788499999965
  0
LINE
  8
_0-3_躯体と製品
  6
CONTINUOUS
 62
    4
 10
-98.312854999999217
 20
767.12074499999858
 11
-93.312195000000429
 21
767.12074499999858
  0
LINE
  8
_0-3_躯体と製品
  6
CONTINUOUS
 62
    3
 10
-53.306895000000168
 20
770.12087499999984
 11
-48.306234999999106
 21
770.12087499999984
  0
ARC
  8
_0-3_躯体と製品
  6
CONTINUOUS
 62
    4
 10
-38.018964999999298
 20
767.07420499999967
 40
4.5110400000000004
 50
131.45244999999773
 51
228.54755000000219
  0
ARC
  8
_0-3_躯体と製品
  6
CONTINUOUS
 62
    4
 10
-53.256894999999531
 20
760.1281449999999
 40
5.000659999999999
 50
0
 51
90
  0
ARC
  8
_0-3_躯体と製品
  6
CONTINUOUS
 62
    4
 10
-55.257154999999329
 20
758.12788499999965
 40
5.000659999999999
 50
0
 51
90
  0
LINE
  8
_0-3_躯体と製品
  6
CONTINUOUS
 62
    4
 10
-50.256495000000086
 20
758.12788499999965
 11
-50.256495000000086
 21
722.12311499999964
  0
LINE
  8
_0-3_躯体と製品
  6
CONTINUOUS
 62
    4
 10
-48.306234999999106
 20
721.05297499999983
 11
-48.306234999999106
 21
719.4127549999987
  0
LINE
  8
_0-3_躯体と製品
  6
CONTINUOUS
 62
    4
 10
-53.306895000000168
 20
767.12074499999858
 11
-48.306234999999106
 21
767.12074499999858
  0
LINE
  8
_0-3_躯体と製品
  6
CONTINUOUS
 62
    4
 10
-93.312195000000429
 20
772.11477499999978
 11
-53.306895000000168
 21
772.11477499999978
  0
LINE
  8
_0-3_躯体と製品
  6
CONTINUOUS
 62
    4
 10
-102.75331500000038
 20
770.56777500000067
 11
-98.312854999999217
 21
770.56777500000067
  0
LINE
  8
_0-3_躯体と製品
  6
CONTINUOUS
 62
    4
 10
-103.31351499999937
 20
771.36862499999984
 11
-103.31351499999937
 21
784.81966499999885
  0
LINE
  8
_0-3_躯体と製品
  6
CONTINUOUS
 62
    3
 10
-50.60653499999944
 20
772.81807499999991
 11
-50.60653499999944
 21
778.81887499999971
  0
LINE
  8
_0-3_躯体と製品
  6
CONTINUOUS
 62
    3
 10
-50.60653499999944
 20
772.81807499999991
 11
-51.1066050000004
 21
773.31814499999996
  0
LINE
  8
_0-3_躯体と製品
  6
CONTINUOUS
 62
    3
 10
-50.60653499999944
 20
778.81887499999971
 11
-51.1066050000004
 21
778.31880499999966
  0
LINE
  8
_0-3_躯体と製品
  6
CONTINUOUS
 62
    3
 10
-50.60653499999944
 20
778.81887499999971
 11
-43.305574999999408
 21
778.81887499999971
  0
LINE
  8
_0-3_躯体と製品
  6
CONTINUOUS
 62
    3
 10
-43.305574999999408
 20
772.81807499999991
 11
-50.60653499999944
 21
772.81807499999991
  0
LINE
  8
_0-3_躯体と製品
  6
CONTINUOUS
 62
    4
 10
-43.889495000000352
 20
770.52777499999979
 11
-48.306234999999106
 21
770.52777499999979
  0
ARC
  8
_0-3_躯体と製品
  6
CONTINUOUS
 62
    3
 10
-41.005265000001145
 20
776.46355499999959
 40
1.5002
 50
0
 51
90
  0
LINE
  8
_0-3_躯体と製品
  6
CONTINUOUS
 62
    3
 10
-39.505065000000286
 20
780.19405500000062
 11
-39.505065000000286
 21
771.44289499999991
  0
LINE
  8
_0-3_躯体と製品
  6
CONTINUOUS
 62
    3
 10
-39.505065000000286
 20
771.44289499999991
 11
-39.505065000000286
 21
780.19405500000062
  0
LINE
  8
_0-3_躯体と製品
  6
CONTINUOUS
 62
    3
 10
-39.505065000000286
 20
771.44289499999991
 11
-38.904995000000326
 21
770.81781499999965
  0
LINE
  8
_0-3_躯体と製品
  6
CONTINUOUS
 62
    3
 10
-39.505065000000286
 20
780.19405500000062
 11
-38.904995000000326
 21
780.81913499999996
  0
ARC
  8
_0-3_躯体と製品
  6
CONTINUOUS
 62
    3
 10
-37.90277499999911
 20
772.0679749999988
 40
1.6022999999999989
 50
128.71798799999499
 51
180
  0
ARC
  8
_0-3_躯体と製品
  6
CONTINUOUS
 62
    3
 10
-33.996004999999514
 20
775.81847499999981
 40
5.509059999999999
 50
153.00853300000171
 51
206.99146699999821
  0
ARC
  8
_0-3_躯体と製品
  6
CONTINUOUS
 62
    3
 10
-37.90277499999911
 20
779.56897500000082
 40
1.6022999999999989
 50
180
 51
231.28201200000493
  0
LINE
  8
_0-3_躯体と製品
  6
CONTINUOUS
 62
    3
 10
-34.504405000000133
 20
780.19405500000062
 11
-34.504405000000133
 21
771.44289499999991
  0
LINE
  8
_0-3_躯体と製品
  6
CONTINUOUS
 62
    3
 10
-34.504405000000133
 20
771.44289499999991
 11
-34.504405000000133
 21
780.19405500000062
  0
LINE
  8
_0-3_躯体と製品
  6
CONTINUOUS
 62
    3
 10
-35.104484999999386
 20
770.81781499999965
 11
-38.904995000000326
 21
770.81781499999965
  0
LINE
  8
_0-3_躯体と製品
  6
CONTINUOUS
 62
    3
 10
-35.104484999999386
 20
773.31814499999996
 11
-38.904995000000326
 21
773.31814499999996
  0
LINE
  8
_0-3_躯体と製品
  6
CONTINUOUS
 62
    3
 10
-35.104484999999386
 20
778.31880499999966
 11
-38.904995000000326
 21
778.31880499999966
  0
LINE
  8
_0-3_躯体と製品
  6
CONTINUOUS
 62
    3
 10
-35.104484999999386
 20
780.81913499999996
 11
-38.904995000000326
 21
780.81913499999996
  0
LINE
  8
_0-3_躯体と製品
  6
CONTINUOUS
 62
    3
 10
-34.504405000000133
 20
771.44289499999991
 11
-35.104484999999386
 21
770.81781499999965
  0
LINE
  8
_0-3_躯体と製品
  6
CONTINUOUS
 62
    3
 10
-34.504405000000133
 20
780.19405500000062
 11
-35.104484999999386
 21
780.81913499999996
  0
ARC
  8
_0-3_躯体と製品
  6
CONTINUOUS
 62
    3
 10
-36.106704999999238
 20
772.0679749999988
 40
1.6022999999999989
 50
0
 51
51.282012000004997
  0
ARC
  8
_0-3_躯体と製品
  6
CONTINUOUS
 62
    3
 10
-40.013475000000199
 20
775.81847499999981
 40
5.509059999999999
 50
333.00853300000171
 51
26.991466999998245
  0
ARC
  8
_0-3_躯体と製品
  6
CONTINUOUS
 62
    3
 10
-36.106704999999238
 20
779.56897500000082
 40
1.6022999999999989
 50
308.71798799999499
 51
0
  0
LINE
  8
_0-3_躯体と製品
  6
CONTINUOUS
 62
    3
 10
-39.505065000000286
 20
781.91928499999972
 11
-41.005265000001145
 21
781.91928499999972
  0
LINE
  8
_0-3_躯体と製品
  6
CONTINUOUS
 62
    4
 10
-43.305574999999408
 20
784.81966499999885
 11
-41.005265000001145
 21
784.81966499999885
  0
LINE
  8
_0-3_躯体と製品
  6
CONTINUOUS
 62
    4
 10
-43.305574999999408
 20
771.36862499999984
 11
-43.305574999999408
 21
784.81966499999885
  0
LINE
  8
_0-3_躯体と製品
  6
CONTINUOUS
 62
    3
 10
-41.005265000001145
 20
770.59278499999959
 11
-41.005265000001145
 21
781.91928499999972
  0
LINE
  8
_0-3_躯体と製品
  6
CONTINUOUS
 62
    3
 10
-126.0535449999993
 20
824.11966499999994
 11
-121.0535449999993
 21
824.11966499999994
  0
LINE
  8
_0-3_躯体と製品
  6
CONTINUOUS
 62
    3
 10
-126.0535449999993
 20
830.11966499999994
 11
-126.0535449999993
 21
824.11966499999994
  0
LINE
  8
_0-3_躯体と製品
  6
CONTINUOUS
 62
    3
 10
-1.0535449999993034
 20
824.11966499999994
 11
-1.0535449999993034
 21
818.11966499999994
  0
LINE
  8
_0-3_躯体と製品
  6
CONTINUOUS
 62
    3
 10
-25.603224999999384
 20
778.81887499999971
 11
-25.603224999999384
 21
772.81807499999991
  0
LINE
  8
_0-3_躯体と製品
  6
CONTINUOUS
 62
    3
 10
-6.0535449999993034
 20
818.11966499999994
 11
-1.0535449999993034
 21
818.11966499999994
  0
LINE
  8
_0-3_躯体と製品
  6
CONTINUOUS
 62
    3
 10
-6.0535449999993034
 20
818.11966499999994
 11
-6.0535449999993034
 21
812.11966499999994
  0
LINE
  8
_0-3_躯体と製品
  6
CONTINUOUS
 62
    3
 10
-6.0535449999993034
 20
824.11966499999994
 11
-1.0535449999993034
 21
824.11966499999994
  0
LINE
  8
_0-3_躯体と製品
  6
CONTINUOUS
 62
    3
 10
-6.0535449999993034
 20
830.11966499999994
 11
-6.0535449999993034
 21
824.11966499999994
  0
LINE
  8
_0-3_躯体と製品
  6
CONTINUOUS
 62
    7
 10
385.77954500000078
 20
494.11766499999976
 11
385.77954500000078
 21
-169.88033499999915
  0
LINE
  8
_0-3_躯体と製品
  6
CONTINUOUS
 62
    7
 10
428.4795450000006
 20
494.11766499999976
 11
428.4795450000006
 21
-169.88033499999915
  0
LINE
  8
_0-3_躯体と製品
  6
PLINE3
 62
    3
 10
528.47954499999969
 20
-139.88033499999915
 11
528.47954499999969
 21
530.11966500000085
  0
LINE
  8
_0-3_躯体と製品
  6
CONTINUOUS
 62
    7
 10
1635.7795450000021
 20
494.11766499999976
 11
1635.7795450000021
 21
-169.88033499999915
  0
LINE
  8
_0-3_躯体と製品
  6
CONTINUOUS
 62
    7
 10
1678.4795450000001
 20
494.11766499999976
 11
1678.4795450000001
 21
-169.88033499999915
  0
LINE
  8
_0-3_躯体と製品
  6
PLINE3
 62
    3
 10
1535.7795450000021
 20
530.11966500000085
 11
1535.7795450000021
 21
-139.88033499999915
  0
LINE
  8
_0-3_躯体と製品
  6
CONTINUOUS
 62
    4
 10
1815.0222250000006
 20
-232.88033500000029
 11
1057.1295450000007
 21
-232.88033500000029
  0
LINE
  8
_0-3_躯体と製品
  6
CONTINUOUS
 62
    7
 10
1057.1295450000007
 20
-232.88033500000029
 11
1678.4795450000001
 21
-232.88033500000029
  0
LINE
  8
_0-3_躯体と製品
  6
CONTINUOUS
 62
    3
 10
1467.6295449999989
 20
-204.0803350000001
 11
1496.6295449999989
 21
-204.0803350000001
  0
LINE
  8
_0-3_躯体と製品
  6
PLINE3
 62
    3
 10
1470.7795450000003
 20
-109.88033499999915
 11
1500.7795450000021
 21
-109.88033499999915
  0
LINE
  8
_0-3_躯体と製品
  6
PLINE3
 62
    3
 10
1535.7795450000021
 20
-139.88033499999915
 11
528.47954499999969
 21
-139.88033499999915
  0
LINE
  8
_0-3_躯体と製品
  6
CONTINUOUS
 62
    4
 10
1057.1295450000007
 20
-281.4803350000002
 11
1612.1295450000007
 21
-281.4803350000002
  0
LINE
  8
_0-3_躯体と製品
  6
CONTINUOUS
 62
    3
 10
867.62954499999978
 20
-204.0803350000001
 11
896.62954499999887
 21
-204.0803350000001
  0
TEXT
  8
_0-4_文字-記号
 62
    7
 10
822.03654499999857
 20
-6.1663349999992079
 40
50
 41
0.8
 50
0
  1
捨板　２枚貼
  0
LINE
  8
_0-4_文字-記号
  6
CONTINUOUS
 62
    3
 10
818.79428500000176
 20
-6.1663349999992079
 11
1023.1792849999997
 21
-6.1663349999992079
  0
LINE
  8
_0-3_躯体と製品
  6
CONTINUOUS
 62
    4
 10
434.59854499999847
 20
-281.4803350000002
 11
1007.1295449999998
 21
-281.4803350000002
  0
TEXT
  8
_0-4_文字-記号
 62
    7
 10
670.99864023809459
 20
-352.88035499999978
 40
50
 41
0.8
 50
0
  1
大引パイプ
  0
LINE
  8
_0-4_文字-記号
  6
CONTINUOUS
 62
    3
 10
902.6085450000005
 20
-357.88033500000006
 11
739.56380500000068
 21
-357.88033500000006
  0
LINE
  8
_0-3_躯体と製品
  6
CONTINUOUS
 62
    7
 10
385.77954500000078
 20
-283.68033500000115
 11
385.77954500000078
 21
-464.08033499999999
  0
LINE
  8
_0-3_躯体と製品
  6
CONTINUOUS
 62
    7
 10
428.4795450000006
 20
-289.18033500000024
 11
428.4795450000006
 21
-464.08033499999999
  0
LINE
  8
_0-4_文字-記号
  6
CONTINUOUS
 62
    3
 10
432.57054500000049
 20
-289.81033500000012
 11
513.61154499999884
 21
-427.58033500000033
  0
TEXT
  8
_0-4_文字-記号
 62
    7
 10
516.65339500000073
 20
-420.86069500000031
 40
50
 41
0.8
 50
0
  1
直交クランプ
  0
LINE
  8
_0-4_文字-記号
  6
CONTINUOUS
 62
    3
 10
513.61154499999884
 20
-427.58033500000033
 11
694.85185499999989
 21
-427.58033500000033
  0
LINE
  8
_0-3_躯体と製品
  6
CONTINUOUS
 62
    3
 10
514.59554499999967
 20
-569.43033499999967
 11
572.06954499999983
 21
-469.88033499999915
  0
LINE
  8
_0-3_躯体と製品
  6
CONTINUOUS
 62
    3
 10
498.4295449999986
 20
-569.43033499999967
 11
555.90454500000078
 21
-469.88033499999915
  0
LINE
  8
_0-3_躯体と製品
  6
CONTINUOUS
 62
    3
 10
506.51154500000075
 20
-569.43033499999967
 11
563.98654500000066
 21
-469.88033499999915
  0
LINE
  8
_0-3_躯体と製品
  6
CONTINUOUS
 62
    3
 10
385.77954500000078
 20
-464.08033499999999
 11
428.4795450000006
 21
-464.08033499999999
  0
LINE
  8
_0-3_躯体と製品
  6
CONTINUOUS
 62
    3
 10
357.12954500000069
 20
-467.08033499999954
 11
457.12954500000069
 21
-467.08033499999954
  0
LINE
  8
_0-3_躯体と製品
  6
CONTINUOUS
 62
    3
 10
357.12954500000069
 20
-467.08033499999954
 11
357.12954500000069
 21
-469.88033499999915
  0
ARC
  8
_0-3_躯体と製品
  6
CONTINUOUS
 62
    3
 10
385.77954500000078
 20
-467.08033499999954
 40
3
 50
90
 51
180
  0
LINE
  8
_0-3_躯体と製品
  6
CONTINUOUS
 62
    3
 10
457.12954500000069
 20
-467.08033499999954
 11
457.12954500000069
 21
-469.88033499999915
  0
ARC
  8
_0-3_躯体と製品
  6
CONTINUOUS
 62
    3
 10
428.4795450000006
 20
-467.08033499999954
 40
3
 50
0
 51
90
  0
LINE
  8
_0-3_躯体と製品
  6
CONTINUOUS
 62
    3
 10
567.62954499999978
 20
-204.0803350000001
 11
596.62954500000069
 21
-204.0803350000001
  0
LINE
  8
_0-3_躯体と製品
  6
PLINE3
 62
    3
 10
563.47954499999969
 20
-109.88033499999915
 11
593.4795450000006
 21
-109.88033499999915
  0
LINE
  8
_0-3_躯体と製品
  6
PLINE3
 62
    3
 10
563.47954499999969
 20
-109.88033499999915
 11
563.47954499999969
 21
-169.88033499999915
  0
LINE
  8
_0-3_躯体と製品
  6
CONTINUOUS
 62
    3
 10
395.77954500000078
 20
-239.18033500000024
 11
431.12954499999887
 21
-239.18033500000024
  0
LINE
  8
_0-3_躯体と製品
  6
CONTINUOUS
 62
    4
 10
395.77954500000078
 20
-249.18033500000024
 11
434.38354500000059
 21
-249.18033500000024
  0
ARC
  8
_0-3_躯体と製品
  6
CONTINUOUS
 62
    3
 10
425.4795450000006
 20
-260.18033500000115
 40
3
 50
0
 51
90
  0
LINE
  8
_0-3_躯体と製品
  6
CONTINUOUS
 62
    3
 10
394.83854499999961
 20
-289.18033500000024
 11
431.12954499999887
 21
-289.18033500000024
  0
LINE
  8
_0-3_躯体と製品
  6
CONTINUOUS
 62
    4
 10
395.77954500000078
 20
-279.18033500000024
 11
434.38354500000059
 21
-279.18033500000024
  0
ARC
  8
_0-3_躯体と製品
  6
CONTINUOUS
 62
    3
 10
425.4795450000006
 20
-268.18033500000024
 40
3
 50
270
 51
0
  0
LINE
  8
_0-3_躯体と製品
  6
CONTINUOUS
 62
    3
 10
395.77954500000078
 20
-289.18033500000024
 11
385.77954500000078
 21
-283.68033500000115
  0
LINE
  8
_0-3_躯体と製品
  6
CONTINUOUS
 62
    3
 10
374.62954500000069
 20
-283.68033500000115
 11
374.62954500000069
 21
-286.68033500000024
  0
LINE
  8
_0-3_躯体と製品
  6
CONTINUOUS
 62
    3
 10
379.62954500000069
 20
-283.68033500000115
 11
379.62954500000069
 21
-286.68033500000024
  0
ARC
  8
_0-3_躯体と製品
  6
CONTINUOUS
 62
    3
 10
373.6095449999998
 20
-278.68033500000024
 40
5
 50
180
 51
270
  0
LINE
  8
_0-3_躯体と製品
  6
CONTINUOUS
 62
    3
 10
362.12954500000069
 20
-244.18033500000024
 11
362.12954500000069
 21
-284.18033500000024
  0
LINE
  8
_0-3_躯体と製品
  6
CONTINUOUS
 62
    3
 10
364.62954500000069
 20
-244.18033500000024
 11
364.62954500000069
 21
-284.18033500000024
  0
LINE
  8
_0-3_躯体と製品
  6
CONTINUOUS
 62
    3
 10
367.12954500000069
 20
-289.18033500000024
 11
385.77954500000078
 21
-289.18033500000024
  0
LINE
  8
_0-3_躯体と製品
  6
CONTINUOUS
 62
    3
 10
367.12954500000069
 20
-286.68033500000024
 11
385.77954500000078
 21
-286.68033500000024
  0
LINE
  8
_0-3_躯体と製品
  6
CONTINUOUS
 62
    3
 10
372.12954500000069
 20
-291.18033500000024
 11
382.12954500000069
 21
-291.18033500000024
  0
LINE
  8
_0-3_躯体と製品
  6
CONTINUOUS
 62
    3
 10
382.12954500000069
 20
-289.18033500000024
 11
382.12954500000069
 21
-291.18033500000024
  0
LINE
  8
_0-3_躯体と製品
  6
CONTINUOUS
 62
    3
 10
372.12954500000069
 20
-289.18033500000024
 11
372.12954500000069
 21
-291.18033500000024
  0
ARC
  8
_0-3_躯体と製品
  6
CONTINUOUS
 62
    3
 10
367.12954500000069
 20
-284.18033500000024
 40
5
 50
180
 51
270
  0
ARC
  8
_0-3_躯体と製品
  6
CONTINUOUS
 62
    3
 10
367.12954500000069
 20
-284.18033500000024
 40
2.5
 50
180
 51
270
  0
LINE
  8
_0-3_躯体と製品
  6
CONTINUOUS
 62
    3
 10
395.77954500000078
 20
-239.18033500000024
 11
385.77954500000078
 21
-244.68033500000024
  0
LINE
  8
_0-3_躯体と製品
  6
CONTINUOUS
 62
    3
 10
367.12954500000069
 20
-239.18033500000024
 11
385.77954500000078
 21
-239.18033500000024
  0
LINE
  8
_0-3_躯体と製品
  6
CONTINUOUS
 62
    3
 10
367.12954500000069
 20
-241.68033500000024
 11
385.77954500000078
 21
-241.68033500000024
  0
LINE
  8
_0-3_躯体と製品
  6
CONTINUOUS
 62
    3
 10
374.62954500000069
 20
-241.68033500000024
 11
374.62954500000069
 21
-244.68033500000024
  0
LINE
  8
_0-3_躯体と製品
  6
CONTINUOUS
 62
    3
 10
379.62954500000069
 20
-241.68033500000024
 11
379.62954500000069
 21
-244.68033500000024
  0
LINE
  8
_0-3_躯体と製品
  6
CONTINUOUS
 62
    3
 10
372.12954500000069
 20
-237.18033500000024
 11
382.12954500000069
 21
-237.18033500000024
  0
LINE
  8
_0-3_躯体と製品
  6
CONTINUOUS
 62
    3
 10
382.12954500000069
 20
-237.18033500000024
 11
382.12954500000069
 21
-239.18033500000024
  0
LINE
  8
_0-3_躯体と製品
  6
CONTINUOUS
 62
    3
 10
372.12954500000069
 20
-237.18033500000024
 11
372.12954500000069
 21
-239.18033500000024
  0
LINE
  8
_0-3_躯体と製品
  6
CONTINUOUS
 62
    3
 10
373.6095449999998
 20
-244.68033500000024
 11
385.77954500000078
 21
-244.68033500000024
  0
LINE
  8
_0-3_躯体と製品
  6
CONTINUOUS
 62
    4
 10
385.77954500000078
 20
-232.88033500000029
 11
385.77954500000078
 21
-244.68033500000024
  0
ARC
  8
_0-3_躯体と製品
  6
CONTINUOUS
 62
    3
 10
367.12954500000069
 20
-244.18033500000024
 40
5
 50
90
 51
180
  0
ARC
  8
_0-3_躯体と製品
  6
CONTINUOUS
 62
    3
 10
367.12954500000069
 20
-244.18033500000024
 40
2.5
 50
90
 51
180
  0
ARC
  8
_0-3_躯体と製品
  6
CONTINUOUS
 62
    3
 10
373.6095449999998
 20
-249.68033500000024
 40
5
 50
90
 51
180
  0
LINE
  8
_0-3_躯体と製品
  6
CONTINUOUS
 62
    3
 10
373.6095449999998
 20
-283.68033500000115
 11
385.77954500000078
 21
-283.68033500000115
  0
LINE
  8
_0-3_躯体と製品
  6
CONTINUOUS
 62
    3
 10
368.6095449999998
 20
-249.68033500000024
 11
368.6095449999998
 21
-278.68033500000024
  0
LINE
  8
_0-3_躯体と製品
  6
CONTINUOUS
 62
    3
 10
400.12954499999978
 20
-257.18033500000024
 11
409.12954500000069
 21
-257.18033500000024
  0
LINE
  8
_0-3_躯体と製品
  6
CONTINUOUS
 62
    3
 10
423.12954499999978
 20
-257.18033500000024
 11
425.4795450000006
 21
-257.18033500000024
  0
ARC
  8
_0-3_躯体と製品
  6
CONTINUOUS
 62
    3
 10
423.12954499999978
 20
-260.18033500000115
 40
3
 50
90
 51
180
  0
ARC
  8
_0-3_躯体と製品
  6
CONTINUOUS
 62
    3
 10
409.12954500000069
 20
-260.18033500000115
 40
3
 50
0
 51
90
  0
ARC
  8
_0-3_躯体と製品
  6
CONTINUOUS
 62
    3
 10
400.12954499999978
 20
-260.18033500000115
 40
3
 50
90
 51
180
  0
LINE
  8
_0-3_躯体と製品
  6
CONTINUOUS
 62
    3
 10
400.12954499999978
 20
-271.18033500000024
 11
409.12954500000069
 21
-271.18033500000024
  0
LINE
  8
_0-3_躯体と製品
  6
CONTINUOUS
 62
    3
 10
423.12954499999978
 20
-271.18033500000024
 11
425.4795450000006
 21
-271.18033500000024
  0
ARC
  8
_0-3_躯体と製品
  6
CONTINUOUS
 62
    3
 10
409.12954500000069
 20
-268.18033500000024
 40
3
 50
270
 51
0
  0
ARC
  8
_0-3_躯体と製品
  6
CONTINUOUS
 62
    3
 10
423.12954499999978
 20
-268.18033500000024
 40
3
 50
180
 51
270
  0
ARC
  8
_0-3_躯体と製品
  6
CONTINUOUS
 62
    3
 10
400.12954499999978
 20
-268.18033500000024
 40
3
 50
180
 51
270
  0
LINE
  8
_0-3_躯体と製品
  6
CONTINUOUS
 62
    3
 10
397.12954500000069
 20
-260.18033500000115
 11
397.12954500000069
 21
-268.18033500000024
  0
LINE
  8
_0-3_躯体と製品
  6
CONTINUOUS
 62
    3
 10
412.12954500000069
 20
-260.18033500000115
 11
412.12954500000069
 21
-268.18033500000024
  0
LINE
  8
_0-3_躯体と製品
  6
CONTINUOUS
 62
    3
 10
420.12954500000069
 20
-260.18033500000115
 11
420.12954500000069
 21
-268.18033500000024
  0
ARC
  8
_0-3_躯体と製品
  6
CONTINUOUS
 62
    3
 10
561.82954500000051
 20
-228.88033500000029
 40
4
 50
270
 51
0
  0
ARC
  8
_0-3_躯体と製品
  6
CONTINUOUS
 62
    3
 10
554.3295449999996
 20
-228.88033500000029
 40
4
 50
180
 51
270
  0
ARC
  8
_0-3_躯体と製品
  6
CONTINUOUS
 62
    3
 10
442.12954500000069
 20
-284.18033500000024
 40
8
 50
90
 51
180
  0
LINE
  8
_0-3_躯体と製品
  6
CONTINUOUS
 62
    3
 10
434.12954500000069
 20
-284.18033500000024
 11
434.12954500000069
 21
-286.18033500000115
  0
ARC
  8
_0-3_躯体と製品
  6
CONTINUOUS
 62
    3
 10
431.12954499999887
 20
-286.18033500000115
 40
3
 50
270
 51
0
  0
LINE
  8
_0-4_文字-記号
  6
CONTINUOUS
 62
    3
 10
432.57054500000049
 20
-289.81033500000012
 11
438.40125500000158
 21
-309.58412500000031
  0
LINE
  8
_0-4_文字-記号
  6
CONTINUOUS
 62
    3
 10
432.57054500000049
 20
-289.81033500000012
 11
447.02060500000061
 21
-304.51393500000017
  0
LINE
  8
_0-3_躯体と製品
  6
CONTINUOUS
 62
    3
 10
462.12954499999978
 20
-257.18033500000024
 11
462.12954499999978
 21
-259.18033500000024
  0
LINE
  8
_0-3_躯体と製品
  6
CONTINUOUS
 62
    3
 10
434.12954500000069
 20
-242.18033500000024
 11
434.12954500000069
 21
-244.18033500000024
  0
LINE
  8
_0-3_躯体と製品
  6
CONTINUOUS
 62
    3
 10
442.12954500000069
 20
-252.1803349999991
 11
457.12954500000069
 21
-252.1803349999991
  0
LINE
  8
_0-3_躯体と製品
  6
CONTINUOUS
 62
    3
 10
455.30854500000078
 20
-259.07833500000015
 11
454.98254500000075
 21
-258.18033500000024
  0
LINE
  8
_0-3_躯体と製品
  6
CONTINUOUS
 62
    3
 10
452.34354500000154
 20
-259.07833500000015
 11
455.34354500000063
 21
-259.07833500000015
  0
LINE
  8
_0-3_躯体と製品
  6
CONTINUOUS
 62
    3
 10
445.18754499999886
 20
-258.18033500000024
 11
455.00254499999983
 21
-258.18033500000024
  0
LINE
  8
_0-3_躯体と製品
  6
CONTINUOUS
 62
    3
 10
442.19254500000079
 20
-259.18033500000024
 11
443.44154500000059
 21
-259.18033500000024
  0
LINE
  8
_0-3_躯体と製品
  6
CONTINUOUS
 62
    3
 10
455.34654499999988
 20
-259.18033500000024
 11
462.12954499999978
 21
-259.18033500000024
  0
LINE
  8
_0-3_躯体と製品
  6
CONTINUOUS
 62
    4
 10
428.4795450000006
 20
-232.88033500000029
 11
428.4795450000006
 21
-239.18033500000024
  0
ARC
  8
_0-3_躯体と製品
  6
CONTINUOUS
 62
    3
 10
431.12954499999887
 20
-242.18033500000024
 40
3
 50
0
 51
90
  0
ARC
  8
_0-3_躯体と製品
  6
CONTINUOUS
 62
    3
 10
442.12954500000069
 20
-244.18033500000024
 40
8
 50
180
 51
270
  0
ARC
  8
_0-3_躯体と製品
  6
CONTINUOUS
 62
    3
 10
457.12954500000069
 20
-257.18033500000024
 40
5
 50
0
 51
90
  0
LINE
  8
_0-3_躯体と製品
  6
CONTINUOUS
 62
    3
 10
444.72354499999983
 20
-264.18033500000024
 11
448.18754500000068
 21
-258.18033500000024
  0
LINE
  8
_0-3_躯体と製品
  6
CONTINUOUS
 62
    3
 10
441.72354500000074
 20
-264.18033500000024
 11
445.18754499999886
 21
-258.18033500000024
  0
ARC
  8
_0-3_躯体と製品
  6
CONTINUOUS
 62
    3
 10
442.19254500000079
 20
-264.18033500000024
 40
5
 50
90
 51
180
  0
LINE
  8
_0-3_躯体と製品
  6
CONTINUOUS
 62
    3
 10
442.12954500000069
 20
-276.18033500000024
 11
457.12954500000069
 21
-276.18033500000024
  0
LINE
  8
_0-3_躯体と製品
  6
CONTINUOUS
 62
    3
 10
462.12954499999978
 20
-269.18033500000024
 11
462.12954499999978
 21
-271.18033500000024
  0
LINE
  8
_0-3_躯体と製品
  6
CONTINUOUS
 62
    3
 10
455.36454500000082
 20
-269.07833500000015
 11
454.96354500000052
 21
-270.18033500000115
  0
LINE
  8
_0-3_躯体と製品
  6
CONTINUOUS
 62
    3
 10
452.34354500000154
 20
-269.07833500000015
 11
455.34354500000063
 21
-269.07833500000015
  0
LINE
  8
_0-3_躯体と製品
  6
CONTINUOUS
 62
    3
 10
445.18754499999886
 20
-270.18033500000115
 11
454.97454499999958
 21
-270.18033500000115
  0
LINE
  8
_0-3_躯体と製品
  6
CONTINUOUS
 62
    3
 10
442.19254500000079
 20
-269.18033500000024
 11
443.46154500000057
 21
-269.18033500000024
  0
LINE
  8
_0-3_躯体と製品
  6
CONTINUOUS
 62
    3
 10
455.93154500000082
 20
-269.18033500000024
 11
462.12954499999978
 21
-269.18033500000024
  0
ARC
  8
_0-3_躯体と製品
  6
CONTINUOUS
 62
    3
 10
457.12954500000069
 20
-271.18033500000024
 40
5
 50
270
 51
0
  0
LINE
  8
_0-3_躯体と製品
  6
CONTINUOUS
 62
    3
 10
428.4795450000006
 20
-260.18033500000115
 11
428.4795450000006
 21
-268.18033500000024
  0
CIRCLE
  8
_0-3_躯体と製品
  6
CONTINUOUS
 62
    3
 10
455.34354500000063
 20
-264.07833500000015
 40
5
  0
ARC
  8
_0-3_躯体と製品
  6
CONTINUOUS
 62
    3
 10
452.34354500000154
 20
-264.07833500000015
 40
5
 50
90
 51
270
  0
ARC
  8
_0-3_躯体と製品
  6
CONTINUOUS
 62
    3
 10
449.69654499999979
 20
-264.1683350000003
 40
7.9999900000000004
 50
48.457800000001292
 51
311.27700000000448
  0
LINE
  8
_0-3_躯体と製品
  6
CONTINUOUS
 62
    3
 10
444.72354499999983
 20
-264.18033500000024
 11
448.18754500000068
 21
-270.18033500000115
  0
LINE
  8
_0-3_躯体と製品
  6
CONTINUOUS
 62
    3
 10
441.72354500000074
 20
-264.18033500000024
 11
445.18754499999886
 21
-270.18033500000115
  0
ARC
  8
_0-3_躯体と製品
  6
CONTINUOUS
 62
    3
 10
442.19254500000079
 20
-264.18033500000024
 40
5
 50
180
 51
270
  0
LINE
  8
_0-3_躯体と製品
  6
CONTINUOUS
 62
    3
 10
564.62954500000069
 20
-205.88033500000029
 11
564.62954500000069
 21
-228.88033500000029
  0
LINE
  8
_0-3_躯体と製品
  6
CONTINUOUS
 62
    3
 10
565.82954499999869
 20
-205.88033500000029
 11
565.82954499999869
 21
-228.88033500000029
  0
LINE
  8
_0-3_躯体と製品
  6
CONTINUOUS
 62
    3
 10
550.36554499999966
 20
-228.88033500000029
 11
551.52954500000169
 21
-228.88033500000029
  0
LINE
  8
_0-3_躯体と製品
  6
CONTINUOUS
 62
    3
 10
553.32954499999869
 20
-230.68033500000024
 11
562.8295449999996
 21
-230.68033500000024
  0
ARC
  8
_0-3_躯体と製品
  6
CONTINUOUS
 62
    3
 10
553.32954499999869
 20
-228.88033500000029
 40
1.79999
 50
180
 51
270
  0
ARC
  8
_0-3_躯体と製品
  6
CONTINUOUS
 62
    3
 10
567.62954499999978
 20
-205.88033500000029
 40
1.79999
 50
90
 51
180
  0
ARC
  8
_0-3_躯体と製品
  6
CONTINUOUS
 62
    3
 10
562.8295449999996
 20
-228.88033500000029
 40
1.79999
 50
270
 51
0
  0
ARC
  8
_0-3_躯体と製品
  6
CONTINUOUS
 62
    3
 10
567.62954499999978
 20
-205.88033500000029
 40
3
 50
90
 51
180
  0
LINE
  8
_0-3_躯体と製品
  6
PLINE3
 62
    3
 10
593.4795450000006
 20
-109.88033499999915
 11
593.4795450000006
 21
-169.88033499999915
  0
LINE
  8
_0-4_文字-記号
  6
CONTINUOUS
 62
    3
 10
734.51228500000161
 20
-168.24833500000022
 11
818.79428500000176
 21
-6.1663349999992079
  0
ARC
  8
_0-3_躯体と製品
  6
CONTINUOUS
 62
    3
 10
609.92954500000087
 20
-228.88033500000029
 40
4
 50
270
 51
0
  0
ARC
  8
_0-3_躯体と製品
  6
CONTINUOUS
 62
    3
 10
602.42954499999951
 20
-228.88033500000029
 40
4
 50
180
 51
270
  0
LINE
  8
_0-3_躯体と製品
  6
CONTINUOUS
 62
    3
 10
599.62954500000069
 20
-205.88033500000029
 11
599.62954500000069
 21
-228.88033500000029
  0
LINE
  8
_0-3_躯体と製品
  6
CONTINUOUS
 62
    3
 10
598.4295449999986
 20
-205.88033500000029
 11
598.4295449999986
 21
-228.88033500000029
  0
LINE
  8
_0-3_躯体と製品
  6
CONTINUOUS
 62
    3
 10
612.72954499999969
 20
-228.88033500000029
 11
613.9295449999986
 21
-228.88033500000029
  0
LINE
  8
_0-3_躯体と製品
  6
CONTINUOUS
 62
    3
 10
610.92954499999951
 20
-230.68033500000024
 11
601.4295449999986
 21
-230.68033500000024
  0
ARC
  8
_0-3_躯体と製品
  6
CONTINUOUS
 62
    3
 10
596.62954500000069
 20
-205.88033500000029
 40
1.79999
 50
0
 51
90
  0
ARC
  8
_0-3_躯体と製品
  6
CONTINUOUS
 62
    3
 10
601.4295449999986
 20
-228.88033500000029
 40
1.79999
 50
180
 51
270
  0
ARC
  8
_0-3_躯体と製品
  6
CONTINUOUS
 62
    3
 10
610.92954499999951
 20
-228.88033500000029
 40
1.79999
 50
270
 51
0
  0
ARC
  8
_0-3_躯体と製品
  6
CONTINUOUS
 62
    3
 10
596.62954500000069
 20
-205.88033500000029
 40
3
 50
0
 51
90
  0
ARC
  8
_0-3_躯体と製品
  6
CONTINUOUS
 62
    3
 10
861.82954500000051
 20
-228.88033500000029
 40
4
 50
270
 51
0
  0
ARC
  8
_0-3_躯体と製品
  6
CONTINUOUS
 62
    3
 10
854.32954500000051
 20
-228.88033500000029
 40
4
 50
180
 51
270
  0
LINE
  8
_0-4_文字-記号
  6
CONTINUOUS
 62
    3
 10
734.51228500000161
 20
-168.24833500000022
 11
748.17538499999955
 21
-152.8107150000003
  0
LINE
  8
_0-4_文字-記号
  6
CONTINUOUS
 62
    3
 10
734.51228500000161
 20
-168.24833500000022
 11
739.3031949999995
 21
-148.19721500000014
  0
LINE
  8
_0-3_躯体と製品
  6
CONTINUOUS
 62
    3
 10
864.62954500000069
 20
-205.88033500000029
 11
864.62954500000069
 21
-228.88033500000029
  0
LINE
  8
_0-3_躯体と製品
  6
CONTINUOUS
 62
    3
 10
865.82954499999869
 20
-205.88033500000029
 11
865.82954499999869
 21
-228.88033500000029
  0
LINE
  8
_0-3_躯体と製品
  6
CONTINUOUS
 62
    3
 10
850.36554499999966
 20
-228.88033500000029
 11
851.52954500000169
 21
-228.88033500000029
  0
LINE
  8
_0-3_躯体と製品
  6
CONTINUOUS
 62
    3
 10
853.3295449999996
 20
-230.68033500000024
 11
862.8295449999996
 21
-230.68033500000024
  0
ARC
  8
_0-3_躯体と製品
  6
CONTINUOUS
 62
    3
 10
853.3295449999996
 20
-228.88033500000029
 40
1.79999
 50
180
 51
270
  0
ARC
  8
_0-3_躯体と製品
  6
CONTINUOUS
 62
    3
 10
867.62954499999978
 20
-205.88033500000029
 40
1.79999
 50
90
 51
180
  0
ARC
  8
_0-3_躯体と製品
  6
CONTINUOUS
 62
    3
 10
862.8295449999996
 20
-228.88033500000029
 40
1.79999
 50
270
 51
0
  0
ARC
  8
_0-3_躯体と製品
  6
CONTINUOUS
 62
    3
 10
867.62954499999978
 20
-205.88033500000029
 40
3
 50
90
 51
180
  0
LINE
  8
_0-3_躯体と製品
  6
CONTINUOUS
 62
    3
 10
1026.1295450000016
 20
-350.86457499999949
 11
1026.1295450000016
 21
-331.71033500000021
  0
LINE
  8
_0-3_躯体と製品
  6
CONTINUOUS
 62
    3
 10
1038.1295449999998
 20
-350.86457499999949
 11
1038.1295449999998
 21
-331.71033500000021
  0
LINE
  8
_0-4_文字-記号
  6
CONTINUOUS
 62
    3
 10
943.12954499999978
 20
-257.39333500000021
 11
902.6085450000005
 21
-357.88033500000006
  0
LINE
  8
_0-3_躯体と製品
  6
CONTINUOUS
 62
    3
 10
1014.5995449999987
 20
-569.43033499999967
 11
1072.0695449999998
 21
-469.88033499999915
  0
LINE
  8
_0-3_躯体と製品
  6
CONTINUOUS
 62
    3
 10
998.4295449999986
 20
-569.43033499999967
 11
1055.8995449999998
 21
-469.88033499999915
  0
LINE
  8
_0-3_躯体と製品
  6
CONTINUOUS
 62
    3
 10
1006.5095449999999
 20
-569.43033499999967
 11
1063.9895449999999
 21
-469.88033499999915
  0
LINE
  8
_0-3_躯体と製品
  6
CONTINUOUS
 62
    3
 10
1046.1294749999997
 20
-363.86450500000035
 11
1018.1296149999998
 21
-363.86450500000035
  0
ARC
  8
_0-3_躯体と製品
  6
CONTINUOUS
 62
    3
 10
1038.1295150000005
 20
-362.91451500000005
 40
12.049939999999999
 50
90
 51
119.86283400000599
  0
LINE
  8
_0-3_躯体と製品
  6
CONTINUOUS
 62
    3
 10
1020.1296049999996
 20
-363.86450500000035
 11
1044.1294850000018
 21
-363.86450500000035
  0
LINE
  8
_0-3_躯体と製品
  6
CONTINUOUS
 62
    3
 10
1042.5294849999996
 20
-350.86457499999949
 11
1021.7295949999998
 21
-350.86457499999949
  0
LINE
  8
_0-3_躯体と製品
  6
CONTINUOUS
 62
    4
 10
1002.1296950000019
 20
-367.86448500000017
 11
1062.1293850000006
 21
-367.86448500000017
  0
LINE
  8
_0-3_躯体と製品
  6
CONTINUOUS
 62
    4
 10
1002.1296950000019
 20
-464.68036500000051
 11
1062.1293850000006
 21
-464.68036500000051
  0
LINE
  8
_0-3_躯体と製品
  6
CONTINUOUS
 62
    4
 10
1002.1296950000019
 20
-467.88034499999992
 11
1062.1293850000006
 21
-467.88034499999992
  0
LINE
  8
_0-3_躯体と製品
  6
CONTINUOUS
 62
    4
 10
1007.1296749999988
 20
-373.97245499999963
 11
1007.1296749999988
 21
-464.68036500000051
  0
LINE
  8
_0-3_躯体と製品
  6
CONTINUOUS
 62
    4
 10
1010.3296550000009
 20
-464.68036500000051
 11
1010.3296550000009
 21
-367.86448500000017
  0
LINE
  8
_0-3_躯体と製品
  6
PLINE3
 62
    3
 10
1015.3299650000008
 20
-479.28331500000036
 11
1015.3299650000008
 21
-469.93953499999986
  0
ARC
  8
_0-3_躯体と製品
  6
CONTINUOUS
 62
    3
 10
1013.6576349999996
 20
-462.90036499999928
 40
1.9999899999999999
 50
90
 51
180
  0
LINE
  8
_0-3_躯体と製品
  6
CONTINUOUS
 62
    3
 10
1011.6576450000007
 20
-464.68036500000051
 11
1011.6576450000007
 21
-462.90036499999928
  0
LINE
  8
_0-3_躯体と製品
  6
CONTINUOUS
 62
    3
 10
1013.6576349999996
 20
-460.90037500000005
 11
1016.6576250000007
 21
-460.90037500000005
  0
LINE
  8
_0-3_躯体と製品
  6
CONTINUOUS
 62
    3
 10
1018.6576150000005
 20
-462.90036499999928
 11
1018.6576150000005
 21
-464.68036500000051
  0
ARC
  8
_0-3_躯体と製品
  6
CONTINUOUS
 62
    3
 10
1016.6576250000007
 20
-462.90036499999928
 40
1.9999899999999999
 50
0
 51
90
  0
LINE
  8
_0-3_躯体と製品
  6
CONTINUOUS
 62
    4
 10
1002.1296950000019
 20
-464.68036500000051
 11
1002.1296950000019
 21
-469.88033499999915
  0
LINE
  8
_0-3_躯体と製品
  6
CONTINUOUS
 62
    4
 10
1007.1296749999988
 20
-373.97245499999963
 11
1010.3296550000009
 21
-373.97245499999963
  0
LINE
  8
_0-3_躯体と製品
  6
CONTINUOUS
 62
    3
 10
1018.1296149999998
 20
-363.86450500000035
 11
1018.1296149999998
 21
-367.86448500000017
  0
LINE
  8
_0-3_躯体と製品
  6
CONTINUOUS
 62
    3
 10
1032.1295450000007
 20
-352.46456500000033
 11
1032.1295450000007
 21
-363.86450500000035
  0
ARC
  8
_0-3_躯体と製品
  6
CONTINUOUS
 62
    3
 10
1026.1295750000008
 20
-362.91451500000005
 40
12.049939999999999
 50
60.137165999993961
 51
90
  0
LINE
  8
_0-3_躯体と製品
  6
CONTINUOUS
 62
    3
 10
1020.1296049999996
 20
-352.46456500000033
 11
1021.7295949999998
 21
-350.86457499999949
  0
LINE
  8
_0-3_躯体と製品
  6
CONTINUOUS
 62
    3
 10
1020.1296049999996
 20
-352.46456500000033
 11
1020.1296049999996
 21
-363.86450500000035
  0
LINE
  8
_0-3_躯体と製品
  6
CONTINUOUS
 62
    4
 10
1002.1296950000019
 20
-371.06447499999956
 11
1010.3296550000009
 21
-371.06447499999956
  0
LINE
  8
_0-3_躯体と製品
  6
CONTINUOUS
 62
    4
 10
1002.1296950000019
 20
-367.86448500000017
 11
1002.1296950000019
 21
-371.06447499999956
  0
LINE
  8
_0-3_躯体と製品
  6
CONTINUOUS
 62
    4
 10
1057.1294149999999
 20
-373.97245499999963
 11
1057.1294149999999
 21
-464.68036500000051
  0
LINE
  8
_0-3_躯体と製品
  6
CONTINUOUS
 62
    4
 10
1053.9294349999996
 20
-464.68036500000051
 11
1053.9294349999996
 21
-367.86448500000017
  0
LINE
  8
_0-3_躯体と製品
  6
CONTINUOUS
 62
    4
 10
1062.1293850000006
 20
-464.68036500000051
 11
1062.1293850000006
 21
-469.88033499999915
  0
LINE
  8
_0-3_躯体と製品
  6
CONTINUOUS
 62
    4
 10
1053.9294349999996
 20
-373.97245499999963
 11
1057.1294149999999
 21
-373.97245499999963
  0
LINE
  8
_0-3_躯体と製品
  6
CONTINUOUS
 62
    3
 10
1046.1294749999997
 20
-367.86448500000017
 11
1046.1294749999997
 21
-363.86450500000035
  0
LINE
  8
_0-3_躯体と製品
  6
CONTINUOUS
 62
    3
 10
1042.5294849999996
 20
-350.86457499999949
 11
1044.1294850000018
 21
-352.46456500000033
  0
LINE
  8
_0-3_躯体と製品
  6
CONTINUOUS
 62
    3
 10
1044.1294850000018
 20
-363.86450500000035
 11
1044.1294850000018
 21
-352.46456500000033
  0
LINE
  8
_0-3_躯体と製品
  6
CONTINUOUS
 62
    4
 10
1053.9294349999996
 20
-371.06447499999956
 11
1062.1293850000006
 21
-371.06447499999956
  0
LINE
  8
_0-3_躯体と製品
  6
CONTINUOUS
 62
    4
 10
1062.1293850000006
 20
-367.86448500000017
 11
1062.1293850000006
 21
-371.06447499999956
  0
LINE
  8
_0-3_躯体と製品
  6
CONTINUOUS
 62
    3
 10
1167.6295449999998
 20
-204.0803350000001
 11
1196.6295449999989
 21
-204.0803350000001
  0
LINE
  8
_0-3_躯体と製品
  6
CONTINUOUS
 62
    3
 10
1021.7295949999998
 20
-331.68017500000019
 11
1042.5294849999996
 21
-331.68017500000019
  0
ARC
  8
_0-3_躯体と製品
  6
CONTINUOUS
 62
    3
 10
1038.1295150000005
 20
-319.63023500000031
 40
12.049939999999999
 50
240.1371659999939
 51
270
  0
ARC
  8
_0-3_躯体と製品
  6
CONTINUOUS
 62
    4
 10
1037.6295150000005
 20
-222.63072500000021
 40
0.5
 50
270
 51
0
  0
ARC
  8
_0-3_躯体と製品
  6
CONTINUOUS
 62
    4
 10
1037.6295150000005
 20
-221.13073500000019
 40
0.5
 50
0
 51
90
  0
LINE
  8
_0-3_躯体と製品
  6
CONTINUOUS
 62
    3
 10
1022.1295949999999
 20
-234.00729500000011
 11
1042.1294949999997
 21
-234.00729500000011
  0
LINE
  8
_0-3_躯体と製品
  6
CONTINUOUS
 62
    3
 10
1032.8379750000008
 20
-227.24519499999928
 11
1042.1294949999997
 21
-227.24519499999928
  0
LINE
  8
_0-3_躯体と製品
  6
CONTINUOUS
 62
    4
 10
1053.1294350000007
 20
-212.88077500000031
 11
1011.1296449999986
 21
-212.88077500000031
  0
LINE
  8
_0-3_躯体と製品
  6
CONTINUOUS
 62
    3
 10
1044.1294850000018
 20
-318.68023500000027
 11
1020.1296049999996
 21
-318.68023500000027
  0
LINE
  8
_0-3_躯体と製品
  6
CONTINUOUS
 62
    3
 10
1018.1296149999998
 20
-318.68023500000027
 11
1046.1294749999997
 21
-318.68023500000027
  0
LINE
  8
_0-3_躯体と製品
  6
CONTINUOUS
 62
    3
 10
1046.1294749999997
 20
-314.68026500000019
 11
1018.1296149999998
 21
-314.68026500000019
  0
LINE
  8
_0-3_躯体と製品
  6
CONTINUOUS
 62
    3
 10
1021.7295949999998
 20
-314.68026500000019
 11
1042.5294849999996
 21
-314.68026500000019
  0
ARC
  8
_0-3_躯体と製品
  6
CONTINUOUS
 62
    3
 10
1038.1295150000005
 20
-302.63032500000122
 40
12.049939999999999
 50
240.1371659999939
 51
270
  0
LINE
  8
_0-3_躯体と製品
  6
CONTINUOUS
 62
    4
 10
1013.6296350000007
 20
-301.68032500000027
 11
1050.6294449999996
 21
-301.68032500000027
  0
LINE
  8
_0-3_躯体と製品
  6
CONTINUOUS
 62
    4
 10
1007.1296749999988
 20
-300.18033500000024
 11
1057.1294149999999
 21
-300.18033500000024
  0
LINE
  8
_0-3_躯体と製品
  6
CONTINUOUS
 62
    3
 10
1022.1295949999999
 20
-225.09884500000021
 11
1022.1295949999999
 21
-285.66228500000011
  0
LINE
  8
_0-3_躯体と製品
  6
CONTINUOUS
 62
    3
 10
1012.1296450000009
 20
-225.09884500000021
 11
1012.1296450000009
 21
-285.66228500000011
  0
LINE
  8
_0-3_躯体と製品
  6
CONTINUOUS
 62
    4
 10
1007.1296749999988
 20
-216.88075500000014
 11
1007.1296749999988
 21
-300.18033500000024
  0
ARC
  8
_0-3_躯体と製品
  6
CONTINUOUS
 62
    3
 10
902.42954500000087
 20
-228.88033500000029
 40
4
 50
180
 51
270
  0
ARC
  8
_0-3_躯体と製品
  6
CONTINUOUS
 62
    3
 10
909.92954499999951
 20
-228.88033500000029
 40
4
 50
270
 51
0
  0
LINE
  8
_0-4_文字-記号
  6
CONTINUOUS
 62
    3
 10
943.12954499999978
 20
-257.39333500000021
 11
931.01267499999949
 21
-274.0721050000011
  0
LINE
  8
_0-4_文字-記号
  6
CONTINUOUS
 62
    3
 10
943.12954499999978
 20
-257.39333500000021
 11
940.28702500000054
 21
-277.81195500000013
  0
LINE
  8
_0-3_躯体と製品
  6
CONTINUOUS
 62
    3
 10
1020.1296049999996
 20
-318.68023500000027
 11
1020.1296049999996
 21
-330.08018500000026
  0
LINE
  8
_0-3_躯体と製品
  6
CONTINUOUS
 62
    3
 10
1032.1295450000007
 20
-330.08018500000026
 11
1032.1295450000007
 21
-318.68023500000027
  0
LINE
  8
_0-3_躯体と製品
  6
CONTINUOUS
 62
    3
 10
1021.7295949999998
 20
-331.68017500000019
 11
1020.1296049999996
 21
-330.08018500000026
  0
ARC
  8
_0-3_躯体と製品
  6
CONTINUOUS
 62
    3
 10
1026.1295750000008
 20
-319.63023500000031
 40
12.049939999999999
 50
270
 51
299.86283400000599
  0
LINE
  8
_0-3_躯体と製品
  6
CONTINUOUS
 62
    3
 10
1018.1296149999998
 20
-314.68026500000019
 11
1018.1296149999998
 21
-318.68023500000027
  0
LINE
  8
_0-3_躯体と製品
  6
CONTINUOUS
 62
    3
 10
1020.1296049999996
 20
-301.68032500000027
 11
1020.1296049999996
 21
-313.08026500000028
  0
LINE
  8
_0-3_躯体と製品
  6
CONTINUOUS
 62
    3
 10
1021.7295949999998
 20
-314.68026500000019
 11
1020.1296049999996
 21
-313.08026500000028
  0
ARC
  8
_0-3_躯体と製品
  6
CONTINUOUS
 62
    3
 10
1026.1295750000008
 20
-302.63032500000122
 40
12.049939999999999
 50
270
 51
299.86283400000599
  0
LINE
  8
_0-3_躯体と製品
  6
CONTINUOUS
 62
    3
 10
1032.1295450000007
 20
-313.08026500000028
 11
1032.1295450000007
 21
-301.68032500000027
  0
ARC
  8
_0-3_躯体と製品
  6
CONTINUOUS
 62
    3
 10
1017.1296150000007
 20
-285.66228500000011
 40
4.9999700000000002
 50
180
 51
0
  0
ARC
  8
_0-3_躯体と製品
  6
CONTINUOUS
 62
    4
 10
1013.6296350000007
 20
-300.18033500000024
 40
1.499989999999999
 50
180
 51
270
  0
LINE
  8
_0-3_躯体と製品
  6
CONTINUOUS
 62
    3
 10
1007.1296749999988
 20
-234.00729500000011
 11
1012.1296450000009
 21
-234.00729500000011
  0
LINE
  8
_0-3_躯体と製品
  6
CONTINUOUS
 62
    3
 10
899.62954500000069
 20
-205.88033500000029
 11
899.62954500000069
 21
-228.88033500000029
  0
LINE
  8
_0-3_躯体と製品
  6
CONTINUOUS
 62
    3
 10
898.42954499999951
 20
-205.88033500000029
 11
898.42954499999951
 21
-228.88033500000029
  0
LINE
  8
_0-3_躯体と製品
  6
CONTINUOUS
 62
    3
 10
912.72954499999969
 20
-228.88033500000029
 11
913.9295449999986
 21
-228.88033500000029
  0
LINE
  8
_0-3_躯体と製品
  6
CONTINUOUS
 62
    3
 10
910.9295449999986
 20
-230.68033500000024
 11
901.4295449999986
 21
-230.68033500000024
  0
ARC
  8
_0-3_躯体と製品
  6
CONTINUOUS
 62
    3
 10
896.62954499999887
 20
-205.88033500000029
 40
1.79999
 50
0
 51
90
  0
ARC
  8
_0-3_躯体と製品
  6
CONTINUOUS
 62
    3
 10
901.4295449999986
 20
-228.88033500000029
 40
1.79999
 50
180
 51
270
  0
ARC
  8
_0-3_躯体と製品
  6
CONTINUOUS
 62
    3
 10
910.9295449999986
 20
-228.88033500000029
 40
1.79999
 50
270
 51
0
  0
ARC
  8
_0-3_躯体と製品
  6
CONTINUOUS
 62
    3
 10
896.62954499999887
 20
-205.88033500000029
 40
3
 50
0
 51
90
  0
LINE
  8
_0-3_躯体と製品
  6
CONTINUOUS
 62
    3
 10
1037.1295149999996
 20
-224.76746500000013
 11
1032.1295450000007
 21
-227.65420500000027
  0
LINE
  8
_0-3_躯体と製品
  6
CONTINUOUS
 62
    3
 10
1037.1295149999996
 20
-218.99399500000027
 11
1037.1295149999996
 21
-224.76746500000013
  0
LINE
  8
_0-3_躯体と製品
  6
CONTINUOUS
 62
    3
 10
1032.1295450000007
 20
-216.1072650000001
 11
1037.1295149999996
 21
-218.99399500000027
  0
LINE
  8
_0-3_躯体と製品
  6
CONTINUOUS
 62
    3
 10
1027.1295650000006
 20
-218.99399500000027
 11
1032.1295450000007
 21
-216.1072650000001
  0
LINE
  8
_0-3_躯体と製品
  6
CONTINUOUS
 62
    3
 10
1027.1295650000006
 20
-224.76746500000013
 11
1027.1295650000006
 21
-218.99399500000027
  0
LINE
  8
_0-3_躯体と製品
  6
CONTINUOUS
 62
    3
 10
1032.1295450000007
 20
-227.65420500000027
 11
1027.1295650000006
 21
-224.76746500000013
  0
CIRCLE
  8
_0-3_躯体と製品
  6
CONTINUOUS
 62
    3
 10
1032.1295450000007
 20
-221.88073500000019
 40
2.499989999999999
  0
CIRCLE
  8
_0-3_躯体と製品
  6
CONTINUOUS
 62
    3
 10
1032.1295450000007
 20
-221.88073500000019
 40
2.999979999999999
  0
CIRCLE
  8
_0-3_躯体と製品
  6
CONTINUOUS
 62
    3
 10
1032.1295450000007
 20
-221.88073500000019
 40
4.9999700000000002
  0
LINE
  8
_0-3_躯体と製品
  6
CONTINUOUS
 62
    4
 10
1026.6295749999995
 20
-223.13072500000021
 11
1027.0305450000005
 21
-223.13072500000021
  0
ARC
  8
_0-3_躯体と製品
  6
CONTINUOUS
 62
    4
 10
1026.6295749999995
 20
-222.63072500000021
 40
0.5
 50
180
 51
270
  0
LINE
  8
_0-3_躯体と製品
  6
CONTINUOUS
 62
    4
 10
1026.1295750000008
 20
-221.13073500000019
 11
1026.1295750000008
 21
-222.63072500000021
  0
ARC
  8
_0-3_躯体と製品
  6
CONTINUOUS
 62
    4
 10
1026.6295749999995
 20
-221.13073500000019
 40
0.5
 50
90
 51
180
  0
LINE
  8
_0-3_躯体と製品
  6
CONTINUOUS
 62
    4
 10
1027.0305450000005
 20
-220.63073500000019
 11
1026.6295749999995
 21
-220.63073500000019
  0
LINE
  8
_0-3_躯体と製品
  6
CONTINUOUS
 62
    4
 10
1037.6295150000005
 20
-223.13072500000021
 11
1037.2285349999988
 21
-223.13072500000021
  0
LINE
  8
_0-3_躯体と製品
  6
CONTINUOUS
 62
    4
 10
1037.2285349999988
 20
-220.63073500000019
 11
1037.6295150000005
 21
-220.63073500000019
  0
LINE
  8
_0-3_躯体と製品
  6
CONTINUOUS
 62
    3
 10
1022.1295949999999
 20
-227.24519499999928
 11
1031.4211150000006
 21
-227.24519499999928
  0
LINE
  8
_0-3_躯体と製品
  6
CONTINUOUS
 62
    3
 10
1007.1296749999988
 20
-227.24519499999928
 11
1012.1296450000009
 21
-227.24519499999928
  0
ARC
  8
_0-3_躯体と製品
  6
CONTINUOUS
 62
    3
 10
1017.1296150000007
 20
-225.09884500000021
 40
4.9999700000000002
 50
0
 51
180
  0
ARC
  8
_0-3_躯体と製品
  6
CONTINUOUS
 62
    4
 10
1011.1296449999986
 20
-216.88075500000014
 40
3.9999799999999999
 50
90
 51
180
  0
LINE
  8
_0-3_躯体と製品
  6
CONTINUOUS
 62
    3
 10
1042.1294949999997
 20
-225.09884500000021
 11
1042.1294949999997
 21
-285.66228500000011
  0
LINE
  8
_0-3_躯体と製品
  6
CONTINUOUS
 62
    3
 10
1052.1294450000005
 20
-225.09884500000021
 11
1052.1294450000005
 21
-285.66228500000011
  0
LINE
  8
_0-3_躯体と製品
  6
CONTINUOUS
 62
    4
 10
1057.1294149999999
 20
-300.18033500000024
 11
1057.1294149999999
 21
-216.88075500000014
  0
ARC
  8
_0-3_躯体と製品
  6
CONTINUOUS
 62
    3
 10
1161.8295450000005
 20
-228.88033500000029
 40
4
 50
270
 51
0
  0
ARC
  8
_0-3_躯体と製品
  6
CONTINUOUS
 62
    3
 10
1154.3295450000019
 20
-228.88033500000029
 40
4
 50
180
 51
270
  0
LINE
  8
_0-3_躯体と製品
  6
CONTINUOUS
 62
    3
 10
1044.1294850000018
 20
-330.08018500000026
 11
1044.1294850000018
 21
-318.68023500000027
  0
LINE
  8
_0-3_躯体と製品
  6
CONTINUOUS
 62
    3
 10
1044.1294850000018
 20
-330.08018500000026
 11
1042.5294849999996
 21
-331.68017500000019
  0
LINE
  8
_0-3_躯体と製品
  6
CONTINUOUS
 62
    3
 10
1046.1294749999997
 20
-318.68023500000027
 11
1046.1294749999997
 21
-314.68026500000019
  0
LINE
  8
_0-3_躯体と製品
  6
CONTINUOUS
 62
    3
 10
1044.1294850000018
 20
-313.08026500000028
 11
1044.1294850000018
 21
-301.68032500000027
  0
LINE
  8
_0-3_躯体と製品
  6
CONTINUOUS
 62
    3
 10
1044.1294850000018
 20
-313.08026500000028
 11
1042.5294849999996
 21
-314.68026500000019
  0
ARC
  8
_0-3_躯体と製品
  6
CONTINUOUS
 62
    4
 10
1050.6294449999996
 20
-300.18033500000024
 40
1.499989999999999
 50
270
 51
0
  0
ARC
  8
_0-3_躯体と製品
  6
CONTINUOUS
 62
    3
 10
1047.1294650000009
 20
-285.66228500000011
 40
4.9999700000000002
 50
180
 51
0
  0
LINE
  8
_0-3_躯体と製品
  6
CONTINUOUS
 62
    3
 10
1052.1294450000005
 20
-234.00729500000011
 11
1057.1294149999999
 21
-234.00729500000011
  0
LINE
  8
_0-3_躯体と製品
  6
CONTINUOUS
 62
    4
 10
1038.1295150000005
 20
-221.13073500000019
 11
1038.1295150000005
 21
-222.63072500000021
  0
ARC
  8
_0-3_躯体と製品
  6
CONTINUOUS
 62
    3
 10
1047.1294650000009
 20
-225.09884500000021
 40
4.9999700000000002
 50
0
 51
180
  0
LINE
  8
_0-3_躯体と製品
  6
CONTINUOUS
 62
    3
 10
1052.1294450000005
 20
-227.24519499999928
 11
1057.1294149999999
 21
-227.24519499999928
  0
ARC
  8
_0-3_躯体と製品
  6
CONTINUOUS
 62
    4
 10
1053.1294350000007
 20
-216.88075500000014
 40
3.9999799999999999
 50
0
 51
90
  0
ARC
  8
_0-3_躯体と製品
  6
CONTINUOUS
 62
    3
 10
1153.3295449999987
 20
-228.88033500000029
 40
1.800049999999999
 50
180
 51
270
  0
LINE
  8
_0-3_躯体と製品
  6
CONTINUOUS
 62
    3
 10
1150.3695450000005
 20
-228.88033500000029
 11
1151.5295450000008
 21
-228.88033500000029
  0
LINE
  8
_0-3_躯体と製品
  6
CONTINUOUS
 62
    3
 10
1164.6295450000007
 20
-205.88033500000029
 11
1164.6295450000007
 21
-228.88033500000029
  0
LINE
  8
_0-3_躯体と製品
  6
CONTINUOUS
 62
    3
 10
1165.8295449999996
 20
-205.88033500000029
 11
1165.8295449999996
 21
-228.88033500000029
  0
LINE
  8
_0-3_躯体と製品
  6
CONTINUOUS
 62
    3
 10
1153.3295449999987
 20
-230.68033500000024
 11
1162.8295449999996
 21
-230.68033500000024
  0
ARC
  8
_0-3_躯体と製品
  6
CONTINUOUS
 62
    3
 10
1167.6295449999998
 20
-205.88033500000029
 40
1.79999
 50
90
 51
180
  0
ARC
  8
_0-3_躯体と製品
  6
CONTINUOUS
 62
    3
 10
1162.8295449999996
 20
-228.88033500000029
 40
1.79999
 50
270
 51
0
  0
ARC
  8
_0-3_躯体と製品
  6
CONTINUOUS
 62
    3
 10
1167.6295449999998
 20
-205.88033500000029
 40
3
 50
90
 51
180
  0
LINE
  8
_0-3_躯体と製品
  6
PLINE3
 62
    3
 10
1470.7795450000003
 20
-109.88033499999915
 11
1470.7795450000003
 21
-187.88033500000029
  0
ARC
  8
_0-3_躯体と製品
  6
CONTINUOUS
 62
    3
 10
1202.4295450000009
 20
-228.88033500000029
 40
4
 50
180
 51
270
  0
ARC
  8
_0-3_躯体と製品
  6
CONTINUOUS
 62
    3
 10
1209.9295449999995
 20
-228.88033500000029
 40
4
 50
270
 51
0
  0
LINE
  8
_0-3_躯体と製品
  6
CONTINUOUS
 62
    3
 10
1199.6295450000007
 20
-205.88033500000029
 11
1199.6295450000007
 21
-228.88033500000029
  0
LINE
  8
_0-3_躯体と製品
  6
CONTINUOUS
 62
    3
 10
1198.4295449999986
 20
-205.88033500000029
 11
1198.4295449999986
 21
-228.88033500000029
  0
LINE
  8
_0-3_躯体と製品
  6
CONTINUOUS
 62
    3
 10
1212.7295449999997
 20
-228.88033500000029
 11
1213.9295449999986
 21
-228.88033500000029
  0
LINE
  8
_0-3_躯体と製品
  6
CONTINUOUS
 62
    3
 10
1210.9295449999995
 20
-230.68033500000024
 11
1201.4295449999986
 21
-230.68033500000024
  0
ARC
  8
_0-3_躯体と製品
  6
CONTINUOUS
 62
    3
 10
1196.6295449999989
 20
-205.88033500000029
 40
1.800049999999999
 50
0
 51
90
  0
ARC
  8
_0-3_躯体と製品
  6
CONTINUOUS
 62
    3
 10
1201.4295449999986
 20
-228.88033500000029
 40
1.800049999999999
 50
180
 51
270
  0
ARC
  8
_0-3_躯体と製品
  6
CONTINUOUS
 62
    3
 10
1210.9295449999995
 20
-228.88033500000029
 40
1.79999
 50
270
 51
0
  0
ARC
  8
_0-3_躯体と製品
  6
CONTINUOUS
 62
    3
 10
1196.6295449999989
 20
-205.88033500000029
 40
3
 50
0
 51
90
  0
ARC
  8
_0-3_躯体と製品
  6
CONTINUOUS
 62
    3
 10
1461.8295449999996
 20
-228.88033500000029
 40
4
 50
270
 51
0
  0
ARC
  8
_0-3_躯体と製品
  6
CONTINUOUS
 62
    3
 10
1454.3295450000005
 20
-228.88033500000029
 40
4
 50
180
 51
270
  0
LINE
  8
_0-3_躯体と製品
  6
CONTINUOUS
 62
    3
 10
1453.3295449999996
 20
-230.68033500000024
 11
1462.8295450000005
 21
-230.68033500000024
  0
LINE
  8
_0-3_躯体と製品
  6
CONTINUOUS
 62
    3
 10
1450.3695450000014
 20
-228.88033500000029
 11
1451.5295450000003
 21
-228.88033500000029
  0
ARC
  8
_0-3_躯体と製品
  6
CONTINUOUS
 62
    3
 10
1453.3295449999996
 20
-228.88033500000029
 40
1.800049999999999
 50
180
 51
270
  0
LINE
  8
_0-3_躯体と製品
  6
CONTINUOUS
 62
    3
 10
1464.6295450000007
 20
-205.88033500000029
 11
1464.6295450000007
 21
-228.88033500000029
  0
LINE
  8
_0-3_躯体と製品
  6
CONTINUOUS
 62
    3
 10
1465.8295449999996
 20
-205.88033500000029
 11
1465.8295449999996
 21
-228.88033500000029
  0
ARC
  8
_0-3_躯体と製品
  6
CONTINUOUS
 62
    3
 10
1467.6295449999989
 20
-205.88033500000029
 40
1.79999
 50
90
 51
180
  0
ARC
  8
_0-3_躯体と製品
  6
CONTINUOUS
 62
    3
 10
1462.8295450000005
 20
-228.88033500000029
 40
1.79999
 50
270
 51
0
  0
ARC
  8
_0-3_躯体と製品
  6
CONTINUOUS
 62
    3
 10
1467.6295449999989
 20
-205.88033500000029
 40
3
 50
90
 51
180
  0
LINE
  8
_0-3_躯体と製品
  6
CONTINUOUS
 62
    7
 10
1635.7795450000021
 20
-283.68033500000115
 11
1635.7795450000021
 21
-464.08033499999999
  0
LINE
  8
_0-3_躯体と製品
  6
CONTINUOUS
 62
    7
 10
1678.4795450000001
 20
-289.18033500000024
 11
1678.4795450000001
 21
-464.08033499999999
  0
LINE
  8
_0-3_躯体と製品
  6
CONTINUOUS
 62
    3
 10
1498.4295449999981
 20
-569.43033499999967
 11
1555.8995450000011
 21
-469.88033499999915
  0
LINE
  8
_0-3_躯体と製品
  6
CONTINUOUS
 62
    3
 10
1506.509544999999
 20
-569.43033499999967
 11
1563.9895449999995
 21
-469.88033499999915
  0
LINE
  8
_0-3_躯体と製品
  6
CONTINUOUS
 62
    3
 10
1514.5995449999991
 20
-569.43033499999967
 11
1572.0695449999994
 21
-469.88033499999915
  0
LINE
  8
_0-3_躯体と製品
  6
CONTINUOUS
 62
    3
 10
1635.7795450000021
 20
-464.08033499999999
 11
1678.4795450000001
 21
-464.08033499999999
  0
LINE
  8
_0-3_躯体と製品
  6
CONTINUOUS
 62
    3
 10
1607.1295450000007
 20
-467.08033499999954
 11
1707.1295450000007
 21
-467.08033499999954
  0
LINE
  8
_0-3_躯体と製品
  6
CONTINUOUS
 62
    3
 10
1607.1295450000007
 20
-467.08033499999954
 11
1607.1295450000007
 21
-469.88033499999915
  0
ARC
  8
_0-3_躯体と製品
  6
CONTINUOUS
 62
    3
 10
1635.7795450000021
 20
-467.08033499999954
 40
3
 50
90
 51
180
  0
ARC
  8
_0-3_躯体と製品
  6
CONTINUOUS
 62
    3
 10
1678.4795450000001
 20
-467.08033499999954
 40
3
 50
0
 51
90
  0
LINE
  8
_0-3_躯体と製品
  6
CONTINUOUS
 62
    3
 10
1707.1295450000007
 20
-467.08033499999954
 11
1707.1295450000007
 21
-469.88033499999915
  0
LINE
  8
_0-3_躯体と製品
  6
CONTINUOUS
 62
    7
 10
1815.0222250000006
 20
-281.4803350000002
 11
1684.5995449999991
 21
-281.4803350000002
  0
LINE
  8
_0-3_躯体と製品
  6
PLINE3
 62
    3
 10
1500.7795450000021
 20
-109.88033499999915
 11
1500.7795450000021
 21
-169.88033499999915
  0
LINE
  8
_0-3_躯体と製品
  6
CONTINUOUS
 62
    3
 10
1645.7795450000003
 20
-239.18033500000024
 11
1681.1295450000016
 21
-239.18033500000024
  0
LINE
  8
_0-3_躯体と製品
  6
CONTINUOUS
 62
    4
 10
1645.7795450000003
 20
-249.18033500000024
 11
1684.3795449999998
 21
-249.18033500000024
  0
ARC
  8
_0-3_躯体と製品
  6
CONTINUOUS
 62
    3
 10
1650.1295449999998
 20
-260.18033500000115
 40
3
 50
90
 51
180
  0
LINE
  8
_0-3_躯体と製品
  6
CONTINUOUS
 62
    3
 10
1644.8395450000007
 20
-289.18033500000024
 11
1681.1295450000016
 21
-289.18033500000024
  0
LINE
  8
_0-3_躯体と製品
  6
CONTINUOUS
 62
    4
 10
1645.7795450000003
 20
-279.18033500000024
 11
1684.3795449999998
 21
-279.18033500000024
  0
ARC
  8
_0-3_躯体と製品
  6
CONTINUOUS
 62
    3
 10
1650.1295449999998
 20
-268.18033500000024
 40
3
 50
180
 51
270
  0
ARC
  8
_0-3_躯体と製品
  6
CONTINUOUS
 62
    3
 10
1502.4295450000009
 20
-228.88033500000029
 40
4
 50
180
 51
270
  0
ARC
  8
_0-3_躯体と製品
  6
CONTINUOUS
 62
    3
 10
1509.9295450000009
 20
-228.88033500000029
 40
4
 50
270
 51
0
  0
LINE
  8
_0-3_躯体と製品
  6
CONTINUOUS
 62
    3
 10
1645.7795450000003
 20
-289.18033500000024
 11
1635.7795450000021
 21
-283.68033500000115
  0
LINE
  8
_0-3_躯体と製品
  6
CONTINUOUS
 62
    3
 10
1624.6295450000007
 20
-283.68033500000115
 11
1624.6295450000007
 21
-286.68033500000024
  0
LINE
  8
_0-3_躯体と製品
  6
CONTINUOUS
 62
    3
 10
1629.6295450000007
 20
-283.68033500000115
 11
1629.6295450000007
 21
-286.68033500000024
  0
ARC
  8
_0-3_躯体と製品
  6
CONTINUOUS
 62
    3
 10
1623.6095449999984
 20
-278.68033500000024
 40
5
 50
180
 51
270
  0
LINE
  8
_0-3_躯体と製品
  6
CONTINUOUS
 62
    3
 10
1612.1295450000007
 20
-244.18033500000024
 11
1612.1295450000007
 21
-284.18033500000024
  0
LINE
  8
_0-3_躯体と製品
  6
CONTINUOUS
 62
    3
 10
1614.6295450000007
 20
-244.18033500000024
 11
1614.6295450000007
 21
-284.18033500000024
  0
LINE
  8
_0-3_躯体と製品
  6
CONTINUOUS
 62
    3
 10
1617.1295450000007
 20
-289.18033500000024
 11
1635.7795450000021
 21
-289.18033500000024
  0
LINE
  8
_0-3_躯体と製品
  6
CONTINUOUS
 62
    3
 10
1617.1295450000007
 20
-286.68033500000024
 11
1635.7795450000021
 21
-286.68033500000024
  0
LINE
  8
_0-3_躯体と製品
  6
CONTINUOUS
 62
    3
 10
1622.1295450000007
 20
-291.18033500000024
 11
1632.1295449999998
 21
-291.18033500000024
  0
LINE
  8
_0-3_躯体と製品
  6
CONTINUOUS
 62
    3
 10
1632.1295449999998
 20
-289.18033500000024
 11
1632.1295449999998
 21
-291.18033500000024
  0
LINE
  8
_0-3_躯体と製品
  6
CONTINUOUS
 62
    3
 10
1622.1295450000007
 20
-289.18033500000024
 11
1622.1295450000007
 21
-291.18033500000024
  0
ARC
  8
_0-3_躯体と製品
  6
CONTINUOUS
 62
    3
 10
1617.1295450000007
 20
-284.18033500000024
 40
5
 50
180
 51
270
  0
ARC
  8
_0-3_躯体と製品
  6
CONTINUOUS
 62
    3
 10
1617.1295450000007
 20
-284.18033500000024
 40
2.5
 50
180
 51
270
  0
LINE
  8
_0-3_躯体と製品
  6
CONTINUOUS
 62
    4
 10
1635.7795450000021
 20
-232.88033500000029
 11
1635.7795450000021
 21
-244.68033500000024
  0
LINE
  8
_0-3_躯体と製品
  6
CONTINUOUS
 62
    3
 10
1617.1295450000007
 20
-239.18033500000024
 11
1635.7795450000021
 21
-239.18033500000024
  0
LINE
  8
_0-3_躯体と製品
  6
CONTINUOUS
 62
    3
 10
1617.1295450000007
 20
-241.68033500000024
 11
1635.7795450000021
 21
-241.68033500000024
  0
LINE
  8
_0-3_躯体と製品
  6
CONTINUOUS
 62
    3
 10
1624.6295450000007
 20
-241.68033500000024
 11
1624.6295450000007
 21
-244.68033500000024
  0
LINE
  8
_0-3_躯体と製品
  6
CONTINUOUS
 62
    3
 10
1629.6295450000007
 20
-241.68033500000024
 11
1629.6295450000007
 21
-244.68033500000024
  0
LINE
  8
_0-3_躯体と製品
  6
CONTINUOUS
 62
    3
 10
1622.1295450000007
 20
-237.18033500000024
 11
1632.1295449999998
 21
-237.18033500000024
  0
LINE
  8
_0-3_躯体と製品
  6
CONTINUOUS
 62
    3
 10
1632.1295449999998
 20
-237.18033500000024
 11
1632.1295449999998
 21
-239.18033500000024
  0
LINE
  8
_0-3_躯体と製品
  6
CONTINUOUS
 62
    3
 10
1622.1295450000007
 20
-237.18033500000024
 11
1622.1295450000007
 21
-239.18033500000024
  0
LINE
  8
_0-3_躯体と製品
  6
CONTINUOUS
 62
    3
 10
1623.6095449999984
 20
-244.68033500000024
 11
1635.7795450000021
 21
-244.68033500000024
  0
LINE
  8
_0-3_躯体と製品
  6
CONTINUOUS
 62
    3
 10
1645.7795450000003
 20
-239.18033500000024
 11
1635.7795450000021
 21
-244.68033500000024
  0
ARC
  8
_0-3_躯体と製品
  6
CONTINUOUS
 62
    3
 10
1617.1295450000007
 20
-244.18033500000024
 40
5
 50
90
 51
180
  0
ARC
  8
_0-3_躯体と製品
  6
CONTINUOUS
 62
    3
 10
1617.1295450000007
 20
-244.18033500000024
 40
2.5
 50
90
 51
180
  0
ARC
  8
_0-3_躯体と製品
  6
CONTINUOUS
 62
    3
 10
1623.6095449999984
 20
-249.68033500000024
 40
5
 50
90
 51
180
  0
LINE
  8
_0-3_躯体と製品
  6
CONTINUOUS
 62
    3
 10
1623.6095449999984
 20
-283.68033500000115
 11
1635.7795450000021
 21
-283.68033500000115
  0
LINE
  8
_0-3_躯体と製品
  6
CONTINUOUS
 62
    3
 10
1618.6095449999993
 20
-249.68033500000024
 11
1618.6095449999993
 21
-278.68033500000024
  0
LINE
  8
_0-3_躯体と製品
  6
CONTINUOUS
 62
    3
 10
1499.6295450000007
 20
-205.88033500000029
 11
1499.6295450000007
 21
-228.88033500000029
  0
LINE
  8
_0-3_躯体と製品
  6
CONTINUOUS
 62
    3
 10
1498.4295449999981
 20
-205.88033500000029
 11
1498.4295449999981
 21
-228.88033500000029
  0
LINE
  8
_0-3_躯体と製品
  6
CONTINUOUS
 62
    3
 10
1512.7295450000011
 20
-228.88033500000029
 11
1513.9295449999991
 21
-228.88033500000029
  0
LINE
  8
_0-3_躯体と製品
  6
CONTINUOUS
 62
    3
 10
1510.9295449999991
 20
-230.68033500000024
 11
1501.4295449999991
 21
-230.68033500000024
  0
ARC
  8
_0-3_躯体と製品
  6
CONTINUOUS
 62
    3
 10
1496.6295449999989
 20
-205.88033500000029
 40
1.800049999999999
 50
0
 51
90
  0
ARC
  8
_0-3_躯体と製品
  6
CONTINUOUS
 62
    3
 10
1501.4295449999991
 20
-228.88033500000029
 40
1.800049999999999
 50
180
 51
270
  0
ARC
  8
_0-3_躯体と製品
  6
CONTINUOUS
 62
    3
 10
1510.9295449999991
 20
-228.88033500000029
 40
1.79999
 50
270
 51
0
  0
ARC
  8
_0-3_躯体と製品
  6
CONTINUOUS
 62
    3
 10
1496.6295449999989
 20
-205.88033500000029
 40
3
 50
0
 51
90
  0
ARC
  8
_0-3_躯体と製品
  6
CONTINUOUS
 62
    3
 10
1692.1295450000007
 20
-284.18033500000024
 40
8
 50
90
 51
180
  0
LINE
  8
_0-3_躯体と製品
  6
CONTINUOUS
 62
    3
 10
1684.1295449999989
 20
-284.18033500000024
 11
1684.1295449999989
 21
-286.18033500000115
  0
ARC
  8
_0-3_躯体と製品
  6
CONTINUOUS
 62
    3
 10
1681.1295450000016
 20
-286.18033500000115
 40
3
 50
270
 51
0
  0
ARC
  8
_0-3_躯体と製品
  6
CONTINUOUS
 62
    3
 10
1692.1295450000007
 20
-244.18033500000024
 40
8
 50
180
 51
270
  0
LINE
  8
_0-3_躯体と製品
  6
CONTINUOUS
 62
    3
 10
1684.1295449999989
 20
-242.18033500000024
 11
1684.1295449999989
 21
-244.18033500000024
  0
LINE
  8
_0-3_躯体と製品
  6
CONTINUOUS
 62
    3
 10
1650.1295449999998
 20
-257.18033500000024
 11
1659.1295449999989
 21
-257.18033500000024
  0
LINE
  8
_0-3_躯体と製品
  6
CONTINUOUS
 62
    3
 10
1673.1295449999998
 20
-257.18033500000024
 11
1675.4795450000011
 21
-257.18033500000024
  0
LINE
  8
_0-3_躯体と製品
  6
CONTINUOUS
 62
    4
 10
1678.4795450000001
 20
-232.88033500000029
 11
1678.4795450000001
 21
-239.18033500000024
  0
ARC
  8
_0-3_躯体と製品
  6
CONTINUOUS
 62
    3
 10
1681.1295450000016
 20
-242.18033500000024
 40
3
 50
0
 51
90
  0
ARC
  8
_0-3_躯体と製品
  6
CONTINUOUS
 62
    3
 10
1675.4795450000011
 20
-260.18033500000115
 40
3
 50
0
 51
90
  0
ARC
  8
_0-3_躯体と製品
  6
CONTINUOUS
 62
    3
 10
1673.1295449999998
 20
-260.18033500000115
 40
3
 50
90
 51
180
  0
ARC
  8
_0-3_躯体と製品
  6
CONTINUOUS
 62
    3
 10
1659.1295449999989
 20
-260.18033500000115
 40
3
 50
0
 51
90
  0
LINE
  8
_0-3_躯体と製品
  6
CONTINUOUS
 62
    3
 10
1650.1295449999998
 20
-271.18033500000024
 11
1659.1295449999989
 21
-271.18033500000024
  0
LINE
  8
_0-3_躯体と製品
  6
CONTINUOUS
 62
    3
 10
1673.1295449999998
 20
-271.18033500000024
 11
1675.4795450000011
 21
-271.18033500000024
  0
ARC
  8
_0-3_躯体と製品
  6
CONTINUOUS
 62
    3
 10
1675.4795450000011
 20
-268.18033500000024
 40
3
 50
270
 51
0
  0
ARC
  8
_0-3_躯体と製品
  6
CONTINUOUS
 62
    3
 10
1673.1295449999998
 20
-268.18033500000024
 40
3
 50
180
 51
270
  0
ARC
  8
_0-3_躯体と製品
  6
CONTINUOUS
 62
    3
 10
1659.1295449999989
 20
-268.18033500000024
 40
3
 50
270
 51
0
  0
LINE
  8
_0-3_躯体と製品
  6
CONTINUOUS
 62
    3
 10
1678.4795450000001
 20
-260.18033500000115
 11
1678.4795450000001
 21
-268.18033500000024
  0
LINE
  8
_0-3_躯体と製品
  6
CONTINUOUS
 62
    3
 10
1647.1295450000007
 20
-260.18033500000115
 11
1647.1295450000007
 21
-268.18033500000024
  0
LINE
  8
_0-3_躯体と製品
  6
CONTINUOUS
 62
    3
 10
1662.1295450000007
 20
-260.18033500000115
 11
1662.1295450000007
 21
-268.18033500000024
  0
LINE
  8
_0-3_躯体と製品
  6
CONTINUOUS
 62
    3
 10
1670.1295449999998
 20
-260.18033500000115
 11
1670.1295449999998
 21
-268.18033500000024
  0
LINE
  8
_0-3_躯体と製品
  6
CONTINUOUS
 62
    3
 10
1712.1295450000007
 20
-257.18033500000024
 11
1712.1295450000007
 21
-259.18033500000024
  0
LINE
  8
_0-3_躯体と製品
  6
CONTINUOUS
 62
    3
 10
1692.1295450000007
 20
-252.1803349999991
 11
1707.1295450000007
 21
-252.1803349999991
  0
LINE
  8
_0-3_躯体と製品
  6
CONTINUOUS
 62
    3
 10
1705.3095450000001
 20
-259.07833500000015
 11
1704.9795449999983
 21
-258.18033500000024
  0
LINE
  8
_0-3_躯体と製品
  6
CONTINUOUS
 62
    3
 10
1702.3395450000007
 20
-259.07833500000015
 11
1705.3395449999998
 21
-259.07833500000015
  0
LINE
  8
_0-3_躯体と製品
  6
CONTINUOUS
 62
    3
 10
1695.1895450000011
 20
-258.18033500000024
 11
1704.9995450000006
 21
-258.18033500000024
  0
LINE
  8
_0-3_躯体と製品
  6
CONTINUOUS
 62
    3
 10
1692.1895449999984
 20
-259.18033500000024
 11
1693.4395449999984
 21
-259.18033500000024
  0
LINE
  8
_0-3_躯体と製品
  6
CONTINUOUS
 62
    3
 10
1705.3495449999991
 20
-259.18033500000024
 11
1712.1295450000007
 21
-259.18033500000024
  0
ARC
  8
_0-3_躯体と製品
  6
CONTINUOUS
 62
    3
 10
1707.1295450000007
 20
-257.18033500000024
 40
5
 50
0
 51
90
  0
LINE
  8
_0-3_躯体と製品
  6
CONTINUOUS
 62
    3
 10
1694.7195450000008
 20
-264.18033500000024
 11
1698.1895450000011
 21
-258.18033500000024
  0
LINE
  8
_0-3_躯体と製品
  6
CONTINUOUS
 62
    3
 10
1691.7195449999999
 20
-264.18033500000024
 11
1695.1895450000011
 21
-258.18033500000024
  0
ARC
  8
_0-3_躯体と製品
  6
CONTINUOUS
 62
    3
 10
1692.1895449999984
 20
-264.18033500000024
 40
5
 50
90
 51
180
  0
LINE
  8
_0-3_躯体と製品
  6
CONTINUOUS
 62
    3
 10
1692.1295450000007
 20
-276.18033500000024
 11
1707.1295450000007
 21
-276.18033500000024
  0
LINE
  8
_0-3_躯体と製品
  6
CONTINUOUS
 62
    3
 10
1712.1295450000007
 20
-269.18033500000024
 11
1712.1295450000007
 21
-271.18033500000024
  0
LINE
  8
_0-3_躯体と製品
  6
CONTINUOUS
 62
    3
 10
1705.3595449999984
 20
-269.07833500000015
 11
1704.9595449999988
 21
-270.18033500000115
  0
LINE
  8
_0-3_躯体と製品
  6
CONTINUOUS
 62
    3
 10
1702.3395450000007
 20
-269.07833500000015
 11
1705.3395449999998
 21
-269.07833500000015
  0
LINE
  8
_0-3_躯体と製品
  6
CONTINUOUS
 62
    3
 10
1695.1895450000011
 20
-270.18033500000115
 11
1704.9695449999999
 21
-270.18033500000115
  0
LINE
  8
_0-3_躯体と製品
  6
CONTINUOUS
 62
    3
 10
1692.1895449999984
 20
-269.18033500000024
 11
1693.4595450000006
 21
-269.18033500000024
  0
LINE
  8
_0-3_躯体と製品
  6
CONTINUOUS
 62
    3
 10
1705.9295449999991
 20
-269.18033500000024
 11
1712.1295450000007
 21
-269.18033500000024
  0
ARC
  8
_0-3_躯体と製品
  6
CONTINUOUS
 62
    3
 10
1707.1295450000007
 20
-271.18033500000024
 40
5
 50
270
 51
0
  0
ARC
  8
_0-3_躯体と製品
  6
CONTINUOUS
 62
    3
 10
1702.3395450000007
 20
-264.07833500000015
 40
5
 50
90
 51
270
  0
CIRCLE
  8
_0-3_躯体と製品
  6
CONTINUOUS
 62
    3
 10
1705.3395449999998
 20
-264.07833500000015
 40
5
  0
ARC
  8
_0-3_躯体と製品
  6
CONTINUOUS
 62
    3
 10
1699.6995450000004
 20
-264.1683350000003
 40
8.0000300000000006
 50
48.457500000002199
 51
311.27700000000442
  0
LINE
  8
_0-3_躯体と製品
  6
CONTINUOUS
 62
    3
 10
1694.7195450000008
 20
-264.18033500000024
 11
1698.1895450000011
 21
-270.18033500000115
  0
LINE
  8
_0-3_躯体と製品
  6
CONTINUOUS
 62
    3
 10
1691.7195449999999
 20
-264.18033500000024
 11
1695.1895450000011
 21
-270.18033500000115
  0
ARC
  8
_0-3_躯体と製品
  6
CONTINUOUS
 62
    3
 10
1692.1895449999984
 20
-264.18033500000024
 40
5
 50
180
 51
270
  0
LINE
  8
_0-3_躯体と製品
  6
CONTINUOUS
 62
    4
 10
432.12954500000069
 20
767.11966499999994
 11
1632.1295449999998
 21
767.11966499999994
  0
LINE
  8
_0-3_躯体と製品
  6
CONTINUOUS
 62
    4
 10
432.12954500000069
 20
717.11966499999994
 11
1632.1295449999998
 21
717.11966499999994
  0
LINE
  8
_0-3_躯体と製品
  6
PLINE3
 62
    3
 10
528.47954499999969
 20
530.11966500000085
 11
1535.7795450000021
 21
530.11966500000085
  0
TEXT
  8
_0-4_文字-記号
 62
    7
 10
689.83424499999956
 20
896.74466499999994
 40
50
 41
0.8
 50
0
  1
ステージ
  0
LINE
  8
_0-3_躯体と製品
  6
CONTINUOUS
 62
    3
 10
876.4295449999986
 20
768.11966499999994
 11
885.42954499999951
 21
768.11966499999994
  0
LINE
  8
_0-3_躯体と製品
  6
CONTINUOUS
 62
    3
 10
882.12954499999978
 20
769.31966499999976
 11
885.9295449999986
 21
769.31966499999976
  0
LINE
  8
_0-3_躯体と製品
  6
CONTINUOUS
 62
    3
 10
407.12954500000069
 20
516.71760499999982
 11
407.12954500000069
 21
505.3176649999989
  0
LINE
  8
_0-3_躯体と製品
  6
CONTINUOUS
 62
    3
 10
395.12960499999963
 20
516.71760499999982
 11
395.12960499999963
 21
505.3176649999989
  0
LINE
  8
_0-3_躯体と製品
  6
CONTINUOUS
 62
    3
 10
419.12948500000175
 20
505.3176649999989
 11
419.12948500000175
 21
516.71760499999982
  0
TEXT
  8
_0-4_文字-記号
 62
    7
 10
533.02561499999956
 20
236.24402499999974
 40
50
 41
0.8
 50
0
  1
支持脚　ステ－ジ用
  0
LINE
  8
_0-4_文字-記号
  6
CONTINUOUS
 62
    3
 10
503.1411849999995
 20
230.03191500000071
 11
842.88318500000059
 21
230.03191500000071
  0
LINE
  8
_0-4_文字-記号
  6
CONTINUOUS
 62
    3
 10
425.09454499999947
 20
365.21266499999979
 11
503.1411849999995
 21
230.03191500000071
  0
LINE
  8
_0-3_躯体と製品
  6
CONTINUOUS
 62
    3
 10
381.92954500000087
 20
494.11766499999976
 11
432.32954500000051
 21
494.11766499999976
  0
LINE
  8
_0-4_文字-記号
  6
CONTINUOUS
 62
    3
 10
425.09454499999947
 20
365.21266499999979
 11
430.76441500000192
 21
345.39215500000068
  0
LINE
  8
_0-4_文字-記号
  6
CONTINUOUS
 62
    3
 10
425.09454499999947
 20
365.21266499999979
 11
439.42466499999955
 21
350.39215500000068
  0
LINE
  8
_0-3_躯体と製品
  6
CONTINUOUS
 62
    3
 10
407.12954500000069
 20
505.3176649999989
 11
428.3295449999996
 21
505.3176649999989
  0
LINE
  8
_0-3_躯体と製品
  6
CONTINUOUS
 62
    3
 10
384.57854499999985
 20
460.03166499999975
 11
384.57854499999985
 21
430.43166499999984
  0
LINE
  8
_0-3_躯体と製品
  6
CONTINUOUS
 62
    3
 10
373.77854500000058
 20
429.2316650000007
 11
385.77854500000058
 21
429.2316650000007
  0
LINE
  8
_0-3_躯体と製品
  6
CONTINUOUS
 62
    3
 10
373.77854500000058
 20
430.43166499999984
 11
384.57854499999985
 21
430.43166499999984
  0
LINE
  8
_0-3_躯体と製品
  6
CONTINUOUS
 62
    3
 10
373.69554500000049
 20
430.43166499999984
 11
373.69554500000049
 21
429.2316650000007
  0
LINE
  8
_0-3_躯体と製品
  6
CONTINUOUS
 62
    3
 10
385.92954500000178
 20
505.3176649999989
 11
407.12954500000069
 21
505.3176649999989
  0
LINE
  8
_0-3_躯体と製品
  6
CONTINUOUS
 62
    3
 10
373.77854500000058
 20
461.23166499999979
 11
385.77854500000058
 21
461.23166499999979
  0
LINE
  8
_0-3_躯体と製品
  6
CONTINUOUS
 62
    3
 10
373.77854500000058
 20
460.03166499999975
 11
384.57854499999985
 21
460.03166499999975
  0
LINE
  8
_0-3_躯体と製品
  6
CONTINUOUS
 62
    3
 10
373.69554500000049
 20
461.23166499999979
 11
373.69554500000049
 21
460.03166499999975
  0
LINE
  8
_0-3_躯体と製品
  6
CONTINUOUS
 62
    3
 10
381.92954500000087
 20
501.31766499999981
 11
381.92954500000087
 21
494.11766499999976
  0
LINE
  8
_0-3_躯体と製品
  6
CONTINUOUS
 62
    3
 10
381.92954500000087
 20
494.11766499999976
 11
381.92954500000087
 21
474.91766499999972
  0
LINE
  8
_0-3_躯体と製品
  6
CONTINUOUS
 62
    3
 10
385.77954500000078
 20
474.91766499999972
 11
381.92954500000087
 21
474.91766499999972
  0
LINE
  8
_0-3_躯体と製品
  6
CONTINUOUS
 62
    3
 10
380.64154500000177
 20
485.41766499999972
 11
381.92954500000087
 21
485.41766499999972
  0
LINE
  8
_0-3_躯体と製品
  6
CONTINUOUS
 62
    3
 10
381.92954500000087
 20
485.41766499999972
 11
381.92954500000087
 21
476.41766499999972
  0
LINE
  8
_0-3_躯体と製品
  6
CONTINUOUS
 62
    3
 10
380.64154500000177
 20
476.41766499999972
 11
381.92954500000087
 21
476.41766499999972
  0
ARC
  8
_0-3_躯体と製品
  6
CONTINUOUS
 62
    3
 10
385.92954500000178
 20
501.31766499999981
 40
4
 50
90
 51
180
  0
ARC
  8
_0-3_躯体と製品
  6
CONTINUOUS
 62
    3
 10
390.62954499999978
 20
480.91766500000085
 40
12
 50
163.80899999999662
 51
196.19100000000333
  0
ARC
  8
_0-3_躯体と製品
  6
CONTINUOUS
 62
    3
 10
380.64154500000177
 20
478.01766499999985
 40
1.59999
 50
196.1910000000033
 51
270
  0
ARC
  8
_0-3_躯体と製品
  6
CONTINUOUS
 62
    3
 10
380.64154500000177
 20
483.81766499999981
 40
1.6000099999999999
 50
90
 51
163.80899999999659
  0
LINE
  8
_0-3_躯体と製品
  6
CONTINUOUS
 62
    3
 10
432.32954500000051
 20
494.11766499999976
 11
432.32954500000051
 21
474.91766499999972
  0
LINE
  8
_0-3_躯体と製品
  6
CONTINUOUS
 62
    3
 10
428.4795450000006
 20
474.91766499999972
 11
432.32954500000051
 21
474.91766499999972
  0
LINE
  8
_0-3_躯体と製品
  6
CONTINUOUS
 62
    3
 10
433.61754499999961
 20
485.41766499999972
 11
432.32954500000051
 21
485.41766499999972
  0
LINE
  8
_0-3_躯体と製品
  6
CONTINUOUS
 62
    3
 10
432.32954500000051
 20
485.41766499999972
 11
432.32954500000051
 21
476.41766499999972
  0
LINE
  8
_0-3_躯体と製品
  6
CONTINUOUS
 62
    3
 10
433.61754499999961
 20
476.41766499999972
 11
432.32954500000051
 21
476.41766499999972
  0
LINE
  8
_0-3_躯体と製品
  6
CONTINUOUS
 62
    3
 10
432.32954500000051
 20
501.31766499999981
 11
432.32954500000051
 21
494.11766499999976
  0
ARC
  8
_0-3_躯体と製品
  6
CONTINUOUS
 62
    3
 10
423.62954499999978
 20
480.91766500000085
 40
12
 50
343.80899999999667
 51
16.191300000001348
  0
ARC
  8
_0-3_躯体と製品
  6
CONTINUOUS
 62
    3
 10
433.61754499999961
 20
478.01766499999985
 40
1.6000099999999999
 50
270
 51
343.80899999999667
  0
ARC
  8
_0-3_躯体と製品
  6
CONTINUOUS
 62
    3
 10
433.61754499999961
 20
483.81766499999981
 40
1.59999
 50
16.19139999999916
 51
90
  0
ARC
  8
_0-3_躯体と製品
  6
CONTINUOUS
 62
    3
 10
428.3295449999996
 20
501.31766499999981
 40
4
 50
0
 51
90
  0
LINE
  8
_0-3_躯体と製品
  6
CONTINUOUS
 62
    3
 10
576.4295449999986
 20
769.31966499999976
 11
581.7295450000006
 21
769.31966499999976
  0
LINE
  8
_0-3_躯体と製品
  6
CONTINUOUS
 62
    3
 10
576.4295449999986
 20
768.11966499999994
 11
585.42954499999951
 21
768.11966499999994
  0
LINE
  8
_0-3_躯体と製品
  6
CONTINUOUS
 62
    3
 10
417.12936500000069
 20
774.18162499999994
 11
417.12936500000069
 21
713.61818499999958
  0
LINE
  8
_0-3_躯体と製品
  6
CONTINUOUS
 62
    3
 10
397.12946500000089
 20
774.18162499999994
 11
397.12946500000089
 21
713.61818499999958
  0
LINE
  8
_0-3_躯体と製品
  6
CONTINUOUS
 62
    3
 10
387.12951499999963
 20
774.18162499999994
 11
387.12951499999963
 21
713.61818499999958
  0
LINE
  8
_0-3_躯体と製品
  6
CONTINUOUS
 62
    3
 10
427.12931499999968
 20
774.18162499999994
 11
427.12931499999968
 21
713.61818499999958
  0
LINE
  8
_0-3_躯体と製品
  6
CONTINUOUS
 62
    4
 10
382.12954500000069
 20
783.09606500000086
 11
382.12954500000069
 21
699.81966499999885
  0
LINE
  8
_0-3_躯体と製品
  6
CONTINUOUS
 62
    4
 10
432.12954500000069
 20
782.39970499999959
 11
432.12954500000069
 21
699.81966499999885
  0
LINE
  8
_0-3_躯体と製品
  6
CONTINUOUS
 62
    4
 10
382.12954500000069
 20
699.81966499999885
 11
432.12954500000069
 21
699.81966499999885
  0
LINE
  8
_0-3_躯体と製品
  6
CONTINUOUS
 62
    3
 10
415.12954499999978
 20
668.29256499999974
 11
415.12954499999978
 21
536.24466499999971
  0
LINE
  8
_0-3_躯体と製品
  6
CONTINUOUS
 62
    3
 10
399.12954500000069
 20
668.29256499999974
 11
399.12954500000069
 21
536.31766499999981
  0
LINE
  8
_0-3_躯体と製品
  6
CONTINUOUS
 62
    3
 10
399.12954500000069
 20
581.54266499999972
 11
399.12954500000069
 21
536.31766499999981
  0
ARC
  8
_0-3_躯体と製品
  6
CONTINUOUS
 62
    3
 10
401.12957499999948
 20
506.26766499999985
 40
12.049939999999999
 50
60.137165999993961
 51
90
  0
ARC
  8
_0-3_躯体と製品
  6
CONTINUOUS
 62
    3
 10
413.12951500000054
 20
506.26766499999985
 40
12.049939999999999
 50
90
 51
119.86283400000599
  0
LINE
  8
_0-3_躯体と製品
  6
CONTINUOUS
 62
    3
 10
395.12960499999963
 20
516.71760499999982
 11
396.72959499999979
 21
518.31759499999976
  0
LINE
  8
_0-3_躯体と製品
  6
CONTINUOUS
 62
    3
 10
417.52948499999957
 20
518.31759499999976
 11
419.12948500000175
 21
516.71760499999982
  0
LINE
  8
_0-3_躯体と製品
  6
CONTINUOUS
 62
    3
 10
417.52948499999957
 20
518.31759499999976
 11
396.72959499999979
 21
518.31759499999976
  0
LINE
  8
_0-3_躯体と製品
  6
CONTINUOUS
 62
    3
 10
407.12954500000069
 20
534.71760499999868
 11
407.12954500000069
 21
523.31766500000072
  0
ARC
  8
_0-3_躯体と製品
  6
CONTINUOUS
 62
    3
 10
401.12957499999948
 20
524.26766499999871
 40
12.049939999999999
 50
60.137165999993961
 51
90
  0
ARC
  8
_0-3_躯体と製品
  6
CONTINUOUS
 62
    3
 10
413.12951500000054
 20
524.26766499999871
 40
12.049939999999999
 50
90
 51
119.86283400000599
  0
LINE
  8
_0-3_躯体と製品
  6
CONTINUOUS
 62
    3
 10
395.12960499999963
 20
534.71760499999868
 11
396.72959499999979
 21
536.31759499999976
  0
LINE
  8
_0-3_躯体と製品
  6
CONTINUOUS
 62
    3
 10
417.52948499999957
 20
536.31759499999976
 11
419.12948500000175
 21
534.71760499999868
  0
LINE
  8
_0-3_躯体と製品
  6
CONTINUOUS
 62
    3
 10
395.12960499999963
 20
534.71760499999868
 11
395.12960499999963
 21
523.31766500000072
  0
LINE
  8
_0-3_躯体と製品
  6
CONTINUOUS
 62
    3
 10
419.12948500000175
 20
523.31766500000072
 11
419.12948500000175
 21
534.71760499999868
  0
LINE
  8
_0-3_躯体と製品
  6
CONTINUOUS
 62
    3
 10
417.52948499999957
 20
536.31759499999976
 11
396.72959499999979
 21
536.31759499999976
  0
LINE
  8
_0-3_躯体と製品
  6
CONTINUOUS
 62
    3
 10
421.47954499999969
 20
523.31766500000072
 11
421.47954499999969
 21
518.31766500000072
  0
LINE
  8
_0-3_躯体と製品
  6
CONTINUOUS
 62
    3
 10
392.77954500000078
 20
523.31766500000072
 11
421.47954499999969
 21
523.31766500000072
  0
LINE
  8
_0-3_躯体と製品
  6
CONTINUOUS
 62
    3
 10
392.77954500000078
 20
518.31766500000072
 11
392.77954500000078
 21
523.31766500000072
  0
LINE
  8
_0-3_躯体と製品
  6
CONTINUOUS
 62
    3
 10
421.47954499999969
 20
518.31766500000072
 11
392.77954500000078
 21
518.31766500000072
  0
ARC
  8
_0-3_躯体と製品
  6
CONTINUOUS
 62
    3
 10
392.12949499999968
 20
713.61818499999958
 40
4.9999700000000002
 50
180
 51
0
  0
LINE
  8
_0-3_躯体と製品
  6
CONTINUOUS
 62
    3
 10
389.72754500000065
 20
698.31966499999976
 11
424.53154499999982
 21
698.31966499999976
  0
ARC
  8
_0-3_躯体と製品
  6
CONTINUOUS
 62
    3
 10
389.72754500000065
 20
701.31966499999976
 40
3.0000100000000001
 50
209.99999999999719
 51
270
  0
ARC
  8
_0-3_躯体と製品
  6
CONTINUOUS
 62
    3
 10
422.12933499999963
 20
713.61818499999958
 40
4.9999700000000002
 50
180
 51
0
  0
LINE
  8
_0-3_躯体と製品
  6
CONTINUOUS
 62
    3
 10
395.12960499999963
 20
681.3197550000009
 11
395.12960499999963
 21
669.91981499999883
  0
LINE
  8
_0-3_躯体と製品
  6
CONTINUOUS
 62
    3
 10
419.12948500000175
 20
669.91981499999883
 11
419.12948500000175
 21
681.3197550000009
  0
LINE
  8
_0-3_躯体と製品
  6
CONTINUOUS
 62
    3
 10
407.12954500000069
 20
669.91981499999883
 11
407.12954500000069
 21
681.3197550000009
  0
LINE
  8
_0-3_躯体と製品
  6
CONTINUOUS
 62
    3
 10
396.72959499999979
 20
668.3198149999987
 11
417.52948499999957
 21
668.3198149999987
  0
LINE
  8
_0-3_躯体と製品
  6
CONTINUOUS
 62
    3
 10
396.72959499999979
 20
668.3198149999987
 11
395.12960499999963
 21
669.91981499999883
  0
LINE
  8
_0-3_躯体と製品
  6
CONTINUOUS
 62
    3
 10
419.12948500000175
 20
669.91981499999883
 11
417.52948499999957
 21
668.3198149999987
  0
ARC
  8
_0-3_躯体と製品
  6
CONTINUOUS
 62
    3
 10
401.12957499999948
 20
680.36975499999971
 40
12.049939999999999
 50
270
 51
299.86283400000599
  0
ARC
  8
_0-3_躯体と製品
  6
CONTINUOUS
 62
    3
 10
413.12951500000054
 20
680.36975499999971
 40
12.049939999999999
 50
240.1371659999939
 51
270
  0
LINE
  8
_0-3_躯体と製品
  6
CONTINUOUS
 62
    3
 10
419.12948500000175
 20
681.3197550000009
 11
395.12960499999963
 21
681.3197550000009
  0
LINE
  8
_0-3_躯体と製品
  6
CONTINUOUS
 62
    3
 10
421.12947500000064
 20
681.3197550000009
 11
421.12947500000064
 21
685.31973499999981
  0
LINE
  8
_0-3_躯体と製品
  6
CONTINUOUS
 62
    3
 10
393.12961500000074
 20
681.3197550000009
 11
421.12947500000064
 21
681.3197550000009
  0
LINE
  8
_0-3_躯体と製品
  6
CONTINUOUS
 62
    3
 10
393.12961500000074
 20
685.31973499999981
 11
393.12961500000074
 21
681.3197550000009
  0
LINE
  8
_0-3_躯体と製品
  6
CONTINUOUS
 62
    3
 10
421.12947500000064
 20
685.31973499999981
 11
393.12961500000074
 21
685.31973499999981
  0
LINE
  8
_0-3_躯体と製品
  6
CONTINUOUS
 62
    3
 10
396.72959499999979
 20
685.31973499999981
 11
417.52948499999957
 21
685.31973499999981
  0
LINE
  8
_0-3_躯体と製品
  6
CONTINUOUS
 62
    3
 10
395.12960499999963
 20
698.31966499999976
 11
395.12960499999963
 21
686.91972499999974
  0
LINE
  8
_0-3_躯体と製品
  6
CONTINUOUS
 62
    3
 10
419.12948500000175
 20
686.91972499999974
 11
419.12948500000175
 21
698.31966499999976
  0
LINE
  8
_0-3_躯体と製品
  6
CONTINUOUS
 62
    3
 10
396.72959499999979
 20
685.31973499999981
 11
395.12960499999963
 21
686.91972499999974
  0
LINE
  8
_0-3_躯体と製品
  6
CONTINUOUS
 62
    3
 10
419.12948500000175
 20
686.91972499999974
 11
417.52948499999957
 21
685.31973499999981
  0
ARC
  8
_0-3_躯体と製品
  6
CONTINUOUS
 62
    3
 10
401.12957499999948
 20
697.36967499999969
 40
12.049939999999999
 50
270
 51
299.86283400000599
  0
ARC
  8
_0-3_躯体と製品
  6
CONTINUOUS
 62
    3
 10
413.12951500000054
 20
697.36967499999969
 40
12.049939999999999
 50
240.1371659999939
 51
270
  0
LINE
  8
_0-3_躯体と製品
  6
CONTINUOUS
 62
    3
 10
407.12954500000069
 20
686.91972499999974
 11
407.12954500000069
 21
698.31966499999976
  0
ARC
  8
_0-3_躯体と製品
  6
CONTINUOUS
 62
    3
 10
424.53154499999982
 20
701.31966499999976
 40
3
 50
270
 51
330.00000000000267
  0
LINE
  8
_0-3_躯体と製品
  6
CONTINUOUS
 62
    3
 10
427.12931499999968
 20
765.27317500000095
 11
432.12928500000089
 21
765.27317500000095
  0
LINE
  8
_0-3_躯体と製品
  6
CONTINUOUS
 62
    3
 10
427.12931499999968
 20
772.03527499999859
 11
432.12928500000089
 21
772.03527499999859
  0
ARC
  8
_0-3_躯体と製品
  6
CONTINUOUS
 62
    4
 10
428.12930499999948
 20
782.39970499999959
 40
3.9999799999999999
 50
0
 51
90
  0
LINE
  8
_0-3_躯体と製品
  6
CONTINUOUS
 62
    3
 10
382.12954500000069
 20
765.27317500000095
 11
387.12951499999963
 21
765.27317500000095
  0
LINE
  8
_0-3_躯体と製品
  6
CONTINUOUS
 62
    3
 10
397.12946500000089
 20
765.27317500000095
 11
417.12936500000069
 21
765.27317500000095
  0
ARC
  8
_0-3_躯体と製品
  6
CONTINUOUS
 62
    3
 10
392.12949499999968
 20
774.18162499999994
 40
4.9999700000000002
 50
0
 51
180
  0
LINE
  8
_0-3_躯体と製品
  6
CONTINUOUS
 62
    4
 10
428.12930499999948
 20
786.39968499999964
 11
386.12952499999983
 21
786.39968499999964
  0
LINE
  8
_0-3_躯体と製品
  6
CONTINUOUS
 62
    3
 10
382.12954500000069
 20
772.03527499999859
 11
387.12951499999963
 21
772.03527499999859
  0
ARC
  8
_0-3_躯体と製品
  6
CONTINUOUS
 62
    4
 10
386.12952499999983
 20
782.39970499999959
 40
3.9999799999999999
 50
90
 51
180
  0
LINE
  8
_0-3_躯体と製品
  6
CONTINUOUS
 62
    3
 10
412.12938500000064
 20
774.51299499999982
 11
407.12941499999988
 21
771.62626499999874
  0
LINE
  8
_0-3_躯体と製品
  6
CONTINUOUS
 62
    3
 10
412.12938500000064
 20
780.28647499999965
 11
412.12938500000064
 21
774.51299499999982
  0
LINE
  8
_0-3_躯体と製品
  6
CONTINUOUS
 62
    3
 10
407.12941499999988
 20
783.17320499999983
 11
412.12938500000064
 21
780.28647499999965
  0
LINE
  8
_0-3_躯体と製品
  6
CONTINUOUS
 62
    3
 10
402.12944500000049
 20
780.28647499999965
 11
407.12941499999988
 21
783.17320499999983
  0
LINE
  8
_0-3_躯体と製品
  6
CONTINUOUS
 62
    3
 10
402.12944500000049
 20
774.51299499999982
 11
402.12944500000049
 21
780.28647499999965
  0
LINE
  8
_0-3_躯体と製品
  6
CONTINUOUS
 62
    3
 10
407.12941499999988
 20
771.62626499999874
 11
402.12944500000049
 21
774.51299499999982
  0
CIRCLE
  8
_0-3_躯体と製品
  6
CONTINUOUS
 62
    3
 10
407.12941499999988
 20
777.39973499999974
 40
2.499989999999999
  0
CIRCLE
  8
_0-3_躯体と製品
  6
CONTINUOUS
 62
    3
 10
407.12941499999988
 20
777.39973499999974
 40
2.999979999999999
  0
CIRCLE
  8
_0-3_躯体と製品
  6
CONTINUOUS
 62
    3
 10
407.12941499999988
 20
777.39973499999974
 40
4.9999700000000002
  0
LINE
  8
_0-3_躯体と製品
  6
CONTINUOUS
 62
    4
 10
401.62944500000185
 20
776.14974499999994
 11
402.03042500000083
 21
776.14974499999994
  0
ARC
  8
_0-3_躯体と製品
  6
CONTINUOUS
 62
    4
 10
401.62944500000185
 20
776.64973499999974
 40
0.5
 50
180
 51
270
  0
LINE
  8
_0-3_躯体と製品
  6
CONTINUOUS
 62
    4
 10
401.12944499999867
 20
778.14973499999974
 11
401.12944499999867
 21
776.64973499999974
  0
ARC
  8
_0-3_躯体と製品
  6
CONTINUOUS
 62
    4
 10
401.62944500000185
 20
778.14973499999974
 40
0.5
 50
90
 51
180
  0
LINE
  8
_0-3_躯体と製品
  6
CONTINUOUS
 62
    4
 10
402.03042500000083
 20
778.64972499999999
 11
401.62944500000185
 21
778.64972499999999
  0
LINE
  8
_0-3_躯体と製品
  6
CONTINUOUS
 62
    4
 10
412.62938500000064
 20
776.14974499999994
 11
412.22840500000075
 21
776.14974499999994
  0
ARC
  8
_0-3_躯体と製品
  6
CONTINUOUS
 62
    4
 10
412.62938500000064
 20
776.64973499999974
 40
0.5
 50
270
 51
0
  0
LINE
  8
_0-3_躯体と製品
  6
CONTINUOUS
 62
    4
 10
413.12938499999973
 20
778.14973499999974
 11
413.12938499999973
 21
776.64973499999974
  0
ARC
  8
_0-3_躯体と製品
  6
CONTINUOUS
 62
    4
 10
412.62938500000064
 20
778.14973499999974
 40
0.5
 50
0
 51
90
  0
LINE
  8
_0-3_躯体と製品
  6
CONTINUOUS
 62
    4
 10
412.22840500000075
 20
778.64972499999999
 11
412.62938500000064
 21
778.64972499999999
  0
ARC
  8
_0-3_躯体と製品
  6
CONTINUOUS
 62
    3
 10
422.12933499999963
 20
774.18162499999994
 40
4.9999700000000002
 50
0
 51
180
  0
LINE
  8
_0-3_躯体と製品
  6
CONTINUOUS
 62
    3
 10
397.12946500000089
 20
772.03527499999859
 11
406.42098499999975
 21
772.03527499999859
  0
LINE
  8
_0-3_躯体と製品
  6
CONTINUOUS
 62
    3
 10
407.83784500000183
 20
772.03527499999859
 11
417.12936500000069
 21
772.03527499999859
  0
ARC
  8
_0-3_躯体と製品
  6
CONTINUOUS
 62
    3
 10
528.3295449999996
 20
771.11966499999994
 40
1.79999
 50
180
 51
270
  0
ARC
  8
_0-3_躯体と製品
  6
CONTINUOUS
 62
    3
 10
528.82954500000051
 20
771.61966499999994
 40
3.5000100000000001
 50
188.2130000000034
 51
270
  0
ARC
  8
_0-3_躯体と製品
  6
CONTINUOUS
 62
    3
 10
576.4295449999986
 20
771.11966499999994
 40
1.79999
 50
180
 51
270
  0
ARC
  8
_0-3_躯体と製品
  6
CONTINUOUS
 62
    3
 10
537.8295449999996
 20
771.11966499999994
 40
1.7999999999999989
 50
270
 51
0
  0
ARC
  8
_0-3_躯体と製品
  6
CONTINUOUS
 62
    3
 10
576.4295449999986
 20
771.11966499999994
 40
3
 50
180
 51
270
  0
ARC
  8
_0-3_躯体と製品
  6
CONTINUOUS
 62
    3
 10
537.8295449999996
 20
771.11966499999994
 40
3
 50
270
 51
0
  0
LINE
  8
_0-3_躯体と製品
  6
CONTINUOUS
 62
    3
 10
528.82954500000051
 20
768.11966499999994
 11
537.8295449999996
 21
768.11966499999994
  0
LINE
  8
_0-3_躯体と製品
  6
CONTINUOUS
 62
    3
 10
528.3295449999996
 20
769.31966499999976
 11
532.12954500000069
 21
769.31966499999976
  0
LINE
  8
_0-3_躯体と製品
  6
CONTINUOUS
 62
    3
 10
532.3295449999996
 20
769.11956499999883
 11
532.52954499999987
 21
769.3194649999989
  0
LINE
  8
_0-3_躯体と製品
  6
CONTINUOUS
 62
    3
 10
532.12954500000069
 20
769.31976499999996
 11
532.3295449999996
 21
769.11976499999969
  0
LINE
  8
_0-3_躯体と製品
  6
CONTINUOUS
 62
    3
 10
532.52954499999987
 20
769.31966499999976
 11
537.8295449999996
 21
769.31966499999976
  0
ARC
  8
_0-3_躯体と製品
  6
CONTINUOUS
 62
    3
 10
542.62954499999978
 20
794.11966499999994
 40
1.7999999999999989
 50
90
 51
180
  0
ARC
  8
_0-3_躯体と製品
  6
CONTINUOUS
 62
    3
 10
542.62954499999978
 20
794.11966499999994
 40
3
 50
90
 51
180
  0
LINE
  8
_0-3_躯体と製品
  6
CONTINUOUS
 62
    3
 10
525.36554499999966
 20
771.11966499999994
 11
526.52954500000078
 21
771.11966499999994
  0
LINE
  8
_0-3_躯体と製品
  6
CONTINUOUS
 62
    3
 10
539.62954500000069
 20
794.11966499999994
 11
539.62954500000069
 21
771.11966499999994
  0
LINE
  8
_0-3_躯体と製品
  6
CONTINUOUS
 62
    3
 10
540.8295449999996
 20
794.11966499999994
 11
540.8295449999996
 21
771.11966499999994
  0
LINE
  8
_0-3_躯体と製品
  6
CONTINUOUS
 62
    3
 10
574.62954500000069
 20
794.11966499999994
 11
574.62954500000069
 21
771.11966499999994
  0
LINE
  8
_0-3_躯体と製品
  6
CONTINUOUS
 62
    3
 10
542.62954499999978
 20
795.91966499999967
 11
571.62954500000069
 21
795.91966499999967
  0
LINE
  8
_0-3_躯体と製品
  6
CONTINUOUS
 62
    3
 10
573.4295449999986
 20
794.11966499999994
 11
573.4295449999986
 21
771.11966499999994
  0
ARC
  8
_0-3_躯体と製品
  6
CONTINUOUS
 62
    3
 10
571.62954500000069
 20
794.11966499999994
 40
1.79999
 50
0
 51
90
  0
ARC
  8
_0-3_躯体と製品
  6
CONTINUOUS
 62
    3
 10
571.62954500000069
 20
794.11966499999994
 40
3
 50
0
 51
90
  0
ARC
  8
_0-3_躯体と製品
  6
CONTINUOUS
 62
    3
 10
585.92954499999951
 20
771.11966499999994
 40
1.7999999999999989
 50
270
 51
0
  0
ARC
  8
_0-3_躯体と製品
  6
CONTINUOUS
 62
    3
 10
585.42954499999951
 20
771.61966499999994
 40
3.5
 50
270
 51
351.78699999999651
  0
LINE
  8
_0-3_躯体と製品
  6
CONTINUOUS
 62
    3
 10
581.92954500000087
 20
769.11956499999883
 11
582.12954500000069
 21
769.3194649999989
  0
LINE
  8
_0-3_躯体と製品
  6
CONTINUOUS
 62
    3
 10
581.7295450000006
 20
769.31976499999996
 11
581.92954500000087
 21
769.11966499999994
  0
LINE
  8
_0-3_躯体と製品
  6
CONTINUOUS
 62
    3
 10
582.12954500000069
 20
769.31966499999976
 11
585.92954499999951
 21
769.31966499999976
  0
LINE
  8
_0-3_躯体と製品
  6
CONTINUOUS
 62
    3
 10
587.72954499999969
 20
771.11966499999994
 11
588.9295449999986
 21
771.11966499999994
  0
ARC
  8
_0-3_躯体と製品
  6
CONTINUOUS
 62
    3
 10
828.3295449999996
 20
771.11966499999994
 40
1.79999
 50
180
 51
270
  0
ARC
  8
_0-3_躯体と製品
  6
CONTINUOUS
 62
    3
 10
876.4295449999986
 20
771.11966499999994
 40
1.79999
 50
180
 51
270
  0
ARC
  8
_0-3_躯体と製品
  6
CONTINUOUS
 62
    3
 10
837.8295449999996
 20
771.11966499999994
 40
1.7999999999999989
 50
270
 51
0
  0
ARC
  8
_0-3_躯体と製品
  6
CONTINUOUS
 62
    3
 10
876.4295449999986
 20
771.11966499999994
 40
3
 50
180
 51
270
  0
ARC
  8
_0-3_躯体と製品
  6
CONTINUOUS
 62
    3
 10
837.8295449999996
 20
771.11966499999994
 40
3
 50
270
 51
0
  0
ARC
  8
_0-3_躯体と製品
  6
CONTINUOUS
 62
    3
 10
828.82954500000187
 20
771.61966499999994
 40
3.5000100000000001
 50
188.2130000000034
 51
270
  0
LINE
  8
_0-3_躯体と製品
  6
CONTINUOUS
 62
    3
 10
828.82954500000187
 20
768.11966499999994
 11
837.8295449999996
 21
768.11966499999994
  0
LINE
  8
_0-3_躯体と製品
  6
CONTINUOUS
 62
    3
 10
828.3295449999996
 20
769.31966499999976
 11
832.12954500000069
 21
769.31966499999976
  0
LINE
  8
_0-3_躯体と製品
  6
CONTINUOUS
 62
    3
 10
832.32954500000051
 20
769.11956499999883
 11
832.52954499999987
 21
769.3194649999989
  0
LINE
  8
_0-3_躯体と製品
  6
CONTINUOUS
 62
    3
 10
832.12954500000069
 20
769.31976499999996
 11
832.32954500000051
 21
769.11966499999994
  0
LINE
  8
_0-3_躯体と製品
  6
CONTINUOUS
 62
    3
 10
832.52954499999987
 20
769.31966499999976
 11
837.8295449999996
 21
769.31966499999976
  0
LINE
  8
_0-3_躯体と製品
  6
CONTINUOUS
 62
    3
 10
876.4295449999986
 20
769.31966499999976
 11
881.7295450000006
 21
769.31966499999976
  0
LINE
  8
_0-3_躯体と製品
  6
CONTINUOUS
 62
    3
 10
881.92954500000087
 20
769.11946499999999
 11
882.12954499999978
 21
769.31936499999961
  0
LINE
  8
_0-3_躯体と製品
  6
CONTINUOUS
 62
    3
 10
881.7295450000006
 20
769.31976499999996
 11
881.92954500000087
 21
769.11966499999994
  0
LINE
  8
_0-3_躯体と製品
  6
CONTINUOUS
 62
    3
 10
842.62954499999978
 20
795.91966499999967
 11
871.6295450000016
 21
795.91966499999967
  0
LINE
  8
_0-3_躯体と製品
  6
CONTINUOUS
 62
    3
 10
839.62954500000069
 20
794.11966499999994
 11
839.62954500000069
 21
771.11966499999994
  0
LINE
  8
_0-3_躯体と製品
  6
CONTINUOUS
 62
    3
 10
840.82954499999869
 20
794.11966499999994
 11
840.82954499999869
 21
771.11966499999994
  0
LINE
  8
_0-3_躯体と製品
  6
CONTINUOUS
 62
    3
 10
825.36554499999966
 20
771.11966499999994
 11
826.52954500000169
 21
771.11966499999994
  0
ARC
  8
_0-3_躯体と製品
  6
CONTINUOUS
 62
    3
 10
842.62954499999978
 20
794.11966499999994
 40
1.7999999999999989
 50
90
 51
180
  0
ARC
  8
_0-3_躯体と製品
  6
CONTINUOUS
 62
    3
 10
842.62954499999978
 20
794.11966499999994
 40
3
 50
90
 51
180
  0
LINE
  8
_0-3_躯体と製品
  6
CONTINUOUS
 62
    3
 10
874.62954500000069
 20
794.11966499999994
 11
874.62954500000069
 21
771.11966499999994
  0
LINE
  8
_0-3_躯体と製品
  6
CONTINUOUS
 62
    3
 10
873.4295449999986
 20
794.11966499999994
 11
873.4295449999986
 21
771.11966499999994
  0
ARC
  8
_0-3_躯体と製品
  6
CONTINUOUS
 62
    3
 10
871.6295450000016
 20
794.11966499999994
 40
1.79999
 50
0
 51
90
  0
ARC
  8
_0-3_躯体と製品
  6
CONTINUOUS
 62
    3
 10
871.6295450000016
 20
794.11966499999994
 40
3
 50
0
 51
90
  0
ARC
  8
_0-3_躯体と製品
  6
CONTINUOUS
 62
    3
 10
885.9295449999986
 20
771.11966499999994
 40
1.7999999999999989
 50
270
 51
0
  0
ARC
  8
_0-3_躯体と製品
  6
CONTINUOUS
 62
    3
 10
885.42954499999951
 20
771.61966499999994
 40
3.5
 50
270
 51
351.78699999999651
  0
LINE
  8
_0-3_躯体と製品
  6
CONTINUOUS
 62
    3
 10
887.72954499999969
 20
771.11966499999994
 11
888.9295449999986
 21
771.11966499999994
  0
ARC
  8
_0-3_躯体と製品
  6
CONTINUOUS
 62
    3
 10
1176.4295449999986
 20
771.11966499999994
 40
1.800049999999999
 50
180
 51
270
  0
ARC
  8
_0-3_躯体と製品
  6
CONTINUOUS
 62
    3
 10
1185.9295449999986
 20
771.11966499999994
 40
1.7999999999999989
 50
270
 51
0
  0
ARC
  8
_0-3_躯体と製品
  6
CONTINUOUS
 62
    3
 10
1137.8295449999996
 20
771.11966499999994
 40
1.7999999999999989
 50
270
 51
0
  0
ARC
  8
_0-3_躯体と製品
  6
CONTINUOUS
 62
    3
 10
1176.4295449999986
 20
771.11966499999994
 40
3
 50
180
 51
270
  0
ARC
  8
_0-3_躯体と製品
  6
CONTINUOUS
 62
    3
 10
1137.8295449999996
 20
771.11966499999994
 40
3
 50
270
 51
0
  0
ARC
  8
_0-3_躯体と製品
  6
CONTINUOUS
 62
    3
 10
1185.4295449999995
 20
771.61966499999994
 40
3.5
 50
270
 51
351.78699999999651
  0
ARC
  8
_0-3_躯体と製品
  6
CONTINUOUS
 62
    3
 10
1128.3295449999987
 20
771.11966499999994
 40
1.800049999999999
 50
180
 51
270
  0
ARC
  8
_0-3_躯体と製品
  6
CONTINUOUS
 62
    3
 10
1128.8295450000019
 20
771.61966499999994
 40
3.5000100000000001
 50
188.2130000000034
 51
270
  0
LINE
  8
_0-3_躯体と製品
  6
CONTINUOUS
 62
    3
 10
1132.3295450000005
 20
769.11946499999999
 11
1132.5295449999999
 21
769.31936499999961
  0
LINE
  8
_0-3_躯体と製品
  6
CONTINUOUS
 62
    3
 10
1132.1295449999998
 20
769.31996499999991
 11
1132.3295450000005
 21
769.11986499999989
  0
LINE
  8
_0-3_躯体と製品
  6
CONTINUOUS
 62
    3
 10
1132.5295449999999
 20
769.31966499999976
 11
1137.8295449999996
 21
769.31966499999976
  0
LINE
  8
_0-3_躯体と製品
  6
CONTINUOUS
 62
    3
 10
1128.8295450000019
 20
768.11966499999994
 11
1137.8295449999996
 21
768.11966499999994
  0
LINE
  8
_0-3_躯体と製品
  6
CONTINUOUS
 62
    3
 10
1128.3295449999987
 20
769.31966499999976
 11
1132.1295449999998
 21
769.31966499999976
  0
LINE
  8
_0-3_躯体と製品
  6
CONTINUOUS
 62
    3
 10
1176.4295449999986
 20
769.31966499999976
 11
1181.7295450000015
 21
769.31966499999976
  0
LINE
  8
_0-3_躯体と製品
  6
CONTINUOUS
 62
    3
 10
1176.4295449999986
 20
768.11966499999994
 11
1185.4295449999995
 21
768.11966499999994
  0
LINE
  8
_0-3_躯体と製品
  6
CONTINUOUS
 62
    3
 10
1181.9295450000009
 20
769.11946499999999
 11
1182.1295450000007
 21
769.31936499999961
  0
LINE
  8
_0-3_躯体と製品
  6
CONTINUOUS
 62
    3
 10
1181.7295450000015
 20
769.31996499999991
 11
1181.9295450000009
 21
769.11986499999989
  0
LINE
  8
_0-3_躯体と製品
  6
CONTINUOUS
 62
    3
 10
1182.1295450000007
 20
769.31966499999976
 11
1185.9295449999986
 21
769.31966499999976
  0
LINE
  8
_0-3_躯体と製品
  6
CONTINUOUS
 62
    3
 10
1142.6295449999998
 20
795.91966499999967
 11
1171.6295449999989
 21
795.91966499999967
  0
LINE
  8
_0-3_躯体と製品
  6
CONTINUOUS
 62
    3
 10
1139.6295450000007
 20
794.11966499999994
 11
1139.6295450000007
 21
771.11966499999994
  0
LINE
  8
_0-3_躯体と製品
  6
CONTINUOUS
 62
    3
 10
1140.8295449999996
 20
794.11966499999994
 11
1140.8295449999996
 21
771.11966499999994
  0
ARC
  8
_0-3_躯体と製品
  6
CONTINUOUS
 62
    3
 10
1142.6295449999998
 20
794.11966499999994
 40
1.7999999999999989
 50
90
 51
180
  0
ARC
  8
_0-3_躯体と製品
  6
CONTINUOUS
 62
    3
 10
1142.6295449999998
 20
794.11966499999994
 40
3
 50
90
 51
180
  0
LINE
  8
_0-3_躯体と製品
  6
CONTINUOUS
 62
    3
 10
1125.3695450000005
 20
771.11966499999994
 11
1126.5295450000008
 21
771.11966499999994
  0
LINE
  8
_0-3_躯体と製品
  6
CONTINUOUS
 62
    3
 10
1174.6295450000007
 20
794.11966499999994
 11
1174.6295450000007
 21
771.11966499999994
  0
LINE
  8
_0-3_躯体と製品
  6
CONTINUOUS
 62
    3
 10
1173.4295449999995
 20
794.11966499999994
 11
1173.4295449999995
 21
771.11966499999994
  0
LINE
  8
_0-3_躯体と製品
  6
CONTINUOUS
 62
    3
 10
1187.7295449999997
 20
771.11966499999994
 11
1188.9295449999986
 21
771.11966499999994
  0
ARC
  8
_0-3_躯体と製品
  6
CONTINUOUS
 62
    3
 10
1171.6295449999989
 20
794.11966499999994
 40
1.800049999999999
 50
0
 51
90
  0
ARC
  8
_0-3_躯体と製品
  6
CONTINUOUS
 62
    3
 10
1171.6295449999989
 20
794.11966499999994
 40
3
 50
0
 51
90
  0
ARC
  8
_0-3_躯体と製品
  6
CONTINUOUS
 62
    3
 10
1428.3295449999987
 20
771.11966499999994
 40
1.800049999999999
 50
180
 51
270
  0
ARC
  8
_0-3_躯体と製品
  6
CONTINUOUS
 62
    3
 10
1476.4295449999991
 20
771.11966499999994
 40
1.800049999999999
 50
180
 51
270
  0
ARC
  8
_0-3_躯体と製品
  6
CONTINUOUS
 62
    3
 10
1485.9295449999991
 20
771.11966499999994
 40
1.7999999999999989
 50
270
 51
0
  0
ARC
  8
_0-3_躯体と製品
  6
CONTINUOUS
 62
    3
 10
1437.8295450000005
 20
771.11966499999994
 40
1.7999999999999989
 50
270
 51
0
  0
ARC
  8
_0-3_躯体と製品
  6
CONTINUOUS
 62
    3
 10
1476.4295449999991
 20
771.11966499999994
 40
3
 50
180
 51
270
  0
ARC
  8
_0-3_躯体と製品
  6
CONTINUOUS
 62
    3
 10
1437.8295450000005
 20
771.11966499999994
 40
3
 50
270
 51
0
  0
ARC
  8
_0-3_躯体と製品
  6
CONTINUOUS
 62
    3
 10
1428.8295450000019
 20
771.61966499999994
 40
3.5000100000000001
 50
188.2130000000034
 51
270
  0
ARC
  8
_0-3_躯体と製品
  6
CONTINUOUS
 62
    3
 10
1485.429545
 20
771.61966499999994
 40
3.5
 50
270
 51
351.78699999999651
  0
LINE
  8
_0-3_躯体と製品
  6
CONTINUOUS
 62
    3
 10
1428.8295450000019
 20
768.11966499999994
 11
1437.8295450000005
 21
768.11966499999994
  0
LINE
  8
_0-3_躯体と製品
  6
CONTINUOUS
 62
    3
 10
1428.3295449999987
 20
769.31966499999976
 11
1432.1295449999998
 21
769.31966499999976
  0
LINE
  8
_0-3_躯体と製品
  6
CONTINUOUS
 62
    3
 10
1432.3295450000005
 20
769.11936499999979
 11
1432.5295449999994
 21
769.31936499999961
  0
LINE
  8
_0-3_躯体と製品
  6
CONTINUOUS
 62
    3
 10
1432.1295449999998
 20
769.32016499999986
 11
1432.3295450000005
 21
769.12006500000075
  0
LINE
  8
_0-3_躯体と製品
  6
CONTINUOUS
 62
    3
 10
1432.5295449999994
 20
769.31966499999976
 11
1437.8295450000005
 21
769.31966499999976
  0
LINE
  8
_0-3_躯体と製品
  6
CONTINUOUS
 62
    3
 10
1476.4295449999991
 20
769.31966499999976
 11
1481.729545000002
 21
769.31966499999976
  0
LINE
  8
_0-3_躯体と製品
  6
CONTINUOUS
 62
    3
 10
1476.4295449999991
 20
768.11966499999994
 11
1485.429545
 21
768.11966499999994
  0
LINE
  8
_0-3_躯体と製品
  6
CONTINUOUS
 62
    3
 10
1481.9295450000009
 20
769.11936499999979
 11
1482.1295450000007
 21
769.31926499999986
  0
LINE
  8
_0-3_躯体と製品
  6
CONTINUOUS
 62
    3
 10
1481.729545000002
 20
769.32016499999986
 11
1481.9295450000009
 21
769.12006500000075
  0
LINE
  8
_0-3_躯体と製品
  6
CONTINUOUS
 62
    3
 10
1482.1295450000007
 20
769.31966499999976
 11
1485.9295449999991
 21
769.31966499999976
  0
LINE
  8
_0-3_躯体と製品
  6
CONTINUOUS
 62
    3
 10
1442.6295449999998
 20
795.91966499999967
 11
1471.6295449999989
 21
795.91966499999967
  0
LINE
  8
_0-3_躯体と製品
  6
CONTINUOUS
 62
    3
 10
1439.6295449999998
 20
794.11966499999994
 11
1439.6295449999998
 21
771.11966499999994
  0
LINE
  8
_0-3_躯体と製品
  6
CONTINUOUS
 62
    3
 10
1440.8295449999987
 20
794.11966499999994
 11
1440.8295449999987
 21
771.11966499999994
  0
LINE
  8
_0-3_躯体と製品
  6
CONTINUOUS
 62
    3
 10
1425.3695450000005
 20
771.11966499999994
 11
1426.5295450000017
 21
771.11966499999994
  0
ARC
  8
_0-3_躯体と製品
  6
CONTINUOUS
 62
    3
 10
1442.6295449999998
 20
794.11966499999994
 40
1.7999999999999989
 50
90
 51
180
  0
ARC
  8
_0-3_躯体と製品
  6
CONTINUOUS
 62
    3
 10
1442.6295449999998
 20
794.11966499999994
 40
3
 50
90
 51
180
  0
LINE
  8
_0-3_躯体と製品
  6
CONTINUOUS
 62
    3
 10
1474.6295450000007
 20
794.11966499999994
 11
1474.6295450000007
 21
771.11966499999994
  0
LINE
  8
_0-3_躯体と製品
  6
CONTINUOUS
 62
    3
 10
1473.4295449999991
 20
794.11966499999994
 11
1473.4295449999991
 21
771.11966499999994
  0
LINE
  8
_0-3_躯体と製品
  6
CONTINUOUS
 62
    3
 10
1487.7295450000001
 20
771.11966499999994
 11
1488.9295449999991
 21
771.11966499999994
  0
ARC
  8
_0-3_躯体と製品
  6
CONTINUOUS
 62
    3
 10
1471.6295449999989
 20
794.11966499999994
 40
1.800049999999999
 50
0
 51
90
  0
ARC
  8
_0-3_躯体と製品
  6
CONTINUOUS
 62
    3
 10
1471.6295449999989
 20
794.11966499999994
 40
3
 50
0
 51
90
  0
LINE
  8
_0-3_躯体と製品
  6
CONTINUOUS
 62
    3
 10
1657.1295450000007
 20
516.71760499999982
 11
1657.1295450000007
 21
505.3176649999989
  0
LINE
  8
_0-3_躯体と製品
  6
CONTINUOUS
 62
    3
 10
1645.1296050000001
 20
516.71760499999982
 11
1645.1296050000001
 21
505.3176649999989
  0
LINE
  8
_0-3_躯体と製品
  6
CONTINUOUS
 62
    3
 10
1669.1294850000013
 20
505.3176649999989
 11
1669.1294850000013
 21
516.71760499999982
  0
LINE
  8
_0-3_躯体と製品
  6
CONTINUOUS
 62
    3
 10
1635.9295449999991
 20
505.3176649999989
 11
1657.1295450000007
 21
505.3176649999989
  0
LINE
  8
_0-3_躯体と製品
  6
CONTINUOUS
 62
    3
 10
1631.9295450000009
 20
494.11766499999976
 11
1682.3295450000005
 21
494.11766499999976
  0
LINE
  8
_0-3_躯体と製品
  6
CONTINUOUS
 62
    3
 10
1634.5785450000003
 20
460.03166499999975
 11
1634.5785450000003
 21
430.43166499999984
  0
LINE
  8
_0-3_躯体と製品
  6
CONTINUOUS
 62
    3
 10
1623.778545000001
 20
429.2316650000007
 11
1635.778545000001
 21
429.2316650000007
  0
LINE
  8
_0-3_躯体と製品
  6
CONTINUOUS
 62
    3
 10
1623.778545000001
 20
430.43166499999984
 11
1634.5785450000003
 21
430.43166499999984
  0
LINE
  8
_0-3_躯体と製品
  6
CONTINUOUS
 62
    3
 10
1623.6955450000005
 20
430.43166499999984
 11
1623.6955450000005
 21
429.2316650000007
  0
LINE
  8
_0-3_躯体と製品
  6
CONTINUOUS
 62
    3
 10
1623.778545000001
 20
461.23166499999979
 11
1635.778545000001
 21
461.23166499999979
  0
LINE
  8
_0-3_躯体と製品
  6
CONTINUOUS
 62
    3
 10
1623.778545000001
 20
460.03166499999975
 11
1634.5785450000003
 21
460.03166499999975
  0
LINE
  8
_0-3_躯体と製品
  6
CONTINUOUS
 62
    3
 10
1623.6955450000005
 20
461.23166499999979
 11
1623.6955450000005
 21
460.03166499999975
  0
LINE
  8
_0-3_躯体と製品
  6
CONTINUOUS
 62
    3
 10
1631.9295450000009
 20
501.31766499999981
 11
1631.9295450000009
 21
494.11766499999976
  0
LINE
  8
_0-3_躯体と製品
  6
CONTINUOUS
 62
    3
 10
1631.9295450000009
 20
494.11766499999976
 11
1631.9295450000009
 21
474.91766499999972
  0
LINE
  8
_0-3_躯体と製品
  6
CONTINUOUS
 62
    3
 10
1635.7795450000021
 20
474.91766499999972
 11
1631.9295450000009
 21
474.91766499999972
  0
LINE
  8
_0-3_躯体と製品
  6
CONTINUOUS
 62
    3
 10
1630.6415450000004
 20
485.41766499999972
 11
1631.9295450000009
 21
485.41766499999972
  0
LINE
  8
_0-3_躯体と製品
  6
CONTINUOUS
 62
    3
 10
1631.9295450000009
 20
485.41766499999972
 11
1631.9295450000009
 21
476.41766499999972
  0
LINE
  8
_0-3_躯体と製品
  6
CONTINUOUS
 62
    3
 10
1630.6415450000004
 20
476.41766499999972
 11
1631.9295450000009
 21
476.41766499999972
  0
ARC
  8
_0-3_躯体と製品
  6
CONTINUOUS
 62
    3
 10
1635.9295449999991
 20
501.31766499999981
 40
4
 50
90
 51
180
  0
ARC
  8
_0-3_躯体と製品
  6
CONTINUOUS
 62
    3
 10
1640.6295449999998
 20
480.91766500000085
 40
12
 50
163.80899999999662
 51
196.19100000000333
  0
ARC
  8
_0-3_躯体と製品
  6
CONTINUOUS
 62
    3
 10
1630.6415450000004
 20
478.01766499999985
 40
1.59999
 50
196.1910000000033
 51
270
  0
ARC
  8
_0-3_躯体と製品
  6
CONTINUOUS
 62
    3
 10
1630.6415450000004
 20
483.81766499999981
 40
1.6000099999999999
 50
90
 51
163.80899999999659
  0
ARC
  8
_0-3_躯体と製品
  6
CONTINUOUS
 62
    3
 10
1683.6175450000001
 20
478.01766499999985
 40
1.6000099999999999
 50
270
 51
343.80899999999667
  0
ARC
  8
_0-3_躯体と製品
  6
CONTINUOUS
 62
    3
 10
1683.6175450000001
 20
483.81766499999981
 40
1.59999
 50
16.19139999999916
 51
90
  0
LINE
  8
_0-3_躯体と製品
  6
CONTINUOUS
 62
    3
 10
1682.3295450000005
 20
494.11766499999976
 11
1682.3295450000005
 21
474.91766499999972
  0
LINE
  8
_0-3_躯体と製品
  6
CONTINUOUS
 62
    3
 10
1678.4795450000001
 20
474.91766499999972
 11
1682.3295450000005
 21
474.91766499999972
  0
LINE
  8
_0-3_躯体と製品
  6
CONTINUOUS
 62
    3
 10
1683.6175450000001
 20
485.41766499999972
 11
1682.3295450000005
 21
485.41766499999972
  0
LINE
  8
_0-3_躯体と製品
  6
CONTINUOUS
 62
    3
 10
1682.3295450000005
 20
485.41766499999972
 11
1682.3295450000005
 21
476.41766499999972
  0
LINE
  8
_0-3_躯体と製品
  6
CONTINUOUS
 62
    3
 10
1683.6175450000001
 20
476.41766499999972
 11
1682.3295450000005
 21
476.41766499999972
  0
LINE
  8
_0-3_躯体と製品
  6
CONTINUOUS
 62
    3
 10
1657.1295450000007
 20
505.3176649999989
 11
1678.3295449999987
 21
505.3176649999989
  0
LINE
  8
_0-3_躯体と製品
  6
CONTINUOUS
 62
    3
 10
1682.3295450000005
 20
501.31766499999981
 11
1682.3295450000005
 21
494.11766499999976
  0
ARC
  8
_0-3_躯体と製品
  6
CONTINUOUS
 62
    3
 10
1678.3295449999987
 20
501.31766499999981
 40
4
 50
0
 51
90
  0
ARC
  8
_0-3_躯体と製品
  6
CONTINUOUS
 62
    3
 10
1673.6295450000016
 20
480.91766500000085
 40
12
 50
343.80899999999667
 51
16.191300000001348
  0
LINE
  8
_0-3_躯体と製品
  6
CONTINUOUS
 62
    4
 10
1815.0222250000006
 20
767.11966499999994
 11
1682.1295449999998
 21
767.11966499999994
  0
LINE
  8
_0-3_躯体と製品
  6
CONTINUOUS
 62
    4
 10
1815.0222250000006
 20
717.11966499999994
 11
1682.1295449999998
 21
717.11966499999994
  0
LINE
  8
_0-3_躯体と製品
  6
CONTINUOUS
 62
    3
 10
1667.1293650000007
 20
774.18162499999994
 11
1667.1293650000007
 21
713.61818499999958
  0
LINE
  8
_0-3_躯体と製品
  6
CONTINUOUS
 62
    3
 10
1647.1294650000009
 20
774.18162499999994
 11
1647.1294650000009
 21
713.61818499999958
  0
LINE
  8
_0-3_躯体と製品
  6
CONTINUOUS
 62
    3
 10
1637.1295149999996
 20
774.18162499999994
 11
1637.1295149999996
 21
713.61818499999958
  0
LINE
  8
_0-3_躯体と製品
  6
CONTINUOUS
 62
    3
 10
1677.1293150000001
 20
774.18162499999994
 11
1677.1293150000001
 21
713.61818499999958
  0
LINE
  8
_0-3_躯体と製品
  6
CONTINUOUS
 62
    4
 10
1632.1295449999998
 20
783.09606500000086
 11
1632.1295449999998
 21
699.81966499999885
  0
LINE
  8
_0-3_躯体と製品
  6
CONTINUOUS
 62
    4
 10
1682.1295449999998
 20
782.39970499999959
 11
1682.1295449999998
 21
699.81966499999885
  0
ARC
  8
_0-3_躯体と製品
  6
CONTINUOUS
 62
    3
 10
1642.1294950000001
 20
713.61818499999958
 40
4.9999700000000002
 50
180
 51
0
  0
LINE
  8
_0-3_躯体と製品
  6
CONTINUOUS
 62
    3
 10
1646.7295949999998
 20
668.3198149999987
 11
1667.5294850000009
 21
668.3198149999987
  0
LINE
  8
_0-3_躯体と製品
  6
CONTINUOUS
 62
    3
 10
1669.1294850000013
 20
681.3197550000009
 11
1645.1296050000001
 21
681.3197550000009
  0
LINE
  8
_0-3_躯体と製品
  6
CONTINUOUS
 62
    3
 10
1643.1296150000007
 20
681.3197550000009
 11
1671.1294749999997
 21
681.3197550000009
  0
LINE
  8
_0-3_躯体と製品
  6
CONTINUOUS
 62
    3
 10
1671.1294749999997
 20
685.31973499999981
 11
1643.1296150000007
 21
685.31973499999981
  0
LINE
  8
_0-3_躯体と製品
  6
CONTINUOUS
 62
    3
 10
1646.7295949999998
 20
685.31973499999981
 11
1667.5294850000009
 21
685.31973499999981
  0
LINE
  8
_0-3_躯体と製品
  6
CONTINUOUS
 62
    4
 10
1632.1295449999998
 20
699.81966499999885
 11
1682.1295449999998
 21
699.81966499999885
  0
LINE
  8
_0-3_躯体と製品
  6
CONTINUOUS
 62
    3
 10
1639.7275450000006
 20
698.31966499999976
 11
1674.5315449999998
 21
698.31966499999976
  0
LINE
  8
_0-3_躯体と製品
  6
CONTINUOUS
 62
    3
 10
1667.5294850000009
 20
518.31759499999976
 11
1646.7295949999998
 21
518.31759499999976
  0
LINE
  8
_0-3_躯体と製品
  6
CONTINUOUS
 62
    3
 10
1667.5294850000009
 20
536.31759499999976
 11
1646.7295949999998
 21
536.31759499999976
  0
LINE
  8
_0-3_躯体と製品
  6
CONTINUOUS
 62
    3
 10
1642.7795450000003
 20
523.31766500000072
 11
1671.4795450000001
 21
523.31766500000072
  0
LINE
  8
_0-3_躯体と製品
  6
CONTINUOUS
 62
    3
 10
1671.4795450000001
 20
518.31766500000072
 11
1642.7795450000003
 21
518.31766500000072
  0
LINE
  8
_0-3_躯体と製品
  6
CONTINUOUS
 62
    3
 10
1645.1296050000001
 20
516.71760499999982
 11
1646.7295949999998
 21
518.31759499999976
  0
LINE
  8
_0-3_躯体と製品
  6
CONTINUOUS
 62
    3
 10
1645.1296050000001
 20
534.71760499999868
 11
1646.7295949999998
 21
536.31759499999976
  0
LINE
  8
_0-3_躯体と製品
  6
CONTINUOUS
 62
    3
 10
1645.1296050000001
 20
534.71760499999868
 11
1645.1296050000001
 21
523.31766500000072
  0
LINE
  8
_0-3_躯体と製品
  6
CONTINUOUS
 62
    3
 10
1642.7795450000003
 20
518.31766500000072
 11
1642.7795450000003
 21
523.31766500000072
  0
LINE
  8
_0-3_躯体と製品
  6
CONTINUOUS
 62
    3
 10
1645.1296050000001
 20
681.3197550000009
 11
1645.1296050000001
 21
669.91981499999883
  0
LINE
  8
_0-3_躯体と製品
  6
CONTINUOUS
 62
    3
 10
1646.7295949999998
 20
668.3198149999987
 11
1645.1296050000001
 21
669.91981499999883
  0
LINE
  8
_0-3_躯体と製品
  6
CONTINUOUS
 62
    3
 10
1643.1296150000007
 20
685.31973499999981
 11
1643.1296150000007
 21
681.3197550000009
  0
LINE
  8
_0-3_躯体と製品
  6
CONTINUOUS
 62
    3
 10
1645.1296050000001
 20
698.31966499999976
 11
1645.1296050000001
 21
686.91972499999974
  0
LINE
  8
_0-3_躯体と製品
  6
CONTINUOUS
 62
    3
 10
1646.7295949999998
 20
685.31973499999981
 11
1645.1296050000001
 21
686.91972499999974
  0
ARC
  8
_0-3_躯体と製品
  6
CONTINUOUS
 62
    3
 10
1639.7275450000006
 20
701.31966499999976
 40
3.0000100000000001
 50
209.99999999999719
 51
270
  0
LINE
  8
_0-3_躯体と製品
  6
CONTINUOUS
 62
    3
 10
1665.1295449999998
 20
668.29256499999974
 11
1665.1295449999998
 21
536.24466499999971
  0
LINE
  8
_0-3_躯体と製品
  6
CONTINUOUS
 62
    3
 10
1649.1295449999989
 20
668.29256499999974
 11
1649.1295449999989
 21
536.31766499999981
  0
LINE
  8
_0-3_躯体と製品
  6
CONTINUOUS
 62
    3
 10
1649.1295449999989
 20
581.54266499999972
 11
1649.1295449999989
 21
536.31766499999981
  0
ARC
  8
_0-3_躯体と製品
  6
CONTINUOUS
 62
    3
 10
1651.1295749999999
 20
506.26766499999985
 40
12.049939999999999
 50
60.137165999993961
 51
90
  0
ARC
  8
_0-3_躯体と製品
  6
CONTINUOUS
 62
    3
 10
1663.1295149999996
 20
506.26766499999985
 40
12.049939999999999
 50
90
 51
119.86283400000599
  0
LINE
  8
_0-3_躯体と製品
  6
CONTINUOUS
 62
    3
 10
1667.5294850000009
 20
518.31759499999976
 11
1669.1294850000013
 21
516.71760499999982
  0
LINE
  8
_0-3_躯体と製品
  6
CONTINUOUS
 62
    3
 10
1657.1295450000007
 20
534.71760499999868
 11
1657.1295450000007
 21
523.31766500000072
  0
ARC
  8
_0-3_躯体と製品
  6
CONTINUOUS
 62
    3
 10
1651.1295749999999
 20
524.26766499999871
 40
12.049939999999999
 50
60.137165999993961
 51
90
  0
ARC
  8
_0-3_躯体と製品
  6
CONTINUOUS
 62
    3
 10
1663.1295149999996
 20
524.26766499999871
 40
12.049939999999999
 50
90
 51
119.86283400000599
  0
LINE
  8
_0-3_躯体と製品
  6
CONTINUOUS
 62
    3
 10
1667.5294850000009
 20
536.31759499999976
 11
1669.1294850000013
 21
534.71760499999868
  0
LINE
  8
_0-3_躯体と製品
  6
CONTINUOUS
 62
    3
 10
1669.1294850000013
 20
523.31766500000072
 11
1669.1294850000013
 21
534.71760499999868
  0
LINE
  8
_0-3_躯体と製品
  6
CONTINUOUS
 62
    3
 10
1671.4795450000001
 20
523.31766500000072
 11
1671.4795450000001
 21
518.31766500000072
  0
ARC
  8
_0-3_躯体と製品
  6
CONTINUOUS
 62
    3
 10
1672.1293349999987
 20
713.61818499999958
 40
4.9999700000000002
 50
180
 51
0
  0
LINE
  8
_0-3_躯体と製品
  6
CONTINUOUS
 62
    3
 10
1669.1294850000013
 20
669.91981499999883
 11
1669.1294850000013
 21
681.3197550000009
  0
LINE
  8
_0-3_躯体と製品
  6
CONTINUOUS
 62
    3
 10
1657.1295450000007
 20
669.91981499999883
 11
1657.1295450000007
 21
681.3197550000009
  0
LINE
  8
_0-3_躯体と製品
  6
CONTINUOUS
 62
    3
 10
1669.1294850000013
 20
669.91981499999883
 11
1667.5294850000009
 21
668.3198149999987
  0
ARC
  8
_0-3_躯体と製品
  6
CONTINUOUS
 62
    3
 10
1651.1295749999999
 20
680.36975499999971
 40
12.049939999999999
 50
270
 51
299.86283400000599
  0
ARC
  8
_0-3_躯体と製品
  6
CONTINUOUS
 62
    3
 10
1663.1295149999996
 20
680.36975499999971
 40
12.049939999999999
 50
240.1371659999939
 51
270
  0
LINE
  8
_0-3_躯体と製品
  6
CONTINUOUS
 62
    3
 10
1671.1294749999997
 20
681.3197550000009
 11
1671.1294749999997
 21
685.31973499999981
  0
LINE
  8
_0-3_躯体と製品
  6
CONTINUOUS
 62
    3
 10
1669.1294850000013
 20
686.91972499999974
 11
1669.1294850000013
 21
698.31966499999976
  0
LINE
  8
_0-3_躯体と製品
  6
CONTINUOUS
 62
    3
 10
1669.1294850000013
 20
686.91972499999974
 11
1667.5294850000009
 21
685.31973499999981
  0
ARC
  8
_0-3_躯体と製品
  6
CONTINUOUS
 62
    3
 10
1651.1295749999999
 20
697.36967499999969
 40
12.049939999999999
 50
270
 51
299.86283400000599
  0
ARC
  8
_0-3_躯体と製品
  6
CONTINUOUS
 62
    3
 10
1663.1295149999996
 20
697.36967499999969
 40
12.049939999999999
 50
240.1371659999939
 51
270
  0
LINE
  8
_0-3_躯体と製品
  6
CONTINUOUS
 62
    3
 10
1657.1295450000007
 20
686.91972499999974
 11
1657.1295450000007
 21
698.31966499999976
  0
ARC
  8
_0-3_躯体と製品
  6
CONTINUOUS
 62
    3
 10
1674.5315449999998
 20
701.31966499999976
 40
3
 50
270
 51
330.00000000000267
  0
ARC
  8
_0-3_躯体と製品
  6
CONTINUOUS
 62
    3
 10
1642.1294950000001
 20
774.18162499999994
 40
4.9999700000000002
 50
0
 51
180
  0
LINE
  8
_0-3_躯体と製品
  6
CONTINUOUS
 62
    4
 10
1678.1293049999995
 20
786.39968499999964
 11
1636.1295249999985
 21
786.39968499999964
  0
LINE
  8
_0-3_躯体と製品
  6
CONTINUOUS
 62
    3
 10
1632.1295449999998
 20
765.27317500000095
 11
1637.1295149999996
 21
765.27317500000095
  0
LINE
  8
_0-3_躯体と製品
  6
CONTINUOUS
 62
    3
 10
1632.1295449999998
 20
772.03527499999859
 11
1637.1295149999996
 21
772.03527499999859
  0
ARC
  8
_0-3_躯体と製品
  6
CONTINUOUS
 62
    4
 10
1636.1295249999985
 20
782.39970499999959
 40
3.9999799999999999
 50
90
 51
180
  0
LINE
  8
_0-3_躯体と製品
  6
CONTINUOUS
 62
    3
 10
1677.1293150000001
 20
765.27317500000095
 11
1682.1292850000009
 21
765.27317500000095
  0
LINE
  8
_0-3_躯体と製品
  6
CONTINUOUS
 62
    3
 10
1647.1294650000009
 20
765.27317500000095
 11
1667.1293650000007
 21
765.27317500000095
  0
LINE
  8
_0-3_躯体と製品
  6
CONTINUOUS
 62
    3
 10
1662.129385000002
 20
774.51299499999982
 11
1657.1294149999994
 21
771.62626499999874
  0
LINE
  8
_0-3_躯体と製品
  6
CONTINUOUS
 62
    3
 10
1662.129385000002
 20
780.28647499999965
 11
1662.129385000002
 21
774.51299499999982
  0
LINE
  8
_0-3_躯体と製品
  6
CONTINUOUS
 62
    3
 10
1657.1294149999994
 20
783.17320499999983
 11
1662.129385000002
 21
780.28647499999965
  0
LINE
  8
_0-3_躯体と製品
  6
CONTINUOUS
 62
    3
 10
1652.1294450000005
 20
780.28647499999965
 11
1657.1294149999994
 21
783.17320499999983
  0
LINE
  8
_0-3_躯体と製品
  6
CONTINUOUS
 62
    3
 10
1652.1294450000005
 20
774.51299499999982
 11
1652.1294450000005
 21
780.28647499999965
  0
LINE
  8
_0-3_躯体と製品
  6
CONTINUOUS
 62
    3
 10
1657.1294149999994
 20
771.62626499999874
 11
1652.1294450000005
 21
774.51299499999982
  0
CIRCLE
  8
_0-3_躯体と製品
  6
CONTINUOUS
 62
    3
 10
1657.1294149999994
 20
777.39973499999974
 40
2.499989999999999
  0
CIRCLE
  8
_0-3_躯体と製品
  6
CONTINUOUS
 62
    3
 10
1657.1294149999994
 20
777.39973499999974
 40
2.999979999999999
  0
CIRCLE
  8
_0-3_躯体と製品
  6
CONTINUOUS
 62
    3
 10
1657.1294149999994
 20
777.39973499999974
 40
4.9999700000000002
  0
LINE
  8
_0-3_躯体と製品
  6
CONTINUOUS
 62
    4
 10
1651.6294450000014
 20
776.14974499999994
 11
1652.0304250000008
 21
776.14974499999994
  0
ARC
  8
_0-3_躯体と製品
  6
CONTINUOUS
 62
    4
 10
1651.6294450000014
 20
776.64973499999974
 40
0.5
 50
180
 51
270
  0
LINE
  8
_0-3_躯体と製品
  6
CONTINUOUS
 62
    4
 10
1651.1294449999996
 20
778.14973499999974
 11
1651.1294449999996
 21
776.64973499999974
  0
ARC
  8
_0-3_躯体と製品
  6
CONTINUOUS
 62
    4
 10
1651.6294450000014
 20
778.14973499999974
 40
0.5
 50
90
 51
180
  0
LINE
  8
_0-3_躯体と製品
  6
CONTINUOUS
 62
    4
 10
1652.0304250000008
 20
778.64972499999999
 11
1651.6294450000014
 21
778.64972499999999
  0
LINE
  8
_0-3_躯体と製品
  6
CONTINUOUS
 62
    4
 10
1662.6293849999993
 20
776.14974499999994
 11
1662.2284050000017
 21
776.14974499999994
  0
ARC
  8
_0-3_躯体と製品
  6
CONTINUOUS
 62
    4
 10
1662.6293849999993
 20
776.64973499999974
 40
0.5
 50
270
 51
0
  0
LINE
  8
_0-3_躯体と製品
  6
CONTINUOUS
 62
    4
 10
1663.1293849999993
 20
778.14973499999974
 11
1663.1293849999993
 21
776.64973499999974
  0
ARC
  8
_0-3_躯体と製品
  6
CONTINUOUS
 62
    4
 10
1662.6293849999993
 20
778.14973499999974
 40
0.5
 50
0
 51
90
  0
LINE
  8
_0-3_躯体と製品
  6
CONTINUOUS
 62
    4
 10
1662.2284050000017
 20
778.64972499999999
 11
1662.6293849999993
 21
778.64972499999999
  0
ARC
  8
_0-3_躯体と製品
  6
CONTINUOUS
 62
    3
 10
1672.1293349999987
 20
774.18162499999994
 40
4.9999700000000002
 50
0
 51
180
  0
LINE
  8
_0-3_躯体と製品
  6
CONTINUOUS
 62
    3
 10
1677.1293150000001
 20
772.03527499999859
 11
1682.1292850000009
 21
772.03527499999859
  0
LINE
  8
_0-3_躯体と製品
  6
CONTINUOUS
 62
    3
 10
1647.1294650000009
 20
772.03527499999859
 11
1656.4209850000007
 21
772.03527499999859
  0
LINE
  8
_0-3_躯体と製品
  6
CONTINUOUS
 62
    3
 10
1657.8378450000018
 20
772.03527499999859
 11
1667.1293650000007
 21
772.03527499999859
  0
ARC
  8
_0-3_躯体と製品
  6
CONTINUOUS
 62
    4
 10
1678.1293049999995
 20
782.39970499999959
 40
3.9999799999999999
 50
0
 51
90
  0
INSERT
  2
-001-_D4
  8
_0-2_寸法
 10
-2665.8268628136393
 20
-1349.6078757820062
 41
8
 42
8
 50
0
  0
INSERT
  2
-002-_D5
  8
_0-2_寸法
 10
-2665.8268628136393
 20
-1349.6078757820062
 41
8
 42
8
 50
0
  0
INSERT
  2
-003-_D6
  8
_0-2_寸法
 10
-2665.8268628136393
 20
-1349.6078757820062
 41
8
 42
8
 50
0
  0
INSERT
  2
-004-_D7
  8
_0-2_寸法
 10
-2665.8268628136393
 20
-1349.6078757820062
 41
8
 42
8
 50
0
  0
INSERT
  2
-005-_D8
  8
_0-2_寸法
 10
-2665.8268628136393
 20
-1349.6078757820062
 41
8
 42
8
 50
0
  0
INSERT
  2
-006-_D9
  8
_0-2_寸法
 10
-2665.8268628136393
 20
-1349.6078757820062
 41
8
 42
8
 50
0
  0
INSERT
  2
-007-_D10
  8
_0-2_寸法
 10
-2665.8268628136393
 20
-1349.6078757820062
 41
8
 42
8
 50
0
  0
INSERT
  2
-008-_D11
  8
_0-2_寸法
 10
-2665.8268628136393
 20
-1349.6078757820062
 41
8
 42
8
 50
0
  0
INSERT
  2
-009-_D12
  8
_0-2_寸法
 10
-2665.8268628136393
 20
-1349.6078757820062
 41
8
 42
8
 50
0
  0
ENDSEC
  0
EOF
