  0
SECTION
  2
HEADER
  9
$ACADVER
  1
AC1009
  9
$INSBASE
 10
0
 20
0
 30
0
  9
$EXTMIN
 10
0
 20
0
  9
$EXTMAX
 10
841
 20
594
  9
$LIMMIN
 10
0
 20
0
  9
$LIMMAX
 10
841
 20
594
  9
$LTSCALE
 40
1
  0
ENDSEC
  0
SECTION
  2
TABLES
  0
TABLE
  2
LTYPE
 70
     9
  0
LTYPE
  2
CONTINUOUS
 70
    64
  3
実線
 72
    65
 73
     0
 40
0.0
  0
LTYPE
  2
DASHED1
 70
    64
  3
--  --  --  --  --  --  --  --  
 72
    65
 73
     2
 40
2.5
 49
1.25
 49
-1.25
  0
LTYPE
  2
DASHED2
 70
    64
  3
----    ----    ----    ----    
 72
    65
 73
     2
 40
5.0
 49
2.5
 49
-2.5
  0
LTYPE
  2
DASHED3
 70
    64
  3
------  ------  ------  ------  
 72
    65
 73
     2
 40
5.0
 49
3.75
 49
-1.25
  0
LTYPE
  2
CENTER1
 70
    64
  3
----- - ----- - ----- - ----- - 
 72
    65
 73
     4
 40
10.0
 49
6.25
 49
-1.25
 49
1.25
 49
-1.25
  0
LTYPE
  2
CENTER2
 70
    64
  3
----------  --  ----------  --  
 72
    65
 73
     4
 40
20.0
 49
12.5
 49
-2.5
 49
2.5
 49
-2.5
  0
LTYPE
  2
PHANTOM1
 70
    64
  3
--- - - --- - - --- - - --- - - 
 72
    65
 73
     6
 40
10.0
 49
3.25
 49
-1.25
 49
1.25
 49
-1.25
 49
1.25
 49
-1.25
  0
LTYPE
  2
PHANTOM2
 70
    64
  3
--------  -  -  --------  -  -  
 72
    65
 73
     6
 40
20.0
 49
10.0
 49
-2.5
 49
1.25
 49
-2.5
 49
1.25
 49
-2.5
  0
LTYPE
  2
DOT
 70
    64
  3
-   -   -   -   -   -   -   -   
 72
    65
 73
     2
 40
2.5
 49
0.625
 49
-1.875
  0
LTYPE
  2
DUMMY
 70
    64
  3
ダミー
 72
    65
 73
     0
 40
0.0
  0
LTYPE
  2
RAND1
 70
    64
  3
ランダム線1
 72
    65
 73
     4
 40
10.0
 49
1.0
 49
-2.0
 49
3.0
 49
-4.0
  0
LTYPE
  2
RAND2
 70
    64
  3
ランダム線2
 72
    65
 73
     4
 40
14.0
 49
2.0
 49
-3.0
 49
4.0
 49
-5.0
  0
LTYPE
  2
RAND3
 70
    64
  3
ランダム線3
 72
    65
 73
     4
 40
18.0
 49
3.0
 49
-4.0
 49
5.0
 49
-6.0
  0
LTYPE
  2
RAND4
 70
    64
  3
ランダム線4
 72
    65
 73
     4
 40
22.0
 49
4.0
 49
-5.0
 49
6.0
 49
-7.0
  0
LTYPE
  2
RAND5
 70
    64
  3
ランダム線5
 72
    65
 73
     4
 40
26.0
 49
5.0
 49
-6.0
 49
7.0
 49
-8.0
  0
LTYPE
  2
LONG1
 70
    64
  3
----------  --  ----------  --  
 72
    65
 73
     4
 40
40.0
 49
32.5
 49
-2.5
 49
2.5
 49
-2.5
  0
LTYPE
  2
LONG2
 70
    64
  3
--------  -  -  --------  -  -  
 72
    65
 73
     6
 40
40.0
 49
30.0
 49
-2.5
 49
1.25
 49
-2.5
 49
1.25
 49
-2.5
  0
LTYPE
  2
LONG3
 70
    64
  3
+++++++++++++++..+++++++++++++++
 72
    65
 73
     2
 40
40.0
 49
37.5
 49
-2.5
  0
LTYPE
  2
LONG4
 70
    64
  3
+++++++++++++++..+++++++++++++++
 72
    65
 73
     2
 40
80.0
 49
75.0
 49
-5.0
  0
LTYPE
  2
LONG5
 70
    64
  3
----------  --  ----------  --  
 72
    65
 73
     4
 40
60.0
 49
37.5
 49
-7.5
 49
7.5
 49
-7.5
  0
LTYPE
  2
dashed
 70
   64
  3
-------   -------------   ------
 72
   65
 73
    2
 40
7.5
 49
6
 49
-1.5
  0
LTYPE
  2
dashed_spaced
 70
   64
  3
----        --------        ----
 72
   65
 73
    2
 40
12
 49
6
 49
-6
  0
LTYPE
  2
long_dashed_dotted
 70
   64
  3
------------- --- --------------
 72
   65
 73
    4
 40
15.25
 49
12
 49
-1.5
 49
0.25
 49
-1.5
  0
LTYPE
  2
long_dashed_double-dotted
 70
   64
  3
----------- --- --- ------------
 72
   65
 73
    6
 40
17
 49
12
 49
-1.5
 49
0.25
 49
-1.5
 49
0.25
 49
-1.5
  0
LTYPE
  2
long_dashed_triplicate-dotted
 70
   64
  3
--------- --- --- --- ----------
 72
   65
 73
    8
 40
18.75
 49
12
 49
-1.5
 49
0.25
 49
-1.5
 49
0.25
 49
-1.5
 49
0.25
 49
-1.5
  0
LTYPE
  2
dotted
 70
   64
  3
   -       -       -       -    
 72
   65
 73
    2
 40
1.75
 49
0.25
 49
-1.5
  0
LTYPE
  2
chain
 70
   64
  3
-------------- -- --------------
 72
   65
 73
    4
 40
18.5
 49
12
 49
-1.5
 49
3.5
 49
-1.5
  0
LTYPE
  2
chain_double_dash
 70
   64
  3
------------ -- -- -------------
 72
   65
 73
    6
 40
23.5
 49
12
 49
-1.5
 49
3.5
 49
-1.5
 49
3.5
 49
-1.5
  0
LTYPE
  2
dashed_dotted
 70
   64
  3
-----------     -     ----------
 72
   65
 73
    4
 40
9.25
 49
6
 49
-1.5
 49
0.25
 49
-1.5
  0
LTYPE
  2
double-dashed_dotted
 70
   64
  3
------   -----------   -   -----
 72
   65
 73
    6
 40
16.75
 49
6
 49
-1.5
 49
6
 49
-1.5
 49
0.25
 49
-1.5
  0
LTYPE
  2
dashed_double-dotted
 70
   64
  3
---------    -    -    ---------
 72
   65
 73
    6
 40
11
 49
6
 49
-1.5
 49
0.25
 49
-1.5
 49
0.25
 49
-1.5
  0
LTYPE
  2
double-dashed_double-dotted
 70
   64
  3
-----   ---------   -   -   ----
 72
   65
 73
    8
 40
18.5
 49
6
 49
-1.5
 49
6
 49
-1.5
 49
0.25
 49
-1.5
 49
0.25
 49
-1.5
  0
LTYPE
  2
dashed_triplicate-dotted
 70
   64
  3
-------    -    -    -    ------
 72
   65
 73
    8
 40
12.75
 49
6
 49
-1.5
 49
0.25
 49
-1.5
 49
0.25
 49
-1.5
 49
0.25
 49
-1.5
  0
LTYPE
  2
double-dashed_triplicate-dotted
 70
   64
  3
-----  ---------  -  -  -  -----
 72
   65
 73
   10
 40
20.25
 49
6
 49
-1.5
 49
6
 49
-1.5
 49
0.25
 49
-1.5
 49
0.25
 49
-1.5
 49
0.25
 49
-1.5
  0
LTYPE
  2
undefined
 70
   64
  3
--------------------------------
 72
   65
 73
    0
 40
0
  0
LTYPE
  2
PLINE2
 70
   64
  3
------     -----------     -----
 72
   65
 73
    2
 40
3
 49
2.1000000000000001
 49
-0.9
  0
ENDTAB
  0
TABLE
  2
STYLE
  5
3
100
AcDbSymbolTable
 70
     1
  0
STYLE
  5
10
100
AcDbSymbolTableRecord
100
AcDbTextStyleTableRecord
  2
STANDARD
 70
     0
 40
0.0
 41
1.0
 50
0.0
 71
     0
 42
0.2
  3
txt
  4
bigfont.shx
  0
STYLE
  5
26
100
AcDbSymbolTableRecord
100
AcDbTextStyleTableRecord
  2
TATEGAKI
 70
    68
 40
0.0
 41
1.0
 50
0.0
 71
     0
 42
1.0
  3
txt
  4
bigfont.shx
  0
ENDTAB
  0
TABLE
  2
LAYER
 70
    5
  0
LAYER
  2
_0-2_寸法
 70
   64
 62
    7
  6
CONTINUOUS
  0
LAYER
  2
_0-3_躯体と製品
 70
   64
 62
    7
  6
CONTINUOUS
  0
LAYER
  2
_0-4_文字-記号
 70
   64
 62
    7
  6
CONTINUOUS
  0
LAYER
  2
_0-5_中心線
 70
   64
 62
    7
  6
CONTINUOUS
  0
LAYER
  2
ADD_LINE
 70
   64
 62
    7
  6
CONTINUOUS
  0
ENDTAB
  0
ENDSEC
  0
SECTION
  2
BLOCKS
  0
BLOCK
  2
-000-_Dot
 70
   64
 10
0
 20
0
 30
0
  0
CIRCLE
  8
_0-0_0
  6
CONTINUOUS
 62
    7
 10
0
 20
0
 40
0.25
  0
LINE
  8
_0-0_0
  6
CONTINUOUS
 62
    7
 10
0.25
 20
0
 11
-0.25
 21
0
  0
LINE
  8
_0-0_0
  6
CONTINUOUS
 62
    7
 10
-0.5
 20
0
 11
-1
 21
0
  0
ENDBLK
  0
BLOCK
  2
-001-_D2
 70
   64
 10
0
 20
0
 30
0
  0
LINE
  8
_0-2_寸法
  6
CONTINUOUS
 62
    4
 10
23342.90901791312
 20
5924.0253557661681
 11
23250.478025270058
 21
5924.0253557661681
  0
LINE
  8
_0-2_寸法
  6
CONTINUOUS
 62
    4
 10
23342.90901791312
 20
5024.0253557661681
 11
23250.478025270058
 21
5024.0253557661681
  0
LINE
  8
_0-2_寸法
  6
CONTINUOUS
 62
    4
 10
23250.478025270058
 20
5923.0253557661681
 11
23250.478025270058
 21
5025.0253557661672
  0
INSERT
  2
-000-_Dot
  8
_0-2_寸法
 10
23250.478025270058
 20
5924.0253557661681
 41
1
 42
1
 50
90
  0
INSERT
  2
-000-_Dot
  8
_0-2_寸法
 10
23250.478025270058
 20
5024.0253557661681
 41
1
 42
1
 50
270
  0
TEXT
  8
_0-2_寸法
 62
    7
 10
23246.478025270058
 20
5467.2753557661717
 40
9
 41
1
 50
90
  1
900
  0
POINT
  8
_0-1_Defpoints
 62
    7
 10
23342.90901791312
 20
5924.0253557661681
  0
POINT
  8
_0-1_Defpoints
 62
    7
 10
23342.90901791312
 20
5024.0253557661681
  0
POINT
  8
_0-1_Defpoints
 62
    7
 10
23250.478025270058
 20
5024.0253557661681
  0
ENDBLK
  0
BLOCK
  2
-002-_D3
 70
   64
 10
0
 20
0
 30
0
  0
LINE
  8
_0-2_寸法
  6
CONTINUOUS
 62
    4
 10
23342.90901791312
 20
5024.0253557661681
 11
23250.478025270058
 21
5024.0253557661681
  0
LINE
  8
_0-2_寸法
  6
CONTINUOUS
 62
    4
 10
23356.5863586419
 20
4924.0263557661874
 11
23250.478025270058
 21
4924.0263557661874
  0
LINE
  8
_0-2_寸法
  6
CONTINUOUS
 62
    4
 10
23250.478025270058
 20
5023.025355766169
 11
23250.478025270058
 21
4925.0263557661874
  0
INSERT
  2
-000-_Dot
  8
_0-2_寸法
 10
23250.478025270058
 20
5024.0253557661681
 41
1
 42
1
 50
90
  0
INSERT
  2
-000-_Dot
  8
_0-2_寸法
 10
23250.478025270058
 20
4924.0263557661874
 41
1
 42
1
 50
270
  0
TEXT
  8
_0-2_寸法
 62
    7
 10
23246.478025270058
 20
4967.2758557661809
 40
9
 41
1
 50
90
  1
100
  0
POINT
  8
_0-1_Defpoints
 62
    7
 10
23342.90901791312
 20
5024.0253557661681
  0
POINT
  8
_0-1_Defpoints
 62
    7
 10
23356.5863586419
 20
4924.0263557661874
  0
POINT
  8
_0-1_Defpoints
 62
    7
 10
23250.478025270058
 20
4924.0263557661874
  0
ENDBLK
  0
BLOCK
  2
-003-_D4
 70
   64
 10
0
 20
0
 30
0
  0
LINE
  8
_0-2_寸法
  6
CONTINUOUS
 62
    4
 10
23446.59110006443
 20
5574.0266557175073
 11
23659.929105315328
 21
5574.0266557175073
  0
LINE
  8
_0-2_寸法
  6
CONTINUOUS
 62
    4
 10
23446.59110006443
 20
5854.0266557175082
 11
23659.929105315328
 21
5854.0266557175082
  0
LINE
  8
_0-2_寸法
  6
CONTINUOUS
 62
    4
 10
23659.929105315328
 20
5575.0266557175082
 11
23659.929105315328
 21
5853.0266557175073
  0
INSERT
  2
-000-_Dot
  8
_0-2_寸法
 10
23659.929105315328
 20
5574.0266557175073
 41
1
 42
1
 50
270
  0
INSERT
  2
-000-_Dot
  8
_0-2_寸法
 10
23659.929105315328
 20
5854.0266557175082
 41
1
 42
1
 50
90
  0
TEXT
  8
_0-2_寸法
 62
    7
 10
23655.929105315328
 20
5707.2766557175109
 40
9
 41
1
 50
90
  1
280
  0
POINT
  8
_0-1_Defpoints
 62
    7
 10
23446.59110006443
 20
5574.0266557175073
  0
POINT
  8
_0-1_Defpoints
 62
    7
 10
23446.59110006443
 20
5854.0266557175082
  0
POINT
  8
_0-1_Defpoints
 62
    7
 10
23659.929105315328
 20
5854.0266557175082
  0
ENDBLK
  0
BLOCK
  2
-004-_D5
 70
   64
 10
0
 20
0
 30
0
  0
LINE
  8
_0-2_寸法
  6
CONTINUOUS
 62
    4
 10
23446.59110006443
 20
5854.0266557175082
 11
23659.929105315328
 21
5854.0266557175082
  0
LINE
  8
_0-2_寸法
  6
CONTINUOUS
 62
    4
 10
23446.59110006443
 20
5864.0266557175073
 11
23659.929105315328
 21
5864.0266557175073
  0
LINE
  8
_0-2_寸法
  6
CONTINUOUS
 62
    4
 10
23659.929105315328
 20
5855.0266557175073
 11
23659.929105315328
 21
5863.0266557175082
  0
INSERT
  2
-000-_Dot
  8
_0-2_寸法
 10
23659.929105315328
 20
5854.0266557175082
 41
1
 42
1
 50
270
  0
INSERT
  2
-000-_Dot
  8
_0-2_寸法
 10
23659.929105315328
 20
5864.0266557175073
 41
1
 42
1
 50
90
  0
TEXT
  8
_0-2_寸法
 62
    7
 10
23655.929105315328
 20
5854.5266557175109
 40
9
 41
1
 50
90
  1
10
  0
POINT
  8
_0-1_Defpoints
 62
    7
 10
23446.59110006443
 20
5854.0266557175082
  0
POINT
  8
_0-1_Defpoints
 62
    7
 10
23446.59110006443
 20
5864.0266557175073
  0
POINT
  8
_0-1_Defpoints
 62
    7
 10
23659.929105315328
 20
5864.0266557175073
  0
ENDBLK
  0
BLOCK
  2
-005-_D6
 70
   64
 10
0
 20
0
 30
0
  0
LINE
  8
_0-2_寸法
  6
CONTINUOUS
 62
    4
 10
23446.59110006443
 20
5864.0266557175073
 11
23659.929105315328
 21
5864.0266557175073
  0
LINE
  8
_0-2_寸法
  6
CONTINUOUS
 62
    4
 10
23446.59110006443
 20
6144.0266557175073
 11
23659.929105315328
 21
6144.0266557175073
  0
LINE
  8
_0-2_寸法
  6
CONTINUOUS
 62
    4
 10
23659.929105315328
 20
5865.0266557175073
 11
23659.929105315328
 21
6143.0266557175073
  0
INSERT
  2
-000-_Dot
  8
_0-2_寸法
 10
23659.929105315328
 20
5864.0266557175073
 41
1
 42
1
 50
270
  0
INSERT
  2
-000-_Dot
  8
_0-2_寸法
 10
23659.929105315328
 20
6144.0266557175073
 41
1
 42
1
 50
90
  0
TEXT
  8
_0-2_寸法
 62
    7
 10
23655.929105315328
 20
5997.2766557175109
 40
9
 41
1
 50
90
  1
280
  0
POINT
  8
_0-1_Defpoints
 62
    7
 10
23446.59110006443
 20
5864.0266557175073
  0
POINT
  8
_0-1_Defpoints
 62
    7
 10
23446.59110006443
 20
6144.0266557175073
  0
POINT
  8
_0-1_Defpoints
 62
    7
 10
23659.929105315328
 20
6144.0266557175073
  0
ENDBLK
  0
BLOCK
  2
-006-_D7
 70
   64
 10
0
 20
0
 30
0
  0
LINE
  8
_0-2_寸法
  6
CONTINUOUS
 62
    4
 10
23446.59110006443
 20
5564.0266557175073
 11
23659.929105315328
 21
5564.0266557175073
  0
LINE
  8
_0-2_寸法
  6
CONTINUOUS
 62
    4
 10
23446.59110006443
 20
5574.0266557175073
 11
23659.929105315328
 21
5574.0266557175073
  0
LINE
  8
_0-2_寸法
  6
CONTINUOUS
 62
    4
 10
23659.929105315328
 20
5565.0266557175073
 11
23659.929105315328
 21
5573.0266557175073
  0
INSERT
  2
-000-_Dot
  8
_0-2_寸法
 10
23659.929105315328
 20
5564.0266557175073
 41
1
 42
1
 50
270
  0
INSERT
  2
-000-_Dot
  8
_0-2_寸法
 10
23659.929105315328
 20
5574.0266557175073
 41
1
 42
1
 50
90
  0
TEXT
  8
_0-2_寸法
 62
    7
 10
23655.929105315328
 20
5564.5266557175109
 40
9
 41
1
 50
90
  1
10
  0
POINT
  8
_0-1_Defpoints
 62
    7
 10
23446.59110006443
 20
5564.0266557175073
  0
POINT
  8
_0-1_Defpoints
 62
    7
 10
23446.59110006443
 20
5574.0266557175073
  0
POINT
  8
_0-1_Defpoints
 62
    7
 10
23659.929105315328
 20
5574.0266557175073
  0
ENDBLK
  0
BLOCK
  2
-007-_D8
 70
   64
 10
0
 20
0
 30
0
  0
LINE
  8
_0-2_寸法
  6
CONTINUOUS
 62
    4
 10
24044.753104378931
 20
6266.0259049310434
 11
23952.322111735859
 21
6266.0259049310434
  0
LINE
  8
_0-2_寸法
  6
CONTINUOUS
 62
    4
 10
24044.75310437892
 20
5366.0259049310434
 11
23952.322111735859
 21
5366.0259049310434
  0
LINE
  8
_0-2_寸法
  6
CONTINUOUS
 62
    4
 10
23952.322111735859
 20
6265.0259049310434
 11
23952.322111735859
 21
5367.0259049310434
  0
INSERT
  2
-000-_Dot
  8
_0-2_寸法
 10
23952.322111735859
 20
6266.0259049310434
 41
1
 42
1
 50
90
  0
INSERT
  2
-000-_Dot
  8
_0-2_寸法
 10
23952.322111735859
 20
5366.0259049310434
 41
1
 42
1
 50
270
  0
TEXT
  8
_0-2_寸法
 62
    7
 10
23948.322111735859
 20
5809.2759049310471
 40
9
 41
1
 50
90
  1
900
  0
POINT
  8
_0-1_Defpoints
 62
    7
 10
24044.753104378931
 20
6266.0259049310434
  0
POINT
  8
_0-1_Defpoints
 62
    7
 10
24044.75310437892
 20
5366.0259049310434
  0
POINT
  8
_0-1_Defpoints
 62
    7
 10
23952.322111735859
 20
5366.0259049310434
  0
ENDBLK
  0
BLOCK
  2
-008-_D9
 70
   64
 10
0
 20
0
 30
0
  0
LINE
  8
_0-2_寸法
  6
CONTINUOUS
 62
    4
 10
24044.75310437892
 20
5366.0259049310434
 11
23952.322111735859
 21
5366.0259049310434
  0
LINE
  8
_0-2_寸法
  6
CONTINUOUS
 62
    4
 10
24058.430445107711
 20
5266.0269049310618
 11
23952.322111735859
 21
5266.0269049310618
  0
LINE
  8
_0-2_寸法
  6
CONTINUOUS
 62
    4
 10
23952.322111735859
 20
5365.0259049310444
 11
23952.322111735859
 21
5267.0269049310618
  0
INSERT
  2
-000-_Dot
  8
_0-2_寸法
 10
23952.322111735859
 20
5366.0259049310434
 41
1
 42
1
 50
90
  0
INSERT
  2
-000-_Dot
  8
_0-2_寸法
 10
23952.322111735859
 20
5266.0269049310618
 41
1
 42
1
 50
270
  0
TEXT
  8
_0-2_寸法
 62
    7
 10
23948.322111735859
 20
5309.2764049310563
 40
9
 41
1
 50
90
  1
100
  0
POINT
  8
_0-1_Defpoints
 62
    7
 10
24044.75310437892
 20
5366.0259049310434
  0
POINT
  8
_0-1_Defpoints
 62
    7
 10
24058.430445107711
 20
5266.0269049310618
  0
POINT
  8
_0-1_Defpoints
 62
    7
 10
23952.322111735859
 20
5266.0269049310618
  0
ENDBLK
  0
BLOCK
  2
-009-_D10
 70
   64
 10
0
 20
0
 30
0
  0
LINE
  8
_0-2_寸法
  6
CONTINUOUS
 62
    4
 10
24148.435186530231
 20
5574.0266557175073
 11
24361.773191781129
 21
5574.0266557175073
  0
LINE
  8
_0-2_寸法
  6
CONTINUOUS
 62
    4
 10
24148.435186530231
 20
5854.0266557175082
 11
24361.773191781129
 21
5854.0266557175082
  0
LINE
  8
_0-2_寸法
  6
CONTINUOUS
 62
    4
 10
24361.773191781129
 20
5575.0266557175082
 11
24361.773191781129
 21
5853.0266557175073
  0
INSERT
  2
-000-_Dot
  8
_0-2_寸法
 10
24361.773191781129
 20
5574.0266557175073
 41
1
 42
1
 50
270
  0
INSERT
  2
-000-_Dot
  8
_0-2_寸法
 10
24361.773191781129
 20
5854.0266557175082
 41
1
 42
1
 50
90
  0
TEXT
  8
_0-2_寸法
 62
    7
 10
24357.77319178114
 20
5707.2766557175109
 40
9
 41
1
 50
90
  1
280
  0
POINT
  8
_0-1_Defpoints
 62
    7
 10
24148.435186530231
 20
5574.0266557175073
  0
POINT
  8
_0-1_Defpoints
 62
    7
 10
24148.435186530231
 20
5854.0266557175082
  0
POINT
  8
_0-1_Defpoints
 62
    7
 10
24361.773191781129
 20
5854.0266557175082
  0
ENDBLK
  0
BLOCK
  2
-010-_D11
 70
   64
 10
0
 20
0
 30
0
  0
LINE
  8
_0-2_寸法
  6
CONTINUOUS
 62
    4
 10
24148.435186530231
 20
5854.0266557175082
 11
24361.773191781129
 21
5854.0266557175082
  0
LINE
  8
_0-2_寸法
  6
CONTINUOUS
 62
    4
 10
24148.435186530231
 20
5864.0266557175073
 11
24361.773191781129
 21
5864.0266557175073
  0
LINE
  8
_0-2_寸法
  6
CONTINUOUS
 62
    4
 10
24361.773191781129
 20
5855.0266557175073
 11
24361.773191781129
 21
5863.0266557175082
  0
INSERT
  2
-000-_Dot
  8
_0-2_寸法
 10
24361.773191781129
 20
5854.0266557175082
 41
1
 42
1
 50
270
  0
INSERT
  2
-000-_Dot
  8
_0-2_寸法
 10
24361.773191781129
 20
5864.0266557175073
 41
1
 42
1
 50
90
  0
TEXT
  8
_0-2_寸法
 62
    7
 10
24357.77319178114
 20
5854.5266557175109
 40
9
 41
1
 50
90
  1
10
  0
POINT
  8
_0-1_Defpoints
 62
    7
 10
24148.435186530231
 20
5854.0266557175082
  0
POINT
  8
_0-1_Defpoints
 62
    7
 10
24148.435186530231
 20
5864.0266557175073
  0
POINT
  8
_0-1_Defpoints
 62
    7
 10
24361.773191781129
 20
5864.0266557175073
  0
ENDBLK
  0
BLOCK
  2
-011-_D12
 70
   64
 10
0
 20
0
 30
0
  0
LINE
  8
_0-2_寸法
  6
CONTINUOUS
 62
    4
 10
24148.435186530231
 20
5864.0266557175073
 11
24361.773191781129
 21
5864.0266557175073
  0
LINE
  8
_0-2_寸法
  6
CONTINUOUS
 62
    4
 10
24148.435186530231
 20
6144.0266557175073
 11
24361.773191781129
 21
6144.0266557175073
  0
LINE
  8
_0-2_寸法
  6
CONTINUOUS
 62
    4
 10
24361.773191781129
 20
5865.0266557175073
 11
24361.773191781129
 21
6143.0266557175073
  0
INSERT
  2
-000-_Dot
  8
_0-2_寸法
 10
24361.773191781129
 20
5864.0266557175073
 41
1
 42
1
 50
270
  0
INSERT
  2
-000-_Dot
  8
_0-2_寸法
 10
24361.773191781129
 20
6144.0266557175073
 41
1
 42
1
 50
90
  0
TEXT
  8
_0-2_寸法
 62
    7
 10
24357.77319178114
 20
5997.2766557175109
 40
9
 41
1
 50
90
  1
280
  0
POINT
  8
_0-1_Defpoints
 62
    7
 10
24148.435186530231
 20
5864.0266557175073
  0
POINT
  8
_0-1_Defpoints
 62
    7
 10
24148.435186530231
 20
6144.0266557175073
  0
POINT
  8
_0-1_Defpoints
 62
    7
 10
24361.773191781129
 20
6144.0266557175073
  0
ENDBLK
  0
BLOCK
  2
-012-_D13
 70
   64
 10
0
 20
0
 30
0
  0
LINE
  8
_0-2_寸法
  6
CONTINUOUS
 62
    4
 10
24148.435186530231
 20
5564.0266557175073
 11
24361.773191781129
 21
5564.0266557175073
  0
LINE
  8
_0-2_寸法
  6
CONTINUOUS
 62
    4
 10
24148.435186530231
 20
5574.0266557175073
 11
24361.773191781129
 21
5574.0266557175073
  0
LINE
  8
_0-2_寸法
  6
CONTINUOUS
 62
    4
 10
24361.773191781129
 20
5565.0266557175073
 11
24361.773191781129
 21
5573.0266557175073
  0
INSERT
  2
-000-_Dot
  8
_0-2_寸法
 10
24361.773191781129
 20
5564.0266557175073
 41
1
 42
1
 50
270
  0
INSERT
  2
-000-_Dot
  8
_0-2_寸法
 10
24361.773191781129
 20
5574.0266557175073
 41
1
 42
1
 50
90
  0
TEXT
  8
_0-2_寸法
 62
    7
 10
24357.77319178114
 20
5564.5266557175109
 40
9
 41
1
 50
90
  1
10
  0
POINT
  8
_0-1_Defpoints
 62
    7
 10
24148.435186530231
 20
5564.0266557175073
  0
POINT
  8
_0-1_Defpoints
 62
    7
 10
24148.435186530231
 20
5574.0266557175073
  0
POINT
  8
_0-1_Defpoints
 62
    7
 10
24361.773191781129
 20
5574.0266557175073
  0
ENDBLK
  0
BLOCK
  2
-013-_D14
 70
   64
 10
0
 20
0
 30
0
  0
LINE
  8
_0-2_寸法
  6
CONTINUOUS
 62
    4
 10
23446.59110006443
 20
6144.0266557175073
 11
23659.929105315328
 21
6144.0266557175073
  0
LINE
  8
_0-2_寸法
  6
CONTINUOUS
 62
    4
 10
23446.59110006443
 20
6154.0266557175073
 11
23659.929105315328
 21
6154.0266557175073
  0
LINE
  8
_0-2_寸法
  6
CONTINUOUS
 62
    4
 10
23659.929105315328
 20
6145.0266557175082
 11
23659.929105315328
 21
6153.0266557175073
  0
INSERT
  2
-000-_Dot
  8
_0-2_寸法
 10
23659.929105315328
 20
6144.0266557175073
 41
1
 42
1
 50
270
  0
INSERT
  2
-000-_Dot
  8
_0-2_寸法
 10
23659.929105315328
 20
6154.0266557175073
 41
1
 42
1
 50
90
  0
TEXT
  8
_0-2_寸法
 62
    7
 10
23655.929105315328
 20
6144.5266557175109
 40
9
 41
1
 50
90
  1
10
  0
POINT
  8
_0-1_Defpoints
 62
    7
 10
23446.59110006443
 20
6144.0266557175073
  0
POINT
  8
_0-1_Defpoints
 62
    7
 10
23446.59110006443
 20
6154.0266557175073
  0
POINT
  8
_0-1_Defpoints
 62
    7
 10
23659.929105315328
 20
6154.0266557175073
  0
ENDBLK
  0
BLOCK
  2
-014-_D15
 70
   64
 10
0
 20
0
 30
0
  0
LINE
  8
_0-2_寸法
  6
CONTINUOUS
 62
    4
 10
24148.435186530231
 20
6144.0266557175073
 11
24361.773191781129
 21
6144.0266557175073
  0
LINE
  8
_0-2_寸法
  6
CONTINUOUS
 62
    4
 10
24148.435186530231
 20
6154.0266557175073
 11
24361.773191781129
 21
6154.0266557175073
  0
LINE
  8
_0-2_寸法
  6
CONTINUOUS
 62
    4
 10
24361.773191781129
 20
6145.0266557175082
 11
24361.773191781129
 21
6153.0266557175073
  0
INSERT
  2
-000-_Dot
  8
_0-2_寸法
 10
24361.773191781129
 20
6144.0266557175073
 41
1
 42
1
 50
270
  0
INSERT
  2
-000-_Dot
  8
_0-2_寸法
 10
24361.773191781129
 20
6154.0266557175073
 41
1
 42
1
 50
90
  0
TEXT
  8
_0-2_寸法
 62
    7
 10
24357.77319178114
 20
6144.5266557175109
 40
9
 41
1
 50
90
  1
10
  0
POINT
  8
_0-1_Defpoints
 62
    7
 10
24148.435186530231
 20
6144.0266557175073
  0
POINT
  8
_0-1_Defpoints
 62
    7
 10
24148.435186530231
 20
6154.0266557175073
  0
POINT
  8
_0-1_Defpoints
 62
    7
 10
24361.773191781129
 20
6154.0266557175073
  0
ENDBLK
  0
BLOCK
  2
-015-_D16
 70
   64
 10
0
 20
0
 30
0
  0
LINE
  8
_0-2_寸法
  6
CONTINUOUS
 62
    4
 10
23446.59110006443
 20
5574.0266557175073
 11
23693.92358574886
 21
5574.0266557175073
  0
LINE
  8
_0-2_寸法
  6
CONTINUOUS
 62
    4
 10
23446.59110006443
 20
5864.0266557175073
 11
23693.92358574886
 21
5864.0266557175073
  0
LINE
  8
_0-2_寸法
  6
CONTINUOUS
 62
    4
 10
23693.92358574886
 20
5575.0266557175082
 11
23693.92358574886
 21
5863.0266557175082
  0
INSERT
  2
-000-_Dot
  8
_0-2_寸法
 10
23693.92358574886
 20
5574.0266557175073
 41
1
 42
1
 50
270
  0
INSERT
  2
-000-_Dot
  8
_0-2_寸法
 10
23693.92358574886
 20
5864.0266557175073
 41
1
 42
1
 50
90
  0
TEXT
  8
_0-2_寸法
 62
    7
 10
23689.92358574886
 20
5712.27665571751
 40
9
 41
1
 50
90
  1
290
  0
POINT
  8
_0-1_Defpoints
 62
    7
 10
23446.59110006443
 20
5574.0266557175073
  0
POINT
  8
_0-1_Defpoints
 62
    7
 10
23446.59110006443
 20
5864.0266557175073
  0
POINT
  8
_0-1_Defpoints
 62
    7
 10
23693.92358574886
 20
5864.0266557175073
  0
ENDBLK
  0
BLOCK
  2
-016-_D17
 70
   64
 10
0
 20
0
 30
0
  0
LINE
  8
_0-2_寸法
  6
CONTINUOUS
 62
    4
 10
24148.435186530231
 20
5574.0266557175073
 11
24395.767672214661
 21
5574.0266557175073
  0
LINE
  8
_0-2_寸法
  6
CONTINUOUS
 62
    4
 10
24148.435186530231
 20
5864.0266557175073
 11
24395.767672214661
 21
5864.0266557175073
  0
LINE
  8
_0-2_寸法
  6
CONTINUOUS
 62
    4
 10
24395.767672214661
 20
5575.0266557175082
 11
24395.767672214661
 21
5863.0266557175082
  0
INSERT
  2
-000-_Dot
  8
_0-2_寸法
 10
24395.767672214661
 20
5574.0266557175073
 41
1
 42
1
 50
270
  0
INSERT
  2
-000-_Dot
  8
_0-2_寸法
 10
24395.767672214661
 20
5864.0266557175073
 41
1
 42
1
 50
90
  0
TEXT
  8
_0-2_寸法
 62
    7
 10
24391.767672214672
 20
5712.27665571751
 40
9
 41
1
 50
90
  1
290
  0
POINT
  8
_0-1_Defpoints
 62
    7
 10
24148.435186530231
 20
5574.0266557175073
  0
POINT
  8
_0-1_Defpoints
 62
    7
 10
24148.435186530231
 20
5864.0266557175073
  0
POINT
  8
_0-1_Defpoints
 62
    7
 10
24395.767672214661
 20
5864.0266557175073
  0
ENDBLK
  0
ENDSEC
  0
SECTION
  2
ENTITIES
  0
LINE
  8
_0-3_躯体と製品
  6
CONTINUOUS
 62
    4
 10
3.6926009706257901
 20
-367.80695486544664
 11
3.692600970636704
 21
281.99446182403517
  0
LINE
  8
_0-3_躯体と製品
  6
CONTINUOUS
 62
    4
 10
5.692600970636704
 20
-2.7065382560876969
 11
5.6926011839677813
 21
281.99298724710479
  0
INSERT
  2
-001-_D2
  8
_0-2_寸法
 10
-23420.898498593793
 20
-5292.433193973593
 41
1
 42
1
 50
0
  0
LINE
  8
_0-3_躯体と製品
  6
CONTINUOUS
 62
    7
 10
-59.307721088032849
 20
-368.40683822085612
 11
-59.307720850614714
 21
1083.5927109574513
  0
LINE
  8
_0-3_躯体と製品
  6
CONTINUOUS
 62
    4
 10
5.6926014706368733
 20
2.2934617439123031
 11
5.6926014706368733
 21
280.29346174391139
  0
LINE
  8
_0-3_躯体と製品
  6
CONTINUOUS
 62
    4
 10
5.6926014706368733
 20
280.29346174391139
 11
9.8926014706485148
 21
280.29346174391139
  0
LINE
  8
_0-3_躯体と製品
  6
CONTINUOUS
 62
    4
 10
9.8926014706485148
 20
280.29346174391139
 11
9.8926014706485148
 21
273.29346174391139
  0
LINE
  8
_0-3_躯体と製品
  6
CONTINUOUS
 62
    4
 10
9.8926014706485148
 20
273.29346174391139
 11
11.392601470648515
 21
273.29346174391139
  0
LINE
  8
_0-3_躯体と製品
  6
CONTINUOUS
 62
    4
 10
11.392601470648515
 20
273.29346174391139
 11
11.392601470648515
 21
281.5934617439143
  0
LINE
  8
_0-3_躯体と製品
  6
CONTINUOUS
 62
    4
 10
11.392601470648515
 20
281.5934617439143
 11
13.29260147066816
 21
281.5934617439143
  0
LINE
  8
_0-3_躯体と製品
  6
CONTINUOUS
 62
    4
 10
13.29260147066816
 20
281.5934617439143
 11
18.192601470636873
 21
271.5934617439143
  0
LINE
  8
_0-3_躯体と製品
  6
CONTINUOUS
 62
    4
 10
18.192601470636873
 20
271.5934617439143
 11
20.692601470636873
 21
271.5934617439143
  0
LINE
  8
_0-3_躯体と製品
  6
CONTINUOUS
 62
    4
 10
20.692601470636873
 20
271.5934617439143
 11
20.692601470636873
 21
-8.406538256085696
  0
LINE
  8
_0-3_躯体と製品
  6
CONTINUOUS
 62
    4
 10
20.692601470636873
 20
-8.406538256085696
 11
17.192601470636873
 21
-8.406538256085696
  0
LINE
  8
_0-3_躯体と製品
  6
CONTINUOUS
 62
    4
 10
17.192601470636873
 20
-8.406538256085696
 11
13.592601470656518
 21
0.9934617439075736
  0
LINE
  8
_0-3_躯体と製品
  6
CONTINUOUS
 62
    4
 10
13.592601470656518
 20
0.9934617439075736
 11
11.392601470648515
 21
0.9934617439075736
  0
LINE
  8
_0-3_躯体と製品
  6
CONTINUOUS
 62
    4
 10
11.392601470648515
 20
0.9934617439075736
 11
11.392601470648515
 21
9.2934617439123031
  0
LINE
  8
_0-3_躯体と製品
  6
CONTINUOUS
 62
    4
 10
11.392601470648515
 20
9.2934617439123031
 11
9.8926014706485148
 21
9.2934617439123031
  0
LINE
  8
_0-3_躯体と製品
  6
CONTINUOUS
 62
    4
 10
9.8926014706485148
 20
9.2934617439123031
 11
9.8926014706485148
 21
2.2934617439123031
  0
LINE
  8
_0-3_躯体と製品
  6
CONTINUOUS
 62
    4
 10
9.8926014706485148
 20
2.2934617439123031
 11
5.6926014706368733
 21
2.2934617439123031
  0
INSERT
  2
-002-_D3
  8
_0-2_寸法
 10
-23420.898498593793
 20
-5292.433193973593
 41
1
 42
1
 50
0
  0
LINE
  8
_0-5_中心線
  6
CENTER1
 62
    7
 10
-72.989480680673296
 20
-268.4078382074249
 11
-4.540038162322162
 21
-268.4078382074249
  0
LINE
  8
_0-3_躯体と製品
  6
CONTINUOUS
 62
    4
 10
-54.0080381559128
 20
-263.407838219925
 11
-31.307399014352995
 21
-263.40783820433444
  0
LINE
  8
_0-3_躯体と製品
  6
CONTINUOUS
 62
    4
 10
-54.0080381559128
 20
-264.40783821742298
 11
-31.307399014352995
 21
-264.40783821742298
  0
LINE
  8
_0-3_躯体と製品
  6
CONTINUOUS
 62
    4
 10
-57.008038148414926
 20
-260.40783822741923
 11
-59.308038142691657
 21
-260.40783822741923
  0
LINE
  8
_0-3_躯体と製品
  6
CONTINUOUS
 62
    4
 10
-54.0080381559128
 20
-273.40783819491025
 11
-31.307399014352995
 21
-273.40783821051991
  0
LINE
  8
_0-3_躯体と製品
  6
CONTINUOUS
 62
    4
 10
-54.0080381559128
 20
-272.40783768391975
 11
-31.307399014352995
 21
-272.40783833686328
  0
LINE
  8
_0-3_躯体と製品
  6
CONTINUOUS
 62
    4
 10
-57.008038148414926
 20
-276.40783818741602
 11
-59.308038142691657
 21
-276.40783818741602
  0
LINE
  8
_0-3_躯体と製品
  6
CONTINUOUS
 62
    4
 10
-57.008038148414926
 20
-278.4078381824238
 11
-54.36785375537147
 21
-276.20768452153698
  0
ARC
  8
_0-3_躯体と製品
  6
CONTINUOUS
 62
    4
 10
-55.008038153433233
 20
-275.43946324383171
 40
0.9999999975204594
 50
309.80557109112203
 51
359.99999999885739
  0
LINE
  8
_0-3_躯体と製品
  6
CONTINUOUS
 62
    4
 10
-54.0080381559128
 20
-275.43946324385161
 11
-54.0080381559128
 21
-261.37621317098274
  0
ARC
  8
_0-3_躯体と製品
  6
CONTINUOUS
 62
    4
 10
-55.008038153432324
 20
-261.37621317100309
 40
0.9999999975194987
 50
0.0000000011689636
 51
50.19442890890376
  0
LINE
  8
_0-3_躯体と製品
  6
CONTINUOUS
 62
    4
 10
-54.36785375537147
 20
-260.60799189329828
 11
-57.008038148414926
 21
-258.407838232426
  0
LINE
  8
_0-3_躯体と製品
  6
CONTINUOUS
 62
    4
 10
-59.308038142691657
 20
-293.40783814492443
 11
-57.008038148414926
 21
-293.40783814492443
  0
LINE
  8
_0-3_躯体と製品
  6
CONTINUOUS
 62
    4
 10
-57.008038148414926
 20
-293.40783814492443
 11
-57.008038148414926
 21
-243.40783826992538
  0
LINE
  8
_0-3_躯体と製品
  6
CONTINUOUS
 62
    4
 10
-57.008038148414926
 20
-243.40783826992538
 11
-59.308038142691657
 21
-243.40783826992538
  0
LINE
  8
_0-3_躯体と製品
  6
CONTINUOUS
 62
    4
 10
-59.308038142691657
 20
-243.40783826992538
 11
-59.308038142691657
 21
-293.40783814492443
  0
LINE
  8
_0-3_躯体と製品
  6
CONTINUOUS
 62
    4
 10
321.09004347063819
 20
-8.4074867023782645
 11
49.692601435766846
 21
-8.4064182687216089
  0
LINE
  8
_0-3_躯体と製品
  6
CONTINUOUS
 62
    4
 10
321.09004347063819
 20
-41.407486702377355
 11
18.692601470636873
 21
-41.407538256074986
  0
LINE
  8
_0-3_躯体と製品
  6
CONTINUOUS
 62
    4
 10
321.09004347063819
 20
-26.407486702378264
 11
18.692601470636873
 21
-26.407538256074986
  0
LINE
  8
_0-3_躯体と製品
  6
CONTINUOUS
 62
    3
 10
321.09004347063819
 20
-36.407486702378264
 11
18.692601470636873
 21
-36.407538256074986
  0
LINE
  8
_0-3_躯体と製品
  6
CONTINUOUS
 62
    3
 10
321.09004347063819
 20
-31.407486702378264
 11
18.692601470636873
 21
-31.407538256074986
  0
LINE
  8
_0-3_躯体と製品
  6
CONTINUOUS
 62
    4
 10
20.692601470636873
 20
-21.405538256081854
 11
29.692601435766846
 21
-21.405330457443597
  0
LINE
  8
_0-3_躯体と製品
  6
CONTINUOUS
 62
    4
 10
29.692601435766846
 20
-21.405330457443597
 11
29.692601435766846
 21
91.59456405198307
  0
LINE
  8
_0-3_躯体と製品
  6
CONTINUOUS
 62
    4
 10
29.692601435766846
 20
91.59456405198307
 11
20.692601470636873
 21
91.594356253344813
  0
LINE
  8
_0-3_躯体と製品
  6
CONTINUOUS
 62
    4
 10
20.692601470636873
 20
91.594356253344813
 11
20.692601470636873
 21
-21.405538256081854
  0
LINE
  8
_0-3_躯体と製品
  6
CONTINUOUS
 62
    4
 10
18.692601470636873
 20
-70.407538256074986
 11
18.692601470636873
 21
-41.407538256074986
  0
LINE
  8
_0-3_躯体と製品
  6
CONTINUOUS
 62
    4
 10
31.692601435766846
 20
-26.406330457448348
 11
47.692601435766846
 21
-26.406330457448348
  0
ARC
  8
_0-3_躯体と製品
  6
CONTINUOUS
 62
    4
 10
47.692601435767301
 20
-24.406330457448803
 40
1.9999999999995453
 50
269.99999999998698
 51
359.99999999998698
  0
LINE
  8
_0-3_躯体と製品
  6
CONTINUOUS
 62
    4
 10
49.692601435766846
 20
-24.406330457449258
 11
49.692601435766846
 21
-10.406330457449258
  0
ARC
  8
_0-3_躯体と製品
  6
CONTINUOUS
 62
    4
 10
47.692601435766392
 20
-10.406330457448803
 40
2.0000000000004543
 50
359.99999999998698
 51
89.999999999986997
  0
LINE
  8
_0-3_躯体と製品
  6
CONTINUOUS
 62
    4
 10
47.692601435766846
 20
-8.4063304574483482
 11
31.692601435766846
 21
-8.4063304574483482
  0
ARC
  8
_0-3_躯体と製品
  6
CONTINUOUS
 62
    4
 10
31.692601435767301
 20
-10.406330457448803
 40
2.0000000000004543
 50
90.000000000013031
 51
180.00000000001302
  0
LINE
  8
_0-3_躯体と製品
  6
CONTINUOUS
 62
    4
 10
29.692601435766846
 20
-10.406330457449258
 11
29.692601435766846
 21
-24.406330457449258
  0
LINE
  8
_0-3_躯体と製品
  6
CONTINUOUS
 62
    4
 10
29.692601435766846
 20
-24.406330457449258
 11
31.692601435766846
 21
-26.406330457448348
  0
LINE
  8
_0-3_躯体と製品
  6
CONTINUOUS
 62
    4
 10
49.692601435766846
 20
-8.4063304574629001
 11
49.692601435766846
 21
-26.4063304574629
  0
LINE
  8
_0-3_躯体と製品
  6
CONTINUOUS
 62
    4
 10
18.692601470636873
 20
-41.407538256074986
 11
18.692601470636873
 21
-26.405538256081854
  0
LINE
  8
_0-3_躯体と製品
  6
CONTINUOUS
 62
    4
 10
5.6926014117270824
 20
580.59346182403715
 11
5.6926014321652474
 21
861.99346198430612
  0
LINE
  8
_0-3_躯体と製品
  6
CONTINUOUS
 62
    4
 10
3.692600970636704
 20
580.59346182403715
 11
3.692600970636704
 21
861.99346198430612
  0
LINE
  8
_0-3_躯体と製品
  6
CONTINUOUS
 62
    4
 10
5.6926011905452469
 20
290.59346198431194
 11
5.6926013978154515
 21
571.99346198430612
  0
LINE
  8
_0-3_躯体と製品
  6
CONTINUOUS
 62
    4
 10
3.692600970636704
 20
290.59346198431194
 11
3.692600970636704
 21
571.99346198430612
  0
INSERT
  2
-003-_D4
  8
_0-2_寸法
 10
-23420.898498593793
 20
-5292.433193973593
 41
1
 42
1
 50
0
  0
LINE
  8
_0-3_躯体と製品
  6
CONTINUOUS
 62
    4
 10
5.6926014706368733
 20
292.2934617439123
 11
5.6926014706368733
 21
570.2934617439123
  0
LINE
  8
_0-3_躯体と製品
  6
CONTINUOUS
 62
    4
 10
5.6926014706368733
 20
570.2934617439123
 11
9.8926014706485148
 21
570.2934617439123
  0
LINE
  8
_0-3_躯体と製品
  6
CONTINUOUS
 62
    4
 10
9.8926014706485148
 20
570.2934617439123
 11
9.8926014706485148
 21
563.29346174391139
  0
LINE
  8
_0-3_躯体と製品
  6
CONTINUOUS
 62
    4
 10
9.8926014706485148
 20
563.29346174391139
 11
11.392601470648515
 21
563.29346174391139
  0
LINE
  8
_0-3_躯体と製品
  6
CONTINUOUS
 62
    4
 10
11.392601470648515
 20
563.29346174391139
 11
11.392601470648515
 21
571.5934617439143
  0
LINE
  8
_0-3_躯体と製品
  6
CONTINUOUS
 62
    4
 10
11.392601470648515
 20
571.5934617439143
 11
13.29260147066816
 21
571.5934617439143
  0
LINE
  8
_0-3_躯体と製品
  6
CONTINUOUS
 62
    4
 10
13.29260147066816
 20
571.5934617439143
 11
18.192601470636873
 21
561.59346174391521
  0
LINE
  8
_0-3_躯体と製品
  6
CONTINUOUS
 62
    4
 10
18.192601470636873
 20
561.59346174391521
 11
20.692601470636873
 21
561.59346174391521
  0
LINE
  8
_0-3_躯体と製品
  6
CONTINUOUS
 62
    4
 10
20.692601470636873
 20
561.59346174391521
 11
20.692601470636873
 21
281.5934617439143
  0
LINE
  8
_0-3_躯体と製品
  6
CONTINUOUS
 62
    4
 10
20.692601470636873
 20
281.5934617439143
 11
17.192601470636873
 21
281.5934617439143
  0
LINE
  8
_0-3_躯体と製品
  6
CONTINUOUS
 62
    4
 10
17.192601470636873
 20
281.5934617439143
 11
13.592601470656518
 21
290.99346174390757
  0
LINE
  8
_0-3_躯体と製品
  6
CONTINUOUS
 62
    4
 10
13.592601470656518
 20
290.99346174390757
 11
11.392601470648515
 21
290.99346174390757
  0
LINE
  8
_0-3_躯体と製品
  6
CONTINUOUS
 62
    4
 10
11.392601470648515
 20
290.99346174390757
 11
11.392601470648515
 21
299.29346174391139
  0
LINE
  8
_0-3_躯体と製品
  6
CONTINUOUS
 62
    4
 10
11.392601470648515
 20
299.29346174391139
 11
9.8926014706485148
 21
299.29346174391139
  0
LINE
  8
_0-3_躯体と製品
  6
CONTINUOUS
 62
    4
 10
9.8926014706485148
 20
299.29346174391139
 11
9.8926014706485148
 21
292.2934617439123
  0
LINE
  8
_0-3_躯体と製品
  6
CONTINUOUS
 62
    4
 10
9.8926014706485148
 20
292.2934617439123
 11
5.6926014706368733
 21
292.2934617439123
  0
LINE
  8
_0-4_文字-記号
  6
CONTINUOUS
 62
    7
 10
6.892601117677259
 20
287.69365342711717
 11
35.358944670308119
 21
336.99880676598241
  0
LINE
  8
_0-4_文字-記号
  6
CONTINUOUS
 62
    7
 10
35.358944670308119
 20
336.99880676598241
 11
84.985329639017436
 21
336.99880676598241
  0
LINE
  8
_0-5_中心線
  6
CENTER1
 62
    7
 10
-5.0573983823342132
 20
286.29346174391139
 11
25.663601470656431
 21
286.29346174391139
  0
LINE
  8
_0-3_躯体と製品
  6
CONTINUOUS
 62
    3
 10
9.9926009706759942
 20
299.29346174391139
 11
11.192600970636704
 21
299.29346174391139
  0
ARC
  8
_0-3_躯体と製品
  6
CONTINUOUS
 62
    3
 10
7.3926008236157941
 20
290.59446182404099
 40
1.7
 50
91.965247106496065
 51
180.03369800002926
  0
ARC
  8
_0-3_躯体と製品
  6
CONTINUOUS
 62
    3
 10
7.392601117677259
 20
281.99346198430612
 40
1.7
 50
180.0000059997609
 51
269.9999969984521
  0
LINE
  8
_0-3_躯体と製品
  6
CONTINUOUS
 62
    3
 10
6.892601117677259
 20
281.99346198430612
 11
-0.1073988823227409
 21
281.99346198430612
  0
LINE
  8
_0-3_躯体と製品
  6
CONTINUOUS
 62
    3
 10
-0.1073988823227409
 20
281.99346198430612
 11
-0.1073988823227409
 21
290.59346198431194
  0
LINE
  8
_0-3_躯体と製品
  6
CONTINUOUS
 62
    3
 10
-0.1073988823227409
 20
290.59346198431194
 11
6.892601117677259
 21
290.59346198431194
  0
LINE
  8
_0-3_躯体と製品
  6
CONTINUOUS
 62
    3
 10
6.892601117677259
 20
290.59346198431194
 11
6.892601117677259
 21
281.99346198430612
  0
ARC
  8
_0-3_躯体と製品
  6
CONTINUOUS
 62
    3
 10
7.3926001217478188
 20
290.59445993673125
 40
0.5
 50
93.624452754466617
 51
180.1143570002184
  0
ARC
  8
_0-3_躯体と製品
  6
CONTINUOUS
 62
    3
 10
9.4926009706869081
 20
292.79345985660075
 40
1.7
 50
270
 51
0
  0
LINE
  8
_0-3_躯体と製品
  6
CONTINUOUS
 62
    3
 10
7.5396011156954046
 20
290.29446197296238
 11
7.0926011156552704
 21
290.29346197295763
  0
LINE
  8
_0-3_躯体と製品
  6
CONTINUOUS
 62
    3
 10
9.3206011156580644
 20
288.92546197295633
 11
9.4196011156964232
 21
288.97746197296692
  0
LINE
  8
_0-3_躯体と製品
  6
CONTINUOUS
 62
    3
 10
8.692601115686557
 20
290.05846197295796
 11
7.5396011156954046
 21
290.29446197296238
  0
LINE
  8
_0-3_躯体と製品
  6
CONTINUOUS
 62
    3
 10
9.2646011156757595
 20
287.04146197296541
 11
9.5086011156781751
 21
287.04146197296541
  0
ARC
  8
_0-3_躯体と製品
  6
CONTINUOUS
 62
    3
 10
9.2646011156757595
 20
286.84246197295761
 40
0.2
 50
90.000002998212935
 51
180.0000059997609
  0
ARC
  8
_0-3_躯体と製品
  6
CONTINUOUS
 62
    3
 10
7.0926011156552704
 20
290.09346197296236
 40
0.2
 50
90.000002998212935
 51
180.0000059997609
  0
ARC
  8
_0-3_躯体と製品
  6
CONTINUOUS
 62
    3
 10
9.4116011156656896
 20
288.74946197296413
 40
0.2
 50
117.3410229995562
 51
203.6129460013876
  0
ARC
  8
_0-3_躯体と製品
  6
CONTINUOUS
 62
    3
 10
9.5086011156781751
 20
287.14146197295668
 40
0.1
 50
269.99999699845216
 51
4.6199239999127863
  0
LINE
  8
_0-3_躯体と製品
  6
CONTINUOUS
 62
    3
 10
9.2286011157084431
 20
288.66946197296238
 11
9.3446011156884197
 21
288.39346197296436
  0
LINE
  8
_0-3_躯体と製品
  6
CONTINUOUS
 62
    3
 10
9.3446011156884197
 20
288.39346197296436
 11
9.4806011156870227
 21
287.94146197295959
  0
LINE
  8
_0-3_躯体と製品
  6
CONTINUOUS
 62
    3
 10
9.4806011156870227
 20
287.94146197295959
 11
9.5806011156673776
 21
287.46546197296357
  0
LINE
  8
_0-3_躯体と製品
  6
CONTINUOUS
 62
    3
 10
9.5806011156673776
 20
287.46546197296357
 11
9.6076011156656023
 21
287.14946197295922
  0
ARC
  8
_0-3_躯体と製品
  6
CONTINUOUS
 62
    3
 10
9.4926009706869081
 20
292.79346182081827
 40
0.5
 50
269.96818668809385
 51
0.0000000000000254
  0
LINE
  8
_0-3_躯体と製品
  6
CONTINUOUS
 62
    3
 10
9.4923233471454296
 20
292.29346189788521
 11
7.3343022010667482
 21
292.29346190367687
  0
LINE
  8
_0-3_躯体と製品
  6
CONTINUOUS
 62
    3
 10
9.4926009706869081
 20
291.09345985660366
 11
7.3609918953879969
 21
291.09345985660366
  0
ARC
  8
_0-3_躯体と製品
  6
CONTINUOUS
 62
    3
 10
5.1083812573451723
 20
285.74517211739476
 40
4.8159999999999989
 50
318.09315000060133
 51
6.537158761713302
  0
ARC
  8
_0-3_躯体と製品
  6
CONTINUOUS
 62
    3
 10
9.2646011156757595
 20
285.74446199566137
 40
0.2
 50
179.9999940002391
 51
269.9999969984521
  0
LINE
  8
_0-3_躯体と製品
  6
CONTINUOUS
 62
    3
 10
8.692601115686557
 20
282.52846199566102
 11
8.692601115686557
 21
286.29346199565862
  0
LINE
  8
_0-3_躯体と製品
  6
CONTINUOUS
 62
    3
 10
9.9926009706759942
 20
273.29346190417164
 11
11.192600970636704
 21
273.29346190417164
  0
ARC
  8
_0-3_躯体と製品
  6
CONTINUOUS
 62
    3
 10
7.392601117677259
 20
281.99346198430612
 40
0.5
 50
180.0000059997609
 51
269.88540599791401
  0
ARC
  8
_0-3_躯体と製品
  6
CONTINUOUS
 62
    3
 10
9.4926009706869081
 20
279.79346190417164
 40
0.5
 50
0
 51
90
  0
LINE
  8
_0-3_躯体と製品
  6
CONTINUOUS
 62
    3
 10
9.4926009706869081
 20
280.29346190417164
 11
7.3926010286777455
 21
280.29346198430903
  0
LINE
  8
_0-3_躯体と製品
  6
CONTINUOUS
 62
    3
 10
9.9926009706759942
 20
279.79346190417164
 11
9.9926009706759942
 21
273.29346190417164
  0
ARC
  8
_0-3_躯体と製品
  6
CONTINUOUS
 62
    3
 10
9.4926009706869081
 20
279.79346190417164
 40
1.7
 50
0
 51
90
  0
LINE
  8
_0-3_躯体と製品
  6
CONTINUOUS
 62
    3
 10
9.4926009706869081
 20
281.49346190416873
 11
7.3916010970278876
 21
281.49346298434284
  0
LINE
  8
_0-3_躯体と製品
  6
CONTINUOUS
 62
    3
 10
11.192600970636704
 20
279.79346190417164
 11
11.192600970636704
 21
273.29346190417164
  0
LINE
  8
_0-3_躯体と製品
  6
CONTINUOUS
 62
    3
 10
9.5806011156673776
 20
285.12146199565359
 11
9.6076011156656023
 21
285.43746199565976
  0
LINE
  8
_0-3_躯体と製品
  6
CONTINUOUS
 62
    3
 10
9.4806011156870227
 20
284.64546199565939
 11
9.5806011156673776
 21
285.12146199565359
  0
LINE
  8
_0-3_躯体と製品
  6
CONTINUOUS
 62
    3
 10
9.3446011156884197
 20
284.19346199565371
 11
9.4806011156870227
 21
284.64546199565939
  0
LINE
  8
_0-3_躯体と製品
  6
CONTINUOUS
 62
    3
 10
9.2286011157084431
 20
283.91746199565569
 11
9.3446011156884197
 21
284.19346199565371
  0
ARC
  8
_0-3_躯体と製品
  6
CONTINUOUS
 62
    3
 10
9.5086011156781751
 20
285.4454619956623
 40
0.1
 50
355.38007600008717
 51
90.000002998212935
  0
ARC
  8
_0-3_躯体と製品
  6
CONTINUOUS
 62
    3
 10
9.4116011156656896
 20
283.83746199565303
 40
0.2
 50
156.38705399861229
 51
242.65897700044371
  0
ARC
  8
_0-3_躯体と製品
  6
CONTINUOUS
 62
    3
 10
7.0926011156552704
 20
282.49346199565662
 40
0.2
 50
179.9999940002391
 51
269.9999969984521
  0
LINE
  8
_0-3_躯体と製品
  6
CONTINUOUS
 62
    3
 10
9.2646011156757595
 20
285.54546199565266
 11
9.5086011156781751
 21
285.54546199565266
  0
LINE
  8
_0-3_躯体と製品
  6
CONTINUOUS
 62
    3
 10
8.692601115686557
 20
282.52846199566102
 11
7.5396011156954046
 21
282.29246199565569
  0
LINE
  8
_0-3_躯体と製品
  6
CONTINUOUS
 62
    3
 10
9.3206011156580644
 20
283.66146199566174
 11
9.4196011156964232
 21
283.60946199565115
  0
LINE
  8
_0-3_躯体と製品
  6
CONTINUOUS
 62
    3
 10
7.5396011156954046
 20
282.29246199565569
 11
7.0926011156552704
 21
282.29346199566044
  0
LINE
  8
_0-3_躯体と製品
  6
CONTINUOUS
 62
    3
 10
9.0646011156677559
 20
285.74546197296331
 11
9.0646011156677559
 21
286.29346197295763
  0
LINE
  8
_0-3_躯体と製品
  6
CONTINUOUS
 62
    3
 10
9.0646011156677559
 20
285.74446199566137
 11
9.0646011156677559
 21
286.29346199565862
  0
LINE
  8
_0-3_躯体と製品
  6
CONTINUOUS
 62
    3
 10
9.0646011156677559
 20
286.84246197295761
 11
9.0646011156677559
 21
286.29346197295763
  0
LINE
  8
_0-3_躯体と製品
  6
CONTINUOUS
 62
    3
 10
8.692601115686557
 20
290.05846197295796
 11
8.692601115686557
 21
286.29346197295763
  0
ARC
  8
_0-3_躯体と製品
  6
CONTINUOUS
 62
    3
 10
5.1083812573451723
 20
286.84175185122422
 40
4.8159999999999989
 50
353.46284123828673
 51
41.906849999398716
  0
LINE
  8
_0-3_躯体と製品
  6
CONTINUOUS
 62
    3
 10
9.0646011156677559
 20
286.84146199565475
 11
9.0646011156677559
 21
286.29346199565862
  0
LINE
  8
_0-3_躯体と製品
  6
CONTINUOUS
 62
    3
 10
9.9926009706759942
 20
299.29346190417073
 11
9.9926009706759942
 21
292.79346182081827
  0
LINE
  8
_0-3_躯体と製品
  6
CONTINUOUS
 62
    3
 10
11.192600970636704
 20
299.29346190417073
 11
11.192600970636704
 21
292.79345985660075
  0
LINE
  8
_0-3_躯体と製品
  6
CONTINUOUS
 62
    4
 10
-59.307720844102732
 20
606.59216185509013
 11
-57.007720849822363
 21
606.59216185509013
  0
LINE
  8
_0-3_躯体と製品
  6
CONTINUOUS
 62
    4
 10
-57.007720849822363
 20
606.59216185509013
 11
-57.007720849822363
 21
656.59216173007462
  0
LINE
  8
_0-3_躯体と製品
  6
CONTINUOUS
 62
    4
 10
-57.007720849822363
 20
656.59216173007462
 11
-59.307720844102732
 21
656.59216173007462
  0
LINE
  8
_0-3_躯体と製品
  6
CONTINUOUS
 62
    4
 10
-59.307720844102732
 20
656.59216173007462
 11
-59.307720844102732
 21
606.59216185509013
  0
LINE
  8
_0-5_中心線
  6
CENTER1
 62
    7
 10
-72.989480680673296
 20
631.5921617925751
 11
-4.540038162322162
 21
631.5921617925751
  0
LINE
  8
_0-3_躯体と製品
  6
CONTINUOUS
 62
    4
 10
-57.007720849822363
 20
639.59216177258077
 11
-59.307720844102732
 21
639.59216177258077
  0
LINE
  8
_0-3_躯体と製品
  6
CONTINUOUS
 62
    4
 10
-57.007720849822363
 20
623.59216181258398
 11
-59.307720844102732
 21
623.59216181258398
  0
LINE
  8
_0-3_躯体と製品
  6
CONTINUOUS
 62
    4
 10
-57.007720849822363
 20
621.59216181757529
 11
-54.367536456782545
 21
623.79231547846302
  0
ARC
  8
_0-3_躯体と製品
  6
CONTINUOUS
 62
    4
 10
-55.007720854850788
 20
624.56053675615715
 40
0.9999999975159735
 50
309.80557109181564
 51
359.99999999955099
  0
LINE
  8
_0-3_躯体と製品
  6
CONTINUOUS
 62
    4
 10
-54.007720857334789
 20
624.5605367561493
 11
-54.007720857334789
 21
638.62378682901635
  0
ARC
  8
_0-3_躯体と製品
  6
CONTINUOUS
 62
    4
 10
-55.007720854849822
 20
638.62378682900805
 40
0.9999999975150125
 50
0.0000000004753591
 51
50.194428908210163
  0
LINE
  8
_0-3_躯体と製品
  6
CONTINUOUS
 62
    4
 10
-54.367536456782545
 20
639.39200810670172
 11
-57.007720849822363
 21
641.59216176757491
  0
INSERT
  2
-004-_D5
  8
_0-2_寸法
 10
-23420.898498593793
 20
-5292.433193973593
 41
1
 42
1
 50
0
  0
LINE
  8
_0-3_躯体と製品
  6
CONTINUOUS
 62
    3
 10
11.192600970636704
 20
569.79346190417164
 11
11.192600970636704
 21
563.29346190417164
  0
LINE
  8
_0-3_躯体と製品
  6
CONTINUOUS
 62
    3
 10
9.9926009706759942
 20
569.79346190417164
 11
9.9926009706759942
 21
563.29346190417164
  0
LINE
  8
_0-3_躯体と製品
  6
CONTINUOUS
 62
    3
 10
9.9926009706759942
 20
563.29346190417164
 11
11.192600970636704
 21
563.29346190417164
  0
LINE
  8
_0-5_中心線
  6
CENTER1
 62
    7
 10
-5.0573983823342132
 20
576.29346174391139
 11
25.663601470656431
 21
576.29346174391139
  0
LINE
  8
_0-3_躯体と製品
  6
CONTINUOUS
 62
    3
 10
11.192600970636704
 20
589.29346190417073
 11
11.192600970636704
 21
582.79345985660075
  0
LINE
  8
_0-3_躯体と製品
  6
CONTINUOUS
 62
    3
 10
9.9926009706759942
 20
589.29346190417073
 11
9.9926009706759942
 21
582.79346182081827
  0
LINE
  8
_0-3_躯体と製品
  6
CONTINUOUS
 62
    3
 10
9.0646011156677559
 20
576.84146199565475
 11
9.0646011156677559
 21
576.29346199565862
  0
ARC
  8
_0-3_躯体と製品
  6
CONTINUOUS
 62
    3
 10
5.1083812573451723
 20
576.84175185122331
 40
4.8159999999999989
 50
353.46284123828673
 51
41.906849999398716
  0
LINE
  8
_0-3_躯体と製品
  6
CONTINUOUS
 62
    3
 10
8.692601115686557
 20
580.05846197295796
 11
8.692601115686557
 21
576.29346197295763
  0
LINE
  8
_0-3_躯体と製品
  6
CONTINUOUS
 62
    3
 10
9.0646011156677559
 20
576.84246197295761
 11
9.0646011156677559
 21
576.29346197295763
  0
LINE
  8
_0-3_躯体と製品
  6
CONTINUOUS
 62
    3
 10
9.0646011156677559
 20
575.74446199566137
 11
9.0646011156677559
 21
576.29346199565862
  0
LINE
  8
_0-3_躯体と製品
  6
CONTINUOUS
 62
    3
 10
9.0646011156677559
 20
575.74546197296331
 11
9.0646011156677559
 21
576.29346197295763
  0
LINE
  8
_0-3_躯体と製品
  6
CONTINUOUS
 62
    3
 10
7.5396011156954046
 20
572.29246199565478
 11
7.0926011156552704
 21
572.29346199566044
  0
LINE
  8
_0-3_躯体と製品
  6
CONTINUOUS
 62
    3
 10
9.3206011156580644
 20
573.66146199566174
 11
9.4196011156964232
 21
573.60946199565115
  0
LINE
  8
_0-3_躯体と製品
  6
CONTINUOUS
 62
    3
 10
8.692601115686557
 20
572.52846199566011
 11
7.5396011156954046
 21
572.29246199565478
  0
LINE
  8
_0-3_躯体と製品
  6
CONTINUOUS
 62
    3
 10
9.2646011156757595
 20
575.54546199565175
 11
9.5086011156781751
 21
575.54546199565175
  0
ARC
  8
_0-3_躯体と製品
  6
CONTINUOUS
 62
    3
 10
7.0926011156552704
 20
572.49346199565662
 40
0.2
 50
179.9999940002391
 51
269.9999969984521
  0
ARC
  8
_0-3_躯体と製品
  6
CONTINUOUS
 62
    3
 10
9.4116011156656896
 20
573.83746199565394
 40
0.2
 50
156.38705399861229
 51
242.65897700044371
  0
ARC
  8
_0-3_躯体と製品
  6
CONTINUOUS
 62
    3
 10
9.5086011156781751
 20
575.4454619956623
 40
0.1
 50
355.38007600008717
 51
90.000002998212935
  0
LINE
  8
_0-3_躯体と製品
  6
CONTINUOUS
 62
    3
 10
9.2286011157084431
 20
573.91746199565569
 11
9.3446011156884197
 21
574.19346199565371
  0
LINE
  8
_0-3_躯体と製品
  6
CONTINUOUS
 62
    3
 10
9.3446011156884197
 20
574.19346199565371
 11
9.4806011156870227
 21
574.64546199565757
  0
LINE
  8
_0-3_躯体と製品
  6
CONTINUOUS
 62
    3
 10
9.4806011156870227
 20
574.64546199565757
 11
9.5806011156673776
 21
575.12146199565359
  0
LINE
  8
_0-3_躯体と製品
  6
CONTINUOUS
 62
    3
 10
9.5806011156673776
 20
575.12146199565359
 11
9.6076011156656023
 21
575.43746199565976
  0
LINE
  8
_0-3_躯体と製品
  6
CONTINUOUS
 62
    3
 10
9.4926009706869081
 20
571.49346190416873
 11
7.3916010970278876
 21
571.49346298434284
  0
ARC
  8
_0-3_躯体と製品
  6
CONTINUOUS
 62
    3
 10
9.4926009706869081
 20
569.79346190417164
 40
1.7
 50
0
 51
90
  0
LINE
  8
_0-3_躯体と製品
  6
CONTINUOUS
 62
    3
 10
9.4926009706869081
 20
570.29346190417073
 11
7.3926010286777455
 21
570.29346198430903
  0
ARC
  8
_0-3_躯体と製品
  6
CONTINUOUS
 62
    3
 10
9.4926009706869081
 20
569.79346190417164
 40
0.5
 50
0
 51
90
  0
ARC
  8
_0-3_躯体と製品
  6
CONTINUOUS
 62
    3
 10
7.392601117677259
 20
571.99346198430612
 40
0.5
 50
180.0000059997609
 51
269.88540599791401
  0
LINE
  8
_0-3_躯体と製品
  6
CONTINUOUS
 62
    3
 10
8.692601115686557
 20
572.52846199566011
 11
8.692601115686557
 21
576.29346199565862
  0
ARC
  8
_0-3_躯体と製品
  6
CONTINUOUS
 62
    3
 10
9.2646011156757595
 20
575.74446199566137
 40
0.2
 50
179.9999940002391
 51
269.9999969984521
  0
ARC
  8
_0-3_躯体と製品
  6
CONTINUOUS
 62
    3
 10
5.1083812573451723
 20
575.74517211739476
 40
4.8159999999999989
 50
318.09315000060133
 51
6.537158761713302
  0
LINE
  8
_0-3_躯体と製品
  6
CONTINUOUS
 62
    3
 10
9.4926009706869081
 20
581.09345985660366
 11
7.3609918953879969
 21
581.09345985660366
  0
LINE
  8
_0-3_躯体と製品
  6
CONTINUOUS
 62
    3
 10
9.4923233471454296
 20
582.29346189788521
 11
7.3343022010667482
 21
582.29346190367687
  0
ARC
  8
_0-3_躯体と製品
  6
CONTINUOUS
 62
    3
 10
9.4926009706869081
 20
582.79346182081827
 40
0.5
 50
269.96818668809385
 51
0.0000000000000254
  0
LINE
  8
_0-3_躯体と製品
  6
CONTINUOUS
 62
    3
 10
9.5806011156673776
 20
577.46546197296357
 11
9.6076011156656023
 21
577.14946197295831
  0
LINE
  8
_0-3_躯体と製品
  6
CONTINUOUS
 62
    3
 10
9.4806011156870227
 20
577.94146197295959
 11
9.5806011156673776
 21
577.46546197296357
  0
LINE
  8
_0-3_躯体と製品
  6
CONTINUOUS
 62
    3
 10
9.3446011156884197
 20
578.39346197296527
 11
9.4806011156870227
 21
577.94146197295959
  0
LINE
  8
_0-3_躯体と製品
  6
CONTINUOUS
 62
    3
 10
9.2286011157084431
 20
578.66946197296238
 11
9.3446011156884197
 21
578.39346197296527
  0
ARC
  8
_0-3_躯体と製品
  6
CONTINUOUS
 62
    3
 10
9.5086011156781751
 20
577.14146197295668
 40
0.1
 50
269.99999699845216
 51
4.6199239999127863
  0
ARC
  8
_0-3_躯体と製品
  6
CONTINUOUS
 62
    3
 10
9.4116011156656896
 20
578.74946197296413
 40
0.2
 50
117.3410229995562
 51
203.6129460013876
  0
ARC
  8
_0-3_躯体と製品
  6
CONTINUOUS
 62
    3
 10
7.0926011156552704
 20
580.09346197296054
 40
0.2
 50
90.000002998212935
 51
180.0000059997609
  0
ARC
  8
_0-3_躯体と製品
  6
CONTINUOUS
 62
    3
 10
9.2646011156757595
 20
576.84246197295761
 40
0.2
 50
90.000002998212935
 51
180.0000059997609
  0
LINE
  8
_0-3_躯体と製品
  6
CONTINUOUS
 62
    3
 10
9.2646011156757595
 20
577.04146197296541
 11
9.5086011156781751
 21
577.04146197296541
  0
LINE
  8
_0-3_躯体と製品
  6
CONTINUOUS
 62
    3
 10
8.692601115686557
 20
580.05846197295796
 11
7.5396011156954046
 21
580.29446197296238
  0
LINE
  8
_0-3_躯体と製品
  6
CONTINUOUS
 62
    3
 10
9.3206011156580644
 20
578.92546197295724
 11
9.4196011156964232
 21
578.97746197296692
  0
LINE
  8
_0-3_躯体と製品
  6
CONTINUOUS
 62
    3
 10
7.5396011156954046
 20
580.29446197296238
 11
7.0926011156552704
 21
580.29346197295854
  0
ARC
  8
_0-3_躯体と製品
  6
CONTINUOUS
 62
    3
 10
9.4926009706869081
 20
582.79345985660075
 40
1.7
 50
270
 51
0
  0
ARC
  8
_0-3_躯体と製品
  6
CONTINUOUS
 62
    3
 10
7.3926001217478188
 20
580.59445993673035
 40
0.5
 50
93.624452754466617
 51
180.1143570002184
  0
LINE
  8
_0-3_躯体と製品
  6
CONTINUOUS
 62
    3
 10
6.892601117677259
 20
571.99346198430612
 11
-0.1073988823227409
 21
571.99346198430612
  0
LINE
  8
_0-3_躯体と製品
  6
CONTINUOUS
 62
    3
 10
-0.1073988823227409
 20
571.99346198430612
 11
-0.1073988823227409
 21
580.59346198431194
  0
LINE
  8
_0-3_躯体と製品
  6
CONTINUOUS
 62
    3
 10
-0.1073988823227409
 20
580.59346198431194
 11
6.892601117677259
 21
580.59346198431194
  0
LINE
  8
_0-3_躯体と製品
  6
CONTINUOUS
 62
    3
 10
6.892601117677259
 20
580.59346198431194
 11
6.892601117677259
 21
571.99346198430612
  0
ARC
  8
_0-3_躯体と製品
  6
CONTINUOUS
 62
    3
 10
7.392601117677259
 20
571.99346198430612
 40
1.7
 50
180.0000059997609
 51
269.9999969984521
  0
ARC
  8
_0-3_躯体と製品
  6
CONTINUOUS
 62
    3
 10
7.3926008236157941
 20
580.59446182404099
 40
1.7
 50
91.965247106496065
 51
180.03369800002926
  0
LINE
  8
_0-3_躯体と製品
  6
CONTINUOUS
 62
    3
 10
9.9926009706759942
 20
589.29346190417073
 11
11.192600970636704
 21
589.29346190417073
  0
TEXT
  8
_0-4_文字-記号
 62
    7
 10
38.925093669735361
 20
407.28282697990926
 40
9
 41
1
 50
0
  1
ＳＡテープ
  0
TEXT
  8
_0-4_文字-記号
 62
    7
 10
40.490556698096043
 20
339.92298127221602
 40
9
 41
1
 50
0
  1
固定金具
  0
LINE
  8
_0-3_躯体と製品
  6
CONTINUOUS
 62
    4
 10
-22.607399029351654
 20
655.71113353331293
 11
2.3926009706483455
 21
645.71113353331202
  0
LINE
  8
_0-3_躯体と製品
  6
CONTINUOUS
 62
    4
 10
2.3926009706483455
 20
645.71113353331202
 11
2.3926009706483455
 21
695.71113353331202
  0
LINE
  8
_0-3_躯体と製品
  6
CONTINUOUS
 62
    4
 10
2.3926009706483455
 20
695.71113353331202
 11
-22.607399029351654
 21
705.71113353331202
  0
LINE
  8
_0-3_躯体と製品
  6
CONTINUOUS
 62
    4
 10
-22.607399029351654
 20
705.71113353331202
 11
-22.607399029351654
 21
655.71113353331293
  0
LINE
  8
_0-3_躯体と製品
  6
CONTINUOUS
 62
    4
 10
2.3926009706483455
 20
645.71113353331202
 11
2.3926009706483455
 21
695.71113353331202
  0
TEXT
  8
_0-4_文字-記号
 62
    7
 10
62.134080225725484
 20
724.22554236287942
 40
9
 41
1
 50
0
  1
２５t ３２ｋｇ/ｍ
  0
TEXT
  8
_0-4_文字-記号
 62
    7
 10
52.560768751725846
 20
739.36128533987903
 40
9
 41
1
 50
0
  1
吸音材（グラスウール）
  0
TEXT
  8
_0-4_文字-記号
 62
    7
 10
56.051492170907295
 20
491.97928086605498
 40
9
 41
1
 50
0
  1
壁面板（オープンタイプ）
  0
TEXT
  8
_0-4_文字-記号
 62
    7
 10
77.964440643125272
 20
479.26633960350318
 40
9
 41
1
 50
0
  1
面幅 ２９０ １５t
  0
LINE
  8
_0-4_文字-記号
  6
CONTINUOUS
 62
    7
 10
20.692601470636873
 20
421.5934617439143
 11
50.867635796148534
 21
473.85815431578703
  0
LINE
  8
_0-4_文字-記号
  6
CONTINUOUS
 62
    7
 10
50.867635796148534
 20
473.85815431578703
 11
192.26916404789517
 21
473.85815431578703
  0
LINE
  8
_0-4_文字-記号
  6
CONTINUOUS
 62
    7
 10
-3.644531190613634
 20
675.71644792204643
 11
34.861921186857217
 21
742.41157985907284
  0
LINE
  8
_0-4_文字-記号
  6
CONTINUOUS
 62
    7
 10
34.861921186857217
 20
742.41157985907284
 11
49.194093333397177
 21
742.41157985907284
  0
LINE
  8
_0-3_躯体と製品
  6
CONTINUOUS
 62
    4
 10
5.6926014706368733
 20
582.2934617439123
 11
5.6926014706368733
 21
860.29346174391139
  0
LINE
  8
_0-3_躯体と製品
  6
CONTINUOUS
 62
    4
 10
5.6926014706368733
 20
860.29346174391139
 11
9.8926014706485148
 21
860.29346174391139
  0
LINE
  8
_0-3_躯体と製品
  6
CONTINUOUS
 62
    4
 10
9.8926014706485148
 20
860.29346174391139
 11
9.8926014706485148
 21
853.29346174391139
  0
LINE
  8
_0-3_躯体と製品
  6
CONTINUOUS
 62
    4
 10
9.8926014706485148
 20
853.29346174391139
 11
11.392601470648515
 21
853.29346174391139
  0
LINE
  8
_0-3_躯体と製品
  6
CONTINUOUS
 62
    4
 10
11.392601470648515
 20
853.29346174391139
 11
11.392601470648515
 21
861.5934617439143
  0
LINE
  8
_0-3_躯体と製品
  6
CONTINUOUS
 62
    4
 10
11.392601470648515
 20
861.5934617439143
 11
13.29260147066816
 21
861.5934617439143
  0
LINE
  8
_0-3_躯体と製品
  6
CONTINUOUS
 62
    4
 10
13.29260147066816
 20
861.5934617439143
 11
18.192601470636873
 21
851.5934617439143
  0
LINE
  8
_0-3_躯体と製品
  6
CONTINUOUS
 62
    4
 10
18.192601470636873
 20
851.5934617439143
 11
20.692601470636873
 21
851.5934617439143
  0
LINE
  8
_0-3_躯体と製品
  6
CONTINUOUS
 62
    4
 10
20.692601470636873
 20
851.5934617439143
 11
20.692601470636873
 21
571.5934617439143
  0
LINE
  8
_0-3_躯体と製品
  6
CONTINUOUS
 62
    4
 10
20.692601470636873
 20
571.5934617439143
 11
17.192601470636873
 21
571.5934617439143
  0
LINE
  8
_0-3_躯体と製品
  6
CONTINUOUS
 62
    4
 10
17.192601470636873
 20
571.5934617439143
 11
13.592601470656518
 21
580.99346174390757
  0
LINE
  8
_0-3_躯体と製品
  6
CONTINUOUS
 62
    4
 10
13.592601470656518
 20
580.99346174390757
 11
11.392601470648515
 21
580.99346174390757
  0
LINE
  8
_0-3_躯体と製品
  6
CONTINUOUS
 62
    4
 10
11.392601470648515
 20
580.99346174390757
 11
11.392601470648515
 21
589.29346174391139
  0
LINE
  8
_0-3_躯体と製品
  6
CONTINUOUS
 62
    4
 10
11.392601470648515
 20
589.29346174391139
 11
9.8926014706485148
 21
589.29346174391139
  0
LINE
  8
_0-3_躯体と製品
  6
CONTINUOUS
 62
    4
 10
9.8926014706485148
 20
589.29346174391139
 11
9.8926014706485148
 21
582.2934617439123
  0
LINE
  8
_0-3_躯体と製品
  6
CONTINUOUS
 62
    4
 10
9.8926014706485148
 20
582.2934617439123
 11
5.6926014706368733
 21
582.2934617439123
  0
LINE
  8
_0-3_躯体と製品
  6
CONTINUOUS
 62
    3
 10
11.192600970636704
 20
859.79346190417164
 11
11.192600970636704
 21
853.29346190417164
  0
LINE
  8
_0-3_躯体と製品
  6
CONTINUOUS
 62
    3
 10
9.9926009706759942
 20
859.79346190417164
 11
9.9926009706759942
 21
853.29346190417164
  0
LINE
  8
_0-3_躯体と製品
  6
CONTINUOUS
 62
    3
 10
9.9926009706759942
 20
853.29346190417164
 11
11.192600970636704
 21
853.29346190417164
  0
LINE
  8
_0-5_中心線
  6
CENTER1
 62
    7
 10
-5.0573983823342132
 20
866.29346174391139
 11
25.663601470656431
 21
866.29346174391139
  0
LINE
  8
_0-3_躯体と製品
  6
CONTINUOUS
 62
    3
 10
11.192600970636704
 20
879.29346190417164
 11
11.192600970636704
 21
872.79345985660075
  0
LINE
  8
_0-3_躯体と製品
  6
CONTINUOUS
 62
    3
 10
9.9926009706759942
 20
879.29346190417164
 11
9.9926009706759942
 21
872.79346182081918
  0
LINE
  8
_0-3_躯体と製品
  6
CONTINUOUS
 62
    3
 10
9.0646011156677559
 20
866.84146199565475
 11
9.0646011156677559
 21
866.29346199566044
  0
ARC
  8
_0-3_躯体と製品
  6
CONTINUOUS
 62
    3
 10
5.1083812573451723
 20
866.84175185122331
 40
4.8159999999999989
 50
353.46284123828673
 51
41.906849999398716
  0
LINE
  8
_0-3_躯体と製品
  6
CONTINUOUS
 62
    3
 10
8.692601115686557
 20
870.05846197295796
 11
8.692601115686557
 21
866.29346197295763
  0
LINE
  8
_0-3_躯体と製品
  6
CONTINUOUS
 62
    3
 10
9.0646011156677559
 20
866.84246197295761
 11
9.0646011156677559
 21
866.29346197295763
  0
LINE
  8
_0-3_躯体と製品
  6
CONTINUOUS
 62
    3
 10
9.0646011156677559
 20
865.74446199566137
 11
9.0646011156677559
 21
866.29346199566044
  0
LINE
  8
_0-3_躯体と製品
  6
CONTINUOUS
 62
    3
 10
9.0646011156677559
 20
865.74546197296422
 11
9.0646011156677559
 21
866.29346197295763
  0
LINE
  8
_0-3_躯体と製品
  6
CONTINUOUS
 62
    3
 10
7.5396011156954046
 20
862.29246199565478
 11
7.0926011156552704
 21
862.29346199565862
  0
LINE
  8
_0-3_躯体と製品
  6
CONTINUOUS
 62
    3
 10
9.3206011156580644
 20
863.66146199566174
 11
9.4196011156964232
 21
863.60946199565115
  0
LINE
  8
_0-3_躯体と製品
  6
CONTINUOUS
 62
    3
 10
8.692601115686557
 20
862.52846199566011
 11
7.5396011156954046
 21
862.29246199565478
  0
LINE
  8
_0-3_躯体と製品
  6
CONTINUOUS
 62
    3
 10
9.2646011156757595
 20
865.54546199565175
 11
9.5086011156781751
 21
865.54546199565175
  0
ARC
  8
_0-3_躯体と製品
  6
CONTINUOUS
 62
    3
 10
7.0926011156552704
 20
862.49346199565662
 40
0.2
 50
179.9999940002391
 51
269.9999969984521
  0
ARC
  8
_0-3_躯体と製品
  6
CONTINUOUS
 62
    3
 10
9.4116011156656896
 20
863.83746199565394
 40
0.2
 50
156.38705399861229
 51
242.65897700044371
  0
ARC
  8
_0-3_躯体と製品
  6
CONTINUOUS
 62
    3
 10
9.5086011156781751
 20
865.4454619956623
 40
0.1
 50
355.38007600008717
 51
90.000002998212935
  0
LINE
  8
_0-3_躯体と製品
  6
CONTINUOUS
 62
    3
 10
9.2286011157084431
 20
863.91746199565569
 11
9.3446011156884197
 21
864.19346199565371
  0
LINE
  8
_0-3_躯体と製品
  6
CONTINUOUS
 62
    3
 10
9.3446011156884197
 20
864.19346199565371
 11
9.4806011156870227
 21
864.64546199565757
  0
LINE
  8
_0-3_躯体と製品
  6
CONTINUOUS
 62
    3
 10
9.4806011156870227
 20
864.64546199565757
 11
9.5806011156673776
 21
865.12146199565359
  0
LINE
  8
_0-3_躯体と製品
  6
CONTINUOUS
 62
    3
 10
9.5806011156673776
 20
865.12146199565359
 11
9.6076011156656023
 21
865.43746199565976
  0
LINE
  8
_0-3_躯体と製品
  6
CONTINUOUS
 62
    3
 10
9.4926009706869081
 20
861.49346190416873
 11
7.3916010970278876
 21
861.49346298434284
  0
ARC
  8
_0-3_躯体と製品
  6
CONTINUOUS
 62
    3
 10
9.4926009706869081
 20
859.79346190417164
 40
1.7
 50
0
 51
90
  0
LINE
  8
_0-3_躯体と製品
  6
CONTINUOUS
 62
    3
 10
9.4926009706869081
 20
860.29346190417073
 11
7.3926010286777455
 21
860.29346198430903
  0
ARC
  8
_0-3_躯体と製品
  6
CONTINUOUS
 62
    3
 10
9.4926009706869081
 20
859.79346190417164
 40
0.5
 50
0
 51
90
  0
ARC
  8
_0-3_躯体と製品
  6
CONTINUOUS
 62
    3
 10
7.392601117677259
 20
861.99346198430612
 40
0.5
 50
180.0000059997609
 51
269.88540599791401
  0
LINE
  8
_0-3_躯体と製品
  6
CONTINUOUS
 62
    3
 10
8.692601115686557
 20
862.52846199566011
 11
8.692601115686557
 21
866.29346199566044
  0
ARC
  8
_0-3_躯体と製品
  6
CONTINUOUS
 62
    3
 10
9.2646011156757595
 20
865.74446199566137
 40
0.2
 50
179.9999940002391
 51
269.9999969984521
  0
ARC
  8
_0-3_躯体と製品
  6
CONTINUOUS
 62
    3
 10
5.1083812573451723
 20
865.74517211739476
 40
4.8159999999999989
 50
318.09315000060133
 51
6.537158761713302
  0
LINE
  8
_0-3_躯体と製品
  6
CONTINUOUS
 62
    3
 10
9.4926009706869081
 20
871.09345985660366
 11
7.3609918953879969
 21
871.09345985660366
  0
LINE
  8
_0-3_躯体と製品
  6
CONTINUOUS
 62
    3
 10
9.4923233471454296
 20
872.29346189788521
 11
7.3343022010667482
 21
872.29346190367687
  0
ARC
  8
_0-3_躯体と製品
  6
CONTINUOUS
 62
    3
 10
9.4926009706869081
 20
872.79346182081918
 40
0.5
 50
269.96818668809385
 51
0.0000000000000254
  0
LINE
  8
_0-3_躯体と製品
  6
CONTINUOUS
 62
    3
 10
9.5806011156673776
 20
867.46546197296539
 11
9.6076011156656023
 21
867.14946197295831
  0
LINE
  8
_0-3_躯体と製品
  6
CONTINUOUS
 62
    3
 10
9.4806011156870227
 20
867.94146197295959
 11
9.5806011156673776
 21
867.46546197296539
  0
LINE
  8
_0-3_躯体と製品
  6
CONTINUOUS
 62
    3
 10
9.3446011156884197
 20
868.39346197296436
 11
9.4806011156870227
 21
867.94146197295959
  0
LINE
  8
_0-3_躯体と製品
  6
CONTINUOUS
 62
    3
 10
9.2286011157084431
 20
868.66946197296329
 11
9.3446011156884197
 21
868.39346197296436
  0
ARC
  8
_0-3_躯体と製品
  6
CONTINUOUS
 62
    3
 10
9.5086011156781751
 20
867.14146197295577
 40
0.1
 50
269.99999699845216
 51
4.6199239999127863
  0
ARC
  8
_0-3_躯体と製品
  6
CONTINUOUS
 62
    3
 10
9.4116011156656896
 20
868.74946197296413
 40
0.2
 50
117.3410229995562
 51
203.6129460013876
  0
ARC
  8
_0-3_躯体と製品
  6
CONTINUOUS
 62
    3
 10
7.0926011156552704
 20
870.09346197296054
 40
0.2
 50
90.000002998212935
 51
180.0000059997609
  0
ARC
  8
_0-3_躯体と製品
  6
CONTINUOUS
 62
    3
 10
9.2646011156757595
 20
866.84246197295761
 40
0.2
 50
90.000002998212935
 51
180.0000059997609
  0
LINE
  8
_0-3_躯体と製品
  6
CONTINUOUS
 62
    3
 10
9.2646011156757595
 20
867.04146197296541
 11
9.5086011156781751
 21
867.04146197296541
  0
LINE
  8
_0-3_躯体と製品
  6
CONTINUOUS
 62
    3
 10
8.692601115686557
 20
870.05846197295796
 11
7.5396011156954046
 21
870.29446197296329
  0
LINE
  8
_0-3_躯体と製品
  6
CONTINUOUS
 62
    3
 10
9.3206011156580644
 20
868.92546197295724
 11
9.4196011156964232
 21
868.97746197296783
  0
LINE
  8
_0-3_躯体と製品
  6
CONTINUOUS
 62
    3
 10
7.5396011156954046
 20
870.29446197296329
 11
7.0926011156552704
 21
870.29346197295854
  0
ARC
  8
_0-3_躯体と製品
  6
CONTINUOUS
 62
    3
 10
9.4926009706869081
 20
872.79345985660075
 40
1.7
 50
270
 51
0
  0
ARC
  8
_0-3_躯体と製品
  6
CONTINUOUS
 62
    3
 10
7.3926001217478188
 20
870.59445993673035
 40
0.5
 50
93.624452754466617
 51
180.1143570002184
  0
LINE
  8
_0-3_躯体と製品
  6
CONTINUOUS
 62
    3
 10
6.892601117677259
 20
861.99346198430612
 11
-0.1073988823227409
 21
861.99346198430612
  0
LINE
  8
_0-3_躯体と製品
  6
CONTINUOUS
 62
    3
 10
-0.1073988823227409
 20
861.99346198430612
 11
-0.1073988823227409
 21
870.59346198431194
  0
LINE
  8
_0-3_躯体と製品
  6
CONTINUOUS
 62
    3
 10
-0.1073988823227409
 20
870.59346198431194
 11
6.892601117677259
 21
870.59346198431194
  0
LINE
  8
_0-3_躯体と製品
  6
CONTINUOUS
 62
    3
 10
6.892601117677259
 20
870.59346198431194
 11
6.892601117677259
 21
861.99346198430612
  0
ARC
  8
_0-3_躯体と製品
  6
CONTINUOUS
 62
    3
 10
7.392601117677259
 20
861.99346198430612
 40
1.7
 50
180.0000059997609
 51
269.9999969984521
  0
ARC
  8
_0-3_躯体と製品
  6
CONTINUOUS
 62
    3
 10
7.3926008236157941
 20
870.59446182404099
 40
1.7
 50
91.965247106496065
 51
180.03369800002926
  0
LINE
  8
_0-3_躯体と製品
  6
CONTINUOUS
 62
    3
 10
9.9926009706759942
 20
879.29346190417164
 11
11.192600970636704
 21
879.29346190417164
  0
LINE
  8
_0-3_躯体と製品
  6
CONTINUOUS
 62
    4
 10
20.692601470636873
 20
1083.5927109574513
 11
20.692601470636873
 21
861.5934617439143
  0
LINE
  8
_0-3_躯体と製品
  6
CONTINUOUS
 62
    4
 10
20.692601470636873
 20
861.5934617439143
 11
17.192601470636873
 21
861.5934617439143
  0
LINE
  8
_0-3_躯体と製品
  6
CONTINUOUS
 62
    4
 10
17.192601470636873
 20
861.5934617439143
 11
13.592601470656518
 21
870.99346174390757
  0
LINE
  8
_0-3_躯体と製品
  6
CONTINUOUS
 62
    4
 10
13.592601470656518
 20
870.99346174390757
 11
11.392601470648515
 21
870.99346174390757
  0
LINE
  8
_0-3_躯体と製品
  6
CONTINUOUS
 62
    4
 10
11.392601470648515
 20
870.99346174390757
 11
11.392601470648515
 21
879.29346174391139
  0
LINE
  8
_0-3_躯体と製品
  6
CONTINUOUS
 62
    4
 10
11.392601470648515
 20
879.29346174391139
 11
9.8926014706485148
 21
879.29346174391139
  0
LINE
  8
_0-3_躯体と製品
  6
CONTINUOUS
 62
    4
 10
9.8926014706485148
 20
879.29346174391139
 11
9.8926014706485148
 21
872.2934617439123
  0
LINE
  8
_0-3_躯体と製品
  6
CONTINUOUS
 62
    4
 10
9.8926014706485148
 20
872.2934617439123
 11
5.6926014706368733
 21
872.2934617439123
  0
LINE
  8
_0-3_躯体と製品
  6
CONTINUOUS
 62
    4
 10
5.6926014706368733
 20
872.2934617439123
 11
5.6926014706368733
 21
1083.5927109574513
  0
INSERT
  2
-005-_D6
  8
_0-2_寸法
 10
-23420.898498593793
 20
-5292.433193973593
 41
1
 42
1
 50
0
  0
LINE
  8
_0-2_寸法
  6
CONTINUOUS
 62
    4
 10
-170.42047332373477
 20
631.5921617925751
 11
-170.42047332436414
 21
1083.5927109574513
  0
LINE
  8
_0-2_寸法
  6
CONTINUOUS
 62
    4
 10
-170.42047332436414
 20
1083.5927109574513
 11
-176.89094945197212
 21
1059.4445653002358
  0
LINE
  8
_0-3_躯体と製品
  6
CONTINUOUS
 62
    4
 10
3.692600970636704
 20
870.59346198431194
 11
3.6926009706257901
 21
1083.5927109574513
  0
LINE
  8
_0-3_躯体と製品
  6
CONTINUOUS
 62
    4
 10
5.692601432747324
 20
870.59346198431194
 11
5.6926014433556702
 21
1083.5927109574513
  0
LINE
  8
_0-4_文字-記号
  6
CONTINUOUS
 62
    7
 10
4.8788989816785033
 20
356.64441557139344
 11
32.849384668355924
 21
405.09071789305926
  0
LINE
  8
_0-4_文字-記号
  6
CONTINUOUS
 62
    7
 10
32.849384668355924
 20
405.09071789305926
 11
96.579104023137916
 21
405.09071789305926
  0
LINE
  8
_0-3_躯体と製品
  6
CONTINUOUS
 62
    4
 10
-22.607399029351654
 20
1083.5927109574513
 11
-22.607399029351654
 21
-367.80695486544664
  0
LINE
  8
_0-3_躯体と製品
  6
CONTINUOUS
 62
    4
 10
-25.307399029363296
 20
1083.5927109574513
 11
-25.307399029363296
 21
-367.80695486544664
  0
LINE
  8
_0-3_躯体と製品
  6
CONTINUOUS
 62
    4
 10
-54.007720857334789
 20
636.592161780075
 11
-31.307399014352995
 21
636.59216179566465
  0
LINE
  8
_0-3_躯体と製品
  6
CONTINUOUS
 62
    4
 10
-54.007720857334789
 20
635.59216178257793
 11
-31.307399014352995
 21
635.59216178257702
  0
LINE
  8
_0-3_躯体と製品
  6
CONTINUOUS
 62
    4
 10
-54.007720857334789
 20
626.59216180508975
 11
-31.307399014352995
 21
626.59216178948009
  0
LINE
  8
_0-3_躯体と製品
  6
CONTINUOUS
 62
    4
 10
-54.007720857334789
 20
627.59216231608116
 11
-31.307399014352995
 21
627.59216166313672
  0
LINE
  8
_0-3_躯体と製品
  6
CONTINUOUS
 62
    7
 10
321.08862622566812
 20
-368.40799600549417
 11
-59.307720844102732
 21
-368.40683822085612
  0
LINE
  8
_0-3_躯体と製品
  6
CONTINUOUS
 62
    4
 10
-25.907397357874288
 20
-327.80695486544846
 11
-25.307397357893933
 21
-327.80695486544846
  0
LINE
  8
_0-3_躯体と製品
  6
CONTINUOUS
 62
    4
 10
-25.307397357893933
 20
-327.80695486544846
 11
-25.307397357893933
 21
-367.80695486544664
  0
LINE
  8
_0-3_躯体と製品
  6
CONTINUOUS
 62
    4
 10
-25.307397357893933
 20
-367.80695486544664
 11
3.6926026421060669
 21
-367.80695486544664
  0
LINE
  8
_0-3_躯体と製品
  6
CONTINUOUS
 62
    4
 10
3.6926026421060669
 20
-367.80695486544664
 11
3.6926026421060669
 21
-337.80695486544846
  0
LINE
  8
_0-3_躯体と製品
  6
CONTINUOUS
 62
    4
 10
3.6926026421060669
 20
-337.80695486544846
 11
4.2926026421373535
 21
-337.80695486544846
  0
LINE
  8
_0-3_躯体と製品
  6
CONTINUOUS
 62
    4
 10
4.2926026421373535
 20
-337.80695486544846
 11
4.2926026421373535
 21
-368.40695486545428
  0
LINE
  8
_0-3_躯体と製品
  6
CONTINUOUS
 62
    4
 10
4.2926026421373535
 20
-368.40695486545428
 11
-25.907397357874288
 21
-368.40695486545428
  0
LINE
  8
_0-3_躯体と製品
  6
CONTINUOUS
 62
    4
 10
-25.907397357874288
 20
-368.40695486545428
 11
-25.907397357874288
 21
-327.80695486544846
  0
LINE
  8
_0-3_躯体と製品
  6
CONTINUOUS
 62
    4
 10
-25.307397357893933
 20
-367.80695486544664
 11
3.6926026421060669
 21
-367.80695486544664
  0
LINE
  8
_0-5_中心線
  6
CENTER1
 62
    7
 10
-10.807397357904847
 20
-382.48532052257633
 11
-10.807397357904847
 21
-353.12858920831968
  0
LINE
  8
_0-3_躯体と製品
  6
CONTINUOUS
 62
    4
 10
231.45961226503641
 20
-368.39485009654709
 11
173.16225675404712
 21
-426.68676452104228
  0
LINE
  8
_0-3_躯体と製品
  6
CONTINUOUS
 62
    4
 10
214.07738333009547
 20
-368.40645777350619
 11
155.78002781910618
 21
-426.69837219801502
  0
LINE
  8
_0-3_躯体と製品
  6
CONTINUOUS
 62
    4
 10
196.70837002534608
 20
-368.40640938713932
 11
138.41645560083634
 21
-426.69832381164906
  0
LINE
  8
_0-3_躯体と製品
  6
CONTINUOUS
 62
    4
 10
-31.307399014352995
 20
-231.40783829991597
 11
-31.307399014352995
 21
-305.40783811491838
  0
LINE
  8
_0-3_躯体と製品
  6
CONTINUOUS
 62
    4
 10
-25.307399029363296
 20
-302.40783812241261
 11
-25.307399029363296
 21
-234.40783829242264
  0
ARC
  8
_0-3_躯体と製品
  6
CONTINUOUS
 62
    4
 10
-28.307399021854508
 20
-302.40783812241261
 40
2.9999999924999701
 50
269.99999699845216
 51
0.0000000000000127
  0
LINE
  8
_0-3_躯体と製品
  6
CONTINUOUS
 62
    4
 10
-31.307399014352995
 20
-305.40783811491838
 11
-28.307399021854508
 21
-305.40783811491838
  0
ARC
  8
_0-3_躯体と製品
  6
CONTINUOUS
 62
    4
 10
-28.307399021854508
 20
-234.40783829242264
 40
2.9999999924999701
 50
0
 51
90.000002998212935
  0
LINE
  8
_0-3_躯体と製品
  6
CONTINUOUS
 62
    4
 10
-31.307399014352995
 20
-231.40783829991597
 11
-28.307399021854508
 21
-231.40783829991597
  0
LINE
  8
_0-4_文字-記号
  6
CONTINUOUS
 62
    7
 10
-31.307399014352995
 20
649.97271349073071
 11
-70.737917779242707
 21
715.2168423117937
  0
LINE
  8
_0-4_文字-記号
  6
CONTINUOUS
 62
    7
 10
-70.737917779242707
 20
715.2168423117937
 11
-122.7434000127032
 21
715.2168423117937
  0
LINE
  8
_0-3_躯体と製品
  6
CONTINUOUS
 62
    4
 10
-31.307399014352995
 20
668.59216170008312
 11
-31.307399014352995
 21
594.59216188508162
  0
LINE
  8
_0-3_躯体と製品
  6
CONTINUOUS
 62
    4
 10
-25.307399029363296
 20
597.5921618775883
 11
-25.307399029363296
 21
665.59216170757736
  0
ARC
  8
_0-3_躯体と製品
  6
CONTINUOUS
 62
    4
 10
-28.307399021854508
 20
597.5921618775883
 40
2.9999999924999701
 50
269.99999699845216
 51
0.0000000000000127
  0
LINE
  8
_0-3_躯体と製品
  6
CONTINUOUS
 62
    4
 10
-31.307399014352995
 20
594.59216188508162
 11
-28.307399021854508
 21
594.59216188508162
  0
ARC
  8
_0-3_躯体と製品
  6
CONTINUOUS
 62
    4
 10
-28.307399021854508
 20
665.59216170757736
 40
2.9999999924999701
 50
0
 51
90.000002998212935
  0
LINE
  8
_0-3_躯体と製品
  6
CONTINUOUS
 62
    4
 10
-31.307399014352995
 20
668.59216170008312
 11
-28.307399021854508
 21
668.59216170008312
  0
TEXT
  8
_0-4_文字-記号
 62
    7
 10
3.9755507914669579
 20
-489.78788042659835
 40
30
 41
1
 50
0
  1
■緩衝・吸音内壁システム【カベックス：オープンタイプ】
  0
ARC
  8
_0-3_躯体と製品
  6
CONTINUOUS
 62
    4
 10
190.19260147063733
 20
-116.90753825607544
 40
5.4999999999995444
 50
269.99999999999528
 51
359.99999999999528
  0
ARC
  8
_0-3_躯体と製品
  6
CONTINUOUS
 62
    4
 10
190.19260147063869
 20
-116.90753825607408
 40
3.8999999999996353
 50
269.99999999997328
 51
359.99999999997328
  0
ARC
  8
_0-3_躯体と製品
  6
CONTINUOUS
 62
    4
 10
151.19260147063642
 20
-116.90753825607544
 40
5.4999999999995444
 50
180.00000000000475
 51
270.00000000000477
  0
ARC
  8
_0-3_躯体と製品
  6
CONTINUOUS
 62
    4
 10
151.19260147063505
 20
-116.90753825607408
 40
3.8999999999996353
 50
180.00000000002672
 51
270.00000000002672
  0
ARC
  8
_0-3_躯体と製品
  6
CONTINUOUS
 62
    4
 10
190.19260147063687
 20
-77.907538256074986
 40
5.5
 50
0.0000000000000052
 51
90.000000000000014
  0
ARC
  8
_0-3_躯体と製品
  6
CONTINUOUS
 62
    4
 10
190.19260147063733
 20
-77.907538256075441
 40
3.900000000001
 50
0.0000000000066847
 51
90.000000000006693
  0
LINE
  8
_0-3_躯体と製品
  6
CONTINUOUS
 62
    4
 10
151.19260147063687
 20
-120.80753825607371
 11
160.69260147063687
 21
-120.80753825607371
  0
LINE
  8
_0-3_躯体と製品
  6
CONTINUOUS
 62
    4
 10
147.29260147063542
 20
-116.9075382560759
 11
147.29260147063542
 21
-77.907538256074986
  0
LINE
  8
_0-3_躯体と製品
  6
CONTINUOUS
 62
    4
 10
195.69260147063687
 20
-67.001952256074219
 11
195.69260147063687
 21
-116.9075382560759
  0
LINE
  8
_0-3_躯体と製品
  6
CONTINUOUS
 62
    4
 10
190.19260147063687
 20
-72.407538256074986
 11
151.19260147063687
 21
-72.407538256074986
  0
ARC
  8
_0-3_躯体と製品
  6
CONTINUOUS
 62
    4
 10
151.19260147063687
 20
-77.907538256074986
 40
5.5
 50
90
 51
180
  0
LINE
  8
_0-3_躯体と製品
  6
CONTINUOUS
 62
    4
 10
145.69260147063687
 20
-66.961946256074953
 11
145.69260147063687
 21
-116.9075382560759
  0
LINE
  8
_0-3_躯体と製品
  6
CONTINUOUS
 62
    4
 10
190.19260147063687
 20
-122.40753825607499
 11
151.19260147063687
 21
-122.40753825607499
  0
LINE
  8
_0-3_躯体と製品
  6
CONTINUOUS
 62
    4
 10
180.69260147063687
 20
-122.40753825607499
 11
180.69260147063687
 21
-120.80753825607371
  0
LINE
  8
_0-3_躯体と製品
  6
CONTINUOUS
 62
    4
 10
160.69260147063687
 20
-120.80753825607371
 11
160.69260147063687
 21
-122.40753825607499
  0
LINE
  8
_0-3_躯体と製品
  6
CONTINUOUS
 62
    4
 10
190.19260147063687
 20
-74.00753825607444
 11
151.19260147063687
 21
-74.00753825607444
  0
ARC
  8
_0-3_躯体と製品
  6
CONTINUOUS
 62
    4
 10
151.19260147063642
 20
-77.907538256075441
 40
3.900000000001
 50
89.999999999993335
 51
179.99999999999332
  0
LINE
  8
_0-3_躯体と製品
  6
CONTINUOUS
 62
    4
 10
190.19260147063687
 20
-120.80753825607371
 11
180.69260147063687
 21
-120.80753825607371
  0
LINE
  8
_0-3_躯体と製品
  6
CONTINUOUS
 62
    4
 10
194.09260147063833
 20
-77.907538256074986
 11
194.09260147063833
 21
-116.9075382560759
  0
ARC
  8
_0-3_躯体と製品
  6
CONTINUOUS
 62
    4
 10
199.1468714706366
 20
-135.10753825607253
 40
3.8000000000015461
 50
269.99999999997942
 51
359.99999999997942
  0
ARC
  8
_0-3_躯体と製品
  6
CONTINUOUS
 62
    4
 10
199.1468714706366
 20
-135.10753825607253
 40
2.3000000000015461
 50
269.99999999996601
 51
359.99999999996601
  0
LINE
  8
_0-3_躯体と製品
  6
CONTINUOUS
 62
    4
 10
201.44687147063814
 20
-65.837076256074397
 11
201.44687147063814
 21
-52.710060256074939
  0
LINE
  8
_0-3_躯体と製品
  6
CONTINUOUS
 62
    4
 10
201.44687147063814
 20
-73.583044256073663
 11
201.44687147063814
 21
-135.10753825607389
  0
ARC
  8
_0-3_躯体と製品
  6
CONTINUOUS
 62
    4
 10
204.19687147063723
 20
-69.710060256074485
 40
4.7500000000000613
 50
125.37653999999603
 51
234.62346000000397
  0
ARC
  8
_0-3_躯体と製品
  6
CONTINUOUS
 62
    4
 10
204.19687147063732
 20
-69.710060256074485
 40
3.249999999999825
 50
112.61986499999732
 51
247.38013500000267
  0
LINE
  8
_0-3_躯体と製品
  6
CONTINUOUS
 62
    4
 10
202.94687147063814
 20
-135.10753825607389
 11
202.94687147063814
 21
-72.710060256074939
  0
ARC
  8
_0-3_躯体と製品
  6
CONTINUOUS
 62
    4
 10
142.13831747063568
 20
-135.10753825607435
 40
3.7999999999997267
 50
179.99999999999315
 51
269.99999999999318
  0
LINE
  8
_0-3_躯体と製品
  6
CONTINUOUS
 62
    4
 10
199.14687147063523
 20
-137.40753825607499
 11
142.13831747063523
 21
-137.40753825607499
  0
ARC
  8
_0-3_躯体と製品
  6
CONTINUOUS
 62
    4
 10
142.13831747063568
 20
-135.10753825607435
 40
2.2999999999997267
 50
179.99999999998869
 51
269.99999999998869
  0
LINE
  8
_0-3_躯体と製品
  6
CONTINUOUS
 62
    4
 10
139.83831747063596
 20
-65.837076256074397
 11
139.83831747063596
 21
-52.710060256074939
  0
LINE
  8
_0-3_躯体と製品
  6
CONTINUOUS
 62
    4
 10
139.83831747063596
 20
-73.583044256073663
 11
139.83831747063596
 21
-135.10753825607389
  0
ARC
  8
_0-3_躯体と製品
  6
CONTINUOUS
 62
    4
 10
137.08831747063687
 20
-69.710060256074485
 40
4.7500000000000639
 50
305.37653999999611
 51
54.623460000003931
  0
ARC
  8
_0-3_躯体と製品
  6
CONTINUOUS
 62
    4
 10
137.08831747063675
 20
-69.710060256074485
 40
3.249999999999825
 50
292.61986499999733
 51
67.380135000002682
  0
LINE
  8
_0-3_躯体と製品
  6
CONTINUOUS
 62
    4
 10
195.69260147063687
 20
-67.407538256074986
 11
190.69260147063687
 21
-67.407538256074986
  0
LINE
  8
_0-3_躯体と製品
  6
CONTINUOUS
 62
    4
 10
136.83811747063737
 20
-67.407538256074986
 11
18.692601470636873
 21
-67.407538256074986
  0
LINE
  8
_0-3_躯体と製品
  6
CONTINUOUS
 62
    4
 10
145.69260147063687
 20
-67.407538256074986
 11
150.69260147063687
 21
-67.407538256074986
  0
LINE
  8
_0-3_躯体と製品
  6
CONTINUOUS
 62
    4
 10
204.44706947063605
 20
-67.407538256074986
 11
321.09004347063819
 21
-67.407538256074986
  0
LINE
  8
_0-3_躯体と製品
  6
CONTINUOUS
 62
    4
 10
178.69472147063789
 20
-170.40773825607357
 11
178.69472147063789
 21
-249.40184425607458
  0
LINE
  8
_0-3_躯体と製品
  6
CONTINUOUS
 62
    4
 10
162.69260147063687
 20
-170.40773825607357
 11
162.69260147063687
 21
-249.40184425607458
  0
LINE
  8
_0-3_躯体と製品
  6
CONTINUOUS
 62
    3
 10
177.19452147063566
 20
-170.40773825607357
 11
177.19452147063566
 21
-249.40184425607458
  0
LINE
  8
_0-3_躯体と製品
  6
CONTINUOUS
 62
    3
 10
164.19280147063546
 20
-170.40773825607357
 11
164.19280147063546
 21
-249.40184425607458
  0
LINE
  8
_0-3_躯体と製品
  6
CONTINUOUS
 62
    4
 10
150.69260147063687
 20
-65.407538256074986
 11
190.69260147063687
 21
-65.407538256074986
  0
LINE
  8
_0-3_躯体と製品
  6
CONTINUOUS
 62
    4
 10
195.33831747063596
 20
-64.711648256074113
 11
195.33831747063596
 21
-58.710854256073617
  0
LINE
  8
_0-3_躯体と製品
  6
CONTINUOUS
 62
    4
 10
195.33831747063596
 20
-64.711648256074113
 11
194.83825147063544
 21
-64.211582256075417
  0
LINE
  8
_0-3_躯体と製品
  6
CONTINUOUS
 62
    4
 10
195.33831747063596
 20
-58.710854256073617
 11
194.83825147063544
 21
-59.210920256074132
  0
LINE
  8
_0-3_躯体と製品
  6
CONTINUOUS
 62
    4
 10
190.69260147063687
 20
-65.407538256074986
 11
190.69260147063687
 21
-72.407538256074986
  0
LINE
  8
_0-3_躯体と製品
  6
CONTINUOUS
 62
    4
 10
195.69260147063687
 20
-70.407538256074986
 11
190.69260147063687
 21
-70.407538256074986
  0
LINE
  8
_0-3_躯体と製品
  6
CONTINUOUS
 62
    4
 10
136.83811747063737
 20
-59.210258256073757
 11
136.83811747063737
 21
-130.90734025607435
  0
ARC
  8
_0-3_躯体と製品
  6
CONTINUOUS
 62
    4
 10
138.33831747063641
 20
-59.210258256073303
 40
1.500197999998363
 50
90.000000000017351
 51
180.00000000001737
  0
ARC
  8
_0-3_躯体と製品
  6
CONTINUOUS
 62
    4
 10
138.33831747063687
 20
-130.90734025607526
 40
1.5001979999988182
 50
179.99999999996527
 51
269.99999999996527
  0
ARC
  8
_0-3_躯体と製品
  6
CONTINUOUS
 62
    4
 10
137.33818547063686
 20
-63.961550256076237
 40
3.0003979999984378
 50
179.9999999999506
 51
260.40593199995465
  0
LINE
  8
_0-3_躯体と製品
  6
CONTINUOUS
 62
    4
 10
136.83811747063737
 20
-70.407538256074986
 11
18.692601470636873
 21
-70.407538256074986
  0
LINE
  8
_0-3_躯体と製品
  6
CONTINUOUS
 62
    4
 10
134.33778747063843
 20
-59.460954256074729
 11
134.33778747063843
 21
-63.961550256073679
  0
ARC
  8
_0-3_躯体と製品
  6
CONTINUOUS
 62
    4
 10
137.33818547063902
 20
-59.460954256074274
 40
3.0003980000005868
 50
90.000000000008697
 51
180.0000000000087
  0
LINE
  8
_0-3_躯体と製品
  6
CONTINUOUS
 62
    4
 10
138.33831747063596
 20
-56.460556256073687
 11
137.33818547063856
 21
-56.460556256073687
  0
LINE
  8
_0-3_躯体と製品
  6
CONTINUOUS
 62
    4
 10
139.83831747063596
 20
-52.710060256074939
 11
138.33831747063596
 21
-52.710060256074939
  0
LINE
  8
_0-3_躯体と製品
  6
CONTINUOUS
 62
    4
 10
150.69260147063687
 20
-65.407538256074986
 11
150.69260147063687
 21
-72.407538256074986
  0
LINE
  8
_0-3_躯体と製品
  6
CONTINUOUS
 62
    4
 10
140.96263947063562
 20
-66.961946256074953
 11
145.69260147063687
 21
-66.961946256074953
  0
LINE
  8
_0-3_躯体と製品
  6
CONTINUOUS
 62
    4
 10
138.33831747063596
 20
-66.71006025607403
 11
138.33831747063596
 21
-52.710060256074939
  0
LINE
  8
_0-3_躯体と製品
  6
CONTINUOUS
 62
    4
 10
138.33831747063596
 20
-135.10753825607389
 11
138.33831747063596
 21
-72.710060256074939
  0
ARC
  8
_0-3_躯体と製品
  6
CONTINUOUS
 62
    4
 10
145.13921747063659
 20
-138.90753825607362
 40
1.5001980000001818
 50
180.0000000000521
 51
270.00000000005213
  0
LINE
  8
_0-3_躯体と製品
  6
CONTINUOUS
 62
    4
 10
145.69260147063687
 20
-70.407538256074986
 11
150.69260147063687
 21
-70.407538256074986
  0
LINE
  8
_0-3_躯体と製品
  6
CONTINUOUS
 62
    4
 10
201.44687147063814
 20
-59.210920256074132
 11
139.83831747063596
 21
-59.210920256074132
  0
LINE
  8
_0-3_躯体と製品
  6
CONTINUOUS
 62
    4
 10
209.44773147063825
 20
-59.210920256074132
 11
218.33831747063596
 21
-59.210920256074132
  0
LINE
  8
_0-3_躯体と製品
  6
CONTINUOUS
 62
    4
 10
201.44687147063814
 20
-64.211582256075417
 11
139.83831747063596
 21
-64.211582256075417
  0
LINE
  8
_0-3_躯体と製品
  6
CONTINUOUS
 62
    4
 10
209.44773147063825
 20
-64.211582256075417
 11
218.33831747063596
 21
-64.211582256075417
  0
LINE
  8
_0-3_躯体と製品
  6
CONTINUOUS
 62
    4
 10
199.14687147063523
 20
-138.90753825607499
 11
142.13831747063523
 21
-138.90753825607499
  0
LINE
  8
_0-3_躯体と製品
  6
CONTINUOUS
 62
    4
 10
145.13921747063796
 20
-140.40773825607539
 11
196.14597147063614
 21
-140.40773825607539
  0
LINE
  8
_0-3_躯体と製品
  6
CONTINUOUS
 62
    4
 10
201.44687147063814
 20
-58.710854256073617
 11
195.33831747063596
 21
-58.710854256073617
  0
LINE
  8
_0-3_躯体と製品
  6
CONTINUOUS
 62
    4
 10
209.44773147063825
 20
-58.710854256073617
 11
218.33831747063596
 21
-58.710854256073617
  0
LINE
  8
_0-3_躯体と製品
  6
CONTINUOUS
 62
    4
 10
201.44687147063814
 20
-64.711648256074113
 11
195.33831747063596
 21
-64.711648256074113
  0
LINE
  8
_0-3_躯体と製品
  6
CONTINUOUS
 62
    4
 10
218.33831747063596
 20
-64.711648256075023
 11
209.44773147063825
 21
-64.711648256074113
  0
LINE
  8
_0-3_躯体と製品
  6
CONTINUOUS
 62
    4
 10
200.29448104163748
 20
-67.001952256074219
 11
195.69260147063687
 21
-67.001952256074219
  0
LINE
  8
_0-3_躯体と製品
  6
CONTINUOUS
 62
    4
 10
204.44706947063605
 20
-130.90734025607435
 11
204.44706947063605
 21
-61.066166256074212
  0
ARC
  8
_0-3_躯体と製品
  6
CONTINUOUS
 62
    4
 10
202.94687147063723
 20
-130.90734025607526
 40
1.5001979999988182
 50
270.00000000003473
 51
0.0000000000347443
  0
ARC
  8
_0-3_躯体と製品
  6
CONTINUOUS
 62
    4
 10
202.94687147063769
 20
-59.210258256073303
 40
1.500197999998363
 50
359.99999999998266
 51
89.999999999982649
  0
LINE
  8
_0-3_躯体と製品
  6
CONTINUOUS
 62
    4
 10
204.44706947063605
 20
-70.407538256074986
 11
321.09004347063819
 21
-70.407538256074986
  0
LINE
  8
_0-3_躯体と製品
  6
CONTINUOUS
 62
    4
 10
218.33831747063596
 20
-58.710854256073617
 11
218.33831747063596
 21
-64.711648256075023
  0
LINE
  8
_0-3_躯体と製品
  6
CONTINUOUS
 62
    4
 10
204.44706947063605
 20
-57.335672256074758
 11
204.44706947063605
 21
-66.086830256073881
  0
LINE
  8
_0-3_躯体と製品
  6
CONTINUOUS
 62
    4
 10
204.44706947063605
 20
-66.086830256073881
 11
204.44706947063605
 21
-57.335672256074758
  0
LINE
  8
_0-3_躯体と製品
  6
CONTINUOUS
 62
    4
 10
204.44706947063605
 20
-66.086830256073881
 11
205.04714947063621
 21
-66.711914256075033
  0
LINE
  8
_0-3_躯体と製品
  6
CONTINUOUS
 62
    4
 10
204.44706947063605
 20
-57.335672256074758
 11
205.04714947063621
 21
-56.710590256074283
  0
ARC
  8
_0-3_躯体と製品
  6
CONTINUOUS
 62
    4
 10
206.04936547063551
 20
-65.461748256072156
 40
1.602295999999463
 50
128.71798800007227
 51
180.00000000007728
  0
ARC
  8
_0-3_躯体と製品
  6
CONTINUOUS
 62
    4
 10
209.95613347063602
 20
-61.711252256075113
 40
5.5090620000014683
 50
153.00853300000176
 51
206.99146699999824
  0
ARC
  8
_0-3_躯体と製品
  6
CONTINUOUS
 62
    4
 10
206.04936547063551
 20
-57.960756256076252
 40
1.6022959999994637
 50
179.99999999992272
 51
231.28201199992773
  0
LINE
  8
_0-3_躯体と製品
  6
CONTINUOUS
 62
    4
 10
209.44773147063825
 20
-57.335672256074758
 11
209.44773147063825
 21
-66.086830256073881
  0
LINE
  8
_0-3_躯体と製品
  6
CONTINUOUS
 62
    4
 10
209.44773147063825
 20
-66.086830256073881
 11
209.44773147063825
 21
-57.335672256074758
  0
LINE
  8
_0-3_躯体と製品
  6
CONTINUOUS
 62
    4
 10
208.84765347063512
 20
-66.711914256075033
 11
205.04714947063621
 21
-66.711914256075033
  0
LINE
  8
_0-3_躯体と製品
  6
CONTINUOUS
 62
    4
 10
208.84765347063512
 20
-64.211582256075417
 11
205.04714947063621
 21
-64.211582256075417
  0
LINE
  8
_0-3_躯体と製品
  6
CONTINUOUS
 62
    4
 10
208.84765347063512
 20
-59.210920256074132
 11
205.04714947063621
 21
-59.210920256074132
  0
LINE
  8
_0-3_躯体と製品
  6
CONTINUOUS
 62
    4
 10
208.84765347063512
 20
-56.710590256074283
 11
205.04714947063621
 21
-56.710590256074283
  0
LINE
  8
_0-3_躯体と製品
  6
CONTINUOUS
 62
    4
 10
209.44773147063825
 20
-66.086830256073881
 11
208.84765347063512
 21
-66.711914256075033
  0
LINE
  8
_0-3_躯体と製品
  6
CONTINUOUS
 62
    4
 10
209.44773147063825
 20
-57.335672256074758
 11
208.84765347063512
 21
-56.710590256074283
  0
ARC
  8
_0-3_躯体と製品
  6
CONTINUOUS
 62
    4
 10
207.84543747063583
 20
-65.461748256072156
 40
1.602295999999463
 50
359.99999999992275
 51
51.282011999927725
  0
ARC
  8
_0-3_躯体と製品
  6
CONTINUOUS
 62
    4
 10
203.93866947063896
 20
-61.711252256075113
 40
5.5090620000014683
 50
333.00853300000176
 51
26.991466999998252
  0
ARC
  8
_0-3_躯体と製品
  6
CONTINUOUS
 62
    4
 10
207.84543747063583
 20
-57.960756256076252
 40
1.6022959999994637
 50
308.7179880000723
 51
0.0000000000772683
  0
LINE
  8
_0-3_躯体と製品
  6
CONTINUOUS
 62
    4
 10
204.44706947063605
 20
-55.610444256075425
 11
202.94687147063814
 21
-55.610444256075425
  0
LINE
  8
_0-3_躯体と製品
  6
CONTINUOUS
 62
    4
 10
204.44706947063605
 20
-67.812060256073892
 11
204.44706947063605
 21
-55.610444256075425
  0
LINE
  8
_0-3_躯体と製品
  6
CONTINUOUS
 62
    4
 10
201.44687147063814
 20
-52.710060256074939
 11
202.94687147063814
 21
-52.710060256074939
  0
LINE
  8
_0-3_躯体と製品
  6
CONTINUOUS
 62
    4
 10
202.94687147063814
 20
-66.71006025607403
 11
202.94687147063814
 21
-52.710060256074939
  0
ARC
  8
_0-3_躯体と製品
  6
CONTINUOUS
 62
    4
 10
196.14597147063751
 20
-138.90753825607362
 40
1.5001980000001818
 50
269.99999999994793
 51
359.99999999994793
  0
LINE
  8
_0-5_中心線
  6
CENTER1
 62
    7
 10
170.69260147063687
 20
-380.86999025607474
 11
170.69260147063687
 21
-46.701604045299973
  0
LINE
  8
_0-3_躯体と製品
  6
CONTINUOUS
 62
    4
 10
160.30029663597816
 20
-153.40773825607357
 11
181.08490632680696
 21
-153.40773825607357
  0
LINE
  8
_0-3_躯体と製品
  6
CONTINUOUS
 62
    4
 10
163.7643982511363
 20
-151.90773825607357
 11
163.7643982511363
 21
-140.40773825607539
  0
LINE
  8
_0-3_躯体と製品
  6
CONTINUOUS
 62
    4
 10
177.62080471167792
 20
-168.90773825607357
 11
177.62080471167792
 21
-157.40773825607539
  0
LINE
  8
_0-3_躯体と製品
  6
CONTINUOUS
 62
    4
 10
177.62080471167792
 20
-151.90773825607357
 11
177.62080471167792
 21
-140.40773825607539
  0
LINE
  8
_0-3_躯体と製品
  6
CONTINUOUS
 62
    4
 10
163.7643982511363
 20
-168.90773825607357
 11
163.7643982511363
 21
-157.40773825607539
  0
ARC
  8
_0-3_躯体と製品
  6
CONTINUOUS
 62
    4
 10
160.30029663599089
 20
-148.65773825606584
 40
4.7500000000108749
 50
223.17355110726379
 51
316.82644889273621
  0
ARC
  8
_0-3_躯体と製品
  6
CONTINUOUS
 62
    4
 10
170.69260148140711
 20
-136.6577385765176
 40
16.749999708250492
 50
245.56730186717647
 51
294.43269813282353
  0
ARC
  8
_0-3_躯体と製品
  6
CONTINUOUS
 62
    4
 10
181.08490632680696
 20
-148.65773825608073
 40
4.7499999999887379
 50
223.17355110726777
 51
316.82644889273217
  0
LINE
  8
_0-3_躯体と製品
  6
CONTINUOUS
 62
    4
 10
184.549007941936
 20
-151.90773825607357
 11
184.549007941936
 21
-140.40773825607539
  0
LINE
  8
_0-3_躯体と製品
  6
CONTINUOUS
 62
    4
 10
184.549007941936
 20
-140.40773825607539
 11
156.83619502084548
 21
-140.40773825607539
  0
LINE
  8
_0-3_躯体と製品
  6
CONTINUOUS
 62
    4
 10
156.83619502084548
 20
-140.40773825607539
 11
156.83619502084548
 21
-151.90773825607357
  0
LINE
  8
_0-3_躯体と製品
  6
CONTINUOUS
 62
    4
 10
156.69260147705791
 20
-157.40773825607539
 11
184.69260151442722
 21
-157.40773825607539
  0
LINE
  8
_0-3_躯体と製品
  6
CONTINUOUS
 62
    4
 10
184.69260151442722
 20
-157.40773825607539
 11
184.69260151442722
 21
-153.40773825607357
  0
LINE
  8
_0-3_躯体と製品
  6
CONTINUOUS
 62
    4
 10
184.69260151442722
 20
-153.40773825607357
 11
156.69260147705791
 21
-153.40773825607357
  0
LINE
  8
_0-3_躯体と製品
  6
CONTINUOUS
 62
    4
 10
156.69260147705791
 20
-153.40773825607357
 11
156.69260147705791
 21
-157.40773825607539
  0
LINE
  8
_0-3_躯体と製品
  6
CONTINUOUS
 62
    4
 10
160.30029663597816
 20
-170.40773825607357
 11
181.08490632680696
 21
-170.40773825607357
  0
LINE
  8
_0-3_躯体と製品
  6
CONTINUOUS
 62
    4
 10
170.69260149573529
 20
-157.40773825607539
 11
174.69260149573529
 21
-153.40773825607357
  0
ARC
  8
_0-3_躯体と製品
  6
CONTINUOUS
 62
    4
 10
160.30029663599089
 20
-165.65773825606516
 40
4.7500000000113527
 50
223.1735511072699
 51
316.82644889273007
  0
ARC
  8
_0-3_躯体と製品
  6
CONTINUOUS
 62
    4
 10
170.69260148140711
 20
-153.65773825608238
 40
16.749999999990038
 50
245.56730232054764
 51
294.43269767945236
  0
ARC
  8
_0-3_躯体と製品
  6
CONTINUOUS
 62
    4
 10
181.08490632680696
 20
-165.65773825608187
 40
4.749999999987951
 50
223.17355110725768
 51
316.82644889274235
  0
LINE
  8
_0-3_躯体と製品
  6
CONTINUOUS
 62
    4
 10
184.549007941936
 20
-168.90773825607357
 11
184.549007941936
 21
-157.40773825607539
  0
LINE
  8
_0-3_躯体と製品
  6
CONTINUOUS
 62
    4
 10
184.549007941936
 20
-157.40773825607539
 11
156.83619502084548
 21
-157.40773825607539
  0
LINE
  8
_0-3_躯体と製品
  6
CONTINUOUS
 62
    4
 10
156.83619502084548
 20
-157.40773825607539
 11
156.83619502084548
 21
-168.90773825607357
  0
LINE
  8
_0-3_躯体と製品
  6
CONTINUOUS
 62
    4
 10
166.69260144835789
 20
-157.40773828477086
 11
170.69260144835789
 21
-153.40773828477086
  0
LINE
  8
_0-3_躯体と製品
  6
CONTINUOUS
 62
    4
 10
133.38382240255669
 20
-363.20753825609245
 11
102.69260150449554
 21
-363.20753825609245
  0
LINE
  8
_0-3_躯体と製品
  6
CONTINUOUS
 62
    4
 10
102.69260150449554
 20
-363.20753825609245
 11
102.69260150449554
 21
-366.40753825607499
  0
LINE
  8
_0-3_躯体と製品
  6
CONTINUOUS
 62
    4
 10
102.69260150449554
 20
-366.40753825607499
 11
133.38382240255669
 21
-366.40753825607499
  0
ARC
  8
_0-3_躯体と製品
  6
CONTINUOUS
 62
    4
 10
133.3838224025597
 20
-359.20753825606744
 40
7.2000000000075266
 50
269.99999999997613
 51
352.46565723239695
  0
LINE
  8
_0-3_躯体と製品
  6
CONTINUOUS
 62
    4
 10
140.52166081818723
 20
-360.15160538953842
 11
152.03754988215587
 21
-273.08305651527735
  0
ARC
  8
_0-3_躯体と製品
  6
CONTINUOUS
 62
    4
 10
156.00301566860281
 20
-273.60753825607458
 40
3.9999999999888822
 50
90.000000000238728
 51
172.46565723265618
  0
LINE
  8
_0-3_躯体と製品
  6
CONTINUOUS
 62
    4
 10
156.00301566858616
 20
-269.60753825608572
 11
170.69260150449554
 21
-269.60753825608572
  0
LINE
  8
_0-3_躯体と製品
  6
CONTINUOUS
 62
    4
 10
129.82864686391622
 20
-363.20753825609245
 11
141.36405822764573
 21
-275.99138650891018
  0
ARC
  8
_0-3_躯体と製品
  6
CONTINUOUS
 62
    4
 10
145.32952401411251
 20
-276.51586824972685
 40
4.0000000000111013
 50
97.534342767582473
 51
172.46565723241753
  0
LINE
  8
_0-3_躯体と製品
  6
CONTINUOUS
 62
    4
 10
144.80504227329584
 20
-272.55040246326007
 11
148.95268808802575
 21
-272.00182516761379
  0
ARC
  8
_0-3_躯体と製品
  6
CONTINUOUS
 62
    4
 10
156.03149572658259
 20
-273.6832423633042
 40
7.2757598482669961
 50
90.224277783077966
 51
166.63824627912967
  0
LINE
  8
_0-3_躯体と製品
  6
CONTINUOUS
 62
    4
 10
156.00301566861526
 20
-266.40753825607499
 11
170.69260150449554
 21
-266.40753825607499
  0
LINE
  8
_0-3_躯体と製品
  6
CONTINUOUS
 62
    4
 10
131.19260150449554
 20
-363.20753825609245
 11
131.19260150449554
 21
-366.40753825607499
  0
LINE
  8
_0-3_躯体と製品
  6
CONTINUOUS
 62
    4
 10
102.69260150449554
 20
-368.4075382560759
 11
127.69260150449554
 21
-368.4075382560759
  0
LINE
  8
_0-3_躯体と製品
  6
CONTINUOUS
 62
    4
 10
127.69260150449554
 20
-368.4075382560759
 11
127.69260150449554
 21
-366.40753825607499
  0
LINE
  8
_0-3_躯体と製品
  6
CONTINUOUS
 62
    4
 10
127.69260150449554
 20
-366.40753825607499
 11
102.69260150449554
 21
-366.40753825607499
  0
LINE
  8
_0-3_躯体と製品
  6
CONTINUOUS
 62
    4
 10
102.69260150449554
 20
-366.40753825607499
 11
102.69260150449554
 21
-368.4075382560759
  0
LINE
  8
_0-3_躯体と製品
  6
CONTINUOUS
 62
    4
 10
154.73990094084729
 20
-266.52304234660369
 11
156.00301566858616
 21
-269.60753825608572
  0
LINE
  8
_0-3_躯体と製品
  6
CONTINUOUS
 62
    4
 10
156.69260054205733
 20
-262.4075375723969
 11
184.69260057943757
 21
-262.4075375723969
  0
LINE
  8
_0-3_躯体と製品
  6
CONTINUOUS
 62
    4
 10
184.69260057943757
 20
-262.4075375723969
 11
184.69260057943757
 21
-266.4075375723969
  0
LINE
  8
_0-3_躯体と製品
  6
CONTINUOUS
 62
    4
 10
184.69260057943757
 20
-266.4075375723969
 11
156.69260054205733
 21
-266.4075375723969
  0
LINE
  8
_0-3_躯体と製品
  6
CONTINUOUS
 62
    4
 10
156.69260054205733
 20
-266.4075375723969
 11
156.69260054205733
 21
-262.4075375723969
  0
LINE
  8
_0-3_躯体と製品
  6
CONTINUOUS
 62
    4
 10
170.69259970989515
 20
-262.4075375723969
 11
166.69259970989515
 21
-266.4075375723969
  0
LINE
  8
_0-3_躯体と製品
  6
CONTINUOUS
 62
    4
 10
174.69259975730529
 20
-262.40753754370144
 11
170.69259975730529
 21
-266.40753754369962
  0
LINE
  8
_0-3_躯体と製品
  6
CONTINUOUS
 62
    4
 10
208.00138003459506
 20
-363.20753825609245
 11
238.69260093263802
 21
-363.20753825609245
  0
LINE
  8
_0-3_躯体と製品
  6
CONTINUOUS
 62
    4
 10
238.69260093263802
 20
-363.20753825609245
 11
238.69260093263802
 21
-366.40753825607499
  0
LINE
  8
_0-3_躯体と製品
  6
CONTINUOUS
 62
    4
 10
238.69260093263802
 20
-366.40753825607499
 11
208.00138003459506
 21
-366.40753825607499
  0
ARC
  8
_0-3_躯体と製品
  6
CONTINUOUS
 62
    4
 10
208.00138003459753
 20
-359.20753825607369
 40
7.2000000000012996
 50
187.53434276755959
 51
269.99999999998039
  0
LINE
  8
_0-3_躯体と製品
  6
CONTINUOUS
 62
    4
 10
200.86354161897543
 20
-360.15160538953842
 11
189.34765255499588
 21
-273.08305651527735
  0
ARC
  8
_0-3_躯体と製品
  6
CONTINUOUS
 62
    4
 10
185.38218676853438
 20
-273.60753825609117
 40
4.0000000000054863
 50
7.5343427675522729
 51
89.999999999969731
  0
LINE
  8
_0-3_躯体と製品
  6
CONTINUOUS
 62
    4
 10
185.38218676853649
 20
-269.60753825608572
 11
170.69260093263802
 21
-269.60753825608572
  0
LINE
  8
_0-3_躯体と製品
  6
CONTINUOUS
 62
    4
 10
211.55655557320642
 20
-363.20753825609245
 11
200.02114420950602
 21
-275.99138650891018
  0
ARC
  8
_0-3_躯体と製品
  6
CONTINUOUS
 62
    4
 10
196.05567842304467
 20
-276.51586824971969
 40
4.0000000000047597
 50
7.534342767491621
 51
82.465657232326663
  0
LINE
  8
_0-3_躯体と製品
  6
CONTINUOUS
 62
    4
 10
196.58016016386682
 20
-272.55040246326007
 11
192.43251434910781
 21
-272.00182516761379
  0
ARC
  8
_0-3_躯体と製品
  6
CONTINUOUS
 62
    4
 10
185.35370671056006
 20
-273.68324236329272
 40
7.2757598482554746
 50
13.361753720798355
 51
89.775722216850056
  0
LINE
  8
_0-3_躯体と製品
  6
CONTINUOUS
 62
    4
 10
185.38218676853649
 20
-266.40753825607499
 11
170.69260093263802
 21
-266.40753825607499
  0
LINE
  8
_0-3_躯体と製品
  6
CONTINUOUS
 62
    4
 10
210.19260093263802
 20
-363.20753825609245
 11
210.19260093263802
 21
-366.40753825607499
  0
LINE
  8
_0-3_躯体と製品
  6
CONTINUOUS
 62
    4
 10
213.69260093263802
 20
-368.4075382560759
 11
238.69260093263802
 21
-368.4075382560759
  0
LINE
  8
_0-3_躯体と製品
  6
CONTINUOUS
 62
    4
 10
238.69260093263802
 20
-368.4075382560759
 11
238.69260093263802
 21
-366.40753825607499
  0
LINE
  8
_0-3_躯体と製品
  6
CONTINUOUS
 62
    4
 10
238.69260093263802
 20
-366.40753825607499
 11
213.69260093263802
 21
-366.40753825607499
  0
LINE
  8
_0-3_躯体と製品
  6
CONTINUOUS
 62
    4
 10
213.69260093263802
 20
-366.40753825607499
 11
213.69260093263802
 21
-368.4075382560759
  0
LINE
  8
_0-3_躯体と製品
  6
CONTINUOUS
 62
    4
 10
186.64530060637844
 20
-266.52304211773117
 11
185.38218592286648
 21
-269.60753804531669
  0
LINE
  8
_0-3_躯体と製品
  6
CONTINUOUS
 62
    4
 10
177.62080491519737
 20
-250.90753825607499
 11
177.62080491519737
 21
-262.40753825607499
  0
LINE
  8
_0-3_躯体と製品
  6
CONTINUOUS
 62
    4
 10
163.76439845464847
 20
-250.90753825607499
 11
163.76439845464847
 21
-262.40753825607499
  0
LINE
  8
_0-3_躯体と製品
  6
CONTINUOUS
 62
    4
 10
160.30029683952671
 20
-249.40753825607499
 11
181.08490653035551
 21
-249.40753825607499
  0
ARC
  8
_0-3_躯体と製品
  6
CONTINUOUS
 62
    4
 10
160.30029683952307
 20
-254.15753825606464
 40
4.749999999983916
 50
43.173551107269937
 51
136.8264488927301
  0
ARC
  8
_0-3_躯体と製品
  6
CONTINUOUS
 62
    4
 10
170.69260168492292
 20
-266.15753825607419
 40
16.749999999998835
 50
65.56730232054764
 51
114.43269767945236
  0
ARC
  8
_0-3_躯体と製品
  6
CONTINUOUS
 62
    4
 10
181.08490653034278
 20
-254.15753825608203
 40
4.7500000000103997
 50
43.173551107257659
 51
136.82644889274232
  0
LINE
  8
_0-3_躯体と製品
  6
CONTINUOUS
 62
    4
 10
184.54900814548819
 20
-250.90753825607499
 11
184.54900814548819
 21
-262.40753825607499
  0
LINE
  8
_0-3_躯体と製品
  6
CONTINUOUS
 62
    4
 10
184.54900814548819
 20
-262.40753825607499
 11
156.83619522439767
 21
-262.40753825607499
  0
LINE
  8
_0-3_躯体と製品
  6
CONTINUOUS
 62
    4
 10
156.83619522439767
 20
-262.40753825607499
 11
156.83619522439767
 21
-250.90753825607499
  0
LINE
  8
_0-3_躯体と製品
  6
CONTINUOUS
 62
    4
 10
177.62080597693785
 20
-281.10753893979381
 11
177.62080597693785
 21
-269.60753893979381
  0
LINE
  8
_0-3_躯体と製品
  6
CONTINUOUS
 62
    4
 10
163.76439951638531
 20
-281.10753893979381
 11
163.76439951638531
 21
-269.60753893979381
  0
LINE
  8
_0-3_躯体と製品
  6
CONTINUOUS
 62
    4
 10
160.30029790125627
 20
-282.60753893979381
 11
181.08490759206688
 21
-282.60753893979381
  0
ARC
  8
_0-3_躯体と製品
  6
CONTINUOUS
 62
    4
 10
160.30029790124536
 20
-277.85753893979052
 40
4.7500000000038698
 50
223.1735511072699
 51
316.82644889273007
  0
ARC
  8
_0-3_躯体と製品
  6
CONTINUOUS
 62
    4
 10
170.69260274666158
 20
-265.85753893979063
 40
16.750000000003233
 50
245.56730232054764
 51
294.43269767945236
  0
ARC
  8
_0-3_躯体と製品
  6
CONTINUOUS
 62
    4
 10
181.08490759208144
 20
-277.85753893978847
 40
4.7500000000079048
 50
223.17355110725768
 51
316.82644889274235
  0
LINE
  8
_0-3_躯体と製品
  6
CONTINUOUS
 62
    4
 10
184.54900920722503
 20
-281.10753893979381
 11
184.54900920722503
 21
-269.60753893979381
  0
LINE
  8
_0-3_躯体と製品
  6
CONTINUOUS
 62
    4
 10
184.54900920722503
 20
-269.60753893979381
 11
156.83619628610541
 21
-269.60753893979381
  0
LINE
  8
_0-3_躯体と製品
  6
CONTINUOUS
 62
    4
 10
156.83619628610541
 20
-269.60753893979381
 11
156.83619628610541
 21
-281.10753893979381
  0
ARC
  8
_0-3_躯体と製品
  6
CONTINUOUS
 62
    4
 10
133.38382240255669
 20
-364.80753825609827
 40
1.6000000000058208
 50
270
 51
89.999999999999972
  0
ARC
  8
_0-3_躯体と製品
  6
CONTINUOUS
 62
    4
 10
208.00138003459506
 20
-364.80753825609827
 40
1.6000000000058208
 50
90
 51
270
  0
LINE
  8
_0-3_躯体と製品
  6
CONTINUOUS
 62
    4
 10
178.69472147063789
 20
-282.60753893979381
 11
178.69472147063789
 21
-318.90753825607499
  0
LINE
  8
_0-3_躯体と製品
  6
CONTINUOUS
 62
    4
 10
162.69260147063687
 20
-282.60753893979381
 11
162.69260147063687
 21
-318.90753825607408
  0
LINE
  8
_0-3_躯体と製品
  6
CONTINUOUS
 62
    3
 10
177.19452147063566
 20
-282.60753893979381
 11
177.19452147063566
 21
-320.40773825607357
  0
LINE
  8
_0-3_躯体と製品
  6
CONTINUOUS
 62
    3
 10
164.19280147063546
 20
-282.60753893979381
 11
164.19280147063546
 21
-320.40773825607357
  0
LINE
  8
_0-3_躯体と製品
  6
CONTINUOUS
 62
    4
 10
177.19452147063566
 20
-320.40773825607357
 11
164.19280147063546
 21
-320.40773825607357
  0
LINE
  8
_0-3_躯体と製品
  6
CONTINUOUS
 62
    3
 10
178.69472147063789
 20
-318.90753825607499
 11
162.69260147063687
 21
-318.90753825607408
  0
LINE
  8
_0-3_躯体と製品
  6
CONTINUOUS
 62
    4
 10
162.69260147063687
 20
-318.90753825607499
 11
164.19280147063546
 21
-320.40773825607357
  0
LINE
  8
_0-3_躯体と製品
  6
CONTINUOUS
 62
    4
 10
178.69260147063687
 20
-318.90753825607499
 11
177.19240147063829
 21
-320.40773825607357
  0
LINE
  8
_0-3_躯体と製品
  6
CONTINUOUS
 62
    4
 10
150.69260147063687
 20
-72.407538256074986
 11
190.69260147063687
 21
-72.407538256074986
  0
LINE
  8
_0-4_文字-記号
  6
CONTINUOUS
 62
    7
 10
3.6926003277585551
 20
-356.6349818467279
 11
27.925819874617446
 21
-398.60814933284564
  0
LINE
  8
_0-4_文字-記号
  6
CONTINUOUS
 62
    7
 10
27.925819874617446
 20
-398.60814933284564
 11
76.959350160377653
 21
-398.60814933284564
  0
TEXT
  8
_0-4_文字-記号
 62
    7
 10
31.333271760766365
 20
-393.85379990395904
 40
9
 41
1
 50
0
  1
ランナー
  0
LINE
  8
_0-3_躯体と製品
  6
CONTINUOUS
 62
    4
 10
-59.311910667933262
 20
158.7862790294057
 11
-109.31206283554275
 21
108.79079354264832
  0
LINE
  8
_0-3_躯体と製品
  6
CONTINUOUS
 62
    4
 10
-59.311857803011662
 20
176.15533080602836
 11
-109.31200997062479
 21
126.15984531925096
  0
LINE
  8
_0-3_躯体と製品
  6
CONTINUOUS
 62
    4
 10
-59.311804911543732
 20
193.53310578381388
 11
-109.31195709336316
 21
143.53295360199263
  0
LINE
  8
_0-3_躯体と製品
  6
CONTINUOUS
 62
    4
 10
-59.311910667922348
 20
861.04040069141683
 11
-109.31206283554275
 21
811.04491520466036
  0
LINE
  8
_0-3_躯体と製品
  6
CONTINUOUS
 62
    4
 10
-59.311857803004386
 20
878.40945246803858
 11
-109.31200997062479
 21
828.413966981263
  0
LINE
  8
_0-3_躯体と製品
  6
CONTINUOUS
 62
    4
 10
-59.311804911543732
 20
895.78722744582592
 11
-109.31195709335225
 21
845.78707526400467
  0
TEXT
  8
_0-4_文字-記号
 62
    7
 10
48.297124744316534
 20
106.36549927169199
 40
9
 41
1
 50
0
  1
巾木
  0
LINE
  8
_0-4_文字-記号
  6
CONTINUOUS
 62
    7
 10
72.775483469475148
 20
101.62909487242086
 11
42.802259470365243
 21
101.62909487242086
  0
LINE
  8
_0-4_文字-記号
  6
CONTINUOUS
 62
    7
 10
42.802259470365243
 20
101.62909487242086
 11
29.69260143577776
 21
78.922501086635748
  0
INSERT
  2
-006-_D7
  8
_0-2_寸法
 10
-23420.898498593793
 20
-5292.433193973593
 41
1
 42
1
 50
0
  0
TEXT
  8
_0-4_文字-記号
 62
    7
 10
203.15353145402696
 20
-229.21454007101875
 40
9
 41
1
 50
0
  1
鋼製床下地
  0
LINE
  8
_0-4_文字-記号
  6
CONTINUOUS
 62
    7
 10
261.21672775083789
 20
-233.95094447028987
 11
197.65866618008658
 21
-233.95094447028987
  0
LINE
  8
_0-4_文字-記号
  6
CONTINUOUS
 62
    7
 10
197.65866618008658
 20
-233.95094447028987
 11
184.54900814548819
 21
-256.65753825607499
  0
LINE
  8
_0-4_文字-記号
  6
CONTINUOUS
 62
    7
 10
-5.3797527580645692
 20
144.78109517208304
 11
35.358944670308119
 21
215.34258895218409
  0
LINE
  8
_0-4_文字-記号
  6
CONTINUOUS
 62
    7
 10
35.358944670308119
 20
215.34258895218409
 11
121.06265200918642
 21
215.34258895218409
  0
TEXT
  8
_0-4_文字-記号
 62
    7
 10
40.490556698096043
 20
218.26676345841861
 40
9
 41
1
 50
0
  1
間柱鋼 @６００
  0
TEXT
  8
_0-2_寸法
 62
    7
 10
-174.48777788893494
 20
850.88640777748424
 40
9
 41
1
 50
90
  1
@９００
  0
TEXT
  8
_0-4_文字-記号
 62
    7
 10
193.63524669458639
 20
32.063626515862779
 40
9
 41
1
 50
0
  1
床仕上り面
  0
LINE
  8
_0-4_文字-記号
  6
CONTINUOUS
 62
    7
 10
252.67480846363833
 20
27.327222116591656
 11
188.14038142063509
 21
27.327222116591656
  0
LINE
  8
_0-4_文字-記号
  6
CONTINUOUS
 62
    7
 10
188.14038142063509
 20
27.327222116591656
 11
167.50928673899762
 21
-8.4068820878019324
  0
LINE
  8
_0-3_躯体と製品
  6
CONTINUOUS
 62
    4
 10
707.53668743262824
 20
-2.7065382560876969
 11
707.53668764976828
 21
281.99298724710479
  0
INSERT
  2
-007-_D8
  8
_0-2_寸法
 10
-23420.898498593793
 20
-5292.433193973593
 41
1
 42
1
 50
0
  0
LINE
  8
_0-3_躯体と製品
  6
CONTINUOUS
 62
    7
 10
642.53636537126658
 20
-368.4068382074056
 11
642.5363656151967
 21
1083.5927109574513
  0
LINE
  8
_0-3_躯体と製品
  6
CONTINUOUS
 62
    4
 10
707.53668793644829
 20
2.2934617439123031
 11
707.53668793644829
 21
280.29346174391139
  0
LINE
  8
_0-3_躯体と製品
  6
CONTINUOUS
 62
    4
 10
707.53668793644829
 20
280.29346174391139
 11
711.73668793645629
 21
280.29346174391139
  0
LINE
  8
_0-3_躯体と製品
  6
CONTINUOUS
 62
    4
 10
711.73668793645629
 20
280.29346174391139
 11
711.73668793645629
 21
273.29346174391139
  0
LINE
  8
_0-3_躯体と製品
  6
CONTINUOUS
 62
    4
 10
711.73668793645629
 20
273.29346174391139
 11
713.23668793645629
 21
273.29346174391139
  0
LINE
  8
_0-3_躯体と製品
  6
CONTINUOUS
 62
    4
 10
713.23668793645629
 20
273.29346174391139
 11
713.23668793645629
 21
281.5934617439143
  0
LINE
  8
_0-3_躯体と製品
  6
CONTINUOUS
 62
    4
 10
713.23668793645629
 20
281.5934617439143
 11
715.13668793647594
 21
281.5934617439143
  0
LINE
  8
_0-3_躯体と製品
  6
CONTINUOUS
 62
    4
 10
715.13668793647594
 20
281.5934617439143
 11
720.03668793643737
 21
271.5934617439143
  0
LINE
  8
_0-3_躯体と製品
  6
CONTINUOUS
 62
    4
 10
720.03668793643737
 20
271.5934617439143
 11
722.53668793643737
 21
271.5934617439143
  0
LINE
  8
_0-3_躯体と製品
  6
CONTINUOUS
 62
    4
 10
722.53668793643737
 20
271.5934617439143
 11
722.53668793643737
 21
-8.406538256085696
  0
LINE
  8
_0-3_躯体と製品
  6
CONTINUOUS
 62
    4
 10
722.53668793643737
 20
-8.406538256085696
 11
719.03668793644829
 21
-8.406538256085696
  0
LINE
  8
_0-3_躯体と製品
  6
CONTINUOUS
 62
    4
 10
719.03668793644829
 20
-8.406538256085696
 11
715.43668793646793
 21
0.9934617439075736
  0
LINE
  8
_0-3_躯体と製品
  6
CONTINUOUS
 62
    4
 10
715.43668793646793
 20
0.9934617439075736
 11
713.23668793645629
 21
0.9934617439075736
  0
LINE
  8
_0-3_躯体と製品
  6
CONTINUOUS
 62
    4
 10
713.23668793645629
 20
0.9934617439075736
 11
713.23668793645629
 21
9.2934617439123031
  0
LINE
  8
_0-3_躯体と製品
  6
CONTINUOUS
 62
    4
 10
713.23668793645629
 20
9.2934617439123031
 11
711.73668793645629
 21
9.2934617439123031
  0
LINE
  8
_0-3_躯体と製品
  6
CONTINUOUS
 62
    4
 10
711.73668793645629
 20
9.2934617439123031
 11
711.73668793645629
 21
2.2934617439123031
  0
LINE
  8
_0-3_躯体と製品
  6
CONTINUOUS
 62
    4
 10
711.73668793645629
 20
2.2934617439123031
 11
707.53668793644829
 21
2.2934617439123031
  0
INSERT
  2
-008-_D9
  8
_0-2_寸法
 10
-23420.898498593793
 20
-5292.433193973593
 41
1
 42
1
 50
0
  0
LINE
  8
_0-5_中心線
  6
CENTER1
 62
    7
 10
628.85460578512721
 20
73.592710957450436
 11
697.30404830347834
 21
73.592710957450436
  0
LINE
  8
_0-3_躯体と製品
  6
CONTINUOUS
 62
    4
 10
647.83636560196828
 20
78.59271094495034
 11
670.53668745144751
 21
78.592710960540899
  0
LINE
  8
_0-3_躯体と製品
  6
CONTINUOUS
 62
    4
 10
647.83636560196828
 20
77.59271094745327
 11
670.53668745145842
 21
77.59271094745327
  0
LINE
  8
_0-3_躯体と製品
  6
CONTINUOUS
 62
    4
 10
644.83636560947707
 20
81.592710937456104
 11
642.5363656151967
 21
81.592710937456104
  0
LINE
  8
_0-3_躯体と製品
  6
CONTINUOUS
 62
    4
 10
647.83636560196828
 20
68.592710969965083
 11
670.53668745144751
 21
68.592710954356335
  0
LINE
  8
_0-3_躯体と製品
  6
CONTINUOUS
 62
    4
 10
647.83636560196828
 20
69.592711480954677
 11
670.53668745144751
 21
69.592710828012059
  0
LINE
  8
_0-3_躯体と製品
  6
CONTINUOUS
 62
    4
 10
644.83636560947707
 20
65.592710977459319
 11
642.5363656151967
 21
65.592710977459319
  0
LINE
  8
_0-3_躯体と製品
  6
CONTINUOUS
 62
    4
 10
644.83636560947707
 20
63.592710982450626
 11
647.47655000251689
 21
65.792864643338362
  0
ARC
  8
_0-3_躯体と製品
  6
CONTINUOUS
 62
    4
 10
646.83636560445245
 20
66.561085921035442
 40
0.9999999975158505
 50
309.80557109154097
 51
359.99999999927633
  0
LINE
  8
_0-3_躯体と製品
  6
CONTINUOUS
 62
    4
 10
647.83636560196828
 20
66.561085921022823
 11
647.83636560196828
 21
80.624335993891691
  0
ARC
  8
_0-3_躯体と製品
  6
CONTINUOUS
 62
    4
 10
646.83636560445052
 20
80.624335993879953
 40
0.9999999975178024
 50
0.0000000006718212
 51
50.194428908406621
  0
LINE
  8
_0-3_躯体と製品
  6
CONTINUOUS
 62
    4
 10
647.47655000251689
 20
81.392557271577971
 11
644.83636560947707
 21
83.592710932450245
  0
LINE
  8
_0-3_躯体と製品
  6
CONTINUOUS
 62
    4
 10
642.5363656151967
 20
48.592711019950912
 11
644.83636560947707
 21
48.592711019950912
  0
LINE
  8
_0-3_躯体と製品
  6
CONTINUOUS
 62
    4
 10
644.83636560947707
 20
48.592711019950912
 11
644.83636560947707
 21
98.59271089494996
  0
LINE
  8
_0-3_躯体と製品
  6
CONTINUOUS
 62
    4
 10
644.83636560947707
 20
98.59271089494996
 11
642.5363656151967
 21
98.59271089494996
  0
LINE
  8
_0-3_躯体と製品
  6
CONTINUOUS
 62
    4
 10
642.5363656151967
 20
98.59271089494996
 11
642.5363656151967
 21
48.592711019950912
  0
LINE
  8
_0-3_躯体と製品
  6
CONTINUOUS
 62
    4
 10
1022.9341299364351
 20
-8.4074867023782645
 11
751.53668790157826
 21
-8.4064182687216089
  0
LINE
  8
_0-3_躯体と製品
  6
CONTINUOUS
 62
    4
 10
1022.9341299364351
 20
-41.407486702377355
 11
657.53298768907553
 21
-41.407346496304854
  0
LINE
  8
_0-3_躯体と製品
  6
CONTINUOUS
 62
    4
 10
1022.9341299364351
 20
-26.407486702378264
 11
657.53298768907553
 21
-26.407346496304854
  0
LINE
  8
_0-3_躯体と製品
  6
CONTINUOUS
 62
    3
 10
1022.9341299364351
 20
-36.407486702378264
 11
657.53298768907553
 21
-36.407346496304854
  0
LINE
  8
_0-3_躯体と製品
  6
CONTINUOUS
 62
    3
 10
1022.9341299364351
 20
-31.407486702378264
 11
657.53298768907553
 21
-31.407346496304854
  0
LINE
  8
_0-3_躯体と製品
  6
CONTINUOUS
 62
    4
 10
722.53668793643737
 20
-21.405538256081854
 11
731.53668790157826
 21
-21.405330457443597
  0
LINE
  8
_0-3_躯体と製品
  6
CONTINUOUS
 62
    4
 10
731.53668790157826
 20
-21.405330457443597
 11
731.53668790157826
 21
91.59456405198307
  0
LINE
  8
_0-3_躯体と製品
  6
CONTINUOUS
 62
    4
 10
731.53668790157826
 20
91.59456405198307
 11
722.53668793643737
 21
91.594356253344813
  0
LINE
  8
_0-3_躯体と製品
  6
CONTINUOUS
 62
    4
 10
722.53668793643737
 20
91.594356253344813
 11
722.53668793643737
 21
-21.405538256081854
  0
LINE
  8
_0-3_躯体と製品
  6
CONTINUOUS
 62
    4
 10
657.53298768907553
 20
-70.407346496304854
 11
657.53298768907553
 21
-41.407346496304854
  0
LINE
  8
_0-3_躯体と製品
  6
CONTINUOUS
 62
    4
 10
733.53668790157826
 20
-26.406330457448348
 11
749.53668790157826
 21
-26.406330457448348
  0
ARC
  8
_0-3_躯体と製品
  6
CONTINUOUS
 62
    4
 10
749.53668790157872
 20
-24.406330457448803
 40
1.9999999999995453
 50
269.99999999998698
 51
359.99999999998698
  0
LINE
  8
_0-3_躯体と製品
  6
CONTINUOUS
 62
    4
 10
751.53668790157826
 20
-24.406330457449258
 11
751.53668790157826
 21
-10.406330457449258
  0
ARC
  8
_0-3_躯体と製品
  6
CONTINUOUS
 62
    4
 10
749.53668790157781
 20
-10.406330457448803
 40
2.0000000000004543
 50
359.99999999998698
 51
89.999999999986997
  0
LINE
  8
_0-3_躯体と製品
  6
CONTINUOUS
 62
    4
 10
749.53668790157826
 20
-8.4063304574483482
 11
733.53668790157826
 21
-8.4063304574483482
  0
ARC
  8
_0-3_躯体と製品
  6
CONTINUOUS
 62
    4
 10
733.53668790157872
 20
-10.406330457448803
 40
2.0000000000004543
 50
90.000000000013031
 51
180.00000000001302
  0
LINE
  8
_0-3_躯体と製品
  6
CONTINUOUS
 62
    4
 10
731.53668790157826
 20
-10.406330457449258
 11
731.53668790157826
 21
-24.406330457449258
  0
LINE
  8
_0-3_躯体と製品
  6
CONTINUOUS
 62
    4
 10
731.53668790157826
 20
-24.406330457449258
 11
733.53668790157826
 21
-26.406330457448348
  0
LINE
  8
_0-3_躯体と製品
  6
CONTINUOUS
 62
    4
 10
751.53668790157826
 20
-8.4063304574629001
 11
751.53668790157826
 21
-26.4063304574629
  0
LINE
  8
_0-3_躯体と製品
  6
CONTINUOUS
 62
    4
 10
657.53298768907553
 20
-41.407346496304854
 11
657.53298768907553
 21
-26.405346496310813
  0
LINE
  8
_0-3_躯体と製品
  6
CONTINUOUS
 62
    4
 10
707.5366878775385
 20
580.59346182403715
 11
707.53668789796575
 21
861.99346198430612
  0
LINE
  8
_0-3_躯体と製品
  6
CONTINUOUS
 62
    4
 10
705.53668743643721
 20
580.59346182403715
 11
705.53668743643721
 21
861.99346198430612
  0
LINE
  8
_0-3_躯体と製品
  6
CONTINUOUS
 62
    4
 10
707.53668765634575
 20
290.59346198431194
 11
707.53668786361595
 21
571.99346198430612
  0
LINE
  8
_0-3_躯体と製品
  6
CONTINUOUS
 62
    4
 10
705.53668743643721
 20
290.59346198431194
 11
705.53668743643721
 21
571.99346198430612
  0
INSERT
  2
-009-_D10
  8
_0-2_寸法
 10
-23420.898498593793
 20
-5292.433193973593
 41
1
 42
1
 50
0
  0
LINE
  8
_0-3_躯体と製品
  6
CONTINUOUS
 62
    4
 10
707.53668793644829
 20
292.2934617439123
 11
707.53668793644829
 21
570.2934617439123
  0
LINE
  8
_0-3_躯体と製品
  6
CONTINUOUS
 62
    4
 10
707.53668793644829
 20
570.2934617439123
 11
711.73668793645629
 21
570.2934617439123
  0
LINE
  8
_0-3_躯体と製品
  6
CONTINUOUS
 62
    4
 10
711.73668793645629
 20
570.2934617439123
 11
711.73668793645629
 21
563.29346174391139
  0
LINE
  8
_0-3_躯体と製品
  6
CONTINUOUS
 62
    4
 10
711.73668793645629
 20
563.29346174391139
 11
713.23668793645629
 21
563.29346174391139
  0
LINE
  8
_0-3_躯体と製品
  6
CONTINUOUS
 62
    4
 10
713.23668793645629
 20
563.29346174391139
 11
713.23668793645629
 21
571.5934617439143
  0
LINE
  8
_0-3_躯体と製品
  6
CONTINUOUS
 62
    4
 10
713.23668793645629
 20
571.5934617439143
 11
715.13668793647594
 21
571.5934617439143
  0
LINE
  8
_0-3_躯体と製品
  6
CONTINUOUS
 62
    4
 10
715.13668793647594
 20
571.5934617439143
 11
720.03668793643737
 21
561.59346174391521
  0
LINE
  8
_0-3_躯体と製品
  6
CONTINUOUS
 62
    4
 10
720.03668793643737
 20
561.59346174391521
 11
722.53668793643737
 21
561.59346174391521
  0
LINE
  8
_0-3_躯体と製品
  6
CONTINUOUS
 62
    4
 10
722.53668793643737
 20
561.59346174391521
 11
722.53668793643737
 21
281.5934617439143
  0
LINE
  8
_0-3_躯体と製品
  6
CONTINUOUS
 62
    4
 10
722.53668793643737
 20
281.5934617439143
 11
719.03668793644829
 21
281.5934617439143
  0
LINE
  8
_0-3_躯体と製品
  6
CONTINUOUS
 62
    4
 10
719.03668793644829
 20
281.5934617439143
 11
715.43668793646793
 21
290.99346174390757
  0
LINE
  8
_0-3_躯体と製品
  6
CONTINUOUS
 62
    4
 10
715.43668793646793
 20
290.99346174390757
 11
713.23668793645629
 21
290.99346174390757
  0
LINE
  8
_0-3_躯体と製品
  6
CONTINUOUS
 62
    4
 10
713.23668793645629
 20
290.99346174390757
 11
713.23668793645629
 21
299.29346174391139
  0
LINE
  8
_0-3_躯体と製品
  6
CONTINUOUS
 62
    4
 10
713.23668793645629
 20
299.29346174391139
 11
711.73668793645629
 21
299.29346174391139
  0
LINE
  8
_0-3_躯体と製品
  6
CONTINUOUS
 62
    4
 10
711.73668793645629
 20
299.29346174391139
 11
711.73668793645629
 21
292.2934617439123
  0
LINE
  8
_0-3_躯体と製品
  6
CONTINUOUS
 62
    4
 10
711.73668793645629
 20
292.2934617439123
 11
707.53668793644829
 21
292.2934617439123
  0
LINE
  8
_0-4_文字-記号
  6
CONTINUOUS
 62
    7
 10
708.73668758347776
 20
287.69365342711717
 11
737.2030311361159
 21
336.99880676598241
  0
LINE
  8
_0-4_文字-記号
  6
CONTINUOUS
 62
    7
 10
737.2030311361159
 20
336.99880676598241
 11
786.82941610481794
 21
336.99880676598241
  0
LINE
  8
_0-5_中心線
  6
CENTER1
 62
    7
 10
696.7866880834772
 20
286.29346174391139
 11
727.50768793646785
 21
286.29346174391139
  0
LINE
  8
_0-3_躯体と製品
  6
CONTINUOUS
 62
    3
 10
711.83668743648741
 20
299.29346174391139
 11
713.03668743643721
 21
299.29346174391139
  0
ARC
  8
_0-3_躯体と製品
  6
CONTINUOUS
 62
    3
 10
709.2366872894163
 20
290.59446182404099
 40
1.7
 50
91.965247106496065
 51
180.03369800002926
  0
ARC
  8
_0-3_躯体と製品
  6
CONTINUOUS
 62
    3
 10
709.23668758348504
 20
281.99346198430612
 40
1.7
 50
180.0000059997609
 51
269.9999969984521
  0
LINE
  8
_0-3_躯体と製品
  6
CONTINUOUS
 62
    3
 10
708.73668758347776
 20
281.99346198430612
 11
701.73668758348504
 21
281.99346198430612
  0
LINE
  8
_0-3_躯体と製品
  6
CONTINUOUS
 62
    3
 10
701.73668758348504
 20
281.99346198430612
 11
701.73668758348504
 21
290.59346198431194
  0
LINE
  8
_0-3_躯体と製品
  6
CONTINUOUS
 62
    3
 10
701.73668758348504
 20
290.59346198431194
 11
708.73668758347776
 21
290.59346198431194
  0
LINE
  8
_0-3_躯体と製品
  6
CONTINUOUS
 62
    3
 10
708.73668758347776
 20
290.59346198431194
 11
708.73668758347776
 21
281.99346198430612
  0
ARC
  8
_0-3_躯体と製品
  6
CONTINUOUS
 62
    3
 10
709.23668658754832
 20
290.59445993673125
 40
0.5
 50
93.624452754466617
 51
180.1143570002184
  0
ARC
  8
_0-3_躯体と製品
  6
CONTINUOUS
 62
    3
 10
711.33668743648741
 20
292.79345985660075
 40
1.7
 50
270
 51
0
  0
LINE
  8
_0-3_躯体と製品
  6
CONTINUOUS
 62
    3
 10
709.38368758150682
 20
290.29446197296238
 11
708.93668758145577
 21
290.29346197295763
  0
LINE
  8
_0-3_躯体と製品
  6
CONTINUOUS
 62
    3
 10
711.16468758145857
 20
288.92546197295633
 11
711.26368758150784
 21
288.97746197296692
  0
LINE
  8
_0-3_躯体と製品
  6
CONTINUOUS
 62
    3
 10
710.53668758148706
 20
290.05846197295796
 11
709.38368758150682
 21
290.29446197296238
  0
LINE
  8
_0-3_躯体と製品
  6
CONTINUOUS
 62
    3
 10
711.10868758147626
 20
287.04146197296541
 11
711.35268758147504
 21
287.04146197296541
  0
ARC
  8
_0-3_躯体と製品
  6
CONTINUOUS
 62
    3
 10
711.10868758147626
 20
286.84246197295761
 40
0.2
 50
90.000002998212935
 51
180.0000059997609
  0
ARC
  8
_0-3_躯体と製品
  6
CONTINUOUS
 62
    3
 10
708.93668758145577
 20
290.09346197296236
 40
0.2
 50
90.000002998212935
 51
180.0000059997609
  0
ARC
  8
_0-3_躯体と製品
  6
CONTINUOUS
 62
    3
 10
711.2556875814771
 20
288.74946197296413
 40
0.2
 50
117.34102299955511
 51
203.6129460013864
  0
ARC
  8
_0-3_躯体と製品
  6
CONTINUOUS
 62
    3
 10
711.35268758147504
 20
287.14146197295668
 40
0.1
 50
269.99999699845216
 51
4.6199239999130279
  0
LINE
  8
_0-3_躯体と製品
  6
CONTINUOUS
 62
    3
 10
711.07268758151622
 20
288.66946197296238
 11
711.1886875814962
 21
288.39346197296436
  0
LINE
  8
_0-3_躯体と製品
  6
CONTINUOUS
 62
    3
 10
711.1886875814962
 20
288.39346197296436
 11
711.32468758149844
 21
287.94146197295959
  0
LINE
  8
_0-3_躯体と製品
  6
CONTINUOUS
 62
    3
 10
711.32468758149844
 20
287.94146197295959
 11
711.42468758146788
 21
287.46546197296357
  0
LINE
  8
_0-3_躯体と製品
  6
CONTINUOUS
 62
    3
 10
711.42468758146788
 20
287.46546197296357
 11
711.4516875814661
 21
287.14946197295922
  0
ARC
  8
_0-3_躯体と製品
  6
CONTINUOUS
 62
    3
 10
711.33668743648741
 20
292.79346182081827
 40
0.5
 50
269.96818668809385
 51
0.0000000000000254
  0
LINE
  8
_0-3_躯体と製品
  6
CONTINUOUS
 62
    3
 10
711.33640981294593
 20
292.29346189788521
 11
709.17838866686725
 21
292.29346190367687
  0
LINE
  8
_0-3_躯体と製品
  6
CONTINUOUS
 62
    3
 10
711.33668743648741
 20
291.09345985660366
 11
709.2050783611885
 21
291.09345985660366
  0
ARC
  8
_0-3_躯体と製品
  6
CONTINUOUS
 62
    3
 10
706.95246772314567
 20
285.74517211739476
 40
4.8159999999999989
 50
318.09315000060161
 51
6.5371587617127549
  0
ARC
  8
_0-3_躯体と製品
  6
CONTINUOUS
 62
    3
 10
711.10868758147626
 20
285.74446199566137
 40
0.2
 50
179.9999940002391
 51
269.9999969984521
  0
LINE
  8
_0-3_躯体と製品
  6
CONTINUOUS
 62
    3
 10
710.53668758148706
 20
282.52846199566102
 11
710.53668758148706
 21
286.29346199565862
  0
LINE
  8
_0-3_躯体と製品
  6
CONTINUOUS
 62
    3
 10
711.83668743648741
 20
273.29346190417164
 11
713.03668743643721
 21
273.29346190417164
  0
ARC
  8
_0-3_躯体と製品
  6
CONTINUOUS
 62
    3
 10
709.23668758348504
 20
281.99346198430612
 40
0.5
 50
180.0000059997609
 51
269.88540599791401
  0
ARC
  8
_0-3_躯体と製品
  6
CONTINUOUS
 62
    3
 10
711.33668743648741
 20
279.79346190417164
 40
0.5
 50
0
 51
90
  0
LINE
  8
_0-3_躯体と製品
  6
CONTINUOUS
 62
    3
 10
711.33668743648741
 20
280.29346190417164
 11
709.23668749448552
 21
280.29346198430903
  0
LINE
  8
_0-3_躯体と製品
  6
CONTINUOUS
 62
    3
 10
711.83668743648741
 20
279.79346190417164
 11
711.83668743648741
 21
273.29346190417164
  0
ARC
  8
_0-3_躯体と製品
  6
CONTINUOUS
 62
    3
 10
711.33668743648741
 20
279.79346190417164
 40
1.7
 50
0
 51
90
  0
LINE
  8
_0-3_躯体と製品
  6
CONTINUOUS
 62
    3
 10
711.33668743648741
 20
281.49346190416873
 11
709.23568756282839
 21
281.49346298434284
  0
LINE
  8
_0-3_躯体と製品
  6
CONTINUOUS
 62
    3
 10
713.03668743643721
 20
279.79346190417164
 11
713.03668743643721
 21
273.29346190417164
  0
LINE
  8
_0-3_躯体と製品
  6
CONTINUOUS
 62
    3
 10
711.42468758146788
 20
285.12146199565359
 11
711.4516875814661
 21
285.43746199565976
  0
LINE
  8
_0-3_躯体と製品
  6
CONTINUOUS
 62
    3
 10
711.32468758149844
 20
284.64546199565939
 11
711.42468758146788
 21
285.12146199565359
  0
LINE
  8
_0-3_躯体と製品
  6
CONTINUOUS
 62
    3
 10
711.1886875814962
 20
284.19346199565371
 11
711.32468758149844
 21
284.64546199565939
  0
LINE
  8
_0-3_躯体と製品
  6
CONTINUOUS
 62
    3
 10
711.07268758151622
 20
283.91746199565569
 11
711.1886875814962
 21
284.19346199565371
  0
ARC
  8
_0-3_躯体と製品
  6
CONTINUOUS
 62
    3
 10
711.35268758147504
 20
285.4454619956623
 40
0.1
 50
355.380076000087
 51
90.000002998212949
  0
ARC
  8
_0-3_躯体と製品
  6
CONTINUOUS
 62
    3
 10
711.2556875814771
 20
283.83746199565303
 40
0.2
 50
156.38705399861351
 51
242.65897700044488
  0
ARC
  8
_0-3_躯体と製品
  6
CONTINUOUS
 62
    3
 10
708.93668758145577
 20
282.49346199565662
 40
0.2
 50
179.9999940002391
 51
269.9999969984521
  0
LINE
  8
_0-3_躯体と製品
  6
CONTINUOUS
 62
    3
 10
711.10868758147626
 20
285.54546199565266
 11
711.35268758147504
 21
285.54546199565266
  0
LINE
  8
_0-3_躯体と製品
  6
CONTINUOUS
 62
    3
 10
710.53668758148706
 20
282.52846199566102
 11
709.38368758150682
 21
282.29246199565569
  0
LINE
  8
_0-3_躯体と製品
  6
CONTINUOUS
 62
    3
 10
711.16468758145857
 20
283.66146199566174
 11
711.26368758150784
 21
283.60946199565115
  0
LINE
  8
_0-3_躯体と製品
  6
CONTINUOUS
 62
    3
 10
709.38368758150682
 20
282.29246199565569
 11
708.93668758145577
 21
282.29346199566044
  0
LINE
  8
_0-3_躯体と製品
  6
CONTINUOUS
 62
    3
 10
710.90868758146826
 20
285.74546197296331
 11
710.90868758146826
 21
286.29346197295763
  0
LINE
  8
_0-3_躯体と製品
  6
CONTINUOUS
 62
    3
 10
710.90868758146826
 20
285.74446199566137
 11
710.90868758146826
 21
286.29346199565862
  0
LINE
  8
_0-3_躯体と製品
  6
CONTINUOUS
 62
    3
 10
710.90868758146826
 20
286.84246197295761
 11
710.90868758146826
 21
286.29346197295763
  0
LINE
  8
_0-3_躯体と製品
  6
CONTINUOUS
 62
    3
 10
710.53668758148706
 20
290.05846197295796
 11
710.53668758148706
 21
286.29346197295763
  0
ARC
  8
_0-3_躯体と製品
  6
CONTINUOUS
 62
    3
 10
706.95246772314567
 20
286.84175185122422
 40
4.8159999999999989
 50
353.46284123828718
 51
41.906849999398318
  0
LINE
  8
_0-3_躯体と製品
  6
CONTINUOUS
 62
    3
 10
710.90868758146826
 20
286.84146199565475
 11
710.90868758146826
 21
286.29346199565862
  0
LINE
  8
_0-3_躯体と製品
  6
CONTINUOUS
 62
    3
 10
711.83668743648741
 20
299.29346190417073
 11
711.83668743648741
 21
292.79346182081827
  0
LINE
  8
_0-3_躯体と製品
  6
CONTINUOUS
 62
    3
 10
713.03668743643721
 20
299.29346190417073
 11
713.03668743643721
 21
292.79345985660075
  0
LINE
  8
_0-3_躯体と製品
  6
CONTINUOUS
 62
    4
 10
642.5363656151967
 20
948.59271101996455
 11
644.83636560947707
 21
948.59271101996455
  0
LINE
  8
_0-3_躯体と製品
  6
CONTINUOUS
 62
    4
 10
644.83636560947707
 20
948.59271101996455
 11
644.83636560947707
 21
998.59271089494996
  0
LINE
  8
_0-3_躯体と製品
  6
CONTINUOUS
 62
    4
 10
644.83636560947707
 20
998.59271089494996
 11
642.5363656151967
 21
998.59271089494996
  0
LINE
  8
_0-3_躯体と製品
  6
CONTINUOUS
 62
    4
 10
642.5363656151967
 20
998.59271089494996
 11
642.5363656151967
 21
948.59271101996455
  0
LINE
  8
_0-5_中心線
  6
CENTER1
 62
    7
 10
628.85460578512721
 20
973.59271095745044
 11
697.30404830347834
 21
973.59271095745044
  0
LINE
  8
_0-3_躯体と製品
  6
CONTINUOUS
 62
    4
 10
644.83636560947707
 20
981.5927109374561
 11
642.5363656151967
 21
981.5927109374561
  0
LINE
  8
_0-3_躯体と製品
  6
CONTINUOUS
 62
    4
 10
644.83636560947707
 20
965.59271097745932
 11
642.5363656151967
 21
965.59271097745932
  0
LINE
  8
_0-3_躯体と製品
  6
CONTINUOUS
 62
    4
 10
644.83636560947707
 20
963.59271098244972
 11
647.47655000251689
 21
965.79286464333836
  0
ARC
  8
_0-3_躯体と製品
  6
CONTINUOUS
 62
    4
 10
646.83636560445143
 20
966.5610859210359
 40
0.9999999975168214
 50
309.80557109156706
 51
359.99999999930242
  0
LINE
  8
_0-3_躯体と製品
  6
CONTINUOUS
 62
    4
 10
647.83636560196828
 20
966.56108592102373
 11
647.83636560196828
 21
980.62433599389078
  0
ARC
  8
_0-3_躯体と製品
  6
CONTINUOUS
 62
    4
 10
646.83636560445052
 20
980.62433599387907
 40
0.9999999975178024
 50
0.0000000006718212
 51
50.194428908406621
  0
LINE
  8
_0-3_躯体と製品
  6
CONTINUOUS
 62
    4
 10
647.47655000251689
 20
981.39255727157706
 11
644.83636560947707
 21
983.59271093245115
  0
INSERT
  2
-010-_D11
  8
_0-2_寸法
 10
-23420.898498593793
 20
-5292.433193973593
 41
1
 42
1
 50
0
  0
LINE
  8
_0-3_躯体と製品
  6
CONTINUOUS
 62
    3
 10
713.03668743643721
 20
569.79346190417164
 11
713.03668743643721
 21
563.29346190417164
  0
LINE
  8
_0-3_躯体と製品
  6
CONTINUOUS
 62
    3
 10
711.83668743648741
 20
569.79346190417164
 11
711.83668743648741
 21
563.29346190417164
  0
LINE
  8
_0-3_躯体と製品
  6
CONTINUOUS
 62
    3
 10
711.83668743648741
 20
563.29346190417164
 11
713.03668743643721
 21
563.29346190417164
  0
LINE
  8
_0-5_中心線
  6
CENTER1
 62
    7
 10
696.7866880834772
 20
576.29346174391139
 11
727.50768793646785
 21
576.29346174391139
  0
LINE
  8
_0-3_躯体と製品
  6
CONTINUOUS
 62
    3
 10
713.03668743643721
 20
589.29346190417073
 11
713.03668743643721
 21
582.79345985660075
  0
LINE
  8
_0-3_躯体と製品
  6
CONTINUOUS
 62
    3
 10
711.83668743648741
 20
589.29346190417073
 11
711.83668743648741
 21
582.79346182081827
  0
LINE
  8
_0-3_躯体と製品
  6
CONTINUOUS
 62
    3
 10
710.90868758146826
 20
576.84146199565475
 11
710.90868758146826
 21
576.29346199565862
  0
ARC
  8
_0-3_躯体と製品
  6
CONTINUOUS
 62
    3
 10
706.95246772314567
 20
576.84175185122331
 40
4.8159999999999989
 50
353.46284123828718
 51
41.906849999398318
  0
LINE
  8
_0-3_躯体と製品
  6
CONTINUOUS
 62
    3
 10
710.53668758148706
 20
580.05846197295796
 11
710.53668758148706
 21
576.29346197295763
  0
LINE
  8
_0-3_躯体と製品
  6
CONTINUOUS
 62
    3
 10
710.90868758146826
 20
576.84246197295761
 11
710.90868758146826
 21
576.29346197295763
  0
LINE
  8
_0-3_躯体と製品
  6
CONTINUOUS
 62
    3
 10
710.90868758146826
 20
575.74446199566137
 11
710.90868758146826
 21
576.29346199565862
  0
LINE
  8
_0-3_躯体と製品
  6
CONTINUOUS
 62
    3
 10
710.90868758146826
 20
575.74546197296331
 11
710.90868758146826
 21
576.29346197295763
  0
LINE
  8
_0-3_躯体と製品
  6
CONTINUOUS
 62
    3
 10
709.38368758150682
 20
572.29246199565478
 11
708.93668758145577
 21
572.29346199566044
  0
LINE
  8
_0-3_躯体と製品
  6
CONTINUOUS
 62
    3
 10
711.16468758145857
 20
573.66146199566174
 11
711.26368758150784
 21
573.60946199565115
  0
LINE
  8
_0-3_躯体と製品
  6
CONTINUOUS
 62
    3
 10
710.53668758148706
 20
572.52846199566011
 11
709.38368758150682
 21
572.29246199565478
  0
LINE
  8
_0-3_躯体と製品
  6
CONTINUOUS
 62
    3
 10
711.10868758147626
 20
575.54546199565175
 11
711.35268758147504
 21
575.54546199565175
  0
ARC
  8
_0-3_躯体と製品
  6
CONTINUOUS
 62
    3
 10
708.93668758145577
 20
572.49346199565662
 40
0.2
 50
179.9999940002391
 51
269.9999969984521
  0
ARC
  8
_0-3_躯体と製品
  6
CONTINUOUS
 62
    3
 10
711.2556875814771
 20
573.83746199565394
 40
0.2
 50
156.38705399861351
 51
242.65897700044488
  0
ARC
  8
_0-3_躯体と製品
  6
CONTINUOUS
 62
    3
 10
711.35268758147504
 20
575.4454619956623
 40
0.1
 50
355.380076000087
 51
90.000002998212949
  0
LINE
  8
_0-3_躯体と製品
  6
CONTINUOUS
 62
    3
 10
711.07268758151622
 20
573.91746199565569
 11
711.1886875814962
 21
574.19346199565371
  0
LINE
  8
_0-3_躯体と製品
  6
CONTINUOUS
 62
    3
 10
711.1886875814962
 20
574.19346199565371
 11
711.32468758149844
 21
574.64546199565757
  0
LINE
  8
_0-3_躯体と製品
  6
CONTINUOUS
 62
    3
 10
711.32468758149844
 20
574.64546199565757
 11
711.42468758146788
 21
575.12146199565359
  0
LINE
  8
_0-3_躯体と製品
  6
CONTINUOUS
 62
    3
 10
711.42468758146788
 20
575.12146199565359
 11
711.4516875814661
 21
575.43746199565976
  0
LINE
  8
_0-3_躯体と製品
  6
CONTINUOUS
 62
    3
 10
711.33668743648741
 20
571.49346190416873
 11
709.23568756282839
 21
571.49346298434284
  0
ARC
  8
_0-3_躯体と製品
  6
CONTINUOUS
 62
    3
 10
711.33668743648741
 20
569.79346190417164
 40
1.7
 50
0
 51
90
  0
LINE
  8
_0-3_躯体と製品
  6
CONTINUOUS
 62
    3
 10
711.33668743648741
 20
570.29346190417073
 11
709.23668749448552
 21
570.29346198430903
  0
ARC
  8
_0-3_躯体と製品
  6
CONTINUOUS
 62
    3
 10
711.33668743648741
 20
569.79346190417164
 40
0.5
 50
0
 51
90
  0
ARC
  8
_0-3_躯体と製品
  6
CONTINUOUS
 62
    3
 10
709.23668758348504
 20
571.99346198430612
 40
0.5
 50
180.0000059997609
 51
269.88540599791401
  0
LINE
  8
_0-3_躯体と製品
  6
CONTINUOUS
 62
    3
 10
710.53668758148706
 20
572.52846199566011
 11
710.53668758148706
 21
576.29346199565862
  0
ARC
  8
_0-3_躯体と製品
  6
CONTINUOUS
 62
    3
 10
711.10868758147626
 20
575.74446199566137
 40
0.2
 50
179.9999940002391
 51
269.9999969984521
  0
ARC
  8
_0-3_躯体と製品
  6
CONTINUOUS
 62
    3
 10
706.95246772314567
 20
575.74517211739476
 40
4.8159999999999989
 50
318.09315000060161
 51
6.5371587617127549
  0
LINE
  8
_0-3_躯体と製品
  6
CONTINUOUS
 62
    3
 10
711.33668743648741
 20
581.09345985660366
 11
709.2050783611885
 21
581.09345985660366
  0
LINE
  8
_0-3_躯体と製品
  6
CONTINUOUS
 62
    3
 10
711.33640981294593
 20
582.29346189788521
 11
709.17838866686725
 21
582.29346190367687
  0
ARC
  8
_0-3_躯体と製品
  6
CONTINUOUS
 62
    3
 10
711.33668743648741
 20
582.79346182081827
 40
0.5
 50
269.96818668809385
 51
0.0000000000000254
  0
LINE
  8
_0-3_躯体と製品
  6
CONTINUOUS
 62
    3
 10
711.42468758146788
 20
577.46546197296357
 11
711.4516875814661
 21
577.14946197295831
  0
LINE
  8
_0-3_躯体と製品
  6
CONTINUOUS
 62
    3
 10
711.32468758149844
 20
577.94146197295959
 11
711.42468758146788
 21
577.46546197296357
  0
LINE
  8
_0-3_躯体と製品
  6
CONTINUOUS
 62
    3
 10
711.1886875814962
 20
578.39346197296527
 11
711.32468758149844
 21
577.94146197295959
  0
LINE
  8
_0-3_躯体と製品
  6
CONTINUOUS
 62
    3
 10
711.07268758151622
 20
578.66946197296238
 11
711.1886875814962
 21
578.39346197296527
  0
ARC
  8
_0-3_躯体と製品
  6
CONTINUOUS
 62
    3
 10
711.35268758147504
 20
577.14146197295668
 40
0.1
 50
269.99999699845216
 51
4.6199239999130279
  0
ARC
  8
_0-3_躯体と製品
  6
CONTINUOUS
 62
    3
 10
711.2556875814771
 20
578.74946197296413
 40
0.2
 50
117.34102299955511
 51
203.6129460013864
  0
ARC
  8
_0-3_躯体と製品
  6
CONTINUOUS
 62
    3
 10
708.93668758145577
 20
580.09346197296054
 40
0.2
 50
90.000002998212935
 51
180.0000059997609
  0
ARC
  8
_0-3_躯体と製品
  6
CONTINUOUS
 62
    3
 10
711.10868758147626
 20
576.84246197295761
 40
0.2
 50
90.000002998212935
 51
180.0000059997609
  0
LINE
  8
_0-3_躯体と製品
  6
CONTINUOUS
 62
    3
 10
711.10868758147626
 20
577.04146197296541
 11
711.35268758147504
 21
577.04146197296541
  0
LINE
  8
_0-3_躯体と製品
  6
CONTINUOUS
 62
    3
 10
710.53668758148706
 20
580.05846197295796
 11
709.38368758150682
 21
580.29446197296238
  0
LINE
  8
_0-3_躯体と製品
  6
CONTINUOUS
 62
    3
 10
711.16468758145857
 20
578.92546197295724
 11
711.26368758150784
 21
578.97746197296692
  0
LINE
  8
_0-3_躯体と製品
  6
CONTINUOUS
 62
    3
 10
709.38368758150682
 20
580.29446197296238
 11
708.93668758145577
 21
580.29346197295854
  0
ARC
  8
_0-3_躯体と製品
  6
CONTINUOUS
 62
    3
 10
711.33668743648741
 20
582.79345985660075
 40
1.7
 50
270
 51
0
  0
ARC
  8
_0-3_躯体と製品
  6
CONTINUOUS
 62
    3
 10
709.23668658754832
 20
580.59445993673035
 40
0.5
 50
93.624452754466617
 51
180.1143570002184
  0
LINE
  8
_0-3_躯体と製品
  6
CONTINUOUS
 62
    3
 10
708.73668758347776
 20
571.99346198430612
 11
701.73668758348504
 21
571.99346198430612
  0
LINE
  8
_0-3_躯体と製品
  6
CONTINUOUS
 62
    3
 10
701.73668758348504
 20
571.99346198430612
 11
701.73668758348504
 21
580.59346198431194
  0
LINE
  8
_0-3_躯体と製品
  6
CONTINUOUS
 62
    3
 10
701.73668758348504
 20
580.59346198431194
 11
708.73668758347776
 21
580.59346198431194
  0
LINE
  8
_0-3_躯体と製品
  6
CONTINUOUS
 62
    3
 10
708.73668758347776
 20
580.59346198431194
 11
708.73668758347776
 21
571.99346198430612
  0
ARC
  8
_0-3_躯体と製品
  6
CONTINUOUS
 62
    3
 10
709.23668758348504
 20
571.99346198430612
 40
1.7
 50
180.0000059997609
 51
269.9999969984521
  0
ARC
  8
_0-3_躯体と製品
  6
CONTINUOUS
 62
    3
 10
709.2366872894163
 20
580.59446182404099
 40
1.7
 50
91.965247106496065
 51
180.03369800002926
  0
LINE
  8
_0-3_躯体と製品
  6
CONTINUOUS
 62
    3
 10
711.83668743648741
 20
589.29346190417073
 11
713.03668743643721
 21
589.29346190417073
  0
TEXT
  8
_0-4_文字-記号
 62
    7
 10
740.76918013553586
 20
407.28282697990926
 40
9
 41
1
 50
0
  1
ＳＡテープ
  0
TEXT
  8
_0-4_文字-記号
 62
    7
 10
742.33464316390746
 20
339.92298127221602
 40
9
 41
1
 50
0
  1
固定金具
  0
LINE
  8
_0-3_躯体と製品
  6
CONTINUOUS
 62
    4
 10
679.23668743644521
 20
655.71113353331293
 11
704.23668743644521
 21
645.71113353331202
  0
LINE
  8
_0-3_躯体と製品
  6
CONTINUOUS
 62
    4
 10
704.23668743644521
 20
645.71113353331202
 11
704.23668743644521
 21
695.71113353331202
  0
LINE
  8
_0-3_躯体と製品
  6
CONTINUOUS
 62
    4
 10
704.23668743644521
 20
695.71113353331202
 11
679.23668743644521
 21
705.71113353331202
  0
LINE
  8
_0-3_躯体と製品
  6
CONTINUOUS
 62
    4
 10
679.23668743644521
 20
705.71113353331202
 11
679.23668743644521
 21
655.71113353331293
  0
LINE
  8
_0-3_躯体と製品
  6
CONTINUOUS
 62
    4
 10
704.23668743644521
 20
645.71113353331202
 11
704.23668743644521
 21
695.71113353331202
  0
TEXT
  8
_0-4_文字-記号
 62
    7
 10
763.9781666915369
 20
724.22554236287942
 40
9
 41
1
 50
0
  1
２５t ３２ｋｇ/ｍ
  0
TEXT
  8
_0-4_文字-記号
 62
    7
 10
754.40485521753726
 20
739.36128533987903
 40
9
 41
1
 50
0
  1
吸音材（グラスウール）
  0
TEXT
  8
_0-4_文字-記号
 62
    7
 10
757.8955786367078
 20
491.97928086605498
 40
9
 41
1
 50
0
  1
壁面板（オープンタイプ）
  0
TEXT
  8
_0-4_文字-記号
 62
    7
 10
779.80852710893669
 20
479.26633960350318
 40
9
 41
1
 50
0
  1
面幅 ２９０ １５t
  0
LINE
  8
_0-4_文字-記号
  6
CONTINUOUS
 62
    7
 10
722.53668793643737
 20
421.5934617439143
 11
752.71172226195631
 21
473.85815431578703
  0
LINE
  8
_0-4_文字-記号
  6
CONTINUOUS
 62
    7
 10
752.71172226195631
 20
473.85815431578703
 11
894.11325051369568
 21
473.85815431578703
  0
LINE
  8
_0-4_文字-記号
  6
CONTINUOUS
 62
    7
 10
698.19955527518687
 20
675.71644792204643
 11
736.70600765266499
 21
742.41157985907284
  0
LINE
  8
_0-4_文字-記号
  6
CONTINUOUS
 62
    7
 10
736.70600765266499
 20
742.41157985907284
 11
751.03817979919768
 21
742.41157985907284
  0
LINE
  8
_0-3_躯体と製品
  6
CONTINUOUS
 62
    4
 10
707.53668793644829
 20
582.2934617439123
 11
707.53668793644829
 21
860.29346174391139
  0
LINE
  8
_0-3_躯体と製品
  6
CONTINUOUS
 62
    4
 10
707.53668793644829
 20
860.29346174391139
 11
711.73668793645629
 21
860.29346174391139
  0
LINE
  8
_0-3_躯体と製品
  6
CONTINUOUS
 62
    4
 10
711.73668793645629
 20
860.29346174391139
 11
711.73668793645629
 21
853.29346174391139
  0
LINE
  8
_0-3_躯体と製品
  6
CONTINUOUS
 62
    4
 10
711.73668793645629
 20
853.29346174391139
 11
713.23668793645629
 21
853.29346174391139
  0
LINE
  8
_0-3_躯体と製品
  6
CONTINUOUS
 62
    4
 10
713.23668793645629
 20
853.29346174391139
 11
713.23668793645629
 21
861.5934617439143
  0
LINE
  8
_0-3_躯体と製品
  6
CONTINUOUS
 62
    4
 10
713.23668793645629
 20
861.5934617439143
 11
715.13668793647594
 21
861.5934617439143
  0
LINE
  8
_0-3_躯体と製品
  6
CONTINUOUS
 62
    4
 10
715.13668793647594
 20
861.5934617439143
 11
720.03668793643737
 21
851.5934617439143
  0
LINE
  8
_0-3_躯体と製品
  6
CONTINUOUS
 62
    4
 10
720.03668793643737
 20
851.5934617439143
 11
722.53668793643737
 21
851.5934617439143
  0
LINE
  8
_0-3_躯体と製品
  6
CONTINUOUS
 62
    4
 10
722.53668793643737
 20
851.5934617439143
 11
722.53668793643737
 21
571.5934617439143
  0
LINE
  8
_0-3_躯体と製品
  6
CONTINUOUS
 62
    4
 10
722.53668793643737
 20
571.5934617439143
 11
719.03668793644829
 21
571.5934617439143
  0
LINE
  8
_0-3_躯体と製品
  6
CONTINUOUS
 62
    4
 10
719.03668793644829
 20
571.5934617439143
 11
715.43668793646793
 21
580.99346174390757
  0
LINE
  8
_0-3_躯体と製品
  6
CONTINUOUS
 62
    4
 10
715.43668793646793
 20
580.99346174390757
 11
713.23668793645629
 21
580.99346174390757
  0
LINE
  8
_0-3_躯体と製品
  6
CONTINUOUS
 62
    4
 10
713.23668793645629
 20
580.99346174390757
 11
713.23668793645629
 21
589.29346174391139
  0
LINE
  8
_0-3_躯体と製品
  6
CONTINUOUS
 62
    4
 10
713.23668793645629
 20
589.29346174391139
 11
711.73668793645629
 21
589.29346174391139
  0
LINE
  8
_0-3_躯体と製品
  6
CONTINUOUS
 62
    4
 10
711.73668793645629
 20
589.29346174391139
 11
711.73668793645629
 21
582.2934617439123
  0
LINE
  8
_0-3_躯体と製品
  6
CONTINUOUS
 62
    4
 10
711.73668793645629
 20
582.2934617439123
 11
707.53668793644829
 21
582.2934617439123
  0
LINE
  8
_0-3_躯体と製品
  6
CONTINUOUS
 62
    3
 10
713.03668743643721
 20
859.79346190417164
 11
713.03668743643721
 21
853.29346190417164
  0
LINE
  8
_0-3_躯体と製品
  6
CONTINUOUS
 62
    3
 10
711.83668743648741
 20
859.79346190417164
 11
711.83668743648741
 21
853.29346190417164
  0
LINE
  8
_0-3_躯体と製品
  6
CONTINUOUS
 62
    3
 10
711.83668743648741
 20
853.29346190417164
 11
713.03668743643721
 21
853.29346190417164
  0
LINE
  8
_0-5_中心線
  6
CENTER1
 62
    7
 10
696.7866880834772
 20
866.29346174391139
 11
727.50768793646785
 21
866.29346174391139
  0
LINE
  8
_0-3_躯体と製品
  6
CONTINUOUS
 62
    3
 10
713.03668743643721
 20
879.29346190417164
 11
713.03668743643721
 21
872.79345985660075
  0
LINE
  8
_0-3_躯体と製品
  6
CONTINUOUS
 62
    3
 10
711.83668743648741
 20
879.29346190417164
 11
711.83668743648741
 21
872.79346182081918
  0
LINE
  8
_0-3_躯体と製品
  6
CONTINUOUS
 62
    3
 10
710.90868758146826
 20
866.84146199565475
 11
710.90868758146826
 21
866.29346199566044
  0
ARC
  8
_0-3_躯体と製品
  6
CONTINUOUS
 62
    3
 10
706.95246772314567
 20
866.84175185122331
 40
4.8159999999999989
 50
353.46284123828718
 51
41.906849999398318
  0
LINE
  8
_0-3_躯体と製品
  6
CONTINUOUS
 62
    3
 10
710.53668758148706
 20
870.05846197295796
 11
710.53668758148706
 21
866.29346197295763
  0
LINE
  8
_0-3_躯体と製品
  6
CONTINUOUS
 62
    3
 10
710.90868758146826
 20
866.84246197295761
 11
710.90868758146826
 21
866.29346197295763
  0
LINE
  8
_0-3_躯体と製品
  6
CONTINUOUS
 62
    3
 10
710.90868758146826
 20
865.74446199566137
 11
710.90868758146826
 21
866.29346199566044
  0
LINE
  8
_0-3_躯体と製品
  6
CONTINUOUS
 62
    3
 10
710.90868758146826
 20
865.74546197296422
 11
710.90868758146826
 21
866.29346197295763
  0
LINE
  8
_0-3_躯体と製品
  6
CONTINUOUS
 62
    3
 10
709.38368758150682
 20
862.29246199565478
 11
708.93668758145577
 21
862.29346199565862
  0
LINE
  8
_0-3_躯体と製品
  6
CONTINUOUS
 62
    3
 10
711.16468758145857
 20
863.66146199566174
 11
711.26368758150784
 21
863.60946199565115
  0
LINE
  8
_0-3_躯体と製品
  6
CONTINUOUS
 62
    3
 10
710.53668758148706
 20
862.52846199566011
 11
709.38368758150682
 21
862.29246199565478
  0
LINE
  8
_0-3_躯体と製品
  6
CONTINUOUS
 62
    3
 10
711.10868758147626
 20
865.54546199565175
 11
711.35268758147504
 21
865.54546199565175
  0
ARC
  8
_0-3_躯体と製品
  6
CONTINUOUS
 62
    3
 10
708.93668758145577
 20
862.49346199565662
 40
0.2
 50
179.9999940002391
 51
269.9999969984521
  0
ARC
  8
_0-3_躯体と製品
  6
CONTINUOUS
 62
    3
 10
711.2556875814771
 20
863.83746199565394
 40
0.2
 50
156.38705399861351
 51
242.65897700044488
  0
ARC
  8
_0-3_躯体と製品
  6
CONTINUOUS
 62
    3
 10
711.35268758147504
 20
865.4454619956623
 40
0.1
 50
355.380076000087
 51
90.000002998212949
  0
LINE
  8
_0-3_躯体と製品
  6
CONTINUOUS
 62
    3
 10
711.07268758151622
 20
863.91746199565569
 11
711.1886875814962
 21
864.19346199565371
  0
LINE
  8
_0-3_躯体と製品
  6
CONTINUOUS
 62
    3
 10
711.1886875814962
 20
864.19346199565371
 11
711.32468758149844
 21
864.64546199565757
  0
LINE
  8
_0-3_躯体と製品
  6
CONTINUOUS
 62
    3
 10
711.32468758149844
 20
864.64546199565757
 11
711.42468758146788
 21
865.12146199565359
  0
LINE
  8
_0-3_躯体と製品
  6
CONTINUOUS
 62
    3
 10
711.42468758146788
 20
865.12146199565359
 11
711.4516875814661
 21
865.43746199565976
  0
LINE
  8
_0-3_躯体と製品
  6
CONTINUOUS
 62
    3
 10
711.33668743648741
 20
861.49346190416873
 11
709.23568756282839
 21
861.49346298434284
  0
ARC
  8
_0-3_躯体と製品
  6
CONTINUOUS
 62
    3
 10
711.33668743648741
 20
859.79346190417164
 40
1.7
 50
0
 51
90
  0
LINE
  8
_0-3_躯体と製品
  6
CONTINUOUS
 62
    3
 10
711.33668743648741
 20
860.29346190417073
 11
709.23668749448552
 21
860.29346198430903
  0
ARC
  8
_0-3_躯体と製品
  6
CONTINUOUS
 62
    3
 10
711.33668743648741
 20
859.79346190417164
 40
0.5
 50
0
 51
90
  0
ARC
  8
_0-3_躯体と製品
  6
CONTINUOUS
 62
    3
 10
709.23668758348504
 20
861.99346198430612
 40
0.5
 50
180.0000059997609
 51
269.88540599791401
  0
LINE
  8
_0-3_躯体と製品
  6
CONTINUOUS
 62
    3
 10
710.53668758148706
 20
862.52846199566011
 11
710.53668758148706
 21
866.29346199566044
  0
ARC
  8
_0-3_躯体と製品
  6
CONTINUOUS
 62
    3
 10
711.10868758147626
 20
865.74446199566137
 40
0.2
 50
179.9999940002391
 51
269.9999969984521
  0
ARC
  8
_0-3_躯体と製品
  6
CONTINUOUS
 62
    3
 10
706.95246772314567
 20
865.74517211739476
 40
4.8159999999999989
 50
318.09315000060161
 51
6.5371587617127549
  0
LINE
  8
_0-3_躯体と製品
  6
CONTINUOUS
 62
    3
 10
711.33668743648741
 20
871.09345985660366
 11
709.2050783611885
 21
871.09345985660366
  0
LINE
  8
_0-3_躯体と製品
  6
CONTINUOUS
 62
    3
 10
711.33640981294593
 20
872.29346189788521
 11
709.17838866686725
 21
872.29346190367687
  0
ARC
  8
_0-3_躯体と製品
  6
CONTINUOUS
 62
    3
 10
711.33668743648741
 20
872.79346182081918
 40
0.5
 50
269.96818668809385
 51
0.0000000000000254
  0
LINE
  8
_0-3_躯体と製品
  6
CONTINUOUS
 62
    3
 10
711.42468758146788
 20
867.46546197296539
 11
711.4516875814661
 21
867.14946197295831
  0
LINE
  8
_0-3_躯体と製品
  6
CONTINUOUS
 62
    3
 10
711.32468758149844
 20
867.94146197295959
 11
711.42468758146788
 21
867.46546197296539
  0
LINE
  8
_0-3_躯体と製品
  6
CONTINUOUS
 62
    3
 10
711.1886875814962
 20
868.39346197296436
 11
711.32468758149844
 21
867.94146197295959
  0
LINE
  8
_0-3_躯体と製品
  6
CONTINUOUS
 62
    3
 10
711.07268758151622
 20
868.66946197296329
 11
711.1886875814962
 21
868.39346197296436
  0
ARC
  8
_0-3_躯体と製品
  6
CONTINUOUS
 62
    3
 10
711.35268758147504
 20
867.14146197295577
 40
0.1
 50
269.99999699845216
 51
4.6199239999130279
  0
ARC
  8
_0-3_躯体と製品
  6
CONTINUOUS
 62
    3
 10
711.2556875814771
 20
868.74946197296413
 40
0.2
 50
117.34102299955511
 51
203.6129460013864
  0
ARC
  8
_0-3_躯体と製品
  6
CONTINUOUS
 62
    3
 10
708.93668758145577
 20
870.09346197296054
 40
0.2
 50
90.000002998212935
 51
180.0000059997609
  0
ARC
  8
_0-3_躯体と製品
  6
CONTINUOUS
 62
    3
 10
711.10868758147626
 20
866.84246197295761
 40
0.2
 50
90.000002998212935
 51
180.0000059997609
  0
LINE
  8
_0-3_躯体と製品
  6
CONTINUOUS
 62
    3
 10
711.10868758147626
 20
867.04146197296541
 11
711.35268758147504
 21
867.04146197296541
  0
LINE
  8
_0-3_躯体と製品
  6
CONTINUOUS
 62
    3
 10
710.53668758148706
 20
870.05846197295796
 11
709.38368758150682
 21
870.29446197296329
  0
LINE
  8
_0-3_躯体と製品
  6
CONTINUOUS
 62
    3
 10
711.16468758145857
 20
868.92546197295724
 11
711.26368758150784
 21
868.97746197296783
  0
LINE
  8
_0-3_躯体と製品
  6
CONTINUOUS
 62
    3
 10
709.38368758150682
 20
870.29446197296329
 11
708.93668758145577
 21
870.29346197295854
  0
ARC
  8
_0-3_躯体と製品
  6
CONTINUOUS
 62
    3
 10
711.33668743648741
 20
872.79345985660075
 40
1.7
 50
270
 51
0
  0
ARC
  8
_0-3_躯体と製品
  6
CONTINUOUS
 62
    3
 10
709.23668658754832
 20
870.59445993673035
 40
0.5
 50
93.624452754466617
 51
180.1143570002184
  0
LINE
  8
_0-3_躯体と製品
  6
CONTINUOUS
 62
    3
 10
708.73668758347776
 20
861.99346198430612
 11
701.73668758348504
 21
861.99346198430612
  0
LINE
  8
_0-3_躯体と製品
  6
CONTINUOUS
 62
    3
 10
701.73668758348504
 20
861.99346198430612
 11
701.73668758348504
 21
870.59346198431194
  0
LINE
  8
_0-3_躯体と製品
  6
CONTINUOUS
 62
    3
 10
701.73668758348504
 20
870.59346198431194
 11
708.73668758347776
 21
870.59346198431194
  0
LINE
  8
_0-3_躯体と製品
  6
CONTINUOUS
 62
    3
 10
708.73668758347776
 20
870.59346198431194
 11
708.73668758347776
 21
861.99346198430612
  0
ARC
  8
_0-3_躯体と製品
  6
CONTINUOUS
 62
    3
 10
709.23668758348504
 20
861.99346198430612
 40
1.7
 50
180.0000059997609
 51
269.9999969984521
  0
ARC
  8
_0-3_躯体と製品
  6
CONTINUOUS
 62
    3
 10
709.2366872894163
 20
870.59446182404099
 40
1.7
 50
91.965247106496065
 51
180.03369800002926
  0
LINE
  8
_0-3_躯体と製品
  6
CONTINUOUS
 62
    3
 10
711.83668743648741
 20
879.29346190417164
 11
713.03668743643721
 21
879.29346190417164
  0
LINE
  8
_0-3_躯体と製品
  6
CONTINUOUS
 62
    4
 10
722.53668793643737
 20
1083.5927109574513
 11
722.53668793643737
 21
861.5934617439143
  0
LINE
  8
_0-3_躯体と製品
  6
CONTINUOUS
 62
    4
 10
722.53668793643737
 20
861.5934617439143
 11
719.03668793644829
 21
861.5934617439143
  0
LINE
  8
_0-3_躯体と製品
  6
CONTINUOUS
 62
    4
 10
719.03668793644829
 20
861.5934617439143
 11
715.43668793646793
 21
870.99346174390757
  0
LINE
  8
_0-3_躯体と製品
  6
CONTINUOUS
 62
    4
 10
715.43668793646793
 20
870.99346174390757
 11
713.23668793645629
 21
870.99346174390757
  0
LINE
  8
_0-3_躯体と製品
  6
CONTINUOUS
 62
    4
 10
713.23668793645629
 20
870.99346174390757
 11
713.23668793645629
 21
879.29346174391139
  0
LINE
  8
_0-3_躯体と製品
  6
CONTINUOUS
 62
    4
 10
713.23668793645629
 20
879.29346174391139
 11
711.73668793645629
 21
879.29346174391139
  0
LINE
  8
_0-3_躯体と製品
  6
CONTINUOUS
 62
    4
 10
711.73668793645629
 20
879.29346174391139
 11
711.73668793645629
 21
872.2934617439123
  0
LINE
  8
_0-3_躯体と製品
  6
CONTINUOUS
 62
    4
 10
711.73668793645629
 20
872.2934617439123
 11
707.53668793644829
 21
872.2934617439123
  0
LINE
  8
_0-3_躯体と製品
  6
CONTINUOUS
 62
    4
 10
707.53668793644829
 20
872.2934617439123
 11
707.53668793644829
 21
1083.5927109574513
  0
INSERT
  2
-011-_D12
  8
_0-2_寸法
 10
-23420.898498593793
 20
-5292.433193973593
 41
1
 42
1
 50
0
  0
LINE
  8
_0-2_寸法
  6
CONTINUOUS
 62
    4
 10
531.42361314206573
 20
973.59271095745044
 11
531.42361314144728
 21
1083.5927109574513
  0
LINE
  8
_0-2_寸法
  6
CONTINUOUS
 62
    4
 10
531.42361314144728
 20
1083.5927109574513
 11
524.95313701382838
 21
1059.4445653002358
  0
TEXT
  8
_0-2_寸法
 62
    7
 10
527.35630857686556
 20
1003.5249470192966
 40
9
 41
1
 50
90
  1
@９００
  0
LINE
  8
_0-3_躯体と製品
  6
CONTINUOUS
 62
    4
 10
705.53668743643721
 20
870.59346198431194
 11
705.53668743643721
 21
1083.5927109574513
  0
LINE
  8
_0-3_躯体と製品
  6
CONTINUOUS
 62
    4
 10
707.53668789854783
 20
870.59346198431194
 11
707.53668790916709
 21
1083.5927109574513
  0
LINE
  8
_0-4_文字-記号
  6
CONTINUOUS
 62
    7
 10
706.72298544747537
 20
356.64441557139344
 11
734.69347113415643
 21
405.09071789305926
  0
LINE
  8
_0-4_文字-記号
  6
CONTINUOUS
 62
    7
 10
734.69347113415643
 20
405.09071789305926
 11
798.42319048893842
 21
405.09071789305926
  0
LINE
  8
_0-3_躯体と製品
  6
CONTINUOUS
 62
    4
 10
679.23668743644521
 20
1083.5927109574513
 11
679.23668743644521
 21
-25.806405700572213
  0
LINE
  8
_0-3_躯体と製品
  6
CONTINUOUS
 62
    4
 10
676.53668743643721
 20
1083.5927109574513
 11
676.53668743643721
 21
-25.806405700572213
  0
LINE
  8
_0-3_躯体と製品
  6
CONTINUOUS
 62
    4
 10
647.83636560196828
 20
978.59271094495034
 11
670.53668745144751
 21
978.5927109605409
  0
LINE
  8
_0-3_躯体と製品
  6
CONTINUOUS
 62
    4
 10
647.83636560196828
 20
977.59271094745327
 11
670.53668745145842
 21
977.59271094745236
  0
LINE
  8
_0-3_躯体と製品
  6
CONTINUOUS
 62
    4
 10
647.83636560196828
 20
968.59271096996508
 11
670.53668745144751
 21
968.59271095435543
  0
LINE
  8
_0-3_躯体と製品
  6
CONTINUOUS
 62
    4
 10
647.83636560196828
 20
969.59271148095559
 11
670.53668745144751
 21
969.59271082801206
  0
LINE
  8
_0-3_躯体と製品
  6
CONTINUOUS
 62
    7
 10
1022.9327126914686
 20
-368.40799600549417
 11
642.5363656151967
 21
-368.4068382074056
  0
LINE
  8
_0-3_躯体と製品
  6
CONTINUOUS
 62
    4
 10
675.93668910792621
 20
14.193594299427787
 11
676.53668910790657
 21
14.193594299427787
  0
LINE
  8
_0-3_躯体と製品
  6
CONTINUOUS
 62
    4
 10
676.53668910790657
 20
14.193594299427787
 11
676.53668910790657
 21
-25.806405700572213
  0
LINE
  8
_0-3_躯体と製品
  6
CONTINUOUS
 62
    4
 10
676.53668910790657
 20
-25.806405700572213
 11
705.53668910790657
 21
-25.806405700572213
  0
LINE
  8
_0-3_躯体と製品
  6
CONTINUOUS
 62
    4
 10
705.53668910790657
 20
-25.806405700572213
 11
705.53668910790657
 21
4.1935942994268771
  0
LINE
  8
_0-3_躯体と製品
  6
CONTINUOUS
 62
    4
 10
705.53668910790657
 20
4.1935942994268771
 11
706.13668910793785
 21
4.1935942994268771
  0
LINE
  8
_0-3_躯体と製品
  6
CONTINUOUS
 62
    4
 10
706.13668910793785
 20
4.1935942994268771
 11
706.13668910793785
 21
-26.406405700578034
  0
LINE
  8
_0-3_躯体と製品
  6
CONTINUOUS
 62
    4
 10
706.13668910793785
 20
-26.406405700578034
 11
675.93668910792621
 21
-26.406405700578034
  0
LINE
  8
_0-3_躯体と製品
  6
CONTINUOUS
 62
    4
 10
675.93668910792621
 20
-26.406405700578034
 11
675.93668910792621
 21
14.193594299427787
  0
LINE
  8
_0-3_躯体と製品
  6
CONTINUOUS
 62
    4
 10
676.53668910790657
 20
-25.806405700572213
 11
705.53668910790657
 21
-25.806405700572213
  0
LINE
  8
_0-5_中心線
  6
CENTER1
 62
    7
 10
691.03668910790657
 20
-40.484771357700083
 11
691.03668910790657
 21
-11.128040043444344
  0
LINE
  8
_0-3_躯体と製品
  6
CONTINUOUS
 62
    4
 10
933.30369873083691
 20
-368.39485009654709
 11
875.00634321984762
 21
-426.68676452104228
  0
LINE
  8
_0-3_躯体と製品
  6
CONTINUOUS
 62
    4
 10
915.92146979590689
 20
-368.40645777350619
 11
857.62411428490668
 21
-426.69837219801502
  0
LINE
  8
_0-3_躯体と製品
  6
CONTINUOUS
 62
    4
 10
898.55245649114659
 20
-368.40640938713932
 11
840.26054206664776
 21
-426.69832381164906
  0
LINE
  8
_0-3_躯体と製品
  6
CONTINUOUS
 62
    4
 10
670.53668745145842
 20
110.59271086495937
 11
670.53668745145842
 21
36.592711049956961
  0
LINE
  8
_0-3_躯体と製品
  6
CONTINUOUS
 62
    4
 10
676.53668743643721
 20
39.592711042462724
 11
676.53668743643721
 21
107.5927108724527
  0
ARC
  8
_0-3_躯体と製品
  6
CONTINUOUS
 62
    4
 10
673.53668744394599
 20
39.592711042462724
 40
2.9999999924999701
 50
269.99999699845216
 51
0.0000000000000127
  0
LINE
  8
_0-3_躯体と製品
  6
CONTINUOUS
 62
    4
 10
670.53668745145842
 20
36.592711049956961
 11
673.53668744394599
 21
36.592711049956961
  0
ARC
  8
_0-3_躯体と製品
  6
CONTINUOUS
 62
    4
 10
673.53668744394599
 20
107.5927108724527
 40
2.9999999924999701
 50
0
 51
90.000002998212935
  0
LINE
  8
_0-3_躯体と製品
  6
CONTINUOUS
 62
    4
 10
670.53668745145842
 20
110.59271086495937
 11
673.53668744394599
 21
110.59271086495937
  0
TEXT
  8
_0-4_文字-記号
 62
    7
 10
583.44165464935577
 20
1060.8363499353536
 40
9
 41
1
 50
0
  1
スタンド
  0
LINE
  8
_0-4_文字-記号
  6
CONTINUOUS
 62
    7
 10
670.53668745145842
 20
991.97326265560605
 11
631.10616868655779
 21
1057.217391476669
  0
LINE
  8
_0-4_文字-記号
  6
CONTINUOUS
 62
    7
 10
631.10616868655779
 20
1057.217391476669
 11
579.1006864530973
 21
1057.217391476669
  0
LINE
  8
_0-3_躯体と製品
  6
CONTINUOUS
 62
    4
 10
670.53668745145842
 20
1010.5927108649594
 11
670.53668745145842
 21
936.59271104995696
  0
LINE
  8
_0-3_躯体と製品
  6
CONTINUOUS
 62
    4
 10
676.53668743643721
 20
939.59271104246272
 11
676.53668743643721
 21
1007.5927108724518
  0
ARC
  8
_0-3_躯体と製品
  6
CONTINUOUS
 62
    4
 10
673.53668744394599
 20
939.59271104246272
 40
2.9999999924999701
 50
269.99999699845216
 51
0.0000000000000127
  0
LINE
  8
_0-3_躯体と製品
  6
CONTINUOUS
 62
    4
 10
670.53668745145842
 20
936.59271104995696
 11
673.53668744394599
 21
936.59271104995696
  0
ARC
  8
_0-3_躯体と製品
  6
CONTINUOUS
 62
    4
 10
673.53668744394599
 20
1007.5927108724518
 40
2.9999999924999701
 50
0
 51
90.000002998212935
  0
LINE
  8
_0-3_躯体と製品
  6
CONTINUOUS
 62
    4
 10
670.53668745145842
 20
1010.5927108649594
 11
673.53668744394599
 21
1010.5927108649594
  0
ARC
  8
_0-3_躯体と製品
  6
CONTINUOUS
 62
    4
 10
892.03668793643783
 20
-116.90753825607544
 40
5.4999999999995444
 50
269.99999999999528
 51
359.99999999999528
  0
ARC
  8
_0-3_躯体と製品
  6
CONTINUOUS
 62
    4
 10
892.03668793643737
 20
-116.9075382560759
 40
3.8999999999978163
 50
270
 51
0.0000000000000127
  0
ARC
  8
_0-3_躯体と製品
  6
CONTINUOUS
 62
    4
 10
853.03668793643692
 20
-116.90753825607544
 40
5.4999999999995444
 50
180.00000000000475
 51
270.00000000000477
  0
ARC
  8
_0-3_躯体と製品
  6
CONTINUOUS
 62
    4
 10
853.03668793643556
 20
-116.90753825607408
 40
3.8999999999996353
 50
180.00000000002672
 51
270.00000000002672
  0
ARC
  8
_0-3_躯体と製品
  6
CONTINUOUS
 62
    4
 10
892.03668793643737
 20
-77.907538256074986
 40
5.5
 50
0.0000000000000052
 51
90.000000000000014
  0
ARC
  8
_0-3_躯体と製品
  6
CONTINUOUS
 62
    4
 10
892.03668793643601
 20
-77.907538256073622
 40
3.8999999999991815
 50
359.99999999997999
 51
89.999999999979977
  0
LINE
  8
_0-3_躯体と製品
  6
CONTINUOUS
 62
    4
 10
853.03668793643737
 20
-120.80753825607371
 11
862.53668793644829
 21
-120.80753825607371
  0
LINE
  8
_0-3_躯体と製品
  6
CONTINUOUS
 62
    4
 10
849.13668793643592
 20
-116.9075382560759
 11
849.13668793643592
 21
-77.907538256074986
  0
LINE
  8
_0-3_躯体と製品
  6
CONTINUOUS
 62
    4
 10
897.53668793643737
 20
-67.001952256074219
 11
897.53668793643737
 21
-116.9075382560759
  0
LINE
  8
_0-3_躯体と製品
  6
CONTINUOUS
 62
    4
 10
892.03668793643737
 20
-72.407538256074986
 11
853.03668793643737
 21
-72.407538256074986
  0
ARC
  8
_0-3_躯体と製品
  6
CONTINUOUS
 62
    4
 10
853.03668793643737
 20
-77.907538256074986
 40
5.5
 50
90
 51
180
  0
LINE
  8
_0-3_躯体と製品
  6
CONTINUOUS
 62
    4
 10
847.53668793643737
 20
-66.961946256074953
 11
847.53668793643737
 21
-116.9075382560759
  0
LINE
  8
_0-3_躯体と製品
  6
CONTINUOUS
 62
    4
 10
892.03668793643737
 20
-122.40753825607499
 11
853.03668793643737
 21
-122.40753825607499
  0
LINE
  8
_0-3_躯体と製品
  6
CONTINUOUS
 62
    4
 10
882.53668793643737
 20
-122.40753825607499
 11
882.53668793643737
 21
-120.80753825607371
  0
LINE
  8
_0-3_躯体と製品
  6
CONTINUOUS
 62
    4
 10
862.53668793644829
 20
-120.80753825607371
 11
862.53668793644829
 21
-122.40753825607499
  0
LINE
  8
_0-3_躯体と製品
  6
CONTINUOUS
 62
    4
 10
892.03668793643737
 20
-74.00753825607444
 11
853.03668793643737
 21
-74.00753825607444
  0
ARC
  8
_0-3_躯体と製品
  6
CONTINUOUS
 62
    4
 10
853.03668793643692
 20
-77.907538256075441
 40
3.900000000001
 50
89.999999999993335
 51
179.99999999999332
  0
LINE
  8
_0-3_躯体と製品
  6
CONTINUOUS
 62
    4
 10
892.03668793643737
 20
-120.80753825607371
 11
882.53668793643737
 21
-120.80753825607371
  0
LINE
  8
_0-3_躯体と製品
  6
CONTINUOUS
 62
    4
 10
895.93668793643519
 20
-77.907538256074986
 11
895.93668793643519
 21
-116.9075382560759
  0
ARC
  8
_0-3_躯体と製品
  6
CONTINUOUS
 62
    4
 10
900.99095793643528
 20
-135.10753825607435
 40
3.7999999999997267
 50
270.00000000000688
 51
0.0000000000068699
  0
ARC
  8
_0-3_躯体と製品
  6
CONTINUOUS
 62
    4
 10
900.99095793643528
 20
-135.10753825607435
 40
2.2999999999997267
 50
270.00000000001131
 51
0.0000000000113354
  0
LINE
  8
_0-3_躯体と製品
  6
CONTINUOUS
 62
    4
 10
903.29095793643501
 20
-65.837076256074397
 11
903.29095793643501
 21
-52.710060256074939
  0
LINE
  8
_0-3_躯体と製品
  6
CONTINUOUS
 62
    4
 10
903.29095793643501
 20
-73.583044256073663
 11
903.29095793643501
 21
-135.10753825607389
  0
ARC
  8
_0-3_躯体と製品
  6
CONTINUOUS
 62
    4
 10
906.04095793644501
 20
-69.710060256074485
 40
4.7500000000000613
 50
125.37653999999603
 51
234.62346000000397
  0
ARC
  8
_0-3_躯体と製品
  6
CONTINUOUS
 62
    4
 10
906.04095793643785
 20
-69.710060256074485
 40
3.249999999999825
 50
112.61986499999732
 51
247.38013500000267
  0
LINE
  8
_0-3_躯体と製品
  6
CONTINUOUS
 62
    4
 10
904.79095793643501
 20
-135.10753825607389
 11
904.79095793643501
 21
-72.710060256074939
  0
ARC
  8
_0-3_躯体と製品
  6
CONTINUOUS
 62
    4
 10
843.98240393643619
 20
-135.10753825607435
 40
3.7999999999997267
 50
179.99999999999315
 51
269.99999999999318
  0
LINE
  8
_0-3_躯体と製品
  6
CONTINUOUS
 62
    4
 10
900.99095793643573
 20
-137.40753825607499
 11
843.98240393643573
 21
-137.40753825607499
  0
ARC
  8
_0-3_躯体と製品
  6
CONTINUOUS
 62
    4
 10
843.98240393643619
 20
-135.10753825607435
 40
2.2999999999997267
 50
179.99999999998869
 51
269.99999999998869
  0
LINE
  8
_0-3_躯体と製品
  6
CONTINUOUS
 62
    4
 10
841.68240393643646
 20
-65.837076256074397
 11
841.68240393643646
 21
-52.710060256074939
  0
LINE
  8
_0-3_躯体と製品
  6
CONTINUOUS
 62
    4
 10
841.68240393643646
 20
-73.583044256073663
 11
841.68240393643646
 21
-135.10753825607389
  0
ARC
  8
_0-3_躯体と製品
  6
CONTINUOUS
 62
    4
 10
838.93240393643737
 20
-69.710060256074485
 40
4.7500000000000639
 50
305.37653999999611
 51
54.623460000003931
  0
ARC
  8
_0-3_躯体と製品
  6
CONTINUOUS
 62
    4
 10
838.93240393644817
 20
-69.710060256074485
 40
3.249999999999825
 50
292.61986499999733
 51
67.380135000002682
  0
LINE
  8
_0-3_躯体と製品
  6
CONTINUOUS
 62
    4
 10
897.53668793643737
 20
-67.407538256074986
 11
892.53668793644829
 21
-67.407538256074986
  0
LINE
  8
_0-3_躯体と製品
  6
CONTINUOUS
 62
    4
 10
838.68220393643787
 20
-67.407538256074986
 11
657.53298768907553
 21
-67.407346496304854
  0
LINE
  8
_0-3_躯体と製品
  6
CONTINUOUS
 62
    4
 10
847.53668793643737
 20
-67.407538256074986
 11
852.53668793644829
 21
-67.407538256074986
  0
LINE
  8
_0-3_躯体と製品
  6
CONTINUOUS
 62
    4
 10
906.29115593643655
 20
-67.407538256074986
 11
1022.9341299364351
 21
-67.407538256074986
  0
LINE
  8
_0-3_躯体と製品
  6
CONTINUOUS
 62
    4
 10
880.53880793644566
 20
-170.40773825607357
 11
880.53880793644566
 21
-249.40184425607458
  0
LINE
  8
_0-3_躯体と製品
  6
CONTINUOUS
 62
    4
 10
864.53668793643737
 20
-170.40773825607357
 11
864.53668793643737
 21
-249.40184425607458
  0
LINE
  8
_0-3_躯体と製品
  6
CONTINUOUS
 62
    3
 10
879.03860793644708
 20
-170.40773825607357
 11
879.03860793644708
 21
-249.40184425607458
  0
LINE
  8
_0-3_躯体と製品
  6
CONTINUOUS
 62
    3
 10
866.03688793643596
 20
-170.40773825607357
 11
866.03688793643596
 21
-249.40184425607458
  0
LINE
  8
_0-3_躯体と製品
  6
CONTINUOUS
 62
    4
 10
852.53668793644829
 20
-65.407538256074986
 11
892.53668793644829
 21
-65.407538256074986
  0
LINE
  8
_0-3_躯体と製品
  6
CONTINUOUS
 62
    4
 10
897.18240393643646
 20
-64.711648256074113
 11
897.18240393643646
 21
-58.710854256073617
  0
LINE
  8
_0-3_躯体と製品
  6
CONTINUOUS
 62
    4
 10
897.18240393643646
 20
-64.711648256074113
 11
896.68233793643594
 21
-64.211582256075417
  0
LINE
  8
_0-3_躯体と製品
  6
CONTINUOUS
 62
    4
 10
897.18240393643646
 20
-58.710854256073617
 11
896.68233793643594
 21
-59.210920256074132
  0
LINE
  8
_0-3_躯体と製品
  6
CONTINUOUS
 62
    4
 10
892.53668793644829
 20
-65.407538256074986
 11
892.53668793644829
 21
-72.407538256074986
  0
LINE
  8
_0-3_躯体と製品
  6
CONTINUOUS
 62
    4
 10
897.53668793643737
 20
-70.407538256074986
 11
892.53668793644829
 21
-70.407538256074986
  0
LINE
  8
_0-3_躯体と製品
  6
CONTINUOUS
 62
    4
 10
838.68220393643787
 20
-59.210258256073757
 11
838.68220393643787
 21
-130.90734025607435
  0
ARC
  8
_0-3_躯体と製品
  6
CONTINUOUS
 62
    4
 10
840.18240393643691
 20
-59.210258256073303
 40
1.500197999998363
 50
90.000000000017351
 51
180.00000000001737
  0
ARC
  8
_0-3_躯体と製品
  6
CONTINUOUS
 62
    4
 10
840.18240393643737
 20
-130.90734025607526
 40
1.5001979999988182
 50
179.99999999996527
 51
269.99999999996527
  0
ARC
  8
_0-3_躯体と製品
  6
CONTINUOUS
 62
    4
 10
839.18227193643554
 20
-63.961550256074133
 40
3.0003980000002572
 50
179.9999999999917
 51
260.40593199999574
  0
LINE
  8
_0-3_躯体と製品
  6
CONTINUOUS
 62
    4
 10
838.68220393643787
 20
-70.407538256074986
 11
657.53298768907553
 21
-70.407346496304854
  0
LINE
  8
_0-3_躯体と製品
  6
CONTINUOUS
 62
    4
 10
836.1818739364353
 20
-59.460954256074729
 11
836.1818739364353
 21
-63.961550256073679
  0
ARC
  8
_0-3_躯体と製品
  6
CONTINUOUS
 62
    4
 10
839.18227193643588
 20
-59.460954256074274
 40
3.0003980000005868
 50
90.000000000008697
 51
180.0000000000087
  0
LINE
  8
_0-3_躯体と製品
  6
CONTINUOUS
 62
    4
 10
840.18240393643646
 20
-56.460556256073687
 11
839.18227193643543
 21
-56.460556256073687
  0
LINE
  8
_0-3_躯体と製品
  6
CONTINUOUS
 62
    4
 10
841.68240393643646
 20
-52.710060256074939
 11
840.18240393643646
 21
-52.710060256074939
  0
LINE
  8
_0-3_躯体と製品
  6
CONTINUOUS
 62
    4
 10
852.53668793644829
 20
-65.407538256074986
 11
852.53668793644829
 21
-72.407538256074986
  0
LINE
  8
_0-3_躯体と製品
  6
CONTINUOUS
 62
    4
 10
842.80672593643612
 20
-66.961946256074953
 11
847.53668793643737
 21
-66.961946256074953
  0
LINE
  8
_0-3_躯体と製品
  6
CONTINUOUS
 62
    4
 10
840.18240393643646
 20
-66.71006025607403
 11
840.18240393643646
 21
-52.710060256074939
  0
LINE
  8
_0-3_躯体と製品
  6
CONTINUOUS
 62
    4
 10
840.18240393643646
 20
-135.10753825607389
 11
840.18240393643646
 21
-72.710060256074939
  0
ARC
  8
_0-3_躯体と製品
  6
CONTINUOUS
 62
    4
 10
846.9833039364371
 20
-138.90753825607362
 40
1.5001980000001818
 50
180.0000000000521
 51
270.00000000005213
  0
LINE
  8
_0-3_躯体と製品
  6
CONTINUOUS
 62
    4
 10
847.53668793643737
 20
-70.407538256074986
 11
852.53668793644829
 21
-70.407538256074986
  0
LINE
  8
_0-3_躯体と製品
  6
CONTINUOUS
 62
    4
 10
903.29095793643501
 20
-59.210920256074132
 11
841.68240393643646
 21
-59.210920256074132
  0
LINE
  8
_0-3_躯体と製品
  6
CONTINUOUS
 62
    4
 10
911.29181793643511
 20
-59.210920256074132
 11
920.18240393643646
 21
-59.210920256074132
  0
LINE
  8
_0-3_躯体と製品
  6
CONTINUOUS
 62
    4
 10
903.29095793643501
 20
-64.211582256075417
 11
841.68240393643646
 21
-64.211582256075417
  0
LINE
  8
_0-3_躯体と製品
  6
CONTINUOUS
 62
    4
 10
911.29181793643511
 20
-64.211582256075417
 11
920.18240393643646
 21
-64.211582256075417
  0
LINE
  8
_0-3_躯体と製品
  6
CONTINUOUS
 62
    4
 10
900.99095793643573
 20
-138.90753825607499
 11
843.98240393643573
 21
-138.90753825607499
  0
LINE
  8
_0-3_躯体と製品
  6
CONTINUOUS
 62
    4
 10
846.98330393643846
 20
-140.40773825607539
 11
897.99005793643664
 21
-140.40773825607539
  0
LINE
  8
_0-3_躯体と製品
  6
CONTINUOUS
 62
    4
 10
903.29095793643501
 20
-58.710854256073617
 11
897.18240393643646
 21
-58.710854256073617
  0
LINE
  8
_0-3_躯体と製品
  6
CONTINUOUS
 62
    4
 10
911.29181793643511
 20
-58.710854256073617
 11
920.18240393643646
 21
-58.710854256073617
  0
LINE
  8
_0-3_躯体と製品
  6
CONTINUOUS
 62
    4
 10
903.29095793643501
 20
-64.711648256074113
 11
897.18240393643646
 21
-64.711648256074113
  0
LINE
  8
_0-3_躯体と製品
  6
CONTINUOUS
 62
    4
 10
920.18240393643646
 20
-64.711648256075023
 11
911.29181793643511
 21
-64.711648256074113
  0
LINE
  8
_0-3_躯体と製品
  6
CONTINUOUS
 62
    4
 10
902.13856750743798
 20
-67.001952256074219
 11
897.53668793643737
 21
-67.001952256074219
  0
LINE
  8
_0-3_躯体と製品
  6
CONTINUOUS
 62
    4
 10
906.29115593643655
 20
-130.90734025607435
 11
906.29115593643655
 21
-61.066166256074212
  0
ARC
  8
_0-3_躯体と製品
  6
CONTINUOUS
 62
    4
 10
904.79095793643592
 20
-130.90734025607344
 40
1.500198000000637
 50
269.99999999996527
 51
359.99999999996527
  0
ARC
  8
_0-3_躯体と製品
  6
CONTINUOUS
 62
    4
 10
904.79095793643637
 20
-59.210258256075122
 40
1.5001980000001818
 50
0.0000000000521099
 51
90.000000000052125
  0
LINE
  8
_0-3_躯体と製品
  6
CONTINUOUS
 62
    4
 10
906.29115593643655
 20
-70.407538256074986
 11
1022.9341299364351
 21
-70.407538256074986
  0
LINE
  8
_0-3_躯体と製品
  6
CONTINUOUS
 62
    4
 10
920.18240393643646
 20
-58.710854256073617
 11
920.18240393643646
 21
-64.711648256075023
  0
LINE
  8
_0-3_躯体と製品
  6
CONTINUOUS
 62
    4
 10
906.29115593643655
 20
-57.335672256074758
 11
906.29115593643655
 21
-66.086830256073881
  0
LINE
  8
_0-3_躯体と製品
  6
CONTINUOUS
 62
    4
 10
906.29115593643655
 20
-66.086830256073881
 11
906.29115593643655
 21
-57.335672256074758
  0
LINE
  8
_0-3_躯体と製品
  6
CONTINUOUS
 62
    4
 10
906.29115593643655
 20
-66.086830256073881
 11
906.89123593643671
 21
-66.711914256075033
  0
LINE
  8
_0-3_躯体と製品
  6
CONTINUOUS
 62
    4
 10
906.29115593643655
 20
-57.335672256074758
 11
906.89123593643671
 21
-56.710590256074283
  0
ARC
  8
_0-3_躯体と製品
  6
CONTINUOUS
 62
    4
 10
907.89345193643601
 20
-65.461748256072156
 40
1.602295999999463
 50
128.71798800007227
 51
180.00000000007728
  0
ARC
  8
_0-3_躯体と製品
  6
CONTINUOUS
 62
    4
 10
911.80021993644743
 20
-61.711252256075113
 40
5.5090620000014683
 50
153.00853300000176
 51
206.99146699999824
  0
ARC
  8
_0-3_躯体と製品
  6
CONTINUOUS
 62
    4
 10
907.89345193643601
 20
-57.960756256076252
 40
1.6022959999994637
 50
179.99999999992272
 51
231.28201199992773
  0
LINE
  8
_0-3_躯体と製品
  6
CONTINUOUS
 62
    4
 10
911.29181793643511
 20
-57.335672256074758
 11
911.29181793643511
 21
-66.086830256073881
  0
LINE
  8
_0-3_躯体と製品
  6
CONTINUOUS
 62
    4
 10
911.29181793643511
 20
-66.086830256073881
 11
911.29181793643511
 21
-57.335672256074758
  0
LINE
  8
_0-3_躯体と製品
  6
CONTINUOUS
 62
    4
 10
910.69173993643562
 20
-66.711914256075033
 11
906.89123593643671
 21
-66.711914256075033
  0
LINE
  8
_0-3_躯体と製品
  6
CONTINUOUS
 62
    4
 10
910.69173993643562
 20
-64.211582256075417
 11
906.89123593643671
 21
-64.211582256075417
  0
LINE
  8
_0-3_躯体と製品
  6
CONTINUOUS
 62
    4
 10
910.69173993643562
 20
-59.210920256074132
 11
906.89123593643671
 21
-59.210920256074132
  0
LINE
  8
_0-3_躯体と製品
  6
CONTINUOUS
 62
    4
 10
910.69173993643562
 20
-56.710590256074283
 11
906.89123593643671
 21
-56.710590256074283
  0
LINE
  8
_0-3_躯体と製品
  6
CONTINUOUS
 62
    4
 10
911.29181793643511
 20
-66.086830256073881
 11
910.69173993643562
 21
-66.711914256075033
  0
LINE
  8
_0-3_躯体と製品
  6
CONTINUOUS
 62
    4
 10
911.29181793643511
 20
-57.335672256074758
 11
910.69173993643562
 21
-56.710590256074283
  0
ARC
  8
_0-3_躯体と製品
  6
CONTINUOUS
 62
    4
 10
909.68952393644179
 20
-65.461748256083524
 40
1.6022960000049198
 50
0.0000000003292675
 51
51.282012000334255
  0
ARC
  8
_0-3_躯体と製品
  6
CONTINUOUS
 62
    4
 10
905.78275593643946
 20
-61.711252256075113
 40
5.5090620000014683
 50
333.00853300000176
 51
26.991466999998252
  0
ARC
  8
_0-3_躯体と製品
  6
CONTINUOUS
 62
    4
 10
909.68952393644179
 20
-57.960756256064883
 40
1.6022960000049205
 50
308.71798799966575
 51
359.99999999967076
  0
LINE
  8
_0-3_躯体と製品
  6
CONTINUOUS
 62
    4
 10
906.29115593643655
 20
-55.610444256075425
 11
904.79095793643501
 21
-55.610444256075425
  0
LINE
  8
_0-3_躯体と製品
  6
CONTINUOUS
 62
    4
 10
906.29115593643655
 20
-67.812060256073892
 11
906.29115593643655
 21
-55.610444256075425
  0
LINE
  8
_0-3_躯体と製品
  6
CONTINUOUS
 62
    4
 10
903.29095793643501
 20
-52.710060256074939
 11
904.79095793643501
 21
-52.710060256074939
  0
LINE
  8
_0-3_躯体と製品
  6
CONTINUOUS
 62
    4
 10
904.79095793643501
 20
-66.71006025607403
 11
904.79095793643501
 21
-52.710060256074939
  0
ARC
  8
_0-3_躯体と製品
  6
CONTINUOUS
 62
    4
 10
897.99005793643801
 20
-138.90753825607362
 40
1.5001980000001818
 50
269.99999999994793
 51
359.99999999994793
  0
LINE
  8
_0-5_中心線
  6
CENTER1
 62
    7
 10
872.53668793643737
 20
-380.86999025607474
 11
872.53668793643737
 21
-46.701604045299973
  0
LINE
  8
_0-3_躯体と製品
  6
CONTINUOUS
 62
    4
 10
862.14438310177502
 20
-153.40773825607357
 11
882.92899279261837
 21
-153.40773825607357
  0
LINE
  8
_0-3_躯体と製品
  6
CONTINUOUS
 62
    4
 10
865.6084847169368
 20
-151.90773825607357
 11
865.6084847169368
 21
-140.40773825607539
  0
LINE
  8
_0-3_躯体と製品
  6
CONTINUOUS
 62
    4
 10
879.4648911774857
 20
-168.90773825607357
 11
879.4648911774857
 21
-157.40773825607539
  0
LINE
  8
_0-3_躯体と製品
  6
CONTINUOUS
 62
    4
 10
879.4648911774857
 20
-151.90773825607357
 11
879.4648911774857
 21
-140.40773825607539
  0
LINE
  8
_0-3_躯体と製品
  6
CONTINUOUS
 62
    4
 10
865.6084847169368
 20
-168.90773825607357
 11
865.6084847169368
 21
-157.40773825607539
  0
ARC
  8
_0-3_躯体と製品
  6
CONTINUOUS
 62
    4
 10
862.14438310179139
 20
-148.65773825606584
 40
4.7500000000108749
 50
223.17355110726379
 51
316.82644889273621
  0
ARC
  8
_0-3_躯体と製品
  6
CONTINUOUS
 62
    4
 10
872.53668794721125
 20
-136.65773857650959
 40
16.749999708259288
 50
245.56730186717647
 51
294.43269813282353
  0
ARC
  8
_0-3_躯体と製品
  6
CONTINUOUS
 62
    4
 10
882.9289927926111
 20
-148.65773825608414
 40
4.7499999999837499
 50
223.17355110726777
 51
316.82644889273217
  0
LINE
  8
_0-3_躯体と製品
  6
CONTINUOUS
 62
    4
 10
886.3930944077365
 20
-151.90773825607357
 11
886.3930944077365
 21
-140.40773825607539
  0
LINE
  8
_0-3_躯体と製品
  6
CONTINUOUS
 62
    4
 10
886.3930944077365
 20
-140.40773825607539
 11
858.68028148664598
 21
-140.40773825607539
  0
LINE
  8
_0-3_躯体と製品
  6
CONTINUOUS
 62
    4
 10
858.68028148664598
 20
-140.40773825607539
 11
858.68028148664598
 21
-151.90773825607357
  0
LINE
  8
_0-3_躯体と製品
  6
CONTINUOUS
 62
    4
 10
858.53668794285841
 20
-157.40773825607539
 11
886.53668798022773
 21
-157.40773825607539
  0
LINE
  8
_0-3_躯体と製品
  6
CONTINUOUS
 62
    4
 10
886.53668798022773
 20
-157.40773825607539
 11
886.53668798022773
 21
-153.40773825607357
  0
LINE
  8
_0-3_躯体と製品
  6
CONTINUOUS
 62
    4
 10
886.53668798022773
 20
-153.40773825607357
 11
858.53668794285841
 21
-153.40773825607357
  0
LINE
  8
_0-3_躯体と製品
  6
CONTINUOUS
 62
    4
 10
858.53668794285841
 20
-153.40773825607357
 11
858.53668794285841
 21
-157.40773825607539
  0
LINE
  8
_0-3_躯体と製品
  6
CONTINUOUS
 62
    4
 10
862.14438310177502
 20
-170.40773825607357
 11
882.92899279261837
 21
-170.40773825607357
  0
LINE
  8
_0-3_躯体と製品
  6
CONTINUOUS
 62
    4
 10
872.5366879615467
 20
-157.40773825607539
 11
876.5366879615467
 21
-153.40773825607357
  0
ARC
  8
_0-3_躯体と製品
  6
CONTINUOUS
 62
    4
 10
862.14438310179139
 20
-165.65773825606516
 40
4.7500000000113527
 50
223.1735511072699
 51
316.82644889273007
  0
ARC
  8
_0-3_躯体と製品
  6
CONTINUOUS
 62
    4
 10
872.53668794721125
 20
-153.65773825607437
 40
16.749999999998835
 50
245.56730232054764
 51
294.43269767945236
  0
ARC
  8
_0-3_躯体と製品
  6
CONTINUOUS
 62
    4
 10
882.9289927926111
 20
-165.65773825608528
 40
4.749999999982963
 50
223.17355110725768
 51
316.82644889274235
  0
LINE
  8
_0-3_躯体と製品
  6
CONTINUOUS
 62
    4
 10
886.3930944077365
 20
-168.90773825607357
 11
886.3930944077365
 21
-157.40773825607539
  0
LINE
  8
_0-3_躯体と製品
  6
CONTINUOUS
 62
    4
 10
886.3930944077365
 20
-157.40773825607539
 11
858.68028148664598
 21
-157.40773825607539
  0
LINE
  8
_0-3_躯体と製品
  6
CONTINUOUS
 62
    4
 10
858.68028148664598
 20
-157.40773825607539
 11
858.68028148664598
 21
-168.90773825607357
  0
LINE
  8
_0-3_躯体と製品
  6
CONTINUOUS
 62
    4
 10
868.53668791415839
 20
-157.40773828477086
 11
872.53668791415839
 21
-153.40773828477086
  0
LINE
  8
_0-3_躯体と製品
  6
CONTINUOUS
 62
    4
 10
835.2279088683681
 20
-363.20753825609245
 11
804.53668797029604
 21
-363.20753825609245
  0
LINE
  8
_0-3_躯体と製品
  6
CONTINUOUS
 62
    4
 10
804.53668797029604
 20
-363.20753825609245
 11
804.53668797029604
 21
-366.40753825607499
  0
LINE
  8
_0-3_躯体と製品
  6
CONTINUOUS
 62
    4
 10
804.53668797029604
 20
-366.40753825607499
 11
835.2279088683681
 21
-366.40753825607499
  0
ARC
  8
_0-3_躯体と製品
  6
CONTINUOUS
 62
    4
 10
835.22790886836924
 20
-359.20753825606948
 40
7.20000000000545
 50
269.99999999999062
 51
352.46565723241144
  0
LINE
  8
_0-3_躯体と製品
  6
CONTINUOUS
 62
    4
 10
842.36574728399501
 20
-360.15160538953842
 11
853.88163634796729
 21
-273.08305651527735
  0
ARC
  8
_0-3_躯体と製品
  6
CONTINUOUS
 62
    4
 10
857.84710213441417
 20
-273.60753825607458
 40
3.9999999999888822
 50
90.000000000238728
 51
172.46565723265618
  0
LINE
  8
_0-3_躯体と製品
  6
CONTINUOUS
 62
    4
 10
857.84710213439757
 20
-269.60753825608572
 11
872.53668797029604
 21
-269.60753825608572
  0
LINE
  8
_0-3_躯体と製品
  6
CONTINUOUS
 62
    4
 10
831.67273332972763
 20
-363.20753825609245
 11
843.20814469345714
 21
-275.99138650891018
  0
ARC
  8
_0-3_躯体と製品
  6
CONTINUOUS
 62
    4
 10
847.17361047992392
 20
-276.51586824972685
 40
4.0000000000111013
 50
97.534342767582473
 51
172.46565723241753
  0
LINE
  8
_0-3_躯体と製品
  6
CONTINUOUS
 62
    4
 10
846.64912873910725
 20
-272.55040246326007
 11
850.79677455382625
 21
-272.00182516761379
  0
ARC
  8
_0-3_躯体と製品
  6
CONTINUOUS
 62
    4
 10
857.87558219238304
 20
-273.6832423633042
 40
7.2757598482669961
 50
90.224277783077966
 51
166.63824627912967
  0
LINE
  8
_0-3_躯体と製品
  6
CONTINUOUS
 62
    4
 10
857.84710213441576
 20
-266.40753825607499
 11
872.53668797029604
 21
-266.40753825607499
  0
LINE
  8
_0-3_躯体と製品
  6
CONTINUOUS
 62
    4
 10
833.03668797029604
 20
-363.20753825609245
 11
833.03668797029604
 21
-366.40753825607499
  0
LINE
  8
_0-3_躯体と製品
  6
CONTINUOUS
 62
    4
 10
804.53668797029604
 20
-368.4075382560759
 11
829.53668797029604
 21
-368.4075382560759
  0
LINE
  8
_0-3_躯体と製品
  6
CONTINUOUS
 62
    4
 10
829.53668797029604
 20
-368.4075382560759
 11
829.53668797029604
 21
-366.40753825607499
  0
LINE
  8
_0-3_躯体と製品
  6
CONTINUOUS
 62
    4
 10
829.53668797029604
 20
-366.40753825607499
 11
804.53668797029604
 21
-366.40753825607499
  0
LINE
  8
_0-3_躯体と製品
  6
CONTINUOUS
 62
    4
 10
804.53668797029604
 20
-366.40753825607499
 11
804.53668797029604
 21
-368.4075382560759
  0
LINE
  8
_0-3_躯体と製品
  6
CONTINUOUS
 62
    4
 10
856.58398740665507
 20
-266.52304234660369
 11
857.84710213439757
 21
-269.60753825608572
  0
LINE
  8
_0-3_躯体と製品
  6
CONTINUOUS
 62
    4
 10
858.53668700786511
 20
-262.4075375723969
 11
886.53668704523807
 21
-262.4075375723969
  0
LINE
  8
_0-3_躯体と製品
  6
CONTINUOUS
 62
    4
 10
886.53668704523807
 20
-262.4075375723969
 11
886.53668704523807
 21
-266.4075375723969
  0
LINE
  8
_0-3_躯体と製品
  6
CONTINUOUS
 62
    4
 10
886.53668704523807
 20
-266.4075375723969
 11
858.53668700786511
 21
-266.4075375723969
  0
LINE
  8
_0-3_躯体と製品
  6
CONTINUOUS
 62
    4
 10
858.53668700786511
 20
-266.4075375723969
 11
858.53668700786511
 21
-262.4075375723969
  0
LINE
  8
_0-3_躯体と製品
  6
CONTINUOUS
 62
    4
 10
872.53668617569565
 20
-262.4075375723969
 11
868.53668617569565
 21
-266.4075375723969
  0
LINE
  8
_0-3_躯体と製品
  6
CONTINUOUS
 62
    4
 10
876.53668622310579
 20
-262.40753754370144
 11
872.53668622310579
 21
-266.40753754369962
  0
LINE
  8
_0-3_躯体と製品
  6
CONTINUOUS
 62
    4
 10
909.84546650040647
 20
-363.20753825609245
 11
940.53668739843852
 21
-363.20753825609245
  0
LINE
  8
_0-3_躯体と製品
  6
CONTINUOUS
 62
    4
 10
940.53668739843852
 20
-363.20753825609245
 11
940.53668739843852
 21
-366.40753825607499
  0
LINE
  8
_0-3_躯体と製品
  6
CONTINUOUS
 62
    4
 10
940.53668739843852
 20
-366.40753825607499
 11
909.84546650040647
 21
-366.40753825607499
  0
ARC
  8
_0-3_躯体と製品
  6
CONTINUOUS
 62
    4
 10
909.84546650040352
 20
-359.20753825606744
 40
7.2000000000075266
 50
187.53434276760308
 51
270.00000000002387
  0
LINE
  8
_0-3_躯体と製品
  6
CONTINUOUS
 62
    4
 10
902.70762808477593
 20
-360.15160538953842
 11
891.19173902080729
 21
-273.08305651527735
  0
ARC
  8
_0-3_躯体と製品
  6
CONTINUOUS
 62
    4
 10
887.22627323434585
 20
-273.60753825609117
 40
4.0000000000054863
 50
7.5343427675522729
 51
89.999999999969731
  0
LINE
  8
_0-3_躯体と製品
  6
CONTINUOUS
 62
    4
 10
887.2262732343479
 20
-269.60753825608572
 11
872.53668739843852
 21
-269.60753825608572
  0
LINE
  8
_0-3_躯体と製品
  6
CONTINUOUS
 62
    4
 10
913.40064203901784
 20
-363.20753825609245
 11
901.86523067531743
 21
-275.99138650891018
  0
ARC
  8
_0-3_躯体と製品
  6
CONTINUOUS
 62
    4
 10
897.89976488885065
 20
-276.51586824972685
 40
4.0000000000111013
 50
7.5343427675824852
 51
82.465657232417513
  0
LINE
  8
_0-3_躯体と製品
  6
CONTINUOUS
 62
    4
 10
898.42424662966732
 20
-272.55040246326007
 11
894.27660081491558
 21
-272.00182516761379
  0
ARC
  8
_0-3_躯体と製品
  6
CONTINUOUS
 62
    4
 10
887.19779317636971
 20
-273.68324236329033
 40
7.2757598482531716
 50
13.361753720783961
 51
89.775722216835675
  0
LINE
  8
_0-3_躯体と製品
  6
CONTINUOUS
 62
    4
 10
887.2262732343479
 20
-266.40753825607499
 11
872.53668739843852
 21
-266.40753825607499
  0
LINE
  8
_0-3_躯体と製品
  6
CONTINUOUS
 62
    4
 10
912.03668739843852
 20
-363.20753825609245
 11
912.03668739843852
 21
-366.40753825607499
  0
LINE
  8
_0-3_躯体と製品
  6
CONTINUOUS
 62
    4
 10
915.53668739843852
 20
-368.4075382560759
 11
940.53668739843852
 21
-368.4075382560759
  0
LINE
  8
_0-3_躯体と製品
  6
CONTINUOUS
 62
    4
 10
940.53668739843852
 20
-368.4075382560759
 11
940.53668739843852
 21
-366.40753825607499
  0
LINE
  8
_0-3_躯体と製品
  6
CONTINUOUS
 62
    4
 10
940.53668739843852
 20
-366.40753825607499
 11
915.53668739843852
 21
-366.40753825607499
  0
LINE
  8
_0-3_躯体と製品
  6
CONTINUOUS
 62
    4
 10
915.53668739843852
 20
-366.40753825607499
 11
915.53668739843852
 21
-368.4075382560759
  0
LINE
  8
_0-3_躯体と製品
  6
CONTINUOUS
 62
    4
 10
888.4893870721753
 20
-266.52304211773117
 11
887.2262723886779
 21
-269.60753804531669
  0
LINE
  8
_0-3_躯体と製品
  6
CONTINUOUS
 62
    4
 10
879.46489138100515
 20
-250.90753825607499
 11
879.46489138100515
 21
-262.40753825607499
  0
LINE
  8
_0-3_躯体と製品
  6
CONTINUOUS
 62
    4
 10
865.60848492045625
 20
-250.90753825607499
 11
865.60848492045625
 21
-262.40753825607499
  0
LINE
  8
_0-3_躯体と製品
  6
CONTINUOUS
 62
    4
 10
862.14438330532721
 20
-249.40753825607499
 11
882.92899299615601
 21
-249.40753825607499
  0
ARC
  8
_0-3_躯体と製品
  6
CONTINUOUS
 62
    4
 10
862.14438330532721
 20
-254.15753825606805
 40
4.749999999988904
 50
43.173551107269937
 51
136.8264488927301
  0
ARC
  8
_0-3_躯体と製品
  6
CONTINUOUS
 62
    4
 10
872.5366881507307
 20
-266.15753825607419
 40
16.749999999998835
 50
65.56730232054764
 51
114.43269767945236
  0
ARC
  8
_0-3_躯体と製品
  6
CONTINUOUS
 62
    4
 10
882.9289929961451
 20
-254.15753825607692
 40
4.7500000000029168
 50
43.173551107257659
 51
136.82644889274232
  0
LINE
  8
_0-3_躯体と製品
  6
CONTINUOUS
 62
    4
 10
886.39309461128505
 20
-250.90753825607499
 11
886.39309461128505
 21
-262.40753825607499
  0
LINE
  8
_0-3_躯体と製品
  6
CONTINUOUS
 62
    4
 10
886.39309461128505
 20
-262.40753825607499
 11
858.68028169019817
 21
-262.40753825607499
  0
LINE
  8
_0-3_躯体と製品
  6
CONTINUOUS
 62
    4
 10
858.68028169019817
 20
-262.40753825607499
 11
858.68028169019817
 21
-250.90753825607499
  0
LINE
  8
_0-3_躯体と製品
  6
CONTINUOUS
 62
    4
 10
879.46489244273835
 20
-281.10753893979381
 11
879.46489244273835
 21
-269.60753893979381
  0
LINE
  8
_0-3_躯体と製品
  6
CONTINUOUS
 62
    4
 10
865.60848598219673
 20
-281.10753893979381
 11
865.60848598219673
 21
-269.60753893979381
  0
LINE
  8
_0-3_躯体と製品
  6
CONTINUOUS
 62
    4
 10
862.14438436706769
 20
-282.60753893979381
 11
882.92899405786738
 21
-282.60753893979381
  0
ARC
  8
_0-3_躯体と製品
  6
CONTINUOUS
 62
    4
 10
862.14438436705132
 20
-277.8575389397854
 40
4.7500000000113527
 50
223.1735511072699
 51
316.82644889273007
  0
ARC
  8
_0-3_躯体と製品
  6
CONTINUOUS
 62
    4
 10
872.53668921246754
 20
-265.85753893980257
 40
16.749999999990038
 50
245.56730232054764
 51
294.43269767945236
  0
ARC
  8
_0-3_躯体と製品
  6
CONTINUOUS
 62
    4
 10
882.92899405788194
 20
-277.85753893978847
 40
4.7500000000079048
 50
223.17355110725768
 51
316.82644889274235
  0
LINE
  8
_0-3_躯体と製品
  6
CONTINUOUS
 62
    4
 10
886.39309567302553
 20
-281.10753893979381
 11
886.39309567302553
 21
-269.60753893979381
  0
LINE
  8
_0-3_躯体と製品
  6
CONTINUOUS
 62
    4
 10
886.39309567302553
 20
-269.60753893979381
 11
858.68028275190591
 21
-269.60753893979381
  0
LINE
  8
_0-3_躯体と製品
  6
CONTINUOUS
 62
    4
 10
858.68028275190591
 20
-269.60753893979381
 11
858.68028275190591
 21
-281.10753893979381
  0
ARC
  8
_0-3_躯体と製品
  6
CONTINUOUS
 62
    4
 10
835.2279088683681
 20
-364.80753825609827
 40
1.6000000000058208
 50
270
 51
89.999999999999972
  0
ARC
  8
_0-3_躯体と製品
  6
CONTINUOUS
 62
    4
 10
909.84546650040647
 20
-364.80753825609827
 40
1.6000000000058208
 50
90
 51
270
  0
LINE
  8
_0-3_躯体と製品
  6
CONTINUOUS
 62
    4
 10
880.53880793644566
 20
-282.60753893979381
 11
880.53880793644566
 21
-318.90753825607499
  0
LINE
  8
_0-3_躯体と製品
  6
CONTINUOUS
 62
    4
 10
864.53668793643737
 20
-282.60753893979381
 11
864.53668793643737
 21
-318.90753825607408
  0
LINE
  8
_0-3_躯体と製品
  6
CONTINUOUS
 62
    3
 10
879.03860793644708
 20
-282.60753893979381
 11
879.03860793644708
 21
-320.40773825607357
  0
LINE
  8
_0-3_躯体と製品
  6
CONTINUOUS
 62
    3
 10
866.03688793643596
 20
-282.60753893979381
 11
866.03688793643596
 21
-320.40773825607357
  0
LINE
  8
_0-3_躯体と製品
  6
CONTINUOUS
 62
    4
 10
879.03860793644708
 20
-320.40773825607357
 11
866.03688793643596
 21
-320.40773825607357
  0
LINE
  8
_0-3_躯体と製品
  6
CONTINUOUS
 62
    3
 10
880.53880793644566
 20
-318.90753825607499
 11
864.53668793643737
 21
-318.90753825607408
  0
LINE
  8
_0-3_躯体と製品
  6
CONTINUOUS
 62
    4
 10
864.53668793643737
 20
-318.90753825607499
 11
866.03688793643596
 21
-320.40773825607357
  0
LINE
  8
_0-3_躯体と製品
  6
CONTINUOUS
 62
    4
 10
880.53668793643737
 20
-318.90753825607499
 11
879.03648793643515
 21
-320.40773825607357
  0
LINE
  8
_0-3_躯体と製品
  6
CONTINUOUS
 62
    4
 10
852.53668793644829
 20
-72.407538256074986
 11
892.53668793644829
 21
-72.407538256074986
  0
LINE
  8
_0-4_文字-記号
  6
CONTINUOUS
 62
    7
 10
705.53668679355542
 20
-14.634432681851649
 11
751.5384349461965
 21
-94.311797719193237
  0
LINE
  8
_0-4_文字-記号
  6
CONTINUOUS
 62
    7
 10
751.5384349461965
 20
-94.311797719193237
 11
800.57196523195671
 21
-94.311797719193237
  0
TEXT
  8
_0-4_文字-記号
 62
    7
 10
754.94588683234542
 20
-89.557448290306638
 40
9
 41
1
 50
0
  1
ランナー
  0
LINE
  8
_0-3_躯体と製品
  6
CONTINUOUS
 62
    4
 10
642.53217579787815
 20
158.7862790294057
 11
592.53202363026503
 21
108.79079354264832
  0
LINE
  8
_0-3_躯体と製品
  6
CONTINUOUS
 62
    4
 10
642.5322286627852
 20
176.15533080602836
 11
592.53207649517572
 21
126.15984531925096
  0
LINE
  8
_0-3_躯体と製品
  6
CONTINUOUS
 62
    4
 10
642.53228155425677
 20
193.53310578381388
 11
592.53212937244825
 21
143.53295360199263
  0
LINE
  8
_0-3_躯体と製品
  6
CONTINUOUS
 62
    4
 10
642.53217579787815
 20
861.04040069141683
 11
592.53202363026503
 21
811.04491520466036
  0
LINE
  8
_0-3_躯体と製品
  6
CONTINUOUS
 62
    4
 10
642.53222866279611
 20
878.40945246803858
 11
592.53207649517572
 21
828.413966981263
  0
LINE
  8
_0-3_躯体と製品
  6
CONTINUOUS
 62
    4
 10
642.53228155426768
 20
895.78722744582592
 11
592.53212937244825
 21
845.78707526400467
  0
TEXT
  8
_0-4_文字-記号
 62
    7
 10
750.14121121011704
 20
106.36549927169199
 40
9
 41
1
 50
0
  1
巾木
  0
LINE
  8
_0-4_文字-記号
  6
CONTINUOUS
 62
    7
 10
774.61956993527565
 20
101.62909487242086
 11
744.64634593617666
 21
101.62909487242086
  0
LINE
  8
_0-4_文字-記号
  6
CONTINUOUS
 62
    7
 10
744.64634593617666
 20
101.62909487242086
 11
731.53668790157826
 21
78.922501086635748
  0
INSERT
  2
-012-_D13
  8
_0-2_寸法
 10
-23420.898498593793
 20
-5292.433193973593
 41
1
 42
1
 50
0
  0
TEXT
  8
_0-4_文字-記号
 62
    7
 10
904.99761791982746
 20
-229.21454007101875
 40
9
 41
1
 50
0
  1
鋼製床下地
  0
LINE
  8
_0-4_文字-記号
  6
CONTINUOUS
 62
    7
 10
963.06081421663839
 20
-233.95094447028987
 11
899.50275264588709
 21
-233.95094447028987
  0
LINE
  8
_0-4_文字-記号
  6
CONTINUOUS
 62
    7
 10
899.50275264588709
 20
-233.95094447028987
 11
886.39309461128505
 21
-256.65753825607499
  0
TEXT
  8
_0-4_文字-記号
 62
    7
 10
895.47933316038689
 20
32.063626515862779
 40
9
 41
1
 50
0
  1
床仕上り面
  0
LINE
  8
_0-4_文字-記号
  6
CONTINUOUS
 62
    7
 10
954.51889492943519
 20
27.327222116591656
 11
889.98446788644651
 21
27.327222116591656
  0
LINE
  8
_0-4_文字-記号
  6
CONTINUOUS
 62
    7
 10
889.98446788644651
 20
27.327222116591656
 11
869.35337320479812
 21
-8.4068820878019324
  0
LINE
  8
_0-3_躯体と製品
  6
CONTINUOUS
 62
    4
 10
705.53668743643721
 20
281.99346150351084
 11
705.53668743643721
 21
-25.806405700572213
  0
LINE
  8
_0-3_躯体と製品
  6
CONTINUOUS
 62
    4
 10
5.692600970636704
 20
-2.7065382560876969
 11
3.6926009706257901
 21
-2.7065382560876969
  0
LINE
  8
_0-3_躯体と製品
  6
CONTINUOUS
 62
    4
 10
707.53668793644829
 20
-2.7065382560876969
 11
706.13668910793785
 21
-2.7065382560876969
  0
TEXT
  8
_0-4_文字-記号
 62
    7
 10
-118.40243181644473
 20
718.83580077047827
 40
9
 41
1
 50
0
  1
スタンド
  0
INSERT
  2
-013-_D14
  8
_0-2_寸法
 10
-23420.898498593793
 20
-5292.433193973593
 41
1
 42
1
 50
0
  0
INSERT
  2
-014-_D15
  8
_0-2_寸法
 10
-23420.898498593793
 20
-5292.433193973593
 41
1
 42
1
 50
0
  0
TEXT
  8
_0-2_寸法
 62
    7
 10
268.95778258986684
 20
610.88770772882162
 40
9
 41
1
 50
90
  1
@２９０
  0
LINE
  8
_0-2_寸法
  6
CONTINUOUS
 62
    4
 10
266.55461102682602
 20
669.44586525157592
 11
273.02508715443764
 21
693.59401090878964
  0
LINE
  8
_0-2_寸法
  6
CONTINUOUS
 62
    4
 10
273.02508715443764
 20
693.59401090878964
 11
273.02508715506701
 21
571.5934617439143
  0
LINE
  8
_0-2_寸法
  6
CONTINUOUS
 62
    4
 10
273.02508715506701
 20
571.5934617439143
 11
239.03060672153515
 21
571.5934617439143
  0
INSERT
  2
-015-_D16
  8
_0-2_寸法
 10
-23420.898498593793
 20
-5292.433193973593
 41
1
 42
1
 50
0
  0
TEXT
  8
_0-2_寸法
 62
    7
 10
970.80186905566734
 20
610.88770772882162
 40
9
 41
1
 50
90
  1
@２９０
  0
LINE
  8
_0-2_寸法
  6
CONTINUOUS
 62
    4
 10
968.39869749263744
 20
669.44586525157592
 11
974.86917362024542
 21
693.59401090878964
  0
LINE
  8
_0-2_寸法
  6
CONTINUOUS
 62
    4
 10
974.86917362024542
 20
693.59401090878964
 11
974.86917362086751
 21
571.5934617439143
  0
LINE
  8
_0-2_寸法
  6
CONTINUOUS
 62
    4
 10
974.86917362086751
 20
571.5934617439143
 11
940.87469318733565
 21
571.5934617439143
  0
INSERT
  2
-016-_D17
  8
_0-2_寸法
 10
-23420.898498593793
 20
-5292.433193973593
 41
1
 42
1
 50
0
  0
LINE
  8
_0-4_文字-記号
  6
CONTINUOUS
 62
    7
 10
696.46433370774685
 20
144.78109517208304
 11
737.2030311361159
 21
215.34258895218409
  0
LINE
  8
_0-4_文字-記号
  6
CONTINUOUS
 62
    7
 10
737.2030311361159
 20
215.34258895218409
 11
822.90673847498692
 21
215.34258895218409
  0
TEXT
  8
_0-4_文字-記号
 62
    7
 10
742.33464316390746
 20
218.26676345841861
 40
9
 41
1
 50
0
  1
間柱鋼 @６００
  0
TEXT
  8
_0-4_文字-記号
 62
    7
 10
838.58163892271591
 20
728.56952624156656
 40
4.5
 41
1
 50
0
  1
３
  0
TEXT
  8
_0-4_文字-記号
 62
    7
 10
136.23857391893659
 20
730.18961841423811
 40
4.5
 41
1
 50
0
  1
３
  0
ENDSEC
  0
EOF
