  0
SECTION
  2
HEADER
  9
$ACADVER
  1
AC1009
  9
$INSBASE
 10
0
 20
0
 30
0
  9
$EXTMIN
 10
0
 20
0
  9
$EXTMAX
 10
4756
 20
3364
  9
$LIMMIN
 10
0
 20
0
  9
$LIMMAX
 10
4756
 20
3364
  9
$LTSCALE
 40
1
  0
ENDSEC
  0
SECTION
  2
TABLES
  0
TABLE
  2
LTYPE
 70
     9
  0
LTYPE
  2
CONTINUOUS
 70
    64
  3
実線
 72
    65
 73
     0
 40
0.0
  0
LTYPE
  2
DASHED1
 70
    64
  3
--  --  --  --  --  --  --  --  
 72
    65
 73
     2
 40
2.5
 49
1.25
 49
-1.25
  0
LTYPE
  2
DASHED2
 70
    64
  3
----    ----    ----    ----    
 72
    65
 73
     2
 40
5.0
 49
2.5
 49
-2.5
  0
LTYPE
  2
DASHED3
 70
    64
  3
------  ------  ------  ------  
 72
    65
 73
     2
 40
5.0
 49
3.75
 49
-1.25
  0
LTYPE
  2
CENTER1
 70
    64
  3
----- - ----- - ----- - ----- - 
 72
    65
 73
     4
 40
10.0
 49
6.25
 49
-1.25
 49
1.25
 49
-1.25
  0
LTYPE
  2
CENTER2
 70
    64
  3
----------  --  ----------  --  
 72
    65
 73
     4
 40
20.0
 49
12.5
 49
-2.5
 49
2.5
 49
-2.5
  0
LTYPE
  2
PHANTOM1
 70
    64
  3
--- - - --- - - --- - - --- - - 
 72
    65
 73
     6
 40
10.0
 49
3.25
 49
-1.25
 49
1.25
 49
-1.25
 49
1.25
 49
-1.25
  0
LTYPE
  2
PHANTOM2
 70
    64
  3
--------  -  -  --------  -  -  
 72
    65
 73
     6
 40
20.0
 49
10.0
 49
-2.5
 49
1.25
 49
-2.5
 49
1.25
 49
-2.5
  0
LTYPE
  2
DOT
 70
    64
  3
-   -   -   -   -   -   -   -   
 72
    65
 73
     2
 40
2.5
 49
0.625
 49
-1.875
  0
LTYPE
  2
DUMMY
 70
    64
  3
ダミー
 72
    65
 73
     0
 40
0.0
  0
LTYPE
  2
RAND1
 70
    64
  3
ランダム線1
 72
    65
 73
     4
 40
10.0
 49
1.0
 49
-2.0
 49
3.0
 49
-4.0
  0
LTYPE
  2
RAND2
 70
    64
  3
ランダム線2
 72
    65
 73
     4
 40
14.0
 49
2.0
 49
-3.0
 49
4.0
 49
-5.0
  0
LTYPE
  2
RAND3
 70
    64
  3
ランダム線3
 72
    65
 73
     4
 40
18.0
 49
3.0
 49
-4.0
 49
5.0
 49
-6.0
  0
LTYPE
  2
RAND4
 70
    64
  3
ランダム線4
 72
    65
 73
     4
 40
22.0
 49
4.0
 49
-5.0
 49
6.0
 49
-7.0
  0
LTYPE
  2
RAND5
 70
    64
  3
ランダム線5
 72
    65
 73
     4
 40
26.0
 49
5.0
 49
-6.0
 49
7.0
 49
-8.0
  0
LTYPE
  2
LONG1
 70
    64
  3
----------  --  ----------  --  
 72
    65
 73
     4
 40
40.0
 49
32.5
 49
-2.5
 49
2.5
 49
-2.5
  0
LTYPE
  2
LONG2
 70
    64
  3
--------  -  -  --------  -  -  
 72
    65
 73
     6
 40
40.0
 49
30.0
 49
-2.5
 49
1.25
 49
-2.5
 49
1.25
 49
-2.5
  0
LTYPE
  2
LONG3
 70
    64
  3
+++++++++++++++..+++++++++++++++
 72
    65
 73
     2
 40
40.0
 49
37.5
 49
-2.5
  0
LTYPE
  2
LONG4
 70
    64
  3
+++++++++++++++..+++++++++++++++
 72
    65
 73
     2
 40
80.0
 49
75.0
 49
-5.0
  0
LTYPE
  2
LONG5
 70
    64
  3
----------  --  ----------  --  
 72
    65
 73
     4
 40
60.0
 49
37.5
 49
-7.5
 49
7.5
 49
-7.5
  0
LTYPE
  2
dashed
 70
   64
  3
-------   -------------   ------
 72
   65
 73
    2
 40
7.5
 49
6
 49
-1.5
  0
LTYPE
  2
dashed_spaced
 70
   64
  3
----        --------        ----
 72
   65
 73
    2
 40
12
 49
6
 49
-6
  0
LTYPE
  2
long_dashed_dotted
 70
   64
  3
------------- --- --------------
 72
   65
 73
    4
 40
15.25
 49
12
 49
-1.5
 49
0.25
 49
-1.5
  0
LTYPE
  2
long_dashed_double-dotted
 70
   64
  3
----------- --- --- ------------
 72
   65
 73
    6
 40
17
 49
12
 49
-1.5
 49
0.25
 49
-1.5
 49
0.25
 49
-1.5
  0
LTYPE
  2
long_dashed_triplicate-dotted
 70
   64
  3
--------- --- --- --- ----------
 72
   65
 73
    8
 40
18.75
 49
12
 49
-1.5
 49
0.25
 49
-1.5
 49
0.25
 49
-1.5
 49
0.25
 49
-1.5
  0
LTYPE
  2
dotted
 70
   64
  3
   -       -       -       -    
 72
   65
 73
    2
 40
1.75
 49
0.25
 49
-1.5
  0
LTYPE
  2
chain
 70
   64
  3
-------------- -- --------------
 72
   65
 73
    4
 40
18.5
 49
12
 49
-1.5
 49
3.5
 49
-1.5
  0
LTYPE
  2
chain_double_dash
 70
   64
  3
------------ -- -- -------------
 72
   65
 73
    6
 40
23.5
 49
12
 49
-1.5
 49
3.5
 49
-1.5
 49
3.5
 49
-1.5
  0
LTYPE
  2
dashed_dotted
 70
   64
  3
-----------     -     ----------
 72
   65
 73
    4
 40
9.25
 49
6
 49
-1.5
 49
0.25
 49
-1.5
  0
LTYPE
  2
double-dashed_dotted
 70
   64
  3
------   -----------   -   -----
 72
   65
 73
    6
 40
16.75
 49
6
 49
-1.5
 49
6
 49
-1.5
 49
0.25
 49
-1.5
  0
LTYPE
  2
dashed_double-dotted
 70
   64
  3
---------    -    -    ---------
 72
   65
 73
    6
 40
11
 49
6
 49
-1.5
 49
0.25
 49
-1.5
 49
0.25
 49
-1.5
  0
LTYPE
  2
double-dashed_double-dotted
 70
   64
  3
-----   ---------   -   -   ----
 72
   65
 73
    8
 40
18.5
 49
6
 49
-1.5
 49
6
 49
-1.5
 49
0.25
 49
-1.5
 49
0.25
 49
-1.5
  0
LTYPE
  2
dashed_triplicate-dotted
 70
   64
  3
-------    -    -    -    ------
 72
   65
 73
    8
 40
12.75
 49
6
 49
-1.5
 49
0.25
 49
-1.5
 49
0.25
 49
-1.5
 49
0.25
 49
-1.5
  0
LTYPE
  2
double-dashed_triplicate-dotted
 70
   64
  3
-----  ---------  -  -  -  -----
 72
   65
 73
   10
 40
20.25
 49
6
 49
-1.5
 49
6
 49
-1.5
 49
0.25
 49
-1.5
 49
0.25
 49
-1.5
 49
0.25
 49
-1.5
  0
LTYPE
  2
undefined
 70
   64
  3
--------------------------------
 72
   65
 73
    0
 40
0
  0
LTYPE
  2
PHANTOM2_17
 70
   64
  3
---------   ---   ---   --------
 72
   65
 73
    6
 40
1.25
 49
0.625
 49
-0.125
 49
0.125
 49
-0.125
 49
0.125
 49
-0.125
  0
LTYPE
  2
PLINE2
 70
   64
  3
------     -----------     -----
 72
   65
 73
    2
 40
3
 49
2.1000000000000001
 49
-0.9
  0
ENDTAB
  0
TABLE
  2
STYLE
  5
3
100
AcDbSymbolTable
 70
     1
  0
STYLE
  5
10
100
AcDbSymbolTableRecord
100
AcDbTextStyleTableRecord
  2
STANDARD
 70
     0
 40
0.0
 41
1.0
 50
0.0
 71
     0
 42
0.2
  3
txt
  4
bigfont.shx
  0
STYLE
  5
26
100
AcDbSymbolTableRecord
100
AcDbTextStyleTableRecord
  2
TATEGAKI
 70
    68
 40
0.0
 41
1.0
 50
0.0
 71
     0
 42
1.0
  3
txt
  4
bigfont.shx
  0
ENDTAB
  0
TABLE
  2
LAYER
 70
    5
  0
LAYER
  2
_0-2_寸法
 70
   64
 62
    7
  6
CONTINUOUS
  0
LAYER
  2
_0-3_躯体と製品
 70
   64
 62
    7
  6
CONTINUOUS
  0
LAYER
  2
_0-4_文字-記号
 70
   64
 62
    7
  6
CONTINUOUS
  0
LAYER
  2
_0-5_中心線
 70
   64
 62
    7
  6
CONTINUOUS
  0
LAYER
  2
ADD_LINE
 70
   64
 62
    7
  6
CONTINUOUS
  0
ENDTAB
  0
ENDSEC
  0
SECTION
  2
BLOCKS
  0
BLOCK
  2
-000-_Small
 70
   64
 10
0
 20
0
 30
0
  0
CIRCLE
  8
_0-0_0
  6
CONTINUOUS
 62
    7
 10
0
 20
0
 40
0.25
  0
ENDBLK
  0
BLOCK
  2
-001-_D3
 70
   64
 10
0
 20
0
 30
0
  0
LINE
  8
_0-2_寸法
  6
CONTINUOUS
 62
    4
 10
3844.7952936074989
 20
-4691.2737730256822
 11
3844.7952936074989
 21
-4806.0598130256822
  0
LINE
  8
_0-2_寸法
  6
CONTINUOUS
 62
    4
 10
3994.7952936074989
 20
-4691.2737730256822
 11
3994.7952936074989
 21
-4806.0598130256822
  0
LINE
  8
_0-2_寸法
  6
CONTINUOUS
 62
    4
 10
3844.7952936074989
 20
-4806.0598130256822
 11
3994.7952936074989
 21
-4806.0598130256822
  0
INSERT
  2
-000-_Small
  8
_0-2_寸法
 10
3844.7952936074989
 20
-4806.0598130256822
 41
10
 42
10
 50
180
  0
INSERT
  2
-000-_Small
  8
_0-2_寸法
 10
3994.7952936074989
 20
-4806.0598130256822
 41
10
 42
10
 50
0
  0
TEXT
  8
_0-2_寸法
 62
    7
 10
3882.295293607498
 20
-4791.0598130256822
 40
50
 41
1
 50
0
  1
150
  0
POINT
  8
_0-1_Defpoints
 62
    7
 10
3844.7952936074989
 20
-4691.2737730256822
  0
POINT
  8
_0-1_Defpoints
 62
    7
 10
3994.7952936074989
 20
-4691.2737730256822
  0
POINT
  8
_0-1_Defpoints
 62
    7
 10
3994.7952936074989
 20
-4806.0598130256822
  0
ENDBLK
  0
BLOCK
  2
-002-_D4
 70
   64
 10
0
 20
0
 30
0
  0
LINE
  8
_0-2_寸法
  6
CONTINUOUS
 62
    4
 10
3994.7952936074989
 20
-4691.2737730256822
 11
3994.7952936074989
 21
-4806.0598130256822
  0
LINE
  8
_0-2_寸法
  6
CONTINUOUS
 62
    4
 10
4783.9962930555002
 20
-4691.2737730256822
 11
4783.9962930555002
 21
-4806.0598130256822
  0
LINE
  8
_0-2_寸法
  6
CONTINUOUS
 62
    4
 10
3994.7952936074989
 20
-4806.0598130256822
 11
4783.9962930555002
 21
-4806.0598130256822
  0
INSERT
  2
-000-_Small
  8
_0-2_寸法
 10
3994.7952936074989
 20
-4806.0598130256822
 41
10
 42
10
 50
180
  0
INSERT
  2
-000-_Small
  8
_0-2_寸法
 10
4783.9962930555002
 20
-4806.0598130256822
 41
10
 42
10
 50
0
  0
TEXT
  8
_0-2_寸法
 62
    7
 10
4301.8957933314987
 20
-4791.0598130256822
 40
50
 41
1
 50
0
  1
900以内
  0
POINT
  8
_0-1_Defpoints
 62
    7
 10
3994.7952936074989
 20
-4691.2737730256822
  0
POINT
  8
_0-1_Defpoints
 62
    7
 10
4783.9962930555002
 20
-4691.2737730256822
  0
POINT
  8
_0-1_Defpoints
 62
    7
 10
4783.9962930555002
 20
-4806.0598130256822
  0
ENDBLK
  0
BLOCK
  2
-003-_D5
 70
   64
 10
0
 20
0
 30
0
  0
LINE
  8
_0-2_寸法
  6
CONTINUOUS
 62
    4
 10
3844.7952936074989
 20
-5910.1010579310723
 11
3844.7952936074989
 21
-6009.887107931072
  0
LINE
  8
_0-2_寸法
  6
CONTINUOUS
 62
    4
 10
4044.795293607498
 20
-5910.1010579310723
 11
4044.795293607498
 21
-6009.887107931072
  0
LINE
  8
_0-2_寸法
  6
CONTINUOUS
 62
    4
 10
3844.7952936074989
 20
-6009.887107931072
 11
4044.795293607498
 21
-6009.887107931072
  0
INSERT
  2
-000-_Small
  8
_0-2_寸法
 10
3844.7952936074989
 20
-6009.887107931072
 41
10
 42
10
 50
180
  0
INSERT
  2
-000-_Small
  8
_0-2_寸法
 10
4044.795293607498
 20
-6009.887107931072
 41
10
 42
10
 50
0
  0
TEXT
  8
_0-2_寸法
 62
    7
 10
3907.295293607498
 20
-5994.887107931072
 40
50
 41
1
 50
0
  1
200
  0
POINT
  8
_0-1_Defpoints
 62
    7
 10
3844.7952936074989
 20
-5910.1010579310723
  0
POINT
  8
_0-1_Defpoints
 62
    7
 10
4044.795293607498
 20
-5910.1010579310723
  0
POINT
  8
_0-1_Defpoints
 62
    7
 10
4044.795293607498
 20
-6009.887107931072
  0
ENDBLK
  0
BLOCK
  2
-004-_D6
 70
   64
 10
0
 20
0
 30
0
  0
LINE
  8
_0-2_寸法
  6
CONTINUOUS
 62
    4
 10
4044.795293607498
 20
-5910.1010579310723
 11
4044.795293607498
 21
-6009.887107931072
  0
LINE
  8
_0-2_寸法
  6
CONTINUOUS
 62
    4
 10
4783.9962930555002
 20
-5910.0553278262814
 11
4783.9962930555002
 21
-6009.887107931072
  0
LINE
  8
_0-2_寸法
  6
CONTINUOUS
 62
    4
 10
4044.795293607498
 20
-6009.887107931072
 11
4783.9962930555002
 21
-6009.887107931072
  0
INSERT
  2
-000-_Small
  8
_0-2_寸法
 10
4044.795293607498
 20
-6009.887107931072
 41
10
 42
10
 50
180
  0
INSERT
  2
-000-_Small
  8
_0-2_寸法
 10
4783.9962930555002
 20
-6009.887107931072
 41
10
 42
10
 50
0
  0
TEXT
  8
_0-2_寸法
 62
    7
 10
4326.8957933314987
 20
-5994.887107931072
 40
50
 41
1
 50
0
  1
900以内
  0
POINT
  8
_0-1_Defpoints
 62
    7
 10
4044.795293607498
 20
-5910.1010579310723
  0
POINT
  8
_0-1_Defpoints
 62
    7
 10
4783.9962930555002
 20
-5910.0553278262814
  0
POINT
  8
_0-1_Defpoints
 62
    7
 10
4783.9962930555002
 20
-6009.887107931072
  0
ENDBLK
  0
BLOCK
  2
-005-_D7
 70
   64
 10
0
 20
0
 30
0
  0
LINE
  8
_0-2_寸法
  6
CONTINUOUS
 62
    4
 10
5669.9200236074976
 20
-4691.2737730256822
 11
5669.9200236074976
 21
-4806.0598130256822
  0
LINE
  8
_0-2_寸法
  6
CONTINUOUS
 62
    4
 10
5819.9200236074967
 20
-4691.2737730256822
 11
5819.9200236074967
 21
-4806.0598130256822
  0
LINE
  8
_0-2_寸法
  6
CONTINUOUS
 62
    4
 10
5669.9200236074976
 20
-4806.0598130256822
 11
5819.9200236074967
 21
-4806.0598130256822
  0
INSERT
  2
-000-_Small
  8
_0-2_寸法
 10
5669.9200236074976
 20
-4806.0598130256822
 41
10
 42
10
 50
180
  0
INSERT
  2
-000-_Small
  8
_0-2_寸法
 10
5819.9200236074967
 20
-4806.0598130256822
 41
10
 42
10
 50
0
  0
TEXT
  8
_0-2_寸法
 62
    7
 10
5707.4200236074976
 20
-4791.0598130256822
 40
50
 41
1
 50
0
  1
150
  0
POINT
  8
_0-1_Defpoints
 62
    7
 10
5669.9200236074976
 20
-4691.2737730256822
  0
POINT
  8
_0-1_Defpoints
 62
    7
 10
5819.9200236074967
 20
-4691.2737730256822
  0
POINT
  8
_0-1_Defpoints
 62
    7
 10
5819.9200236074967
 20
-4806.0598130256822
  0
ENDBLK
  0
BLOCK
  2
-006-_D8
 70
   64
 10
0
 20
0
 30
0
  0
LINE
  8
_0-2_寸法
  6
CONTINUOUS
 62
    4
 10
5819.9200236074967
 20
-4691.2737730256822
 11
5819.9200236074967
 21
-4806.0598130256822
  0
LINE
  8
_0-2_寸法
  6
CONTINUOUS
 62
    4
 10
6569.9200236074967
 20
-4691.2737730256822
 11
6569.9200236074967
 21
-4806.0598130256822
  0
LINE
  8
_0-2_寸法
  6
CONTINUOUS
 62
    4
 10
5819.9200236074967
 20
-4806.0598130256822
 11
6569.9200236074967
 21
-4806.0598130256822
  0
INSERT
  2
-000-_Small
  8
_0-2_寸法
 10
5819.9200236074967
 20
-4806.0598130256822
 41
10
 42
10
 50
180
  0
INSERT
  2
-000-_Small
  8
_0-2_寸法
 10
6569.9200236074967
 20
-4806.0598130256822
 41
10
 42
10
 50
0
  0
TEXT
  8
_0-2_寸法
 62
    7
 10
6107.4200236074967
 20
-4791.0598130256822
 40
50
 41
1
 50
0
  1
900以内
  0
POINT
  8
_0-1_Defpoints
 62
    7
 10
5819.9200236074967
 20
-4691.2737730256822
  0
POINT
  8
_0-1_Defpoints
 62
    7
 10
6569.9200236074967
 20
-4691.2737730256822
  0
POINT
  8
_0-1_Defpoints
 62
    7
 10
6569.9200236074967
 20
-4806.0598130256822
  0
ENDBLK
  0
BLOCK
  2
-007-_D9
 70
   64
 10
0
 20
0
 30
0
  0
LINE
  8
_0-2_寸法
  6
CONTINUOUS
 62
    4
 10
5129.2166030555009
 20
-4681.2737730256822
 11
5213.0338030555022
 21
-4681.2737730256822
  0
LINE
  8
_0-2_寸法
  6
CONTINUOUS
 62
    4
 10
5129.2166030555009
 20
-4214.2737730256822
 11
5213.0338030555022
 21
-4214.2737730256822
  0
LINE
  8
_0-2_寸法
  6
CONTINUOUS
 62
    4
 10
5213.0338030555022
 20
-4681.2737730256822
 11
5213.0338030555022
 21
-4214.2737730256822
  0
INSERT
  2
-000-_Small
  8
_0-2_寸法
 10
5213.0338030555022
 20
-4681.2737730256822
 41
10
 42
10
 50
270
  0
INSERT
  2
-000-_Small
  8
_0-2_寸法
 10
5213.0338030555022
 20
-4214.2737730256822
 41
10
 42
10
 50
90
  0
TEXT
  8
_0-2_寸法
 62
    7
 10
5198.0338030555031
 20
-4547.7737730256813
 40
50
 41
1
 50
90
  1
222～999
  0
POINT
  8
_0-1_Defpoints
 62
    7
 10
5129.2166030555009
 20
-4681.2737730256822
  0
POINT
  8
_0-1_Defpoints
 62
    7
 10
5129.2166030555009
 20
-4214.2737730256822
  0
POINT
  8
_0-1_Defpoints
 62
    7
 10
5213.0338030555022
 20
-4214.2737730256822
  0
ENDBLK
  0
BLOCK
  2
-008-_D10
 70
   64
 10
0
 20
0
 30
0
  0
LINE
  8
_0-2_寸法
  6
CONTINUOUS
 62
    4
 10
5129.2166030555009
 20
-4181.2737730256822
 11
5305.367175856346
 21
-4181.2737730256822
  0
LINE
  8
_0-2_寸法
  6
CONTINUOUS
 62
    4
 10
5129.2166030555009
 20
-4681.2737730256822
 11
5305.367175856346
 21
-4681.2737730256822
  0
LINE
  8
_0-2_寸法
  6
CONTINUOUS
 62
    4
 10
5305.367175856346
 20
-4181.2737730256822
 11
5305.367175856346
 21
-4681.2737730256822
  0
INSERT
  2
-000-_Small
  8
_0-2_寸法
 10
5305.367175856346
 20
-4181.2737730256822
 41
10
 42
10
 50
90
  0
INSERT
  2
-000-_Small
  8
_0-2_寸法
 10
5305.367175856346
 20
-4681.2737730256822
 41
10
 42
10
 50
270
  0
TEXT
  8
_0-2_寸法
 62
    7
 10
5290.3671758563469
 20
-4443.7737730256813
 40
50
 41
1
 50
90
  1
H
  0
POINT
  8
_0-1_Defpoints
 62
    7
 10
5129.2166030555009
 20
-4181.2737730256822
  0
POINT
  8
_0-1_Defpoints
 62
    7
 10
5129.2166030555009
 20
-4681.2737730256822
  0
POINT
  8
_0-1_Defpoints
 62
    7
 10
5305.367175856346
 20
-4681.2737730256822
  0
ENDBLK
  0
BLOCK
  2
-009-_D11
 70
   64
 10
0
 20
0
 30
0
  0
LINE
  8
_0-2_寸法
  6
CONTINUOUS
 62
    4
 10
6972.8436536074987
 20
-4681.2737730256822
 11
7056.6608536074964
 21
-4681.2737730256822
  0
LINE
  8
_0-2_寸法
  6
CONTINUOUS
 62
    4
 10
6972.8436536074987
 20
-4214.2737730256822
 11
7056.6608536074964
 21
-4214.2737730256822
  0
LINE
  8
_0-2_寸法
  6
CONTINUOUS
 62
    4
 10
7056.6608536074964
 20
-4681.2737730256822
 11
7056.6608536074964
 21
-4214.2737730256822
  0
INSERT
  2
-000-_Small
  8
_0-2_寸法
 10
7056.6608536074964
 20
-4681.2737730256822
 41
10
 42
10
 50
270
  0
INSERT
  2
-000-_Small
  8
_0-2_寸法
 10
7056.6608536074964
 20
-4214.2737730256822
 41
10
 42
10
 50
90
  0
TEXT
  8
_0-2_寸法
 62
    7
 10
7041.6608536074973
 20
-4547.7737730256804
 40
50
 41
1
 50
90
  1
222～999
  0
POINT
  8
_0-1_Defpoints
 62
    7
 10
6972.8436536074987
 20
-4681.2737730256822
  0
POINT
  8
_0-1_Defpoints
 62
    7
 10
6972.8436536074987
 20
-4214.2737730256822
  0
POINT
  8
_0-1_Defpoints
 62
    7
 10
7056.6608536074964
 20
-4214.2737730256822
  0
ENDBLK
  0
BLOCK
  2
-010-_D12
 70
   64
 10
0
 20
0
 30
0
  0
LINE
  8
_0-2_寸法
  6
CONTINUOUS
 62
    4
 10
6972.8436536074987
 20
-4181.2737730256822
 11
7146.3421769374872
 21
-4181.2737730256822
  0
LINE
  8
_0-2_寸法
  6
CONTINUOUS
 62
    4
 10
6972.8436536074987
 20
-4681.2737730256822
 11
7146.3421769374872
 21
-4681.2737730256822
  0
LINE
  8
_0-2_寸法
  6
CONTINUOUS
 62
    4
 10
7146.3421769374872
 20
-4181.2737730256822
 11
7146.3421769374872
 21
-4681.2737730256822
  0
INSERT
  2
-000-_Small
  8
_0-2_寸法
 10
7146.3421769374872
 20
-4181.2737730256822
 41
10
 42
10
 50
90
  0
INSERT
  2
-000-_Small
  8
_0-2_寸法
 10
7146.3421769374872
 20
-4681.2737730256822
 41
10
 42
10
 50
270
  0
TEXT
  8
_0-2_寸法
 62
    7
 10
7131.3421769374881
 20
-4443.7737730256804
 40
50
 41
1
 50
90
  1
H
  0
POINT
  8
_0-1_Defpoints
 62
    7
 10
6972.8436536074987
 20
-4181.2737730256822
  0
POINT
  8
_0-1_Defpoints
 62
    7
 10
6972.8436536074987
 20
-4681.2737730256822
  0
POINT
  8
_0-1_Defpoints
 62
    7
 10
7146.3421769374872
 20
-4681.2737730256822
  0
ENDBLK
  0
BLOCK
  2
-011-_D13
 70
   64
 10
0
 20
0
 30
0
  0
LINE
  8
_0-2_寸法
  6
CONTINUOUS
 62
    4
 10
5198.6544630555009
 20
-5896.7516930256834
 11
5282.4716730555019
 21
-5896.7516930256834
  0
LINE
  8
_0-2_寸法
  6
CONTINUOUS
 62
    4
 10
5198.6544630555009
 20
-5429.7516930256816
 11
5282.4716730555019
 21
-5429.7516930256816
  0
LINE
  8
_0-2_寸法
  6
CONTINUOUS
 62
    4
 10
5282.4716730555019
 20
-5896.7516930256834
 11
5282.4716730555019
 21
-5429.7516930256816
  0
INSERT
  2
-000-_Small
  8
_0-2_寸法
 10
5282.4716730555019
 20
-5896.7516930256834
 41
10
 42
10
 50
270
  0
INSERT
  2
-000-_Small
  8
_0-2_寸法
 10
5282.4716730555019
 20
-5429.7516930256816
 41
10
 42
10
 50
90
  0
TEXT
  8
_0-2_寸法
 62
    7
 10
5267.4716730555019
 20
-5763.2516930256807
 40
50
 41
1
 50
90
  1
222～999
  0
POINT
  8
_0-1_Defpoints
 62
    7
 10
5198.6544630555009
 20
-5896.7516930256834
  0
POINT
  8
_0-1_Defpoints
 62
    7
 10
5198.6544630555009
 20
-5429.7516930256816
  0
POINT
  8
_0-1_Defpoints
 62
    7
 10
5282.4716730555019
 20
-5429.7516930256816
  0
ENDBLK
  0
BLOCK
  2
-012-_D14
 70
   64
 10
0
 20
0
 30
0
  0
LINE
  8
_0-2_寸法
  6
CONTINUOUS
 62
    4
 10
5198.6544630555009
 20
-5896.7516930256834
 11
5387.080688013647
 21
-5896.7516930256834
  0
LINE
  8
_0-2_寸法
  6
CONTINUOUS
 62
    4
 10
5198.6544630555009
 20
-5396.7516930256834
 11
5387.080688013647
 21
-5396.7516930256834
  0
LINE
  8
_0-2_寸法
  6
CONTINUOUS
 62
    4
 10
5387.080688013647
 20
-5896.7516930256834
 11
5387.080688013647
 21
-5396.7516930256834
  0
INSERT
  2
-000-_Small
  8
_0-2_寸法
 10
5387.080688013647
 20
-5896.7516930256834
 41
10
 42
10
 50
270
  0
INSERT
  2
-000-_Small
  8
_0-2_寸法
 10
5387.080688013647
 20
-5396.7516930256834
 41
10
 42
10
 50
90
  0
TEXT
  8
_0-2_寸法
 62
    7
 10
5372.0806880136479
 20
-5659.2516930256807
 40
50
 41
1
 50
90
  1
H
  0
POINT
  8
_0-1_Defpoints
 62
    7
 10
5198.6544630555009
 20
-5896.7516930256834
  0
POINT
  8
_0-1_Defpoints
 62
    7
 10
5198.6544630555009
 20
-5396.7516930256834
  0
POINT
  8
_0-1_Defpoints
 62
    7
 10
5387.080688013647
 20
-5396.7516930256834
  0
ENDBLK
  0
BLOCK
  2
-013-_D15
 70
   64
 10
0
 20
0
 30
0
  0
LINE
  8
_0-2_寸法
  6
CONTINUOUS
 62
    4
 10
4333.9972930555014
 20
-5388.8329930256823
 11
4333.9972930555014
 21
-5265.4444487946248
  0
LINE
  8
_0-2_寸法
  6
CONTINUOUS
 62
    4
 10
4633.9972930555014
 20
-5387.830663025683
 11
4633.9972930555014
 21
-5265.4444487946248
  0
LINE
  8
_0-2_寸法
  6
CONTINUOUS
 62
    4
 10
4333.9972930555014
 20
-5265.4444487946248
 11
4633.9972930555014
 21
-5265.4444487946248
  0
INSERT
  2
-000-_Small
  8
_0-2_寸法
 10
4333.9972930555014
 20
-5265.4444487946248
 41
10
 42
10
 50
180
  0
INSERT
  2
-000-_Small
  8
_0-2_寸法
 10
4633.9972930555014
 20
-5265.4444487946248
 41
10
 42
10
 50
0
  0
TEXT
  8
_0-2_寸法
 62
    7
 10
4446.4972930555014
 20
-5250.4444487946239
 40
50
 41
1
 50
0
  1
300
  0
POINT
  8
_0-1_Defpoints
 62
    7
 10
4333.9972930555014
 20
-5388.8329930256823
  0
POINT
  8
_0-1_Defpoints
 62
    7
 10
4633.9972930555014
 20
-5387.830663025683
  0
POINT
  8
_0-1_Defpoints
 62
    7
 10
4633.9972930555014
 20
-5265.4444487946248
  0
ENDBLK
  0
BLOCK
  2
-014-_D16
 70
   64
 10
0
 20
0
 30
0
  0
LINE
  8
_0-2_寸法
  6
CONTINUOUS
 62
    4
 10
4633.9972930555014
 20
-5387.830663025683
 11
4633.9972930555014
 21
-5265.4444487946248
  0
LINE
  8
_0-2_寸法
  6
CONTINUOUS
 62
    4
 10
4933.9972930555014
 20
-5387.830663025683
 11
4933.9972930555014
 21
-5265.4444487946248
  0
LINE
  8
_0-2_寸法
  6
CONTINUOUS
 62
    4
 10
4633.9972930555014
 20
-5265.4444487946248
 11
4933.9972930555014
 21
-5265.4444487946248
  0
INSERT
  2
-000-_Small
  8
_0-2_寸法
 10
4633.9972930555014
 20
-5265.4444487946248
 41
10
 42
10
 50
180
  0
INSERT
  2
-000-_Small
  8
_0-2_寸法
 10
4933.9972930555014
 20
-5265.4444487946248
 41
10
 42
10
 50
0
  0
TEXT
  8
_0-2_寸法
 62
    7
 10
4746.4972930555014
 20
-5250.4444487946239
 40
50
 41
1
 50
0
  1
300
  0
POINT
  8
_0-1_Defpoints
 62
    7
 10
4633.9972930555014
 20
-5387.830663025683
  0
POINT
  8
_0-1_Defpoints
 62
    7
 10
4933.9972930555014
 20
-5387.830663025683
  0
POINT
  8
_0-1_Defpoints
 62
    7
 10
4933.9972930555014
 20
-5265.4444487946248
  0
ENDBLK
  0
BLOCK
  2
-015-_D17
 70
   64
 10
0
 20
0
 30
0
  0
LINE
  8
_0-2_寸法
  6
CONTINUOUS
 62
    4
 10
5869.9200236074976
 20
-4171.2737730256822
 11
5869.9200236074976
 21
-4077.5945863057959
  0
LINE
  8
_0-2_寸法
  6
CONTINUOUS
 62
    4
 10
6069.9200236074976
 20
-4171.3004230256829
 11
6069.9200236074976
 21
-4077.5945863057959
  0
LINE
  8
_0-2_寸法
  6
CONTINUOUS
 62
    4
 10
5869.9200236074976
 20
-4077.5945863057959
 11
6069.9200236074976
 21
-4077.5945863057959
  0
INSERT
  2
-000-_Small
  8
_0-2_寸法
 10
5869.9200236074976
 20
-4077.5945863057959
 41
10
 42
10
 50
180
  0
INSERT
  2
-000-_Small
  8
_0-2_寸法
 10
6069.9200236074976
 20
-4077.5945863057959
 41
10
 42
10
 50
0
  0
TEXT
  8
_0-2_寸法
 62
    7
 10
5932.4200236074994
 20
-4062.5945863057959
 40
50
 41
1
 50
0
  1
200
  0
POINT
  8
_0-1_Defpoints
 62
    7
 10
5869.9200236074976
 20
-4171.2737730256822
  0
POINT
  8
_0-1_Defpoints
 62
    7
 10
6069.9200236074976
 20
-4171.3004230256829
  0
POINT
  8
_0-1_Defpoints
 62
    7
 10
6069.9200236074976
 20
-4077.5945863057959
  0
ENDBLK
  0
ENDSEC
  0
SECTION
  2
ENTITIES
  0
TEXT
  8
_0-4_文字-記号
 62
    7
 10
1480.7085721508756
 20
2876.0047690467163
 40
59.999999999849997
 41
0.8
 50
0
  1
スリーベース２０１ＭＢ標準床組（武道場用高強度タイプ）
  0
TEXT
  8
_0-4_文字-記号
 62
    7
 10
1165.5406783271901
 20
1614.2314601269536
 40
45
 41
0.8
 50
0
  1
壁廻り納まり（根太方向）
  0
LINE
  8
_0-3_躯体と製品
  6
CONTINUOUS
 62
    3
 10
1051.836711164784
 20
630.13292162694415
 11
1004.3774511647839
 21
582.67365162694568
  0
LINE
  8
_0-3_躯体と製品
  6
CONTINUOUS
 62
    3
 10
1065.978851164783
 20
630.13292162694415
 11
1016.6181111647829
 21
580.77218162694498
  0
LINE
  8
_0-3_躯体と製品
  6
CONTINUOUS
 62
    4
 10
738.02040116478474
 20
1511.8222516269443
 11
738.02040116478474
 21
630.13292162694415
  0
LINE
  8
_0-3_躯体と製品
  6
CONTINUOUS
 62
    3
 10
738.02040116478474
 20
743.51779162694493
 11
676.41900116478382
 21
681.91640162694421
  0
LINE
  8
_0-3_躯体と製品
  6
CONTINUOUS
 62
    3
 10
676.41900116478382
 20
653.6321316269441
 11
738.02040116478474
 21
715.23352162694482
  0
LINE
  8
_0-3_躯体と製品
  6
CONTINUOUS
 62
    3
 10
676.41900116478382
 20
667.77426162694519
 11
738.02040116478474
 21
729.37566162694475
  0
LINE
  8
_0-3_躯体と製品
  6
CONTINUOUS
 62
    3
 10
738.02040116478474
 20
1014.5459616269445
 11
676.41900116478382
 21
952.94457162694562
  0
LINE
  8
_0-3_躯体と製品
  6
CONTINUOUS
 62
    3
 10
676.41900116478382
 20
924.6603016269446
 11
738.02040116478474
 21
986.26169162694441
  0
LINE
  8
_0-3_躯体と製品
  6
CONTINUOUS
 62
    3
 10
676.41900116478382
 20
938.80243162694478
 11
738.02040116478474
 21
1000.4038316269443
  0
LINE
  8
_0-3_躯体と製品
  6
CONTINUOUS
 62
    4
 10
775.52040116478474
 20
1055.1329216269442
 11
775.52040116478474
 21
1005.1329216269442
  0
LINE
  8
_0-3_躯体と製品
  6
CONTINUOUS
 62
    4
 10
775.52040116478474
 20
1112.132921626946
 11
775.52040116478474
 21
1097.132921626946
  0
LINE
  8
_0-3_躯体と製品
  6
CONTINUOUS
 62
    3
 10
738.02040116478474
 20
1342.4462816269452
 11
676.41900116478382
 21
1280.8448816269438
  0
LINE
  8
_0-3_躯体と製品
  6
CONTINUOUS
 62
    3
 10
676.41900116478382
 20
1252.5606116269455
 11
738.02040116478474
 21
1314.1620016269453
  0
LINE
  8
_0-3_躯体と製品
  6
CONTINUOUS
 62
    3
 10
676.41900116478382
 20
1266.7027416269457
 11
738.02040116478474
 21
1328.3041416269452
  0
LINE
  8
_0-3_躯体と製品
  6
CONTINUOUS
 62
    4
 10
2115.3564306127882
 20
630.13292162694415
 11
1212.5808206127867
 21
630.13292162694415
  0
LINE
  8
_0-3_躯体と製品
  6
CONTINUOUS
 62
    4
 10
1169.4131611647817
 20
630.13292162694415
 11
738.02040116478474
 21
630.13292162694415
  0
TEXT
  8
_0-4_文字-記号
 62
    7
 10
1154.6949583271889
 20
403.1944244741735
 40
45
 41
0.8
 50
0
  1
壁廻り納まり（大引方向）
  0
LINE
  8
_0-3_躯体と製品
  6
CONTINUOUS
 62
    3
 10
1032.6617211647836
 20
582.67365162694568
 11
1080.1209911647838
 21
630.13292162694415
  0
LINE
  8
_0-3_躯体と製品
  6
CONTINUOUS
 62
    3
 10
1476.3902206127877
 20
630.13292162694415
 11
1428.9309506127884
 21
582.67365162694568
  0
LINE
  8
_0-3_躯体と製品
  6
CONTINUOUS
 62
    3
 10
1457.2152206127857
 20
582.67365162694568
 11
1504.674490612786
 21
630.13292162694415
  0
LINE
  8
_0-3_躯体と製品
  6
CONTINUOUS
 62
    3
 10
1443.0730906127865
 20
582.67365162694568
 11
1490.5323506127879
 21
630.13292162694415
  0
LINE
  8
_0-3_躯体と製品
  6
CONTINUOUS
 62
    3
 10
1802.2193706127882
 20
582.67365162694568
 11
1849.6786306127869
 21
630.13292162694415
  0
LINE
  8
_0-3_躯体と製品
  6
CONTINUOUS
 62
    3
 10
1835.5365006127868
 20
630.13292162694415
 11
1786.1757606127876
 21
580.77218162694498
  0
LINE
  8
_0-3_躯体と製品
  6
CONTINUOUS
 62
    3
 10
1821.3943606127878
 20
630.13292162694415
 11
1773.9351006127872
 21
582.67365162694568
  0
LINE
  8
_0-3_躯体と製品
  6
CONTINUOUS
 62
    3
 10
982.66172116478401
 20
1798.1515816269457
 11
1030.1209911647838
 21
1845.6108416269453
  0
LINE
  8
_0-3_躯体と製品
  6
CONTINUOUS
 62
    4
 10
738.02040116478474
 20
1845.6108416269453
 11
1169.4131611647817
 21
1845.6108416269453
  0
TEXT
  8
_0-4_文字-記号
 62
    7
 10
1299.877542173037
 20
2020.2742179533579
 40
45
 41
0.8
 50
0
  1
支持脚２０１ＭＢ
  0
TEXT
  8
_0-4_文字-記号
 62
    7
 10
1027.518316552063
 20
2155.0647459753745
 40
45
 41
0.8
 50
0.0000100000010064
  1
大引鋼
  0
LINE
  8
_0-3_躯体と製品
  6
CONTINUOUS
 62
    4
 10
738.02040116478474
 20
2727.3001716269446
 11
738.02040116478474
 21
1845.6108416269453
  0
LINE
  8
_0-3_躯体と製品
  6
CONTINUOUS
 62
    3
 10
738.02040116478474
 20
1958.9957216269459
 11
676.41900116478382
 21
1897.3943216269454
  0
LINE
  8
_0-3_躯体と製品
  6
CONTINUOUS
 62
    3
 10
676.41900116478382
 20
1869.1100516269462
 11
738.02040116478474
 21
1930.7114516269448
  0
LINE
  8
_0-3_躯体と製品
  6
CONTINUOUS
 62
    3
 10
676.41900116478382
 20
1883.2521816269445
 11
738.02040116478474
 21
1944.8535816269459
  0
LINE
  8
_0-3_躯体と製品
  6
CONTINUOUS
 62
    3
 10
1001.836711164784
 20
1845.6108416269453
 11
954.377451164783
 21
1798.1515816269457
  0
LINE
  8
_0-3_躯体と製品
  6
CONTINUOUS
 62
    3
 10
968.51959116478383
 20
1798.1515816269457
 11
1015.9788511647839
 21
1845.6108416269453
  0
LINE
  8
_0-3_躯体と製品
  6
CONTINUOUS
 62
    3
 10
738.02040116478474
 20
2230.0238916269445
 11
676.41900116478382
 21
2168.422491626945
  0
LINE
  8
_0-3_躯体と製品
  6
CONTINUOUS
 62
    3
 10
676.41900116478382
 20
2140.1382216269458
 11
738.02040116478474
 21
2201.7396216269453
  0
LINE
  8
_0-3_躯体と製品
  6
CONTINUOUS
 62
    3
 10
676.41900116478382
 20
2154.280351626946
 11
738.02040116478474
 21
2215.8817516269446
  0
LINE
  8
_0-3_躯体と製品
  6
CONTINUOUS
 62
    4
 10
763.02040116478474
 20
2272.6108416269462
 11
763.02040116478474
 21
2327.6108416269453
  0
LINE
  8
_0-3_躯体と製品
  6
CONTINUOUS
 62
    3
 10
738.02040116478474
 20
2557.9242016269445
 11
676.41900116478382
 21
2496.3228016269454
  0
LINE
  8
_0-3_躯体と製品
  6
CONTINUOUS
 62
    3
 10
676.41900116478382
 20
2468.0385316269444
 11
738.02040116478474
 21
2529.6399316269453
  0
LINE
  8
_0-3_躯体と製品
  6
CONTINUOUS
 62
    3
 10
676.41900116478382
 20
2482.1806616269455
 11
738.02040116478474
 21
2543.7820616269446
  0
LINE
  8
_0-3_躯体と製品
  6
CONTINUOUS
 62
    4
 10
1227.5808206127876
 20
1845.6108416269453
 11
2048.1387906127875
 21
1845.6108416269453
  0
LINE
  8
_0-3_躯体と製品
  6
CONTINUOUS
 62
    3
 10
1381.0685806127876
 20
1845.6108416269453
 11
1333.6093206127871
 21
1798.1515816269457
  0
LINE
  8
_0-3_躯体と製品
  6
CONTINUOUS
 62
    3
 10
1361.8935906127854
 20
1798.1515816269457
 11
1409.3528506127868
 21
1845.6108416269453
  0
LINE
  8
_0-3_躯体と製品
  6
CONTINUOUS
 62
    3
 10
1347.7514506127882
 20
1798.1515816269457
 11
1395.2107106127878
 21
1845.6108416269453
  0
TEXT
  8
_0-4_文字-記号
 62
    7
 10
1433.0613283974999
 20
2443.3497221864354
 40
45
 41
0.8
 50
0
  1
捨　板
  0
LINE
  8
_0-3_躯体と製品
  6
CONTINUOUS
 62
    3
 10
1771.3943606127878
 20
1845.6108416269453
 11
1723.9351006127854
 21
1798.1515816269457
  0
LINE
  8
_0-3_躯体と製品
  6
CONTINUOUS
 62
    3
 10
1752.2193706127882
 20
1798.1515816269457
 11
1799.6786306127869
 21
1845.6108416269453
  0
LINE
  8
_0-3_躯体と製品
  6
CONTINUOUS
 62
    3
 10
1738.077240612788
 20
1798.1515816269457
 11
1785.5365006127868
 21
1845.6108416269453
  0
TEXT
  8
_0-4_文字-記号
 62
    7
 10
1452.530706555388
 20
2150.2912120211095
 40
45
 41
0.8
 50
0
  1
根太鋼
  0
TEXT
  8
_0-4_文字-記号
 62
    7
 10
1364.7902786164714
 20
2517.7490002683007
 40
45
 41
0.8
 50
0
  1
フローリング
  0
TEXT
  8
_0-4_文字-記号
 62
    7
 10
3063.3235411647838
 20
1627.7496762952806
 40
45
 41
0.8
 50
0
  1
床上換気口設置例
  0
TEXT
  8
_0-4_文字-記号
 62
    7
 10
3098.3922711647856
 20
2541.7106216269453
 40
45
 41
0.8
 50
0
  1
床上換気口（ベースピット）
  0
LINE
  8
_0-3_躯体と製品
  6
CONTINUOUS
 62
    4
 10
2563.1451311647834
 20
1845.6108416269453
 11
3886.7658411647835
 21
1845.6108416269453
  0
LINE
  8
_0-3_躯体と製品
  6
CONTINUOUS
 62
    4
 10
3000.6451311647834
 20
2552.6627816269447
 11
3000.6451311647834
 21
2727.3001716269446
  0
LINE
  8
_0-3_躯体と製品
  6
CONTINUOUS
 62
    4
 10
2800.6451311647834
 20
2727.3001716269446
 11
2800.6451311647834
 21
2552.6627816269447
  0
LINE
  8
_0-3_躯体と製品
  6
CONTINUOUS
 62
    4
 10
3021.0020211647852
 20
2532.6627816269447
 11
3021.0020211647852
 21
2727.3001716269446
  0
LINE
  8
_0-3_躯体と製品
  6
CONTINUOUS
 62
    4
 10
2781.0020211647852
 20
2727.3001716269446
 11
2781.0020211647852
 21
2532.6627816269447
  0
TEXT
  8
_0-4_文字-記号
 62
    7
 10
3087.7747474110274
 20
2438.7750437522645
 40
45
 41
0.8
 50
0
  1
ＥＸＰゴム
  0
LINE
  8
_0-3_躯体と製品
  6
CONTINUOUS
 62
    3
 10
2588.1451311647852
 20
2442.4431016269446
 11
2563.1451311647834
 21
2495.6108416269435
  0
LINE
  8
_0-3_躯体と製品
  6
CONTINUOUS
 62
    4
 10
2563.1451311647834
 20
2727.3001716269446
 11
2563.1451311647834
 21
1845.6108416269453
  0
LINE
  8
_0-3_躯体と製品
  6
CONTINUOUS
 62
    3
 10
2807.7864511647858
 20
1798.1515816269457
 11
2855.2457211647834
 21
1845.6108416269453
  0
LINE
  8
_0-3_躯体と製品
  6
CONTINUOUS
 62
    3
 10
2563.1451311647834
 20
1958.9957216269459
 11
2501.5437311647847
 21
1897.3943216269454
  0
LINE
  8
_0-3_躯体と製品
  6
CONTINUOUS
 62
    3
 10
2501.5437311647847
 20
1869.1100516269462
 11
2563.1451311647834
 21
1930.7114516269448
  0
LINE
  8
_0-3_躯体と製品
  6
CONTINUOUS
 62
    3
 10
2501.5437311647847
 20
1883.2521816269445
 11
2563.1451311647834
 21
1944.8535816269459
  0
LINE
  8
_0-3_躯体と製品
  6
CONTINUOUS
 62
    3
 10
2826.9614511647851
 20
1845.6108416269453
 11
2779.5021811647839
 21
1798.1515816269457
  0
LINE
  8
_0-3_躯体と製品
  6
CONTINUOUS
 62
    3
 10
2793.6443211647847
 20
1798.1515816269457
 11
2841.1035811647826
 21
1845.6108416269453
  0
LINE
  8
_0-3_躯体と製品
  6
CONTINUOUS
 62
    3
 10
2563.1451311647834
 20
2230.0238916269445
 11
2501.5437311647847
 21
2168.422491626945
  0
LINE
  8
_0-3_躯体と製品
  6
CONTINUOUS
 62
    3
 10
2501.5437311647847
 20
2140.1382216269458
 11
2563.1451311647834
 21
2201.7396216269453
  0
LINE
  8
_0-3_躯体と製品
  6
CONTINUOUS
 62
    3
 10
2501.5437311647847
 20
2154.280351626946
 11
2563.1451311647834
 21
2215.8817516269446
  0
LINE
  8
_0-3_躯体と製品
  6
CONTINUOUS
 62
    4
 10
2588.1451311647852
 20
2272.6108416269453
 11
2588.1451311647852
 21
2327.6108416269453
  0
LINE
  8
_0-3_躯体と製品
  6
CONTINUOUS
 62
    3
 10
2563.1451311647834
 20
2422.4431016269455
 11
2588.1451311647852
 21
2369.0997916269453
  0
LINE
  8
_0-3_躯体と製品
  6
CONTINUOUS
 62
    3
 10
2563.1451311647834
 20
2369.0997916269453
 11
2588.1451311647852
 21
2369.0997916269453
  0
LINE
  8
_0-3_躯体と製品
  6
CONTINUOUS
 62
    3
 10
2563.1451311647834
 20
2422.4431016269455
 11
2588.1451311647852
 21
2422.4431016269455
  0
LINE
  8
_0-3_躯体と製品
  6
CONTINUOUS
 62
    3
 10
2563.1451311647834
 20
2442.4431016269446
 11
2588.1451311647852
 21
2442.4431016269446
  0
LINE
  8
_0-3_躯体と製品
  6
CONTINUOUS
 62
    3
 10
3175.0762511647836
 20
1845.6108416269453
 11
3127.6169911647839
 21
1798.1515816269457
  0
LINE
  8
_0-3_躯体と製品
  6
CONTINUOUS
 62
    3
 10
3141.7591311647848
 20
1798.1515816269457
 11
3189.2183911647826
 21
1845.6108416269453
  0
LINE
  8
_0-3_躯体と製品
  6
CONTINUOUS
 62
    3
 10
3155.901261164785
 20
1798.1515816269457
 11
3203.3605311647852
 21
1845.6108416269453
  0
LINE
  8
_0-3_躯体と製品
  6
CONTINUOUS
 62
    4
 10
2980.6451311647834
 20
2342.6108416269453
 11
2901.6451311647852
 21
2342.6108416269453
  0
LINE
  8
_0-3_躯体と製品
  6
CONTINUOUS
 62
    4
 10
2800.6451311647834
 20
2552.6627816269447
 11
3000.6451311647834
 21
2552.6627816269447
  0
LINE
  8
_0-3_躯体と製品
  6
CONTINUOUS
 62
    4
 10
2781.0020211647852
 20
2532.6627816269447
 11
3021.0020211647852
 21
2532.6627816269447
  0
LINE
  8
_0-3_躯体と製品
  6
CONTINUOUS
 62
    4
 10
2817.6454311647867
 20
2342.6108416269453
 11
2803.6451311647861
 21
2342.6108416269453
  0
LINE
  8
_0-3_躯体と製品
  6
CONTINUOUS
 62
    4
 10
2803.6451311647861
 20
2333.1108416269462
 11
2817.6454311647867
 21
2333.1108416269462
  0
LINE
  8
_0-3_躯体と製品
  6
CONTINUOUS
 62
    4
 10
2800.6451311647834
 20
2331.1108416269453
 11
2820.6454311647858
 21
2331.1108416269453
  0
LINE
  8
_0-3_躯体と製品
  6
CONTINUOUS
 62
    6
 10
2780.6451311647852
 20
2342.545831626946
 11
2783.7101311647857
 21
2345.6108416269453
  0
LINE
  8
_0-3_躯体と製品
  6
CONTINUOUS
 62
    6
 10
2780.6451311647852
 20
2335.4747716269458
 11
2790.7812011647857
 21
2345.6108416269453
  0
LINE
  8
_0-3_躯体と製品
  6
CONTINUOUS
 62
    6
 10
2793.9944024718516
 20
2327.6108416269462
 11
2800.6451311647834
 21
2334.2615616269459
  0
LINE
  8
_0-3_躯体と製品
  6
CONTINUOUS
 62
    6
 10
2786.9233411647856
 20
2327.6108416269462
 11
2800.6451311647834
 21
2341.3326316269431
  0
LINE
  8
_0-3_躯体と製品
  6
CONTINUOUS
 62
    6
 10
2780.6451311647852
 20
2328.4037016269458
 11
2797.8522711647847
 21
2345.6108416269453
  0
LINE
  8
_0-3_躯体と製品
  6
CONTINUOUS
 62
    4
 10
2803.6451311647861
 20
2342.6108416269453
 11
2803.6451311647861
 21
2333.1108416269462
  0
LINE
  8
_0-3_躯体と製品
  6
CONTINUOUS
 62
    4
 10
2800.6451311647852
 20
2327.6108416269462
 11
2780.6451311647852
 21
2327.6108416269462
  0
LINE
  8
_0-3_躯体と製品
  6
CONTINUOUS
 62
    4
 10
2800.6451311647834
 20
2345.6108416269453
 11
2800.6451311647852
 21
2327.6108416269462
  0
LINE
  8
_0-3_躯体と製品
  6
CONTINUOUS
 62
    4
 10
2780.6451311647852
 20
2327.6108416269462
 11
2780.6451311647852
 21
2345.6108416269453
  0
LINE
  8
_0-3_躯体と製品
  6
CONTINUOUS
 62
    4
 10
2820.6454311647858
 20
2342.6108416269453
 11
2899.6451311647852
 21
2342.6108416269453
  0
LINE
  8
_0-3_躯体と製品
  6
CONTINUOUS
 62
    4
 10
2820.6454311647858
 20
2339.1108416269453
 11
2820.6454311647858
 21
2342.6108416269453
  0
LINE
  8
_0-3_躯体と製品
  6
CONTINUOUS
 62
    4
 10
2820.6454311647858
 20
2331.1108416269453
 11
2820.6454311647858
 21
2337.6108416269444
  0
LINE
  8
_0-3_躯体と製品
  6
CONTINUOUS
 62
    4
 10
2817.6454311647867
 20
2333.1108416269462
 11
2817.6454311647867
 21
2342.6108416269453
  0
LINE
  8
_0-3_躯体と製品
  6
CONTINUOUS
 62
    4
 10
2823.6454311647849
 20
2337.6108416269444
 11
2820.6454311647858
 21
2337.6108416269444
  0
LINE
  8
_0-3_躯体と製品
  6
CONTINUOUS
 62
    4
 10
2823.6454311647849
 20
2339.1108416269453
 11
2823.6454311647849
 21
2337.6108416269444
  0
LINE
  8
_0-3_躯体と製品
  6
CONTINUOUS
 62
    4
 10
2820.6454311647858
 20
2339.1108416269453
 11
2823.6454311647849
 21
2339.1108416269453
  0
LINE
  8
_0-3_躯体と製品
  6
CONTINUOUS
 62
    4
 10
2820.6454311647858
 20
2312.6108416269462
 11
2820.6454311647858
 21
2331.1108416269453
  0
LINE
  8
_0-3_躯体と製品
  6
CONTINUOUS
 62
    4
 10
2899.6451311647852
 20
2330.6108416269444
 11
2896.6451311647852
 21
2330.6108416269444
  0
LINE
  8
_0-3_躯体と製品
  6
CONTINUOUS
 62
    4
 10
2901.6451311647852
 20
2330.6108416269444
 11
2904.6451311647852
 21
2330.6108416269444
  0
LINE
  8
_0-3_躯体と製品
  6
CONTINUOUS
 62
    4
 10
2896.6451311647852
 20
2330.6108416269444
 11
2896.6451311647852
 21
2328.6108416269453
  0
LINE
  8
_0-3_躯体と製品
  6
CONTINUOUS
 62
    4
 10
2904.6451311647852
 20
2330.6108416269444
 11
2904.6451311647852
 21
2328.6108416269453
  0
LINE
  8
_0-3_躯体と製品
  6
CONTINUOUS
 62
    4
 10
2901.6451311647852
 20
2342.6108416269453
 11
2901.6451311647852
 21
2340.1108416269444
  0
LINE
  8
_0-3_躯体と製品
  6
CONTINUOUS
 62
    4
 10
2901.6451311647852
 20
2340.1108416269444
 11
2904.6451311647852
 21
2340.1108416269444
  0
LINE
  8
_0-3_躯体と製品
  6
CONTINUOUS
 62
    4
 10
2899.6451311647852
 20
2342.6108416269453
 11
2899.6451311647852
 21
2340.1108416269444
  0
LINE
  8
_0-3_躯体と製品
  6
CONTINUOUS
 62
    4
 10
2899.6451311647852
 20
2340.1108416269444
 11
2896.6451311647852
 21
2340.1108416269444
  0
LINE
  8
_0-3_躯体と製品
  6
CONTINUOUS
 62
    4
 10
2896.6451311647852
 20
2338.1108416269453
 11
2899.6451311647852
 21
2338.1108416269453
  0
LINE
  8
_0-3_躯体と製品
  6
CONTINUOUS
 62
    4
 10
2899.6451311647852
 20
2338.1108416269453
 11
2899.6451311647852
 21
2330.6108416269444
  0
LINE
  8
_0-3_躯体と製品
  6
CONTINUOUS
 62
    4
 10
2901.6451311647852
 20
2330.6108416269444
 11
2901.6451311647852
 21
2338.1108416269453
  0
LINE
  8
_0-3_躯体と製品
  6
CONTINUOUS
 62
    4
 10
2901.6451311647852
 20
2338.1108416269453
 11
2904.6451311647852
 21
2338.1108416269453
  0
LINE
  8
_0-3_躯体と製品
  6
CONTINUOUS
 62
    4
 10
2896.6451311647852
 20
2328.6108416269453
 11
2904.6451311647852
 21
2328.6108416269453
  0
LINE
  8
_0-3_躯体と製品
  6
CONTINUOUS
 62
    4
 10
2896.6451311647852
 20
2340.1108416269444
 11
2896.6451311647852
 21
2338.1108416269453
  0
LINE
  8
_0-3_躯体と製品
  6
CONTINUOUS
 62
    4
 10
2904.6451311647852
 20
2340.1108416269444
 11
2904.6451311647852
 21
2338.1108416269453
  0
LINE
  8
_0-3_躯体と製品
  6
CONTINUOUS
 62
    4
 10
3000.6451311647834
 20
2331.1108416269453
 11
2980.6448311647855
 21
2331.1108416269453
  0
LINE
  8
_0-3_躯体と製品
  6
CONTINUOUS
 62
    4
 10
2997.6451311647852
 20
2342.6108416269453
 11
2997.6451311647852
 21
2333.1108416269462
  0
LINE
  8
_0-3_躯体と製品
  6
CONTINUOUS
 62
    4
 10
2983.6448311647846
 20
2342.6108416269453
 11
2997.6451311647852
 21
2342.6108416269453
  0
LINE
  8
_0-3_躯体と製品
  6
CONTINUOUS
 62
    4
 10
2983.6448311647846
 20
2333.1108416269462
 11
2983.6448311647846
 21
2342.6108416269453
  0
LINE
  8
_0-3_躯体と製品
  6
CONTINUOUS
 62
    4
 10
2997.6451311647852
 20
2333.1108416269462
 11
2983.6448311647846
 21
2333.1108416269462
  0
LINE
  8
_0-3_躯体と製品
  6
CONTINUOUS
 62
    4
 10
2977.6448311647855
 20
2337.6108416269444
 11
2980.6448311647855
 21
2337.6108416269444
  0
LINE
  8
_0-3_躯体と製品
  6
CONTINUOUS
 62
    4
 10
2977.6448311647855
 20
2339.1108416269453
 11
2977.6448311647855
 21
2337.6108416269444
  0
LINE
  8
_0-3_躯体と製品
  6
CONTINUOUS
 62
    4
 10
2980.6448311647855
 20
2339.1108416269453
 11
2977.6448311647855
 21
2339.1108416269453
  0
LINE
  8
_0-3_躯体と製品
  6
CONTINUOUS
 62
    4
 10
2980.6448311647855
 20
2339.1108416269453
 11
2980.6448311647855
 21
2342.6108416269453
  0
LINE
  8
_0-3_躯体と製品
  6
CONTINUOUS
 62
    4
 10
2980.6448311647855
 20
2331.1108416269453
 11
2980.6448311647855
 21
2337.6108416269444
  0
LINE
  8
_0-3_躯体と製品
  6
CONTINUOUS
 62
    4
 10
2980.6448311647855
 20
2312.6108416269462
 11
2980.6448311647855
 21
2331.1108416269453
  0
LINE
  8
_0-3_躯体と製品
  6
CONTINUOUS
 62
    6
 10
3013.9944024718516
 20
2327.6108416269453
 11
3020.6451311647852
 21
2334.2615616269459
  0
LINE
  8
_0-3_躯体と製品
  6
CONTINUOUS
 62
    6
 10
3006.9233411647856
 20
2327.6108416269462
 11
3020.6451311647852
 21
2341.3326316269431
  0
LINE
  8
_0-3_躯体と製品
  6
CONTINUOUS
 62
    6
 10
3000.6451311647834
 20
2342.545831626946
 11
3003.7101311647857
 21
2345.6108416269453
  0
LINE
  8
_0-3_躯体と製品
  6
CONTINUOUS
 62
    6
 10
3000.6451311647834
 20
2335.4747716269458
 11
3010.7812011647857
 21
2345.6108416269453
  0
LINE
  8
_0-3_躯体と製品
  6
CONTINUOUS
 62
    6
 10
3000.6451311647834
 20
2328.4037016269458
 11
3017.8522711647847
 21
2345.6108416269453
  0
LINE
  8
_0-3_躯体と製品
  6
CONTINUOUS
 62
    4
 10
3000.6451311647852
 20
2327.6108416269462
 11
3020.6451311647852
 21
2327.6108416269462
  0
LINE
  8
_0-3_躯体と製品
  6
CONTINUOUS
 62
    4
 10
3000.6451311647834
 20
2345.6108416269453
 11
3000.6451311647852
 21
2327.6108416269462
  0
LINE
  8
_0-3_躯体と製品
  6
CONTINUOUS
 62
    4
 10
3020.6451311647852
 20
2327.6108416269462
 11
3020.6451311647852
 21
2345.6108416269453
  0
LINE
  8
_0-3_躯体と製品
  6
CONTINUOUS
 62
    3
 10
2563.1451311647834
 20
2557.9242016269445
 11
2501.5437311647847
 21
2496.3228016269454
  0
LINE
  8
_0-3_躯体と製品
  6
CONTINUOUS
 62
    3
 10
2501.5437311647847
 20
2468.0385316269444
 11
2563.1451311647834
 21
2529.6399316269453
  0
LINE
  8
_0-3_躯体と製品
  6
CONTINUOUS
 62
    3
 10
2501.5437311647847
 20
2482.1806616269455
 11
2563.1451311647834
 21
2543.7820616269446
  0
LINE
  8
_0-3_躯体と製品
  6
CONTINUOUS
 62
    3
 10
2588.1451311647852
 20
2727.3001716269446
 11
2588.1451311647852
 21
2468.3624116269443
  0
LINE
  8
_0-3_躯体と製品
  6
CONTINUOUS
 62
    3
 10
2563.1451311647834
 20
2495.6108416269435
 11
2588.1451311647852
 21
2495.6108416269435
  0
LINE
  8
_0-3_躯体と製品
  6
CONTINUOUS
 62
    3
 10
2947.1451311647861
 20
2585.4127816269433
 11
2969.6451311647861
 21
2585.4127816269433
  0
LINE
  8
_0-3_躯体と製品
  6
CONTINUOUS
 62
    3
 10
2969.6451311647861
 20
2579.9127816269447
 11
2947.1451311647861
 21
2579.9127816269447
  0
LINE
  8
_0-3_躯体と製品
  6
CONTINUOUS
 62
    3
 10
2947.1451311647861
 20
2599.4127816269447
 11
2969.6451311647861
 21
2599.4127816269447
  0
LINE
  8
_0-3_躯体と製品
  6
CONTINUOUS
 62
    3
 10
2969.6451311647861
 20
2593.9127816269447
 11
2947.1451311647861
 21
2593.9127816269447
  0
LINE
  8
_0-3_躯体と製品
  6
CONTINUOUS
 62
    3
 10
2947.1451311647861
 20
2613.4127816269424
 11
2969.6451311647861
 21
2613.4127816269424
  0
LINE
  8
_0-3_躯体と製品
  6
CONTINUOUS
 62
    3
 10
2969.6451311647861
 20
2607.9127816269433
 11
2947.1451311647861
 21
2607.9127816269433
  0
LINE
  8
_0-3_躯体と製品
  6
CONTINUOUS
 62
    3
 10
2947.1451311647861
 20
2627.4127816269447
 11
2969.6451311647861
 21
2627.4127816269447
  0
LINE
  8
_0-3_躯体と製品
  6
CONTINUOUS
 62
    3
 10
2969.6451311647861
 20
2621.9127816269447
 11
2947.1451311647861
 21
2621.9127816269447
  0
LINE
  8
_0-3_躯体と製品
  6
CONTINUOUS
 62
    3
 10
2947.1451311647861
 20
2641.4127816269433
 11
2969.6451311647861
 21
2641.4127816269433
  0
LINE
  8
_0-3_躯体と製品
  6
CONTINUOUS
 62
    3
 10
2969.6451311647861
 20
2635.9127816269433
 11
2947.1451311647861
 21
2635.9127816269433
  0
LINE
  8
_0-3_躯体と製品
  6
CONTINUOUS
 62
    3
 10
2947.1451311647861
 20
2655.4127816269433
 11
2969.6451311647861
 21
2655.4127816269433
  0
LINE
  8
_0-3_躯体と製品
  6
CONTINUOUS
 62
    3
 10
2969.6451311647861
 20
2649.9127816269433
 11
2947.1451311647861
 21
2649.9127816269433
  0
LINE
  8
_0-3_躯体と製品
  6
CONTINUOUS
 62
    3
 10
2947.1451311647861
 20
2669.4127816269447
 11
2969.6451311647861
 21
2669.4127816269447
  0
LINE
  8
_0-3_躯体と製品
  6
CONTINUOUS
 62
    3
 10
2969.6451311647861
 20
2663.9127816269433
 11
2947.1451311647861
 21
2663.9127816269433
  0
LINE
  8
_0-3_躯体と製品
  6
CONTINUOUS
 62
    3
 10
2947.1451311647861
 20
2683.4127816269433
 11
2969.6451311647861
 21
2683.4127816269433
  0
LINE
  8
_0-3_躯体と製品
  6
CONTINUOUS
 62
    3
 10
2969.6451311647861
 20
2677.9127816269433
 11
2947.1451311647861
 21
2677.9127816269433
  0
LINE
  8
_0-3_躯体と製品
  6
CONTINUOUS
 62
    3
 10
2947.1451311647861
 20
2697.4127816269433
 11
2969.6451311647861
 21
2697.4127816269433
  0
LINE
  8
_0-3_躯体と製品
  6
CONTINUOUS
 62
    3
 10
2969.6451311647861
 20
2691.9127816269447
 11
2947.1451311647861
 21
2691.9127816269447
  0
LINE
  8
_0-3_躯体と製品
  6
CONTINUOUS
 62
    3
 10
2947.1451311647861
 20
2711.4127816269433
 11
2969.6451311647861
 21
2711.4127816269433
  0
LINE
  8
_0-3_躯体と製品
  6
CONTINUOUS
 62
    3
 10
2969.6451311647861
 20
2705.9127816269433
 11
2947.1451311647861
 21
2705.9127816269433
  0
CIRCLE
  8
_0-3_躯体と製品
  6
CONTINUOUS
 62
    3
 10
2810.6451311647852
 20
2582.6627816269433
 40
3
  0
LINE
  8
_0-3_躯体と製品
  6
CONTINUOUS
 62
    3
 10
2866.1451311647861
 20
2585.4127816269433
 11
2888.6451311647861
 21
2585.4127816269433
  0
LINE
  8
_0-3_躯体と製品
  6
CONTINUOUS
 62
    3
 10
2888.6451311647861
 20
2579.9127816269447
 11
2866.1451311647861
 21
2579.9127816269447
  0
LINE
  8
_0-3_躯体と製品
  6
CONTINUOUS
 62
    3
 10
2866.1451311647861
 20
2599.4127816269447
 11
2888.6451311647861
 21
2599.4127816269447
  0
LINE
  8
_0-3_躯体と製品
  6
CONTINUOUS
 62
    3
 10
2888.6451311647861
 20
2593.9127816269447
 11
2866.1451311647861
 21
2593.9127816269447
  0
LINE
  8
_0-3_躯体と製品
  6
CONTINUOUS
 62
    3
 10
2866.1451311647861
 20
2613.4127816269424
 11
2888.6451311647861
 21
2613.4127816269424
  0
LINE
  8
_0-3_躯体と製品
  6
CONTINUOUS
 62
    3
 10
2888.6451311647861
 20
2607.9127816269433
 11
2866.1451311647861
 21
2607.9127816269433
  0
LINE
  8
_0-3_躯体と製品
  6
CONTINUOUS
 62
    3
 10
2866.1451311647861
 20
2627.4127816269447
 11
2888.6451311647861
 21
2627.4127816269447
  0
LINE
  8
_0-3_躯体と製品
  6
CONTINUOUS
 62
    3
 10
2888.6451311647861
 20
2621.9127816269447
 11
2866.1451311647861
 21
2621.9127816269447
  0
LINE
  8
_0-3_躯体と製品
  6
CONTINUOUS
 62
    3
 10
2866.1451311647861
 20
2641.4127816269433
 11
2888.6451311647861
 21
2641.4127816269433
  0
LINE
  8
_0-3_躯体と製品
  6
CONTINUOUS
 62
    3
 10
2888.6451311647861
 20
2635.9127816269433
 11
2866.1451311647861
 21
2635.9127816269433
  0
LINE
  8
_0-3_躯体と製品
  6
CONTINUOUS
 62
    3
 10
2866.1451311647861
 20
2655.4127816269433
 11
2888.6451311647861
 21
2655.4127816269433
  0
LINE
  8
_0-3_躯体と製品
  6
CONTINUOUS
 62
    3
 10
2888.6451311647861
 20
2649.9127816269433
 11
2866.1451311647861
 21
2649.9127816269433
  0
LINE
  8
_0-3_躯体と製品
  6
CONTINUOUS
 62
    3
 10
2854.1451311647861
 20
2585.4127816269433
 11
2831.6451311647861
 21
2585.4127816269433
  0
LINE
  8
_0-3_躯体と製品
  6
CONTINUOUS
 62
    3
 10
2831.6451311647861
 20
2579.9127816269447
 11
2854.1451311647861
 21
2579.9127816269447
  0
LINE
  8
_0-3_躯体と製品
  6
CONTINUOUS
 62
    3
 10
2854.1451311647861
 20
2599.4127816269447
 11
2831.6451311647861
 21
2599.4127816269447
  0
LINE
  8
_0-3_躯体と製品
  6
CONTINUOUS
 62
    3
 10
2831.6451311647861
 20
2593.9127816269447
 11
2854.1451311647861
 21
2593.9127816269447
  0
ARC
  8
_0-3_躯体と製品
  6
CONTINUOUS
 62
    3
 10
2831.6451311647852
 20
2582.4127816269447
 40
2.4999999999997726
 50
180.00000000002606
 51
270.00000000002603
  0
LINE
  8
_0-3_躯体と製品
  6
CONTINUOUS
 62
    3
 10
2829.1451311647852
 20
2582.9127816269433
 11
2829.1451311647852
 21
2582.4127816269433
  0
ARC
  8
_0-3_躯体と製品
  6
CONTINUOUS
 62
    3
 10
2831.6451311647857
 20
2582.9127816269429
 40
2.5000000000004547
 50
89.999999999989569
 51
179.99999999998957
  0
ARC
  8
_0-3_躯体と製品
  6
CONTINUOUS
 62
    3
 10
2831.6451311647857
 20
2596.4127816269452
 40
2.5000000000004547
 50
180.00000000001043
 51
270.00000000001046
  0
LINE
  8
_0-3_躯体と製品
  6
CONTINUOUS
 62
    3
 10
2829.1451311647852
 20
2596.9127816269447
 11
2829.1451311647852
 21
2596.4127816269447
  0
ARC
  8
_0-3_躯体と製品
  6
CONTINUOUS
 62
    3
 10
2831.6451311647857
 20
2596.9127816269443
 40
2.5000000000004547
 50
89.999999999989569
 51
179.99999999998957
  0
ARC
  8
_0-3_躯体と製品
  6
CONTINUOUS
 62
    3
 10
2866.1451311647866
 20
2582.9127816269438
 40
2.4999999999995453
 50
90.000000000010431
 51
180.00000000001043
  0
LINE
  8
_0-3_躯体と製品
  6
CONTINUOUS
 62
    3
 10
2863.645131164787
 20
2582.4127816269433
 11
2863.645131164787
 21
2582.9127816269433
  0
ARC
  8
_0-3_躯体と製品
  6
CONTINUOUS
 62
    3
 10
2866.1451311647861
 20
2582.4127816269438
 40
2.4999999999988631
 50
180.00000000000523
 51
270.00000000000523
  0
ARC
  8
_0-3_躯体と製品
  6
CONTINUOUS
 62
    3
 10
2854.1451311647857
 20
2582.9127816269438
 40
2.4999999999995453
 50
359.9999999999896
 51
89.999999999989598
  0
LINE
  8
_0-3_躯体と製品
  6
CONTINUOUS
 62
    3
 10
2856.6451311647852
 20
2582.4127816269433
 11
2856.6451311647852
 21
2582.9127816269433
  0
ARC
  8
_0-3_躯体と製品
  6
CONTINUOUS
 62
    3
 10
2854.1451311647861
 20
2582.4127816269438
 40
2.4999999999988631
 50
269.99999999999477
 51
359.99999999999483
  0
ARC
  8
_0-3_躯体と製品
  6
CONTINUOUS
 62
    3
 10
2866.1451311647866
 20
2596.9127816269452
 40
2.4999999999995453
 50
90.000000000010431
 51
180.00000000001043
  0
LINE
  8
_0-3_躯体と製品
  6
CONTINUOUS
 62
    3
 10
2863.645131164787
 20
2596.4127816269447
 11
2863.645131164787
 21
2596.9127816269447
  0
ARC
  8
_0-3_躯体と製品
  6
CONTINUOUS
 62
    3
 10
2866.1451311647866
 20
2596.4127816269443
 40
2.4999999999995453
 50
179.99999999998957
 51
269.99999999998954
  0
ARC
  8
_0-3_躯体と製品
  6
CONTINUOUS
 62
    3
 10
2854.1451311647857
 20
2596.9127816269452
 40
2.4999999999995453
 50
359.9999999999896
 51
89.999999999989598
  0
LINE
  8
_0-3_躯体と製品
  6
CONTINUOUS
 62
    3
 10
2856.6451311647852
 20
2596.4127816269447
 11
2856.6451311647852
 21
2596.9127816269447
  0
ARC
  8
_0-3_躯体と製品
  6
CONTINUOUS
 62
    3
 10
2854.1451311647857
 20
2596.4127816269443
 40
2.4999999999995453
 50
270.0000000000104
 51
0.0000000000104322
  0
LINE
  8
_0-3_躯体と製品
  6
CONTINUOUS
 62
    3
 10
2854.1451311647861
 20
2613.4127816269424
 11
2831.6451311647861
 21
2613.4127816269424
  0
LINE
  8
_0-3_躯体と製品
  6
CONTINUOUS
 62
    3
 10
2831.6451311647861
 20
2607.9127816269433
 11
2854.1451311647861
 21
2607.9127816269433
  0
LINE
  8
_0-3_躯体と製品
  6
CONTINUOUS
 62
    3
 10
2854.1451311647861
 20
2627.4127816269447
 11
2831.6451311647861
 21
2627.4127816269447
  0
LINE
  8
_0-3_躯体と製品
  6
CONTINUOUS
 62
    3
 10
2831.6451311647861
 20
2621.9127816269447
 11
2854.1451311647861
 21
2621.9127816269447
  0
LINE
  8
_0-3_躯体と製品
  6
CONTINUOUS
 62
    3
 10
2854.1451311647861
 20
2641.4127816269433
 11
2831.6451311647861
 21
2641.4127816269433
  0
LINE
  8
_0-3_躯体と製品
  6
CONTINUOUS
 62
    3
 10
2831.6451311647861
 20
2635.9127816269433
 11
2854.1451311647861
 21
2635.9127816269433
  0
LINE
  8
_0-3_躯体と製品
  6
CONTINUOUS
 62
    3
 10
2854.1451311647861
 20
2655.4127816269433
 11
2831.6451311647861
 21
2655.4127816269433
  0
LINE
  8
_0-3_躯体と製品
  6
CONTINUOUS
 62
    3
 10
2831.6451311647861
 20
2649.9127816269433
 11
2854.1451311647861
 21
2649.9127816269433
  0
ARC
  8
_0-3_躯体と製品
  6
CONTINUOUS
 62
    3
 10
2831.6451311647857
 20
2610.4127816269438
 40
2.5000000000004547
 50
180.00000000001043
 51
270.00000000001046
  0
LINE
  8
_0-3_躯体と製品
  6
CONTINUOUS
 62
    3
 10
2829.1451311647852
 20
2610.9127816269424
 11
2829.1451311647852
 21
2610.4127816269433
  0
ARC
  8
_0-3_躯体と製品
  6
CONTINUOUS
 62
    3
 10
2831.6451311647857
 20
2610.912781626942
 40
2.5000000000004547
 50
89.999999999989569
 51
179.99999999998957
  0
ARC
  8
_0-3_躯体と製品
  6
CONTINUOUS
 62
    3
 10
2831.6451311647857
 20
2624.4127816269452
 40
2.5000000000004547
 50
180.00000000001043
 51
270.00000000001046
  0
LINE
  8
_0-3_躯体と製品
  6
CONTINUOUS
 62
    3
 10
2829.1451311647852
 20
2624.9127816269447
 11
2829.1451311647852
 21
2624.4127816269447
  0
ARC
  8
_0-3_躯体と製品
  6
CONTINUOUS
 62
    3
 10
2831.6451311647857
 20
2624.9127816269443
 40
2.5000000000004547
 50
89.999999999989569
 51
179.99999999998957
  0
ARC
  8
_0-3_躯体と製品
  6
CONTINUOUS
 62
    3
 10
2831.6451311647852
 20
2638.4127816269433
 40
2.4999999999999996
 50
180.00000000002083
 51
270.00000000002086
  0
LINE
  8
_0-3_躯体と製品
  6
CONTINUOUS
 62
    3
 10
2829.1451311647852
 20
2638.9127816269433
 11
2829.1451311647852
 21
2638.4127816269424
  0
ARC
  8
_0-3_躯体と製品
  6
CONTINUOUS
 62
    3
 10
2831.6451311647857
 20
2638.9127816269429
 40
2.5000000000004547
 50
89.999999999989569
 51
179.99999999998957
  0
ARC
  8
_0-3_躯体と製品
  6
CONTINUOUS
 62
    3
 10
2831.6451311647861
 20
2652.4127816269447
 40
2.5000000000011369
 50
179.99999999999477
 51
269.99999999999483
  0
LINE
  8
_0-3_躯体と製品
  6
CONTINUOUS
 62
    3
 10
2829.1451311647852
 20
2652.9127816269433
 11
2829.1451311647852
 21
2652.4127816269447
  0
ARC
  8
_0-3_躯体と製品
  6
CONTINUOUS
 62
    3
 10
2831.6451311647857
 20
2652.9127816269429
 40
2.5000000000004547
 50
89.999999999989569
 51
179.99999999998957
  0
ARC
  8
_0-3_躯体と製品
  6
CONTINUOUS
 62
    3
 10
2866.1451311647866
 20
2610.9127816269429
 40
2.4999999999995453
 50
90.000000000010431
 51
180.00000000001043
  0
LINE
  8
_0-3_躯体と製品
  6
CONTINUOUS
 62
    3
 10
2863.645131164787
 20
2610.4127816269433
 11
2863.645131164787
 21
2610.9127816269424
  0
ARC
  8
_0-3_躯体と製品
  6
CONTINUOUS
 62
    3
 10
2866.1451311647866
 20
2610.4127816269429
 40
2.4999999999995453
 50
179.99999999998957
 51
269.99999999998954
  0
ARC
  8
_0-3_躯体と製品
  6
CONTINUOUS
 62
    3
 10
2854.1451311647857
 20
2610.9127816269429
 40
2.4999999999995453
 50
359.9999999999896
 51
89.999999999989598
  0
LINE
  8
_0-3_躯体と製品
  6
CONTINUOUS
 62
    3
 10
2856.6451311647852
 20
2610.4127816269433
 11
2856.6451311647852
 21
2610.9127816269424
  0
ARC
  8
_0-3_躯体と製品
  6
CONTINUOUS
 62
    3
 10
2854.1451311647857
 20
2610.4127816269429
 40
2.4999999999995453
 50
270.0000000000104
 51
0.0000000000104322
  0
ARC
  8
_0-3_躯体と製品
  6
CONTINUOUS
 62
    3
 10
2866.1451311647866
 20
2624.9127816269452
 40
2.4999999999995453
 50
90.000000000010431
 51
180.00000000001043
  0
LINE
  8
_0-3_躯体と製品
  6
CONTINUOUS
 62
    3
 10
2863.645131164787
 20
2624.4127816269447
 11
2863.645131164787
 21
2624.9127816269447
  0
ARC
  8
_0-3_躯体と製品
  6
CONTINUOUS
 62
    3
 10
2866.1451311647866
 20
2624.4127816269443
 40
2.4999999999995453
 50
179.99999999998957
 51
269.99999999998954
  0
ARC
  8
_0-3_躯体と製品
  6
CONTINUOUS
 62
    3
 10
2854.1451311647857
 20
2624.9127816269452
 40
2.4999999999995453
 50
359.9999999999896
 51
89.999999999989598
  0
LINE
  8
_0-3_躯体と製品
  6
CONTINUOUS
 62
    3
 10
2856.6451311647852
 20
2624.4127816269447
 11
2856.6451311647852
 21
2624.9127816269447
  0
ARC
  8
_0-3_躯体と製品
  6
CONTINUOUS
 62
    3
 10
2854.1451311647857
 20
2624.4127816269443
 40
2.4999999999995453
 50
270.0000000000104
 51
0.0000000000104322
  0
ARC
  8
_0-3_躯体と製品
  6
CONTINUOUS
 62
    3
 10
2866.1451311647866
 20
2638.9127816269438
 40
2.4999999999995453
 50
90.000000000010431
 51
180.00000000001043
  0
LINE
  8
_0-3_躯体と製品
  6
CONTINUOUS
 62
    3
 10
2863.645131164787
 20
2638.4127816269424
 11
2863.645131164787
 21
2638.9127816269433
  0
ARC
  8
_0-3_躯体と製品
  6
CONTINUOUS
 62
    3
 10
2866.1451311647861
 20
2638.4127816269424
 40
2.4999999999990905
 50
180
 51
270
  0
ARC
  8
_0-3_躯体と製品
  6
CONTINUOUS
 62
    3
 10
2854.1451311647857
 20
2638.9127816269438
 40
2.4999999999995453
 50
359.9999999999896
 51
89.999999999989598
  0
LINE
  8
_0-3_躯体と製品
  6
CONTINUOUS
 62
    3
 10
2856.6451311647852
 20
2638.4127816269424
 11
2856.6451311647852
 21
2638.9127816269433
  0
ARC
  8
_0-3_躯体と製品
  6
CONTINUOUS
 62
    3
 10
2854.1451311647861
 20
2638.4127816269424
 40
2.4999999999990905
 50
270
 51
0.0000000000000127
  0
ARC
  8
_0-3_躯体と製品
  6
CONTINUOUS
 62
    3
 10
2866.1451311647866
 20
2652.9127816269438
 40
2.4999999999995453
 50
90.000000000010431
 51
180.00000000001043
  0
LINE
  8
_0-3_躯体と製品
  6
CONTINUOUS
 62
    3
 10
2863.645131164787
 20
2652.4127816269447
 11
2863.645131164787
 21
2652.9127816269433
  0
ARC
  8
_0-3_躯体と製品
  6
CONTINUOUS
 62
    3
 10
2866.145131164787
 20
2652.4127816269438
 40
2.5000000000002274
 50
179.99999999997394
 51
269.99999999997397
  0
ARC
  8
_0-3_躯体と製品
  6
CONTINUOUS
 62
    3
 10
2854.1451311647857
 20
2652.9127816269438
 40
2.4999999999995453
 50
359.9999999999896
 51
89.999999999989598
  0
LINE
  8
_0-3_躯体と製品
  6
CONTINUOUS
 62
    3
 10
2856.6451311647852
 20
2652.4127816269447
 11
2856.6451311647852
 21
2652.9127816269433
  0
ARC
  8
_0-3_躯体と製品
  6
CONTINUOUS
 62
    3
 10
2854.1451311647852
 20
2652.4127816269438
 40
2.5000000000002274
 50
270.00000000002603
 51
0.0000000000260678
  0
LINE
  8
_0-3_躯体と製品
  6
CONTINUOUS
 62
    3
 10
2935.1451311647852
 20
2585.4127816269433
 11
2912.6451311647861
 21
2585.4127816269433
  0
LINE
  8
_0-3_躯体と製品
  6
CONTINUOUS
 62
    3
 10
2912.6451311647861
 20
2579.9127816269447
 11
2935.1451311647852
 21
2579.9127816269447
  0
LINE
  8
_0-3_躯体と製品
  6
CONTINUOUS
 62
    3
 10
2935.1451311647852
 20
2599.4127816269447
 11
2912.6451311647861
 21
2599.4127816269447
  0
LINE
  8
_0-3_躯体と製品
  6
CONTINUOUS
 62
    3
 10
2912.6451311647861
 20
2593.9127816269447
 11
2935.1451311647852
 21
2593.9127816269447
  0
ARC
  8
_0-3_躯体と製品
  6
CONTINUOUS
 62
    3
 10
2912.6451311647852
 20
2582.4127816269447
 40
2.4999999999997726
 50
180.00000000002606
 51
270.00000000002603
  0
LINE
  8
_0-3_躯体と製品
  6
CONTINUOUS
 62
    3
 10
2910.1451311647852
 20
2582.9127816269433
 11
2910.1451311647852
 21
2582.4127816269433
  0
ARC
  8
_0-3_躯体と製品
  6
CONTINUOUS
 62
    3
 10
2912.6451311647857
 20
2582.9127816269429
 40
2.5000000000004547
 50
89.999999999989569
 51
179.99999999998957
  0
ARC
  8
_0-3_躯体と製品
  6
CONTINUOUS
 62
    3
 10
2912.6451311647857
 20
2596.4127816269452
 40
2.5000000000004547
 50
180.00000000001043
 51
270.00000000001046
  0
LINE
  8
_0-3_躯体と製品
  6
CONTINUOUS
 62
    3
 10
2910.1451311647852
 20
2596.9127816269447
 11
2910.1451311647852
 21
2596.4127816269447
  0
ARC
  8
_0-3_躯体と製品
  6
CONTINUOUS
 62
    3
 10
2912.6451311647857
 20
2596.9127816269443
 40
2.5000000000004547
 50
89.999999999989569
 51
179.99999999998957
  0
ARC
  8
_0-3_躯体と製品
  6
CONTINUOUS
 62
    3
 10
2888.645131164787
 20
2582.4127816269438
 40
2.4999999999993179
 50
269.99999999998437
 51
359.99999999998437
  0
LINE
  8
_0-3_躯体と製品
  6
CONTINUOUS
 62
    3
 10
2891.1451311647861
 20
2582.9127816269433
 11
2891.1451311647861
 21
2582.4127816269433
  0
ARC
  8
_0-3_躯体と製品
  6
CONTINUOUS
 62
    3
 10
2888.6451311647861
 20
2582.9127816269433
 40
2.4999999999999996
 50
0.0000000000000052
 51
90.000000000000014
  0
ARC
  8
_0-3_躯体と製品
  6
CONTINUOUS
 62
    3
 10
2888.6451311647861
 20
2596.4127816269447
 40
2.4999999999999996
 50
270
 51
0.0000000000000127
  0
LINE
  8
_0-3_躯体と製品
  6
CONTINUOUS
 62
    3
 10
2891.1451311647861
 20
2596.9127816269447
 11
2891.1451311647861
 21
2596.4127816269447
  0
ARC
  8
_0-3_躯体と製品
  6
CONTINUOUS
 62
    3
 10
2888.6451311647861
 20
2596.9127816269447
 40
2.4999999999999996
 50
0.0000000000000052
 51
90.000000000000014
  0
ARC
  8
_0-3_躯体と製品
  6
CONTINUOUS
 62
    3
 10
2935.1451311647852
 20
2582.9127816269433
 40
2.4999999999999996
 50
0.0000000000000052
 51
90.000000000000014
  0
LINE
  8
_0-3_躯体と製品
  6
CONTINUOUS
 62
    3
 10
2937.6451311647852
 20
2582.4127816269433
 11
2937.6451311647852
 21
2582.9127816269433
  0
ARC
  8
_0-3_躯体と製品
  6
CONTINUOUS
 62
    3
 10
2935.1451311647861
 20
2582.4127816269438
 40
2.4999999999993179
 50
269.99999999998437
 51
359.99999999998437
  0
ARC
  8
_0-3_躯体と製品
  6
CONTINUOUS
 62
    3
 10
2947.1451311647861
 20
2582.9127816269433
 40
2.4999999999999996
 50
90
 51
180
  0
LINE
  8
_0-3_躯体と製品
  6
CONTINUOUS
 62
    3
 10
2944.6451311647861
 20
2582.4127816269433
 11
2944.6451311647861
 21
2582.9127816269433
  0
ARC
  8
_0-3_躯体と製品
  6
CONTINUOUS
 62
    3
 10
2947.1451311647852
 20
2582.4127816269438
 40
2.4999999999993179
 50
180.00000000001563
 51
270.00000000001563
  0
ARC
  8
_0-3_躯体と製品
  6
CONTINUOUS
 62
    3
 10
2935.1451311647852
 20
2596.9127816269447
 40
2.4999999999999996
 50
0.0000000000000052
 51
90.000000000000014
  0
LINE
  8
_0-3_躯体と製品
  6
CONTINUOUS
 62
    3
 10
2937.6451311647852
 20
2596.4127816269447
 11
2937.6451311647852
 21
2596.9127816269447
  0
ARC
  8
_0-3_躯体と製品
  6
CONTINUOUS
 62
    3
 10
2935.1451311647852
 20
2596.4127816269447
 40
2.4999999999999996
 50
270
 51
0.0000000000000127
  0
ARC
  8
_0-3_躯体と製品
  6
CONTINUOUS
 62
    3
 10
2947.1451311647861
 20
2596.9127816269447
 40
2.4999999999999996
 50
90
 51
180
  0
LINE
  8
_0-3_躯体と製品
  6
CONTINUOUS
 62
    3
 10
2944.6451311647861
 20
2596.4127816269447
 11
2944.6451311647861
 21
2596.9127816269447
  0
ARC
  8
_0-3_躯体と製品
  6
CONTINUOUS
 62
    3
 10
2947.1451311647861
 20
2596.4127816269447
 40
2.4999999999999996
 50
180
 51
270
  0
LINE
  8
_0-3_躯体と製品
  6
CONTINUOUS
 62
    3
 10
2935.1451311647852
 20
2613.4127816269424
 11
2912.6451311647861
 21
2613.4127816269424
  0
LINE
  8
_0-3_躯体と製品
  6
CONTINUOUS
 62
    3
 10
2912.6451311647861
 20
2607.9127816269433
 11
2935.1451311647852
 21
2607.9127816269433
  0
LINE
  8
_0-3_躯体と製品
  6
CONTINUOUS
 62
    3
 10
2935.1451311647852
 20
2627.4127816269447
 11
2912.6451311647861
 21
2627.4127816269447
  0
LINE
  8
_0-3_躯体と製品
  6
CONTINUOUS
 62
    3
 10
2912.6451311647861
 20
2621.9127816269447
 11
2935.1451311647852
 21
2621.9127816269447
  0
LINE
  8
_0-3_躯体と製品
  6
CONTINUOUS
 62
    3
 10
2935.1451311647852
 20
2641.4127816269433
 11
2912.6451311647861
 21
2641.4127816269433
  0
LINE
  8
_0-3_躯体と製品
  6
CONTINUOUS
 62
    3
 10
2912.6451311647861
 20
2635.9127816269433
 11
2935.1451311647852
 21
2635.9127816269433
  0
LINE
  8
_0-3_躯体と製品
  6
CONTINUOUS
 62
    3
 10
2935.1451311647852
 20
2655.4127816269433
 11
2912.6451311647861
 21
2655.4127816269433
  0
LINE
  8
_0-3_躯体と製品
  6
CONTINUOUS
 62
    3
 10
2912.6451311647861
 20
2649.9127816269433
 11
2935.1451311647852
 21
2649.9127816269433
  0
ARC
  8
_0-3_躯体と製品
  6
CONTINUOUS
 62
    3
 10
2912.6451311647857
 20
2610.4127816269438
 40
2.5000000000004547
 50
180.00000000001043
 51
270.00000000001046
  0
LINE
  8
_0-3_躯体と製品
  6
CONTINUOUS
 62
    3
 10
2910.1451311647852
 20
2610.9127816269424
 11
2910.1451311647852
 21
2610.4127816269433
  0
ARC
  8
_0-3_躯体と製品
  6
CONTINUOUS
 62
    3
 10
2912.6451311647857
 20
2610.912781626942
 40
2.5000000000004547
 50
89.999999999989569
 51
179.99999999998957
  0
ARC
  8
_0-3_躯体と製品
  6
CONTINUOUS
 62
    3
 10
2912.6451311647857
 20
2624.4127816269452
 40
2.5000000000004547
 50
180.00000000001043
 51
270.00000000001046
  0
LINE
  8
_0-3_躯体と製品
  6
CONTINUOUS
 62
    3
 10
2910.1451311647852
 20
2624.9127816269447
 11
2910.1451311647852
 21
2624.4127816269447
  0
ARC
  8
_0-3_躯体と製品
  6
CONTINUOUS
 62
    3
 10
2912.6451311647857
 20
2624.9127816269443
 40
2.5000000000004547
 50
89.999999999989569
 51
179.99999999998957
  0
ARC
  8
_0-3_躯体と製品
  6
CONTINUOUS
 62
    3
 10
2912.6451311647852
 20
2638.4127816269433
 40
2.4999999999999996
 50
180.00000000002083
 51
270.00000000002086
  0
LINE
  8
_0-3_躯体と製品
  6
CONTINUOUS
 62
    3
 10
2910.1451311647852
 20
2638.9127816269433
 11
2910.1451311647852
 21
2638.4127816269424
  0
ARC
  8
_0-3_躯体と製品
  6
CONTINUOUS
 62
    3
 10
2912.6451311647857
 20
2638.9127816269429
 40
2.5000000000004547
 50
89.999999999989569
 51
179.99999999998957
  0
ARC
  8
_0-3_躯体と製品
  6
CONTINUOUS
 62
    3
 10
2912.6451311647861
 20
2652.4127816269447
 40
2.5000000000011369
 50
179.99999999999477
 51
269.99999999999483
  0
LINE
  8
_0-3_躯体と製品
  6
CONTINUOUS
 62
    3
 10
2910.1451311647852
 20
2652.9127816269433
 11
2910.1451311647852
 21
2652.4127816269447
  0
ARC
  8
_0-3_躯体と製品
  6
CONTINUOUS
 62
    3
 10
2912.6451311647857
 20
2652.9127816269429
 40
2.5000000000004547
 50
89.999999999989569
 51
179.99999999998957
  0
ARC
  8
_0-3_躯体と製品
  6
CONTINUOUS
 62
    3
 10
2888.6451311647861
 20
2610.4127816269433
 40
2.4999999999999996
 50
270
 51
0.0000000000000127
  0
LINE
  8
_0-3_躯体と製品
  6
CONTINUOUS
 62
    3
 10
2891.1451311647861
 20
2610.9127816269424
 11
2891.1451311647861
 21
2610.4127816269433
  0
ARC
  8
_0-3_躯体と製品
  6
CONTINUOUS
 62
    3
 10
2888.6451311647861
 20
2610.9127816269424
 40
2.4999999999999996
 50
0.0000000000000052
 51
90.000000000000014
  0
ARC
  8
_0-3_躯体と製品
  6
CONTINUOUS
 62
    3
 10
2888.6451311647861
 20
2624.4127816269447
 40
2.4999999999999996
 50
270
 51
0.0000000000000127
  0
LINE
  8
_0-3_躯体と製品
  6
CONTINUOUS
 62
    3
 10
2891.1451311647861
 20
2624.9127816269447
 11
2891.1451311647861
 21
2624.4127816269447
  0
ARC
  8
_0-3_躯体と製品
  6
CONTINUOUS
 62
    3
 10
2888.6451311647861
 20
2624.9127816269447
 40
2.4999999999999996
 50
0.0000000000000052
 51
90.000000000000014
  0
ARC
  8
_0-3_躯体と製品
  6
CONTINUOUS
 62
    3
 10
2888.6451311647866
 20
2638.4127816269429
 40
2.4999999999995453
 50
269.9999999999896
 51
359.9999999999896
  0
LINE
  8
_0-3_躯体と製品
  6
CONTINUOUS
 62
    3
 10
2891.1451311647861
 20
2638.9127816269433
 11
2891.1451311647861
 21
2638.4127816269424
  0
ARC
  8
_0-3_躯体と製品
  6
CONTINUOUS
 62
    3
 10
2888.6451311647861
 20
2638.9127816269433
 40
2.4999999999999996
 50
0.0000000000000052
 51
90.000000000000014
  0
ARC
  8
_0-3_躯体と製品
  6
CONTINUOUS
 62
    3
 10
2888.6451311647852
 20
2652.4127816269438
 40
2.5000000000006821
 50
270.00000000001563
 51
0.0000000000156483
  0
LINE
  8
_0-3_躯体と製品
  6
CONTINUOUS
 62
    3
 10
2891.1451311647861
 20
2652.9127816269433
 11
2891.1451311647861
 21
2652.4127816269447
  0
ARC
  8
_0-3_躯体と製品
  6
CONTINUOUS
 62
    3
 10
2888.6451311647861
 20
2652.9127816269433
 40
2.4999999999999996
 50
0.0000000000000052
 51
90.000000000000014
  0
ARC
  8
_0-3_躯体と製品
  6
CONTINUOUS
 62
    3
 10
2935.1451311647852
 20
2610.9127816269424
 40
2.4999999999999996
 50
0.0000000000000052
 51
90.000000000000014
  0
LINE
  8
_0-3_躯体と製品
  6
CONTINUOUS
 62
    3
 10
2937.6451311647852
 20
2610.4127816269433
 11
2937.6451311647852
 21
2610.9127816269424
  0
ARC
  8
_0-3_躯体と製品
  6
CONTINUOUS
 62
    3
 10
2935.1451311647852
 20
2610.4127816269433
 40
2.4999999999999996
 50
270
 51
0.0000000000000127
  0
ARC
  8
_0-3_躯体と製品
  6
CONTINUOUS
 62
    3
 10
2947.1451311647861
 20
2610.9127816269424
 40
2.4999999999999996
 50
90
 51
180
  0
LINE
  8
_0-3_躯体と製品
  6
CONTINUOUS
 62
    3
 10
2944.6451311647861
 20
2610.4127816269433
 11
2944.6451311647861
 21
2610.9127816269424
  0
ARC
  8
_0-3_躯体と製品
  6
CONTINUOUS
 62
    3
 10
2947.1451311647861
 20
2610.4127816269433
 40
2.4999999999999996
 50
180
 51
270
  0
ARC
  8
_0-3_躯体と製品
  6
CONTINUOUS
 62
    3
 10
2935.1451311647852
 20
2624.9127816269447
 40
2.4999999999999996
 50
0.0000000000000052
 51
90.000000000000014
  0
LINE
  8
_0-3_躯体と製品
  6
CONTINUOUS
 62
    3
 10
2937.6451311647852
 20
2624.4127816269447
 11
2937.6451311647852
 21
2624.9127816269447
  0
ARC
  8
_0-3_躯体と製品
  6
CONTINUOUS
 62
    3
 10
2935.1451311647852
 20
2624.4127816269447
 40
2.4999999999999996
 50
270
 51
0.0000000000000127
  0
ARC
  8
_0-3_躯体と製品
  6
CONTINUOUS
 62
    3
 10
2947.1451311647861
 20
2624.9127816269447
 40
2.4999999999999996
 50
90
 51
180
  0
LINE
  8
_0-3_躯体と製品
  6
CONTINUOUS
 62
    3
 10
2944.6451311647861
 20
2624.4127816269447
 11
2944.6451311647861
 21
2624.9127816269447
  0
ARC
  8
_0-3_躯体と製品
  6
CONTINUOUS
 62
    3
 10
2947.1451311647861
 20
2624.4127816269447
 40
2.4999999999999996
 50
180
 51
270
  0
ARC
  8
_0-3_躯体と製品
  6
CONTINUOUS
 62
    3
 10
2935.1451311647852
 20
2638.9127816269433
 40
2.4999999999999996
 50
0.0000000000000052
 51
90.000000000000014
  0
LINE
  8
_0-3_躯体と製品
  6
CONTINUOUS
 62
    3
 10
2937.6451311647852
 20
2638.4127816269424
 11
2937.6451311647852
 21
2638.9127816269433
  0
ARC
  8
_0-3_躯体と製品
  6
CONTINUOUS
 62
    3
 10
2935.1451311647857
 20
2638.4127816269429
 40
2.4999999999995453
 50
269.9999999999896
 51
359.9999999999896
  0
ARC
  8
_0-3_躯体と製品
  6
CONTINUOUS
 62
    3
 10
2947.1451311647861
 20
2638.9127816269433
 40
2.4999999999999996
 50
90
 51
180
  0
LINE
  8
_0-3_躯体と製品
  6
CONTINUOUS
 62
    3
 10
2944.6451311647861
 20
2638.4127816269424
 11
2944.6451311647861
 21
2638.9127816269433
  0
ARC
  8
_0-3_躯体と製品
  6
CONTINUOUS
 62
    3
 10
2947.1451311647857
 20
2638.4127816269429
 40
2.4999999999995453
 50
180.00000000001043
 51
270.00000000001046
  0
ARC
  8
_0-3_躯体と製品
  6
CONTINUOUS
 62
    3
 10
2935.1451311647852
 20
2652.9127816269433
 40
2.4999999999999996
 50
0.0000000000000052
 51
90.000000000000014
  0
LINE
  8
_0-3_躯体と製品
  6
CONTINUOUS
 62
    3
 10
2937.6451311647852
 20
2652.4127816269447
 11
2937.6451311647852
 21
2652.9127816269433
  0
ARC
  8
_0-3_躯体と製品
  6
CONTINUOUS
 62
    3
 10
2935.1451311647843
 20
2652.4127816269438
 40
2.5000000000006821
 50
270.00000000001563
 51
0.0000000000156483
  0
ARC
  8
_0-3_躯体と製品
  6
CONTINUOUS
 62
    3
 10
2947.1451311647861
 20
2652.9127816269433
 40
2.4999999999999996
 50
90
 51
180
  0
LINE
  8
_0-3_躯体と製品
  6
CONTINUOUS
 62
    3
 10
2944.6451311647861
 20
2652.4127816269447
 11
2944.6451311647861
 21
2652.9127816269433
  0
ARC
  8
_0-3_躯体と製品
  6
CONTINUOUS
 62
    3
 10
2947.145131164787
 20
2652.4127816269438
 40
2.5000000000006821
 50
179.99999999998437
 51
269.99999999998437
  0
LINE
  8
_0-3_躯体と製品
  6
CONTINUOUS
 62
    3
 10
2866.1451311647861
 20
2669.4127816269447
 11
2888.6451311647861
 21
2669.4127816269447
  0
LINE
  8
_0-3_躯体と製品
  6
CONTINUOUS
 62
    3
 10
2888.6451311647861
 20
2663.9127816269433
 11
2866.1451311647861
 21
2663.9127816269433
  0
LINE
  8
_0-3_躯体と製品
  6
CONTINUOUS
 62
    3
 10
2866.1451311647861
 20
2683.4127816269433
 11
2888.6451311647861
 21
2683.4127816269433
  0
LINE
  8
_0-3_躯体と製品
  6
CONTINUOUS
 62
    3
 10
2888.6451311647861
 20
2677.9127816269433
 11
2866.1451311647861
 21
2677.9127816269433
  0
LINE
  8
_0-3_躯体と製品
  6
CONTINUOUS
 62
    3
 10
2866.1451311647861
 20
2697.4127816269433
 11
2888.6451311647861
 21
2697.4127816269433
  0
LINE
  8
_0-3_躯体と製品
  6
CONTINUOUS
 62
    3
 10
2888.6451311647861
 20
2691.9127816269447
 11
2866.1451311647861
 21
2691.9127816269447
  0
LINE
  8
_0-3_躯体と製品
  6
CONTINUOUS
 62
    3
 10
2866.1451311647861
 20
2711.4127816269433
 11
2888.6451311647861
 21
2711.4127816269433
  0
LINE
  8
_0-3_躯体と製品
  6
CONTINUOUS
 62
    3
 10
2888.6451311647861
 20
2705.9127816269433
 11
2866.1451311647861
 21
2705.9127816269433
  0
LINE
  8
_0-3_躯体と製品
  6
CONTINUOUS
 62
    3
 10
2854.1451311647861
 20
2669.4127816269447
 11
2831.6451311647861
 21
2669.4127816269447
  0
LINE
  8
_0-3_躯体と製品
  6
CONTINUOUS
 62
    3
 10
2831.6451311647861
 20
2663.9127816269433
 11
2854.1451311647861
 21
2663.9127816269433
  0
LINE
  8
_0-3_躯体と製品
  6
CONTINUOUS
 62
    3
 10
2854.1451311647861
 20
2683.4127816269433
 11
2831.6451311647861
 21
2683.4127816269433
  0
LINE
  8
_0-3_躯体と製品
  6
CONTINUOUS
 62
    3
 10
2831.6451311647861
 20
2677.9127816269433
 11
2854.1451311647861
 21
2677.9127816269433
  0
LINE
  8
_0-3_躯体と製品
  6
CONTINUOUS
 62
    3
 10
2854.1451311647861
 20
2697.4127816269433
 11
2831.6451311647861
 21
2697.4127816269433
  0
LINE
  8
_0-3_躯体と製品
  6
CONTINUOUS
 62
    3
 10
2831.6451311647861
 20
2691.9127816269447
 11
2854.1451311647861
 21
2691.9127816269447
  0
LINE
  8
_0-3_躯体と製品
  6
CONTINUOUS
 62
    3
 10
2854.1451311647861
 20
2711.4127816269433
 11
2831.6451311647861
 21
2711.4127816269433
  0
LINE
  8
_0-3_躯体と製品
  6
CONTINUOUS
 62
    3
 10
2831.6451311647861
 20
2705.9127816269433
 11
2854.1451311647861
 21
2705.9127816269433
  0
ARC
  8
_0-3_躯体と製品
  6
CONTINUOUS
 62
    3
 10
2831.6451311647857
 20
2666.4127816269438
 40
2.5000000000004547
 50
180.00000000001043
 51
270.00000000001046
  0
LINE
  8
_0-3_躯体と製品
  6
CONTINUOUS
 62
    3
 10
2829.1451311647852
 20
2666.9127816269447
 11
2829.1451311647852
 21
2666.4127816269433
  0
ARC
  8
_0-3_躯体と製品
  6
CONTINUOUS
 62
    3
 10
2831.6451311647857
 20
2666.9127816269443
 40
2.5000000000004547
 50
89.999999999989569
 51
179.99999999998957
  0
ARC
  8
_0-3_躯体と製品
  6
CONTINUOUS
 62
    3
 10
2831.6451311647857
 20
2680.4127816269438
 40
2.5000000000004547
 50
180.00000000001043
 51
270.00000000001046
  0
LINE
  8
_0-3_躯体と製品
  6
CONTINUOUS
 62
    3
 10
2829.1451311647852
 20
2680.9127816269433
 11
2829.1451311647852
 21
2680.4127816269433
  0
ARC
  8
_0-3_躯体と製品
  6
CONTINUOUS
 62
    3
 10
2831.6451311647857
 20
2680.9127816269429
 40
2.5000000000004547
 50
89.999999999989569
 51
179.99999999998957
  0
ARC
  8
_0-3_躯体と製品
  6
CONTINUOUS
 62
    3
 10
2831.6451311647857
 20
2694.4127816269452
 40
2.5000000000004547
 50
180.00000000001043
 51
270.00000000001046
  0
LINE
  8
_0-3_躯体と製品
  6
CONTINUOUS
 62
    3
 10
2829.1451311647852
 20
2694.9127816269447
 11
2829.1451311647852
 21
2694.4127816269447
  0
ARC
  8
_0-3_躯体と製品
  6
CONTINUOUS
 62
    3
 10
2831.6451311647852
 20
2694.9127816269438
 40
2.4999999999997726
 50
89.999999999973952
 51
179.99999999997394
  0
ARC
  8
_0-3_躯体と製品
  6
CONTINUOUS
 62
    3
 10
2831.6451311647857
 20
2708.4127816269438
 40
2.5000000000004547
 50
180.00000000001043
 51
270.00000000001046
  0
LINE
  8
_0-3_躯体と製品
  6
CONTINUOUS
 62
    3
 10
2829.1451311647852
 20
2708.9127816269447
 11
2829.1451311647852
 21
2708.4127816269433
  0
ARC
  8
_0-3_躯体と製品
  6
CONTINUOUS
 62
    3
 10
2831.6451311647852
 20
2708.9127816269438
 40
2.4999999999997726
 50
89.999999999973952
 51
179.99999999997394
  0
ARC
  8
_0-3_躯体と製品
  6
CONTINUOUS
 62
    3
 10
2866.1451311647866
 20
2666.9127816269452
 40
2.4999999999995453
 50
90.000000000010431
 51
180.00000000001043
  0
LINE
  8
_0-3_躯体と製品
  6
CONTINUOUS
 62
    3
 10
2863.645131164787
 20
2666.4127816269433
 11
2863.645131164787
 21
2666.9127816269447
  0
ARC
  8
_0-3_躯体と製品
  6
CONTINUOUS
 62
    3
 10
2866.1451311647866
 20
2666.4127816269429
 40
2.4999999999995453
 50
179.99999999998957
 51
269.99999999998954
  0
ARC
  8
_0-3_躯体と製品
  6
CONTINUOUS
 62
    3
 10
2854.1451311647857
 20
2666.9127816269452
 40
2.4999999999995453
 50
359.9999999999896
 51
89.999999999989598
  0
LINE
  8
_0-3_躯体と製品
  6
CONTINUOUS
 62
    3
 10
2856.6451311647852
 20
2666.4127816269433
 11
2856.6451311647852
 21
2666.9127816269447
  0
ARC
  8
_0-3_躯体と製品
  6
CONTINUOUS
 62
    3
 10
2854.1451311647857
 20
2666.4127816269429
 40
2.4999999999995453
 50
270.0000000000104
 51
0.0000000000104322
  0
ARC
  8
_0-3_躯体と製品
  6
CONTINUOUS
 62
    3
 10
2866.1451311647866
 20
2680.9127816269438
 40
2.4999999999995453
 50
90.000000000010431
 51
180.00000000001043
  0
LINE
  8
_0-3_躯体と製品
  6
CONTINUOUS
 62
    3
 10
2863.645131164787
 20
2680.4127816269433
 11
2863.645131164787
 21
2680.9127816269433
  0
ARC
  8
_0-3_躯体と製品
  6
CONTINUOUS
 62
    3
 10
2866.1451311647866
 20
2680.4127816269429
 40
2.4999999999995453
 50
179.99999999998957
 51
269.99999999998954
  0
ARC
  8
_0-3_躯体と製品
  6
CONTINUOUS
 62
    3
 10
2854.1451311647857
 20
2680.9127816269438
 40
2.4999999999995453
 50
359.9999999999896
 51
89.999999999989598
  0
LINE
  8
_0-3_躯体と製品
  6
CONTINUOUS
 62
    3
 10
2856.6451311647852
 20
2680.4127816269433
 11
2856.6451311647852
 21
2680.9127816269433
  0
ARC
  8
_0-3_躯体と製品
  6
CONTINUOUS
 62
    3
 10
2854.1451311647857
 20
2680.4127816269429
 40
2.4999999999995453
 50
270.0000000000104
 51
0.0000000000104322
  0
ARC
  8
_0-3_躯体と製品
  6
CONTINUOUS
 62
    3
 10
2866.1451311647861
 20
2694.9127816269447
 40
2.4999999999988631
 50
89.999999999994813
 51
179.9999999999948
  0
LINE
  8
_0-3_躯体と製品
  6
CONTINUOUS
 62
    3
 10
2863.645131164787
 20
2694.4127816269447
 11
2863.645131164787
 21
2694.9127816269447
  0
ARC
  8
_0-3_躯体と製品
  6
CONTINUOUS
 62
    3
 10
2866.1451311647866
 20
2694.4127816269443
 40
2.4999999999995453
 50
179.99999999998957
 51
269.99999999998954
  0
ARC
  8
_0-3_躯体と製品
  6
CONTINUOUS
 62
    3
 10
2854.1451311647861
 20
2694.9127816269447
 40
2.4999999999988631
 50
0.0000000000052139
 51
90.00000000000523
  0
LINE
  8
_0-3_躯体と製品
  6
CONTINUOUS
 62
    3
 10
2856.6451311647852
 20
2694.4127816269447
 11
2856.6451311647852
 21
2694.9127816269447
  0
ARC
  8
_0-3_躯体と製品
  6
CONTINUOUS
 62
    3
 10
2854.1451311647857
 20
2694.4127816269443
 40
2.4999999999995453
 50
270.0000000000104
 51
0.0000000000104322
  0
ARC
  8
_0-3_躯体と製品
  6
CONTINUOUS
 62
    3
 10
2866.1451311647861
 20
2708.9127816269447
 40
2.4999999999988631
 50
89.999999999994813
 51
179.9999999999948
  0
LINE
  8
_0-3_躯体と製品
  6
CONTINUOUS
 62
    3
 10
2863.645131164787
 20
2708.4127816269433
 11
2863.645131164787
 21
2708.9127816269447
  0
ARC
  8
_0-3_躯体と製品
  6
CONTINUOUS
 62
    3
 10
2866.1451311647866
 20
2708.4127816269429
 40
2.4999999999995453
 50
179.99999999998957
 51
269.99999999998954
  0
ARC
  8
_0-3_躯体と製品
  6
CONTINUOUS
 62
    3
 10
2854.1451311647861
 20
2708.9127816269447
 40
2.4999999999988631
 50
0.0000000000052139
 51
90.00000000000523
  0
LINE
  8
_0-3_躯体と製品
  6
CONTINUOUS
 62
    3
 10
2856.6451311647852
 20
2708.4127816269433
 11
2856.6451311647852
 21
2708.9127816269447
  0
ARC
  8
_0-3_躯体と製品
  6
CONTINUOUS
 62
    3
 10
2854.1451311647857
 20
2708.4127816269429
 40
2.4999999999995453
 50
270.0000000000104
 51
0.0000000000104322
  0
LINE
  8
_0-3_躯体と製品
  6
CONTINUOUS
 62
    3
 10
2935.1451311647852
 20
2669.4127816269447
 11
2912.6451311647861
 21
2669.4127816269447
  0
LINE
  8
_0-3_躯体と製品
  6
CONTINUOUS
 62
    3
 10
2912.6451311647861
 20
2663.9127816269433
 11
2935.1451311647852
 21
2663.9127816269433
  0
LINE
  8
_0-3_躯体と製品
  6
CONTINUOUS
 62
    3
 10
2935.1451311647852
 20
2683.4127816269433
 11
2912.6451311647861
 21
2683.4127816269433
  0
LINE
  8
_0-3_躯体と製品
  6
CONTINUOUS
 62
    3
 10
2912.6451311647861
 20
2677.9127816269433
 11
2935.1451311647852
 21
2677.9127816269433
  0
LINE
  8
_0-3_躯体と製品
  6
CONTINUOUS
 62
    3
 10
2935.1451311647852
 20
2697.4127816269433
 11
2912.6451311647861
 21
2697.4127816269433
  0
LINE
  8
_0-3_躯体と製品
  6
CONTINUOUS
 62
    3
 10
2912.6451311647861
 20
2691.9127816269447
 11
2935.1451311647852
 21
2691.9127816269447
  0
LINE
  8
_0-3_躯体と製品
  6
CONTINUOUS
 62
    3
 10
2935.1451311647852
 20
2711.4127816269433
 11
2912.6451311647861
 21
2711.4127816269433
  0
LINE
  8
_0-3_躯体と製品
  6
CONTINUOUS
 62
    3
 10
2912.6451311647861
 20
2705.9127816269433
 11
2935.1451311647852
 21
2705.9127816269433
  0
ARC
  8
_0-3_躯体と製品
  6
CONTINUOUS
 62
    3
 10
2912.6451311647857
 20
2666.4127816269438
 40
2.5000000000004547
 50
180.00000000001043
 51
270.00000000001046
  0
LINE
  8
_0-3_躯体と製品
  6
CONTINUOUS
 62
    3
 10
2910.1451311647852
 20
2666.9127816269447
 11
2910.1451311647852
 21
2666.4127816269433
  0
ARC
  8
_0-3_躯体と製品
  6
CONTINUOUS
 62
    3
 10
2912.6451311647857
 20
2666.9127816269443
 40
2.5000000000004547
 50
89.999999999989569
 51
179.99999999998957
  0
ARC
  8
_0-3_躯体と製品
  6
CONTINUOUS
 62
    3
 10
2912.6451311647857
 20
2680.4127816269438
 40
2.5000000000004547
 50
180.00000000001043
 51
270.00000000001046
  0
LINE
  8
_0-3_躯体と製品
  6
CONTINUOUS
 62
    3
 10
2910.1451311647852
 20
2680.9127816269433
 11
2910.1451311647852
 21
2680.4127816269433
  0
ARC
  8
_0-3_躯体と製品
  6
CONTINUOUS
 62
    3
 10
2912.6451311647857
 20
2680.9127816269429
 40
2.5000000000004547
 50
89.999999999989569
 51
179.99999999998957
  0
ARC
  8
_0-3_躯体と製品
  6
CONTINUOUS
 62
    3
 10
2912.6451311647857
 20
2694.4127816269452
 40
2.5000000000004547
 50
180.00000000001043
 51
270.00000000001046
  0
LINE
  8
_0-3_躯体と製品
  6
CONTINUOUS
 62
    3
 10
2910.1451311647852
 20
2694.9127816269447
 11
2910.1451311647852
 21
2694.4127816269447
  0
ARC
  8
_0-3_躯体と製品
  6
CONTINUOUS
 62
    3
 10
2912.6451311647852
 20
2694.9127816269438
 40
2.4999999999997726
 50
89.999999999973952
 51
179.99999999997394
  0
ARC
  8
_0-3_躯体と製品
  6
CONTINUOUS
 62
    3
 10
2912.6451311647857
 20
2708.4127816269438
 40
2.5000000000004547
 50
180.00000000001043
 51
270.00000000001046
  0
LINE
  8
_0-3_躯体と製品
  6
CONTINUOUS
 62
    3
 10
2910.1451311647852
 20
2708.9127816269447
 11
2910.1451311647852
 21
2708.4127816269433
  0
ARC
  8
_0-3_躯体と製品
  6
CONTINUOUS
 62
    3
 10
2912.6451311647852
 20
2708.9127816269438
 40
2.4999999999997726
 50
89.999999999973952
 51
179.99999999997394
  0
ARC
  8
_0-3_躯体と製品
  6
CONTINUOUS
 62
    3
 10
2888.6451311647861
 20
2666.4127816269433
 40
2.4999999999999996
 50
270
 51
0.0000000000000127
  0
LINE
  8
_0-3_躯体と製品
  6
CONTINUOUS
 62
    3
 10
2891.1451311647861
 20
2666.9127816269447
 11
2891.1451311647861
 21
2666.4127816269433
  0
ARC
  8
_0-3_躯体と製品
  6
CONTINUOUS
 62
    3
 10
2888.6451311647861
 20
2666.9127816269447
 40
2.4999999999999996
 50
0.0000000000000052
 51
90.000000000000014
  0
ARC
  8
_0-3_躯体と製品
  6
CONTINUOUS
 62
    3
 10
2888.6451311647861
 20
2680.4127816269433
 40
2.4999999999999996
 50
270
 51
0.0000000000000127
  0
LINE
  8
_0-3_躯体と製品
  6
CONTINUOUS
 62
    3
 10
2891.1451311647861
 20
2680.9127816269433
 11
2891.1451311647861
 21
2680.4127816269433
  0
ARC
  8
_0-3_躯体と製品
  6
CONTINUOUS
 62
    3
 10
2888.6451311647861
 20
2680.9127816269433
 40
2.4999999999999996
 50
0.0000000000000052
 51
90.000000000000014
  0
ARC
  8
_0-3_躯体と製品
  6
CONTINUOUS
 62
    3
 10
2888.6451311647861
 20
2694.4127816269447
 40
2.4999999999999996
 50
270
 51
0.0000000000000127
  0
LINE
  8
_0-3_躯体と製品
  6
CONTINUOUS
 62
    3
 10
2891.1451311647861
 20
2694.9127816269447
 11
2891.1451311647861
 21
2694.4127816269447
  0
ARC
  8
_0-3_躯体と製品
  6
CONTINUOUS
 62
    3
 10
2888.645131164787
 20
2694.9127816269438
 40
2.4999999999993179
 50
0.0000000000156402
 51
90.000000000015646
  0
ARC
  8
_0-3_躯体と製品
  6
CONTINUOUS
 62
    3
 10
2888.6451311647861
 20
2708.4127816269433
 40
2.4999999999999996
 50
270
 51
0.0000000000000127
  0
LINE
  8
_0-3_躯体と製品
  6
CONTINUOUS
 62
    3
 10
2891.1451311647861
 20
2708.9127816269447
 11
2891.1451311647861
 21
2708.4127816269433
  0
ARC
  8
_0-3_躯体と製品
  6
CONTINUOUS
 62
    3
 10
2888.645131164787
 20
2708.9127816269438
 40
2.4999999999993179
 50
0.0000000000156402
 51
90.000000000015646
  0
ARC
  8
_0-3_躯体と製品
  6
CONTINUOUS
 62
    3
 10
2935.1451311647852
 20
2666.9127816269447
 40
2.4999999999999996
 50
0.0000000000000052
 51
90.000000000000014
  0
LINE
  8
_0-3_躯体と製品
  6
CONTINUOUS
 62
    3
 10
2937.6451311647852
 20
2666.4127816269433
 11
2937.6451311647852
 21
2666.9127816269447
  0
ARC
  8
_0-3_躯体と製品
  6
CONTINUOUS
 62
    3
 10
2935.1451311647852
 20
2666.4127816269433
 40
2.4999999999999996
 50
270
 51
0.0000000000000127
  0
ARC
  8
_0-3_躯体と製品
  6
CONTINUOUS
 62
    3
 10
2947.1451311647861
 20
2666.9127816269447
 40
2.4999999999999996
 50
90
 51
180
  0
LINE
  8
_0-3_躯体と製品
  6
CONTINUOUS
 62
    3
 10
2944.6451311647861
 20
2666.4127816269433
 11
2944.6451311647861
 21
2666.9127816269447
  0
ARC
  8
_0-3_躯体と製品
  6
CONTINUOUS
 62
    3
 10
2947.1451311647861
 20
2666.4127816269433
 40
2.4999999999999996
 50
180
 51
270
  0
ARC
  8
_0-3_躯体と製品
  6
CONTINUOUS
 62
    3
 10
2935.1451311647852
 20
2680.9127816269433
 40
2.4999999999999996
 50
0.0000000000000052
 51
90.000000000000014
  0
LINE
  8
_0-3_躯体と製品
  6
CONTINUOUS
 62
    3
 10
2937.6451311647852
 20
2680.4127816269433
 11
2937.6451311647852
 21
2680.9127816269433
  0
ARC
  8
_0-3_躯体と製品
  6
CONTINUOUS
 62
    3
 10
2935.1451311647852
 20
2680.4127816269433
 40
2.4999999999999996
 50
270
 51
0.0000000000000127
  0
ARC
  8
_0-3_躯体と製品
  6
CONTINUOUS
 62
    3
 10
2947.1451311647861
 20
2680.9127816269433
 40
2.4999999999999996
 50
90
 51
180
  0
LINE
  8
_0-3_躯体と製品
  6
CONTINUOUS
 62
    3
 10
2944.6451311647861
 20
2680.4127816269433
 11
2944.6451311647861
 21
2680.9127816269433
  0
ARC
  8
_0-3_躯体と製品
  6
CONTINUOUS
 62
    3
 10
2947.1451311647861
 20
2680.4127816269433
 40
2.4999999999999996
 50
180
 51
270
  0
ARC
  8
_0-3_躯体と製品
  6
CONTINUOUS
 62
    3
 10
2935.1451311647861
 20
2694.9127816269438
 40
2.4999999999993179
 50
0.0000000000156402
 51
90.000000000015646
  0
LINE
  8
_0-3_躯体と製品
  6
CONTINUOUS
 62
    3
 10
2937.6451311647852
 20
2694.4127816269447
 11
2937.6451311647852
 21
2694.9127816269447
  0
ARC
  8
_0-3_躯体と製品
  6
CONTINUOUS
 62
    3
 10
2935.1451311647852
 20
2694.4127816269447
 40
2.4999999999999996
 50
270
 51
0.0000000000000127
  0
ARC
  8
_0-3_躯体と製品
  6
CONTINUOUS
 62
    3
 10
2947.1451311647852
 20
2694.9127816269438
 40
2.4999999999993179
 50
89.999999999984382
 51
179.99999999998437
  0
LINE
  8
_0-3_躯体と製品
  6
CONTINUOUS
 62
    3
 10
2944.6451311647861
 20
2694.4127816269447
 11
2944.6451311647861
 21
2694.9127816269447
  0
ARC
  8
_0-3_躯体と製品
  6
CONTINUOUS
 62
    3
 10
2947.1451311647861
 20
2694.4127816269447
 40
2.4999999999999996
 50
180
 51
270
  0
ARC
  8
_0-3_躯体と製品
  6
CONTINUOUS
 62
    3
 10
2935.1451311647861
 20
2708.9127816269438
 40
2.4999999999993179
 50
0.0000000000156402
 51
90.000000000015646
  0
LINE
  8
_0-3_躯体と製品
  6
CONTINUOUS
 62
    3
 10
2937.6451311647852
 20
2708.4127816269433
 11
2937.6451311647852
 21
2708.9127816269447
  0
ARC
  8
_0-3_躯体と製品
  6
CONTINUOUS
 62
    3
 10
2935.1451311647852
 20
2708.4127816269433
 40
2.4999999999999996
 50
270
 51
0.0000000000000127
  0
ARC
  8
_0-3_躯体と製品
  6
CONTINUOUS
 62
    3
 10
2947.1451311647852
 20
2708.9127816269438
 40
2.4999999999993179
 50
89.999999999984382
 51
179.99999999998437
  0
LINE
  8
_0-3_躯体と製品
  6
CONTINUOUS
 62
    3
 10
2944.6451311647861
 20
2708.4127816269433
 11
2944.6451311647861
 21
2708.9127816269447
  0
ARC
  8
_0-3_躯体と製品
  6
CONTINUOUS
 62
    3
 10
2947.1451311647861
 20
2708.4127816269433
 40
2.4999999999999996
 50
180
 51
270
  0
CIRCLE
  8
_0-3_躯体と製品
  6
CONTINUOUS
 62
    3
 10
2990.6451311647852
 20
2582.6627816269433
 40
3
  0
ARC
  8
_0-3_躯体と製品
  6
CONTINUOUS
 62
    3
 10
2969.645131164787
 20
2582.4127816269438
 40
2.4999999999993179
 50
269.99999999998437
 51
359.99999999998437
  0
LINE
  8
_0-3_躯体と製品
  6
CONTINUOUS
 62
    3
 10
2972.1451311647861
 20
2582.9127816269433
 11
2972.1451311647861
 21
2582.4127816269433
  0
ARC
  8
_0-3_躯体と製品
  6
CONTINUOUS
 62
    3
 10
2969.6451311647861
 20
2582.9127816269433
 40
2.4999999999999996
 50
0.0000000000000052
 51
90.000000000000014
  0
ARC
  8
_0-3_躯体と製品
  6
CONTINUOUS
 62
    3
 10
2969.6451311647861
 20
2596.4127816269447
 40
2.4999999999999996
 50
270
 51
0.0000000000000127
  0
LINE
  8
_0-3_躯体と製品
  6
CONTINUOUS
 62
    3
 10
2972.1451311647861
 20
2596.9127816269447
 11
2972.1451311647861
 21
2596.4127816269447
  0
ARC
  8
_0-3_躯体と製品
  6
CONTINUOUS
 62
    3
 10
2969.6451311647861
 20
2596.9127816269447
 40
2.4999999999999996
 50
0.0000000000000052
 51
90.000000000000014
  0
ARC
  8
_0-3_躯体と製品
  6
CONTINUOUS
 62
    3
 10
2969.6451311647861
 20
2610.4127816269433
 40
2.4999999999999996
 50
270
 51
0.0000000000000127
  0
LINE
  8
_0-3_躯体と製品
  6
CONTINUOUS
 62
    3
 10
2972.1451311647861
 20
2610.9127816269424
 11
2972.1451311647861
 21
2610.4127816269433
  0
ARC
  8
_0-3_躯体と製品
  6
CONTINUOUS
 62
    3
 10
2969.6451311647861
 20
2610.9127816269424
 40
2.4999999999999996
 50
0.0000000000000052
 51
90.000000000000014
  0
ARC
  8
_0-3_躯体と製品
  6
CONTINUOUS
 62
    3
 10
2969.6451311647861
 20
2624.4127816269447
 40
2.4999999999999996
 50
270
 51
0.0000000000000127
  0
LINE
  8
_0-3_躯体と製品
  6
CONTINUOUS
 62
    3
 10
2972.1451311647861
 20
2624.9127816269447
 11
2972.1451311647861
 21
2624.4127816269447
  0
ARC
  8
_0-3_躯体と製品
  6
CONTINUOUS
 62
    3
 10
2969.6451311647861
 20
2624.9127816269447
 40
2.4999999999999996
 50
0.0000000000000052
 51
90.000000000000014
  0
ARC
  8
_0-3_躯体と製品
  6
CONTINUOUS
 62
    3
 10
2969.6451311647866
 20
2638.4127816269429
 40
2.4999999999995453
 50
269.9999999999896
 51
359.9999999999896
  0
LINE
  8
_0-3_躯体と製品
  6
CONTINUOUS
 62
    3
 10
2972.1451311647861
 20
2638.9127816269433
 11
2972.1451311647861
 21
2638.4127816269424
  0
ARC
  8
_0-3_躯体と製品
  6
CONTINUOUS
 62
    3
 10
2969.6451311647861
 20
2638.9127816269433
 40
2.4999999999999996
 50
0.0000000000000052
 51
90.000000000000014
  0
ARC
  8
_0-3_躯体と製品
  6
CONTINUOUS
 62
    3
 10
2969.6451311647852
 20
2652.4127816269438
 40
2.5000000000006821
 50
270.00000000001563
 51
0.0000000000156483
  0
LINE
  8
_0-3_躯体と製品
  6
CONTINUOUS
 62
    3
 10
2972.1451311647861
 20
2652.9127816269433
 11
2972.1451311647861
 21
2652.4127816269447
  0
ARC
  8
_0-3_躯体と製品
  6
CONTINUOUS
 62
    3
 10
2969.6451311647861
 20
2652.9127816269433
 40
2.4999999999999996
 50
0.0000000000000052
 51
90.000000000000014
  0
ARC
  8
_0-3_躯体と製品
  6
CONTINUOUS
 62
    3
 10
2969.6451311647861
 20
2666.4127816269433
 40
2.4999999999999996
 50
270
 51
0.0000000000000127
  0
LINE
  8
_0-3_躯体と製品
  6
CONTINUOUS
 62
    3
 10
2972.1451311647861
 20
2666.9127816269447
 11
2972.1451311647861
 21
2666.4127816269433
  0
ARC
  8
_0-3_躯体と製品
  6
CONTINUOUS
 62
    3
 10
2969.6451311647861
 20
2666.9127816269447
 40
2.4999999999999996
 50
0.0000000000000052
 51
90.000000000000014
  0
ARC
  8
_0-3_躯体と製品
  6
CONTINUOUS
 62
    3
 10
2969.6451311647861
 20
2680.4127816269433
 40
2.4999999999999996
 50
270
 51
0.0000000000000127
  0
LINE
  8
_0-3_躯体と製品
  6
CONTINUOUS
 62
    3
 10
2972.1451311647861
 20
2680.9127816269433
 11
2972.1451311647861
 21
2680.4127816269433
  0
ARC
  8
_0-3_躯体と製品
  6
CONTINUOUS
 62
    3
 10
2969.6451311647861
 20
2680.9127816269433
 40
2.4999999999999996
 50
0.0000000000000052
 51
90.000000000000014
  0
ARC
  8
_0-3_躯体と製品
  6
CONTINUOUS
 62
    3
 10
2969.6451311647861
 20
2694.4127816269447
 40
2.4999999999999996
 50
270
 51
0.0000000000000127
  0
LINE
  8
_0-3_躯体と製品
  6
CONTINUOUS
 62
    3
 10
2972.1451311647861
 20
2694.9127816269447
 11
2972.1451311647861
 21
2694.4127816269447
  0
ARC
  8
_0-3_躯体と製品
  6
CONTINUOUS
 62
    3
 10
2969.645131164787
 20
2694.9127816269438
 40
2.4999999999993179
 50
0.0000000000156402
 51
90.000000000015646
  0
ARC
  8
_0-3_躯体と製品
  6
CONTINUOUS
 62
    3
 10
2969.6451311647861
 20
2708.4127816269433
 40
2.4999999999999996
 50
270
 51
0.0000000000000127
  0
LINE
  8
_0-3_躯体と製品
  6
CONTINUOUS
 62
    3
 10
2972.1451311647861
 20
2708.9127816269447
 11
2972.1451311647861
 21
2708.4127816269433
  0
ARC
  8
_0-3_躯体と製品
  6
CONTINUOUS
 62
    3
 10
2969.645131164787
 20
2708.9127816269438
 40
2.4999999999993179
 50
0.0000000000156402
 51
90.000000000015646
  0
LINE
  8
_0-3_躯体と製品
  6
CONTINUOUS
 62
    3
 10
3660.2210611647861
 20
1845.6108416269453
 11
3612.7617911647822
 21
1798.1515816269457
  0
LINE
  8
_0-3_躯体と製品
  6
CONTINUOUS
 62
    3
 10
3641.0460711647838
 20
1798.1515816269457
 11
3688.5053311647844
 21
1845.6108416269453
  0
LINE
  8
_0-3_躯体と製品
  6
CONTINUOUS
 62
    3
 10
3626.9039311647857
 20
1798.1515816269457
 11
3674.3631911647863
 21
1845.6108416269453
  0
INSERT
  2
-001-_D3
  8
_0-2_寸法
 10
-3069.2748924427142
 20
6526.8846146526275
 41
1
 42
1
 50
0
  0
INSERT
  2
-002-_D4
  8
_0-2_寸法
 10
-3069.2748924427142
 20
6526.8846146526275
 41
1
 42
1
 50
0
  0
INSERT
  2
-003-_D5
  8
_0-2_寸法
 10
-3069.2748924427142
 20
6526.8846146526275
 41
1
 42
1
 50
0
  0
INSERT
  2
-004-_D6
  8
_0-2_寸法
 10
-3069.2748924427142
 20
6526.8846146526275
 41
1
 42
1
 50
0
  0
INSERT
  2
-005-_D7
  8
_0-2_寸法
 10
-3069.2748924427142
 20
6526.8846146526275
 41
1
 42
1
 50
0
  0
INSERT
  2
-006-_D8
  8
_0-2_寸法
 10
-3069.2748924427142
 20
6526.8846146526275
 41
1
 42
1
 50
0
  0
INSERT
  2
-007-_D9
  8
_0-2_寸法
 10
-3069.2748924427142
 20
6526.8846146526275
 41
1
 42
1
 50
0
  0
INSERT
  2
-008-_D10
  8
_0-2_寸法
 10
-3069.2748924427142
 20
6526.8846146526275
 41
1
 42
1
 50
0
  0
INSERT
  2
-009-_D11
  8
_0-2_寸法
 10
-3069.2748924427142
 20
6526.8846146526275
 41
1
 42
1
 50
0
  0
INSERT
  2
-010-_D12
  8
_0-2_寸法
 10
-3069.2748924427142
 20
6526.8846146526275
 41
1
 42
1
 50
0
  0
INSERT
  2
-011-_D13
  8
_0-2_寸法
 10
-3069.2748924427142
 20
6526.8846146526275
 41
1
 42
1
 50
0
  0
INSERT
  2
-012-_D14
  8
_0-2_寸法
 10
-3069.2748924427142
 20
6526.8846146526275
 41
1
 42
1
 50
0
  0
INSERT
  2
-013-_D15
  8
_0-2_寸法
 10
-3069.2748924427142
 20
6526.8846146526275
 41
1
 42
1
 50
0
  0
INSERT
  2
-014-_D16
  8
_0-2_寸法
 10
-3069.2748924427142
 20
6526.8846146526275
 41
1
 42
1
 50
0
  0
LINE
  8
_0-2_寸法
  6
CONTINUOUS
 62
    4
 10
1864.7224006127872
 20
1261.4401658580027
 11
2115.3564306127882
 21
1261.4401658580027
  0
TEXT
  8
_0-2_寸法
 62
    7
 10
1902.5918557599907
 20
1279.4166615504573
 40
45
 41
1
 50
0
  1
@300
  0
LINE
  8
_0-2_寸法
  6
CONTINUOUS
 62
    4
 10
1714.7214006127861
 20
516.99750672155551
 11
2131.3182006127854
 21
516.99750672155551
  0
LINE
  8
_0-2_寸法
  6
CONTINUOUS
 62
    4
 10
3500.8951311647825
 20
1720.8248016269454
 11
3899.2658411647844
 21
1720.8248016269454
  0
LINE
  8
_0-2_寸法
  6
CONTINUOUS
 62
    4
 10
1714.7214006127861
 20
1720.8248016269454
 11
2061.8803306127866
 21
1720.8248016269454
  0
TEXT
  8
_0-2_寸法
 62
    7
 10
1812.783152551423
 20
1736.5576100572462
 40
45
 41
1
 50
0
  1
@900
  0
TEXT
  8
_0-2_寸法
 62
    7
 10
3636.590484117547
 20
1738.3237820396225
 40
45
 41
1
 50
0
  1
@900
  0
TEXT
  8
_0-2_寸法
 62
    7
 10
1838.0254796263553
 20
537.31042236003941
 40
45
 41
1
 50
0
  1
@900
  0
INSERT
  2
-015-_D17
  8
_0-2_寸法
 10
-3069.2748924427142
 20
6526.8846146526275
 41
1
 42
1
 50
0
  0
LINE
  8
_0-4_文字-記号
  6
CONTINUOUS
 62
    3
 10
1416.2959370106964
 20
2859.4208939397827
 11
1416.2959370106964
 21
2960.6241823798377
  0
LINE
  8
_0-4_文字-記号
  6
CONTINUOUS
 62
    3
 10
1416.2959370106964
 20
2960.6241823798377
 11
3060.5956492539981
 21
2960.6241823798377
  0
LINE
  8
_0-4_文字-記号
  6
CONTINUOUS
 62
    3
 10
3060.5956492539981
 20
2960.6241823798377
 11
3060.5956492539981
 21
2859.4208939397827
  0
LINE
  8
_0-4_文字-記号
  6
CONTINUOUS
 62
    3
 10
3060.5956492539981
 20
2859.4208939397827
 11
1416.2959370106964
 21
2859.4208939397827
  0
LINE
  8
_0-4_文字-記号
  6
CONTINUOUS
 62
    7
 10
955.66651118878463
 20
2222.2279908678584
 11
950.30752729805499
 21
2242.2279908435485
  0
LINE
  8
_0-4_文字-記号
  6
CONTINUOUS
 62
    7
 10
950.30752729805499
 20
2242.2279908435485
 11
964.94854340732491
 21
2227.5869746678582
  0
LINE
  8
_0-4_文字-記号
  6
CONTINUOUS
 62
    7
 10
950.30752729805499
 20
2242.2279908435466
 11
1010.3086074379166
 21
2138.3030715322966
  0
LINE
  8
_0-4_文字-記号
  6
CONTINUOUS
 62
    7
 10
1010.3086074379166
 20
2138.3030715322966
 11
1169.7972955195628
 21
2138.3030715322966
  0
LINE
  8
_0-4_文字-記号
  6
CONTINUOUS
 62
    7
 10
1169.7972955195628
 20
2138.3030715322966
 11
1169.8872955195638
 21
2138.3030715322966
  0
LINE
  8
_0-4_文字-記号
  6
CONTINUOUS
 62
    7
 10
1364.0403355280314
 20
2253.5406112223836
 11
1358.6813516373022
 21
2273.5406111980728
  0
LINE
  8
_0-4_文字-記号
  6
CONTINUOUS
 62
    7
 10
1358.6813516373022
 20
2273.5406111980728
 11
1373.322367746573
 21
2258.8995950223843
  0
LINE
  8
_0-4_文字-記号
  6
CONTINUOUS
 62
    7
 10
1358.6813516373022
 20
2273.5406111980728
 11
1437.5538643695636
 21
2136.9294118251746
  0
LINE
  8
_0-4_文字-記号
  6
CONTINUOUS
 62
    7
 10
1437.5538643695636
 20
2136.9294118251746
 11
1578.7316785990297
 21
2136.9294118251746
  0
LINE
  8
_0-4_文字-記号
  6
CONTINUOUS
 62
    7
 10
1578.7316785990297
 20
2136.9294118251746
 11
1578.8216785990298
 21
2136.9294118251746
  0
LINE
  8
_0-4_文字-記号
  6
CONTINUOUS
 62
    7
 10
1365.3828573625706
 20
2336.2518578026356
 11
1350.7418412533007
 21
2321.6108416269462
  0
LINE
  8
_0-4_文字-記号
  6
CONTINUOUS
 62
    7
 10
1350.7418412533007
 20
2321.6108416269462
 11
1356.1008251440308
 21
2341.6108416026354
  0
LINE
  8
_0-4_文字-記号
  6
CONTINUOUS
 62
    7
 10
1350.7418412533007
 20
2321.6108416269462
 11
1419.0576073258799
 21
2439.9372194226435
  0
LINE
  8
_0-4_文字-記号
  6
CONTINUOUS
 62
    7
 10
1419.0576073258799
 20
2439.9372194226435
 11
1614.9012666579911
 21
2439.9372194226435
  0
LINE
  8
_0-4_文字-記号
  6
CONTINUOUS
 62
    7
 10
1285.0650951005146
 20
2359.5576864130462
 11
1270.4240789912456
 21
2344.9166702373586
  0
LINE
  8
_0-4_文字-記号
  6
CONTINUOUS
 62
    7
 10
1270.4240789912456
 20
2344.9166702373586
 11
1275.7830628819756
 21
2364.9166702130469
  0
LINE
  8
_0-4_文字-記号
  6
CONTINUOUS
 62
    7
 10
1270.4240789912456
 20
2344.9166702373577
 11
1365.8365948320379
 21
2510.1759953515784
  0
LINE
  8
_0-4_文字-記号
  6
CONTINUOUS
 62
    7
 10
1365.8365948320379
 20
2510.1759953515784
 11
1634.4281330492458
 21
2510.1759953515784
  0
TEXT
  8
_0-4_文字-記号
 62
    7
 10
2666.5671418961065
 20
2511.4433785248566
 40
45
 41
0.8
 50
0
  1
巾木
  0
LINE
  8
_0-4_文字-記号
  6
CONTINUOUS
 62
    7
 10
2627.0890862463148
 20
2442.6221578026357
 11
2612.4480701370449
 21
2427.9811416269467
  0
LINE
  8
_0-4_文字-記号
  6
CONTINUOUS
 62
    7
 10
2612.4480701370449
 20
2427.9811416269467
 11
2617.8070540277749
 21
2447.9811416026346
  0
LINE
  8
_0-4_文字-記号
  6
CONTINUOUS
 62
    7
 10
2612.4480701370449
 20
2427.9811416269467
 11
2655.9098675762325
 21
2503.2591829798876
  0
LINE
  8
_0-4_文字-記号
  6
CONTINUOUS
 62
    7
 10
2655.9098675762325
 20
2503.2591829798876
 11
2776.832600236643
 21
2503.2591829798876
  0
LINE
  8
_0-4_文字-記号
  6
CONTINUOUS
 62
    7
 10
3035.2861472740542
 20
2355.9736478026343
 11
3020.6451311647825
 21
2341.3326316269458
  0
LINE
  8
_0-4_文字-記号
  6
CONTINUOUS
 62
    7
 10
3020.6451311647825
 20
2341.3326316269458
 11
3026.0041150555126
 21
2361.3326316026332
  0
LINE
  8
_0-4_文字-記号
  6
CONTINUOUS
 62
    7
 10
3020.6451311647816
 20
2341.3326316269422
 11
3074.6516015987354
 21
2434.8745823560157
  0
LINE
  8
_0-4_文字-記号
  6
CONTINUOUS
 62
    7
 10
3074.6516015987354
 20
2434.8745823560157
 11
3326.1542163913582
 21
2434.8745823560157
  0
LINE
  8
_0-4_文字-記号
  6
CONTINUOUS
 62
    7
 10
3005.2859972740525
 20
2357.2518578026347
 11
2990.6449811647835
 21
2342.6108416269453
  0
LINE
  8
_0-4_文字-記号
  6
CONTINUOUS
 62
    7
 10
2990.6449811647835
 20
2342.6108416269453
 11
2996.0039650555136
 21
2362.6108416026336
  0
LINE
  8
_0-4_文字-記号
  6
CONTINUOUS
 62
    7
 10
2990.6449811647835
 20
2342.6108416269453
 11
3096.2892798022185
 21
2525.5921343969603
  0
LINE
  8
_0-4_文字-記号
  6
CONTINUOUS
 62
    7
 10
3096.2892798022185
 20
2525.5921343969603
 11
3699.9435798966924
 21
2525.5921343969603
  0
TEXT
  8
_0-4_文字-記号
 62
    7
 10
2853.1009492880812
 20
2158.769009425806
 40
45
 41
0.8
 50
0.0000100000010064
  1
大引鋼
  0
LINE
  8
_0-4_文字-記号
  6
CONTINUOUS
 62
    7
 10
2781.2491439248042
 20
2225.9322543182898
 11
2775.8901600340741
 21
2245.9322542939772
  0
LINE
  8
_0-4_文字-記号
  6
CONTINUOUS
 62
    7
 10
2775.8901600340741
 20
2245.9322542939772
 11
2790.5311761433441
 21
2231.2912381182887
  0
LINE
  8
_0-4_文字-記号
  6
CONTINUOUS
 62
    7
 10
2775.8901600340741
 20
2245.9322542939772
 11
2835.8912401739344
 21
2142.0073349827262
  0
LINE
  8
_0-4_文字-記号
  6
CONTINUOUS
 62
    7
 10
2835.8912401739344
 20
2142.0073349827262
 11
2995.379928255581
 21
2142.0073349827262
  0
LINE
  8
_0-4_文字-記号
  6
CONTINUOUS
 62
    7
 10
2995.379928255581
 20
2142.0073349827262
 11
2995.4699282555821
 21
2142.0073349827262
  0
TEXT
  8
_0-4_文字-記号
 62
    7
 10
3733.19513177097
 20
2150.8689913502949
 40
45
 41
0.8
 50
0
  1
根太鋼
  0
LINE
  8
_0-4_文字-記号
  6
CONTINUOUS
 62
    7
 10
3644.704760743617
 20
2254.11839055157
 11
3639.345776852886
 21
2274.1183905272583
  0
LINE
  8
_0-4_文字-記号
  6
CONTINUOUS
 62
    7
 10
3639.345776852886
 20
2274.1183905272583
 11
3653.986792962156
 21
2259.4773743515689
  0
LINE
  8
_0-4_文字-記号
  6
CONTINUOUS
 62
    7
 10
3639.345776852886
 20
2274.1183905272574
 11
3718.2182895851474
 21
2137.5071911543582
  0
LINE
  8
_0-4_文字-記号
  6
CONTINUOUS
 62
    7
 10
3718.2182895851474
 20
2137.5071911543582
 11
3859.3961038146135
 21
2137.5071911543582
  0
LINE
  8
_0-4_文字-記号
  6
CONTINUOUS
 62
    7
 10
3859.3961038146135
 20
2137.5071911543582
 11
3859.4861038146137
 21
2137.5071911543582
  0
TEXT
  8
_0-4_文字-記号
 62
    7
 10
3089.0917766611874
 20
2007.9535091408443
 40
45
 41
0.8
 50
0
  1
支持脚２０１ＭＢ
  0
TEXT
  8
_0-4_文字-記号
 62
    7
 10
1320.8428007065122
 20
917.78820801797247
 40
45
 41
0.8
 50
0.0000100000010064
  1
大引鋼
  0
LINE
  8
_0-4_文字-記号
  6
CONTINUOUS
 62
    7
 10
1259.2490645972412
 20
984.95145291045628
 11
1253.8900807065111
 21
1004.9514528861446
  0
LINE
  8
_0-4_文字-記号
  6
CONTINUOUS
 62
    7
 10
1253.8900807065111
 20
1004.9514528861446
 11
1268.531096815781
 21
990.31043671045609
  0
LINE
  8
_0-4_文字-記号
  6
CONTINUOUS
 62
    7
 10
1253.8900807065111
 20
1004.9514528861446
 11
1313.8911608463723
 21
901.02653357489453
  0
LINE
  8
_0-4_文字-記号
  6
CONTINUOUS
 62
    7
 10
1313.8911608463723
 20
901.02653357489453
 11
1473.379848928018
 21
901.02653357489453
  0
LINE
  8
_0-4_文字-記号
  6
CONTINUOUS
 62
    7
 10
1473.379848928018
 20
901.02653357489453
 11
1473.4698489280181
 21
901.02653357489453
  0
TEXT
  8
_0-4_文字-記号
 62
    7
 10
1929.9126862768717
 20
952.67032788745564
 40
45
 41
0.8
 50
0
  1
根太鋼
  0
LINE
  8
_0-4_文字-記号
  6
CONTINUOUS
 62
    7
 10
1851.6803845035211
 20
1055.9197270887298
 11
1846.321400612791
 21
1075.9197270644181
  0
LINE
  8
_0-4_文字-記号
  6
CONTINUOUS
 62
    7
 10
1846.321400612791
 20
1075.9197270644181
 11
1860.9624167220609
 21
1061.2787108887305
  0
LINE
  8
_0-4_文字-記号
  6
CONTINUOUS
 62
    7
 10
1846.321400612791
 20
1075.9197270644181
 11
1925.1939133450533
 21
939.30852769152079
  0
LINE
  8
_0-4_文字-記号
  6
CONTINUOUS
 62
    7
 10
1925.1939133450533
 20
939.30852769152079
 11
2066.3717275745212
 21
939.30852769152079
  0
LINE
  8
_0-4_文字-記号
  6
CONTINUOUS
 62
    7
 10
2066.3717275745212
 20
939.30852769152079
 11
2066.4617275745204
 21
939.30852769152079
  0
TEXT
  8
_0-4_文字-記号
 62
    7
 10
1784.8697172150942
 20
773.71687129315524
 40
45
 41
0.8
 50
0
  1
支持脚２０１ＭＢ
  0
LINE
  8
_0-4_文字-記号
  6
CONTINUOUS
 62
    7
 10
1727.9208637501906
 20
848.05467430414592
 11
1722.5618798594605
 21
868.05467427983422
  0
LINE
  8
_0-4_文字-記号
  6
CONTINUOUS
 62
    7
 10
1722.5618798594605
 20
868.05467427983422
 11
1737.2028959687304
 21
853.41365810414572
  0
LINE
  8
_0-4_文字-記号
  6
CONTINUOUS
 62
    7
 10
1722.5618798594605
 20
868.05467427983331
 11
1783.0322938104582
 21
763.31684496198613
  0
LINE
  8
_0-4_文字-記号
  6
CONTINUOUS
 62
    7
 10
1783.0322938104582
 20
763.31684496198613
 11
2125.1636942563282
 21
763.31684496198613
  0
LINE
  8
_0-4_文字-記号
  6
CONTINUOUS
 62
    7
 10
2125.1636942563282
 20
763.31684496198613
 11
2044.3349553871458
 21
763.31684496198613
  0
LINE
  8
_0-3_躯体と製品
  6
CONTINUOUS
 62
    3
 10
1681.421400611991
 20
2274.2108416269457
 11
1227.5808206127876
 21
2274.2108416269457
  0
LINE
  8
_0-3_躯体と製品
  6
CONTINUOUS
 62
    3
 10
1169.4131611647817
 20
2274.2108416269457
 11
959.36097116478368
 21
2274.2108416269457
  0
LINE
  8
_0-3_躯体と製品
  6
CONTINUOUS
 62
    3
 10
1748.5619706127873
 20
2274.2108416269457
 11
2048.1387906127875
 21
2274.2108416269457
  0
LINE
  8
_0-3_躯体と製品
  6
CONTINUOUS
 62
    4
 10
1681.421400611991
 20
2272.6108416269462
 11
1227.5808206127876
 21
2272.6108416269462
  0
LINE
  8
_0-3_躯体と製品
  6
CONTINUOUS
 62
    4
 10
1169.4131611647817
 20
2272.6108416269462
 11
958.82040116478402
 21
2272.6108416269462
  0
LINE
  8
_0-3_躯体と製品
  6
CONTINUOUS
 62
    4
 10
763.02040116478474
 20
2312.6108416269453
 11
1169.4131611647817
 21
2312.6108416269462
  0
LINE
  8
_0-3_躯体と製品
  6
CONTINUOUS
 62
    4
 10
1227.5808206127876
 20
2312.6108416269462
 11
2048.1387906127875
 21
2312.6108416269462
  0
LINE
  8
_0-3_躯体と製品
  6
CONTINUOUS
 62
    4
 10
787.52040116478383
 20
2345.6108416269453
 11
1169.4131611647817
 21
2345.6108416269462
  0
LINE
  8
_0-3_躯体と製品
  6
CONTINUOUS
 62
    4
 10
1227.5808206127876
 20
2345.6108416269462
 11
2048.1387906127875
 21
2345.6108416269462
  0
LINE
  8
_0-3_躯体と製品
  6
CONTINUOUS
 62
    3
 10
763.02040116478474
 20
2322.6108416269453
 11
1169.4131611647817
 21
2322.6108416269462
  0
LINE
  8
_0-3_躯体と製品
  6
CONTINUOUS
 62
    3
 10
1227.5808206127876
 20
2322.6108416269462
 11
2048.1387906127875
 21
2322.6108416269462
  0
LINE
  8
_0-3_躯体と製品
  6
CONTINUOUS
 62
    3
 10
763.02040116478474
 20
2317.6108416269453
 11
1169.4131611647817
 21
2317.6108416269462
  0
LINE
  8
_0-3_躯体と製品
  6
CONTINUOUS
 62
    3
 10
1227.5808206127876
 20
2317.6108416269462
 11
2048.1387906127875
 21
2317.6108416269462
  0
LINE
  8
_0-3_躯体と製品
  6
CONTINUOUS
 62
    4
 10
763.02040116478474
 20
2327.6108416269453
 11
1169.4131611647817
 21
2327.6108416269462
  0
LINE
  8
_0-3_躯体と製品
  6
CONTINUOUS
 62
    4
 10
1227.5808206127876
 20
2327.6108416269462
 11
2048.1387906127875
 21
2327.6108416269462
  0
LINE
  8
_0-3_躯体と製品
  6
CONTINUOUS
 62
    4
 10
1748.0214006127881
 20
2272.6108416269462
 11
2048.1387906127875
 21
2272.6108416269462
  0
LINE
  8
_0-5_中心線
  6
CENTER1
 62
    7
 10
1714.7214006127861
 20
1835.6108416269453
 11
1714.7214006127861
 21
2307.3167758377213
  0
ARC
  8
_0-3_躯体と製品
  6
CONTINUOUS
 62
    4
 10
1670.4272123263818
 20
1849.2108416269366
 40
1.5999999999912689
 50
270
 51
89.999999999999972
  0
LINE
  8
_0-3_躯体と製品
  6
CONTINUOUS
 62
    4
 10
1670.4272123263818
 20
1850.8108416269279
 11
1639.7214006127915
 21
1850.8108416269279
  0
LINE
  8
_0-3_躯体と製品
  6
CONTINUOUS
 62
    4
 10
1639.7214006127915
 20
1850.8108416269279
 11
1639.7214006127915
 21
1847.6108416269453
  0
LINE
  8
_0-3_躯体と製品
  6
CONTINUOUS
 62
    4
 10
1639.7214006127915
 20
1847.6108416269453
 11
1670.4272123263818
 21
1847.6108416269453
  0
ARC
  8
_0-3_躯体と製品
  6
CONTINUOUS
 62
    4
 10
1670.4272123263979
 20
1854.810841626939
 40
7.1999999999937261
 50
269.99999999987159
 51
352.31944208864587
  0
LINE
  8
_0-3_躯体と製品
  6
CONTINUOUS
 62
    4
 10
1677.5626183038994
 20
1853.8485622828057
 11
1696.051474467241
 21
1990.9454412625673
  0
ARC
  8
_0-3_躯体と製品
  6
CONTINUOUS
 62
    4
 10
1700.0155888991903
 20
1990.4108416269323
 40
4.0000000000012239
 50
89.999999999803649
 51
172.31944208857959
  0
LINE
  8
_0-3_躯体と製品
  6
CONTINUOUS
 62
    4
 10
1700.015588899204
 20
1994.4108416269337
 11
1729.4272123263818
 21
1994.4108416269337
  0
ARC
  8
_0-3_躯体と製品
  6
CONTINUOUS
 62
    4
 10
1729.4272123263945
 20
1990.4108416269335
 40
4.0000000000001839
 50
7.6805579114073783
 51
90.00000000018332
  0
LINE
  8
_0-3_躯体と製品
  6
CONTINUOUS
 62
    4
 10
1733.391326758343
 20
1990.9454412625673
 11
1751.8801829216845
 21
1853.8485622828057
  0
ARC
  8
_0-3_躯体と製品
  6
CONTINUOUS
 62
    4
 10
1759.0155888991865
 20
1854.8108416269397
 40
7.1999999999942457
 50
187.68055791135777
 51
270.00000000013205
  0
LINE
  8
_0-3_躯体と製品
  6
CONTINUOUS
 62
    4
 10
1759.0155888992031
 20
1847.6108416269453
 11
1789.7214006127924
 21
1847.6108416269453
  0
LINE
  8
_0-3_躯体と製品
  6
CONTINUOUS
 62
    4
 10
1789.7214006127924
 20
1847.6108416269453
 11
1789.7214006127924
 21
1850.8108416269279
  0
LINE
  8
_0-3_躯体と製品
  6
CONTINUOUS
 62
    4
 10
1789.7214006127924
 20
1850.8108416269279
 11
1759.0155888992031
 21
1850.8108416269279
  0
ARC
  8
_0-3_躯体と製品
  6
CONTINUOUS
 62
    4
 10
1759.0155888992031
 20
1849.2108416269366
 40
1.5999999999912689
 50
90
 51
270
  0
LINE
  8
_0-3_躯体と製品
  6
CONTINUOUS
 62
    4
 10
1668.2214006127915
 20
1850.8108416269279
 11
1668.2214006127915
 21
1847.6108416269453
  0
LINE
  8
_0-3_躯体と製品
  6
CONTINUOUS
 62
    4
 10
1761.2214006127924
 20
1850.8108416269279
 11
1761.2214006127924
 21
1847.6108416269453
  0
LINE
  8
_0-3_躯体と製品
  6
CONTINUOUS
 62
    4
 10
1700.015588899204
 20
1994.4108416269337
 11
1698.7214006127915
 21
1997.493572504176
  0
LINE
  8
_0-3_躯体と製品
  6
CONTINUOUS
 62
    4
 10
1700.7214010195185
 20
2001.6108423106234
 11
1728.7214010568878
 21
2001.6108423106234
  0
LINE
  8
_0-3_躯体と製品
  6
CONTINUOUS
 62
    4
 10
1728.7214010568878
 20
2001.6108423106234
 11
1728.7214010568878
 21
1997.6108423106234
  0
LINE
  8
_0-3_躯体と製品
  6
CONTINUOUS
 62
    4
 10
1728.7214010568878
 20
1997.6108423106234
 11
1700.7214010195185
 21
1997.6108423106234
  0
LINE
  8
_0-3_躯体と製品
  6
CONTINUOUS
 62
    4
 10
1700.7214010195185
 20
1997.6108423106234
 11
1700.7214010195185
 21
2001.6108423106234
  0
LINE
  8
_0-3_躯体と製品
  6
CONTINUOUS
 62
    4
 10
1714.7214001873817
 20
2001.6108423106234
 11
1710.7214001873817
 21
1997.6108423106234
  0
LINE
  8
_0-3_躯体と製品
  6
CONTINUOUS
 62
    4
 10
1718.7214002347628
 20
2001.6108423393207
 11
1714.7214002347628
 21
1997.6108423393198
  0
LINE
  8
_0-3_躯体と製品
  6
CONTINUOUS
 62
    4
 10
1729.4272123263818
 20
1994.4108416269337
 11
1730.7214006127915
 21
1997.493572504176
  0
LINE
  8
_0-3_躯体と製品
  6
CONTINUOUS
 62
    4
 10
1639.7214006127915
 20
1845.6108416269453
 11
1664.7214006127924
 21
1845.6108416269453
  0
LINE
  8
_0-3_躯体と製品
  6
CONTINUOUS
 62
    4
 10
1664.7214006127924
 20
1845.6108416269453
 11
1664.7214006127924
 21
1847.6108416269453
  0
LINE
  8
_0-3_躯体と製品
  6
CONTINUOUS
 62
    4
 10
1664.7214006127924
 20
1847.6108416269453
 11
1639.7214006127915
 21
1847.6108416269453
  0
LINE
  8
_0-3_躯体と製品
  6
CONTINUOUS
 62
    4
 10
1639.7214006127915
 20
1847.6108416269453
 11
1639.7214006127915
 21
1845.6108416269453
  0
LINE
  8
_0-3_躯体と製品
  6
CONTINUOUS
 62
    4
 10
1789.7214006127924
 20
1845.6108416269453
 11
1764.7214006127915
 21
1845.6108416269453
  0
LINE
  8
_0-3_躯体と製品
  6
CONTINUOUS
 62
    4
 10
1764.7214006127915
 20
1845.6108416269453
 11
1764.7214006127915
 21
1847.6108416269453
  0
LINE
  8
_0-3_躯体と製品
  6
CONTINUOUS
 62
    4
 10
1764.7214006127915
 20
1847.6108416269453
 11
1789.7214006127924
 21
1847.6108416269453
  0
LINE
  8
_0-3_躯体と製品
  6
CONTINUOUS
 62
    4
 10
1789.7214006127924
 20
1847.6108416269453
 11
1789.7214006127924
 21
1845.6108416269453
  0
LINE
  8
_0-3_躯体と製品
  6
CONTINUOUS
 62
    4
 10
1762.5821857998098
 20
1850.8108423136327
 11
1744.2684495940939
 21
1986.6091730543749
  0
ARC
  8
_0-3_躯体と製品
  6
CONTINUOUS
 62
    4
 10
1740.3043351698175
 20
1986.0745733618671
 40
3.9999999999981899
 50
7.6805587334454755
 51
82.319442910993359
  0
LINE
  8
_0-3_躯体と製品
  6
CONTINUOUS
 62
    4
 10
1740.8389347485518
 20
1990.038687801487
 11
1736.6666985492648
 21
1990.6013546337817
  0
LINE
  8
_0-3_躯体と製品
  6
CONTINUOUS
 62
    4
 10
1736.6666985492648
 20
1990.6013546337817
 11
1736.5626183039012
 21
1991.3731209710577
  0
ARC
  8
_0-3_躯体と製品
  6
CONTINUOUS
 62
    4
 10
1729.4272123263977
 20
1990.4108416269537
 40
7.1999999999917712
 50
7.6805579111214444
 51
89.999999999895607
  0
LINE
  8
_0-3_躯体と製品
  6
CONTINUOUS
 62
    4
 10
1729.4272123264109
 20
1997.6108416269453
 11
1700.015588899204
 21
1997.6108416269453
  0
ARC
  8
_0-3_躯体と製品
  6
CONTINUOUS
 62
    4
 10
1700.0458643626584
 20
1990.3363180751408
 40
7.2745865524747089
 50
90.238454965632513
 51
177.91206638987032
  0
LINE
  8
_0-3_躯体と製品
  6
CONTINUOUS
 62
    4
 10
1692.7761074902683
 20
1990.6013549136742
 11
1688.6038644048413
 21
1990.0386874267451
  0
ARC
  8
_0-3_躯体と製品
  6
CONTINUOUS
 62
    4
 10
1689.1384640404613
 20
1986.0745729947962
 40
3.9999999999987201
 50
97.680557911210869
 51
172.31944208875873
  0
LINE
  8
_0-3_躯体と製品
  6
CONTINUOUS
 62
    4
 10
1685.1743496085128
 20
1986.6091726304185
 11
1666.8606153511519
 21
1850.8108416269279
  0
LINE
  8
_0-3_躯体と製品
  6
CONTINUOUS
 62
    4
 10
1721.6496069085279
 20
2013.1108423106225
 11
1721.6496069085279
 21
2001.6108423106234
  0
LINE
  8
_0-3_躯体と製品
  6
CONTINUOUS
 62
    4
 10
1707.7932004479535
 20
2013.1108423106225
 11
1707.7932004479535
 21
2001.6108423106234
  0
LINE
  8
_0-3_躯体と製品
  6
CONTINUOUS
 62
    4
 10
1704.3290988328235
 20
2014.6108423106234
 11
1725.1137085236569
 21
2014.6108423106234
  0
ARC
  8
_0-3_躯体と製品
  6
CONTINUOUS
 62
    4
 10
1704.329098832824
 20
2009.8608423106289
 40
4.7499999999895284
 50
43.173551107269937
 51
136.8264488927301
  0
ARC
  8
_0-3_躯体と製品
  6
CONTINUOUS
 62
    4
 10
1714.7214036782407
 20
1997.8608423105952
 40
16.750000000029619
 50
65.56730232054764
 51
114.43269767945236
  0
ARC
  8
_0-3_躯体と製品
  6
CONTINUOUS
 62
    4
 10
1725.1137085236569
 20
2009.8608423106307
 40
4.749999999987951
 50
43.173551107257659
 51
136.82644889274232
  0
LINE
  8
_0-3_躯体と製品
  6
CONTINUOUS
 62
    4
 10
1728.5778101387859
 20
2013.1108423106225
 11
1728.5778101387859
 21
2001.6108423106234
  0
LINE
  8
_0-3_躯体と製品
  6
CONTINUOUS
 62
    4
 10
1728.5778101387859
 20
2001.6108423106234
 11
1700.8649972176945
 21
2001.6108423106234
  0
LINE
  8
_0-3_躯体と製品
  6
CONTINUOUS
 62
    4
 10
1700.8649972176945
 20
2001.6108423106234
 11
1700.8649972176945
 21
2013.1108423106225
  0
LINE
  8
_0-3_躯体と製品
  6
CONTINUOUS
 62
    4
 10
1721.6496079702356
 20
1982.9108416269346
 11
1721.6496079702356
 21
1994.4108416269337
  0
LINE
  8
_0-3_躯体と製品
  6
CONTINUOUS
 62
    4
 10
1707.7932015096894
 20
1982.9108416269346
 11
1707.7932015096894
 21
1994.4108416269337
  0
LINE
  8
_0-3_躯体と製品
  6
CONTINUOUS
 62
    4
 10
1704.3290998945604
 20
1981.4108416269346
 11
1725.1137095853928
 21
1981.4108416269346
  0
ARC
  8
_0-3_躯体と製品
  6
CONTINUOUS
 62
    4
 10
1704.3290998945463
 20
1986.160841626941
 40
4.7500000000082343
 50
223.1735511072699
 51
316.82644889273007
  0
ARC
  8
_0-3_躯体と製品
  6
CONTINUOUS
 62
    4
 10
1714.7214047399625
 20
1998.1608416269307
 40
16.749999999995538
 50
245.56730232054764
 51
294.43269767945236
  0
ARC
  8
_0-3_躯体と製品
  6
CONTINUOUS
 62
    4
 10
1725.1137095853787
 20
1986.1608416269396
 40
4.7500000000072813
 50
223.17355110725768
 51
316.82644889274235
  0
LINE
  8
_0-3_躯体と製品
  6
CONTINUOUS
 62
    4
 10
1728.5778112005219
 20
1982.9108416269346
 11
1728.5778112005219
 21
1994.4108416269337
  0
LINE
  8
_0-3_躯体と製品
  6
CONTINUOUS
 62
    4
 10
1728.5778112005219
 20
1994.4108416269337
 11
1700.8649982794032
 21
1994.4108416269337
  0
LINE
  8
_0-3_躯体と製品
  6
CONTINUOUS
 62
    4
 10
1700.8649982794032
 20
1994.4108416269337
 11
1700.8649982794032
 21
1982.9108416269346
  0
LINE
  8
_0-3_躯体と製品
  6
CONTINUOUS
 62
    3
 10
892.22040116398784
 20
2274.2108416269457
 11
763.02040116478474
 21
2274.2108416269457
  0
LINE
  8
_0-3_躯体と製品
  6
CONTINUOUS
 62
    4
 10
892.22040116398784
 20
2272.6108416269462
 11
763.02040116478474
 21
2272.6108416269462
  0
LINE
  8
_0-5_中心線
  6
CENTER1
 62
    7
 10
925.52040116478474
 20
1835.6108416269453
 11
925.52040116478474
 21
2307.3167758377213
  0
ARC
  8
_0-3_躯体と製品
  6
CONTINUOUS
 62
    4
 10
881.22621287837865
 20
1849.2108416269366
 40
1.5999999999912689
 50
270
 51
89.999999999999972
  0
LINE
  8
_0-3_躯体と製品
  6
CONTINUOUS
 62
    4
 10
881.22621287837865
 20
1850.8108416269279
 11
850.52040116478884
 21
1850.8108416269279
  0
LINE
  8
_0-3_躯体と製品
  6
CONTINUOUS
 62
    4
 10
850.52040116478884
 20
1850.8108416269279
 11
850.52040116478884
 21
1847.6108416269453
  0
LINE
  8
_0-3_躯体と製品
  6
CONTINUOUS
 62
    4
 10
850.52040116478884
 20
1847.6108416269453
 11
881.22621287837865
 21
1847.6108416269453
  0
ARC
  8
_0-3_躯体と製品
  6
CONTINUOUS
 62
    4
 10
881.22621287839547
 20
1854.8108416269399
 40
7.1999999999945077
 50
269.99999999986619
 51
352.31944208864047
  0
LINE
  8
_0-3_躯体と製品
  6
CONTINUOUS
 62
    4
 10
888.36161885589763
 20
1853.8485622828057
 11
906.85047501923873
 21
1990.9454412625673
  0
ARC
  8
_0-3_躯体と製品
  6
CONTINUOUS
 62
    4
 10
910.8145894511872
 20
1990.4108416269335
 40
4.0000000000001839
 50
89.999999999816666
 51
172.31944208859261
  0
LINE
  8
_0-3_躯体と製品
  6
CONTINUOUS
 62
    4
 10
910.81458945119994
 20
1994.4108416269337
 11
940.22621287837865
 21
1994.4108416269337
  0
ARC
  8
_0-3_躯体と製品
  6
CONTINUOUS
 62
    4
 10
940.22621287839138
 20
1990.4108416269335
 40
4.0000000000001839
 50
7.6805579114073783
 51
90.00000000018332
  0
LINE
  8
_0-3_躯体と製品
  6
CONTINUOUS
 62
    4
 10
944.19032731033985
 20
1990.9454412625673
 11
962.67918347368095
 21
1853.8485622828057
  0
ARC
  8
_0-3_躯体と製品
  6
CONTINUOUS
 62
    4
 10
969.81458945118311
 20
1854.8108416269399
 40
7.1999999999945077
 50
187.68055791135956
 51
270.00000000013387
  0
LINE
  8
_0-3_躯体と製品
  6
CONTINUOUS
 62
    4
 10
969.81458945119994
 20
1847.6108416269453
 11
1000.5204011647888
 21
1847.6108416269453
  0
LINE
  8
_0-3_躯体と製品
  6
CONTINUOUS
 62
    4
 10
1000.5204011647888
 20
1847.6108416269453
 11
1000.5204011647888
 21
1850.8108416269279
  0
LINE
  8
_0-3_躯体と製品
  6
CONTINUOUS
 62
    4
 10
1000.5204011647888
 20
1850.8108416269279
 11
969.81458945119994
 21
1850.8108416269279
  0
ARC
  8
_0-3_躯体と製品
  6
CONTINUOUS
 62
    4
 10
969.81458945119994
 20
1849.2108416269366
 40
1.5999999999912689
 50
90
 51
270
  0
LINE
  8
_0-3_躯体と製品
  6
CONTINUOUS
 62
    4
 10
879.02040116478975
 20
1850.8108416269279
 11
879.02040116478975
 21
1847.6108416269453
  0
LINE
  8
_0-3_躯体と製品
  6
CONTINUOUS
 62
    4
 10
972.02040116478884
 20
1850.8108416269279
 11
972.02040116478884
 21
1847.6108416269453
  0
LINE
  8
_0-3_躯体と製品
  6
CONTINUOUS
 62
    4
 10
910.81458945119994
 20
1994.4108416269337
 11
909.52040116478975
 21
1997.493572504176
  0
LINE
  8
_0-3_躯体と製品
  6
CONTINUOUS
 62
    4
 10
911.52040157151578
 20
2001.6108423106234
 11
939.52040160888464
 21
2001.6108423106234
  0
LINE
  8
_0-3_躯体と製品
  6
CONTINUOUS
 62
    4
 10
939.52040160888464
 20
2001.6108423106234
 11
939.52040160888464
 21
1997.6108423106234
  0
LINE
  8
_0-3_躯体と製品
  6
CONTINUOUS
 62
    4
 10
939.52040160888464
 20
1997.6108423106234
 11
911.52040157151578
 21
1997.6108423106234
  0
LINE
  8
_0-3_躯体と製品
  6
CONTINUOUS
 62
    4
 10
911.52040157151578
 20
1997.6108423106234
 11
911.52040157151578
 21
2001.6108423106234
  0
LINE
  8
_0-3_躯体と製品
  6
CONTINUOUS
 62
    4
 10
925.5204007393786
 20
2001.6108423106234
 11
921.5204007393786
 21
1997.6108423106234
  0
LINE
  8
_0-3_躯体と製品
  6
CONTINUOUS
 62
    4
 10
929.52040078675964
 20
2001.6108423393207
 11
925.52040078675964
 21
1997.6108423393198
  0
LINE
  8
_0-3_躯体と製品
  6
CONTINUOUS
 62
    4
 10
940.22621287837865
 20
1994.4108416269337
 11
941.52040116478884
 21
1997.493572504176
  0
LINE
  8
_0-3_躯体と製品
  6
CONTINUOUS
 62
    4
 10
850.52040116478884
 20
1845.6108416269453
 11
875.52040116478975
 21
1845.6108416269453
  0
LINE
  8
_0-3_躯体と製品
  6
CONTINUOUS
 62
    4
 10
875.52040116478975
 20
1845.6108416269453
 11
875.52040116478975
 21
1847.6108416269453
  0
LINE
  8
_0-3_躯体と製品
  6
CONTINUOUS
 62
    4
 10
875.52040116478975
 20
1847.6108416269453
 11
850.52040116478884
 21
1847.6108416269453
  0
LINE
  8
_0-3_躯体と製品
  6
CONTINUOUS
 62
    4
 10
850.52040116478884
 20
1847.6108416269453
 11
850.52040116478884
 21
1845.6108416269453
  0
LINE
  8
_0-3_躯体と製品
  6
CONTINUOUS
 62
    4
 10
1000.5204011647888
 20
1845.6108416269453
 11
975.52040116478884
 21
1845.6108416269453
  0
LINE
  8
_0-3_躯体と製品
  6
CONTINUOUS
 62
    4
 10
975.52040116478884
 20
1845.6108416269453
 11
975.52040116478884
 21
1847.6108416269453
  0
LINE
  8
_0-3_躯体と製品
  6
CONTINUOUS
 62
    4
 10
975.52040116478884
 20
1847.6108416269453
 11
1000.5204011647888
 21
1847.6108416269453
  0
LINE
  8
_0-3_躯体と製品
  6
CONTINUOUS
 62
    4
 10
1000.5204011647888
 20
1847.6108416269453
 11
1000.5204011647888
 21
1845.6108416269453
  0
LINE
  8
_0-3_躯体と製品
  6
CONTINUOUS
 62
    4
 10
973.38118635180763
 20
1850.8108423136327
 11
955.06745014609078
 21
1986.6091730543749
  0
ARC
  8
_0-3_躯体と製品
  6
CONTINUOUS
 62
    4
 10
951.10333572181389
 20
1986.0745733618664
 40
3.9999999999987201
 50
7.6805587334530721
 51
82.319442911000962
  0
LINE
  8
_0-3_躯体と製品
  6
CONTINUOUS
 62
    4
 10
951.63793530054772
 20
1990.038687801487
 11
947.46569910126163
 21
1990.6013546337817
  0
LINE
  8
_0-3_躯体と製品
  6
CONTINUOUS
 62
    4
 10
947.46569910126163
 20
1990.6013546337817
 11
947.36161885589672
 21
1991.3731209710577
  0
ARC
  8
_0-3_躯体と製品
  6
CONTINUOUS
 62
    4
 10
940.22621287839388
 20
1990.4108416269544
 40
7.1999999999909914
 50
7.6805579111160167
 51
89.999999999890179
  0
LINE
  8
_0-3_躯体と製品
  6
CONTINUOUS
 62
    4
 10
940.22621287840775
 20
1997.6108416269453
 11
910.81458945119994
 21
1997.6108416269453
  0
ARC
  8
_0-3_躯体と製品
  6
CONTINUOUS
 62
    4
 10
910.84486491465486
 20
1990.336318075141
 40
7.2745865524744708
 50
90.23845496563429
 51
177.91206638987208
  0
LINE
  8
_0-3_躯体と製品
  6
CONTINUOUS
 62
    4
 10
903.57510804226467
 20
1990.6013549136742
 11
899.40286495683767
 21
1990.0386874267451
  0
ARC
  8
_0-3_躯体と製品
  6
CONTINUOUS
 62
    4
 10
899.93746459245745
 20
1986.074572994796
 40
3.9999999999989853
 50
97.68055791120706
 51
172.31944208875493
  0
LINE
  8
_0-3_躯体と製品
  6
CONTINUOUS
 62
    4
 10
895.97335016050874
 20
1986.6091726304185
 11
877.65961590314873
 21
1850.8108416269279
  0
LINE
  8
_0-3_躯体と製品
  6
CONTINUOUS
 62
    4
 10
932.44860746052382
 20
2013.1108423106225
 11
932.44860746052382
 21
2001.6108423106234
  0
LINE
  8
_0-3_躯体と製品
  6
CONTINUOUS
 62
    4
 10
918.59220099995082
 20
2013.1108423106225
 11
918.59220099995082
 21
2001.6108423106234
  0
LINE
  8
_0-3_躯体と製品
  6
CONTINUOUS
 62
    4
 10
915.12809938482087
 20
2014.6108423106234
 11
935.91270907565286
 21
2014.6108423106234
  0
ARC
  8
_0-3_躯体と製品
  6
CONTINUOUS
 62
    4
 10
915.12809938482133
 20
2009.8608423106289
 40
4.7499999999895284
 50
43.173551107269937
 51
136.8264488927301
  0
ARC
  8
_0-3_躯体と製品
  6
CONTINUOUS
 62
    4
 10
925.52040423023732
 20
1997.8608423105968
 40
16.750000000027971
 50
65.56730232054764
 51
114.43269767945236
  0
ARC
  8
_0-3_躯体と製品
  6
CONTINUOUS
 62
    4
 10
935.91270907565331
 20
2009.8608423106305
 40
4.7499999999885745
 50
43.173551107257659
 51
136.82644889274232
  0
LINE
  8
_0-3_躯体と製品
  6
CONTINUOUS
 62
    4
 10
939.3768106907828
 20
2013.1108423106225
 11
939.3768106907828
 21
2001.6108423106234
  0
LINE
  8
_0-3_躯体と製品
  6
CONTINUOUS
 62
    4
 10
939.3768106907828
 20
2001.6108423106234
 11
911.66399776969183
 21
2001.6108423106234
  0
LINE
  8
_0-3_躯体と製品
  6
CONTINUOUS
 62
    4
 10
911.66399776969183
 20
2001.6108423106234
 11
911.66399776969183
 21
2013.1108423106225
  0
LINE
  8
_0-3_躯体と製品
  6
CONTINUOUS
 62
    4
 10
932.44860852223292
 20
1982.9108416269346
 11
932.44860852223292
 21
1994.4108416269337
  0
LINE
  8
_0-3_躯体と製品
  6
CONTINUOUS
 62
    4
 10
918.59220206168766
 20
1982.9108416269346
 11
918.59220206168766
 21
1994.4108416269337
  0
LINE
  8
_0-3_躯体と製品
  6
CONTINUOUS
 62
    4
 10
915.12810044655771
 20
1981.4108416269346
 11
935.9127101373906
 21
1981.4108416269346
  0
ARC
  8
_0-3_躯体と製品
  6
CONTINUOUS
 62
    4
 10
915.12810044654384
 20
1986.1608416269414
 40
4.7500000000091696
 50
223.1735511072699
 51
316.82644889273007
  0
ARC
  8
_0-3_躯体と製品
  6
CONTINUOUS
 62
    4
 10
925.52040529196029
 20
1998.1608416269298
 40
16.749999999994436
 50
245.56730232054764
 51
294.43269767945236
  0
ARC
  8
_0-3_躯体と製品
  6
CONTINUOUS
 62
    4
 10
935.91271013737628
 20
1986.1608416269396
 40
4.750000000007593
 50
223.17355110725768
 51
316.82644889274235
  0
LINE
  8
_0-3_躯体と製品
  6
CONTINUOUS
 62
    4
 10
939.37681175251964
 20
1982.9108416269346
 11
939.37681175251964
 21
1994.4108416269337
  0
LINE
  8
_0-3_躯体と製品
  6
CONTINUOUS
 62
    4
 10
939.37681175251964
 20
1994.4108416269337
 11
911.66399883140002
 21
1994.4108416269337
  0
LINE
  8
_0-3_躯体と製品
  6
CONTINUOUS
 62
    4
 10
911.66399883140002
 20
1994.4108416269337
 11
911.66399883140002
 21
1982.9108416269346
  0
LINE
  8
_0-3_躯体と製品
  6
CONTINUOUS
 62
    3
 10
3467.3451311639865
 20
2274.2108416269448
 11
2784.4857011647837
 21
2274.2108416269448
  0
LINE
  8
_0-3_躯体と製品
  6
CONTINUOUS
 62
    3
 10
3534.4857011647837
 20
2274.2108416269448
 11
3886.7658411647835
 21
2274.2108416269448
  0
LINE
  8
_0-3_躯体と製品
  6
CONTINUOUS
 62
    4
 10
3467.3451311639865
 20
2272.6108416269453
 11
2783.9451311647836
 21
2272.6108416269462
  0
LINE
  8
_0-3_躯体と製品
  6
CONTINUOUS
 62
    4
 10
3533.9451311647827
 20
2272.6108416269453
 11
3886.7658411647835
 21
2272.6108416269453
  0
LINE
  8
_0-5_中心線
  6
CENTER1
 62
    7
 10
3500.6451311647825
 20
1835.6108416269444
 11
3500.6451311647825
 21
2307.3167758377213
  0
ARC
  8
_0-3_躯体と製品
  6
CONTINUOUS
 62
    4
 10
3456.3509428783782
 20
1849.2108416269361
 40
1.5999999999917236
 50
270
 51
89.999999999999972
  0
LINE
  8
_0-3_躯体と製品
  6
CONTINUOUS
 62
    4
 10
3456.3509428783782
 20
1850.8108416269279
 11
3425.6451311647888
 21
1850.8108416269279
  0
LINE
  8
_0-3_躯体と製品
  6
CONTINUOUS
 62
    4
 10
3425.6451311647888
 20
1850.8108416269279
 11
3425.6451311647888
 21
1847.6108416269444
  0
LINE
  8
_0-3_躯体と製品
  6
CONTINUOUS
 62
    4
 10
3425.6451311647888
 20
1847.6108416269444
 11
3456.3509428783782
 21
1847.6108416269444
  0
ARC
  8
_0-3_躯体と製品
  6
CONTINUOUS
 62
    4
 10
3456.3509428783955
 20
1854.8108416269392
 40
7.1999999999947661
 50
269.99999999986437
 51
352.31944208863865
  0
LINE
  8
_0-3_躯体と製品
  6
CONTINUOUS
 62
    4
 10
3463.4863488558976
 20
1853.8485622828048
 11
3481.9752050192374
 21
1990.9454412625664
  0
ARC
  8
_0-3_躯体と製品
  6
CONTINUOUS
 62
    4
 10
3485.9393194511867
 20
1990.4108416269314
 40
4.0000000000012239
 50
89.999999999803649
 51
172.31944208857959
  0
LINE
  8
_0-3_躯体と製品
  6
CONTINUOUS
 62
    4
 10
3485.9393194512004
 20
1994.4108416269328
 11
3515.3509428783791
 21
1994.4108416269328
  0
ARC
  8
_0-3_躯体と製品
  6
CONTINUOUS
 62
    4
 10
3515.3509428783909
 20
1990.4108416269337
 40
3.9999999999991429
 50
7.6805579113943505
 51
90.000000000170303
  0
LINE
  8
_0-3_躯体と製品
  6
CONTINUOUS
 62
    4
 10
3519.3150573103385
 20
1990.9454412625664
 11
3537.8039134736819
 21
1853.8485622828048
  0
ARC
  8
_0-3_躯体と製品
  6
CONTINUOUS
 62
    4
 10
3544.9393194511831
 20
1854.8108416269376
 40
7.1999999999932065
 50
187.68055791135052
 51
270.00000000012483
  0
LINE
  8
_0-3_躯体と製品
  6
CONTINUOUS
 62
    4
 10
3544.9393194511986
 20
1847.6108416269444
 11
3575.6451311647888
 21
1847.6108416269444
  0
LINE
  8
_0-3_躯体と製品
  6
CONTINUOUS
 62
    4
 10
3575.6451311647888
 20
1847.6108416269444
 11
3575.6451311647888
 21
1850.8108416269279
  0
LINE
  8
_0-3_躯体と製品
  6
CONTINUOUS
 62
    4
 10
3575.6451311647888
 20
1850.8108416269279
 11
3544.9393194511986
 21
1850.8108416269279
  0
ARC
  8
_0-3_躯体と製品
  6
CONTINUOUS
 62
    4
 10
3544.9393194511986
 20
1849.2108416269361
 40
1.5999999999917236
 50
90
 51
270
  0
LINE
  8
_0-3_躯体と製品
  6
CONTINUOUS
 62
    4
 10
3454.1451311647888
 20
1850.8108416269279
 11
3454.1451311647888
 21
1847.6108416269444
  0
LINE
  8
_0-3_躯体と製品
  6
CONTINUOUS
 62
    4
 10
3547.1451311647888
 20
1850.8108416269279
 11
3547.1451311647888
 21
1847.6108416269444
  0
LINE
  8
_0-3_躯体と製品
  6
CONTINUOUS
 62
    4
 10
3485.9393194512004
 20
1994.4108416269328
 11
3484.6451311647888
 21
1997.4935725041742
  0
LINE
  8
_0-3_躯体と製品
  6
CONTINUOUS
 62
    4
 10
3486.6451315715149
 20
2001.6108423106225
 11
3514.6451316088842
 21
2001.6108423106225
  0
LINE
  8
_0-3_躯体と製品
  6
CONTINUOUS
 62
    4
 10
3514.6451316088842
 20
2001.6108423106225
 11
3514.6451316088842
 21
1997.6108423106225
  0
LINE
  8
_0-3_躯体と製品
  6
CONTINUOUS
 62
    4
 10
3514.6451316088842
 20
1997.6108423106225
 11
3486.6451315715149
 21
1997.6108423106225
  0
LINE
  8
_0-3_躯体と製品
  6
CONTINUOUS
 62
    4
 10
3486.6451315715149
 20
1997.6108423106225
 11
3486.6451315715149
 21
2001.6108423106225
  0
LINE
  8
_0-3_躯体と製品
  6
CONTINUOUS
 62
    4
 10
3500.6451307393781
 20
2001.6108423106225
 11
3496.6451307393781
 21
1997.6108423106225
  0
LINE
  8
_0-3_躯体と製品
  6
CONTINUOUS
 62
    4
 10
3504.6451307867592
 20
2001.6108423393198
 11
3500.6451307867592
 21
1997.6108423393189
  0
LINE
  8
_0-3_躯体と製品
  6
CONTINUOUS
 62
    4
 10
3515.3509428783791
 20
1994.4108416269328
 11
3516.6451311647888
 21
1997.4935725041742
  0
LINE
  8
_0-3_躯体と製品
  6
CONTINUOUS
 62
    4
 10
3425.6451311647888
 20
1845.6108416269444
 11
3450.6451311647888
 21
1845.6108416269444
  0
LINE
  8
_0-3_躯体と製品
  6
CONTINUOUS
 62
    4
 10
3450.6451311647888
 20
1845.6108416269444
 11
3450.6451311647888
 21
1847.6108416269444
  0
LINE
  8
_0-3_躯体と製品
  6
CONTINUOUS
 62
    4
 10
3450.6451311647888
 20
1847.6108416269444
 11
3425.6451311647888
 21
1847.6108416269444
  0
LINE
  8
_0-3_躯体と製品
  6
CONTINUOUS
 62
    4
 10
3425.6451311647888
 20
1847.6108416269444
 11
3425.6451311647888
 21
1845.6108416269444
  0
LINE
  8
_0-3_躯体と製品
  6
CONTINUOUS
 62
    4
 10
3575.6451311647888
 20
1845.6108416269444
 11
3550.6451311647888
 21
1845.6108416269444
  0
LINE
  8
_0-3_躯体と製品
  6
CONTINUOUS
 62
    4
 10
3550.6451311647888
 20
1845.6108416269444
 11
3550.6451311647888
 21
1847.6108416269444
  0
LINE
  8
_0-3_躯体と製品
  6
CONTINUOUS
 62
    4
 10
3550.6451311647888
 20
1847.6108416269444
 11
3575.6451311647888
 21
1847.6108416269444
  0
LINE
  8
_0-3_躯体と製品
  6
CONTINUOUS
 62
    4
 10
3575.6451311647888
 20
1847.6108416269444
 11
3575.6451311647888
 21
1845.6108416269444
  0
LINE
  8
_0-3_躯体と製品
  6
CONTINUOUS
 62
    4
 10
3548.5059163518063
 20
1850.8108423136318
 11
3530.1921801460894
 21
1986.609173054374
  0
ARC
  8
_0-3_躯体と製品
  6
CONTINUOUS
 62
    4
 10
3526.2280657218143
 20
1986.0745733618669
 40
3.9999999999965983
 50
7.680558733437878
 51
82.319442910985771
  0
LINE
  8
_0-3_躯体と製品
  6
CONTINUOUS
 62
    4
 10
3526.7626653005491
 20
1990.0386878014851
 11
3522.5904291012621
 21
1990.6013546337808
  0
LINE
  8
_0-3_躯体と製品
  6
CONTINUOUS
 62
    4
 10
3522.5904291012621
 20
1990.6013546337808
 11
3522.4863488558976
 21
1991.3731209710568
  0
ARC
  8
_0-3_躯体と製品
  6
CONTINUOUS
 62
    4
 10
3515.3509428783937
 20
1990.4108416269521
 40
7.1999999999922917
 50
7.6805579111250637
 51
89.999999999899231
  0
LINE
  8
_0-3_躯体と製品
  6
CONTINUOUS
 62
    4
 10
3515.3509428784064
 20
1997.6108416269444
 11
3485.9393194512004
 21
1997.6108416269444
  0
ARC
  8
_0-3_躯体と製品
  6
CONTINUOUS
 62
    4
 10
3485.9695949146562
 20
1990.3363180751398
 40
7.2745865524746938
 50
90.238454965639789
 51
177.91206638987759
  0
LINE
  8
_0-3_躯体と製品
  6
CONTINUOUS
 62
    4
 10
3478.6998380422656
 20
1990.6013549136724
 11
3474.5275949568377
 21
1990.0386874267451
  0
ARC
  8
_0-3_躯体と製品
  6
CONTINUOUS
 62
    4
 10
3475.0621945924586
 20
1986.0745729947964
 40
3.9999999999987201
 50
97.680557911226032
 51
172.31944208877391
  0
LINE
  8
_0-3_躯体と製品
  6
CONTINUOUS
 62
    4
 10
3471.0980801605101
 20
1986.6091726304176
 11
3452.7843459031474
 21
1850.8108416269279
  0
LINE
  8
_0-3_躯体と製品
  6
CONTINUOUS
 62
    4
 10
3507.5733374605234
 20
2013.1108423106225
 11
3507.5733374605234
 21
2001.6108423106225
  0
LINE
  8
_0-3_躯体と製品
  6
CONTINUOUS
 62
    4
 10
3493.7169309999499
 20
2013.1108423106225
 11
3493.7169309999499
 21
2001.6108423106225
  0
LINE
  8
_0-3_躯体と製品
  6
CONTINUOUS
 62
    4
 10
3490.2528293848209
 20
2014.6108423106234
 11
3511.0374390756542
 21
2014.6108423106234
  0
ARC
  8
_0-3_躯体と製品
  6
CONTINUOUS
 62
    4
 10
3490.2528293848204
 20
2009.8608423106289
 40
4.7499999999895284
 50
43.173551107269937
 51
136.8264488927301
  0
ARC
  8
_0-3_躯体と製品
  6
CONTINUOUS
 62
    4
 10
3500.6451342302366
 20
1997.8608423105964
 40
16.750000000028518
 50
65.56730232054764
 51
114.43269767945236
  0
ARC
  8
_0-3_躯体と製品
  6
CONTINUOUS
 62
    4
 10
3511.0374390756533
 20
2009.86084231063
 40
4.7499999999891989
 50
43.173551107257659
 51
136.82644889274232
  0
LINE
  8
_0-3_躯体と製品
  6
CONTINUOUS
 62
    4
 10
3514.5015406907833
 20
2013.1108423106225
 11
3514.5015406907833
 21
2001.6108423106225
  0
LINE
  8
_0-3_躯体と製品
  6
CONTINUOUS
 62
    4
 10
3514.5015406907833
 20
2001.6108423106225
 11
3486.7887277696909
 21
2001.6108423106225
  0
LINE
  8
_0-3_躯体と製品
  6
CONTINUOUS
 62
    4
 10
3486.7887277696909
 20
2001.6108423106225
 11
3486.7887277696909
 21
2013.1108423106225
  0
LINE
  8
_0-3_躯体と製品
  6
CONTINUOUS
 62
    4
 10
3507.5733385222311
 20
1982.9108416269328
 11
3507.5733385222311
 21
1994.4108416269328
  0
LINE
  8
_0-3_躯体と製品
  6
CONTINUOUS
 62
    4
 10
3493.7169320616858
 20
1982.9108416269328
 11
3493.7169320616858
 21
1994.4108416269328
  0
LINE
  8
_0-3_躯体と製品
  6
CONTINUOUS
 62
    4
 10
3490.2528304465577
 20
1981.4108416269328
 11
3511.0374401373901
 21
1981.4108416269328
  0
ARC
  8
_0-3_躯体と製品
  6
CONTINUOUS
 62
    4
 10
3490.2528304465427
 20
1986.1608416269391
 40
4.7500000000082343
 50
223.1735511072699
 51
316.82644889273007
  0
ARC
  8
_0-3_躯体と製品
  6
CONTINUOUS
 62
    4
 10
3500.6451352919585
 20
1998.160841626928
 40
16.749999999994436
 50
245.56730232054764
 51
294.43269767945236
  0
ARC
  8
_0-3_躯体と製品
  6
CONTINUOUS
 62
    4
 10
3511.0374401373751
 20
1986.1608416269385
 40
4.7500000000085283
 50
223.17355110725768
 51
316.82644889274235
  0
LINE
  8
_0-3_躯体と製品
  6
CONTINUOUS
 62
    4
 10
3514.5015417525192
 20
1982.9108416269328
 11
3514.5015417525192
 21
1994.4108416269328
  0
LINE
  8
_0-3_躯体と製品
  6
CONTINUOUS
 62
    4
 10
3514.5015417525192
 20
1994.4108416269328
 11
3486.7887288313996
 21
1994.4108416269328
  0
LINE
  8
_0-3_躯体と製品
  6
CONTINUOUS
 62
    4
 10
3486.7887288313996
 20
1994.4108416269328
 11
3486.7887288313996
 21
1982.9108416269328
  0
LINE
  8
_0-3_躯体と製品
  6
CONTINUOUS
 62
    3
 10
2717.3451311639865
 20
2274.2108416269448
 11
2588.1451311647852
 21
2274.2108416269448
  0
LINE
  8
_0-3_躯体と製品
  6
CONTINUOUS
 62
    4
 10
2717.3451311639865
 20
2272.6108416269462
 11
2588.1451311647852
 21
2272.6108416269453
  0
LINE
  8
_0-5_中心線
  6
CENTER1
 62
    7
 10
2750.6451311647825
 20
1835.6108416269444
 11
2750.6451311647825
 21
2307.3167758377213
  0
ARC
  8
_0-3_躯体と製品
  6
CONTINUOUS
 62
    4
 10
2706.3509428783782
 20
1849.2108416269361
 40
1.5999999999917236
 50
270
 51
89.999999999999972
  0
LINE
  8
_0-3_躯体と製品
  6
CONTINUOUS
 62
    4
 10
2706.3509428783782
 20
1850.8108416269279
 11
2675.6451311647888
 21
1850.8108416269279
  0
LINE
  8
_0-3_躯体と製品
  6
CONTINUOUS
 62
    4
 10
2675.6451311647888
 20
1850.8108416269279
 11
2675.6451311647888
 21
1847.6108416269444
  0
LINE
  8
_0-3_躯体と製品
  6
CONTINUOUS
 62
    4
 10
2675.6451311647888
 20
1847.6108416269444
 11
2706.3509428783782
 21
1847.6108416269444
  0
ARC
  8
_0-3_躯体と製品
  6
CONTINUOUS
 62
    4
 10
2706.3509428783955
 20
1854.8108416269392
 40
7.1999999999947661
 50
269.99999999986437
 51
352.31944208863865
  0
LINE
  8
_0-3_躯体と製品
  6
CONTINUOUS
 62
    4
 10
2713.4863488558976
 20
1853.8485622828048
 11
2731.9752050192374
 21
1990.9454412625664
  0
ARC
  8
_0-3_躯体と製品
  6
CONTINUOUS
 62
    4
 10
2735.9393194511863
 20
1990.4108416269321
 40
4.0000000000007034
 50
89.999999999810157
 51
172.3194420885861
  0
LINE
  8
_0-3_躯体と製品
  6
CONTINUOUS
 62
    4
 10
2735.9393194511995
 20
1994.4108416269328
 11
2765.3509428783791
 21
1994.4108416269328
  0
ARC
  8
_0-3_躯体と製品
  6
CONTINUOUS
 62
    4
 10
2765.3509428783909
 20
1990.4108416269337
 40
3.9999999999991429
 50
7.6805579113943505
 51
90.000000000170303
  0
LINE
  8
_0-3_躯体と製品
  6
CONTINUOUS
 62
    4
 10
2769.3150573103385
 20
1990.9454412625664
 11
2787.803913473681
 21
1853.8485622828048
  0
ARC
  8
_0-3_躯体と製品
  6
CONTINUOUS
 62
    4
 10
2794.9393194511831
 20
1854.8108416269388
 40
7.1999999999942457
 50
187.68055791135777
 51
270.00000000013205
  0
LINE
  8
_0-3_躯体と製品
  6
CONTINUOUS
 62
    4
 10
2794.9393194511995
 20
1847.6108416269444
 11
2825.6451311647888
 21
1847.6108416269444
  0
LINE
  8
_0-3_躯体と製品
  6
CONTINUOUS
 62
    4
 10
2825.6451311647888
 20
1847.6108416269444
 11
2825.6451311647888
 21
1850.8108416269279
  0
LINE
  8
_0-3_躯体と製品
  6
CONTINUOUS
 62
    4
 10
2825.6451311647888
 20
1850.8108416269279
 11
2794.9393194511995
 21
1850.8108416269279
  0
ARC
  8
_0-3_躯体と製品
  6
CONTINUOUS
 62
    4
 10
2794.9393194511995
 20
1849.2108416269361
 40
1.5999999999917236
 50
90
 51
270
  0
LINE
  8
_0-3_躯体と製品
  6
CONTINUOUS
 62
    4
 10
2704.1451311647888
 20
1850.8108416269279
 11
2704.1451311647888
 21
1847.6108416269444
  0
LINE
  8
_0-3_躯体と製品
  6
CONTINUOUS
 62
    4
 10
2797.1451311647888
 20
1850.8108416269279
 11
2797.1451311647888
 21
1847.6108416269444
  0
LINE
  8
_0-3_躯体と製品
  6
CONTINUOUS
 62
    4
 10
2735.9393194511995
 20
1994.4108416269328
 11
2734.6451311647888
 21
1997.4935725041742
  0
LINE
  8
_0-3_躯体と製品
  6
CONTINUOUS
 62
    4
 10
2736.6451315715149
 20
2001.6108423106225
 11
2764.6451316088842
 21
2001.6108423106225
  0
LINE
  8
_0-3_躯体と製品
  6
CONTINUOUS
 62
    4
 10
2764.6451316088842
 20
2001.6108423106225
 11
2764.6451316088842
 21
1997.6108423106225
  0
LINE
  8
_0-3_躯体と製品
  6
CONTINUOUS
 62
    4
 10
2764.6451316088842
 20
1997.6108423106225
 11
2736.6451315715149
 21
1997.6108423106225
  0
LINE
  8
_0-3_躯体と製品
  6
CONTINUOUS
 62
    4
 10
2736.6451315715149
 20
1997.6108423106225
 11
2736.6451315715149
 21
2001.6108423106225
  0
LINE
  8
_0-3_躯体と製品
  6
CONTINUOUS
 62
    4
 10
2750.6451307393781
 20
2001.6108423106225
 11
2746.6451307393781
 21
1997.6108423106225
  0
LINE
  8
_0-3_躯体と製品
  6
CONTINUOUS
 62
    4
 10
2754.6451307867592
 20
2001.6108423393198
 11
2750.6451307867601
 21
1997.6108423393189
  0
LINE
  8
_0-3_躯体と製品
  6
CONTINUOUS
 62
    4
 10
2765.3509428783791
 20
1994.4108416269328
 11
2766.6451311647888
 21
1997.4935725041742
  0
LINE
  8
_0-3_躯体と製品
  6
CONTINUOUS
 62
    4
 10
2675.6451311647888
 20
1845.6108416269444
 11
2700.6451311647888
 21
1845.6108416269444
  0
LINE
  8
_0-3_躯体と製品
  6
CONTINUOUS
 62
    4
 10
2700.6451311647888
 20
1845.6108416269444
 11
2700.6451311647888
 21
1847.6108416269444
  0
LINE
  8
_0-3_躯体と製品
  6
CONTINUOUS
 62
    4
 10
2700.6451311647888
 20
1847.6108416269444
 11
2675.6451311647888
 21
1847.6108416269444
  0
LINE
  8
_0-3_躯体と製品
  6
CONTINUOUS
 62
    4
 10
2675.6451311647888
 20
1847.6108416269444
 11
2675.6451311647888
 21
1845.6108416269444
  0
LINE
  8
_0-3_躯体と製品
  6
CONTINUOUS
 62
    4
 10
2825.6451311647888
 20
1845.6108416269444
 11
2800.6451311647888
 21
1845.6108416269444
  0
LINE
  8
_0-3_躯体と製品
  6
CONTINUOUS
 62
    4
 10
2800.6451311647888
 20
1845.6108416269444
 11
2800.6451311647888
 21
1847.6108416269444
  0
LINE
  8
_0-3_躯体と製品
  6
CONTINUOUS
 62
    4
 10
2800.6451311647888
 20
1847.6108416269444
 11
2825.6451311647888
 21
1847.6108416269444
  0
LINE
  8
_0-3_躯体と製品
  6
CONTINUOUS
 62
    4
 10
2825.6451311647888
 20
1847.6108416269444
 11
2825.6451311647888
 21
1845.6108416269444
  0
LINE
  8
_0-3_躯体と製品
  6
CONTINUOUS
 62
    4
 10
2798.5059163518072
 20
1850.8108423136318
 11
2780.1921801460894
 21
1986.609173054374
  0
ARC
  8
_0-3_躯体と製品
  6
CONTINUOUS
 62
    4
 10
2776.2280657218139
 20
1986.0745733618664
 40
3.9999999999971285
 50
7.6805587334454755
 51
82.319442910993359
  0
LINE
  8
_0-3_躯体と製品
  6
CONTINUOUS
 62
    4
 10
2776.7626653005482
 20
1990.0386878014851
 11
2772.5904291012612
 21
1990.6013546337808
  0
LINE
  8
_0-3_躯体と製品
  6
CONTINUOUS
 62
    4
 10
2772.5904291012612
 20
1990.6013546337808
 11
2772.4863488558967
 21
1991.3731209710568
  0
ARC
  8
_0-3_躯体と製品
  6
CONTINUOUS
 62
    4
 10
2765.3509428783941
 20
1990.4108416269537
 40
7.1999999999907294
 50
7.6805579111142084
 51
89.999999999888374
  0
LINE
  8
_0-3_躯体と製品
  6
CONTINUOUS
 62
    4
 10
2765.3509428784082
 20
1997.6108416269444
 11
2735.9393194511995
 21
1997.6108416269444
  0
ARC
  8
_0-3_躯体と製品
  6
CONTINUOUS
 62
    4
 10
2735.9695949146549
 20
1990.3363180751398
 40
7.2745865524746938
 50
90.238454965639789
 51
177.91206638987759
  0
LINE
  8
_0-3_躯体と製品
  6
CONTINUOUS
 62
    4
 10
2728.6998380422647
 20
1990.6013549136724
 11
2724.5275949568368
 21
1990.0386874267451
  0
ARC
  8
_0-3_躯体と製品
  6
CONTINUOUS
 62
    4
 10
2725.0621945924577
 20
1986.0745729947964
 40
3.9999999999987201
 50
97.680557911226032
 51
172.31944208877391
  0
LINE
  8
_0-3_躯体と製品
  6
CONTINUOUS
 62
    4
 10
2721.0980801605092
 20
1986.6091726304176
 11
2702.7843459031474
 21
1850.8108416269279
  0
LINE
  8
_0-3_躯体と製品
  6
CONTINUOUS
 62
    4
 10
2757.5733374605234
 20
2013.1108423106225
 11
2757.5733374605234
 21
2001.6108423106225
  0
LINE
  8
_0-3_躯体と製品
  6
CONTINUOUS
 62
    4
 10
2743.7169309999499
 20
2013.1108423106225
 11
2743.7169309999499
 21
2001.6108423106225
  0
LINE
  8
_0-3_躯体と製品
  6
CONTINUOUS
 62
    4
 10
2740.2528293848209
 20
2014.6108423106234
 11
2761.0374390756524
 21
2014.6108423106234
  0
ARC
  8
_0-3_躯体と製品
  6
CONTINUOUS
 62
    4
 10
2740.2528293848204
 20
2009.8608423106289
 40
4.7499999999895284
 50
43.173551107269937
 51
136.8264488927301
  0
ARC
  8
_0-3_躯体と製品
  6
CONTINUOUS
 62
    4
 10
2750.6451342302366
 20
1997.8608423105964
 40
16.750000000028518
 50
65.56730232054764
 51
114.43269767945236
  0
ARC
  8
_0-3_躯体と製品
  6
CONTINUOUS
 62
    4
 10
2761.0374390756533
 20
2009.86084231063
 40
4.7499999999891989
 50
43.173551107257659
 51
136.82644889274232
  0
LINE
  8
_0-3_躯体と製品
  6
CONTINUOUS
 62
    4
 10
2764.5015406907833
 20
2013.1108423106225
 11
2764.5015406907833
 21
2001.6108423106225
  0
LINE
  8
_0-3_躯体と製品
  6
CONTINUOUS
 62
    4
 10
2764.5015406907833
 20
2001.6108423106225
 11
2736.7887277696909
 21
2001.6108423106225
  0
LINE
  8
_0-3_躯体と製品
  6
CONTINUOUS
 62
    4
 10
2736.7887277696909
 20
2001.6108423106225
 11
2736.7887277696909
 21
2013.1108423106225
  0
LINE
  8
_0-3_躯体と製品
  6
CONTINUOUS
 62
    4
 10
2757.573338522232
 20
1982.9108416269328
 11
2757.573338522232
 21
1994.4108416269328
  0
LINE
  8
_0-3_躯体と製品
  6
CONTINUOUS
 62
    4
 10
2743.7169320616858
 20
1982.9108416269328
 11
2743.7169320616858
 21
1994.4108416269328
  0
LINE
  8
_0-3_躯体と製品
  6
CONTINUOUS
 62
    4
 10
2740.2528304465577
 20
1981.4108416269328
 11
2761.0374401373901
 21
1981.4108416269328
  0
ARC
  8
_0-3_躯体と製品
  6
CONTINUOUS
 62
    4
 10
2740.2528304465422
 20
1986.1608416269396
 40
4.7500000000088578
 50
223.1735511072699
 51
316.82644889273007
  0
ARC
  8
_0-3_躯体と製品
  6
CONTINUOUS
 62
    4
 10
2750.6451352919589
 20
1998.1608416269289
 40
16.749999999995538
 50
245.56730232054764
 51
294.43269767945236
  0
ARC
  8
_0-3_躯体と製品
  6
CONTINUOUS
 62
    4
 10
2761.0374401373756
 20
1986.1608416269382
 40
4.7500000000079048
 50
223.17355110725768
 51
316.82644889274235
  0
LINE
  8
_0-3_躯体と製品
  6
CONTINUOUS
 62
    4
 10
2764.5015417525192
 20
1982.9108416269328
 11
2764.5015417525192
 21
1994.4108416269328
  0
LINE
  8
_0-3_躯体と製品
  6
CONTINUOUS
 62
    4
 10
2764.5015417525192
 20
1994.4108416269328
 11
2736.7887288313987
 21
1994.4108416269328
  0
LINE
  8
_0-3_躯体と製品
  6
CONTINUOUS
 62
    4
 10
2736.7887288313987
 20
1994.4108416269328
 11
2736.7887288313987
 21
1982.9108416269328
  0
LINE
  8
_0-3_躯体と製品
  6
CONTINUOUS
 62
    4
 10
1689.7214006128015
 20
1055.1329216269442
 11
1212.5808206127867
 21
1055.1329216269442
  0
LINE
  8
_0-3_躯体と製品
  6
CONTINUOUS
 62
    4
 10
1169.4131611647817
 20
1055.1329216269442
 11
1000.520401164782
 21
1055.1329216269442
  0
LINE
  8
_0-3_躯体と製品
  6
CONTINUOUS
 62
    4
 10
950.52040116479793
 20
1055.1329216269442
 11
775.52040116478474
 21
1055.1329216269442
  0
LINE
  8
_0-3_躯体と製品
  6
CONTINUOUS
 62
    4
 10
775.52040116478474
 20
1005.1329216269442
 11
950.52040116484886
 21
1005.1329216269442
  0
LINE
  8
_0-3_躯体と製品
  6
CONTINUOUS
 62
    4
 10
1000.5204011648329
 20
1005.1329216269442
 11
1169.4131611647817
 21
1005.1329216269442
  0
LINE
  8
_0-3_躯体と製品
  6
CONTINUOUS
 62
    4
 10
1212.5808206127867
 20
1005.1329216269442
 11
1689.7214006128515
 21
1005.1329216269442
  0
LINE
  8
_0-3_躯体と製品
  6
CONTINUOUS
 62
    3
 10
775.52040116478474
 20
1102.1329216269442
 11
1169.4131611647817
 21
1102.1329216269442
  0
LINE
  8
_0-3_躯体と製品
  6
CONTINUOUS
 62
    3
 10
1212.5808206127867
 20
1102.1329216269442
 11
2115.3564306127882
 21
1102.1329216269442
  0
LINE
  8
_0-3_躯体と製品
  6
CONTINUOUS
 62
    3
 10
775.52040116478474
 20
1107.132921626946
 11
1169.4131611647817
 21
1107.132921626946
  0
LINE
  8
_0-3_躯体と製品
  6
CONTINUOUS
 62
    3
 10
1212.5808206127867
 20
1107.132921626946
 11
2115.3564306127882
 21
1107.132921626946
  0
LINE
  8
_0-3_躯体と製品
  6
CONTINUOUS
 62
    4
 10
1739.7214006127861
 20
1055.1329216269442
 11
2115.3564306127882
 21
1055.1329216269442
  0
LINE
  8
_0-3_躯体と製品
  6
CONTINUOUS
 62
    4
 10
775.52040116478474
 20
1112.132921626946
 11
1169.4131611647817
 21
1112.132921626946
  0
LINE
  8
_0-3_躯体と製品
  6
CONTINUOUS
 62
    4
 10
1212.5808206127867
 20
1112.132921626946
 11
2115.3564306127882
 21
1112.132921626946
  0
LINE
  8
_0-3_躯体と製品
  6
CONTINUOUS
 62
    4
 10
787.52040116478383
 20
1130.1329216269442
 11
1169.4131611647817
 21
1130.1329216269442
  0
LINE
  8
_0-3_躯体と製品
  6
CONTINUOUS
 62
    4
 10
1212.5808206127867
 20
1130.1329216269442
 11
2115.3564306127882
 21
1130.1329216269442
  0
LINE
  8
_0-3_躯体と製品
  6
CONTINUOUS
 62
    4
 10
775.52040116478474
 20
1097.132921626946
 11
1169.4131611647817
 21
1097.132921626946
  0
LINE
  8
_0-3_躯体と製品
  6
CONTINUOUS
 62
    4
 10
1212.5808206127867
 20
1097.132921626946
 11
2115.3564306127882
 21
1097.132921626946
  0
LINE
  8
_0-3_躯体と製品
  6
CONTINUOUS
 62
    4
 10
1739.7214006128361
 20
1005.1329216269442
 11
2115.3564306127882
 21
1005.1329216269442
  0
LINE
  8
_0-5_中心線
  6
CENTER1
 62
    7
 10
1714.7214006127861
 20
616.82928682634611
 11
1714.7214006127861
 21
1080.838855837721
  0
LINE
  8
_0-3_躯体と製品
  6
CONTINUOUS
 62
    4
 10
1700.7213993280311
 20
786.13292291170455
 11
1728.7213993653995
 21
786.13292291170455
  0
LINE
  8
_0-3_躯体と製品
  6
CONTINUOUS
 62
    4
 10
1728.7213993653995
 20
786.13292291170455
 11
1728.7213993653995
 21
782.13292291170455
  0
LINE
  8
_0-3_躯体と製品
  6
CONTINUOUS
 62
    4
 10
1728.7213993653995
 20
782.13292291170455
 11
1700.7213993280311
 21
782.13292291170455
  0
LINE
  8
_0-3_躯体と製品
  6
CONTINUOUS
 62
    4
 10
1700.7213993280311
 20
782.13292291170455
 11
1700.7213993280311
 21
786.13292291170455
  0
LINE
  8
_0-3_躯体と製品
  6
CONTINUOUS
 62
    4
 10
1714.7213993467158
 20
786.13292291170455
 11
1718.7213993467158
 21
782.13292291170455
  0
LINE
  8
_0-3_躯体と製品
  6
CONTINUOUS
 62
    4
 10
1710.7213992993338
 20
786.13292294040184
 11
1714.7213992993347
 21
782.13292294040184
  0
LINE
  8
_0-3_躯体と製品
  6
CONTINUOUS
 62
    4
 10
1739.7214006127897
 20
635.3329216269276
 11
1739.7214006127897
 21
775.1234349136721
  0
LINE
  8
_0-3_躯体と製品
  6
CONTINUOUS
 62
    4
 10
1739.7214006127897
 20
775.1234349136721
 11
1689.7214006127897
 21
775.1234349136721
  0
LINE
  8
_0-3_躯体と製品
  6
CONTINUOUS
 62
    4
 10
1689.7214006127897
 20
775.1234349136721
 11
1689.7214006127897
 21
635.3329216269276
  0
LINE
  8
_0-3_躯体と製品
  6
CONTINUOUS
 62
    4
 10
1684.7214006127906
 20
632.13292162694597
 11
1744.7214006127906
 21
632.13292162694597
  0
LINE
  8
_0-3_躯体と製品
  6
CONTINUOUS
 62
    4
 10
1744.7214006127906
 20
632.13292162694597
 11
1744.7214006127906
 21
635.3329216269276
  0
LINE
  8
_0-3_躯体と製品
  6
CONTINUOUS
 62
    4
 10
1744.7214006127906
 20
635.3329216269276
 11
1684.7214006127906
 21
635.3329216269276
  0
LINE
  8
_0-3_躯体と製品
  6
CONTINUOUS
 62
    4
 10
1684.7214006127906
 20
635.3329216269276
 11
1684.7214006127906
 21
632.13292162694597
  0
LINE
  8
_0-3_躯体と製品
  6
CONTINUOUS
 62
    4
 10
1692.9214006128022
 20
782.13292162694415
 11
1692.9214006128022
 21
635.3329216269276
  0
LINE
  8
_0-3_躯体と製品
  6
CONTINUOUS
 62
    4
 10
1736.521400612779
 20
782.13292162694415
 11
1736.521400612779
 21
635.3329216269276
  0
LINE
  8
_0-3_躯体と製品
  6
CONTINUOUS
 62
    4
 10
1692.9214006128022
 20
778.93292162693342
 11
1684.7214006127906
 21
778.93292162693342
  0
LINE
  8
_0-3_躯体と製品
  6
CONTINUOUS
 62
    4
 10
1684.7214006127906
 20
778.93292162693342
 11
1684.7214006127906
 21
782.13292162694415
  0
LINE
  8
_0-3_躯体と製品
  6
CONTINUOUS
 62
    4
 10
1684.7214006127906
 20
782.13292162694415
 11
1744.7214006127906
 21
782.13292162694415
  0
LINE
  8
_0-3_躯体と製品
  6
CONTINUOUS
 62
    4
 10
1744.7214006127906
 20
782.13292162694415
 11
1744.7214006127906
 21
778.93292162693342
  0
LINE
  8
_0-3_躯体と製品
  6
CONTINUOUS
 62
    4
 10
1744.7214006127906
 20
778.93292162693342
 11
1736.521400612779
 21
778.93292162693342
  0
LINE
  8
_0-3_躯体と製品
  6
CONTINUOUS
 62
    4
 10
1744.7214006127906
 20
630.13292162694415
 11
1684.7214006127906
 21
630.13292162694415
  0
LINE
  8
_0-3_躯体と製品
  6
CONTINUOUS
 62
    4
 10
1684.7214006127906
 20
630.13292162694415
 11
1684.7214006127906
 21
632.13292162694597
  0
LINE
  8
_0-3_躯体と製品
  6
CONTINUOUS
 62
    4
 10
1684.7214006127906
 20
632.13292162694597
 11
1744.7214006127906
 21
632.13292162694597
  0
LINE
  8
_0-3_躯体と製品
  6
CONTINUOUS
 62
    4
 10
1744.7214006127906
 20
632.13292162694597
 11
1744.7214006127906
 21
630.13292162694415
  0
LINE
  8
_0-3_躯体と製品
  6
CONTINUOUS
 62
    4
 10
1708.7208329372506
 20
799.13292270067359
 11
1720.7213982413514
 21
799.13292263766289
  0
LINE
  8
_0-3_躯体と製品
  6
CONTINUOUS
 62
    4
 10
1702.7213982784888
 20
786.13292299779368
 11
1702.7213982784888
 21
797.63292266918143
  0
ARC
  8
_0-3_躯体と製品
  6
CONTINUOUS
 62
    4
 10
1708.721398249545
 20
786.38292315932483
 40
12.749999553899949
 50
61.927512142394527
 51
118.07248785760547
  0
ARC
  8
_0-3_躯体と製品
  6
CONTINUOUS
 62
    4
 10
1720.721398249545
 20
786.38292228555247
 40
12.750000352116722
 50
61.927513760650953
 51
118.07248623934905
  0
LINE
  8
_0-3_躯体と製品
  6
CONTINUOUS
 62
    4
 10
1726.7213982784888
 20
797.63292266918143
 11
1726.7213982784888
 21
786.13292282561542
  0
LINE
  8
_0-3_躯体と製品
  6
CONTINUOUS
 62
    4
 10
1714.7213982098619
 20
797.63292266918143
 11
1714.7213981306704
 21
786.13292291170455
  0
LINE
  8
_0-5_中心線
  6
CENTER1
 62
    7
 10
975.52040116478383
 20
616.82928682634611
 11
975.52040116478383
 21
1080.838855837721
  0
LINE
  8
_0-3_躯体と製品
  6
CONTINUOUS
 62
    4
 10
961.52039988002798
 20
786.13292291170455
 11
989.52039991739775
 21
786.13292291170455
  0
LINE
  8
_0-3_躯体と製品
  6
CONTINUOUS
 62
    4
 10
989.52039991739775
 20
786.13292291170455
 11
989.52039991739775
 21
782.13292291170455
  0
LINE
  8
_0-3_躯体と製品
  6
CONTINUOUS
 62
    4
 10
989.52039991739775
 20
782.13292291170455
 11
961.52039988002798
 21
782.13292291170455
  0
LINE
  8
_0-3_躯体と製品
  6
CONTINUOUS
 62
    4
 10
961.52039988002798
 20
782.13292291170455
 11
961.52039988002798
 21
786.13292291170455
  0
LINE
  8
_0-3_躯体と製品
  6
CONTINUOUS
 62
    4
 10
975.52039989871264
 20
786.13292291170455
 11
979.52039989871173
 21
782.13292291170455
  0
LINE
  8
_0-3_躯体と製品
  6
CONTINUOUS
 62
    4
 10
971.52039985133069
 20
786.13292294040184
 11
975.5203998513316
 21
782.13292294040184
  0
LINE
  8
_0-3_躯体と製品
  6
CONTINUOUS
 62
    4
 10
1000.520401164787
 20
635.3329216269276
 11
1000.520401164787
 21
775.1234349136721
  0
LINE
  8
_0-3_躯体と製品
  6
CONTINUOUS
 62
    4
 10
1000.520401164787
 20
775.1234349136721
 11
950.52040116478793
 21
775.1234349136721
  0
LINE
  8
_0-3_躯体と製品
  6
CONTINUOUS
 62
    4
 10
950.52040116478793
 20
775.1234349136721
 11
950.52040116478793
 21
635.3329216269276
  0
LINE
  8
_0-3_躯体と製品
  6
CONTINUOUS
 62
    4
 10
945.52040116478702
 20
632.13292162694597
 11
1005.520401164787
 21
632.13292162694597
  0
LINE
  8
_0-3_躯体と製品
  6
CONTINUOUS
 62
    4
 10
1005.520401164787
 20
632.13292162694597
 11
1005.520401164787
 21
635.3329216269276
  0
LINE
  8
_0-3_躯体と製品
  6
CONTINUOUS
 62
    4
 10
1005.520401164787
 20
635.3329216269276
 11
945.52040116478702
 21
635.3329216269276
  0
LINE
  8
_0-3_躯体と製品
  6
CONTINUOUS
 62
    4
 10
945.52040116478702
 20
635.3329216269276
 11
945.52040116478702
 21
632.13292162694597
  0
LINE
  8
_0-3_躯体と製品
  6
CONTINUOUS
 62
    4
 10
953.72040116480002
 20
782.13292162694415
 11
953.72040116480002
 21
635.3329216269276
  0
LINE
  8
_0-3_躯体と製品
  6
CONTINUOUS
 62
    4
 10
997.32040116477583
 20
782.13292162694415
 11
997.32040116477583
 21
635.3329216269276
  0
LINE
  8
_0-3_躯体と製品
  6
CONTINUOUS
 62
    4
 10
953.72040116480002
 20
778.93292162693342
 11
945.52040116478702
 21
778.93292162693342
  0
LINE
  8
_0-3_躯体と製品
  6
CONTINUOUS
 62
    4
 10
945.52040116478702
 20
778.93292162693342
 11
945.52040116478702
 21
782.13292162694415
  0
LINE
  8
_0-3_躯体と製品
  6
CONTINUOUS
 62
    4
 10
945.52040116478702
 20
782.13292162694415
 11
1005.520401164787
 21
782.13292162694415
  0
LINE
  8
_0-3_躯体と製品
  6
CONTINUOUS
 62
    4
 10
1005.520401164787
 20
782.13292162694415
 11
1005.520401164787
 21
778.93292162693342
  0
LINE
  8
_0-3_躯体と製品
  6
CONTINUOUS
 62
    4
 10
1005.520401164787
 20
778.93292162693342
 11
997.32040116477583
 21
778.93292162693342
  0
LINE
  8
_0-3_躯体と製品
  6
CONTINUOUS
 62
    4
 10
1005.520401164787
 20
630.13292162694415
 11
945.52040116478702
 21
630.13292162694415
  0
LINE
  8
_0-3_躯体と製品
  6
CONTINUOUS
 62
    4
 10
945.52040116478702
 20
630.13292162694415
 11
945.52040116478702
 21
632.13292162694597
  0
LINE
  8
_0-3_躯体と製品
  6
CONTINUOUS
 62
    4
 10
945.52040116478702
 20
632.13292162694597
 11
1005.520401164787
 21
632.13292162694597
  0
LINE
  8
_0-3_躯体と製品
  6
CONTINUOUS
 62
    4
 10
1005.520401164787
 20
632.13292162694597
 11
1005.520401164787
 21
630.13292162694415
  0
LINE
  8
_0-3_躯体と製品
  6
CONTINUOUS
 62
    4
 10
969.51983348924796
 20
799.13292270067359
 11
981.5203987933487
 21
799.13292263766289
  0
LINE
  8
_0-3_躯体と製品
  6
CONTINUOUS
 62
    4
 10
963.52039883048565
 20
786.13292299779368
 11
963.52039883048565
 21
797.63292266918143
  0
ARC
  8
_0-3_躯体と製品
  6
CONTINUOUS
 62
    4
 10
969.52039880154166
 20
786.38292315932529
 40
12.749999553899466
 50
61.927512142394527
 51
118.07248785760547
  0
ARC
  8
_0-3_躯体と製品
  6
CONTINUOUS
 62
    4
 10
981.52039880154121
 20
786.38292228555292
 40
12.750000352116238
 50
61.927513760650953
 51
118.07248623934905
  0
LINE
  8
_0-3_躯体と製品
  6
CONTINUOUS
 62
    4
 10
987.52039883048474
 20
797.63292266918143
 11
987.52039883048474
 21
786.13292282561542
  0
LINE
  8
_0-3_躯体と製品
  6
CONTINUOUS
 62
    4
 10
975.52039876185881
 20
797.63292266918143
 11
975.52039868266684
 21
786.13292291170455
  0
LINE
  8
_0-3_躯体と製品
  6
CONTINUOUS
 62
    4
 10
2588.1451311647852
 20
2312.6108416269453
 11
3886.7658411647835
 21
2312.6108416269462
  0
LINE
  8
_0-3_躯体と製品
  6
CONTINUOUS
 62
    4
 10
2612.6451311647834
 20
2345.6108416270372
 11
3886.7658411647835
 21
2345.6108416269462
  0
LINE
  8
_0-3_躯体と製品
  6
CONTINUOUS
 62
    3
 10
2588.1451311647852
 20
2322.6108416269453
 11
2820.6454311647858
 21
2322.6108416269453
  0
LINE
  8
_0-3_躯体と製品
  6
CONTINUOUS
 62
    3
 10
2980.6448311647846
 20
2322.6108416269453
 11
3886.7658411647835
 21
2322.6108416269462
  0
LINE
  8
_0-3_躯体と製品
  6
CONTINUOUS
 62
    3
 10
2588.1451311647852
 20
2317.6108416269453
 11
2820.6454311647858
 21
2317.6108416269453
  0
LINE
  8
_0-3_躯体と製品
  6
CONTINUOUS
 62
    3
 10
2980.6448311647846
 20
2317.6108416269453
 11
3886.7658411647835
 21
2317.6108416269462
  0
LINE
  8
_0-3_躯体と製品
  6
CONTINUOUS
 62
    4
 10
2588.1451311647852
 20
2327.6108416269453
 11
2820.6454311647858
 21
2327.6108416269453
  0
LINE
  8
_0-3_躯体と製品
  6
CONTINUOUS
 62
    4
 10
2980.6448311647846
 20
2327.6108416269453
 11
3886.7658411647835
 21
2327.6108416269462
  0
LINE
  8
_0-4_文字-記号
  6
CONTINUOUS
 62
    7
 10
1692.749938488435
 20
2094.7352836258578
 11
1707.3909545977058
 21
2109.3762998015463
  0
LINE
  8
_0-4_文字-記号
  6
CONTINUOUS
 62
    7
 10
1707.3909545977058
 20
2109.3762998015463
 11
1702.0319707069757
 21
2089.3762998258571
  0
LINE
  8
_0-4_文字-記号
  6
CONTINUOUS
 62
    7
 10
1707.3909545977058
 20
2109.3762998015463
 11
1646.920540646709
 21
2004.6384704836992
  0
LINE
  8
_0-4_文字-記号
  6
CONTINUOUS
 62
    7
 10
1646.920540646709
 20
2004.6384704836992
 11
1274.4639899594749
 21
2004.6384704836992
  0
LINE
  8
_0-3_躯体と製品
  6
CONTINUOUS
 62
    6
 10
2612.6451311647834
 20
2342.5458316269423
 11
2615.7101311647857
 21
2345.6108416269426
  0
LINE
  8
_0-3_躯体と製品
  6
CONTINUOUS
 62
    6
 10
2612.6451311647834
 20
2335.4747716269421
 11
2622.7812011647857
 21
2345.6108416269426
  0
LINE
  8
_0-3_躯体と製品
  6
CONTINUOUS
 62
    6
 10
2625.9944024718516
 20
2327.6108416269426
 11
2632.6451311647852
 21
2334.2615616269404
  0
LINE
  8
_0-3_躯体と製品
  6
CONTINUOUS
 62
    6
 10
2618.9233411647856
 20
2327.6108416269426
 11
2632.6451311647852
 21
2341.3326316269422
  0
LINE
  8
_0-3_躯体と製品
  6
CONTINUOUS
 62
    6
 10
2612.6451311647834
 20
2328.4037016269413
 11
2629.8522711647847
 21
2345.6108416269426
  0
LINE
  8
_0-3_躯体と製品
  6
CONTINUOUS
 62
    4
 10
2632.6451311647852
 20
2327.6108416269426
 11
2612.6451311647834
 21
2327.6108416269426
  0
LINE
  8
_0-3_躯体と製品
  6
CONTINUOUS
 62
    4
 10
2632.6451311647852
 20
2345.6108416269426
 11
2632.6451311647852
 21
2327.6108416269426
  0
LINE
  8
_0-3_躯体と製品
  6
CONTINUOUS
 62
    4
 10
2612.6451311644159
 20
2327.6108416269553
 11
2612.6451311647834
 21
2345.6108416269426
  0
LINE
  8
_0-3_躯体と製品
  6
CONTINUOUS
 62
    3
 10
2612.6451311647834
 20
2332.6108416269453
 11
2612.6451311647834
 21
2445.6108416269453
  0
LINE
  8
_0-3_躯体と製品
  6
CONTINUOUS
 62
    3
 10
2588.1451311647852
 20
2437.6108416269453
 11
2588.1451311647852
 21
2332.6108416269453
  0
LINE
  8
_0-3_躯体と製品
  6
CONTINUOUS
 62
    3
 10
2600.6451311647852
 20
2727.3001716269446
 11
2600.6451311647852
 21
2435.6108416269453
  0
LINE
  8
_0-3_躯体と製品
  6
CONTINUOUS
 62
    6
 10
2588.1451311647852
 20
2347.5988929967589
 11
2612.6451311647834
 21
2372.0988818543401
  0
LINE
  8
_0-3_躯体と製品
  6
CONTINUOUS
 62
    6
 10
2590.1276052902022
 20
2332.6108416269453
 11
2612.6451311647834
 21
2355.1283226234591
  0
LINE
  8
_0-3_躯体と製品
  6
CONTINUOUS
 62
    3
 10
2588.1451311647852
 20
2332.6108416269453
 11
2612.6451311647834
 21
2332.6108416269453
  0
LINE
  8
_0-3_躯体と製品
  6
CONTINUOUS
 62
    6
 10
2588.1451311647852
 20
2398.5105716269445
 11
2612.6451311647834
 21
2423.0105716269454
  0
LINE
  8
_0-3_躯体と製品
  6
CONTINUOUS
 62
    6
 10
2588.1451311647852
 20
2364.5694516269441
 11
2612.6451311647834
 21
2389.0694516269459
  0
LINE
  8
_0-3_躯体と製品
  6
CONTINUOUS
 62
    6
 10
2588.1451311647852
 20
2381.5400116269448
 11
2612.6451311647834
 21
2406.0400116269448
  0
LINE
  8
_0-3_躯体と製品
  6
CONTINUOUS
 62
    6
 10
2588.1451311647852
 20
2432.4517016269456
 11
2591.304271164785
 21
2435.6108416269453
  0
LINE
  8
_0-3_躯体と製品
  6
CONTINUOUS
 62
    6
 10
2588.1451311647852
 20
2415.4811416269458
 11
2612.6451311647834
 21
2439.9811416269445
  0
LINE
  8
_0-3_躯体と製品
  6
CONTINUOUS
 62
    3
 10
2588.1451311647852
 20
2435.6108416269453
 11
2600.6451311647852
 21
2435.6108416269453
  0
LINE
  8
_0-3_躯体と製品
  6
CONTINUOUS
 62
    3
 10
2588.1451311647852
 20
2727.3001716269446
 11
2588.1451311647852
 21
2437.6108416269453
  0
LINE
  8
_0-3_躯体と製品
  6
CONTINUOUS
 62
    3
 10
2588.1451311647852
 20
2437.6108416269453
 11
2600.6451311647852
 21
2437.6108416269453
  0
LINE
  8
_0-3_躯体と製品
  6
CONTINUOUS
 62
    3
 10
2600.6451311647852
 20
2445.6108416269453
 11
2612.6451311647834
 21
2445.6108416269453
  0
LINE
  8
_0-3_躯体と製品
  6
CONTINUOUS
 62
    6
 10
2607.1326421612102
 20
2332.6108416269453
 11
2612.6451311647834
 21
2338.1233196439716
  0
LINE
  8
_0-3_躯体と製品
  6
CONTINUOUS
 62
    3
 10
763.02040116478474
 20
2442.4431016269446
 11
738.02040116478474
 21
2495.6108416269435
  0
LINE
  8
_0-3_躯体と製品
  6
CONTINUOUS
 62
    4
 10
763.02040116478474
 20
2272.6108416269453
 11
763.02040116478474
 21
2327.6108416269453
  0
LINE
  8
_0-3_躯体と製品
  6
CONTINUOUS
 62
    3
 10
738.02040116478474
 20
2422.4431016269455
 11
763.02040116478474
 21
2369.0997916269453
  0
LINE
  8
_0-3_躯体と製品
  6
CONTINUOUS
 62
    3
 10
738.02040116478474
 20
2369.0997916269453
 11
763.02040116478474
 21
2369.0997916269453
  0
LINE
  8
_0-3_躯体と製品
  6
CONTINUOUS
 62
    3
 10
738.02040116478474
 20
2422.4431016269455
 11
763.02040116478474
 21
2422.4431016269455
  0
LINE
  8
_0-3_躯体と製品
  6
CONTINUOUS
 62
    3
 10
738.02040116478474
 20
2442.4431016269446
 11
763.02040116478474
 21
2442.4431016269446
  0
LINE
  8
_0-3_躯体と製品
  6
CONTINUOUS
 62
    3
 10
763.02040116478474
 20
2727.3001716269446
 11
763.02040116478474
 21
2468.3624116269443
  0
LINE
  8
_0-3_躯体と製品
  6
CONTINUOUS
 62
    3
 10
738.02040116478474
 20
2495.6108416269435
 11
763.02040116478474
 21
2495.6108416269435
  0
LINE
  8
_0-3_躯体と製品
  6
CONTINUOUS
 62
    6
 10
787.52040116478383
 20
2342.5458316269423
 11
790.58540116478571
 21
2345.6108416269426
  0
LINE
  8
_0-3_躯体と製品
  6
CONTINUOUS
 62
    6
 10
787.52040116478383
 20
2335.4747716269421
 11
797.65647116478567
 21
2345.6108416269426
  0
LINE
  8
_0-3_躯体と製品
  6
CONTINUOUS
 62
    6
 10
800.86967247185203
 20
2327.6108416269426
 11
807.52040116478474
 21
2334.2615616269404
  0
LINE
  8
_0-3_躯体と製品
  6
CONTINUOUS
 62
    6
 10
793.7986111647856
 20
2327.6108416269426
 11
807.52040116478474
 21
2341.3326316269422
  0
LINE
  8
_0-3_躯体と製品
  6
CONTINUOUS
 62
    6
 10
787.52040116478383
 20
2328.4037016269413
 11
804.72754116478472
 21
2345.6108416269426
  0
LINE
  8
_0-3_躯体と製品
  6
CONTINUOUS
 62
    4
 10
807.52040116478474
 20
2327.6108416269426
 11
787.52040116478383
 21
2327.6108416269426
  0
LINE
  8
_0-3_躯体と製品
  6
CONTINUOUS
 62
    4
 10
807.52040116478474
 20
2345.6108416269426
 11
807.52040116478474
 21
2327.6108416269426
  0
LINE
  8
_0-3_躯体と製品
  6
CONTINUOUS
 62
    4
 10
787.52040116441685
 20
2327.6108416269553
 11
787.52040116478383
 21
2345.6108416269426
  0
LINE
  8
_0-3_躯体と製品
  6
CONTINUOUS
 62
    3
 10
787.52040116478383
 20
2332.6108416269453
 11
787.52040116478383
 21
2445.6108416269453
  0
LINE
  8
_0-3_躯体と製品
  6
CONTINUOUS
 62
    3
 10
763.02040116478474
 20
2437.6108416269453
 11
763.02040116478474
 21
2332.6108416269453
  0
LINE
  8
_0-3_躯体と製品
  6
CONTINUOUS
 62
    3
 10
775.52040116478474
 20
2727.3001716269446
 11
775.52040116478474
 21
2435.6108416269453
  0
LINE
  8
_0-3_躯体と製品
  6
CONTINUOUS
 62
    6
 10
763.02040116478474
 20
2347.5988929967589
 11
787.52040116478383
 21
2372.0988818543401
  0
LINE
  8
_0-3_躯体と製品
  6
CONTINUOUS
 62
    6
 10
765.00287529020079
 20
2332.6108416269453
 11
787.52040116478474
 21
2355.1283226234591
  0
LINE
  8
_0-3_躯体と製品
  6
CONTINUOUS
 62
    3
 10
763.02040116478474
 20
2332.6108416269453
 11
787.52040116478383
 21
2332.6108416269453
  0
LINE
  8
_0-3_躯体と製品
  6
CONTINUOUS
 62
    6
 10
763.02040116478474
 20
2398.5105716269445
 11
787.52040116478383
 21
2423.0105716269454
  0
LINE
  8
_0-3_躯体と製品
  6
CONTINUOUS
 62
    6
 10
763.02040116478474
 20
2364.5694516269441
 11
787.52040116478383
 21
2389.0694516269459
  0
LINE
  8
_0-3_躯体と製品
  6
CONTINUOUS
 62
    6
 10
763.02040116478474
 20
2381.5400116269448
 11
787.52040116478383
 21
2406.0400116269448
  0
LINE
  8
_0-3_躯体と製品
  6
CONTINUOUS
 62
    6
 10
763.02040116478474
 20
2432.4517016269456
 11
766.17954116478495
 21
2435.6108416269453
  0
LINE
  8
_0-3_躯体と製品
  6
CONTINUOUS
 62
    6
 10
763.02040116478474
 20
2415.4811416269458
 11
787.52040116478383
 21
2439.9811416269445
  0
LINE
  8
_0-3_躯体と製品
  6
CONTINUOUS
 62
    3
 10
763.02040116478474
 20
2435.6108416269453
 11
775.52040116478474
 21
2435.6108416269453
  0
LINE
  8
_0-3_躯体と製品
  6
CONTINUOUS
 62
    3
 10
763.02040116478474
 20
2727.3001716269446
 11
763.02040116478474
 21
2437.6108416269453
  0
LINE
  8
_0-3_躯体と製品
  6
CONTINUOUS
 62
    3
 10
763.02040116478474
 20
2437.6108416269453
 11
775.52040116478474
 21
2437.6108416269453
  0
LINE
  8
_0-3_躯体と製品
  6
CONTINUOUS
 62
    3
 10
775.52040116478474
 20
2445.6108416269453
 11
787.52040116478383
 21
2445.6108416269453
  0
LINE
  8
_0-3_躯体と製品
  6
CONTINUOUS
 62
    6
 10
782.00791216121161
 20
2332.6108416269453
 11
787.52040116478383
 21
2338.1233196439716
  0
LINE
  8
_0-3_躯体と製品
  6
CONTINUOUS
 62
    3
 10
763.02040116478474
 20
1226.9651816269443
 11
738.02040116478474
 21
1280.1329216269432
  0
LINE
  8
_0-3_躯体と製品
  6
CONTINUOUS
 62
    3
 10
738.02040116478474
 20
1206.9651816269443
 11
763.02040116478474
 21
1153.6218716269432
  0
LINE
  8
_0-3_躯体と製品
  6
CONTINUOUS
 62
    3
 10
738.02040116478474
 20
1153.6218716269432
 11
763.02040116478474
 21
1153.6218716269432
  0
LINE
  8
_0-3_躯体と製品
  6
CONTINUOUS
 62
    3
 10
738.02040116478474
 20
1206.9651816269443
 11
763.02040116478474
 21
1206.9651816269443
  0
LINE
  8
_0-3_躯体と製品
  6
CONTINUOUS
 62
    3
 10
738.02040116478474
 20
1226.9651816269443
 11
763.02040116478474
 21
1226.9651816269443
  0
LINE
  8
_0-3_躯体と製品
  6
CONTINUOUS
 62
    3
 10
763.02040116478474
 20
1511.8222516269443
 11
763.02040116478474
 21
1252.8844916269445
  0
LINE
  8
_0-3_躯体と製品
  6
CONTINUOUS
 62
    3
 10
738.02040116478474
 20
1280.1329216269432
 11
763.02040116478474
 21
1280.1329216269432
  0
LINE
  8
_0-3_躯体と製品
  6
CONTINUOUS
 62
    6
 10
787.52040116478383
 20
1127.0679116269412
 11
790.58540116478571
 21
1130.1329216269423
  0
LINE
  8
_0-3_躯体と製品
  6
CONTINUOUS
 62
    6
 10
787.52040116478383
 20
1119.9968516269419
 11
797.65647116478567
 21
1130.1329216269423
  0
LINE
  8
_0-3_躯体と製品
  6
CONTINUOUS
 62
    6
 10
800.86967247185203
 20
1112.1329216269423
 11
807.52040116478474
 21
1118.783641626942
  0
LINE
  8
_0-3_躯体と製品
  6
CONTINUOUS
 62
    6
 10
793.7986111647856
 20
1112.1329216269423
 11
807.52040116478474
 21
1125.8547116269401
  0
LINE
  8
_0-3_躯体と製品
  6
CONTINUOUS
 62
    6
 10
787.52040116478383
 20
1112.9257816269428
 11
804.72754116478472
 21
1130.1329216269423
  0
LINE
  8
_0-3_躯体と製品
  6
CONTINUOUS
 62
    4
 10
807.52040116478474
 20
1112.1329216269423
 11
787.52040116478383
 21
1112.1329216269423
  0
LINE
  8
_0-3_躯体と製品
  6
CONTINUOUS
 62
    4
 10
807.52040116478474
 20
1130.1329216269423
 11
807.52040116478474
 21
1112.1329216269423
  0
LINE
  8
_0-3_躯体と製品
  6
CONTINUOUS
 62
    4
 10
787.52040116441685
 20
1112.1329216269542
 11
787.52040116478383
 21
1130.1329216269423
  0
LINE
  8
_0-3_躯体と製品
  6
CONTINUOUS
 62
    3
 10
787.52040116478383
 20
1117.1329216269442
 11
787.52040116478383
 21
1230.1329216269442
  0
LINE
  8
_0-3_躯体と製品
  6
CONTINUOUS
 62
    3
 10
763.02040116478474
 20
1222.132921626946
 11
763.02040116478474
 21
1117.1329216269442
  0
LINE
  8
_0-3_躯体と製品
  6
CONTINUOUS
 62
    3
 10
775.52040116478474
 20
1511.8222516269443
 11
775.52040116478474
 21
1220.1329216269442
  0
LINE
  8
_0-3_躯体と製品
  6
CONTINUOUS
 62
    6
 10
763.02040116478474
 20
1132.1209729967577
 11
787.52040116478383
 21
1156.6209618543417
  0
LINE
  8
_0-3_躯体と製品
  6
CONTINUOUS
 62
    6
 10
765.00287529020079
 20
1117.1329216269442
 11
787.52040116478383
 21
1139.6504026234588
  0
LINE
  8
_0-3_躯体と製品
  6
CONTINUOUS
 62
    3
 10
763.02040116478474
 20
1117.1329216269442
 11
787.52040116478383
 21
1117.1329216269442
  0
LINE
  8
_0-3_躯体と製品
  6
CONTINUOUS
 62
    6
 10
763.02040116478474
 20
1183.0326516269442
 11
787.52040116478383
 21
1207.5326516269433
  0
LINE
  8
_0-3_躯体と製品
  6
CONTINUOUS
 62
    6
 10
763.02040116478474
 20
1149.0915316269457
 11
787.52040116478383
 21
1173.5915316269447
  0
LINE
  8
_0-3_躯体と製品
  6
CONTINUOUS
 62
    6
 10
763.02040116478474
 20
1166.0620916269445
 11
787.52040116478383
 21
1190.5620916269445
  0
LINE
  8
_0-3_躯体と製品
  6
CONTINUOUS
 62
    6
 10
763.02040116478474
 20
1216.9737816269453
 11
766.17954116478495
 21
1220.1329216269442
  0
LINE
  8
_0-3_躯体と製品
  6
CONTINUOUS
 62
    6
 10
763.02040116478474
 20
1200.0032216269456
 11
787.52040116478383
 21
1224.5032216269447
  0
LINE
  8
_0-3_躯体と製品
  6
CONTINUOUS
 62
    3
 10
763.02040116478474
 20
1220.1329216269442
 11
775.52040116478474
 21
1220.1329216269442
  0
LINE
  8
_0-3_躯体と製品
  6
CONTINUOUS
 62
    3
 10
763.02040116478474
 20
1511.8222516269443
 11
763.02040116478474
 21
1222.132921626946
  0
LINE
  8
_0-3_躯体と製品
  6
CONTINUOUS
 62
    3
 10
763.02040116478474
 20
1222.132921626946
 11
775.52040116478474
 21
1222.132921626946
  0
LINE
  8
_0-3_躯体と製品
  6
CONTINUOUS
 62
    3
 10
775.52040116478474
 20
1230.1329216269442
 11
787.52040116478383
 21
1230.1329216269442
  0
LINE
  8
_0-3_躯体と製品
  6
CONTINUOUS
 62
    6
 10
782.00791216121161
 20
1117.1329216269442
 11
787.52040116478383
 21
1122.6453996439714
  0
LINE
  8
_0-3_躯体と製品
  6
CONTINUOUS
 62
    3
 10
1665.6403206127861
 20
2385.6106816269457
 11
1640.6404206127791
 21
2385.6106816269457
  0
LINE
  8
_0-3_躯体と製品
  6
CONTINUOUS
 62
    3
 10
1640.6404206127791
 20
2385.6106816269457
 11
1615.6405206127802
 21
2378.6107096269452
  0
LINE
  8
_0-3_躯体と製品
  6
CONTINUOUS
 62
    3
 10
1615.6405206127802
 20
2378.6107096269452
 11
1615.6405206127802
 21
2345.6108416269462
  0
LINE
  8
_0-3_躯体と製品
  6
CONTINUOUS
 62
    3
 10
1615.6405206127802
 20
2345.6108416269462
 11
1665.6403206127861
 21
2345.6108416269462
  0
LINE
  8
_0-3_躯体と製品
  6
CONTINUOUS
 62
    3
 10
1665.6403206127861
 20
2345.6108416269462
 11
1665.6403206127861
 21
2385.6106816269457
  0
ARC
  8
_0-3_躯体と製品
  6
CONTINUOUS
 62
    3
 10
1673.1402906127846
 20
2398.1106316269443
 40
7.4999699999984841
 50
0
 51
180
  0
LINE
  8
_0-3_躯体と製品
  6
CONTINUOUS
 62
    3
 10
1680.6402606127831
 20
2398.1106316269443
 11
1680.6402606127831
 21
2353.1108116269461
  0
ARC
  8
_0-3_躯体と製品
  6
CONTINUOUS
 62
    3
 10
1688.1402306127829
 20
2353.1108116269461
 40
7.4999699999998484
 50
180
 51
0
  0
LINE
  8
_0-3_躯体と製品
  6
CONTINUOUS
 62
    3
 10
1695.6402006127828
 20
2353.1108116269461
 11
1695.6402006127828
 21
2398.1106316269443
  0
ARC
  8
_0-3_躯体と製品
  6
CONTINUOUS
 62
    3
 10
1703.1401706127822
 20
2398.1106316269443
 40
7.4999699999993936
 50
0.0000000000000254
 51
180
  0
LINE
  8
_0-3_躯体と製品
  6
CONTINUOUS
 62
    3
 10
1710.6401406127816
 20
2398.1106316269443
 11
1710.6401406127816
 21
2353.1108116269461
  0
ARC
  8
_0-3_躯体と製品
  6
CONTINUOUS
 62
    3
 10
1718.1401106127837
 20
2353.1108116269461
 40
7.4999700000021221
 50
180
 51
0
  0
LINE
  8
_0-3_躯体と製品
  6
CONTINUOUS
 62
    3
 10
1725.6400806127858
 20
2353.1108116269461
 11
1725.6400806127858
 21
2398.1106316269443
  0
ARC
  8
_0-3_躯体と製品
  6
CONTINUOUS
 62
    3
 10
1733.1400506127857
 20
2398.1106316269443
 40
7.4999699999998484
 50
0.0000000000000254
 51
180
  0
LINE
  8
_0-3_躯体と製品
  6
CONTINUOUS
 62
    3
 10
1740.6400206127855
 20
2398.1106316269443
 11
1740.6400206127855
 21
2353.1108116269461
  0
ARC
  8
_0-3_躯体と製品
  6
CONTINUOUS
 62
    3
 10
1748.139990612784
 20
2353.1108116269461
 40
7.4999699999984841
 50
180
 51
0
  0
LINE
  8
_0-3_躯体と製品
  6
CONTINUOUS
 62
    3
 10
1755.6399606127825
 20
2353.1108116269461
 11
1755.6399606127825
 21
2398.1106316269443
  0
ARC
  8
_0-3_躯体と製品
  6
CONTINUOUS
 62
    3
 10
1763.1399306127828
 20
2398.1106316269443
 40
7.4999700000003031
 50
0.0000000000000254
 51
180
  0
LINE
  8
_0-3_躯体と製品
  6
CONTINUOUS
 62
    3
 10
1770.6399006127831
 20
2398.1106316269443
 11
1770.6399006127831
 21
2353.1108116269461
  0
ARC
  8
_0-3_躯体と製品
  6
CONTINUOUS
 62
    3
 10
1778.1398706127848
 20
2353.1108116269461
 40
7.4999700000016674
 50
180
 51
0
  0
LINE
  8
_0-3_躯体と製品
  6
CONTINUOUS
 62
    3
 10
1785.6398406127864
 20
2353.1108116269461
 11
1785.6398406127864
 21
2398.1106316269443
  0
ARC
  8
_0-3_躯体と製品
  6
CONTINUOUS
 62
    3
 10
1793.1398106127863
 20
2398.1106316269443
 40
7.4999699999998484
 50
0.0000000000000254
 51
180
  0
LINE
  8
_0-3_躯体と製品
  6
CONTINUOUS
 62
    3
 10
1800.6397806127861
 20
2398.1106316269443
 11
1800.6397806127861
 21
2353.1108116269461
  0
ARC
  8
_0-3_躯体と製品
  6
CONTINUOUS
 62
    3
 10
1808.1397506127855
 20
2353.1108116269461
 40
7.4999699999993936
 50
180
 51
0
  0
LINE
  8
_0-3_躯体と製品
  6
CONTINUOUS
 62
    3
 10
1815.6397206127849
 20
2353.1108116269461
 11
1815.6397206127849
 21
2398.1106316269443
  0
ARC
  8
_0-3_躯体と製品
  6
CONTINUOUS
 62
    3
 10
1823.1396906127848
 20
2398.1106316269443
 40
7.4999699999998484
 50
0.0000000000000254
 51
180
  0
LINE
  8
_0-3_躯体と製品
  6
CONTINUOUS
 62
    3
 10
1830.6396606127846
 20
2398.1106316269443
 11
1830.6396606127846
 21
2353.1108116269461
  0
ARC
  8
_0-3_躯体と製品
  6
CONTINUOUS
 62
    3
 10
1838.139630612784
 20
2353.1108116269461
 40
7.4999699999993936
 50
180
 51
0
  0
LINE
  8
_0-3_躯体と製品
  6
CONTINUOUS
 62
    3
 10
1845.6396006127834
 20
2353.1108116269461
 11
1845.6396006127834
 21
2398.1106316269443
  0
ARC
  8
_0-3_躯体と製品
  6
CONTINUOUS
 62
    3
 10
1853.1395706127832
 20
2398.1106316269443
 40
7.4999699999998484
 50
0.0000000000000254
 51
180
  0
LINE
  8
_0-3_躯体と製品
  6
CONTINUOUS
 62
    3
 10
1860.6395406127831
 20
2398.1106316269443
 11
1860.6395406127831
 21
2353.1108116269461
  0
ARC
  8
_0-3_躯体と製品
  6
CONTINUOUS
 62
    3
 10
1868.139510612782
 20
2353.1108116269461
 40
7.4999699999989389
 50
180
 51
0
  0
LINE
  8
_0-3_躯体と製品
  6
CONTINUOUS
 62
    3
 10
1875.639480612781
 20
2353.1108116269461
 11
1875.639480612781
 21
2398.1106316269443
  0
ARC
  8
_0-3_躯体と製品
  6
CONTINUOUS
 62
    3
 10
1883.139450612784
 20
2398.1106316269443
 40
7.4999700000030316
 50
0.0000000000000254
 51
180
  0
LINE
  8
_0-3_躯体と製品
  6
CONTINUOUS
 62
    3
 10
1890.639420612787
 20
2398.1106316269443
 11
1890.639420612787
 21
2353.1108116269461
  0
ARC
  8
_0-3_躯体と製品
  6
CONTINUOUS
 62
    3
 10
1898.1393906127855
 20
2353.1108116269461
 40
7.4999699999984841
 50
180
 51
0
  0
LINE
  8
_0-3_躯体と製品
  6
CONTINUOUS
 62
    3
 10
1905.639360612784
 20
2353.1108116269461
 11
1905.639360612784
 21
2398.1106316269443
  0
ARC
  8
_0-3_躯体と製品
  6
CONTINUOUS
 62
    3
 10
1913.1393306127839
 20
2398.1106316269443
 40
7.4999699999998484
 50
0.0000000000000254
 51
180
  0
LINE
  8
_0-3_躯体と製品
  6
CONTINUOUS
 62
    3
 10
1920.6393006127837
 20
2398.1106316269443
 11
1920.6393006127837
 21
2353.1108116269461
  0
LINE
  8
_0-3_躯体と製品
  6
CONTINUOUS
 62
    3
 10
2048.1387906127875
 20
2405.6108416269462
 11
1667.6403126127861
 21
2405.6108416269462
  0
ARC
  8
_0-3_躯体と製品
  6
CONTINUOUS
 62
    3
 10
1667.6403126127875
 20
2403.6108496269449
 40
1.9999920000013842
 50
90.00000000003908
 51
180.00000000003908
  0
LINE
  8
_0-3_躯体と製品
  6
CONTINUOUS
 62
    3
 10
1665.6403206127861
 20
2403.6108496269435
 11
1665.6403206127861
 21
2345.6108416269462
  0
LINE
  8
_0-3_躯体と製品
  6
CONTINUOUS
 62
    3
 10
1665.6403206127861
 20
2345.6108416269462
 11
2048.1387906127875
 21
2345.6108416269471
  0
TEXT
  8
_0-4_文字-記号
 62
    7
 10
1940.0420739049005
 20
2514.9800876128866
 40
45
 41
0.8
 50
0
  1
畳
  0
TEXT
  8
_0-4_文字-記号
 62
    7
 10
1720.9906393394522
 20
2507.2691325618907
 40
45
 41
0.8
 50
0
  1
畳よせ
  0
LINE
  8
_0-4_文字-記号
  6
CONTINUOUS
 62
    7
 10
1656.5962217415381
 20
2398.7828814201848
 11
1641.9552056322682
 21
2384.1418652444945
  0
LINE
  8
_0-4_文字-記号
  6
CONTINUOUS
 62
    7
 10
1641.9552056322682
 20
2384.1418652444945
 11
1647.3141895229992
 21
2404.1418652201846
  0
LINE
  8
_0-4_文字-記号
  6
CONTINUOUS
 62
    7
 10
1641.9552056322682
 20
2384.1418652444954
 11
1708.9819363700344
 21
2500.2355683475485
  0
LINE
  8
_0-4_文字-記号
  6
CONTINUOUS
 62
    7
 10
1708.9819363700344
 20
2500.2355683475485
 11
1854.2888140340947
 21
2500.2355683475485
  0
LINE
  8
_0-4_文字-記号
  6
CONTINUOUS
 62
    7
 10
1854.2888140340947
 20
2500.2355683475485
 11
1854.3788140340948
 21
2500.2355683475485
  0
LINE
  8
_0-4_文字-記号
  6
CONTINUOUS
 62
    7
 10
1879.8852300141716
 20
2419.2703188245359
 11
1865.2442139049008
 21
2404.6293026488465
  0
LINE
  8
_0-4_文字-記号
  6
CONTINUOUS
 62
    7
 10
1865.2442139049008
 20
2404.6293026488465
 11
1870.6031977956318
 21
2424.6293026245357
  0
LINE
  8
_0-4_文字-記号
  6
CONTINUOUS
 62
    7
 10
1865.2442139049008
 20
2404.6293026488465
 11
1925.6012653101307
 21
2509.1707822777516
  0
LINE
  8
_0-4_文字-記号
  6
CONTINUOUS
 62
    7
 10
1925.6012653101307
 20
2509.1707822777516
 11
1993.8067696672006
 21
2509.1707822777516
  0
ARC
  8
_0-3_躯体と製品
  6
CONTINUOUS
 62
    3
 10
1928.1392706127849
 20
2353.1108116269461
 40
7.4999700000003031
 50
180
 51
0
  0
LINE
  8
_0-3_躯体と製品
  6
CONTINUOUS
 62
    3
 10
1935.6392406127852
 20
2353.1108116269461
 11
1935.6392406127852
 21
2398.1106316269443
  0
ARC
  8
_0-3_躯体と製品
  6
CONTINUOUS
 62
    3
 10
1943.1392106127846
 20
2398.1106316269443
 40
7.4999699999993936
 50
0.0000000000000254
 51
180
  0
LINE
  8
_0-3_躯体と製品
  6
CONTINUOUS
 62
    3
 10
1950.639180612784
 20
2398.1106316269443
 11
1950.639180612784
 21
2353.1108116269461
  0
ARC
  8
_0-3_躯体と製品
  6
CONTINUOUS
 62
    3
 10
1958.1391506127861
 20
2353.1108116269461
 40
7.4999700000021221
 50
180
 51
0
  0
LINE
  8
_0-3_躯体と製品
  6
CONTINUOUS
 62
    3
 10
1965.6391206127882
 20
2353.1108116269461
 11
1965.6391206127882
 21
2398.1106316269443
  0
ARC
  8
_0-3_躯体と製品
  6
CONTINUOUS
 62
    3
 10
1973.1390906127876
 20
2398.1106316269443
 40
7.4999699999993936
 50
0.0000000000000254
 51
180
  0
LINE
  8
_0-3_躯体と製品
  6
CONTINUOUS
 62
    3
 10
1980.639060612787
 20
2398.1106316269443
 11
1980.639060612787
 21
2353.1108116269461
  0
ARC
  8
_0-3_躯体と製品
  6
CONTINUOUS
 62
    3
 10
1988.139030612786
 20
2353.1108116269461
 40
7.4999699999989389
 50
180
 51
0
  0
LINE
  8
_0-3_躯体と製品
  6
CONTINUOUS
 62
    3
 10
1995.6390006127849
 20
2353.1108116269461
 11
1995.6390006127849
 21
2398.1106316269443
  0
ARC
  8
_0-3_躯体と製品
  6
CONTINUOUS
 62
    3
 10
2003.1389706127848
 20
2398.1106316269443
 40
7.4999699999998484
 50
0.0000000000000254
 51
180
  0
LINE
  8
_0-3_躯体と製品
  6
CONTINUOUS
 62
    3
 10
2010.6389406127846
 20
2398.1106316269443
 11
2010.6389406127846
 21
2353.1108116269461
  0
ARC
  8
_0-3_躯体と製品
  6
CONTINUOUS
 62
    3
 10
2018.1389106127863
 20
2353.1108116269461
 40
7.4999700000016674
 50
180
 51
0
  0
LINE
  8
_0-3_躯体と製品
  6
CONTINUOUS
 62
    3
 10
2025.6388806127879
 20
2353.1108116269461
 11
2025.6388806127879
 21
2398.1106316269443
  0
ARC
  8
_0-3_躯体と製品
  6
CONTINUOUS
 62
    3
 10
2033.1388506127878
 20
2398.1106316269443
 40
7.4999699999998484
 50
0.0000000000000254
 51
180
  0
LINE
  8
_0-3_躯体と製品
  6
CONTINUOUS
 62
    3
 10
2040.6388206127876
 20
2398.1106316269443
 11
2040.6388206127876
 21
2353.1108116269461
  0
ARC
  8
_0-3_躯体と製品
  6
CONTINUOUS
 62
    3
 10
2048.138790612787
 20
2353.1108116269465
 40
7.4999699999993927
 50
180.0000000000035
 51
270.00000000000352
  0
LINE
  8
_0-3_躯体と製品
  6
CONTINUOUS
 62
    3
 10
1494.7222006127922
 20
1170.1327616269455
 11
1469.7223006127861
 21
1170.1327616269455
  0
LINE
  8
_0-3_躯体と製品
  6
CONTINUOUS
 62
    3
 10
1469.7223006127861
 20
1170.1327616269455
 11
1444.7224006127872
 21
1163.1327896269449
  0
LINE
  8
_0-3_躯体と製品
  6
CONTINUOUS
 62
    3
 10
1444.7224006127872
 20
1163.1327896269449
 11
1444.7224006127872
 21
1130.1329216269469
  0
LINE
  8
_0-3_躯体と製品
  6
CONTINUOUS
 62
    3
 10
1444.7224006127872
 20
1130.1329216269469
 11
1494.7222006127922
 21
1130.1329216269469
  0
LINE
  8
_0-3_躯体と製品
  6
CONTINUOUS
 62
    3
 10
1494.7222006127922
 20
1130.1329216269469
 11
1494.7222006127922
 21
1170.1327616269455
  0
ARC
  8
_0-3_躯体と製品
  6
CONTINUOUS
 62
    3
 10
1502.2221706127912
 20
1182.6327116269422
 40
7.4999699999989389
 50
0
 51
180
  0
LINE
  8
_0-3_躯体と製品
  6
CONTINUOUS
 62
    3
 10
1509.7221406127901
 20
1182.6327116269422
 11
1509.7221406127901
 21
1137.6328916269458
  0
ARC
  8
_0-3_躯体と製品
  6
CONTINUOUS
 62
    3
 10
1517.2221106127899
 20
1137.6328916269458
 40
7.4999699999998484
 50
180
 51
0
  0
LINE
  8
_0-3_躯体と製品
  6
CONTINUOUS
 62
    3
 10
1524.7220806127898
 20
1137.6328916269458
 11
1524.7220806127898
 21
1182.6327116269422
  0
ARC
  8
_0-3_躯体と製品
  6
CONTINUOUS
 62
    3
 10
1532.2220506127896
 20
1182.6327116269422
 40
7.4999699999998484
 50
0.0000000000000254
 51
180
  0
LINE
  8
_0-3_躯体と製品
  6
CONTINUOUS
 62
    3
 10
1539.7220206127895
 20
1182.6327116269422
 11
1539.7220206127895
 21
1137.6328916269458
  0
ARC
  8
_0-3_躯体と製品
  6
CONTINUOUS
 62
    3
 10
1547.2219906127912
 20
1137.6328916269458
 40
7.4999700000016674
 50
180
 51
0
  0
LINE
  8
_0-3_躯体と製品
  6
CONTINUOUS
 62
    3
 10
1554.7219606127928
 20
1137.6328916269458
 11
1554.7219606127928
 21
1182.6327116269422
  0
ARC
  8
_0-3_躯体と製品
  6
CONTINUOUS
 62
    3
 10
1562.2219306127927
 20
1182.6327116269422
 40
7.4999699999998484
 50
0.0000000000000254
 51
180
  0
LINE
  8
_0-3_躯体と製品
  6
CONTINUOUS
 62
    3
 10
1569.7219006127925
 20
1182.6327116269422
 11
1569.7219006127925
 21
1137.6328916269458
  0
ARC
  8
_0-3_躯体と製品
  6
CONTINUOUS
 62
    3
 10
1577.221870612791
 20
1137.6328916269458
 40
7.4999699999984841
 50
180
 51
0
  0
LINE
  8
_0-3_躯体と製品
  6
CONTINUOUS
 62
    3
 10
1584.7218406127895
 20
1137.6328916269458
 11
1584.7218406127895
 21
1182.6327116269422
  0
ARC
  8
_0-3_躯体と製品
  6
CONTINUOUS
 62
    3
 10
1592.2218106127898
 20
1182.6327116269422
 40
7.4999700000003031
 50
0.0000000000000254
 51
180
  0
LINE
  8
_0-3_躯体と製品
  6
CONTINUOUS
 62
    3
 10
1599.7217806127901
 20
1182.6327116269422
 11
1599.7217806127901
 21
1137.6328916269458
  0
ARC
  8
_0-3_躯体と製品
  6
CONTINUOUS
 62
    3
 10
1607.2217506127918
 20
1137.6328916269458
 40
7.4999700000016674
 50
180
 51
0
  0
LINE
  8
_0-3_躯体と製品
  6
CONTINUOUS
 62
    3
 10
1614.7217206127934
 20
1137.6328916269458
 11
1614.7217206127934
 21
1182.6327116269422
  0
ARC
  8
_0-3_躯体と製品
  6
CONTINUOUS
 62
    3
 10
1622.2216906127933
 20
1182.6327116269422
 40
7.4999699999998484
 50
0.0000000000000254
 51
180
  0
LINE
  8
_0-3_躯体と製品
  6
CONTINUOUS
 62
    3
 10
1629.7216606127931
 20
1182.6327116269422
 11
1629.7216606127931
 21
1137.6328916269458
  0
ARC
  8
_0-3_躯体と製品
  6
CONTINUOUS
 62
    3
 10
1637.221630612793
 20
1137.6328916269458
 40
7.4999699999998484
 50
180
 51
0
  0
LINE
  8
_0-3_躯体と製品
  6
CONTINUOUS
 62
    3
 10
1644.7216006127928
 20
1137.6328916269458
 11
1644.7216006127928
 21
1182.6327116269422
  0
ARC
  8
_0-3_躯体と製品
  6
CONTINUOUS
 62
    3
 10
1652.2215706127918
 20
1182.6327116269422
 40
7.4999699999989389
 50
0.0000000000000254
 51
180
  0
LINE
  8
_0-3_躯体と製品
  6
CONTINUOUS
 62
    3
 10
1659.7215406127907
 20
1182.6327116269422
 11
1659.7215406127907
 21
1137.6328916269458
  0
ARC
  8
_0-3_躯体と製品
  6
CONTINUOUS
 62
    3
 10
1667.2215106127901
 20
1137.6328916269458
 40
7.4999699999993936
 50
180
 51
0
  0
LINE
  8
_0-3_躯体と製品
  6
CONTINUOUS
 62
    3
 10
1674.7214806127895
 20
1137.6328916269458
 11
1674.7214806127895
 21
1182.6327116269422
  0
ARC
  8
_0-3_躯体と製品
  6
CONTINUOUS
 62
    3
 10
1682.2214506127893
 20
1182.6327116269422
 40
7.4999699999998484
 50
0.0000000000000254
 51
180
  0
LINE
  8
_0-3_躯体と製品
  6
CONTINUOUS
 62
    3
 10
1689.7214206127892
 20
1182.6327116269422
 11
1689.7214206127892
 21
1137.6328916269458
  0
ARC
  8
_0-3_躯体と製品
  6
CONTINUOUS
 62
    3
 10
1697.221390612789
 20
1137.6328916269458
 40
7.4999699999998484
 50
180
 51
0
  0
LINE
  8
_0-3_躯体と製品
  6
CONTINUOUS
 62
    3
 10
1704.7213606127889
 20
1137.6328916269458
 11
1704.7213606127889
 21
1182.6327116269422
  0
ARC
  8
_0-3_躯体と製品
  6
CONTINUOUS
 62
    3
 10
1712.221330612791
 20
1182.6327116269422
 40
7.4999700000021221
 50
0.0000000000000254
 51
180
  0
LINE
  8
_0-3_躯体と製品
  6
CONTINUOUS
 62
    3
 10
1719.7213006127931
 20
1182.6327116269422
 11
1719.7213006127931
 21
1137.6328916269458
  0
ARC
  8
_0-3_躯体と製品
  6
CONTINUOUS
 62
    3
 10
1727.2212706127921
 20
1137.6328916269458
 40
7.4999699999989389
 50
180
 51
0
  0
LINE
  8
_0-3_躯体と製品
  6
CONTINUOUS
 62
    3
 10
1734.721240612791
 20
1137.6328916269458
 11
1734.721240612791
 21
1182.6327116269422
  0
ARC
  8
_0-3_躯体と製品
  6
CONTINUOUS
 62
    3
 10
1742.2212106127909
 20
1182.6327116269422
 40
7.4999699999998484
 50
0.0000000000000254
 51
180
  0
LINE
  8
_0-3_躯体と製品
  6
CONTINUOUS
 62
    3
 10
1749.7211806127907
 20
1182.6327116269422
 11
1749.7211806127907
 21
1137.6328916269458
  0
LINE
  8
_0-3_躯体と製品
  6
CONTINUOUS
 62
    3
 10
2115.3564306127882
 20
1190.132921626946
 11
1496.7221926127932
 21
1190.132921626946
  0
ARC
  8
_0-3_躯体と製品
  6
CONTINUOUS
 62
    3
 10
1496.7221926127941
 20
1188.1329296269441
 40
1.9999920000018392
 50
90.000000000026048
 51
180.00000000002606
  0
LINE
  8
_0-3_躯体と製品
  6
CONTINUOUS
 62
    3
 10
1494.7222006127922
 20
1188.1329296269432
 11
1494.7222006127922
 21
1130.1329216269469
  0
LINE
  8
_0-3_躯体と製品
  6
CONTINUOUS
 62
    3
 10
1494.7222006127922
 20
1130.1329216269469
 11
2115.3564306127882
 21
1130.1329216269442
  0
ARC
  8
_0-3_躯体と製品
  6
CONTINUOUS
 62
    3
 10
1757.2211506127906
 20
1137.6328916269476
 40
7.4999699999998484
 50
180
 51
0
  0
LINE
  8
_0-3_躯体と製品
  6
CONTINUOUS
 62
    3
 10
1764.7211206127904
 20
1137.6328916269476
 11
1764.7211206127904
 21
1182.6327116269431
  0
ARC
  8
_0-3_躯体と製品
  6
CONTINUOUS
 62
    3
 10
1772.2210906127912
 20
1182.6327116269431
 40
7.4999700000007579
 50
0.0000000000000254
 51
180
  0
LINE
  8
_0-3_躯体と製品
  6
CONTINUOUS
 62
    3
 10
1779.7210606127919
 20
1182.6327116269431
 11
1779.7210606127919
 21
1137.6328916269476
  0
ARC
  8
_0-3_躯体と製品
  6
CONTINUOUS
 62
    3
 10
1787.2210306127936
 20
1137.6328916269476
 40
7.4999700000016674
 50
180
 51
0
  0
LINE
  8
_0-3_躯体と製品
  6
CONTINUOUS
 62
    3
 10
1794.7210006127953
 20
1137.6328916269476
 11
1794.7210006127953
 21
1182.6327116269431
  0
ARC
  8
_0-3_躯体と製品
  6
CONTINUOUS
 62
    3
 10
1802.2209706127946
 20
1182.6327116269431
 40
7.4999699999993936
 50
0.0000000000000254
 51
180
  0
LINE
  8
_0-3_躯体と製品
  6
CONTINUOUS
 62
    3
 10
1809.720940612794
 20
1182.6327116269431
 11
1809.720940612794
 21
1137.6328916269476
  0
ARC
  8
_0-3_躯体と製品
  6
CONTINUOUS
 62
    3
 10
1817.2209106127934
 20
1137.6328916269476
 40
7.4999699999993936
 50
180
 51
0
  0
LINE
  8
_0-3_躯体と製品
  6
CONTINUOUS
 62
    3
 10
1824.7208806127928
 20
1137.6328916269476
 11
1824.7208806127928
 21
1182.6327116269431
  0
ARC
  8
_0-3_躯体と製品
  6
CONTINUOUS
 62
    3
 10
1832.2208506127922
 20
1182.6327116269431
 40
7.4999699999993936
 50
0.0000000000000254
 51
180
  0
LINE
  8
_0-3_躯体と製品
  6
CONTINUOUS
 62
    3
 10
1839.7208206127916
 20
1182.6327116269431
 11
1839.7208206127916
 21
1137.6328916269476
  0
ARC
  8
_0-3_躯体と製品
  6
CONTINUOUS
 62
    3
 10
1847.2207906127933
 20
1137.6328916269476
 40
7.4999700000016674
 50
180
 51
0
  0
LINE
  8
_0-3_躯体と製品
  6
CONTINUOUS
 62
    3
 10
1854.7207606127949
 20
1137.6328916269476
 11
1854.7207606127949
 21
1182.6327116269431
  0
ARC
  8
_0-3_躯体と製品
  6
CONTINUOUS
 62
    3
 10
1862.2207306127943
 20
1182.6327116269431
 40
7.4999699999993936
 50
0.0000000000000254
 51
180
  0
LINE
  8
_0-3_躯体と製品
  6
CONTINUOUS
 62
    3
 10
1869.7207006127937
 20
1182.6327116269431
 11
1869.7207006127937
 21
1137.6328916269476
  0
ARC
  8
_0-3_躯体と製品
  6
CONTINUOUS
 62
    3
 10
1877.2206706127945
 20
1137.6328916269476
 40
7.4999700000007588
 50
180
 51
270
  0
ARC
  8
_0-3_躯体と製品
  6
CONTINUOUS
 62
    3
 10
1877.2206706127945
 20
1137.6328916269458
 40
7.499969999998938
 50
270
 51
0.0000000000000127
  0
LINE
  8
_0-3_躯体と製品
  6
CONTINUOUS
 62
    3
 10
1884.7206406127934
 20
1137.6328916269458
 11
1884.7206406127934
 21
1182.6327116269422
  0
ARC
  8
_0-3_躯体と製品
  6
CONTINUOUS
 62
    3
 10
1892.2206106127942
 20
1182.6327116269422
 40
7.4999700000007579
 50
0.0000000000000254
 51
180
  0
LINE
  8
_0-3_躯体と製品
  6
CONTINUOUS
 62
    3
 10
1899.7205806127949
 20
1182.6327116269422
 11
1899.7205806127949
 21
1137.6328916269458
  0
ARC
  8
_0-3_躯体と製品
  6
CONTINUOUS
 62
    3
 10
1907.2205506127957
 20
1137.6328916269458
 40
7.4999700000007579
 50
180
 51
0
  0
LINE
  8
_0-3_躯体と製品
  6
CONTINUOUS
 62
    3
 10
1914.7205206127965
 20
1137.6328916269458
 11
1914.7205206127965
 21
1182.6327116269422
  0
ARC
  8
_0-3_躯体と製品
  6
CONTINUOUS
 62
    3
 10
1922.2204906127968
 20
1182.6327116269422
 40
7.4999700000003031
 50
0.0000000000000254
 51
180
  0
LINE
  8
_0-3_躯体と製品
  6
CONTINUOUS
 62
    3
 10
1929.7204606127971
 20
1182.6327116269422
 11
1929.7204606127971
 21
1137.6328916269458
  0
ARC
  8
_0-3_躯体と製品
  6
CONTINUOUS
 62
    3
 10
1937.220430612796
 20
1137.6328916269458
 40
7.4999699999989389
 50
180
 51
0
  0
LINE
  8
_0-3_躯体と製品
  6
CONTINUOUS
 62
    3
 10
1944.7204006127949
 20
1137.6328916269458
 11
1944.7204006127949
 21
1182.6327116269422
  0
ARC
  8
_0-3_躯体と製品
  6
CONTINUOUS
 62
    3
 10
1952.2203706127948
 20
1182.6327116269422
 40
7.4999699999998484
 50
0.0000000000000254
 51
180
  0
LINE
  8
_0-3_躯体と製品
  6
CONTINUOUS
 62
    3
 10
1959.7203406127946
 20
1182.6327116269422
 11
1959.7203406127946
 21
1137.6328916269458
  0
ARC
  8
_0-3_躯体と製品
  6
CONTINUOUS
 62
    3
 10
1967.2203106127963
 20
1137.6328916269458
 40
7.4999700000016674
 50
180
 51
0
  0
LINE
  8
_0-3_躯体と製品
  6
CONTINUOUS
 62
    3
 10
1974.720280612798
 20
1137.6328916269458
 11
1974.720280612798
 21
1182.6327116269422
  0
ARC
  8
_0-3_躯体と製品
  6
CONTINUOUS
 62
    3
 10
1982.2202506127978
 20
1182.6327116269422
 40
7.4999699999998484
 50
0.0000000000000254
 51
180
  0
LINE
  8
_0-3_躯体と製品
  6
CONTINUOUS
 62
    3
 10
1989.7202206127977
 20
1182.6327116269422
 11
1989.7202206127977
 21
1137.6328916269458
  0
ARC
  8
_0-3_躯体と製品
  6
CONTINUOUS
 62
    3
 10
1997.2201906127975
 20
1137.6328916269458
 40
7.4999699999998484
 50
180
 51
0
  0
LINE
  8
_0-3_躯体と製品
  6
CONTINUOUS
 62
    3
 10
2004.7201606127974
 20
1137.6328916269458
 11
2004.7201606127974
 21
1182.6327116269422
  0
ARC
  8
_0-3_躯体と製品
  6
CONTINUOUS
 62
    3
 10
2012.2201306127968
 20
1182.6327116269422
 40
7.4999699999993936
 50
0.0000000000000254
 51
180
  0
LINE
  8
_0-3_躯体と製品
  6
CONTINUOUS
 62
    3
 10
2019.7201006127962
 20
1182.6327116269422
 11
2019.7201006127962
 21
1137.6328916269458
  0
ARC
  8
_0-3_躯体と製品
  6
CONTINUOUS
 62
    3
 10
2027.2200706127956
 20
1137.6328916269458
 40
7.4999699999993936
 50
180
 51
0
  0
LINE
  8
_0-3_躯体と製品
  6
CONTINUOUS
 62
    3
 10
2034.7200406127949
 20
1137.6328916269458
 11
2034.7200406127949
 21
1182.6327116269422
  0
ARC
  8
_0-3_躯体と製品
  6
CONTINUOUS
 62
    3
 10
2042.2200106127948
 20
1182.6327116269422
 40
7.4999699999998484
 50
0.0000000000000254
 51
180
  0
LINE
  8
_0-3_躯体と製品
  6
CONTINUOUS
 62
    3
 10
2049.7199806127946
 20
1182.6327116269422
 11
2049.7199806127946
 21
1137.6328916269458
  0
ARC
  8
_0-3_躯体と製品
  6
CONTINUOUS
 62
    3
 10
2057.2199506127931
 20
1137.6328916269458
 40
7.4999699999984841
 50
180
 51
0
  0
LINE
  8
_0-3_躯体と製品
  6
CONTINUOUS
 62
    3
 10
2064.7199206127916
 20
1137.6328916269458
 11
2064.7199206127916
 21
1182.6327116269422
  0
ARC
  8
_0-3_躯体と製品
  6
CONTINUOUS
 62
    3
 10
2072.2198906127946
 20
1182.6327116269422
 40
7.4999700000030316
 50
0.0000000000000254
 51
180
  0
LINE
  8
_0-3_躯体と製品
  6
CONTINUOUS
 62
    3
 10
2079.7198606127977
 20
1182.6327116269422
 11
2079.7198606127977
 21
1137.6328916269458
  0
ARC
  8
_0-3_躯体と製品
  6
CONTINUOUS
 62
    3
 10
2087.2198306127966
 20
1137.6328916269458
 40
7.4999699999989389
 50
180
 51
0
  0
LINE
  8
_0-3_躯体と製品
  6
CONTINUOUS
 62
    3
 10
2094.7198006127956
 20
1137.6328916269458
 11
2094.7198006127956
 21
1182.6327116269422
  0
ARC
  8
_0-3_躯体と製品
  6
CONTINUOUS
 62
    3
 10
2102.2197706127954
 20
1182.6327116269422
 40
7.4999699999998484
 50
0.0000000000000254
 51
180
  0
LINE
  8
_0-3_躯体と製品
  6
CONTINUOUS
 62
    3
 10
2109.7197406127952
 20
1182.6327116269422
 11
2109.7197406127962
 21
1137.6328916269458
  0
ARC
  8
_0-3_躯体と製品
  6
CONTINUOUS
 62
    3
 10
2117.2197106127946
 20
1137.632891626946
 40
7.4999699999985729
 50
180.0000000000021
 51
255.61488034370376
  0
ARC
  8
_0-3_躯体と製品
  6
CONTINUOUS
 62
    3
 10
3198.3519118438289
 20
2334.6108816270089
 40
1.0000400000008085
 50
180
 51
270
  0
LINE
  8
_0-3_躯体と製品
  6
CONTINUOUS
 62
    3
 10
3197.3518738438279
 20
2338.6108016270091
 11
3197.3518738438279
 21
2334.6108816270089
  0
ARC
  8
_0-3_躯体と製品
  6
CONTINUOUS
 62
    3
 10
3198.3519118438289
 20
2338.6108016270091
 40
1.0000400000008085
 50
90
 51
180
  0
LINE
  8
_0-3_躯体と製品
  6
CONTINUOUS
 62
    3
 10
3206.3522278438277
 20
2339.6108416270099
 11
3198.3519118438289
 21
2339.6108416270099
  0
ARC
  8
_0-3_躯体と製品
  6
CONTINUOUS
 62
    3
 10
3206.3522278438268
 20
2340.6108796270082
 40
1.0000399999998988
 50
270.00000000005213
 51
0.0000000000521229
  0
LINE
  8
_0-3_躯体と製品
  6
CONTINUOUS
 62
    3
 10
3207.3522658438278
 20
2340.6108796270091
 11
3207.3522658438278
 21
2345.6108416270099
  0
LINE
  8
_0-3_躯体と製品
  6
CONTINUOUS
 62
    3
 10
3206.3522278438277
 20
2333.6108416270081
 11
3198.3519118438289
 21
2333.6108416270081
  0
ARC
  8
_0-3_躯体と製品
  6
CONTINUOUS
 62
    3
 10
3206.3522278438272
 20
2332.6108016270086
 40
1.0000399999994443
 50
359.99999999997397
 51
89.999999999973952
  0
LINE
  8
_0-3_躯体と製品
  6
CONTINUOUS
 62
    3
 10
3207.3522658438278
 20
2332.6108016270082
 11
3207.3522658438278
 21
2327.6108416270081
  0
ARC
  8
_0-3_躯体と製品
  6
CONTINUOUS
 62
    3
 10
3498.3519118438276
 20
2334.6108816270084
 40
1.0000400000003535
 50
179.99999999997394
 51
269.99999999997397
  0
LINE
  8
_0-3_躯体と製品
  6
CONTINUOUS
 62
    3
 10
3497.3518738438288
 20
2338.6108016270091
 11
3497.3518738438288
 21
2334.6108816270089
  0
ARC
  8
_0-3_躯体と製品
  6
CONTINUOUS
 62
    3
 10
3498.3519118438267
 20
2338.6108016270086
 40
1.0000399999994443
 50
89.999999999973952
 51
179.99999999997394
  0
LINE
  8
_0-3_躯体と製品
  6
CONTINUOUS
 62
    3
 10
3506.3522278438295
 20
2339.6108416270081
 11
3498.3519118438271
 21
2339.6108416270081
  0
ARC
  8
_0-3_躯体と製品
  6
CONTINUOUS
 62
    3
 10
3506.352227843829
 20
2340.6108796270078
 40
1.0000399999994443
 50
270.00000000002603
 51
0.0000000000260678
  0
LINE
  8
_0-3_躯体と製品
  6
CONTINUOUS
 62
    3
 10
3507.3522658438269
 20
2340.6108796270082
 11
3507.3522658438269
 21
2345.6108416270081
  0
LINE
  8
_0-3_躯体と製品
  6
CONTINUOUS
 62
    3
 10
3506.3522278438295
 20
2333.6108416270081
 11
3498.3519118438271
 21
2333.6108416270081
  0
ARC
  8
_0-3_躯体と製品
  6
CONTINUOUS
 62
    3
 10
3506.352227843829
 20
2332.6108016270086
 40
1.0000399999994443
 50
359.99999999997397
 51
89.999999999973952
  0
LINE
  8
_0-3_躯体と製品
  6
CONTINUOUS
 62
    3
 10
3507.3522658438269
 20
2332.6108016270082
 11
3507.3522658438269
 21
2327.6108416270081
  0
ARC
  8
_0-3_躯体と製品
  6
CONTINUOUS
 62
    3
 10
3798.3519118438267
 20
2334.6108816270093
 40
1.0000400000012633
 50
180.00000000002606
 51
270.00000000002603
  0
LINE
  8
_0-3_躯体と製品
  6
CONTINUOUS
 62
    3
 10
3797.3518738438288
 20
2338.6108016270091
 11
3797.3518738438288
 21
2334.6108816270089
  0
ARC
  8
_0-3_躯体と製品
  6
CONTINUOUS
 62
    3
 10
3798.3519118438257
 20
2338.6108016270077
 40
1.0000400000003535
 50
89.99999999992184
 51
179.99999999992184
  0
LINE
  8
_0-3_躯体と製品
  6
CONTINUOUS
 62
    3
 10
3806.3522278438286
 20
2339.6108416270081
 11
3798.3519118438271
 21
2339.6108416270081
  0
ARC
  8
_0-3_躯体と製品
  6
CONTINUOUS
 62
    3
 10
3806.352227843829
 20
2340.6108796270087
 40
1.0000400000003535
 50
269.99999999997397
 51
359.99999999997397
  0
LINE
  8
_0-3_躯体と製品
  6
CONTINUOUS
 62
    3
 10
3807.3522658438278
 20
2340.6108796270082
 11
3807.3522658438278
 21
2345.6108416270081
  0
LINE
  8
_0-3_躯体と製品
  6
CONTINUOUS
 62
    3
 10
3806.3522278438286
 20
2333.6108416270081
 11
3798.3519118438271
 21
2333.6108416270081
  0
ARC
  8
_0-3_躯体と製品
  6
CONTINUOUS
 62
    3
 10
3806.352227843829
 20
2332.6108016270077
 40
1.0000400000003535
 50
0.0000000000260575
 51
90.000000000026063
  0
LINE
  8
_0-3_躯体と製品
  6
CONTINUOUS
 62
    3
 10
3807.3522658438278
 20
2332.6108016270082
 11
3807.3522658438278
 21
2327.6108416270081
  0
ARC
  8
_0-3_躯体と製品
  6
CONTINUOUS
 62
    3
 10
1628.8594516127864
 20
2334.6108816269457
 40
1.0000399999994443
 50
180.00000000002606
 51
270.00000000002603
  0
LINE
  8
_0-3_躯体と製品
  6
CONTINUOUS
 62
    3
 10
1627.8594136127867
 20
2338.6108016269454
 11
1627.8594136127867
 21
2334.6108816269452
  0
ARC
  8
_0-3_躯体と製品
  6
CONTINUOUS
 62
    3
 10
1628.8594516127873
 20
2338.6108016269459
 40
1.0000400000003535
 50
90.000000000026048
 51
180.00000000002606
  0
LINE
  8
_0-3_躯体と製品
  6
CONTINUOUS
 62
    3
 10
1636.8597676127856
 20
2339.6108416269462
 11
1628.8594516127869
 21
2339.6108416269462
  0
ARC
  8
_0-3_躯体と製品
  6
CONTINUOUS
 62
    3
 10
1636.8597676127856
 20
2340.6108796269455
 40
1.000039999999899
 50
270
 51
0.0000000000000127
  0
LINE
  8
_0-3_躯体と製品
  6
CONTINUOUS
 62
    3
 10
1637.8598056127857
 20
2340.6108796269455
 11
1637.8598056127857
 21
2345.6108416269462
  0
LINE
  8
_0-3_躯体と製品
  6
CONTINUOUS
 62
    3
 10
1636.8597676127856
 20
2333.6108416269462
 11
1628.8594516127869
 21
2333.6108416269462
  0
ARC
  8
_0-3_躯体と製品
  6
CONTINUOUS
 62
    3
 10
1636.8597676127852
 20
2332.6108016269459
 40
1.0000400000003535
 50
359.99999999997397
 51
89.999999999973966
  0
LINE
  8
_0-3_躯体と製品
  6
CONTINUOUS
 62
    3
 10
1637.8598056127857
 20
2332.6108016269454
 11
1637.8598056127857
 21
2327.6108416269462
  0
ARC
  8
_0-3_躯体と製品
  6
CONTINUOUS
 62
    3
 10
1048.5200471647836
 20
2334.6108816269457
 40
1.0000399999994443
 50
180.00000000002606
 51
270.00000000002603
  0
LINE
  8
_0-3_躯体と製品
  6
CONTINUOUS
 62
    3
 10
1047.5200091647839
 20
2338.6108016269454
 11
1047.5200091647839
 21
2334.6108816269452
  0
ARC
  8
_0-3_躯体と製品
  6
CONTINUOUS
 62
    3
 10
1048.520047164784
 20
2338.6108016269454
 40
1.000039999999899
 50
90
 51
180
  0
LINE
  8
_0-3_躯体と製品
  6
CONTINUOUS
 62
    3
 10
1056.5203631647837
 20
2339.6108416269453
 11
1048.520047164784
 21
2339.6108416269453
  0
ARC
  8
_0-3_躯体と製品
  6
CONTINUOUS
 62
    3
 10
1056.5203631647837
 20
2340.6108796269455
 40
1.000039999999899
 50
270
 51
0.0000000000000127
  0
LINE
  8
_0-3_躯体と製品
  6
CONTINUOUS
 62
    3
 10
1057.5204011647838
 20
2340.6108796269455
 11
1057.5204011647838
 21
2345.6108416269453
  0
LINE
  8
_0-3_躯体と製品
  6
CONTINUOUS
 62
    3
 10
1056.5203631647837
 20
2333.6108416269462
 11
1048.520047164784
 21
2333.6108416269462
  0
ARC
  8
_0-3_躯体と製品
  6
CONTINUOUS
 62
    3
 10
1056.5203631647842
 20
2332.610801626945
 40
1.0000399999994443
 50
0.000000000026062
 51
90.000000000026077
  0
LINE
  8
_0-3_躯体と製品
  6
CONTINUOUS
 62
    3
 10
1057.5204011647838
 20
2332.6108016269454
 11
1057.5204011647838
 21
2327.6108416269462
  0
ARC
  8
_0-3_躯体と製品
  6
CONTINUOUS
 62
    3
 10
1928.859451612786
 20
2334.6108816269452
 40
1.0000399999989893
 50
180
 51
270
  0
LINE
  8
_0-3_躯体と製品
  6
CONTINUOUS
 62
    3
 10
1927.8594136127858
 20
2338.6108016269454
 11
1927.8594136127858
 21
2334.6108816269452
  0
ARC
  8
_0-3_躯体と製品
  6
CONTINUOUS
 62
    3
 10
1928.8594516127869
 20
2338.6108016269463
 40
1.0000399999998988
 50
90.000000000052111
 51
180.0000000000521
  0
LINE
  8
_0-3_躯体と製品
  6
CONTINUOUS
 62
    3
 10
1936.8597676127865
 20
2339.6108416269462
 11
1928.859451612786
 21
2339.6108416269462
  0
ARC
  8
_0-3_躯体と製品
  6
CONTINUOUS
 62
    3
 10
1936.8597676127865
 20
2340.6108796269455
 40
1.000039999999899
 50
270
 51
0.0000000000000127
  0
LINE
  8
_0-3_躯体と製品
  6
CONTINUOUS
 62
    3
 10
1937.8598056127867
 20
2340.6108796269455
 11
1937.8598056127867
 21
2345.6108416269462
  0
LINE
  8
_0-3_躯体と製品
  6
CONTINUOUS
 62
    3
 10
1936.8597676127865
 20
2333.6108416269462
 11
1928.859451612786
 21
2333.6108416269462
  0
ARC
  8
_0-3_躯体と製品
  6
CONTINUOUS
 62
    3
 10
1936.8597676127861
 20
2332.6108016269459
 40
1.0000400000003535
 50
359.99999999997397
 51
89.999999999973966
  0
LINE
  8
_0-3_躯体と製品
  6
CONTINUOUS
 62
    3
 10
1937.8598056127867
 20
2332.6108016269454
 11
1937.8598056127867
 21
2327.6108416269462
  0
ARC
  8
_0-3_躯体と製品
  6
CONTINUOUS
 62
    3
 10
1328.8594516127864
 20
2334.6108816269457
 40
1.0000399999994443
 50
180.00000000002606
 51
270.00000000002603
  0
LINE
  8
_0-3_躯体と製品
  6
CONTINUOUS
 62
    3
 10
1327.8594136127867
 20
2338.6108016269454
 11
1327.8594136127867
 21
2334.6108816269452
  0
ARC
  8
_0-3_躯体と製品
  6
CONTINUOUS
 62
    3
 10
1328.8594516127873
 20
2338.6108016269459
 40
1.0000400000003535
 50
90.000000000026048
 51
180.00000000002606
  0
LINE
  8
_0-3_躯体と製品
  6
CONTINUOUS
 62
    3
 10
1336.8597676127856
 20
2339.6108416269462
 11
1328.8594516127869
 21
2339.6108416269462
  0
ARC
  8
_0-3_躯体と製品
  6
CONTINUOUS
 62
    3
 10
1336.8597676127856
 20
2340.6108796269455
 40
1.000039999999899
 50
270
 51
0.0000000000000127
  0
LINE
  8
_0-3_躯体と製品
  6
CONTINUOUS
 62
    3
 10
1337.8598056127857
 20
2340.6108796269455
 11
1337.8598056127857
 21
2345.6108416269462
  0
LINE
  8
_0-3_躯体と製品
  6
CONTINUOUS
 62
    3
 10
1336.8597676127856
 20
2333.6108416269462
 11
1328.8594516127869
 21
2333.6108416269462
  0
ARC
  8
_0-3_躯体と製品
  6
CONTINUOUS
 62
    3
 10
1336.8597676127852
 20
2332.6108016269459
 40
1.0000400000003535
 50
359.99999999997397
 51
89.999999999973966
  0
LINE
  8
_0-3_躯体と製品
  6
CONTINUOUS
 62
    3
 10
1337.8598056127857
 20
2332.6108016269454
 11
1337.8598056127857
 21
2327.6108416269462
  0
ARC
  8
_0-3_躯体と製品
  6
CONTINUOUS
 62
    3
 10
1515.7220466127878
 20
1119.1329616269463
 40
1.0000400000003535
 50
179.99999999997394
 51
269.99999999997397
  0
LINE
  8
_0-3_躯体と製品
  6
CONTINUOUS
 62
    3
 10
1514.7220086127882
 20
1123.1328816269452
 11
1514.7220086127882
 21
1119.1329616269468
  0
ARC
  8
_0-3_躯体と製品
  6
CONTINUOUS
 62
    3
 10
1515.7220466127878
 20
1123.1328816269456
 40
1.0000400000003535
 50
90.000000000026048
 51
180.00000000002606
  0
LINE
  8
_0-3_躯体と製品
  6
CONTINUOUS
 62
    3
 10
1523.722362612787
 20
1124.132921626946
 11
1515.7220466127874
 21
1124.132921626946
  0
ARC
  8
_0-3_躯体と製品
  6
CONTINUOUS
 62
    3
 10
1523.7223626127866
 20
1125.1329596269447
 40
1.0000399999994443
 50
270.00000000002603
 51
0.0000000000260678
  0
LINE
  8
_0-3_躯体と製品
  6
CONTINUOUS
 62
    3
 10
1524.7224006127872
 20
1125.1329596269452
 11
1524.7224006127872
 21
1130.1329216269442
  0
LINE
  8
_0-3_躯体と製品
  6
CONTINUOUS
 62
    3
 10
1523.722362612787
 20
1118.132921626946
 11
1515.7220466127874
 21
1118.132921626946
  0
ARC
  8
_0-3_躯体と製品
  6
CONTINUOUS
 62
    3
 10
1523.722362612787
 20
1117.132881626947
 40
1.0000399999989893
 50
0.0000000000000052
 51
90.000000000000014
  0
LINE
  8
_0-3_躯体と製品
  6
CONTINUOUS
 62
    3
 10
1524.7224006127872
 20
1117.132881626947
 11
1524.7224006127872
 21
1112.132921626946
  0
LINE
  8
_0-3_躯体と製品
  6
CONTINUOUS
 62
    4
 10
933.52040116478383
 20
2155.9951916269456
 11
933.52040116478383
 21
2014.6108423106234
  0
LINE
  8
_0-3_躯体と製品
  6
CONTINUOUS
 62
    4
 10
917.52040116478383
 20
2155.9951916269456
 11
917.52040116478383
 21
2014.6108423106234
  0
LINE
  8
_0-3_躯体と製品
  6
CONTINUOUS
 62
    3
 10
932.02040116478383
 20
2155.9951916269456
 11
932.02040116478383
 21
2014.6108423106234
  0
LINE
  8
_0-3_躯体と製品
  6
CONTINUOUS
 62
    3
 10
919.02040116478383
 20
2155.9951916269456
 11
919.02040116478383
 21
2014.6108423106234
  0
LINE
  8
_0-3_躯体と製品
  6
CONTINUOUS
 62
    3
 10
964.36097116478368
 20
2277.7951916269458
 11
973.22040116478365
 21
2277.7951916269458
  0
LINE
  8
_0-3_躯体と製品
  6
CONTINUOUS
 62
    3
 10
964.36097116478368
 20
2282.7951916269467
 11
973.22040116478365
 21
2282.7951916269467
  0
LINE
  8
_0-3_躯体と製品
  6
CONTINUOUS
 62
    3
 10
964.36097116478368
 20
2283.2951916269458
 11
973.22040116478365
 21
2283.2951916269458
  0
LINE
  8
_0-3_躯体と製品
  6
CONTINUOUS
 62
    3
 10
973.22040116478365
 20
2277.2951916269467
 11
964.36097116478368
 21
2277.2951916269467
  0
LINE
  8
_0-3_躯体と製品
  6
CONTINUOUS
 62
    4
 10
902.12045716478497
 20
2226.1108416269453
 11
902.12045716478497
 21
2265.1108416269453
  0
LINE
  8
_0-3_躯体と製品
  6
CONTINUOUS
 62
    4
 10
948.92045716478378
 20
2265.1108416269453
 11
948.92045716478378
 21
2226.1108416269453
  0
LINE
  8
_0-3_躯体と製品
  6
CONTINUOUS
 62
    4
 10
955.52040116478383
 20
2268.0251829535237
 11
955.52040116478383
 21
2191.595191626946
  0
ARC
  8
_0-3_躯体と製品
  6
CONTINUOUS
 62
    4
 10
953.2204011647832
 20
2191.5951916269464
 40
2.3000000000006819
 50
269.99999999998977
 51
359.99999999998755
  0
LINE
  8
_0-3_躯体と製品
  6
CONTINUOUS
 62
    4
 10
953.22040116478274
 20
2189.2951916269458
 11
950.52040116478383
 21
2189.2951916269458
  0
LINE
  8
_0-3_躯体と製品
  6
CONTINUOUS
 62
    3
 10
958.82040116478402
 20
2195.7094051893191
 11
958.82040116478402
 21
2282.8809780645724
  0
LINE
  8
_0-3_躯体と製品
  6
CONTINUOUS
 62
    4
 10
950.52040116478383
 20
2203.5962196269456
 11
950.52040116478383
 21
2275.5938176269465
  0
LINE
  8
_0-3_躯体と製品
  6
CONTINUOUS
 62
    4
 10
925.52040116478474
 20
2186.9951916269456
 11
897.82040116478402
 21
2186.9951916269456
  0
ARC
  8
_0-3_躯体と製品
  6
CONTINUOUS
 62
    4
 10
897.82040116478402
 20
2191.595191626946
 40
4.6000000000003975
 50
180.00000000000045
 51
269.9999999999996
  0
LINE
  8
_0-3_躯体と製品
  6
CONTINUOUS
 62
    4
 10
893.22040116478365
 20
2191.595191626946
 11
893.22040116206381
 21
2269.2951916258116
  0
LINE
  8
_0-3_躯体と製品
  6
CONTINUOUS
 62
    4
 10
900.52040116478474
 20
2203.5962196269456
 11
900.52040116478474
 21
2275.6108416269453
  0
LINE
  8
_0-3_躯体と製品
  6
CONTINUOUS
 62
    3
 10
892.22040116398966
 20
2282.8809780646343
 11
892.22040116397375
 21
2195.7094051895701
  0
LINE
  8
_0-3_躯体と製品
  6
CONTINUOUS
 62
    4
 10
906.02045716478369
 20
2222.2108416269457
 11
915.52045716478369
 21
2222.2108416269457
  0
LINE
  8
_0-3_躯体と製品
  6
PLINE2
 62
    3
 10
900.52040116478474
 20
2189.2951916269458
 11
950.52040116478383
 21
2189.2951916269458
  0
LINE
  8
_0-3_躯体と製品
  6
CONTINUOUS
 62
    4
 10
957.82040116478402
 20
2269.2951916269458
 11
957.82040116478402
 21
2191.595191626946
  0
ARC
  8
_0-3_躯体と製品
  6
CONTINUOUS
 62
    4
 10
953.22040116478433
 20
2191.5951916269455
 40
4.5999999999997163
 50
270.00000000000892
 51
0.0000000000080588
  0
LINE
  8
_0-3_躯体と製品
  6
CONTINUOUS
 62
    4
 10
953.22040116478502
 20
2186.9951916269456
 11
925.52040116478474
 21
2186.9951916269456
  0
LINE
  8
_0-3_躯体と製品
  6
CONTINUOUS
 62
    4
 10
899.93475472736964
 20
2185.9951916269465
 11
951.10604760219667
 21
2185.9951916269465
  0
LINE
  8
_0-3_躯体と製品
  6
CONTINUOUS
 62
    4
 10
949.02040044952901
 20
2220.6108416269453
 11
902.02040116478474
 21
2220.6108416269453
  0
LINE
  8
_0-3_躯体と製品
  6
CONTINUOUS
 62
    4
 10
902.82040116478402
 20
2191.9951916269465
 11
948.22040116478365
 21
2191.9951916269465
  0
LINE
  8
_0-3_躯体と製品
  6
CONTINUOUS
 62
    4
 10
900.52040116478474
 20
2189.5951916269441
 11
900.52040116478474
 21
2189.6951916269454
  0
LINE
  8
_0-3_躯体と製品
  6
CONTINUOUS
 62
    4
 10
900.52040116478474
 20
2189.2951916269458
 11
897.82040116478402
 21
2189.2951916269458
  0
ARC
  8
_0-3_躯体と製品
  6
CONTINUOUS
 62
    4
 10
897.82040116478402
 20
2191.595191626946
 40
2.3000000000002272
 50
180.00000000000111
 51
269.99999999999886
  0
LINE
  8
_0-3_躯体と製品
  6
CONTINUOUS
 62
    4
 10
895.52040116478383
 20
2191.595191626946
 11
895.52040116478383
 21
2268.0251829534873
  0
ARC
  8
_0-3_躯体と製品
  6
CONTINUOUS
 62
    4
 10
899.93475472736918
 20
2187.4953896269458
 40
1.5001979999993393
 50
199.4765678958282
 51
270.00000000001864
  0
LINE
  8
_0-3_躯体と製品
  6
CONTINUOUS
 62
    4
 10
900.52040116478474
 20
2189.5951916269441
 11
900.52040116478474
 21
2186.9951916269456
  0
LINE
  8
_0-3_躯体と製品
  6
CONTINUOUS
 62
    4
 10
905.02144559335466
 20
2210.6108416269453
 11
904.52040116478383
 21
2203.5962196269456
  0
ARC
  8
_0-3_躯体と製品
  6
CONTINUOUS
 62
    3
 10
893.72040116397284
 20
2195.7094051895701
 40
1.4999999999989824
 50
179.9999999999923
 51
250.52877939438835
  0
ARC
  8
_0-3_躯体と製品
  6
CONTINUOUS
 62
    4
 10
902.82040116478493
 20
2189.6951916269463
 40
2.3000000000001819
 50
90.000000000022652
 51
180.00000000002265
  0
LINE
  8
_0-3_躯体と製品
  6
CONTINUOUS
 62
    4
 10
904.52040116478383
 20
2203.5962196269456
 11
900.52040116478474
 21
2203.5962196269456
  0
ARC
  8
_0-3_躯体と製品
  6
CONTINUOUS
 62
    4
 10
906.02045716478369
 20
2226.1108416269453
 40
5.5
 50
180
 51
270
  0
ARC
  8
_0-3_躯体と製品
  6
CONTINUOUS
 62
    4
 10
906.02045716478301
 20
2226.1108416269462
 40
3.9000000000003188
 50
180.00000000001003
 51
270.00000000001
  0
LINE
  8
_0-3_躯体と製品
  6
CONTINUOUS
 62
    4
 10
950.52040116478383
 20
2189.5951916269441
 11
950.52040116478383
 21
2189.6951916269454
  0
ARC
  8
_0-3_躯体と製品
  6
CONTINUOUS
 62
    4
 10
951.1060476021978
 20
2187.4953896269467
 40
1.5001980000003039
 50
269.99999999995532
 51
340.52343210414574
  0
LINE
  8
_0-3_躯体と製品
  6
CONTINUOUS
 62
    4
 10
950.52040116478383
 20
2189.5951916269441
 11
950.52040116478383
 21
2186.9951916269456
  0
LINE
  8
_0-3_躯体と製品
  6
CONTINUOUS
 62
    4
 10
945.02045716478369
 20
2222.2108416269457
 11
935.52045716478369
 21
2222.2108416269457
  0
LINE
  8
_0-3_躯体と製品
  6
CONTINUOUS
 62
    4
 10
914.76883452192669
 20
2210.6108416269453
 11
915.52040116478383
 21
2203.5962196269456
  0
LINE
  8
_0-3_躯体と製品
  6
CONTINUOUS
 62
    4
 10
919.77196780764189
 20
2210.6108416269453
 11
919.02040116478383
 21
2203.5962196269456
  0
LINE
  8
_0-3_躯体と製品
  6
CONTINUOUS
 62
    4
 10
931.26883452192578
 20
2210.6108416269453
 11
932.02040116478383
 21
2203.5962196269456
  0
LINE
  8
_0-3_躯体と製品
  6
CONTINUOUS
 62
    4
 10
936.27196780764098
 20
2210.6108416269453
 11
935.52040116478292
 21
2203.5962196269456
  0
LINE
  8
_0-3_躯体と製品
  6
CONTINUOUS
 62
    4
 10
915.52040116478383
 20
2203.5962196269456
 11
919.02040116478383
 21
2203.5962196269456
  0
LINE
  8
_0-3_躯体と製品
  6
CONTINUOUS
 62
    4
 10
932.02040116478383
 20
2203.5962196269456
 11
935.52040116478292
 21
2203.5962196269456
  0
LINE
  8
_0-3_躯体と製品
  6
CONTINUOUS
 62
    4
 10
915.52040116478383
 20
2222.2108416269457
 11
915.52040116478383
 21
2220.6108416269453
  0
LINE
  8
_0-3_躯体と製品
  6
CONTINUOUS
 62
    4
 10
935.52040116478292
 20
2222.2108416269457
 11
935.52040116478292
 21
2220.6108416269453
  0
LINE
  8
_0-3_躯体と製品
  6
CONTINUOUS
 62
    4
 10
946.52040116478383
 20
2203.5962196269456
 11
946.01935673621301
 21
2210.6108416269453
  0
ARC
  8
_0-3_躯体と製品
  6
CONTINUOUS
 62
    4
 10
948.2204011647832
 20
2189.6951916269459
 40
2.3000000000006366
 50
359.99999999998869
 51
89.999999999988688
  0
LINE
  8
_0-3_躯体と製品
  6
CONTINUOUS
 62
    4
 10
950.52040116478383
 20
2203.5962196269456
 11
946.49240116478359
 21
2203.5962196269456
  0
ARC
  8
_0-3_躯体と製品
  6
CONTINUOUS
 62
    3
 10
957.32040116478379
 20
2195.7094051893191
 40
1.5000000000001605
 50
289.47122063449501
 51
0.0000000000047835
  0
ARC
  8
_0-3_躯体と製品
  6
CONTINUOUS
 62
    4
 10
945.02045716478324
 20
2226.1108416269449
 40
5.4999999999995444
 50
270.00000000000472
 51
0.0000000000047453
  0
ARC
  8
_0-3_躯体と製品
  6
CONTINUOUS
 62
    4
 10
945.02045716478392
 20
2226.1108416269453
 40
3.8999999999998631
 50
269.99999999999665
 51
359.99999999999665
  0
LINE
  8
_0-3_躯体と製品
  6
CONTINUOUS
 62
    4
 10
945.02045716478369
 20
2269.0108416269468
 11
906.02045716478369
 21
2269.0108416269468
  0
LINE
  8
_0-3_躯体と製品
  6
CONTINUOUS
 62
    4
 10
906.02045716478369
 20
2270.6108416269462
 11
945.02045716478369
 21
2270.6108416269462
  0
LINE
  8
_0-3_躯体と製品
  6
CONTINUOUS
 62
    4
 10
905.52040116478383
 20
2277.6108416269453
 11
945.52040116478292
 21
2277.6108416269453
  0
LINE
  8
_0-3_躯体と製品
  6
CONTINUOUS
 62
    3
 10
955.52040116478383
 20
2277.7951916269458
 11
895.52040116478383
 21
2277.7951916269458
  0
LINE
  8
_0-3_躯体と製品
  6
CONTINUOUS
 62
    3
 10
955.52040116478383
 20
2282.7951916269467
 11
895.52040116478383
 21
2282.7951916269467
  0
ARC
  8
_0-3_躯体と製品
  6
CONTINUOUS
 62
    4
 10
891.98202081354202
 20
2272.2951916269458
 40
3.2455486276349568
 50
292.43051456130132
 51
67.569485438672629
  0
ARC
  8
_0-3_躯体と製品
  6
CONTINUOUS
 62
    4
 10
891.98202081354157
 20
2272.2951916269449
 40
5.545548627634628
 50
309.64714376104513
 51
50.352856238954857
  0
LINE
  8
_0-3_躯体と製品
  6
CONTINUOUS
 62
    4
 10
905.52040116478383
 20
2277.6108416269453
 11
905.52040116478383
 21
2270.6108416269462
  0
ARC
  8
_0-3_躯体と製品
  6
CONTINUOUS
 62
    4
 10
906.02045716478415
 20
2265.1108416269458
 40
5.5000000000004539
 50
90.000000000004732
 51
180.00000000000472
  0
ARC
  8
_0-3_躯体と製品
  6
CONTINUOUS
 62
    4
 10
906.02045716478347
 20
2265.1108416269453
 40
3.9000000000007726
 50
89.999999999996646
 51
179.99999999999665
  0
LINE
  8
_0-3_躯体と製品
  6
CONTINUOUS
 62
    4
 10
895.52040116478383
 20
2289.2951916269467
 11
893.22040116478365
 21
2289.2951916269467
  0
LINE
  8
_0-3_躯体と製品
  6
CONTINUOUS
 62
    4
 10
893.22040116206381
 20
2275.2951916280799
 11
893.22040116478365
 21
2289.2951916269467
  0
ARC
  8
_0-3_躯体と製品
  6
CONTINUOUS
 62
    3
 10
893.72040116399103
 20
2282.8809780646357
 40
1.5000000000013332
 50
109.4712206417304
 51
180.00000000004675
  0
ARC
  8
_0-3_躯体と製品
  6
CONTINUOUS
 62
    3
 10
892.2204011640556
 20
2282.5451916269458
 40
3
 50
90
 51
180
  0
LINE
  8
_0-3_躯体と製品
  6
CONTINUOUS
 62
    3
 10
889.2204011640556
 20
2282.5451916269458
 11
889.22040116483686
 21
2278.0452600778372
  0
LINE
  8
_0-3_躯体と製品
  6
CONTINUOUS
 62
    3
 10
893.2204011640556
 20
2285.5451916269458
 11
892.2204011640556
 21
2285.5451916269458
  0
LINE
  8
_0-3_躯体と製品
  6
CONTINUOUS
 62
    4
 10
895.52040116478383
 20
2276.5652003004034
 11
895.52040116478383
 21
2289.2951916269467
  0
LINE
  8
_0-3_躯体と製品
  6
CONTINUOUS
 62
    4
 10
896.42719592006461
 20
2275.6108405609884
 11
900.52040116478474
 21
2275.6108716269455
  0
ARC
  8
_0-3_躯体と製品
  6
CONTINUOUS
 62
    4
 10
959.05878151613388
 20
2272.2951916269458
 40
3.2455486276760181
 50
112.43051456307036
 51
247.56948543692963
  0
ARC
  8
_0-3_躯体と製品
  6
CONTINUOUS
 62
    4
 10
959.05878151613365
 20
2272.2951916269458
 40
5.5455486276759514
 50
129.6471437621347
 51
230.35285623786527
  0
LINE
  8
_0-3_躯体と製品
  6
CONTINUOUS
 62
    4
 10
945.52040116478292
 20
2277.6108416269453
 11
945.52040116478292
 21
2270.6108416269462
  0
ARC
  8
_0-3_躯体と製品
  6
CONTINUOUS
 62
    4
 10
945.02045716478278
 20
2265.1108416269462
 40
5.5
 50
359.99999999999051
 51
89.99999999999055
  0
ARC
  8
_0-3_躯体と製品
  6
CONTINUOUS
 62
    4
 10
945.02045716478347
 20
2265.1108416269453
 40
3.9000000000003179
 50
359.99999999999665
 51
89.999999999996675
  0
LINE
  8
_0-3_躯体と製品
  6
CONTINUOUS
 62
    4
 10
950.52040116478383
 20
2272.6108416269453
 11
945.52040116478292
 21
2272.6108416269453
  0
LINE
  8
_0-3_躯体と製品
  6
CONTINUOUS
 62
    4
 10
955.52040116478383
 20
2289.2951916269467
 11
957.82040116478402
 21
2289.2951916269467
  0
LINE
  8
_0-3_躯体と製品
  6
CONTINUOUS
 62
    4
 10
955.52040116478383
 20
2276.5652003003661
 11
955.52040116478383
 21
2289.2951916269467
  0
LINE
  8
_0-3_躯体と製品
  6
CONTINUOUS
 62
    3
 10
950.22040116478502
 20
2283.2951916269458
 11
949.72040116478365
 21
2282.7951916269467
  0
LINE
  8
_0-3_躯体と製品
  6
CONTINUOUS
 62
    3
 10
950.22040116478502
 20
2277.2951916269467
 11
949.72040116478365
 21
2277.7951916269458
  0
LINE
  8
_0-3_躯体と製品
  6
CONTINUOUS
 62
    3
 10
945.52040116478292
 20
2274.2108416269448
 11
950.52040116478383
 21
2274.2108416269448
  0
LINE
  8
_0-3_躯体と製品
  6
CONTINUOUS
 62
    4
 10
954.61360640955991
 20
2275.6108405609884
 11
950.52040116478383
 21
2275.6108716269455
  0
LINE
  8
_0-3_躯体と製品
  6
CONTINUOUS
 62
    3
 10
955.52040116478383
 20
2283.2951916269458
 11
950.22040116478502
 21
2283.2951916269458
  0
LINE
  8
_0-3_躯体と製品
  6
CONTINUOUS
 62
    3
 10
955.52040116478383
 20
2277.2951916269467
 11
950.22040116478502
 21
2277.2951916269467
  0
LINE
  8
_0-3_躯体と製品
  6
CONTINUOUS
 62
    3
 10
950.22040116478502
 20
2277.2951916269467
 11
950.22040116478502
 21
2283.2951916269458
  0
LINE
  8
_0-3_躯体と製品
  6
CONTINUOUS
 62
    4
 10
957.82040116478402
 20
2289.2951916269467
 11
957.82040116478402
 21
2275.2951916269458
  0
LINE
  8
_0-3_躯体と製品
  6
CONTINUOUS
 62
    3
 10
964.36097116478368
 20
2275.9201916269467
 11
964.36097116478368
 21
2284.6701916269467
  0
LINE
  8
_0-3_躯体と製品
  6
CONTINUOUS
 62
    3
 10
964.36097116478368
 20
2284.6701916269467
 11
964.36097116478368
 21
2275.9201916269467
  0
LINE
  8
_0-3_躯体と製品
  6
CONTINUOUS
 62
    3
 10
959.36097116478368
 20
2275.9201916269467
 11
959.36097116478368
 21
2284.6701916269467
  0
LINE
  8
_0-3_躯体と製品
  6
CONTINUOUS
 62
    3
 10
959.36097116478368
 20
2286.3951916269452
 11
959.36097116478368
 21
2274.1951916269454
  0
LINE
  8
_0-3_躯体と製品
  6
CONTINUOUS
 62
    3
 10
963.76097116478377
 20
2282.7951916269467
 11
959.96097116478359
 21
2282.7951916269467
  0
LINE
  8
_0-3_躯体と製品
  6
CONTINUOUS
 62
    3
 10
963.76097116478377
 20
2277.7951916269458
 11
959.96097116478359
 21
2277.7951916269458
  0
LINE
  8
_0-3_躯体と製品
  6
CONTINUOUS
 62
    3
 10
963.76097116478377
 20
2275.2951916269458
 11
959.96097116478359
 21
2275.2951916269458
  0
ARC
  8
_0-3_躯体と製品
  6
CONTINUOUS
 62
    3
 10
960.96305516478628
 20
2284.0451916269462
 40
1.602084000002528
 50
180.00000000001171
 51
231.28201200001666
  0
ARC
  8
_0-3_躯体と製品
  6
CONTINUOUS
 62
    3
 10
964.86930516478446
 20
2280.2951916269458
 40
5.5083340000011685
 50
153.00853300000176
 51
206.99146699999824
  0
ARC
  8
_0-3_躯体と製品
  6
CONTINUOUS
 62
    3
 10
960.96305516478333
 20
2276.5451916269449
 40
1.6020839999997445
 50
128.71798799993553
 51
179.9999999999385
  0
LINE
  8
_0-3_躯体と製品
  6
CONTINUOUS
 62
    3
 10
959.36097116478368
 20
2275.9201916269467
 11
959.96097116478359
 21
2275.2951916269458
  0
ARC
  8
_0-3_躯体と製品
  6
CONTINUOUS
 62
    3
 10
962.7588871647813
 20
2284.0451916269458
 40
1.6020840000023584
 50
308.71798800000124
 51
0.0000000000042492
  0
ARC
  8
_0-3_躯体と製品
  6
CONTINUOUS
 62
    3
 10
958.85263716478335
 20
2280.2951916269458
 40
5.5083340000011685
 50
333.00853300000176
 51
26.991466999998252
  0
ARC
  8
_0-3_躯体と製品
  6
CONTINUOUS
 62
    3
 10
962.75888716478426
 20
2276.5451916269453
 40
1.6020839999995171
 50
0.000000000044576
 51
51.282012000047537
  0
LINE
  8
_0-3_躯体と製品
  6
CONTINUOUS
 62
    3
 10
964.36097116478368
 20
2275.9201916269467
 11
963.76097116478377
 21
2275.2951916269458
  0
LINE
  8
_0-3_躯体と製品
  6
CONTINUOUS
 62
    3
 10
963.76097116478377
 20
2285.2951916269458
 11
959.96097116478359
 21
2285.2951916269458
  0
LINE
  8
_0-3_躯体と製品
  6
CONTINUOUS
 62
    3
 10
959.36097116478368
 20
2286.3951916269452
 11
957.82040116478402
 21
2286.3951916269452
  0
LINE
  8
_0-3_躯体と製品
  6
CONTINUOUS
 62
    3
 10
959.36097116478368
 20
2284.6701916269467
 11
959.96097116478359
 21
2285.2951916269458
  0
LINE
  8
_0-3_躯体と製品
  6
CONTINUOUS
 62
    3
 10
964.36097116478368
 20
2284.6701916269467
 11
963.76097116478377
 21
2285.2951916269458
  0
LINE
  8
_0-3_躯体と製品
  6
CONTINUOUS
 62
    3
 10
973.22040116478365
 20
2283.2951916269458
 11
973.22040116478365
 21
2277.2951916269467
  0
LINE
  8
_0-3_躯体と製品
  6
CONTINUOUS
 62
    4
 10
925.52040116478474
 20
2218.6108416269453
 11
902.02040116478474
 21
2218.6108416269453
  0
LINE
  8
_0-3_躯体と製品
  6
CONTINUOUS
 62
    4
 10
902.02040116478474
 20
2220.6108416269453
 11
902.02040116478474
 21
2210.6108416269453
  0
LINE
  8
_0-3_躯体と製品
  6
CONTINUOUS
 62
    4
 10
949.02040044952901
 20
2220.6108416269453
 11
949.02040044952901
 21
2210.6108416269453
  0
LINE
  8
_0-3_躯体と製品
  6
CONTINUOUS
 62
    4
 10
925.52040116478474
 20
2218.6108416269453
 11
949.02040044952901
 21
2218.6108416269453
  0
LINE
  8
_0-3_躯体と製品
  6
CONTINUOUS
 62
    4
 10
902.02040116478474
 20
2210.6108416269453
 11
949.02040044952901
 21
2210.6108416269453
  0
LINE
  8
_0-3_躯体と製品
  6
CONTINUOUS
 62
    4
 10
917.52040116478383
 20
1981.4108416269346
 11
917.52040116478383
 21
1907.4951916269456
  0
LINE
  8
_0-3_躯体と製品
  6
CONTINUOUS
 62
    4
 10
933.52040116478383
 20
1981.4108416269346
 11
933.52040116478383
 21
1907.4951916269456
  0
LINE
  8
_0-3_躯体と製品
  6
CONTINUOUS
 62
    3
 10
932.02040116478383
 20
1981.4108416269346
 11
932.02040116478383
 21
1905.9951916269456
  0
LINE
  8
_0-3_躯体と製品
  6
CONTINUOUS
 62
    3
 10
919.02040116478383
 20
1981.4108416269346
 11
919.02040116478383
 21
1905.9951916269456
  0
LINE
  8
_0-3_躯体と製品
  6
CONTINUOUS
 62
    4
 10
919.02040116478383
 20
1905.9951916269456
 11
932.02040116478383
 21
1905.9951916269456
  0
LINE
  8
_0-3_躯体と製品
  6
CONTINUOUS
 62
    4
 10
917.52040116478383
 20
1907.4951916269456
 11
919.02040116478383
 21
1905.9951916269456
  0
LINE
  8
_0-3_躯体と製品
  6
CONTINUOUS
 62
    4
 10
933.52040116478383
 20
1907.4951916269456
 11
932.02040116478383
 21
1905.9951916269456
  0
LINE
  8
_0-3_躯体と製品
  6
CONTINUOUS
 62
    3
 10
917.52040116478383
 20
1907.4951916269456
 11
933.52040116478383
 21
1907.4951916269456
  0
LINE
  8
_0-3_躯体と製品
  6
CONTINUOUS
 62
    4
 10
915.12809631936761
 20
2172.9951916269456
 11
935.9127060101996
 21
2172.9951916269456
  0
LINE
  8
_0-3_躯体と製品
  6
CONTINUOUS
 62
    4
 10
918.59219793452576
 20
2174.4951916269456
 11
918.59219793452576
 21
2185.9951916269465
  0
LINE
  8
_0-3_躯体と製品
  6
CONTINUOUS
 62
    4
 10
932.44860439507192
 20
2157.4951916269456
 11
932.44860439507192
 21
2168.9951916269456
  0
LINE
  8
_0-3_躯体と製品
  6
CONTINUOUS
 62
    4
 10
932.44860439507192
 20
2174.4951916269456
 11
932.44860439507192
 21
2185.9951916269465
  0
LINE
  8
_0-3_躯体と製品
  6
CONTINUOUS
 62
    4
 10
918.59219793452576
 20
2157.4951916269456
 11
918.59219793452576
 21
2168.9951916269456
  0
ARC
  8
_0-3_躯体と製品
  6
CONTINUOUS
 62
    4
 10
915.12809631938239
 20
2177.7451916269515
 40
4.7500000000080691
 50
223.17355110726379
 51
316.82644889273621
  0
ARC
  8
_0-3_躯体と製品
  6
CONTINUOUS
 62
    4
 10
925.52040116479884
 20
2189.7451913065065
 40
16.749999708255991
 50
245.56730186717647
 51
294.43269813282353
  0
ARC
  8
_0-3_躯体と製品
  6
CONTINUOUS
 62
    4
 10
935.91270601020028
 20
2177.7451916269379
 40
4.7499999999878026
 50
223.17355110726777
 51
316.82644889273217
  0
LINE
  8
_0-3_躯体と製品
  6
CONTINUOUS
 62
    4
 10
939.37680762532864
 20
2174.4951916269456
 11
939.37680762532864
 21
2185.9951916269465
  0
LINE
  8
_0-3_躯体と製品
  6
CONTINUOUS
 62
    4
 10
939.37680762532864
 20
2185.9951916269465
 11
911.66399470423903
 21
2185.9951916269465
  0
LINE
  8
_0-3_躯体と製品
  6
CONTINUOUS
 62
    4
 10
911.66399470423903
 20
2185.9951916269465
 11
911.66399470423903
 21
2174.4951916269456
  0
LINE
  8
_0-3_躯体と製品
  6
CONTINUOUS
 62
    4
 10
911.52040116044782
 20
2168.9951916269456
 11
939.52040119781577
 21
2168.9951916269456
  0
LINE
  8
_0-3_躯体と製品
  6
CONTINUOUS
 62
    4
 10
939.52040119781577
 20
2168.9951916269456
 11
939.52040119781577
 21
2172.9951916269456
  0
LINE
  8
_0-3_躯体と製品
  6
CONTINUOUS
 62
    4
 10
939.52040119781577
 20
2172.9951916269456
 11
911.52040116044782
 21
2172.9951916269456
  0
LINE
  8
_0-3_躯体と製品
  6
CONTINUOUS
 62
    4
 10
911.52040116044782
 20
2172.9951916269456
 11
911.52040116044782
 21
2168.9951916269456
  0
LINE
  8
_0-3_躯体と製品
  6
CONTINUOUS
 62
    4
 10
915.12809631936761
 20
2155.9951916269456
 11
935.9127060101996
 21
2155.9951916269456
  0
LINE
  8
_0-3_躯体と製品
  6
CONTINUOUS
 62
    4
 10
925.52040117913293
 20
2168.9951916269456
 11
929.52040117913202
 21
2172.9951916269456
  0
ARC
  8
_0-3_躯体と製品
  6
CONTINUOUS
 62
    4
 10
915.12809631938239
 20
2160.745191626952
 40
4.7500000000085461
 50
223.1735511072699
 51
316.82644889273007
  0
ARC
  8
_0-3_躯体と製品
  6
CONTINUOUS
 62
    4
 10
925.52040116479884
 20
2172.745191626942
 40
16.749999999995538
 50
245.56730232054764
 51
294.43269767945236
  0
ARC
  8
_0-3_躯体と製品
  6
CONTINUOUS
 62
    4
 10
935.91270601020028
 20
2160.7451916269365
 40
4.7499999999870157
 50
223.17355110725768
 51
316.82644889274235
  0
LINE
  8
_0-3_躯体と製品
  6
CONTINUOUS
 62
    4
 10
939.37680762532864
 20
2157.4951916269456
 11
939.37680762532864
 21
2168.9951916269456
  0
LINE
  8
_0-3_躯体と製品
  6
CONTINUOUS
 62
    4
 10
939.37680762532864
 20
2168.9951916269456
 11
911.66399470423903
 21
2168.9951916269456
  0
LINE
  8
_0-3_躯体と製品
  6
CONTINUOUS
 62
    4
 10
911.66399470423903
 20
2168.9951916269456
 11
911.66399470423903
 21
2157.4951916269456
  0
LINE
  8
_0-3_躯体と製品
  6
CONTINUOUS
 62
    4
 10
921.5204011317519
 20
2168.9951915982492
 11
925.52040113175099
 21
2172.9951915982492
  0
LINE
  8
_0-3_躯体と製品
  6
CONTINUOUS
 62
    4
 10
905.52045716478369
 20
2270.6108416269462
 11
945.52045716478369
 21
2270.6108416269462
  0
ARC
  8
_0-3_躯体と製品
  6
CONTINUOUS
 62
    3
 10
957.32040116478311
 20
2282.8809780645729
 40
1.5000000000008036
 50
359.99999999997783
 51
70.528779365487608
  0
LINE
  8
_0-3_躯体と製品
  6
CONTINUOUS
 62
    3
 10
959.36097116478368
 20
2274.1951916269454
 11
958.82040116478402
 21
2274.1951916269454
  0
ARC
  8
_0-3_躯体と製品
  6
CONTINUOUS
 62
    3
 10
892.22040116405697
 20
2278.0451916269458
 40
3.00000000000137
 50
179.9999999999805
 51
269.61294971878573
  0
LINE
  8
_0-3_躯体と製品
  6
CONTINUOUS
 62
    3
 10
892.22040116398784
 20
2275.0452600778372
 11
892.2001354128588
 21
2275.0452600778372
  0
LINE
  8
_0-3_躯体と製品
  6
CONTINUOUS
 62
    4
 10
1722.721400612787
 20
2155.9951916269456
 11
1722.721400612787
 21
2014.6108423106234
  0
LINE
  8
_0-3_躯体と製品
  6
CONTINUOUS
 62
    4
 10
1706.721400612787
 20
2155.9951916269456
 11
1706.721400612787
 21
2014.6108423106234
  0
LINE
  8
_0-3_躯体と製品
  6
CONTINUOUS
 62
    3
 10
1721.221400612787
 20
2155.9951916269456
 11
1721.221400612787
 21
2014.6108423106234
  0
LINE
  8
_0-3_躯体と製品
  6
CONTINUOUS
 62
    3
 10
1708.221400612787
 20
2155.9951916269456
 11
1708.221400612787
 21
2014.6108423106234
  0
LINE
  8
_0-3_躯体と製品
  6
CONTINUOUS
 62
    3
 10
1753.5619706127882
 20
2277.7951916269458
 11
1762.4214006127877
 21
2277.7951916269458
  0
LINE
  8
_0-3_躯体と製品
  6
CONTINUOUS
 62
    3
 10
1753.5619706127882
 20
2282.7951916269467
 11
1762.4214006127877
 21
2282.7951916269467
  0
LINE
  8
_0-3_躯体と製品
  6
CONTINUOUS
 62
    3
 10
1753.5619706127882
 20
2283.2951916269458
 11
1762.4214006127877
 21
2283.2951916269458
  0
LINE
  8
_0-3_躯体と製品
  6
CONTINUOUS
 62
    3
 10
1762.4214006127877
 20
2277.2951916269467
 11
1753.5619706127882
 21
2277.2951916269467
  0
LINE
  8
_0-3_躯体と製品
  6
CONTINUOUS
 62
    4
 10
1691.3214566127872
 20
2226.1108416269453
 11
1691.3214566127872
 21
2265.1108416269453
  0
LINE
  8
_0-3_躯体と製品
  6
CONTINUOUS
 62
    4
 10
1738.1214566127865
 20
2265.1108416269453
 11
1738.1214566127865
 21
2226.1108416269453
  0
LINE
  8
_0-3_躯体と製品
  6
CONTINUOUS
 62
    4
 10
1744.7214006127879
 20
2268.0251829535237
 11
1744.7214006127879
 21
2191.595191626946
  0
ARC
  8
_0-3_躯体と製品
  6
CONTINUOUS
 62
    4
 10
1742.4214006127872
 20
2191.5951916269464
 40
2.3000000000006819
 50
269.99999999998977
 51
359.99999999998755
  0
LINE
  8
_0-3_躯体と製品
  6
CONTINUOUS
 62
    4
 10
1742.4214006127868
 20
2189.2951916269458
 11
1739.721400612787
 21
2189.2951916269458
  0
LINE
  8
_0-3_躯体と製品
  6
CONTINUOUS
 62
    3
 10
1748.0214006127881
 20
2195.7094051893191
 11
1748.0214006127881
 21
2282.8809780645724
  0
LINE
  8
_0-3_躯体と製品
  6
CONTINUOUS
 62
    4
 10
1739.721400612787
 20
2203.5962196269456
 11
1739.721400612787
 21
2275.5938176269465
  0
LINE
  8
_0-3_躯体と製品
  6
CONTINUOUS
 62
    4
 10
1714.7214006127861
 20
2186.9951916269456
 11
1687.0214006127871
 21
2186.9951916269456
  0
ARC
  8
_0-3_躯体と製品
  6
CONTINUOUS
 62
    4
 10
1687.0214006127871
 20
2191.595191626946
 40
4.6000000000003975
 50
180.00000000000045
 51
269.9999999999996
  0
LINE
  8
_0-3_躯体と製品
  6
CONTINUOUS
 62
    4
 10
1682.4214006127868
 20
2191.595191626946
 11
1682.4214006100665
 21
2269.2951916258116
  0
LINE
  8
_0-3_躯体と製品
  6
CONTINUOUS
 62
    4
 10
1689.721400612787
 20
2203.5962196269456
 11
1689.721400612787
 21
2275.6108416269453
  0
LINE
  8
_0-3_躯体と製品
  6
CONTINUOUS
 62
    3
 10
1681.4214006119928
 20
2282.8809780646343
 11
1681.4214006119755
 21
2195.7094051895701
  0
LINE
  8
_0-3_躯体と製品
  6
CONTINUOUS
 62
    4
 10
1695.2214566127868
 20
2222.2108416269457
 11
1704.7214566127868
 21
2222.2108416269457
  0
LINE
  8
_0-3_躯体と製品
  6
PLINE2
 62
    3
 10
1689.721400612787
 20
2189.2951916269458
 11
1739.721400612787
 21
2189.2951916269458
  0
LINE
  8
_0-3_躯体と製品
  6
CONTINUOUS
 62
    4
 10
1747.0214006127871
 20
2269.2951916269458
 11
1747.0214006127871
 21
2191.595191626946
  0
ARC
  8
_0-3_躯体と製品
  6
CONTINUOUS
 62
    4
 10
1742.4214006127872
 20
2191.5951916269455
 40
4.5999999999999437
 50
270.00000000000608
 51
0.0000000000052251
  0
LINE
  8
_0-3_躯体と製品
  6
CONTINUOUS
 62
    4
 10
1742.4214006127877
 20
2186.9951916269456
 11
1714.7214006127861
 21
2186.9951916269456
  0
LINE
  8
_0-3_躯体と製品
  6
CONTINUOUS
 62
    4
 10
1689.1357541753732
 20
2185.9951916269465
 11
1740.3070470502007
 21
2185.9951916269465
  0
LINE
  8
_0-3_躯体と製品
  6
CONTINUOUS
 62
    4
 10
1738.2213998975312
 20
2220.6108416269453
 11
1691.221400612787
 21
2220.6108416269453
  0
LINE
  8
_0-3_躯体と製品
  6
CONTINUOUS
 62
    4
 10
1692.0214006127871
 20
2191.9951916269465
 11
1737.4214006127877
 21
2191.9951916269465
  0
LINE
  8
_0-3_躯体と製品
  6
CONTINUOUS
 62
    4
 10
1689.721400612787
 20
2189.5951916269441
 11
1689.721400612787
 21
2189.6951916269454
  0
LINE
  8
_0-3_躯体と製品
  6
CONTINUOUS
 62
    4
 10
1689.721400612787
 20
2189.2951916269458
 11
1687.0214006127871
 21
2189.2951916269458
  0
ARC
  8
_0-3_躯体と製品
  6
CONTINUOUS
 62
    4
 10
1687.0214006127871
 20
2191.595191626946
 40
2.3000000000002272
 50
180.00000000000111
 51
269.99999999999886
  0
LINE
  8
_0-3_躯体と製品
  6
CONTINUOUS
 62
    4
 10
1684.721400612787
 20
2191.595191626946
 11
1684.721400612787
 21
2268.0251829534873
  0
ARC
  8
_0-3_躯体と製品
  6
CONTINUOUS
 62
    4
 10
1689.1357541753725
 20
2187.4953896269462
 40
1.5001979999996613
 50
199.47656789583689
 51
270.00000000002734
  0
LINE
  8
_0-3_躯体と製品
  6
CONTINUOUS
 62
    4
 10
1689.721400612787
 20
2189.5951916269441
 11
1689.721400612787
 21
2186.9951916269456
  0
LINE
  8
_0-3_躯体と製品
  6
CONTINUOUS
 62
    4
 10
1694.2224450413587
 20
2210.6108416269453
 11
1693.7214006127861
 21
2203.5962196269456
  0
ARC
  8
_0-3_躯体と製品
  6
CONTINUOUS
 62
    3
 10
1682.9214006119751
 20
2195.7094051895706
 40
1.4999999999994371
 50
180.00000000001688
 51
250.52877939441294
  0
ARC
  8
_0-3_躯体と製品
  6
CONTINUOUS
 62
    4
 10
1692.0214006127876
 20
2189.6951916269459
 40
2.3000000000006366
 50
90.000000000011354
 51
180.00000000001134
  0
LINE
  8
_0-3_躯体と製品
  6
CONTINUOUS
 62
    4
 10
1693.7214006127861
 20
2203.5962196269456
 11
1689.721400612787
 21
2203.5962196269456
  0
ARC
  8
_0-3_躯体と製品
  6
CONTINUOUS
 62
    4
 10
1695.2214566127868
 20
2226.1108416269453
 40
5.5
 50
180
 51
270
  0
ARC
  8
_0-3_躯体と製品
  6
CONTINUOUS
 62
    4
 10
1695.2214566127859
 20
2226.1108416269462
 40
3.9000000000005461
 50
180.00000000001336
 51
270.00000000001336
  0
LINE
  8
_0-3_躯体と製品
  6
CONTINUOUS
 62
    4
 10
1739.721400612787
 20
2189.5951916269441
 11
1739.721400612787
 21
2189.6951916269454
  0
ARC
  8
_0-3_躯体と製品
  6
CONTINUOUS
 62
    4
 10
1740.3070470502014
 20
2187.4953896269462
 40
1.5001979999996613
 50
269.99999999997266
 51
340.52343210416313
  0
LINE
  8
_0-3_躯体と製品
  6
CONTINUOUS
 62
    4
 10
1739.721400612787
 20
2189.5951916269441
 11
1739.721400612787
 21
2186.9951916269456
  0
LINE
  8
_0-3_躯体と製品
  6
CONTINUOUS
 62
    4
 10
1734.2214566127868
 20
2222.2108416269457
 11
1724.7214566127859
 21
2222.2108416269457
  0
LINE
  8
_0-3_躯体と製品
  6
CONTINUOUS
 62
    4
 10
1703.9698339699298
 20
2210.6108416269453
 11
1704.721400612787
 21
2203.5962196269456
  0
LINE
  8
_0-3_躯体と製品
  6
CONTINUOUS
 62
    4
 10
1708.972967255645
 20
2210.6108416269453
 11
1708.221400612787
 21
2203.5962196269456
  0
LINE
  8
_0-3_躯体と製品
  6
CONTINUOUS
 62
    4
 10
1720.4698339699298
 20
2210.6108416269453
 11
1721.221400612787
 21
2203.5962196269456
  0
LINE
  8
_0-3_躯体と製品
  6
CONTINUOUS
 62
    4
 10
1725.4729672556441
 20
2210.6108416269453
 11
1724.721400612787
 21
2203.5962196269456
  0
LINE
  8
_0-3_躯体と製品
  6
CONTINUOUS
 62
    4
 10
1704.721400612787
 20
2203.5962196269456
 11
1708.221400612787
 21
2203.5962196269456
  0
LINE
  8
_0-3_躯体と製品
  6
CONTINUOUS
 62
    4
 10
1721.221400612787
 20
2203.5962196269456
 11
1724.721400612787
 21
2203.5962196269456
  0
LINE
  8
_0-3_躯体と製品
  6
CONTINUOUS
 62
    4
 10
1704.721400612787
 20
2222.2108416269457
 11
1704.721400612787
 21
2220.6108416269453
  0
LINE
  8
_0-3_躯体と製品
  6
CONTINUOUS
 62
    4
 10
1724.721400612787
 20
2222.2108416269457
 11
1724.721400612787
 21
2220.6108416269453
  0
LINE
  8
_0-3_躯体と製品
  6
CONTINUOUS
 62
    4
 10
1735.721400612787
 20
2203.5962196269456
 11
1735.2203561842152
 21
2210.6108416269453
  0
ARC
  8
_0-3_躯体と製品
  6
CONTINUOUS
 62
    4
 10
1737.4214006127868
 20
2189.6951916269463
 40
2.3000000000001819
 50
359.99999999997738
 51
89.999999999977362
  0
LINE
  8
_0-3_躯体と製品
  6
CONTINUOUS
 62
    4
 10
1739.721400612787
 20
2203.5962196269456
 11
1735.6934006127867
 21
2203.5962196269456
  0
ARC
  8
_0-3_躯体と製品
  6
CONTINUOUS
 62
    3
 10
1746.5214006127876
 20
2195.7094051893196
 40
1.5000000000006155
 50
289.47122063447046
 51
359.99999999998022
  0
ARC
  8
_0-3_躯体と製品
  6
CONTINUOUS
 62
    4
 10
1734.2214566127868
 20
2226.1108416269453
 40
5.5
 50
270
 51
0.0000000000000127
  0
ARC
  8
_0-3_躯体と製品
  6
CONTINUOUS
 62
    4
 10
1734.2214566127868
 20
2226.1108416269453
 40
3.8999999999996358
 50
270
 51
0.0000000000000127
  0
LINE
  8
_0-3_躯体と製品
  6
CONTINUOUS
 62
    4
 10
1734.2214566127868
 20
2269.0108416269468
 11
1695.2214566127868
 21
2269.0108416269468
  0
LINE
  8
_0-3_躯体と製品
  6
CONTINUOUS
 62
    4
 10
1695.2214566127868
 20
2270.6108416269462
 11
1734.2214566127868
 21
2270.6108416269462
  0
LINE
  8
_0-3_躯体と製品
  6
CONTINUOUS
 62
    4
 10
1694.721400612787
 20
2277.6108416269453
 11
1734.721400612787
 21
2277.6108416269453
  0
LINE
  8
_0-3_躯体と製品
  6
CONTINUOUS
 62
    3
 10
1744.7214006127879
 20
2277.7951916269458
 11
1684.721400612787
 21
2277.7951916269458
  0
LINE
  8
_0-3_躯体と製品
  6
CONTINUOUS
 62
    3
 10
1744.7214006127879
 20
2282.7951916269467
 11
1684.721400612787
 21
2282.7951916269467
  0
ARC
  8
_0-3_躯体と製品
  6
CONTINUOUS
 62
    4
 10
1681.1830202615445
 20
2272.2951916269458
 40
3.2455486276349568
 50
292.43051456131434
 51
67.56948543868566
  0
ARC
  8
_0-3_躯体と製品
  6
CONTINUOUS
 62
    4
 10
1681.1830202615447
 20
2272.2951916269449
 40
5.545548627634628
 50
309.64714376104513
 51
50.352856238954857
  0
LINE
  8
_0-3_躯体と製品
  6
CONTINUOUS
 62
    4
 10
1694.721400612787
 20
2277.6108416269453
 11
1694.721400612787
 21
2270.6108416269462
  0
ARC
  8
_0-3_躯体と製品
  6
CONTINUOUS
 62
    4
 10
1695.2214566127873
 20
2265.1108416269458
 40
5.5000000000004539
 50
90.000000000004732
 51
180.00000000000472
  0
ARC
  8
_0-3_躯体と製品
  6
CONTINUOUS
 62
    4
 10
1695.2214566127864
 20
2265.1108416269449
 40
3.900000000001
 50
89.999999999993335
 51
179.99999999999332
  0
LINE
  8
_0-3_躯体と製品
  6
CONTINUOUS
 62
    4
 10
1694.721400612787
 20
2272.6108416269453
 11
1689.721400612787
 21
2272.6108416269453
  0
LINE
  8
_0-3_躯体と製品
  6
CONTINUOUS
 62
    4
 10
1684.721400612787
 20
2289.2951916269467
 11
1682.4214006127868
 21
2289.2951916269467
  0
LINE
  8
_0-3_躯体と製品
  6
CONTINUOUS
 62
    4
 10
1682.4214006100665
 20
2275.2951916280799
 11
1682.4214006127868
 21
2289.2951916269467
  0
ARC
  8
_0-3_躯体と製品
  6
CONTINUOUS
 62
    3
 10
1682.9214006119939
 20
2282.8809780646361
 40
1.500000000001106
 50
109.47122064174266
 51
180.00000000005903
  0
ARC
  8
_0-3_躯体と製品
  6
CONTINUOUS
 62
    3
 10
1681.4214006120574
 20
2282.5451916269458
 40
3
 50
90
 51
180
  0
LINE
  8
_0-3_躯体と製品
  6
CONTINUOUS
 62
    3
 10
1678.4214006120574
 20
2282.5451916269458
 11
1678.4214006128386
 21
2278.0452600778372
  0
LINE
  8
_0-3_躯体と製品
  6
CONTINUOUS
 62
    3
 10
1682.4214006120592
 20
2285.5451916269458
 11
1681.4214006120574
 21
2285.5451916269458
  0
LINE
  8
_0-3_躯体と製品
  6
CONTINUOUS
 62
    4
 10
1684.721400612787
 20
2276.5652003004034
 11
1684.721400612787
 21
2289.2951916269467
  0
LINE
  8
_0-3_躯体と製品
  6
CONTINUOUS
 62
    3
 10
1689.721400612787
 20
2274.2108416269448
 11
1694.721400612787
 21
2274.2108416269448
  0
LINE
  8
_0-3_躯体と製品
  6
CONTINUOUS
 62
    4
 10
1685.6281953680664
 20
2275.6108405609884
 11
1689.721400612787
 21
2275.6108716269455
  0
ARC
  8
_0-3_躯体と製品
  6
CONTINUOUS
 62
    4
 10
1748.259780964137
 20
2272.2951916269458
 40
3.2455486276760181
 50
112.43051456307036
 51
247.56948543692963
  0
ARC
  8
_0-3_躯体と製品
  6
CONTINUOUS
 62
    4
 10
1748.2597809641377
 20
2272.2951916269458
 40
5.5455486276759514
 50
129.6471437621347
 51
230.35285623786527
  0
LINE
  8
_0-3_躯体と製品
  6
CONTINUOUS
 62
    4
 10
1734.721400612787
 20
2277.6108416269453
 11
1734.721400612787
 21
2270.6108416269462
  0
ARC
  8
_0-3_躯体と製品
  6
CONTINUOUS
 62
    4
 10
1734.2214566127864
 20
2265.1108416269458
 40
5.5000000000004539
 50
359.99999999999528
 51
89.999999999995282
  0
ARC
  8
_0-3_躯体と製品
  6
CONTINUOUS
 62
    4
 10
1734.2214566127864
 20
2265.1108416269458
 40
3.9000000000000905
 50
359.99999999999335
 51
89.999999999993335
  0
LINE
  8
_0-3_躯体と製品
  6
CONTINUOUS
 62
    4
 10
1739.721400612787
 20
2272.6108416269453
 11
1734.721400612787
 21
2272.6108416269453
  0
LINE
  8
_0-3_躯体と製品
  6
CONTINUOUS
 62
    4
 10
1744.7214006127879
 20
2289.2951916269467
 11
1747.0214006127871
 21
2289.2951916269467
  0
LINE
  8
_0-3_躯体と製品
  6
CONTINUOUS
 62
    4
 10
1744.7214006127879
 20
2276.5652003003661
 11
1744.7214006127879
 21
2289.2951916269467
  0
LINE
  8
_0-3_躯体と製品
  6
CONTINUOUS
 62
    3
 10
1739.4214006127868
 20
2283.2951916269458
 11
1738.9214006127877
 21
2282.7951916269467
  0
LINE
  8
_0-3_躯体と製品
  6
CONTINUOUS
 62
    3
 10
1739.4214006127868
 20
2277.2951916269467
 11
1738.9214006127877
 21
2277.7951916269458
  0
LINE
  8
_0-3_躯体と製品
  6
CONTINUOUS
 62
    3
 10
1734.721400612787
 20
2274.2108416269448
 11
1739.721400612787
 21
2274.2108416269448
  0
LINE
  8
_0-3_躯体と製品
  6
CONTINUOUS
 62
    4
 10
1743.8146058575639
 20
2275.6108405609884
 11
1739.721400612787
 21
2275.6108716269455
  0
LINE
  8
_0-3_躯体と製品
  6
CONTINUOUS
 62
    3
 10
1744.7214006127879
 20
2283.2951916269458
 11
1739.4214006127868
 21
2283.2951916269458
  0
LINE
  8
_0-3_躯体と製品
  6
CONTINUOUS
 62
    3
 10
1744.7214006127879
 20
2277.2951916269467
 11
1739.4214006127868
 21
2277.2951916269467
  0
LINE
  8
_0-3_躯体と製品
  6
CONTINUOUS
 62
    3
 10
1739.4214006127868
 20
2277.2951916269467
 11
1739.4214006127868
 21
2283.2951916269458
  0
LINE
  8
_0-3_躯体と製品
  6
CONTINUOUS
 62
    4
 10
1747.0214006127871
 20
2289.2951916269467
 11
1747.0214006127871
 21
2275.2951916269458
  0
LINE
  8
_0-3_躯体と製品
  6
CONTINUOUS
 62
    3
 10
1753.5619706127882
 20
2275.9201916269467
 11
1753.5619706127882
 21
2284.6701916269467
  0
LINE
  8
_0-3_躯体と製品
  6
CONTINUOUS
 62
    3
 10
1753.5619706127882
 20
2284.6701916269467
 11
1753.5619706127882
 21
2275.9201916269467
  0
LINE
  8
_0-3_躯体と製品
  6
CONTINUOUS
 62
    3
 10
1748.5619706127873
 20
2275.9201916269467
 11
1748.5619706127873
 21
2284.6701916269467
  0
LINE
  8
_0-3_躯体と製品
  6
CONTINUOUS
 62
    3
 10
1748.5619706127873
 20
2286.3951916269452
 11
1748.5619706127873
 21
2274.1951916269454
  0
LINE
  8
_0-3_躯体と製品
  6
CONTINUOUS
 62
    3
 10
1752.9619706127869
 20
2282.7951916269467
 11
1749.1619706127867
 21
2282.7951916269467
  0
LINE
  8
_0-3_躯体と製品
  6
CONTINUOUS
 62
    3
 10
1752.9619706127869
 20
2277.7951916269458
 11
1749.1619706127867
 21
2277.7951916269458
  0
LINE
  8
_0-3_躯体と製品
  6
CONTINUOUS
 62
    3
 10
1752.9619706127869
 20
2275.2951916269458
 11
1749.1619706127867
 21
2275.2951916269458
  0
ARC
  8
_0-3_躯体と製品
  6
CONTINUOUS
 62
    3
 10
1750.1640546127896
 20
2284.0451916269458
 40
1.6020840000023007
 50
179.99999999999477
 51
231.28201199999972
  0
ARC
  8
_0-3_躯体と製品
  6
CONTINUOUS
 62
    3
 10
1754.0703046127885
 20
2280.2951916269458
 40
5.5083340000011685
 50
153.00853300000176
 51
206.99146699999824
  0
ARC
  8
_0-3_躯体と製品
  6
CONTINUOUS
 62
    3
 10
1750.1640546127869
 20
2276.5451916269453
 40
1.6020839999995171
 50
128.7179879999525
 51
179.99999999995543
  0
LINE
  8
_0-3_躯体と製品
  6
CONTINUOUS
 62
    3
 10
1748.5619706127873
 20
2275.9201916269467
 11
1749.1619706127867
 21
2275.2951916269458
  0
ARC
  8
_0-3_躯体と製品
  6
CONTINUOUS
 62
    3
 10
1751.9598866127853
 20
2284.0451916269467
 40
1.6020840000028129
 50
308.71798799996736
 51
359.99999999997038
  0
ARC
  8
_0-3_躯体と製品
  6
CONTINUOUS
 62
    3
 10
1748.053636612786
 20
2280.2951916269458
 40
5.5083340000011685
 50
333.00853300000176
 51
26.991466999998252
  0
ARC
  8
_0-3_躯体と製品
  6
CONTINUOUS
 62
    3
 10
1751.9598866127881
 20
2276.5451916269444
 40
1.6020839999999719
 50
0.0000000000784588
 51
51.282012000081416
  0
LINE
  8
_0-3_躯体と製品
  6
CONTINUOUS
 62
    3
 10
1753.5619706127882
 20
2275.9201916269467
 11
1752.9619706127869
 21
2275.2951916269458
  0
LINE
  8
_0-3_躯体と製品
  6
CONTINUOUS
 62
    3
 10
1752.9619706127869
 20
2285.2951916269458
 11
1749.1619706127867
 21
2285.2951916269458
  0
LINE
  8
_0-3_躯体と製品
  6
CONTINUOUS
 62
    3
 10
1748.5619706127873
 20
2286.3951916269452
 11
1747.0214006127871
 21
2286.3951916269452
  0
LINE
  8
_0-3_躯体と製品
  6
CONTINUOUS
 62
    3
 10
1748.5619706127873
 20
2284.6701916269467
 11
1749.1619706127867
 21
2285.2951916269458
  0
LINE
  8
_0-3_躯体と製品
  6
CONTINUOUS
 62
    3
 10
1753.5619706127882
 20
2284.6701916269467
 11
1752.9619706127869
 21
2285.2951916269458
  0
LINE
  8
_0-3_躯体と製品
  6
CONTINUOUS
 62
    3
 10
1762.4214006127877
 20
2283.2951916269458
 11
1762.4214006127877
 21
2277.2951916269467
  0
LINE
  8
_0-3_躯体と製品
  6
CONTINUOUS
 62
    4
 10
1714.7214006127861
 20
2218.6108416269453
 11
1691.221400612787
 21
2218.6108416269453
  0
LINE
  8
_0-3_躯体と製品
  6
CONTINUOUS
 62
    4
 10
1691.221400612787
 20
2220.6108416269453
 11
1691.221400612787
 21
2210.6108416269453
  0
LINE
  8
_0-3_躯体と製品
  6
CONTINUOUS
 62
    4
 10
1738.2213998975312
 20
2220.6108416269453
 11
1738.2213998975312
 21
2210.6108416269453
  0
LINE
  8
_0-3_躯体と製品
  6
CONTINUOUS
 62
    4
 10
1714.7214006127861
 20
2218.6108416269453
 11
1738.2213998975312
 21
2218.6108416269453
  0
LINE
  8
_0-3_躯体と製品
  6
CONTINUOUS
 62
    4
 10
1691.221400612787
 20
2210.6108416269453
 11
1738.2213998975312
 21
2210.6108416269453
  0
LINE
  8
_0-3_躯体と製品
  6
CONTINUOUS
 62
    4
 10
1706.721400612787
 20
1981.4108416269346
 11
1706.721400612787
 21
1907.4951916269456
  0
LINE
  8
_0-3_躯体と製品
  6
CONTINUOUS
 62
    4
 10
1722.721400612787
 20
1981.4108416269346
 11
1722.721400612787
 21
1907.4951916269456
  0
LINE
  8
_0-3_躯体と製品
  6
CONTINUOUS
 62
    3
 10
1721.221400612787
 20
1981.4108416269346
 11
1721.221400612787
 21
1905.9951916269456
  0
LINE
  8
_0-3_躯体と製品
  6
CONTINUOUS
 62
    3
 10
1708.221400612787
 20
1981.4108416269346
 11
1708.221400612787
 21
1905.9951916269456
  0
LINE
  8
_0-3_躯体と製品
  6
CONTINUOUS
 62
    4
 10
1708.221400612787
 20
1905.9951916269456
 11
1721.221400612787
 21
1905.9951916269456
  0
LINE
  8
_0-3_躯体と製品
  6
CONTINUOUS
 62
    4
 10
1706.721400612787
 20
1907.4951916269456
 11
1708.221400612787
 21
1905.9951916269456
  0
LINE
  8
_0-3_躯体と製品
  6
CONTINUOUS
 62
    4
 10
1722.721400612787
 20
1907.4951916269456
 11
1721.221400612787
 21
1905.9951916269456
  0
LINE
  8
_0-3_躯体と製品
  6
CONTINUOUS
 62
    3
 10
1706.721400612787
 20
1907.4951916269456
 11
1722.721400612787
 21
1907.4951916269456
  0
LINE
  8
_0-3_躯体と製品
  6
CONTINUOUS
 62
    4
 10
1704.3290957673698
 20
2172.9951916269456
 11
1725.1137054582032
 21
2172.9951916269456
  0
LINE
  8
_0-3_躯体と製品
  6
CONTINUOUS
 62
    4
 10
1707.7931973825289
 20
2174.4951916269456
 11
1707.7931973825289
 21
2185.9951916269465
  0
LINE
  8
_0-3_躯体と製品
  6
CONTINUOUS
 62
    4
 10
1721.6496038430741
 20
2157.4951916269456
 11
1721.6496038430741
 21
2168.9951916269456
  0
LINE
  8
_0-3_躯体と製品
  6
CONTINUOUS
 62
    4
 10
1721.6496038430741
 20
2174.4951916269456
 11
1721.6496038430741
 21
2185.9951916269465
  0
LINE
  8
_0-3_躯体と製品
  6
CONTINUOUS
 62
    4
 10
1707.7931973825289
 20
2157.4951916269456
 11
1707.7931973825289
 21
2168.9951916269456
  0
ARC
  8
_0-3_躯体と製品
  6
CONTINUOUS
 62
    4
 10
1704.3290957673853
 20
2177.7451916269515
 40
4.7500000000083809
 50
223.17355110726379
 51
316.82644889273621
  0
ARC
  8
_0-3_躯体と製品
  6
CONTINUOUS
 62
    4
 10
1714.7214006128015
 20
2189.7451913065056
 40
16.74999970825489
 50
245.56730186717647
 51
294.43269813282353
  0
ARC
  8
_0-3_躯体と製品
  6
CONTINUOUS
 62
    4
 10
1725.1137054582032
 20
2177.7451916269383
 40
4.7499999999887379
 50
223.17355110726777
 51
316.82644889273217
  0
LINE
  8
_0-3_躯体と製品
  6
CONTINUOUS
 62
    4
 10
1728.5778070733322
 20
2174.4951916269456
 11
1728.5778070733322
 21
2185.9951916269465
  0
LINE
  8
_0-3_躯体と製品
  6
CONTINUOUS
 62
    4
 10
1728.5778070733322
 20
2185.9951916269465
 11
1700.8649941522417
 21
2185.9951916269465
  0
LINE
  8
_0-3_躯体と製品
  6
CONTINUOUS
 62
    4
 10
1700.8649941522417
 20
2185.9951916269465
 11
1700.8649941522417
 21
2174.4951916269456
  0
LINE
  8
_0-3_躯体と製品
  6
CONTINUOUS
 62
    4
 10
1700.7214006084496
 20
2168.9951916269456
 11
1728.7214006458198
 21
2168.9951916269456
  0
LINE
  8
_0-3_躯体と製品
  6
CONTINUOUS
 62
    4
 10
1728.7214006458198
 20
2168.9951916269456
 11
1728.7214006458198
 21
2172.9951916269456
  0
LINE
  8
_0-3_躯体と製品
  6
CONTINUOUS
 62
    4
 10
1728.7214006458198
 20
2172.9951916269456
 11
1700.7214006084496
 21
2172.9951916269456
  0
LINE
  8
_0-3_躯体と製品
  6
CONTINUOUS
 62
    4
 10
1700.7214006084496
 20
2172.9951916269456
 11
1700.7214006084496
 21
2168.9951916269456
  0
LINE
  8
_0-3_躯体と製品
  6
CONTINUOUS
 62
    4
 10
1704.3290957673698
 20
2155.9951916269456
 11
1725.1137054582032
 21
2155.9951916269456
  0
LINE
  8
_0-3_躯体と製品
  6
CONTINUOUS
 62
    4
 10
1714.7214006271361
 20
2168.9951916269456
 11
1718.7214006271352
 21
2172.9951916269456
  0
ARC
  8
_0-3_躯体と製品
  6
CONTINUOUS
 62
    4
 10
1704.3290957673853
 20
2160.7451916269524
 40
4.7500000000088578
 50
223.1735511072699
 51
316.82644889273007
  0
ARC
  8
_0-3_躯体と製品
  6
CONTINUOUS
 62
    4
 10
1714.7214006128015
 20
2172.7451916269411
 40
16.749999999994436
 50
245.56730232054764
 51
294.43269767945236
  0
ARC
  8
_0-3_躯体と製品
  6
CONTINUOUS
 62
    4
 10
1725.1137054582032
 20
2160.7451916269374
 40
4.749999999987951
 50
223.17355110725768
 51
316.82644889274235
  0
LINE
  8
_0-3_躯体と製品
  6
CONTINUOUS
 62
    4
 10
1728.5778070733322
 20
2157.4951916269456
 11
1728.5778070733322
 21
2168.9951916269456
  0
LINE
  8
_0-3_躯体と製品
  6
CONTINUOUS
 62
    4
 10
1728.5778070733322
 20
2168.9951916269456
 11
1700.8649941522417
 21
2168.9951916269456
  0
LINE
  8
_0-3_躯体と製品
  6
CONTINUOUS
 62
    4
 10
1700.8649941522417
 20
2168.9951916269456
 11
1700.8649941522417
 21
2157.4951916269456
  0
LINE
  8
_0-3_躯体と製品
  6
CONTINUOUS
 62
    4
 10
1710.721400579755
 20
2168.9951915982492
 11
1714.7214005797541
 21
2172.9951915982492
  0
LINE
  8
_0-3_躯体と製品
  6
CONTINUOUS
 62
    4
 10
1694.7214566127868
 20
2270.6108416269462
 11
1734.7214566127868
 21
2270.6108416269462
  0
ARC
  8
_0-3_躯体と製品
  6
CONTINUOUS
 62
    3
 10
1746.5214006127867
 20
2282.8809780645724
 40
1.5000000000012585
 50
0.0000000000024044
 51
70.528779365512165
  0
LINE
  8
_0-3_躯体と製品
  6
CONTINUOUS
 62
    3
 10
1748.5619706127873
 20
2274.1951916269454
 11
1748.0214006127881
 21
2274.1951916269454
  0
ARC
  8
_0-3_躯体と製品
  6
CONTINUOUS
 62
    3
 10
1681.421400612059
 20
2278.0451916269458
 40
3.0000000000015983
 50
179.99999999998488
 51
269.61294971879011
  0
LINE
  8
_0-3_躯体と製品
  6
CONTINUOUS
 62
    3
 10
1681.421400611991
 20
2275.0452600778372
 11
1681.401134860861
 21
2275.0452600778372
  0
LINE
  8
_0-3_躯体と製品
  6
CONTINUOUS
 62
    4
 10
2758.6451311647825
 20
2155.9951916269456
 11
2758.6451311647825
 21
2014.6108423106234
  0
LINE
  8
_0-3_躯体と製品
  6
CONTINUOUS
 62
    4
 10
2742.6451311647825
 20
2155.9951916269456
 11
2742.6451311647825
 21
2014.6108423106234
  0
LINE
  8
_0-3_躯体と製品
  6
CONTINUOUS
 62
    3
 10
2757.1451311647825
 20
2155.9951916269456
 11
2757.1451311647825
 21
2014.6108423106234
  0
LINE
  8
_0-3_躯体と製品
  6
CONTINUOUS
 62
    3
 10
2744.1451311647825
 20
2155.9951916269456
 11
2744.1451311647825
 21
2014.6108423106234
  0
LINE
  8
_0-3_躯体と製品
  6
CONTINUOUS
 62
    3
 10
2789.4857011647837
 20
2277.7951916269458
 11
2798.3451311647841
 21
2277.7951916269458
  0
LINE
  8
_0-3_躯体と製品
  6
CONTINUOUS
 62
    3
 10
2789.4857011647837
 20
2282.7951916269467
 11
2798.3451311647841
 21
2282.7951916269467
  0
LINE
  8
_0-3_躯体と製品
  6
CONTINUOUS
 62
    3
 10
2789.4857011647837
 20
2283.2951916269458
 11
2798.3451311647841
 21
2283.2951916269458
  0
LINE
  8
_0-3_躯体と製品
  6
CONTINUOUS
 62
    3
 10
2798.3451311647841
 20
2277.2951916269467
 11
2789.4857011647837
 21
2277.2951916269467
  0
LINE
  8
_0-3_躯体と製品
  6
CONTINUOUS
 62
    4
 10
2727.2451871647836
 20
2226.1108416269453
 11
2727.2451871647836
 21
2265.1108416269453
  0
LINE
  8
_0-3_躯体と製品
  6
CONTINUOUS
 62
    4
 10
2774.0451871647829
 20
2265.1108416269453
 11
2774.0451871647829
 21
2226.1108416269453
  0
LINE
  8
_0-3_躯体と製品
  6
CONTINUOUS
 62
    4
 10
2780.6451311647834
 20
2268.0251829535237
 11
2780.6451311647834
 21
2191.595191626946
  0
ARC
  8
_0-3_躯体と製品
  6
CONTINUOUS
 62
    4
 10
2778.3451311647832
 20
2191.595191626946
 40
2.3000000000002272
 50
270.00000000000114
 51
359.99999999999886
  0
LINE
  8
_0-3_躯体と製品
  6
CONTINUOUS
 62
    4
 10
2778.3451311647832
 20
2189.2951916269458
 11
2775.6451311647834
 21
2189.2951916269458
  0
LINE
  8
_0-3_躯体と製品
  6
CONTINUOUS
 62
    3
 10
2783.9451311647836
 20
2195.7094051893191
 11
2783.9451311647836
 21
2282.8809780645724
  0
LINE
  8
_0-3_躯体と製品
  6
CONTINUOUS
 62
    4
 10
2775.6451311647834
 20
2203.5962196269456
 11
2775.6451311647834
 21
2275.5938176269465
  0
LINE
  8
_0-3_躯体と製品
  6
CONTINUOUS
 62
    4
 10
2750.6451311647825
 20
2186.9951916269456
 11
2722.9451311647836
 21
2186.9951916269456
  0
ARC
  8
_0-3_躯体と製品
  6
CONTINUOUS
 62
    4
 10
2722.9451311647836
 20
2191.595191626946
 40
4.6000000000003975
 50
180.00000000000045
 51
269.9999999999996
  0
LINE
  8
_0-3_躯体と製品
  6
CONTINUOUS
 62
    4
 10
2718.3451311647832
 20
2191.595191626946
 11
2718.3451311620629
 21
2269.2951916258116
  0
LINE
  8
_0-3_躯体と製品
  6
CONTINUOUS
 62
    4
 10
2725.6451311647834
 20
2203.5962196269456
 11
2725.6451311647834
 21
2275.6108416269453
  0
LINE
  8
_0-3_躯体と製品
  6
CONTINUOUS
 62
    3
 10
2717.3451311639901
 20
2282.8809780646343
 11
2717.3451311639728
 21
2195.7094051895701
  0
LINE
  8
_0-3_躯体と製品
  6
CONTINUOUS
 62
    4
 10
2731.1451871647841
 20
2222.2108416269457
 11
2740.6451871647832
 21
2222.2108416269457
  0
LINE
  8
_0-3_躯体と製品
  6
PLINE2
 62
    3
 10
2725.6451311647834
 20
2189.2951916269458
 11
2775.6451311647834
 21
2189.2951916269458
  0
LINE
  8
_0-3_躯体と製品
  6
CONTINUOUS
 62
    4
 10
2782.9451311647836
 20
2269.2951916269458
 11
2782.9451311647836
 21
2191.595191626946
  0
ARC
  8
_0-3_躯体と製品
  6
CONTINUOUS
 62
    4
 10
2778.3451311647841
 20
2191.5951916269451
 40
4.5999999999994881
 50
270.00000000001171
 51
0.0000000000108881
  0
LINE
  8
_0-3_躯体と製品
  6
CONTINUOUS
 62
    4
 10
2778.345131164785
 20
2186.9951916269456
 11
2750.6451311647825
 21
2186.9951916269456
  0
LINE
  8
_0-3_躯体と製品
  6
CONTINUOUS
 62
    4
 10
2725.0594847273696
 20
2185.9951916269465
 11
2776.2307776021971
 21
2185.9951916269465
  0
LINE
  8
_0-3_躯体と製品
  6
CONTINUOUS
 62
    4
 10
2774.1451304495276
 20
2220.6108416269453
 11
2727.1451311647834
 21
2220.6108416269453
  0
LINE
  8
_0-3_躯体と製品
  6
CONTINUOUS
 62
    4
 10
2727.9451311647827
 20
2191.9951916269465
 11
2773.3451311647841
 21
2191.9951916269465
  0
LINE
  8
_0-3_躯体と製品
  6
CONTINUOUS
 62
    4
 10
2725.6451311647834
 20
2189.5951916269441
 11
2725.6451311647834
 21
2189.6951916269454
  0
LINE
  8
_0-3_躯体と製品
  6
CONTINUOUS
 62
    4
 10
2725.6451311647834
 20
2189.2951916269458
 11
2722.9451311647836
 21
2189.2951916269458
  0
ARC
  8
_0-3_躯体と製品
  6
CONTINUOUS
 62
    4
 10
2722.9451311647831
 20
2191.5951916269464
 40
2.3000000000006819
 50
180.00000000001248
 51
270.00000000001023
  0
LINE
  8
_0-3_躯体と製品
  6
CONTINUOUS
 62
    4
 10
2720.6451311647825
 20
2191.595191626946
 11
2720.6451311647825
 21
2268.0251829534873
  0
ARC
  8
_0-3_躯体と製品
  6
CONTINUOUS
 62
    4
 10
2725.0594847273683
 20
2187.4953896269467
 40
1.5001980000003039
 50
199.47656789585423
 51
270.00000000004468
  0
LINE
  8
_0-3_躯体と製品
  6
CONTINUOUS
 62
    4
 10
2725.6451311647834
 20
2189.5951916269441
 11
2725.6451311647834
 21
2186.9951916269456
  0
LINE
  8
_0-3_躯体と製品
  6
CONTINUOUS
 62
    4
 10
2730.1461755933551
 20
2210.6108416269453
 11
2729.6451311647834
 21
2203.5962196269456
  0
ARC
  8
_0-3_躯体と製品
  6
CONTINUOUS
 62
    3
 10
2718.8451311639724
 20
2195.7094051895706
 40
1.4999999999994371
 50
180.00000000001688
 51
250.52877939441294
  0
ARC
  8
_0-3_躯体と製品
  6
CONTINUOUS
 62
    4
 10
2727.9451311647836
 20
2189.6951916269463
 40
2.3000000000001819
 50
90.000000000022652
 51
180.00000000002265
  0
LINE
  8
_0-3_躯体と製品
  6
CONTINUOUS
 62
    4
 10
2729.6451311647834
 20
2203.5962196269456
 11
2725.6451311647834
 21
2203.5962196269456
  0
ARC
  8
_0-3_躯体と製品
  6
CONTINUOUS
 62
    4
 10
2731.1451871647837
 20
2226.1108416269458
 40
5.5000000000004539
 50
180.00000000000475
 51
270.00000000000477
  0
ARC
  8
_0-3_躯体と製品
  6
CONTINUOUS
 62
    4
 10
2731.1451871647828
 20
2226.1108416269467
 40
3.9000000000010009
 50
180.00000000002004
 51
270.00000000002007
  0
LINE
  8
_0-3_躯体と製品
  6
CONTINUOUS
 62
    4
 10
2775.6451311647834
 20
2189.5951916269441
 11
2775.6451311647834
 21
2189.6951916269454
  0
ARC
  8
_0-3_躯体と製品
  6
CONTINUOUS
 62
    4
 10
2776.230777602198
 20
2187.4953896269462
 40
1.5001979999996613
 50
269.99999999997266
 51
340.52343210416313
  0
LINE
  8
_0-3_躯体と製品
  6
CONTINUOUS
 62
    4
 10
2775.6451311647834
 20
2189.5951916269441
 11
2775.6451311647834
 21
2186.9951916269456
  0
LINE
  8
_0-3_躯体と製品
  6
CONTINUOUS
 62
    4
 10
2770.1451871647832
 20
2222.2108416269457
 11
2760.6451871647832
 21
2222.2108416269457
  0
LINE
  8
_0-3_躯体と製品
  6
CONTINUOUS
 62
    4
 10
2739.8935645219262
 20
2210.6108416269453
 11
2740.6451311647834
 21
2203.5962196269456
  0
LINE
  8
_0-3_躯体と製品
  6
CONTINUOUS
 62
    4
 10
2744.8966978076405
 20
2210.6108416269453
 11
2744.1451311647825
 21
2203.5962196269456
  0
LINE
  8
_0-3_躯体と製品
  6
CONTINUOUS
 62
    4
 10
2756.3935645219262
 20
2210.6108416269453
 11
2757.1451311647825
 21
2203.5962196269456
  0
LINE
  8
_0-3_躯体と製品
  6
CONTINUOUS
 62
    4
 10
2761.3966978076396
 20
2210.6108416269453
 11
2760.6451311647825
 21
2203.5962196269456
  0
LINE
  8
_0-3_躯体と製品
  6
CONTINUOUS
 62
    4
 10
2740.6451311647834
 20
2203.5962196269456
 11
2744.1451311647825
 21
2203.5962196269456
  0
LINE
  8
_0-3_躯体と製品
  6
CONTINUOUS
 62
    4
 10
2757.1451311647825
 20
2203.5962196269456
 11
2760.6451311647825
 21
2203.5962196269456
  0
LINE
  8
_0-3_躯体と製品
  6
CONTINUOUS
 62
    4
 10
2740.6451311647834
 20
2222.2108416269457
 11
2740.6451311647834
 21
2220.6108416269453
  0
LINE
  8
_0-3_躯体と製品
  6
CONTINUOUS
 62
    4
 10
2760.6451311647825
 20
2222.2108416269457
 11
2760.6451311647825
 21
2220.6108416269453
  0
LINE
  8
_0-3_躯体と製品
  6
CONTINUOUS
 62
    4
 10
2771.6451311647834
 20
2203.5962196269456
 11
2771.1440867362116
 21
2210.6108416269453
  0
ARC
  8
_0-3_躯体と製品
  6
CONTINUOUS
 62
    4
 10
2773.3451311647832
 20
2189.6951916269463
 40
2.3000000000001819
 50
359.99999999997738
 51
89.999999999977362
  0
LINE
  8
_0-3_躯体と製品
  6
CONTINUOUS
 62
    4
 10
2775.6451311647834
 20
2203.5962196269456
 11
2771.617131164784
 21
2203.5962196269456
  0
ARC
  8
_0-3_躯体と製品
  6
CONTINUOUS
 62
    3
 10
2782.4451311647836
 20
2195.7094051893191
 40
1.5000000000001605
 50
289.47122063449501
 51
0.0000000000047835
  0
ARC
  8
_0-3_躯体と製品
  6
CONTINUOUS
 62
    4
 10
2770.1451871647832
 20
2226.1108416269453
 40
5.5
 50
270
 51
0.0000000000000127
  0
ARC
  8
_0-3_躯体と製品
  6
CONTINUOUS
 62
    4
 10
2770.1451871647832
 20
2226.1108416269453
 40
3.8999999999996358
 50
270
 51
0.0000000000000127
  0
LINE
  8
_0-3_躯体と製品
  6
CONTINUOUS
 62
    4
 10
2770.1451871647832
 20
2269.0108416269468
 11
2731.1451871647841
 21
2269.0108416269468
  0
LINE
  8
_0-3_躯体と製品
  6
CONTINUOUS
 62
    4
 10
2731.1451871647841
 20
2270.6108416269462
 11
2770.1451871647832
 21
2270.6108416269462
  0
LINE
  8
_0-3_躯体と製品
  6
CONTINUOUS
 62
    4
 10
2730.6451311647834
 20
2277.6108416269453
 11
2770.6451311647825
 21
2277.6108416269453
  0
LINE
  8
_0-3_躯体と製品
  6
CONTINUOUS
 62
    3
 10
2780.6451311647834
 20
2277.7951916269458
 11
2720.6451311647825
 21
2277.7951916269458
  0
LINE
  8
_0-3_躯体と製品
  6
CONTINUOUS
 62
    3
 10
2780.6451311647834
 20
2282.7951916269467
 11
2720.6451311647825
 21
2282.7951916269467
  0
ARC
  8
_0-3_躯体と製品
  6
CONTINUOUS
 62
    4
 10
2717.1067508135411
 20
2272.2951916269458
 40
3.2455486276349568
 50
292.4305145613057
 51
67.569485438676978
  0
ARC
  8
_0-3_躯体と製品
  6
CONTINUOUS
 62
    4
 10
2717.1067508135402
 20
2272.2951916269449
 40
5.545548627634628
 50
309.64714376104513
 51
50.352856238954857
  0
LINE
  8
_0-3_躯体と製品
  6
CONTINUOUS
 62
    4
 10
2730.6451311647834
 20
2277.6108416269453
 11
2730.6451311647834
 21
2270.6108416269462
  0
ARC
  8
_0-3_躯体と製品
  6
CONTINUOUS
 62
    4
 10
2731.1451871647841
 20
2265.1108416269453
 40
5.5000000000009095
 50
90
 51
180
  0
ARC
  8
_0-3_躯体と製品
  6
CONTINUOUS
 62
    4
 10
2731.1451871647832
 20
2265.1108416269444
 40
3.9000000000014547
 50
89.999999999986613
 51
179.99999999998661
  0
LINE
  8
_0-3_躯体と製品
  6
CONTINUOUS
 62
    4
 10
2730.6451311647834
 20
2272.6108416269453
 11
2725.6451311647834
 21
2272.6108416269453
  0
LINE
  8
_0-3_躯体と製品
  6
CONTINUOUS
 62
    4
 10
2720.6451311647825
 20
2289.2951916269467
 11
2718.3451311647832
 21
2289.2951916269467
  0
LINE
  8
_0-3_躯体と製品
  6
CONTINUOUS
 62
    4
 10
2718.3451311620629
 20
2275.2951916280799
 11
2718.3451311647832
 21
2289.2951916269467
  0
ARC
  8
_0-3_躯体と製品
  6
CONTINUOUS
 62
    3
 10
2718.845131163991
 20
2282.8809780646361
 40
1.500000000001106
 50
109.47122064174266
 51
180.00000000005903
  0
ARC
  8
_0-3_躯体と製品
  6
CONTINUOUS
 62
    3
 10
2717.3451311640542
 20
2282.5451916269453
 40
3.0000000000004534
 50
89.999999999991303
 51
179.9999999999913
  0
LINE
  8
_0-3_躯体と製品
  6
CONTINUOUS
 62
    3
 10
2714.3451311640538
 20
2282.5451916269458
 11
2714.3451311648359
 21
2278.0452600778372
  0
LINE
  8
_0-3_躯体と製品
  6
CONTINUOUS
 62
    3
 10
2718.3451311640547
 20
2285.5451916269458
 11
2717.3451311640547
 21
2285.5451916269458
  0
LINE
  8
_0-3_躯体と製品
  6
CONTINUOUS
 62
    4
 10
2720.6451311647825
 20
2276.5652003004034
 11
2720.6451311647825
 21
2289.2951916269467
  0
LINE
  8
_0-3_躯体と製品
  6
CONTINUOUS
 62
    3
 10
2725.6451311647834
 20
2274.2108416269448
 11
2730.6451311647834
 21
2274.2108416269448
  0
LINE
  8
_0-3_躯体と製品
  6
CONTINUOUS
 62
    4
 10
2721.5519259200637
 20
2275.6108405609884
 11
2725.6451311647834
 21
2275.6108716269455
  0
ARC
  8
_0-3_躯体と製品
  6
CONTINUOUS
 62
    4
 10
2784.1835115161334
 20
2272.2951916269458
 40
3.2455486276760181
 50
112.43051456307036
 51
247.56948543692963
  0
ARC
  8
_0-3_躯体と製品
  6
CONTINUOUS
 62
    4
 10
2784.183511516133
 20
2272.2951916269458
 40
5.5455486276759514
 50
129.6471437621347
 51
230.35285623786527
  0
LINE
  8
_0-3_躯体と製品
  6
CONTINUOUS
 62
    4
 10
2770.6451311647825
 20
2277.6108416269453
 11
2770.6451311647825
 21
2270.6108416269462
  0
ARC
  8
_0-3_躯体と製品
  6
CONTINUOUS
 62
    4
 10
2770.1451871647828
 20
2265.1108416269458
 40
5.5000000000004539
 50
359.99999999999528
 51
89.999999999995282
  0
ARC
  8
_0-3_躯体と製品
  6
CONTINUOUS
 62
    4
 10
2770.1451871647828
 20
2265.1108416269458
 40
3.9000000000000905
 50
359.99999999999335
 51
89.999999999993335
  0
LINE
  8
_0-3_躯体と製品
  6
CONTINUOUS
 62
    4
 10
2775.6451311647834
 20
2272.6108416269453
 11
2770.6451311647825
 21
2272.6108416269453
  0
LINE
  8
_0-3_躯体と製品
  6
CONTINUOUS
 62
    4
 10
2780.6451311647834
 20
2289.2951916269467
 11
2782.9451311647836
 21
2289.2951916269467
  0
LINE
  8
_0-3_躯体と製品
  6
CONTINUOUS
 62
    4
 10
2780.6451311647834
 20
2276.5652003003661
 11
2780.6451311647834
 21
2289.2951916269467
  0
LINE
  8
_0-3_躯体と製品
  6
CONTINUOUS
 62
    3
 10
2775.3451311647841
 20
2283.2951916269458
 11
2774.8451311647841
 21
2282.7951916269467
  0
LINE
  8
_0-3_躯体と製品
  6
CONTINUOUS
 62
    3
 10
2775.3451311647841
 20
2277.2951916269467
 11
2774.8451311647841
 21
2277.7951916269458
  0
LINE
  8
_0-3_躯体と製品
  6
CONTINUOUS
 62
    3
 10
2770.6451311647825
 20
2274.2108416269448
 11
2775.6451311647834
 21
2274.2108416269448
  0
LINE
  8
_0-3_躯体と製品
  6
CONTINUOUS
 62
    4
 10
2779.7383364095595
 20
2275.6108405609884
 11
2775.6451311647834
 21
2275.6108716269455
  0
LINE
  8
_0-3_躯体と製品
  6
CONTINUOUS
 62
    3
 10
2780.6451311647834
 20
2283.2951916269458
 11
2775.3451311647841
 21
2283.2951916269458
  0
LINE
  8
_0-3_躯体と製品
  6
CONTINUOUS
 62
    3
 10
2780.6451311647834
 20
2277.2951916269467
 11
2775.3451311647841
 21
2277.2951916269467
  0
LINE
  8
_0-3_躯体と製品
  6
CONTINUOUS
 62
    3
 10
2775.3451311647841
 20
2277.2951916269467
 11
2775.3451311647841
 21
2283.2951916269458
  0
LINE
  8
_0-3_躯体と製品
  6
CONTINUOUS
 62
    4
 10
2782.9451311647836
 20
2289.2951916269467
 11
2782.9451311647836
 21
2275.2951916269458
  0
LINE
  8
_0-3_躯体と製品
  6
CONTINUOUS
 62
    3
 10
2789.4857011647837
 20
2275.9201916269467
 11
2789.4857011647837
 21
2284.6701916269467
  0
LINE
  8
_0-3_躯体と製品
  6
CONTINUOUS
 62
    3
 10
2789.4857011647837
 20
2284.6701916269467
 11
2789.4857011647837
 21
2275.9201916269467
  0
LINE
  8
_0-3_躯体と製品
  6
CONTINUOUS
 62
    3
 10
2784.4857011647837
 20
2275.9201916269467
 11
2784.4857011647837
 21
2284.6701916269467
  0
LINE
  8
_0-3_躯体と製品
  6
CONTINUOUS
 62
    3
 10
2784.4857011647837
 20
2286.3951916269452
 11
2784.4857011647837
 21
2274.1951916269454
  0
LINE
  8
_0-3_躯体と製品
  6
CONTINUOUS
 62
    3
 10
2788.8857011647842
 20
2282.7951916269467
 11
2785.085701164784
 21
2282.7951916269467
  0
LINE
  8
_0-3_躯体と製品
  6
CONTINUOUS
 62
    3
 10
2788.8857011647842
 20
2277.7951916269458
 11
2785.085701164784
 21
2277.7951916269458
  0
LINE
  8
_0-3_躯体と製品
  6
CONTINUOUS
 62
    3
 10
2788.8857011647842
 20
2275.2951916269458
 11
2785.085701164784
 21
2275.2951916269458
  0
ARC
  8
_0-3_躯体と製品
  6
CONTINUOUS
 62
    3
 10
2786.0877851647856
 20
2284.0451916269449
 40
1.6020840000018459
 50
179.99999999996089
 51
231.28201199996587
  0
ARC
  8
_0-3_躯体と製品
  6
CONTINUOUS
 62
    3
 10
2789.9940351647847
 20
2280.2951916269458
 40
5.5083340000011685
 50
153.00853300000176
 51
206.99146699999824
  0
ARC
  8
_0-3_躯体と製品
  6
CONTINUOUS
 62
    3
 10
2786.0877851647829
 20
2276.5451916269462
 40
1.6020839999990624
 50
128.71798799998638
 51
179.99999999998934
  0
LINE
  8
_0-3_躯体と製品
  6
CONTINUOUS
 62
    3
 10
2784.4857011647837
 20
2275.9201916269467
 11
2785.085701164784
 21
2275.2951916269458
  0
ARC
  8
_0-3_躯体と製品
  6
CONTINUOUS
 62
    3
 10
2787.8836171647813
 20
2284.0451916269458
 40
1.6020840000023584
 50
308.71798800000124
 51
0.0000000000042492
  0
ARC
  8
_0-3_躯体と製品
  6
CONTINUOUS
 62
    3
 10
2783.9773671647827
 20
2280.2951916269458
 40
5.5083340000011685
 50
333.00853300000176
 51
26.991466999998252
  0
ARC
  8
_0-3_躯体と製品
  6
CONTINUOUS
 62
    3
 10
2787.883617164784
 20
2276.5451916269453
 40
1.6020839999995171
 50
0.000000000044576
 51
51.282012000047537
  0
LINE
  8
_0-3_躯体と製品
  6
CONTINUOUS
 62
    3
 10
2789.4857011647837
 20
2275.9201916269467
 11
2788.8857011647842
 21
2275.2951916269458
  0
LINE
  8
_0-3_躯体と製品
  6
CONTINUOUS
 62
    3
 10
2788.8857011647842
 20
2285.2951916269458
 11
2785.085701164784
 21
2285.2951916269458
  0
LINE
  8
_0-3_躯体と製品
  6
CONTINUOUS
 62
    3
 10
2784.4857011647837
 20
2286.3951916269452
 11
2782.9451311647836
 21
2286.3951916269452
  0
LINE
  8
_0-3_躯体と製品
  6
CONTINUOUS
 62
    3
 10
2784.4857011647837
 20
2284.6701916269467
 11
2785.085701164784
 21
2285.2951916269458
  0
LINE
  8
_0-3_躯体と製品
  6
CONTINUOUS
 62
    3
 10
2789.4857011647837
 20
2284.6701916269467
 11
2788.8857011647842
 21
2285.2951916269458
  0
LINE
  8
_0-3_躯体と製品
  6
CONTINUOUS
 62
    3
 10
2798.3451311647841
 20
2283.2951916269458
 11
2798.3451311647841
 21
2277.2951916269467
  0
LINE
  8
_0-3_躯体と製品
  6
CONTINUOUS
 62
    4
 10
2750.6451311647825
 20
2218.6108416269453
 11
2727.1451311647834
 21
2218.6108416269453
  0
LINE
  8
_0-3_躯体と製品
  6
CONTINUOUS
 62
    4
 10
2727.1451311647834
 20
2220.6108416269453
 11
2727.1451311647834
 21
2210.6108416269453
  0
LINE
  8
_0-3_躯体と製品
  6
CONTINUOUS
 62
    4
 10
2774.1451304495276
 20
2220.6108416269453
 11
2774.1451304495276
 21
2210.6108416269453
  0
LINE
  8
_0-3_躯体と製品
  6
CONTINUOUS
 62
    4
 10
2750.6451311647825
 20
2218.6108416269453
 11
2774.1451304495276
 21
2218.6108416269453
  0
LINE
  8
_0-3_躯体と製品
  6
CONTINUOUS
 62
    4
 10
2727.1451311647834
 20
2210.6108416269453
 11
2774.1451304495276
 21
2210.6108416269453
  0
LINE
  8
_0-3_躯体と製品
  6
CONTINUOUS
 62
    4
 10
2742.6451311647825
 20
1981.4108416269346
 11
2742.6451311647825
 21
1907.4951916269456
  0
LINE
  8
_0-3_躯体と製品
  6
CONTINUOUS
 62
    4
 10
2758.6451311647825
 20
1981.4108416269346
 11
2758.6451311647825
 21
1907.4951916269456
  0
LINE
  8
_0-3_躯体と製品
  6
CONTINUOUS
 62
    3
 10
2757.1451311647825
 20
1981.4108416269346
 11
2757.1451311647825
 21
1905.9951916269456
  0
LINE
  8
_0-3_躯体と製品
  6
CONTINUOUS
 62
    3
 10
2744.1451311647825
 20
1981.4108416269346
 11
2744.1451311647825
 21
1905.9951916269456
  0
LINE
  8
_0-3_躯体と製品
  6
CONTINUOUS
 62
    4
 10
2744.1451311647825
 20
1905.9951916269456
 11
2757.1451311647825
 21
1905.9951916269456
  0
LINE
  8
_0-3_躯体と製品
  6
CONTINUOUS
 62
    4
 10
2742.6451311647825
 20
1907.4951916269456
 11
2744.1451311647825
 21
1905.9951916269456
  0
LINE
  8
_0-3_躯体と製品
  6
CONTINUOUS
 62
    4
 10
2758.6451311647825
 20
1907.4951916269456
 11
2757.1451311647825
 21
1905.9951916269456
  0
LINE
  8
_0-3_躯体と製品
  6
CONTINUOUS
 62
    3
 10
2742.6451311647825
 20
1907.4951916269456
 11
2758.6451311647825
 21
1907.4951916269456
  0
LINE
  8
_0-3_躯体と製品
  6
CONTINUOUS
 62
    4
 10
2740.2528263193672
 20
2172.9951916269456
 11
2761.0374360101987
 21
2172.9951916269456
  0
LINE
  8
_0-3_躯体と製品
  6
CONTINUOUS
 62
    4
 10
2743.7169279345262
 20
2174.4951916269456
 11
2743.7169279345262
 21
2185.9951916269465
  0
LINE
  8
_0-3_躯体と製品
  6
CONTINUOUS
 62
    4
 10
2757.5733343950706
 20
2157.4951916269456
 11
2757.5733343950706
 21
2168.9951916269456
  0
LINE
  8
_0-3_躯体と製品
  6
CONTINUOUS
 62
    4
 10
2757.5733343950706
 20
2174.4951916269456
 11
2757.5733343950706
 21
2185.9951916269465
  0
LINE
  8
_0-3_躯体と製品
  6
CONTINUOUS
 62
    4
 10
2743.7169279345262
 20
2157.4951916269456
 11
2743.7169279345262
 21
2168.9951916269456
  0
ARC
  8
_0-3_躯体と製品
  6
CONTINUOUS
 62
    4
 10
2740.2528263193826
 20
2177.7451916269515
 40
4.7500000000083809
 50
223.17355110726379
 51
316.82644889273621
  0
ARC
  8
_0-3_躯体と製品
  6
CONTINUOUS
 62
    4
 10
2750.6451311647984
 20
2189.7451913065047
 40
16.749999708253792
 50
245.56730186717647
 51
294.43269813282353
  0
ARC
  8
_0-3_躯体と製品
  6
CONTINUOUS
 62
    4
 10
2761.0374360101991
 20
2177.7451916269379
 40
4.7499999999881144
 50
223.17355110726777
 51
316.82644889273217
  0
LINE
  8
_0-3_躯体と製品
  6
CONTINUOUS
 62
    4
 10
2764.5015376253277
 20
2174.4951916269456
 11
2764.5015376253277
 21
2185.9951916269465
  0
LINE
  8
_0-3_躯体と製品
  6
CONTINUOUS
 62
    4
 10
2764.5015376253277
 20
2185.9951916269465
 11
2736.788724704239
 21
2185.9951916269465
  0
LINE
  8
_0-3_躯体と製品
  6
CONTINUOUS
 62
    4
 10
2736.788724704239
 20
2185.9951916269465
 11
2736.788724704239
 21
2174.4951916269456
  0
LINE
  8
_0-3_躯体と製品
  6
CONTINUOUS
 62
    4
 10
2736.6451311604469
 20
2168.9951916269456
 11
2764.6451311978162
 21
2168.9951916269456
  0
LINE
  8
_0-3_躯体と製品
  6
CONTINUOUS
 62
    4
 10
2764.6451311978162
 20
2168.9951916269456
 11
2764.6451311978162
 21
2172.9951916269456
  0
LINE
  8
_0-3_躯体と製品
  6
CONTINUOUS
 62
    4
 10
2764.6451311978162
 20
2172.9951916269456
 11
2736.6451311604469
 21
2172.9951916269456
  0
LINE
  8
_0-3_躯体と製品
  6
CONTINUOUS
 62
    4
 10
2736.6451311604469
 20
2172.9951916269456
 11
2736.6451311604469
 21
2168.9951916269456
  0
LINE
  8
_0-3_躯体と製品
  6
CONTINUOUS
 62
    4
 10
2740.2528263193672
 20
2155.9951916269456
 11
2761.0374360101987
 21
2155.9951916269456
  0
LINE
  8
_0-3_躯体と製品
  6
CONTINUOUS
 62
    4
 10
2750.6451311791316
 20
2168.9951916269456
 11
2754.6451311791316
 21
2172.9951916269456
  0
ARC
  8
_0-3_躯体と製品
  6
CONTINUOUS
 62
    4
 10
2740.2528263193826
 20
2160.7451916269524
 40
4.7500000000088578
 50
223.1735511072699
 51
316.82644889273007
  0
ARC
  8
_0-3_躯体と製品
  6
CONTINUOUS
 62
    4
 10
2750.6451311647984
 20
2172.7451916269397
 40
16.749999999993339
 50
245.56730232054764
 51
294.43269767945236
  0
ARC
  8
_0-3_躯体と製品
  6
CONTINUOUS
 62
    4
 10
2761.0374360101991
 20
2160.745191626937
 40
4.7499999999873275
 50
223.17355110725768
 51
316.82644889274235
  0
LINE
  8
_0-3_躯体と製品
  6
CONTINUOUS
 62
    4
 10
2764.5015376253277
 20
2157.4951916269456
 11
2764.5015376253277
 21
2168.9951916269456
  0
LINE
  8
_0-3_躯体と製品
  6
CONTINUOUS
 62
    4
 10
2764.5015376253277
 20
2168.9951916269456
 11
2736.788724704239
 21
2168.9951916269456
  0
LINE
  8
_0-3_躯体と製品
  6
CONTINUOUS
 62
    4
 10
2736.788724704239
 20
2168.9951916269456
 11
2736.788724704239
 21
2157.4951916269456
  0
LINE
  8
_0-3_躯体と製品
  6
CONTINUOUS
 62
    4
 10
2746.6451311317505
 20
2168.9951915982492
 11
2750.6451311317496
 21
2172.9951915982492
  0
LINE
  8
_0-3_躯体と製品
  6
CONTINUOUS
 62
    4
 10
2730.6451871647832
 20
2270.6108416269462
 11
2770.6451871647841
 21
2270.6108416269462
  0
ARC
  8
_0-3_躯体と製品
  6
CONTINUOUS
 62
    3
 10
2782.4451311647827
 20
2282.8809780645729
 40
1.5000000000008036
 50
359.99999999997783
 51
70.528779365487608
  0
LINE
  8
_0-3_躯体と製品
  6
CONTINUOUS
 62
    3
 10
2784.4857011647837
 20
2274.1951916269454
 11
2783.9451311647836
 21
2274.1951916269454
  0
ARC
  8
_0-3_躯体と製品
  6
CONTINUOUS
 62
    3
 10
2717.3451311640556
 20
2278.0451916269458
 40
3.0000000000015983
 50
179.99999999998488
 51
269.61294971879011
  0
LINE
  8
_0-3_躯体と製品
  6
CONTINUOUS
 62
    3
 10
2717.3451311639865
 20
2275.0452600778372
 11
2717.3248654128574
 21
2275.0452600778372
  0
LINE
  8
_0-3_躯体と製品
  6
CONTINUOUS
 62
    4
 10
3508.6451311647825
 20
2155.9951916269456
 11
3508.6451311647825
 21
2014.6108423106234
  0
LINE
  8
_0-3_躯体と製品
  6
CONTINUOUS
 62
    4
 10
3492.6451311647825
 20
2155.9951916269456
 11
3492.6451311647825
 21
2014.6108423106234
  0
LINE
  8
_0-3_躯体と製品
  6
CONTINUOUS
 62
    3
 10
3507.1451311647825
 20
2155.9951916269456
 11
3507.1451311647825
 21
2014.6108423106234
  0
LINE
  8
_0-3_躯体と製品
  6
CONTINUOUS
 62
    3
 10
3494.1451311647825
 20
2155.9951916269456
 11
3494.1451311647825
 21
2014.6108423106234
  0
LINE
  8
_0-3_躯体と製品
  6
CONTINUOUS
 62
    3
 10
3539.4857011647837
 20
2277.7951916269458
 11
3548.345131164785
 21
2277.7951916269458
  0
LINE
  8
_0-3_躯体と製品
  6
CONTINUOUS
 62
    3
 10
3539.4857011647837
 20
2282.7951916269467
 11
3548.345131164785
 21
2282.7951916269467
  0
LINE
  8
_0-3_躯体と製品
  6
CONTINUOUS
 62
    3
 10
3539.4857011647837
 20
2283.2951916269458
 11
3548.345131164785
 21
2283.2951916269458
  0
LINE
  8
_0-3_躯体と製品
  6
CONTINUOUS
 62
    3
 10
3548.345131164785
 20
2277.2951916269467
 11
3539.4857011647837
 21
2277.2951916269467
  0
LINE
  8
_0-3_躯体と製品
  6
CONTINUOUS
 62
    4
 10
3477.2451871647818
 20
2226.1108416269453
 11
3477.2451871647818
 21
2265.1108416269453
  0
LINE
  8
_0-3_躯体と製品
  6
CONTINUOUS
 62
    4
 10
3524.0451871647838
 20
2265.1108416269453
 11
3524.0451871647838
 21
2226.1108416269453
  0
LINE
  8
_0-3_躯体と製品
  6
CONTINUOUS
 62
    4
 10
3530.6451311647852
 20
2268.0251829535237
 11
3530.6451311647852
 21
2191.595191626946
  0
ARC
  8
_0-3_躯体と製品
  6
CONTINUOUS
 62
    4
 10
3528.345131164785
 20
2191.595191626946
 40
2.3000000000002272
 50
270.00000000000114
 51
359.99999999999886
  0
LINE
  8
_0-3_躯体と製品
  6
CONTINUOUS
 62
    4
 10
3528.345131164785
 20
2189.2951916269458
 11
3525.6451311647825
 21
2189.2951916269458
  0
LINE
  8
_0-3_躯体と製品
  6
CONTINUOUS
 62
    3
 10
3533.9451311647827
 20
2195.7094051893191
 11
3533.9451311647827
 21
2282.8809780645724
  0
LINE
  8
_0-3_躯体と製品
  6
CONTINUOUS
 62
    4
 10
3525.6451311647825
 20
2203.5962196269456
 11
3525.6451311647825
 21
2275.5938176269465
  0
LINE
  8
_0-3_躯体と製品
  6
CONTINUOUS
 62
    4
 10
3500.6451311647825
 20
2186.9951916269456
 11
3472.9451311647827
 21
2186.9951916269456
  0
ARC
  8
_0-3_躯体と製品
  6
CONTINUOUS
 62
    4
 10
3472.9451311647836
 20
2191.5951916269451
 40
4.5999999999994881
 50
179.99999999998911
 51
269.99999999998823
  0
LINE
  8
_0-3_躯体と製品
  6
CONTINUOUS
 62
    4
 10
3468.3451311647841
 20
2191.595191626946
 11
3468.3451311620629
 21
2269.2951916258116
  0
LINE
  8
_0-3_躯体と製品
  6
CONTINUOUS
 62
    4
 10
3475.6451311647825
 20
2203.5962196269456
 11
3475.6451311647825
 21
2275.6108416269453
  0
LINE
  8
_0-3_躯体と製品
  6
CONTINUOUS
 62
    3
 10
3467.3451311639892
 20
2282.8809780646343
 11
3467.3451311639728
 21
2195.7094051895701
  0
LINE
  8
_0-3_躯体と製品
  6
CONTINUOUS
 62
    4
 10
3481.1451871647841
 20
2222.2108416269457
 11
3490.6451871647841
 21
2222.2108416269457
  0
LINE
  8
_0-3_躯体と製品
  6
PLINE2
 62
    3
 10
3475.6451311647825
 20
2189.2951916269458
 11
3525.6451311647825
 21
2189.2951916269458
  0
LINE
  8
_0-3_躯体と製品
  6
CONTINUOUS
 62
    4
 10
3532.9451311647827
 20
2269.2951916269458
 11
3532.9451311647827
 21
2191.595191626946
  0
ARC
  8
_0-3_躯体と製品
  6
CONTINUOUS
 62
    4
 10
3528.3451311647837
 20
2191.5951916269446
 40
4.5999999999990342
 50
270.00000000001739
 51
0.0000000000165555
  0
LINE
  8
_0-3_躯体と製品
  6
CONTINUOUS
 62
    4
 10
3528.345131164785
 20
2186.9951916269456
 11
3500.6451311647825
 21
2186.9951916269456
  0
LINE
  8
_0-3_躯体と製品
  6
CONTINUOUS
 62
    4
 10
3475.0594847273696
 20
2185.9951916269465
 11
3526.230777602198
 21
2185.9951916269465
  0
LINE
  8
_0-3_躯体と製品
  6
CONTINUOUS
 62
    4
 10
3524.1451304495276
 20
2220.6108416269453
 11
3477.1451311647825
 21
2220.6108416269453
  0
LINE
  8
_0-3_躯体と製品
  6
CONTINUOUS
 62
    4
 10
3477.9451311647827
 20
2191.9951916269465
 11
3523.345131164785
 21
2191.9951916269465
  0
LINE
  8
_0-3_躯体と製品
  6
CONTINUOUS
 62
    4
 10
3475.6451311647825
 20
2189.5951916269441
 11
3475.6451311647825
 21
2189.6951916269454
  0
LINE
  8
_0-3_躯体と製品
  6
CONTINUOUS
 62
    4
 10
3475.6451311647825
 20
2189.2951916269458
 11
3472.9451311647827
 21
2189.2951916269458
  0
ARC
  8
_0-3_躯体と製品
  6
CONTINUOUS
 62
    4
 10
3472.9451311647827
 20
2191.595191626946
 40
2.3000000000002272
 50
180.00000000000111
 51
269.99999999999886
  0
LINE
  8
_0-3_躯体と製品
  6
CONTINUOUS
 62
    4
 10
3470.6451311647825
 20
2191.595191626946
 11
3470.6451311647825
 21
2268.0251829534873
  0
ARC
  8
_0-3_躯体と製品
  6
CONTINUOUS
 62
    4
 10
3475.0594847273687
 20
2187.4953896269467
 40
1.5001980000003039
 50
199.47656789585423
 51
270.00000000004468
  0
LINE
  8
_0-3_躯体と製品
  6
CONTINUOUS
 62
    4
 10
3475.6451311647825
 20
2189.5951916269441
 11
3475.6451311647825
 21
2186.9951916269456
  0
LINE
  8
_0-3_躯体と製品
  6
CONTINUOUS
 62
    4
 10
3480.1461755933551
 20
2210.6108416269453
 11
3479.6451311647834
 21
2203.5962196269456
  0
ARC
  8
_0-3_躯体と製品
  6
CONTINUOUS
 62
    3
 10
3468.8451311639724
 20
2195.7094051895706
 40
1.4999999999994371
 50
180.00000000001688
 51
250.52877939441294
  0
ARC
  8
_0-3_躯体と製品
  6
CONTINUOUS
 62
    4
 10
3477.9451311647831
 20
2189.6951916269459
 40
2.3000000000006366
 50
90.000000000011354
 51
180.00000000001134
  0
LINE
  8
_0-3_躯体と製品
  6
CONTINUOUS
 62
    4
 10
3479.6451311647834
 20
2203.5962196269456
 11
3475.6451311647825
 21
2203.5962196269456
  0
ARC
  8
_0-3_躯体と製品
  6
CONTINUOUS
 62
    4
 10
3481.1451871647846
 20
2226.1108416269449
 40
5.4999999999995444
 50
179.99999999999525
 51
269.99999999999528
  0
ARC
  8
_0-3_躯体と製品
  6
CONTINUOUS
 62
    4
 10
3481.1451871647828
 20
2226.1108416269467
 40
3.9000000000010009
 50
180.00000000002004
 51
270.00000000002007
  0
LINE
  8
_0-3_躯体と製品
  6
CONTINUOUS
 62
    4
 10
3525.6451311647825
 20
2189.5951916269441
 11
3525.6451311647825
 21
2189.6951916269454
  0
ARC
  8
_0-3_躯体と製品
  6
CONTINUOUS
 62
    4
 10
3526.230777602198
 20
2187.4953896269453
 40
1.5001979999990178
 50
269.99999999999
 51
340.52343210418047
  0
LINE
  8
_0-3_躯体と製品
  6
CONTINUOUS
 62
    4
 10
3525.6451311647825
 20
2189.5951916269441
 11
3525.6451311647825
 21
2186.9951916269456
  0
LINE
  8
_0-3_躯体と製品
  6
CONTINUOUS
 62
    4
 10
3520.1451871647841
 20
2222.2108416269457
 11
3510.6451871647841
 21
2222.2108416269457
  0
LINE
  8
_0-3_躯体と製品
  6
CONTINUOUS
 62
    4
 10
3489.8935645219244
 20
2210.6108416269453
 11
3490.6451311647834
 21
2203.5962196269456
  0
LINE
  8
_0-3_躯体と製品
  6
CONTINUOUS
 62
    4
 10
3494.8966978076432
 20
2210.6108416269453
 11
3494.1451311647825
 21
2203.5962196269456
  0
LINE
  8
_0-3_躯体と製品
  6
CONTINUOUS
 62
    4
 10
3506.3935645219244
 20
2210.6108416269453
 11
3507.1451311647825
 21
2203.5962196269456
  0
LINE
  8
_0-3_躯体と製品
  6
CONTINUOUS
 62
    4
 10
3511.3966978076405
 20
2210.6108416269453
 11
3510.6451311647834
 21
2203.5962196269456
  0
LINE
  8
_0-3_躯体と製品
  6
CONTINUOUS
 62
    4
 10
3490.6451311647834
 20
2203.5962196269456
 11
3494.1451311647825
 21
2203.5962196269456
  0
LINE
  8
_0-3_躯体と製品
  6
CONTINUOUS
 62
    4
 10
3507.1451311647825
 20
2203.5962196269456
 11
3510.6451311647834
 21
2203.5962196269456
  0
LINE
  8
_0-3_躯体と製品
  6
CONTINUOUS
 62
    4
 10
3490.6451311647834
 20
2222.2108416269457
 11
3490.6451311647834
 21
2220.6108416269453
  0
LINE
  8
_0-3_躯体と製品
  6
CONTINUOUS
 62
    4
 10
3510.6451311647834
 20
2222.2108416269457
 11
3510.6451311647834
 21
2220.6108416269453
  0
LINE
  8
_0-3_躯体と製品
  6
CONTINUOUS
 62
    4
 10
3521.6451311647834
 20
2203.5962196269456
 11
3521.1440867362116
 21
2210.6108416269453
  0
ARC
  8
_0-3_躯体と製品
  6
CONTINUOUS
 62
    4
 10
3523.3451311647832
 20
2189.6951916269472
 40
2.2999999999992724
 50
359.9999999999547
 51
89.99999999995471
  0
LINE
  8
_0-3_躯体と製品
  6
CONTINUOUS
 62
    4
 10
3525.6451311647825
 20
2203.5962196269456
 11
3521.617131164784
 21
2203.5962196269456
  0
ARC
  8
_0-3_躯体と製品
  6
CONTINUOUS
 62
    3
 10
3532.4451311647827
 20
2195.7094051893191
 40
1.5000000000001605
 50
289.47122063449501
 51
0.0000000000047835
  0
ARC
  8
_0-3_躯体と製品
  6
CONTINUOUS
 62
    4
 10
3520.1451871647846
 20
2226.1108416269458
 40
5.5000000000004539
 50
269.99999999999528
 51
359.99999999999528
  0
ARC
  8
_0-3_躯体と製品
  6
CONTINUOUS
 62
    4
 10
3520.1451871647841
 20
2226.1108416269453
 40
3.8999999999996358
 50
270
 51
0.0000000000000127
  0
LINE
  8
_0-3_躯体と製品
  6
CONTINUOUS
 62
    4
 10
3520.1451871647841
 20
2269.0108416269468
 11
3481.1451871647841
 21
2269.0108416269468
  0
LINE
  8
_0-3_躯体と製品
  6
CONTINUOUS
 62
    4
 10
3481.1451871647841
 20
2270.6108416269462
 11
3520.1451871647841
 21
2270.6108416269462
  0
LINE
  8
_0-3_躯体と製品
  6
CONTINUOUS
 62
    4
 10
3480.6451311647834
 20
2277.6108416269453
 11
3520.6451311647825
 21
2277.6108416269453
  0
LINE
  8
_0-3_躯体と製品
  6
CONTINUOUS
 62
    3
 10
3530.6451311647852
 20
2277.7951916269458
 11
3470.6451311647825
 21
2277.7951916269458
  0
LINE
  8
_0-3_躯体と製品
  6
CONTINUOUS
 62
    3
 10
3530.6451311647852
 20
2282.7951916269467
 11
3470.6451311647825
 21
2282.7951916269467
  0
ARC
  8
_0-3_躯体と製品
  6
CONTINUOUS
 62
    4
 10
3467.106750813542
 20
2272.2951916269458
 40
3.2455486276349568
 50
292.43051456131434
 51
67.56948543868566
  0
ARC
  8
_0-3_躯体と製品
  6
CONTINUOUS
 62
    4
 10
3467.1067508135402
 20
2272.2951916269449
 40
5.545548627634628
 50
309.64714376104513
 51
50.352856238954857
  0
LINE
  8
_0-3_躯体と製品
  6
CONTINUOUS
 62
    4
 10
3480.6451311647834
 20
2277.6108416269453
 11
3480.6451311647834
 21
2270.6108416269462
  0
ARC
  8
_0-3_躯体と製品
  6
CONTINUOUS
 62
    4
 10
3481.1451871647851
 20
2265.1108416269462
 40
5.5
 50
90.000000000009464
 51
180.00000000000946
  0
ARC
  8
_0-3_躯体と製品
  6
CONTINUOUS
 62
    4
 10
3481.1451871647832
 20
2265.1108416269444
 40
3.9000000000014547
 50
89.999999999986613
 51
179.99999999998661
  0
LINE
  8
_0-3_躯体と製品
  6
CONTINUOUS
 62
    4
 10
3480.6451311647834
 20
2272.6108416269453
 11
3475.6451311647825
 21
2272.6108416269453
  0
LINE
  8
_0-3_躯体と製品
  6
CONTINUOUS
 62
    4
 10
3470.6451311647825
 20
2289.2951916269467
 11
3468.3451311647841
 21
2289.2951916269467
  0
LINE
  8
_0-3_躯体と製品
  6
CONTINUOUS
 62
    4
 10
3468.3451311620629
 20
2275.2951916280799
 11
3468.3451311647841
 21
2289.2951916269467
  0
ARC
  8
_0-3_躯体と製品
  6
CONTINUOUS
 62
    3
 10
3468.845131163991
 20
2282.8809780646343
 40
1.5000000000020153
 50
109.47122064169355
 51
180.00000000000992
  0
ARC
  8
_0-3_躯体と製品
  6
CONTINUOUS
 62
    3
 10
3467.3451311640547
 20
2282.5451916269458
 40
3
 50
90
 51
180
  0
LINE
  8
_0-3_躯体と製品
  6
CONTINUOUS
 62
    3
 10
3464.3451311640547
 20
2282.5451916269458
 11
3464.3451311648359
 21
2278.0452600778372
  0
LINE
  8
_0-3_躯体と製品
  6
CONTINUOUS
 62
    3
 10
3468.3451311640547
 20
2285.5451916269458
 11
3467.3451311640547
 21
2285.5451916269458
  0
LINE
  8
_0-3_躯体と製品
  6
CONTINUOUS
 62
    4
 10
3470.6451311647825
 20
2276.5652003004034
 11
3470.6451311647825
 21
2289.2951916269467
  0
LINE
  8
_0-3_躯体と製品
  6
CONTINUOUS
 62
    3
 10
3475.6451311647825
 20
2274.2108416269448
 11
3480.6451311647834
 21
2274.2108416269448
  0
LINE
  8
_0-3_躯体と製品
  6
CONTINUOUS
 62
    4
 10
3471.5519259200628
 20
2275.6108405609884
 11
3475.6451311647825
 21
2275.6108716269455
  0
ARC
  8
_0-3_躯体と製品
  6
CONTINUOUS
 62
    4
 10
3534.1835115161325
 20
2272.2951916269458
 40
3.2455486276760181
 50
112.43051456307036
 51
247.56948543692963
  0
ARC
  8
_0-3_躯体と製品
  6
CONTINUOUS
 62
    4
 10
3534.1835115161348
 20
2272.2951916269458
 40
5.5455486276759514
 50
129.6471437621347
 51
230.35285623786527
  0
LINE
  8
_0-3_躯体と製品
  6
CONTINUOUS
 62
    4
 10
3520.6451311647825
 20
2277.6108416269453
 11
3520.6451311647825
 21
2270.6108416269462
  0
ARC
  8
_0-3_躯体と製品
  6
CONTINUOUS
 62
    4
 10
3520.1451871647841
 20
2265.1108416269453
 40
5.5000000000009095
 50
0.0000000000000052
 51
90.000000000000014
  0
ARC
  8
_0-3_躯体と製品
  6
CONTINUOUS
 62
    4
 10
3520.1451871647837
 20
2265.1108416269458
 40
3.9000000000000905
 50
359.99999999999335
 51
89.999999999993335
  0
LINE
  8
_0-3_躯体と製品
  6
CONTINUOUS
 62
    4
 10
3525.6451311647825
 20
2272.6108416269453
 11
3520.6451311647825
 21
2272.6108416269453
  0
LINE
  8
_0-3_躯体と製品
  6
CONTINUOUS
 62
    4
 10
3530.6451311647852
 20
2289.2951916269467
 11
3532.9451311647827
 21
2289.2951916269467
  0
LINE
  8
_0-3_躯体と製品
  6
CONTINUOUS
 62
    4
 10
3530.6451311647852
 20
2276.5652003003661
 11
3530.6451311647852
 21
2289.2951916269467
  0
LINE
  8
_0-3_躯体と製品
  6
CONTINUOUS
 62
    3
 10
3525.3451311647841
 20
2283.2951916269458
 11
3524.845131164785
 21
2282.7951916269467
  0
LINE
  8
_0-3_躯体と製品
  6
CONTINUOUS
 62
    3
 10
3525.3451311647841
 20
2277.2951916269467
 11
3524.845131164785
 21
2277.7951916269458
  0
LINE
  8
_0-3_躯体と製品
  6
CONTINUOUS
 62
    3
 10
3520.6451311647825
 20
2274.2108416269448
 11
3525.6451311647825
 21
2274.2108416269448
  0
LINE
  8
_0-3_躯体と製品
  6
CONTINUOUS
 62
    4
 10
3529.7383364095585
 20
2275.6108405609884
 11
3525.6451311647825
 21
2275.6108716269455
  0
LINE
  8
_0-3_躯体と製品
  6
CONTINUOUS
 62
    3
 10
3530.6451311647852
 20
2283.2951916269458
 11
3525.3451311647841
 21
2283.2951916269458
  0
LINE
  8
_0-3_躯体と製品
  6
CONTINUOUS
 62
    3
 10
3530.6451311647852
 20
2277.2951916269467
 11
3525.3451311647841
 21
2277.2951916269467
  0
LINE
  8
_0-3_躯体と製品
  6
CONTINUOUS
 62
    3
 10
3525.3451311647841
 20
2277.2951916269467
 11
3525.3451311647841
 21
2283.2951916269458
  0
LINE
  8
_0-3_躯体と製品
  6
CONTINUOUS
 62
    4
 10
3532.9451311647827
 20
2289.2951916269467
 11
3532.9451311647827
 21
2275.2951916269458
  0
LINE
  8
_0-3_躯体と製品
  6
CONTINUOUS
 62
    3
 10
3539.4857011647837
 20
2275.9201916269467
 11
3539.4857011647837
 21
2284.6701916269467
  0
LINE
  8
_0-3_躯体と製品
  6
CONTINUOUS
 62
    3
 10
3539.4857011647837
 20
2284.6701916269467
 11
3539.4857011647837
 21
2275.9201916269467
  0
LINE
  8
_0-3_躯体と製品
  6
CONTINUOUS
 62
    3
 10
3534.4857011647837
 20
2275.9201916269467
 11
3534.4857011647837
 21
2284.6701916269467
  0
LINE
  8
_0-3_躯体と製品
  6
CONTINUOUS
 62
    3
 10
3534.4857011647837
 20
2286.3951916269452
 11
3534.4857011647837
 21
2274.1951916269454
  0
LINE
  8
_0-3_躯体と製品
  6
CONTINUOUS
 62
    3
 10
3538.8857011647842
 20
2282.7951916269467
 11
3535.0857011647831
 21
2282.7951916269467
  0
LINE
  8
_0-3_躯体と製品
  6
CONTINUOUS
 62
    3
 10
3538.8857011647842
 20
2277.7951916269458
 11
3535.0857011647831
 21
2277.7951916269458
  0
LINE
  8
_0-3_躯体と製品
  6
CONTINUOUS
 62
    3
 10
3538.8857011647842
 20
2275.2951916269458
 11
3535.0857011647831
 21
2275.2951916269458
  0
ARC
  8
_0-3_躯体と製品
  6
CONTINUOUS
 62
    3
 10
3536.0877851647856
 20
2284.0451916269449
 40
1.6020840000018459
 50
179.99999999996089
 51
231.28201199996587
  0
ARC
  8
_0-3_躯体と製品
  6
CONTINUOUS
 62
    3
 10
3539.9940351647856
 20
2280.2951916269458
 40
5.5083340000011685
 50
153.00853300000176
 51
206.99146699999824
  0
ARC
  8
_0-3_躯体と製品
  6
CONTINUOUS
 62
    3
 10
3536.0877851647829
 20
2276.5451916269462
 40
1.6020839999990624
 50
128.71798799998638
 51
179.99999999998934
  0
LINE
  8
_0-3_躯体と製品
  6
CONTINUOUS
 62
    3
 10
3534.4857011647837
 20
2275.9201916269467
 11
3535.0857011647831
 21
2275.2951916269458
  0
ARC
  8
_0-3_躯体と製品
  6
CONTINUOUS
 62
    3
 10
3537.8836171647813
 20
2284.0451916269458
 40
1.6020840000023584
 50
308.71798800000124
 51
0.0000000000042492
  0
ARC
  8
_0-3_躯体と製品
  6
CONTINUOUS
 62
    3
 10
3533.9773671647827
 20
2280.2951916269458
 40
5.5083340000011685
 50
333.00853300000176
 51
26.991466999998252
  0
ARC
  8
_0-3_躯体と製品
  6
CONTINUOUS
 62
    3
 10
3537.8836171647845
 20
2276.5451916269453
 40
1.6020839999995171
 50
0.000000000044576
 51
51.282012000047537
  0
LINE
  8
_0-3_躯体と製品
  6
CONTINUOUS
 62
    3
 10
3539.4857011647837
 20
2275.9201916269467
 11
3538.8857011647842
 21
2275.2951916269458
  0
LINE
  8
_0-3_躯体と製品
  6
CONTINUOUS
 62
    3
 10
3538.8857011647842
 20
2285.2951916269458
 11
3535.0857011647831
 21
2285.2951916269458
  0
LINE
  8
_0-3_躯体と製品
  6
CONTINUOUS
 62
    3
 10
3534.4857011647837
 20
2286.3951916269452
 11
3532.9451311647827
 21
2286.3951916269452
  0
LINE
  8
_0-3_躯体と製品
  6
CONTINUOUS
 62
    3
 10
3534.4857011647837
 20
2284.6701916269467
 11
3535.0857011647831
 21
2285.2951916269458
  0
LINE
  8
_0-3_躯体と製品
  6
CONTINUOUS
 62
    3
 10
3539.4857011647837
 20
2284.6701916269467
 11
3538.8857011647842
 21
2285.2951916269458
  0
LINE
  8
_0-3_躯体と製品
  6
CONTINUOUS
 62
    3
 10
3548.345131164785
 20
2283.2951916269458
 11
3548.345131164785
 21
2277.2951916269467
  0
LINE
  8
_0-3_躯体と製品
  6
CONTINUOUS
 62
    4
 10
3500.6451311647825
 20
2218.6108416269453
 11
3477.1451311647825
 21
2218.6108416269453
  0
LINE
  8
_0-3_躯体と製品
  6
CONTINUOUS
 62
    4
 10
3477.1451311647825
 20
2220.6108416269453
 11
3477.1451311647825
 21
2210.6108416269453
  0
LINE
  8
_0-3_躯体と製品
  6
CONTINUOUS
 62
    4
 10
3524.1451304495276
 20
2220.6108416269453
 11
3524.1451304495276
 21
2210.6108416269453
  0
LINE
  8
_0-3_躯体と製品
  6
CONTINUOUS
 62
    4
 10
3500.6451311647825
 20
2218.6108416269453
 11
3524.1451304495276
 21
2218.6108416269453
  0
LINE
  8
_0-3_躯体と製品
  6
CONTINUOUS
 62
    4
 10
3477.1451311647825
 20
2210.6108416269453
 11
3524.1451304495276
 21
2210.6108416269453
  0
LINE
  8
_0-3_躯体と製品
  6
CONTINUOUS
 62
    4
 10
3492.6451311647825
 20
1981.4108416269346
 11
3492.6451311647825
 21
1907.4951916269456
  0
LINE
  8
_0-3_躯体と製品
  6
CONTINUOUS
 62
    4
 10
3508.6451311647825
 20
1981.4108416269346
 11
3508.6451311647825
 21
1907.4951916269456
  0
LINE
  8
_0-3_躯体と製品
  6
CONTINUOUS
 62
    3
 10
3507.1451311647825
 20
1981.4108416269346
 11
3507.1451311647825
 21
1905.9951916269456
  0
LINE
  8
_0-3_躯体と製品
  6
CONTINUOUS
 62
    3
 10
3494.1451311647825
 20
1981.4108416269346
 11
3494.1451311647825
 21
1905.9951916269456
  0
LINE
  8
_0-3_躯体と製品
  6
CONTINUOUS
 62
    4
 10
3494.1451311647825
 20
1905.9951916269456
 11
3507.1451311647825
 21
1905.9951916269456
  0
LINE
  8
_0-3_躯体と製品
  6
CONTINUOUS
 62
    4
 10
3492.6451311647825
 20
1907.4951916269456
 11
3494.1451311647825
 21
1905.9951916269456
  0
LINE
  8
_0-3_躯体と製品
  6
CONTINUOUS
 62
    4
 10
3508.6451311647825
 20
1907.4951916269456
 11
3507.1451311647825
 21
1905.9951916269456
  0
LINE
  8
_0-3_躯体と製品
  6
CONTINUOUS
 62
    3
 10
3492.6451311647825
 20
1907.4951916269456
 11
3508.6451311647825
 21
1907.4951916269456
  0
LINE
  8
_0-3_躯体と製品
  6
CONTINUOUS
 62
    4
 10
3490.2528263193672
 20
2172.9951916269456
 11
3511.0374360101987
 21
2172.9951916269456
  0
LINE
  8
_0-3_躯体と製品
  6
CONTINUOUS
 62
    4
 10
3493.7169279345244
 20
2174.4951916269456
 11
3493.7169279345244
 21
2185.9951916269465
  0
LINE
  8
_0-3_躯体と製品
  6
CONTINUOUS
 62
    4
 10
3507.5733343950706
 20
2157.4951916269456
 11
3507.5733343950706
 21
2168.9951916269456
  0
LINE
  8
_0-3_躯体と製品
  6
CONTINUOUS
 62
    4
 10
3507.5733343950706
 20
2174.4951916269456
 11
3507.5733343950706
 21
2185.9951916269465
  0
LINE
  8
_0-3_躯体と製品
  6
CONTINUOUS
 62
    4
 10
3493.7169279345244
 20
2157.4951916269456
 11
3493.7169279345244
 21
2168.9951916269456
  0
ARC
  8
_0-3_躯体と製品
  6
CONTINUOUS
 62
    4
 10
3490.2528263193817
 20
2177.7451916269506
 40
4.7500000000071338
 50
223.17355110726379
 51
316.82644889273621
  0
ARC
  8
_0-3_躯体と製品
  6
CONTINUOUS
 62
    4
 10
3500.6451311647975
 20
2189.7451913065065
 40
16.749999708255991
 50
245.56730186717647
 51
294.43269813282353
  0
ARC
  8
_0-3_躯体と製品
  6
CONTINUOUS
 62
    4
 10
3511.0374360101996
 20
2177.7451916269383
 40
4.7499999999887379
 50
223.17355110726777
 51
316.82644889273217
  0
LINE
  8
_0-3_躯体と製品
  6
CONTINUOUS
 62
    4
 10
3514.5015376253286
 20
2174.4951916269456
 11
3514.5015376253286
 21
2185.9951916269465
  0
LINE
  8
_0-3_躯体と製品
  6
CONTINUOUS
 62
    4
 10
3514.5015376253286
 20
2185.9951916269465
 11
3486.788724704239
 21
2185.9951916269465
  0
LINE
  8
_0-3_躯体と製品
  6
CONTINUOUS
 62
    4
 10
3486.788724704239
 20
2185.9951916269465
 11
3486.788724704239
 21
2174.4951916269456
  0
LINE
  8
_0-3_躯体と製品
  6
CONTINUOUS
 62
    4
 10
3486.6451311604469
 20
2168.9951916269456
 11
3514.6451311978162
 21
2168.9951916269456
  0
LINE
  8
_0-3_躯体と製品
  6
CONTINUOUS
 62
    4
 10
3514.6451311978162
 20
2168.9951916269456
 11
3514.6451311978162
 21
2172.9951916269456
  0
LINE
  8
_0-3_躯体と製品
  6
CONTINUOUS
 62
    4
 10
3514.6451311978162
 20
2172.9951916269456
 11
3486.6451311604469
 21
2172.9951916269456
  0
LINE
  8
_0-3_躯体と製品
  6
CONTINUOUS
 62
    4
 10
3486.6451311604469
 20
2172.9951916269456
 11
3486.6451311604469
 21
2168.9951916269456
  0
LINE
  8
_0-3_躯体と製品
  6
CONTINUOUS
 62
    4
 10
3490.2528263193672
 20
2155.9951916269456
 11
3511.0374360101987
 21
2155.9951916269456
  0
LINE
  8
_0-3_躯体と製品
  6
CONTINUOUS
 62
    4
 10
3500.6451311791316
 20
2168.9951916269456
 11
3504.6451311791316
 21
2172.9951916269456
  0
ARC
  8
_0-3_躯体と製品
  6
CONTINUOUS
 62
    4
 10
3490.2528263193817
 20
2160.7451916269515
 40
4.7500000000076108
 50
223.1735511072699
 51
316.82644889273007
  0
ARC
  8
_0-3_躯体と製品
  6
CONTINUOUS
 62
    4
 10
3500.6451311647975
 20
2172.745191626942
 40
16.749999999995538
 50
245.56730232054764
 51
294.43269767945236
  0
ARC
  8
_0-3_躯体と製品
  6
CONTINUOUS
 62
    4
 10
3511.0374360101996
 20
2160.7451916269374
 40
4.749999999987951
 50
223.17355110725768
 51
316.82644889274235
  0
LINE
  8
_0-3_躯体と製品
  6
CONTINUOUS
 62
    4
 10
3514.5015376253286
 20
2157.4951916269456
 11
3514.5015376253286
 21
2168.9951916269456
  0
LINE
  8
_0-3_躯体と製品
  6
CONTINUOUS
 62
    4
 10
3514.5015376253286
 20
2168.9951916269456
 11
3486.788724704239
 21
2168.9951916269456
  0
LINE
  8
_0-3_躯体と製品
  6
CONTINUOUS
 62
    4
 10
3486.788724704239
 20
2168.9951916269456
 11
3486.788724704239
 21
2157.4951916269456
  0
LINE
  8
_0-3_躯体と製品
  6
CONTINUOUS
 62
    4
 10
3496.6451311317505
 20
2168.9951915982492
 11
3500.6451311317505
 21
2172.9951915982492
  0
LINE
  8
_0-3_躯体と製品
  6
CONTINUOUS
 62
    4
 10
3480.6451871647851
 20
2270.6108416269462
 11
3520.6451871647841
 21
2270.6108416269462
  0
ARC
  8
_0-3_躯体と製品
  6
CONTINUOUS
 62
    3
 10
3532.4451311647817
 20
2282.8809780645729
 40
1.5000000000008036
 50
359.99999999997783
 51
70.528779365487608
  0
LINE
  8
_0-3_躯体と製品
  6
CONTINUOUS
 62
    3
 10
3534.4857011647837
 20
2274.1951916269454
 11
3533.9451311647827
 21
2274.1951916269454
  0
ARC
  8
_0-3_躯体と製品
  6
CONTINUOUS
 62
    3
 10
3467.3451311640556
 20
2278.0451916269453
 40
3.000000000001144
 50
179.99999999997613
 51
269.61294971878135
  0
LINE
  8
_0-3_躯体と製品
  6
CONTINUOUS
 62
    3
 10
3467.3451311639865
 20
2275.0452600778372
 11
3467.3248654128574
 21
2275.0452600778372
  0
LINE
  8
_0-3_躯体と製品
  6
CONTINUOUS
 62
    3
 10
969.02040116478383
 20
940.52708734699081
 11
969.02040116459875
 21
799.12311511186272
  0
LINE
  8
_0-3_躯体と製品
  6
CONTINUOUS
 62
    3
 10
982.02040116478292
 20
940.52708741549486
 11
982.02040116459875
 21
799.12311485144164
  0
LINE
  8
_0-3_躯体と製品
  6
CONTINUOUS
 62
    4
 10
967.52040116478383
 20
940.67511940882196
 11
967.52040116459966
 21
798.97508334241866
  0
LINE
  8
_0-3_躯体と製品
  6
CONTINUOUS
 62
    4
 10
983.52040116479702
 20
940.67511944832495
 11
983.52040116461194
 21
798.97508252622265
  0
LINE
  8
_0-3_躯体と製品
  6
CONTINUOUS
 62
    3
 10
985.52040016477076
 20
1063.8172976269452
 11
985.52040016486762
 21
984.07095999065223
  0
LINE
  8
_0-3_躯体と製品
  6
CONTINUOUS
 62
    3
 10
965.52042566486261
 20
983.81703199064123
 11
965.52042566476302
 21
1063.8172976269334
  0
LINE
  8
_0-3_躯体と製品
  6
CONTINUOUS
 62
    3
 10
955.52047766476471
 20
1063.8172976269334
 11
955.52047766486385
 21
984.07095999064131
  0
LINE
  8
_0-3_躯体と製品
  6
CONTINUOUS
 62
    3
 10
995.5203501648698
 20
983.81703199065214
 11
995.52035016476975
 21
1063.8172976269452
  0
LINE
  8
_0-3_躯体と製品
  6
CONTINUOUS
 62
    4
 10
1000.5204011647679
 20
1069.8300676269455
 11
1000.5204011648666
 21
971.51727162694533
  0
LINE
  8
_0-3_躯体と製品
  6
CONTINUOUS
 62
    4
 10
950.52040116478383
 20
1069.8300676269455
 11
950.5204011648816
 21
971.51727162694533
  0
LINE
  8
_0-3_躯体と製品
  6
CONTINUOUS
 62
    4
 10
1000.5204011648666
 20
971.51727162694533
 11
950.5204011648816
 21
971.51727162694533
  0
LINE
  8
_0-3_躯体と製品
  6
CONTINUOUS
 62
    4
 10
948.5204011648816
 20
973.5052656269454
 11
948.5204011648766
 21
976.51727162694442
  0
LINE
  8
_0-3_躯体と製品
  6
CONTINUOUS
 62
    4
 10
956.93460907029066
 20
970.51727162694533
 11
994.10619325927473
 21
970.51727162694533
  0
ARC
  8
_0-3_躯体と製品
  6
CONTINUOUS
 62
    4
 10
950.50839716488167
 20
973.50526562694506
 40
1.9879939999989233
 50
179.99999999998892
 51
270.34596820553355
  0
ARC
  8
_0-3_躯体と製品
  6
CONTINUOUS
 62
    4
 10
956.93460907029112
 20
972.0172636269449
 40
1.4999919999995377
 50
199.47100455755398
 51
269.99999999998562
  0
ARC
  8
_0-3_躯体と製品
  6
CONTINUOUS
 62
    4
 10
994.10619325927541
 20
972.01726362694649
 40
1.4999920000011453
 50
269.99999999997101
 51
340.52899544240262
  0
LINE
  8
_0-3_躯体と製品
  6
CONTINUOUS
 62
    4
 10
950.52040116487569
 20
976.51727162694442
 11
948.5204011648766
 21
976.51727162694442
  0
ARC
  8
_0-3_躯体と製品
  6
CONTINUOUS
 62
    3
 10
960.520451664863
 20
983.81703199064077
 40
4.9999739999996304
 50
177.08893600000491
 51
0.0000000000052864
  0
ARC
  8
_0-3_躯体と製品
  6
CONTINUOUS
 62
    3
 10
990.52037416486951
 20
983.81703199065259
 40
4.9999739999991988
 50
177.08893599999433
 51
359.99999999999471
  0
LINE
  8
_0-3_躯体と製品
  6
CONTINUOUS
 62
    4
 10
1002.5204011648666
 20
973.5052656269454
 11
1002.5204011648616
 21
976.51727162694442
  0
ARC
  8
_0-3_躯体と製品
  6
CONTINUOUS
 62
    4
 10
1000.5324071648668
 20
973.5052656269454
 40
1.9879939999998733
 50
269.65397415160709
 51
359.99999999999937
  0
LINE
  8
_0-3_躯体と製品
  6
CONTINUOUS
 62
    4
 10
1000.5204011648616
 20
976.51727162694442
 11
1002.5204011648616
 21
976.51727162694442
  0
LINE
  8
_0-3_躯体と製品
  6
CONTINUOUS
 62
    3
 10
995.52035016476975
 20
1053.8172716269455
 11
1000.5204011647679
 21
1053.8172716269455
  0
LINE
  8
_0-3_躯体と製品
  6
CONTINUOUS
 62
    3
 10
995.52035016476975
 20
1059.8172716269455
 11
1000.5204011647679
 21
1059.8172716269455
  0
ARC
  8
_0-3_躯体と製品
  6
CONTINUOUS
 62
    4
 10
996.52031190969092
 20
1069.8171823704199
 40
4.0001092565699112
 50
0.0015649417110398
 51
90.000268493698215
  0
LINE
  8
_0-3_躯体と製品
  6
CONTINUOUS
 62
    3
 10
965.52042566476302
 20
1053.8172716269328
 11
985.52040016477076
 21
1053.8172716269455
  0
LINE
  8
_0-3_躯体と製品
  6
CONTINUOUS
 62
    3
 10
950.52040116478383
 20
1053.8172716269455
 11
955.52047766476471
 21
1053.8172716269328
  0
LINE
  8
_0-3_躯体と製品
  6
CONTINUOUS
 62
    3
 10
974.18070767127574
 20
1059.8172716269455
 11
965.52042566476484
 21
1059.8172716269328
  0
LINE
  8
_0-3_躯体と製品
  6
CONTINUOUS
 62
    4
 10
996.53306916478368
 20
1073.8172716269455
 11
954.50760516478385
 21
1073.8172716269455
  0
LINE
  8
_0-3_躯体と製品
  6
CONTINUOUS
 62
    3
 10
950.52040116478383
 20
1059.8172716269455
 11
955.52047766476471
 21
1059.8172716269328
  0
ARC
  8
_0-3_躯体と製品
  6
CONTINUOUS
 62
    4
 10
954.52038116478161
 20
1069.8172916269459
 40
3.9999999999999996
 50
90
 51
180
  0
ARC
  8
_0-3_躯体と製品
  6
CONTINUOUS
 62
    3
 10
960.52045166476478
 20
1063.8172976269334
 40
4.9999740000000656
 50
0.000000000000007
 51
179.99999999999997
  0
LINE
  8
_0-3_躯体と製品
  6
CONTINUOUS
 62
    3
 10
976.86001516478291
 20
1059.8172716269455
 11
985.52040016477076
 21
1059.8172716269455
  0
LINE
  8
_0-3_躯体と製品
  6
CONTINUOUS
 62
    3
 10
975.52040116478383
 20
1070.5907456269442
 11
980.52037516478185
 21
1067.7040096269457
  0
LINE
  8
_0-3_躯体と製品
  6
CONTINUOUS
 62
    3
 10
970.52042516478286
 20
1067.7040096269457
 11
975.52040116478383
 21
1070.5907456269442
  0
CIRCLE
  8
_0-3_躯体と製品
  6
CONTINUOUS
 62
    3
 10
975.52040116478383
 20
1064.8172716269455
 40
4.999973999999999
  0
LINE
  8
_0-3_躯体と製品
  6
CONTINUOUS
 62
    3
 10
975.52040116478383
 20
1059.0437996269457
 11
970.52042516478286
 21
1061.9305356269451
  0
CIRCLE
  8
_0-3_躯体と製品
  6
CONTINUOUS
 62
    3
 10
975.52040116478383
 20
1064.8172716269455
 40
2.4999880000000001
  0
CIRCLE
  8
_0-3_躯体と製品
  6
CONTINUOUS
 62
    3
 10
975.52040116478383
 20
1064.8172716269455
 40
2.9999839999999991
  0
LINE
  8
_0-3_躯体と製品
  6
CONTINUOUS
 62
    3
 10
970.52042516478286
 20
1061.9305356269451
 11
970.52042516478286
 21
1067.7040096269457
  0
LINE
  8
_0-3_躯体と製品
  6
CONTINUOUS
 62
    4
 10
970.02042916478194
 20
1063.5672776269457
 11
970.42140716478389
 21
1063.5672776269457
  0
ARC
  8
_0-3_躯体と製品
  6
CONTINUOUS
 62
    4
 10
970.02042916478149
 20
1064.0672756269446
 40
0.4999979999988681
 50
180.0000000000521
 51
270.00000000005213
  0
LINE
  8
_0-3_躯体と製品
  6
CONTINUOUS
 62
    4
 10
969.52043116478262
 20
1065.5672676269442
 11
969.52043116478262
 21
1064.0672756269441
  0
ARC
  8
_0-3_躯体と製品
  6
CONTINUOUS
 62
    4
 10
970.02042916478285
 20
1065.5672676269451
 40
0.4999980000002323
 50
90.000000000104222
 51
180.00000000010422
  0
LINE
  8
_0-3_躯体と製品
  6
CONTINUOUS
 62
    4
 10
970.42140716478389
 20
1066.0672656269453
 11
970.02042916478194
 21
1066.0672656269453
  0
LINE
  8
_0-3_躯体と製品
  6
CONTINUOUS
 62
    3
 10
980.52037516478185
 20
1061.9305356269451
 11
975.52040116478383
 21
1059.0437996269457
  0
LINE
  8
_0-3_躯体と製品
  6
CONTINUOUS
 62
    3
 10
980.52037516478185
 20
1067.7040096269457
 11
980.52037516478185
 21
1061.9305356269451
  0
LINE
  8
_0-3_躯体と製品
  6
CONTINUOUS
 62
    4
 10
981.02037316478163
 20
1063.5672776269457
 11
980.61939316478265
 21
1063.5672776269457
  0
ARC
  8
_0-3_躯体と製品
  6
CONTINUOUS
 62
    4
 10
981.02037316478254
 20
1064.067275626945
 40
0.4999979999993229
 50
269.99999999989575
 51
359.99999999989581
  0
LINE
  8
_0-3_躯体と製品
  6
CONTINUOUS
 62
    4
 10
981.52036916478392
 20
1065.5672676269442
 11
981.52036916478392
 21
1064.0672756269441
  0
ARC
  8
_0-3_躯体と製品
  6
CONTINUOUS
 62
    4
 10
981.02037316478118
 20
1065.5672676269446
 40
0.4999980000006871
 50
359.99999999994787
 51
89.999999999947903
  0
LINE
  8
_0-3_躯体と製品
  6
CONTINUOUS
 62
    4
 10
980.61939316478265
 20
1066.0672656269453
 11
981.02037316478163
 21
1066.0672656269453
  0
ARC
  8
_0-3_躯体と製品
  6
CONTINUOUS
 62
    3
 10
990.52037416476969
 20
1063.8172976269452
 40
4.9999739999989288
 50
0.000000000000007
 51
179.99999999999997
  0
LINE
  8
_0-3_躯体と製品
  6
CONTINUOUS
 62
    4
 10
969.51983578306681
 20
957.51727947424024
 11
981.52040108719666
 21
957.51727953727914
  0
LINE
  8
_0-3_躯体と製品
  6
CONTINUOUS
 62
    4
 10
961.52040111996803
 20
953.5172794511891
 11
989.520401157366
 21
953.5172794511891
  0
LINE
  8
_0-3_躯体と製品
  6
CONTINUOUS
 62
    4
 10
989.520401157366
 20
953.5172794511891
 11
989.520401157366
 21
957.51727945119092
  0
LINE
  8
_0-3_躯体と製品
  6
CONTINUOUS
 62
    4
 10
989.520401157366
 20
957.51727945119092
 11
961.52040111996803
 21
957.51727945119092
  0
LINE
  8
_0-3_躯体と製品
  6
CONTINUOUS
 62
    4
 10
961.52040111996803
 20
957.51727945119092
 11
961.52040111996803
 21
953.5172794511891
  0
LINE
  8
_0-3_躯体と製品
  6
CONTINUOUS
 62
    4
 10
963.52040112433269
 20
970.51727917714834
 11
963.52040112433269
 21
959.01727945119092
  0
ARC
  8
_0-3_躯体と製品
  6
CONTINUOUS
 62
    4
 10
969.52040110243229
 20
970.26727956589616
 40
12.750000090904418
 50
241.92751339355425
 51
298.07248660644575
  0
ARC
  8
_0-3_躯体と製品
  6
CONTINUOUS
 62
    4
 10
981.52040110243274
 20
970.26728027052718
 40
12.750000733250021
 50
241.927514709977
 51
298.072485290023
  0
LINE
  8
_0-3_躯体と製品
  6
CONTINUOUS
 62
    4
 10
987.5204011243336
 20
959.01727945119092
 11
987.5204011243336
 21
970.5172793493266
  0
LINE
  8
_0-3_躯体と製品
  6
CONTINUOUS
 62
    4
 10
969.51983593449359
 20
940.51727966219369
 11
981.52040123859479
 21
940.51727972523167
  0
LINE
  8
_0-3_躯体と製品
  6
CONTINUOUS
 62
    4
 10
963.52040127573173
 20
953.51727936510179
 11
963.52040127573173
 21
942.01727969371223
  0
ARC
  8
_0-3_躯体と製品
  6
CONTINUOUS
 62
    4
 10
969.52040124678774
 20
953.26727920356836
 40
12.749999553899466
 50
241.92751214239453
 51
298.07248785760549
  0
ARC
  8
_0-3_躯体と製品
  6
CONTINUOUS
 62
    4
 10
981.52040124678774
 20
953.26728007734164
 40
12.750000352117205
 50
241.92751376065095
 51
298.07248623934902
  0
LINE
  8
_0-3_躯体と製品
  6
CONTINUOUS
 62
    4
 10
987.52040127573173
 20
942.01727969371223
 11
987.52040127573173
 21
953.51727953727914
  0
LINE
  8
_0-3_躯体と製品
  6
CONTINUOUS
 62
    4
 10
975.52040108053188
 20
959.01727945119092
 11
975.52040098725365
 21
970.51727926323747
  0
LINE
  8
_0-3_躯体と製品
  6
CONTINUOUS
 62
    4
 10
975.52040120707579
 20
942.01727969371223
 11
975.52040112791292
 21
953.5172794511891
  0
LINE
  8
_0-3_躯体と製品
  6
CONTINUOUS
 62
    3
 10
1708.221400612787
 20
940.52708734699081
 11
1708.2214006126032
 21
799.12311511186272
  0
LINE
  8
_0-3_躯体と製品
  6
CONTINUOUS
 62
    3
 10
1721.221400612787
 20
940.52708741549486
 11
1721.2214006126014
 21
799.12311485144164
  0
LINE
  8
_0-3_躯体と製品
  6
CONTINUOUS
 62
    4
 10
1706.721400612787
 20
940.67511940882196
 11
1706.7214006126032
 21
798.97508334241866
  0
LINE
  8
_0-3_躯体と製品
  6
CONTINUOUS
 62
    4
 10
1722.7214006127997
 20
940.67511944832495
 11
1722.7214006126151
 21
798.97508252622265
  0
LINE
  8
_0-3_躯体と製品
  6
CONTINUOUS
 62
    3
 10
1724.7213996127739
 20
1063.8172976269452
 11
1724.7213996128721
 21
984.07095999065223
  0
LINE
  8
_0-3_躯体と製品
  6
CONTINUOUS
 62
    3
 10
1704.7214251128671
 20
983.81703199064123
 11
1704.7214251127662
 21
1063.8172976269334
  0
LINE
  8
_0-3_躯体と製品
  6
CONTINUOUS
 62
    3
 10
1694.7214771127665
 20
1063.8172976269334
 11
1694.7214771128665
 21
984.07095999064131
  0
LINE
  8
_0-3_躯体と製品
  6
CONTINUOUS
 62
    3
 10
1734.7213496128725
 20
983.81703199065214
 11
1734.7213496127742
 21
1063.8172976269452
  0
LINE
  8
_0-3_躯体と製品
  6
CONTINUOUS
 62
    4
 10
1739.7214006127706
 20
1069.8300676269455
 11
1739.7214006128706
 21
971.51727162694533
  0
LINE
  8
_0-3_躯体と製品
  6
CONTINUOUS
 62
    4
 10
1689.721400612787
 20
1069.8300676269455
 11
1689.7214006128852
 21
971.51727162694533
  0
LINE
  8
_0-3_躯体と製品
  6
CONTINUOUS
 62
    4
 10
1739.7214006128706
 20
971.51727162694533
 11
1689.7214006128852
 21
971.51727162694533
  0
LINE
  8
_0-3_躯体と製品
  6
CONTINUOUS
 62
    4
 10
1687.7214006128852
 20
973.5052656269454
 11
1687.7214006128797
 21
976.51727162694442
  0
LINE
  8
_0-3_躯体と製品
  6
CONTINUOUS
 62
    4
 10
1696.1356085182942
 20
970.51727162694533
 11
1733.3071927072779
 21
970.51727162694533
  0
ARC
  8
_0-3_躯体と製品
  6
CONTINUOUS
 62
    4
 10
1689.709396612885
 20
973.50526562694529
 40
1.9879939999991498
 50
179.99999999999542
 51
270.34596820554009
  0
ARC
  8
_0-3_躯体と製品
  6
CONTINUOUS
 62
    4
 10
1696.1356085182942
 20
972.01726362694524
 40
1.4999919999998592
 50
199.47100455756268
 51
269.99999999999432
  0
ARC
  8
_0-3_躯体と製品
  6
CONTINUOUS
 62
    4
 10
1733.3071927072788
 20
972.01726362694649
 40
1.4999920000011453
 50
269.99999999997101
 51
340.52899544240262
  0
LINE
  8
_0-3_躯体と製品
  6
CONTINUOUS
 62
    4
 10
1689.7214006128797
 20
976.51727162694442
 11
1687.7214006128797
 21
976.51727162694442
  0
ARC
  8
_0-3_躯体と製品
  6
CONTINUOUS
 62
    3
 10
1699.721451112867
 20
983.81703199064077
 40
4.9999740000000852
 50
177.08893600000502
 51
0.0000000000054001
  0
ARC
  8
_0-3_躯体と製品
  6
CONTINUOUS
 62
    3
 10
1729.7213736128731
 20
983.81703199065259
 40
4.9999739999996535
 50
177.08893599999448
 51
359.99999999999488
  0
LINE
  8
_0-3_躯体と製品
  6
CONTINUOUS
 62
    4
 10
1741.7214006128706
 20
973.5052656269454
 11
1741.7214006128661
 21
976.51727162694442
  0
ARC
  8
_0-3_躯体と製品
  6
CONTINUOUS
 62
    4
 10
1739.7334066128708
 20
973.5052656269454
 40
1.9879939999998733
 50
269.65397415160709
 51
359.99999999999937
  0
LINE
  8
_0-3_躯体と製品
  6
CONTINUOUS
 62
    4
 10
1739.7214006128652
 20
976.51727162694442
 11
1741.7214006128661
 21
976.51727162694442
  0
LINE
  8
_0-3_躯体と製品
  6
CONTINUOUS
 62
    3
 10
1734.7213496127742
 20
1053.8172716269455
 11
1739.7214006127706
 21
1053.8172716269455
  0
LINE
  8
_0-3_躯体と製品
  6
CONTINUOUS
 62
    3
 10
1734.7213496127742
 20
1059.8172716269455
 11
1739.7214006127706
 21
1059.8172716269455
  0
ARC
  8
_0-3_躯体と製品
  6
CONTINUOUS
 62
    4
 10
1735.721311357694
 20
1069.8171823704199
 40
4.0001092565699112
 50
0.0015649417110398
 51
90.000268493698215
  0
LINE
  8
_0-3_躯体と製品
  6
CONTINUOUS
 62
    3
 10
1704.7214251127662
 20
1053.8172716269328
 11
1724.7213996127739
 21
1053.8172716269455
  0
LINE
  8
_0-3_躯体と製品
  6
CONTINUOUS
 62
    3
 10
1689.721400612787
 20
1053.8172716269455
 11
1694.7214771127665
 21
1053.8172716269328
  0
LINE
  8
_0-3_躯体と製品
  6
CONTINUOUS
 62
    3
 10
1713.3817071192789
 20
1059.8172716269455
 11
1704.7214251127671
 21
1059.8172716269328
  0
LINE
  8
_0-3_躯体と製品
  6
CONTINUOUS
 62
    4
 10
1735.7340686127854
 20
1073.8172716269455
 11
1693.7086046127861
 21
1073.8172716269455
  0
LINE
  8
_0-3_躯体と製品
  6
CONTINUOUS
 62
    3
 10
1689.721400612787
 20
1059.8172716269455
 11
1694.7214771127665
 21
1059.8172716269328
  0
ARC
  8
_0-3_躯体と製品
  6
CONTINUOUS
 62
    4
 10
1693.7213806127857
 20
1069.8172916269459
 40
3.9999999999999996
 50
90
 51
180
  0
ARC
  8
_0-3_躯体と製品
  6
CONTINUOUS
 62
    3
 10
1699.7214511127668
 20
1063.8172976269334
 40
4.999974000000293
 50
0.000000000000007
 51
179.99999999999997
  0
LINE
  8
_0-3_躯体と製品
  6
CONTINUOUS
 62
    3
 10
1716.0610146127847
 20
1059.8172716269455
 11
1724.7213996127739
 21
1059.8172716269455
  0
LINE
  8
_0-3_躯体と製品
  6
CONTINUOUS
 62
    3
 10
1714.7214006127861
 20
1070.5907456269442
 11
1719.7213746127854
 21
1067.7040096269457
  0
LINE
  8
_0-3_躯体と製品
  6
CONTINUOUS
 62
    3
 10
1709.721424612786
 20
1067.7040096269457
 11
1714.7214006127861
 21
1070.5907456269442
  0
CIRCLE
  8
_0-3_躯体と製品
  6
CONTINUOUS
 62
    3
 10
1714.7214006127861
 20
1064.8172716269455
 40
4.999973999999999
  0
LINE
  8
_0-3_躯体と製品
  6
CONTINUOUS
 62
    3
 10
1714.7214006127861
 20
1059.0437996269457
 11
1709.721424612786
 21
1061.9305356269451
  0
CIRCLE
  8
_0-3_躯体と製品
  6
CONTINUOUS
 62
    3
 10
1714.7214006127861
 20
1064.8172716269455
 40
2.4999880000000001
  0
CIRCLE
  8
_0-3_躯体と製品
  6
CONTINUOUS
 62
    3
 10
1714.7214006127861
 20
1064.8172716269455
 40
2.9999839999999991
  0
LINE
  8
_0-3_躯体と製品
  6
CONTINUOUS
 62
    3
 10
1709.721424612786
 20
1061.9305356269451
 11
1709.721424612786
 21
1067.7040096269457
  0
LINE
  8
_0-3_躯体と製品
  6
CONTINUOUS
 62
    4
 10
1709.2214286127855
 20
1063.5672776269457
 11
1709.6224066127861
 21
1063.5672776269457
  0
ARC
  8
_0-3_躯体と製品
  6
CONTINUOUS
 62
    4
 10
1709.2214286127851
 20
1064.0672756269446
 40
0.4999979999988681
 50
180.0000000000521
 51
270.00000000005213
  0
LINE
  8
_0-3_躯体と製品
  6
CONTINUOUS
 62
    4
 10
1708.7214306127862
 20
1065.5672676269442
 11
1708.7214306127862
 21
1064.0672756269441
  0
ARC
  8
_0-3_躯体と製品
  6
CONTINUOUS
 62
    4
 10
1709.2214286127864
 20
1065.5672676269451
 40
0.4999980000002323
 50
90.000000000104222
 51
180.00000000010422
  0
LINE
  8
_0-3_躯体と製品
  6
CONTINUOUS
 62
    4
 10
1709.6224066127861
 20
1066.0672656269453
 11
1709.2214286127855
 21
1066.0672656269453
  0
LINE
  8
_0-3_躯体と製品
  6
CONTINUOUS
 62
    3
 10
1719.7213746127854
 20
1061.9305356269451
 11
1714.7214006127861
 21
1059.0437996269457
  0
LINE
  8
_0-3_躯体と製品
  6
CONTINUOUS
 62
    3
 10
1719.7213746127854
 20
1067.7040096269457
 11
1719.7213746127854
 21
1061.9305356269451
  0
LINE
  8
_0-3_躯体と製品
  6
CONTINUOUS
 62
    4
 10
1720.2213726127848
 20
1063.5672776269457
 11
1719.8203926127862
 21
1063.5672776269457
  0
ARC
  8
_0-3_躯体と製品
  6
CONTINUOUS
 62
    4
 10
1720.2213726127861
 20
1064.0672756269455
 40
0.4999979999997776
 50
269.99999999984368
 51
359.99999999984368
  0
LINE
  8
_0-3_躯体と製品
  6
CONTINUOUS
 62
    4
 10
1720.721368612788
 20
1065.5672676269442
 11
1720.721368612788
 21
1064.0672756269441
  0
ARC
  8
_0-3_躯体と製品
  6
CONTINUOUS
 62
    4
 10
1720.2213726127848
 20
1065.5672676269442
 40
0.4999980000011419
 50
0.0000000000000052
 51
90.000000000000014
  0
LINE
  8
_0-3_躯体と製品
  6
CONTINUOUS
 62
    4
 10
1719.8203926127862
 20
1066.0672656269453
 11
1720.2213726127848
 21
1066.0672656269453
  0
ARC
  8
_0-3_躯体と製品
  6
CONTINUOUS
 62
    3
 10
1729.7213736127733
 20
1063.8172976269452
 40
4.9999739999993835
 50
0.000000000000007
 51
179.99999999999997
  0
LINE
  8
_0-3_躯体と製品
  6
CONTINUOUS
 62
    4
 10
1708.7208352310699
 20
957.51727947424024
 11
1720.7214005351998
 21
957.51727953727914
  0
LINE
  8
_0-3_躯体と製品
  6
CONTINUOUS
 62
    4
 10
1700.7214005679698
 20
953.5172794511891
 11
1728.7214006053691
 21
953.5172794511891
  0
LINE
  8
_0-3_躯体と製品
  6
CONTINUOUS
 62
    4
 10
1728.7214006053691
 20
953.5172794511891
 11
1728.7214006053691
 21
957.51727945119092
  0
LINE
  8
_0-3_躯体と製品
  6
CONTINUOUS
 62
    4
 10
1728.7214006053691
 20
957.51727945119092
 11
1700.7214005679698
 21
957.51727945119092
  0
LINE
  8
_0-3_躯体と製品
  6
CONTINUOUS
 62
    4
 10
1700.7214005679698
 20
957.51727945119092
 11
1700.7214005679698
 21
953.5172794511891
  0
LINE
  8
_0-3_躯体と製品
  6
CONTINUOUS
 62
    4
 10
1702.7214005723372
 20
970.51727917714834
 11
1702.7214005723372
 21
959.01727945119092
  0
ARC
  8
_0-3_躯体と製品
  6
CONTINUOUS
 62
    4
 10
1708.7214005504361
 20
970.26727956589491
 40
12.750000090902969
 50
241.92751339355425
 51
298.07248660644575
  0
ARC
  8
_0-3_躯体と製品
  6
CONTINUOUS
 62
    4
 10
1720.7214005504352
 20
970.26728027052582
 40
12.750000733248571
 50
241.927514709977
 51
298.072485290023
  0
LINE
  8
_0-3_躯体と製品
  6
CONTINUOUS
 62
    4
 10
1726.7214005723354
 20
959.01727945119092
 11
1726.7214005723354
 21
970.5172793493266
  0
LINE
  8
_0-3_躯体と製品
  6
CONTINUOUS
 62
    4
 10
1708.7208353824972
 20
940.51727966219369
 11
1720.7214006865979
 21
940.51727972523167
  0
LINE
  8
_0-3_躯体と製品
  6
CONTINUOUS
 62
    4
 10
1702.7214007237344
 20
953.51727936510179
 11
1702.7214007237344
 21
942.01727969371223
  0
ARC
  8
_0-3_躯体と製品
  6
CONTINUOUS
 62
    4
 10
1708.7214006947902
 20
953.26727920356802
 40
12.749999553898983
 50
241.92751214239453
 51
298.07248785760549
  0
ARC
  8
_0-3_躯体と製品
  6
CONTINUOUS
 62
    4
 10
1720.7214006947902
 20
953.26728007734198
 40
12.750000352117688
 50
241.92751376065095
 51
298.07248623934902
  0
LINE
  8
_0-3_躯体と製品
  6
CONTINUOUS
 62
    4
 10
1726.7214007237344
 20
942.01727969371223
 11
1726.7214007237344
 21
953.51727953727914
  0
LINE
  8
_0-3_躯体と製品
  6
CONTINUOUS
 62
    4
 10
1714.721400528535
 20
959.01727945119092
 11
1714.7214004352572
 21
970.51727926323747
  0
LINE
  8
_0-3_躯体と製品
  6
CONTINUOUS
 62
    4
 10
1714.7214006550776
 20
942.01727969371223
 11
1714.7214005759161
 21
953.5172794511891
  0
TEXT
  8
_0-4_文字-記号
 62
    7
 10
879.95643109127559
 20
2567.9268276366115
 40
45
 41
0.8
 50
0
  1
巾木
  0
LINE
  8
_0-4_文字-記号
  6
CONTINUOUS
 62
    7
 10
787.52040116478565
 20
2439.9811416269476
 11
857.8129462175657
 21
2561.7314010516875
  0
LINE
  8
_0-4_文字-記号
  6
CONTINUOUS
 62
    7
 10
857.8129462175657
 20
2561.7314010516875
 11
978.73567887797572
 21
2561.7314010516875
  0
LINE
  8
_0-4_文字-記号
  6
CONTINUOUS
 62
    7
 10
802.16141727405375
 20
2454.6221578026343
 11
787.52040116478383
 21
2439.9811416269454
  0
LINE
  8
_0-4_文字-記号
  6
CONTINUOUS
 62
    7
 10
787.52040116478383
 20
2439.9811416269454
 11
792.87938505551483
 21
2459.9811416026355
  0
TEXT
  8
_0-4_文字-記号
 62
    7
 10
863.11229734276776
 20
2435.8135091007757
 40
45
 41
0.8
 50
0
  1
または巾木のみ込み
  0
LINE
  8
_0-4_文字-記号
  6
CONTINUOUS
 62
    7
 10
812.29748727405376
 20
2360.2518578026311
 11
797.65647116478567
 21
2345.6108416269426
  0
LINE
  8
_0-4_文字-記号
  6
CONTINUOUS
 62
    7
 10
797.65647116478567
 20
2345.6108416269426
 11
803.01545505551576
 21
2365.6108416026318
  0
LINE
  8
_0-4_文字-記号
  6
CONTINUOUS
 62
    7
 10
797.65647116478567
 20
2345.6108416269426
 11
807.65647116478567
 21
2362.9313497026315
  0
LINE
  8
_0-4_文字-記号
  6
CONTINUOUS
 62
    7
 10
807.65647116478567
 20
2362.9313497026315
 11
845.36272908518185
 21
2428.2405041840539
  0
LINE
  8
_0-4_文字-記号
  6
CONTINUOUS
 62
    7
 10
845.36272908518185
 20
2428.2405041840539
 11
1237.8397056924996
 21
2428.2405041840539
  0
TEXT
  8
_0-4_文字-記号
 62
    7
 10
870.60207573557864
 20
2489.4259108985198
 40
45
 41
0.8
 50
0
  1
ｴｷｽﾊﾟﾝｼｮﾝｺﾞﾑ取付
  0
TEXT
  8
_0-4_文字-記号
 62
    7
 10
879.95643109127559
 20
1352.4489076366144
 40
45
 41
0.8
 50
0
  1
巾木
  0
LINE
  8
_0-4_文字-記号
  6
CONTINUOUS
 62
    7
 10
787.52040116478565
 20
1224.5032216269519
 11
857.8129462175657
 21
1346.2534810516918
  0
LINE
  8
_0-4_文字-記号
  6
CONTINUOUS
 62
    7
 10
857.8129462175657
 20
1346.2534810516918
 11
978.73567887797572
 21
1346.2534810516918
  0
LINE
  8
_0-4_文字-記号
  6
CONTINUOUS
 62
    7
 10
802.16141727405375
 20
1239.1442378026377
 11
787.52040116478383
 21
1224.5032216269483
  0
LINE
  8
_0-4_文字-記号
  6
CONTINUOUS
 62
    7
 10
787.52040116478383
 20
1224.5032216269483
 11
792.87938505551483
 21
1244.5032216026375
  0
TEXT
  8
_0-4_文字-記号
 62
    7
 10
863.11229734276776
 20
1220.3355891007786
 40
45
 41
0.8
 50
0
  1
または巾木のみ込み
  0
LINE
  8
_0-4_文字-記号
  6
CONTINUOUS
 62
    7
 10
812.29748727405376
 20
1144.7739378026345
 11
797.65647116478567
 21
1130.1329216269442
  0
LINE
  8
_0-4_文字-記号
  6
CONTINUOUS
 62
    7
 10
797.65647116478567
 20
1130.1329216269442
 11
803.01545505551576
 21
1150.1329216026343
  0
LINE
  8
_0-4_文字-記号
  6
CONTINUOUS
 62
    7
 10
797.65647116478567
 20
1130.1329216269442
 11
807.65647116478567
 21
1147.4534297026348
  0
LINE
  8
_0-4_文字-記号
  6
CONTINUOUS
 62
    7
 10
807.65647116478567
 20
1147.4534297026348
 11
845.36272908518185
 21
1212.7625841840554
  0
LINE
  8
_0-4_文字-記号
  6
CONTINUOUS
 62
    7
 10
845.36272908518185
 20
1212.7625841840554
 11
1237.8397056924996
 21
1212.7625841840554
  0
TEXT
  8
_0-4_文字-記号
 62
    7
 10
870.60207573557864
 20
1273.9479908985213
 40
45
 41
0.8
 50
0
  1
ｴｷｽﾊﾟﾝｼｮﾝｺﾞﾑ取付
  0
LINE
  8
_0-3_躯体と製品
  6
CONTINUOUS
 62
    4
 10
1525.7214006127861
 20
1055.1329216269442
 11
1603.7214006127888
 21
1055.1329216269442
  0
LINE
  8
_0-3_躯体と製品
  6
CONTINUOUS
 62
    4
 10
1603.7214006127888
 20
1055.1329216269442
 11
1603.7214006127888
 21
1062.5329216269447
  0
LINE
  8
_0-3_躯体と製品
  6
CONTINUOUS
 62
    4
 10
1603.7214006127888
 20
1062.5329216269447
 11
1598.7214006127888
 21
1062.5329216269447
  0
LINE
  8
_0-3_躯体と製品
  6
CONTINUOUS
 62
    4
 10
1598.7214006127888
 20
1062.5329216269447
 11
1598.7214006127888
 21
1060.5329216269447
  0
LINE
  8
_0-3_躯体と製品
  6
CONTINUOUS
 62
    4
 10
1598.7214006127888
 20
1060.5329216269447
 11
1601.7214006127888
 21
1060.5329216269447
  0
LINE
  8
_0-3_躯体と製品
  6
CONTINUOUS
 62
    4
 10
1601.7214006127888
 20
1060.5329216269447
 11
1601.7214006127888
 21
1057.132921626946
  0
LINE
  8
_0-3_躯体と製品
  6
CONTINUOUS
 62
    4
 10
1601.7214006127888
 20
1057.132921626946
 11
1527.721400612787
 21
1057.132921626946
  0
LINE
  8
_0-3_躯体と製品
  6
CONTINUOUS
 62
    4
 10
1527.721400612787
 20
1057.132921626946
 11
1527.721400612787
 21
1060.5329216269447
  0
LINE
  8
_0-3_躯体と製品
  6
CONTINUOUS
 62
    4
 10
1527.721400612787
 20
1060.5329216269447
 11
1530.721400612787
 21
1060.5329216269447
  0
LINE
  8
_0-3_躯体と製品
  6
CONTINUOUS
 62
    4
 10
1530.721400612787
 20
1060.5329216269447
 11
1530.721400612787
 21
1062.5329216269447
  0
LINE
  8
_0-3_躯体と製品
  6
CONTINUOUS
 62
    4
 10
1530.721400612787
 20
1062.5329216269447
 11
1525.7214006127861
 21
1062.5329216269447
  0
LINE
  8
_0-3_躯体と製品
  6
CONTINUOUS
 62
    4
 10
1525.7214006127861
 20
1062.5329216269447
 11
1525.7214006127861
 21
1055.1329216269442
  0
LINE
  8
_0-3_躯体と製品
  6
CONTINUOUS
 62
    4
 10
1541.2553086127882
 20
1059.3819216269421
 11
1541.2553086127882
 21
1058.9329216269498
  0
LINE
  8
_0-3_躯体と製品
  6
CONTINUOUS
 62
    4
 10
1533.2553086127882
 20
1059.3819216269421
 11
1533.2553086127882
 21
1058.9329216269498
  0
LINE
  8
_0-3_躯体と製品
  6
CONTINUOUS
 62
    4
 10
1541.0553086128057
 20
1058.7329216269382
 11
1537.2553086127882
 21
1058.7329216269382
  0
ARC
  8
_0-3_躯体と製品
  6
CONTINUOUS
 62
    4
 10
1533.4553086127912
 20
1058.9329216269412
 40
0.200000000002911
 50
180.00000600033422
 51
269.99999700069293
  0
LINE
  8
_0-3_躯体と製品
  6
CONTINUOUS
 62
    4
 10
1533.4553086127989
 20
1058.7329216269382
 11
1537.2553086127882
 21
1058.7329216269382
  0
ARC
  8
_0-3_躯体と製品
  6
CONTINUOUS
 62
    4
 10
1541.0553086128027
 20
1058.9329216269518
 40
0.2000000000136425
 50
269.9999969995464
 51
359.99999999942685
  0
LINE
  8
_0-3_躯体と製品
  6
CONTINUOUS
 62
    4
 10
1541.0203086128022
 20
1060.5329216269565
 11
1537.2553086127882
 21
1060.5329216269565
  0
ARC
  8
_0-3_躯体と製品
  6
CONTINUOUS
 62
    4
 10
1537.8023086127582
 20
1056.9449216269404
 40
4.8189999999965529
 50
48.111754999080979
 51
96.517442000063127
  0
LINE
  8
_0-3_躯体と製品
  6
CONTINUOUS
 62
    4
 10
1533.4903086128024
 20
1060.5329216269565
 11
1533.2553086127882
 21
1059.3819216269421
  0
ARC
  8
_0-3_躯体と製品
  6
CONTINUOUS
 62
    4
 10
1536.7083086128057
 20
1056.9449216269336
 40
4.8190000000179554
 50
83.482563001152002
 51
131.88825099942119
  0
LINE
  8
_0-3_躯体と製品
  6
CONTINUOUS
 62
    4
 10
1533.4903086128024
 20
1060.5329216269565
 11
1537.2553086127882
 21
1060.5329216269565
  0
LINE
  8
_0-3_躯体と製品
  6
CONTINUOUS
 62
    4
 10
1541.0203086128022
 20
1060.5329216269565
 11
1541.2553086127882
 21
1059.3819216269421
  0
LINE
  8
_0-3_躯体と製品
  6
CONTINUOUS
 62
    4
 10
1596.1874926127857
 20
1059.3819216269421
 11
1596.1874926127857
 21
1058.9329216269498
  0
LINE
  8
_0-3_躯体と製品
  6
CONTINUOUS
 62
    4
 10
1588.1874926127857
 20
1059.3819216269421
 11
1588.1874926127857
 21
1058.9329216269498
  0
LINE
  8
_0-3_躯体と製品
  6
CONTINUOUS
 62
    4
 10
1595.9874926128032
 20
1058.7329216269382
 11
1592.1874926127848
 21
1058.7329216269382
  0
ARC
  8
_0-3_躯体と製品
  6
CONTINUOUS
 62
    4
 10
1588.3874926127892
 20
1058.9329216269416
 40
0.2000000000033658
 50
180.00000600046451
 51
269.99999700082321
  0
LINE
  8
_0-3_躯体と製品
  6
CONTINUOUS
 62
    4
 10
1588.3874926127974
 20
1058.7329216269382
 11
1592.1874926127848
 21
1058.7329216269382
  0
ARC
  8
_0-3_躯体と製品
  6
CONTINUOUS
 62
    4
 10
1595.9874926128002
 20
1058.9329216269527
 40
0.200000000014552
 50
269.99999699928583
 51
359.99999999916628
  0
LINE
  8
_0-3_躯体と製品
  6
CONTINUOUS
 62
    4
 10
1595.9524926127997
 20
1060.5329216269565
 11
1592.1874926127848
 21
1060.5329216269565
  0
ARC
  8
_0-3_躯体と製品
  6
CONTINUOUS
 62
    4
 10
1592.7344926127553
 20
1056.9449216269413
 40
4.818999999995496
 50
48.111754999076979
 51
96.51744200005912
  0
LINE
  8
_0-3_躯体と製品
  6
CONTINUOUS
 62
    4
 10
1588.4224926128009
 20
1060.5329216269565
 11
1588.1874926127857
 21
1059.3819216269421
  0
ARC
  8
_0-3_躯体と製品
  6
CONTINUOUS
 62
    4
 10
1591.6404926128037
 20
1056.9449216269345
 40
4.8190000000168984
 50
83.482563001155967
 51
131.88825099942517
  0
LINE
  8
_0-3_躯体と製品
  6
CONTINUOUS
 62
    4
 10
1588.4224926128009
 20
1060.5329216269565
 11
1592.1874926127848
 21
1060.5329216269565
  0
LINE
  8
_0-3_躯体と製品
  6
CONTINUOUS
 62
    4
 10
1595.9524926127997
 20
1060.5329216269565
 11
1596.1874926127857
 21
1059.3819216269421
  0
LINE
  8
_0-5_中心線
  6
CENTER1
 62
    7
 10
1564.721400612787
 20
1047.5507870584715
 11
1564.721400612787
 21
1100.5900633441197
  0
LINE
  8
_0-3_躯体と製品
  6
CONTINUOUS
 62
    4
 10
1583.1214006127802
 20
1059.2329216269445
 11
1583.1214006127802
 21
1095.0329216269392
  0
ARC
  8
_0-3_躯体と製品
  6
CONTINUOUS
 62
    4
 10
1582.6214006258706
 20
1095.0329216400296
 40
0.4999999869096433
 50
359.99999849995555
 51
90.000001499836031
  0
LINE
  8
_0-3_躯体と製品
  6
CONTINUOUS
 62
    4
 10
1582.6214006127821
 20
1095.5329216269392
 11
1564.721400612787
 21
1095.5329216269392
  0
LINE
  8
_0-3_躯体と製品
  6
CONTINUOUS
 62
    4
 10
1564.721400612787
 20
1095.5329216269392
 11
1546.8214005866139
 21
1095.5329216269392
  0
ARC
  8
_0-3_躯体と製品
  6
CONTINUOUS
 62
    4
 10
1546.821400586613
 20
1095.032921653119
 40
0.4999999738201959
 50
89.999999999895834
 51
180.00000299998476
  0
LINE
  8
_0-3_躯体と製品
  6
CONTINUOUS
 62
    4
 10
1546.3214006127928
 20
1095.0329216269392
 11
1546.3214006127891
 21
1059.2329216269445
  0
ARC
  8
_0-3_躯体と製品
  6
CONTINUOUS
 62
    4
 10
1544.2214006677646
 20
1059.2329215719706
 40
2.0999999450246856
 50
269.99999850001012
 51
0.0000014998905927
  0
LINE
  8
_0-3_躯体と製品
  6
CONTINUOUS
 62
    4
 10
1544.221400612787
 20
1057.132921626946
 11
1527.721400612787
 21
1057.132921626946
  0
LINE
  8
_0-3_躯体と製品
  6
CONTINUOUS
 62
    4
 10
1527.721400612787
 20
1057.132921626946
 11
1527.721400612787
 21
1058.7329216269436
  0
LINE
  8
_0-3_躯体と製品
  6
CONTINUOUS
 62
    4
 10
1527.721400612787
 20
1058.7329216269436
 11
1544.2214005866081
 21
1058.7329216269436
  0
ARC
  8
_0-3_躯体と製品
  6
CONTINUOUS
 62
    4
 10
1544.2214006127865
 20
1059.2329216269441
 40
0.500000000000455
 50
269.99999700017167
 51
0.000000000052161
  0
LINE
  8
_0-3_躯体と製品
  6
CONTINUOUS
 62
    4
 10
1544.721400612787
 20
1059.2329216269445
 11
1544.7214006127942
 21
1095.0329214070298
  0
ARC
  8
_0-3_躯体と製品
  6
CONTINUOUS
 62
    4
 10
1546.8214006677722
 20
1095.032921571968
 40
2.100000054977865
 50
90.000001500039332
 51
180.00000450012823
  0
LINE
  8
_0-3_躯体と製品
  6
CONTINUOUS
 62
    4
 10
1546.8214006127928
 20
1097.132921626946
 11
1564.721400612787
 21
1097.132921626946
  0
LINE
  8
_0-3_躯体と製品
  6
CONTINUOUS
 62
    4
 10
1564.721400612787
 20
1097.132921626946
 11
1582.6214005028296
 21
1097.1329216269396
  0
ARC
  8
_0-3_躯体と製品
  6
CONTINUOUS
 62
    4
 10
1582.6214006127839
 20
1095.0329216269365
 40
2.1000000000031847
 50
0.0000000000768676
 51
90.000002999957331
  0
LINE
  8
_0-3_躯体と製品
  6
CONTINUOUS
 62
    4
 10
1584.721400612787
 20
1095.0329216269392
 11
1584.721400612787
 21
1059.2329215745849
  0
ARC
  8
_0-3_躯体と製品
  6
CONTINUOUS
 62
    4
 10
1585.2214006258764
 20
1059.2329216400331
 40
0.5000000130894509
 50
180.00000749980549
 51
269.99999849995572
  0
LINE
  8
_0-3_躯体と製品
  6
CONTINUOUS
 62
    4
 10
1585.2214006127861
 20
1058.7329216269436
 11
1601.721400612787
 21
1058.7329216269436
  0
LINE
  8
_0-3_躯体と製品
  6
CONTINUOUS
 62
    4
 10
1601.721400612787
 20
1058.7329216269436
 11
1601.721400612787
 21
1057.132921626946
  0
LINE
  8
_0-3_躯体と製品
  6
CONTINUOUS
 62
    4
 10
1601.721400612787
 20
1057.132921626946
 11
1585.2214005028372
 21
1057.1329216269423
  0
ARC
  8
_0-3_躯体と製品
  6
CONTINUOUS
 62
    4
 10
1585.2214006127883
 20
1059.2329216269432
 40
2.1000000000007342
 50
180.00000599997935
 51
269.99999700012961
  0
LINE
  8
_0-3_躯体と製品
  6
CONTINUOUS
 62
    4
 10
1825.721400612787
 20
1055.1329216269442
 11
1903.7214006127888
 21
1055.1329216269442
  0
LINE
  8
_0-3_躯体と製品
  6
CONTINUOUS
 62
    4
 10
1903.7214006127888
 20
1055.1329216269442
 11
1903.7214006127888
 21
1062.5329216269447
  0
LINE
  8
_0-3_躯体と製品
  6
CONTINUOUS
 62
    4
 10
1903.7214006127888
 20
1062.5329216269447
 11
1898.7214006127879
 21
1062.5329216269447
  0
LINE
  8
_0-3_躯体と製品
  6
CONTINUOUS
 62
    4
 10
1898.7214006127879
 20
1062.5329216269447
 11
1898.7214006127879
 21
1060.5329216269447
  0
LINE
  8
_0-3_躯体と製品
  6
CONTINUOUS
 62
    4
 10
1898.7214006127879
 20
1060.5329216269447
 11
1901.7214006127879
 21
1060.5329216269447
  0
LINE
  8
_0-3_躯体と製品
  6
CONTINUOUS
 62
    4
 10
1901.7214006127879
 20
1060.5329216269447
 11
1901.7214006127879
 21
1057.132921626946
  0
LINE
  8
_0-3_躯体と製品
  6
CONTINUOUS
 62
    4
 10
1901.7214006127879
 20
1057.132921626946
 11
1827.721400612787
 21
1057.132921626946
  0
LINE
  8
_0-3_躯体と製品
  6
CONTINUOUS
 62
    4
 10
1827.721400612787
 20
1057.132921626946
 11
1827.721400612787
 21
1060.5329216269447
  0
LINE
  8
_0-3_躯体と製品
  6
CONTINUOUS
 62
    4
 10
1827.721400612787
 20
1060.5329216269447
 11
1830.721400612787
 21
1060.5329216269447
  0
LINE
  8
_0-3_躯体と製品
  6
CONTINUOUS
 62
    4
 10
1830.721400612787
 20
1060.5329216269447
 11
1830.721400612787
 21
1062.5329216269447
  0
LINE
  8
_0-3_躯体と製品
  6
CONTINUOUS
 62
    4
 10
1830.721400612787
 20
1062.5329216269447
 11
1825.721400612787
 21
1062.5329216269447
  0
LINE
  8
_0-3_躯体と製品
  6
CONTINUOUS
 62
    4
 10
1825.721400612787
 20
1062.5329216269447
 11
1825.721400612787
 21
1055.1329216269442
  0
LINE
  8
_0-3_躯体と製品
  6
CONTINUOUS
 62
    4
 10
1841.2553086127882
 20
1059.3819216269421
 11
1841.2553086127882
 21
1058.9329216269498
  0
LINE
  8
_0-3_躯体と製品
  6
CONTINUOUS
 62
    4
 10
1833.2553086127882
 20
1059.3819216269421
 11
1833.2553086127882
 21
1058.9329216269498
  0
LINE
  8
_0-3_躯体と製品
  6
CONTINUOUS
 62
    4
 10
1841.0553086128048
 20
1058.7329216269382
 11
1837.2553086127882
 21
1058.7329216269382
  0
ARC
  8
_0-3_躯体と製品
  6
CONTINUOUS
 62
    4
 10
1833.4553086127917
 20
1058.9329216269416
 40
0.2000000000033658
 50
180.00000600046451
 51
269.99999700082321
  0
LINE
  8
_0-3_躯体と製品
  6
CONTINUOUS
 62
    4
 10
1833.4553086127999
 20
1058.7329216269382
 11
1837.2553086127882
 21
1058.7329216269382
  0
ARC
  8
_0-3_躯体と製品
  6
CONTINUOUS
 62
    4
 10
1841.0553086128018
 20
1058.9329216269527
 40
0.200000000014552
 50
269.99999699928583
 51
359.99999999916628
  0
LINE
  8
_0-3_躯体と製品
  6
CONTINUOUS
 62
    4
 10
1841.0203086128022
 20
1060.5329216269565
 11
1837.2553086127882
 21
1060.5329216269565
  0
ARC
  8
_0-3_躯体と製品
  6
CONTINUOUS
 62
    4
 10
1837.8023086127582
 20
1056.9449216269404
 40
4.8189999999965529
 50
48.111754999080979
 51
96.517442000063127
  0
LINE
  8
_0-3_躯体と製品
  6
CONTINUOUS
 62
    4
 10
1833.4903086128043
 20
1060.5329216269565
 11
1833.2553086127882
 21
1059.3819216269421
  0
ARC
  8
_0-3_躯体と製品
  6
CONTINUOUS
 62
    4
 10
1836.7083086128066
 20
1056.9449216269356
 40
4.8190000000158415
 50
83.482563001159988
 51
131.88825099942918
  0
LINE
  8
_0-3_躯体と製品
  6
CONTINUOUS
 62
    4
 10
1833.4903086128043
 20
1060.5329216269565
 11
1837.2553086127882
 21
1060.5329216269565
  0
LINE
  8
_0-3_躯体と製品
  6
CONTINUOUS
 62
    4
 10
1841.0203086128022
 20
1060.5329216269565
 11
1841.2553086127882
 21
1059.3819216269421
  0
LINE
  8
_0-3_躯体と製品
  6
CONTINUOUS
 62
    4
 10
1896.1874926127848
 20
1059.3819216269421
 11
1896.1874926127848
 21
1058.9329216269498
  0
LINE
  8
_0-3_躯体と製品
  6
CONTINUOUS
 62
    4
 10
1888.1874926127848
 20
1059.3819216269421
 11
1888.1874926127848
 21
1058.9329216269498
  0
LINE
  8
_0-3_躯体と製品
  6
CONTINUOUS
 62
    4
 10
1895.9874926128032
 20
1058.7329216269382
 11
1892.1874926127857
 21
1058.7329216269382
  0
ARC
  8
_0-3_躯体と製品
  6
CONTINUOUS
 62
    4
 10
1888.3874926127887
 20
1058.9329216269421
 40
0.2000000000038205
 50
180.00000600059479
 51
269.99999700095344
  0
LINE
  8
_0-3_躯体と製品
  6
CONTINUOUS
 62
    4
 10
1888.3874926127964
 20
1058.7329216269382
 11
1892.1874926127857
 21
1058.7329216269382
  0
ARC
  8
_0-3_躯体と製品
  6
CONTINUOUS
 62
    4
 10
1895.9874926128002
 20
1058.9329216269527
 40
0.200000000014552
 50
269.99999699928583
 51
359.99999999916628
  0
LINE
  8
_0-3_躯体と製品
  6
CONTINUOUS
 62
    4
 10
1895.9524926127997
 20
1060.5329216269565
 11
1892.1874926127857
 21
1060.5329216269565
  0
ARC
  8
_0-3_躯体と製品
  6
CONTINUOUS
 62
    4
 10
1892.7344926127557
 20
1056.9449216269404
 40
4.8189999999965529
 50
48.111754999080979
 51
96.517442000063127
  0
LINE
  8
_0-3_躯体と製品
  6
CONTINUOUS
 62
    4
 10
1888.4224926128009
 20
1060.5329216269565
 11
1888.1874926127848
 21
1059.3819216269421
  0
ARC
  8
_0-3_躯体と製品
  6
CONTINUOUS
 62
    4
 10
1891.6404926128037
 20
1056.9449216269345
 40
4.8190000000168984
 50
83.482563001155967
 51
131.88825099942517
  0
LINE
  8
_0-3_躯体と製品
  6
CONTINUOUS
 62
    4
 10
1888.4224926128009
 20
1060.5329216269565
 11
1892.1874926127857
 21
1060.5329216269565
  0
LINE
  8
_0-3_躯体と製品
  6
CONTINUOUS
 62
    4
 10
1895.9524926127997
 20
1060.5329216269565
 11
1896.1874926127848
 21
1059.3819216269421
  0
LINE
  8
_0-5_中心線
  6
CENTER1
 62
    7
 10
1864.721400612787
 20
1047.5507870584715
 11
1864.721400612787
 21
1100.5900633441197
  0
LINE
  8
_0-3_躯体と製品
  6
CONTINUOUS
 62
    4
 10
1883.1214006127811
 20
1059.2329216269445
 11
1883.1214006127811
 21
1095.0329216269392
  0
ARC
  8
_0-3_躯体と製品
  6
CONTINUOUS
 62
    4
 10
1882.6214006258706
 20
1095.0329216400287
 40
0.4999999869105527
 50
359.9999985000598
 51
90.00000149994024
  0
LINE
  8
_0-3_躯体と製品
  6
CONTINUOUS
 62
    4
 10
1882.6214006127811
 20
1095.5329216269392
 11
1864.721400612787
 21
1095.5329216269392
  0
LINE
  8
_0-3_躯体と製品
  6
CONTINUOUS
 62
    4
 10
1864.721400612787
 20
1095.5329216269392
 11
1846.8214005866139
 21
1095.5329216269392
  0
ARC
  8
_0-3_躯体と製品
  6
CONTINUOUS
 62
    4
 10
1846.821400586613
 20
1095.032921653119
 40
0.4999999738201959
 50
89.999999999895834
 51
180.00000299998476
  0
LINE
  8
_0-3_躯体と製品
  6
CONTINUOUS
 62
    4
 10
1846.3214006127928
 20
1095.0329216269392
 11
1846.3214006127901
 21
1059.2329216269445
  0
ARC
  8
_0-3_躯体と製品
  6
CONTINUOUS
 62
    4
 10
1844.221400667765
 20
1059.232921571971
 40
2.0999999450251399
 50
269.99999849999773
 51
0.0000014998781827
  0
LINE
  8
_0-3_躯体と製品
  6
CONTINUOUS
 62
    4
 10
1844.221400612787
 20
1057.132921626946
 11
1827.721400612787
 21
1057.132921626946
  0
LINE
  8
_0-3_躯体と製品
  6
CONTINUOUS
 62
    4
 10
1827.721400612787
 20
1057.132921626946
 11
1827.721400612787
 21
1058.7329216269436
  0
LINE
  8
_0-3_躯体と製品
  6
CONTINUOUS
 62
    4
 10
1827.721400612787
 20
1058.7329216269436
 11
1844.2214005866081
 21
1058.7329216269436
  0
ARC
  8
_0-3_躯体と製品
  6
CONTINUOUS
 62
    4
 10
1844.2214006127865
 20
1059.2329216269441
 40
0.500000000000455
 50
269.99999700017167
 51
0.000000000052161
  0
LINE
  8
_0-3_躯体と製品
  6
CONTINUOUS
 62
    4
 10
1844.721400612787
 20
1059.2329216269445
 11
1844.7214006127942
 21
1095.0329214070298
  0
ARC
  8
_0-3_躯体と製品
  6
CONTINUOUS
 62
    4
 10
1846.8214006677722
 20
1095.032921571968
 40
2.100000054977865
 50
90.000001500039332
 51
180.00000450012823
  0
LINE
  8
_0-3_躯体と製品
  6
CONTINUOUS
 62
    4
 10
1846.8214006127928
 20
1097.132921626946
 11
1864.721400612787
 21
1097.132921626946
  0
LINE
  8
_0-3_躯体と製品
  6
CONTINUOUS
 62
    4
 10
1864.721400612787
 20
1097.132921626946
 11
1882.6214005028296
 21
1097.1329216269396
  0
ARC
  8
_0-3_躯体と製品
  6
CONTINUOUS
 62
    4
 10
1882.6214006127839
 20
1095.0329216269365
 40
2.1000000000031847
 50
0.0000000000768676
 51
90.000002999957331
  0
LINE
  8
_0-3_躯体と製品
  6
CONTINUOUS
 62
    4
 10
1884.721400612787
 20
1095.0329216269392
 11
1884.721400612787
 21
1059.2329215745849
  0
ARC
  8
_0-3_躯体と製品
  6
CONTINUOUS
 62
    4
 10
1885.2214006258773
 20
1059.232921640034
 40
0.5000000130903604
 50
180.00000749990971
 51
269.99999850005997
  0
LINE
  8
_0-3_躯体と製品
  6
CONTINUOUS
 62
    4
 10
1885.2214006127879
 20
1058.7329216269436
 11
1901.7214006127879
 21
1058.7329216269436
  0
LINE
  8
_0-3_躯体と製品
  6
CONTINUOUS
 62
    4
 10
1901.7214006127879
 20
1058.7329216269436
 11
1901.7214006127879
 21
1057.132921626946
  0
LINE
  8
_0-3_躯体と製品
  6
CONTINUOUS
 62
    4
 10
1901.7214006127879
 20
1057.132921626946
 11
1885.2214005028372
 21
1057.1329216269423
  0
ARC
  8
_0-3_躯体と製品
  6
CONTINUOUS
 62
    4
 10
1885.2214006127888
 20
1059.2329216269427
 40
2.1000000000002803
 50
180.00000599996699
 51
269.99999700011722
  0
LINE
  8
_0-3_躯体と製品
  6
CONTINUOUS
 62
    4
 10
1225.721400612787
 20
1055.1329216269442
 11
1303.7214006127888
 21
1055.1329216269442
  0
LINE
  8
_0-3_躯体と製品
  6
CONTINUOUS
 62
    4
 10
1303.7214006127888
 20
1055.1329216269442
 11
1303.7214006127888
 21
1062.5329216269447
  0
LINE
  8
_0-3_躯体と製品
  6
CONTINUOUS
 62
    4
 10
1303.7214006127888
 20
1062.5329216269447
 11
1298.7214006127888
 21
1062.5329216269447
  0
LINE
  8
_0-3_躯体と製品
  6
CONTINUOUS
 62
    4
 10
1298.7214006127888
 20
1062.5329216269447
 11
1298.7214006127888
 21
1060.5329216269447
  0
LINE
  8
_0-3_躯体と製品
  6
CONTINUOUS
 62
    4
 10
1298.7214006127888
 20
1060.5329216269447
 11
1301.7214006127888
 21
1060.5329216269447
  0
LINE
  8
_0-3_躯体と製品
  6
CONTINUOUS
 62
    4
 10
1301.7214006127888
 20
1060.5329216269447
 11
1301.7214006127888
 21
1057.132921626946
  0
LINE
  8
_0-3_躯体と製品
  6
CONTINUOUS
 62
    4
 10
1301.7214006127888
 20
1057.132921626946
 11
1227.721400612787
 21
1057.132921626946
  0
LINE
  8
_0-3_躯体と製品
  6
CONTINUOUS
 62
    4
 10
1227.721400612787
 20
1057.132921626946
 11
1227.721400612787
 21
1060.5329216269447
  0
LINE
  8
_0-3_躯体と製品
  6
CONTINUOUS
 62
    4
 10
1227.721400612787
 20
1060.5329216269447
 11
1230.721400612787
 21
1060.5329216269447
  0
LINE
  8
_0-3_躯体と製品
  6
CONTINUOUS
 62
    4
 10
1230.721400612787
 20
1060.5329216269447
 11
1230.721400612787
 21
1062.5329216269447
  0
LINE
  8
_0-3_躯体と製品
  6
CONTINUOUS
 62
    4
 10
1230.721400612787
 20
1062.5329216269447
 11
1225.721400612787
 21
1062.5329216269447
  0
LINE
  8
_0-3_躯体と製品
  6
CONTINUOUS
 62
    4
 10
1225.721400612787
 20
1062.5329216269447
 11
1225.721400612787
 21
1055.1329216269442
  0
LINE
  8
_0-3_躯体と製品
  6
CONTINUOUS
 62
    4
 10
1241.2553086127864
 20
1059.3819216269421
 11
1241.2553086127864
 21
1058.9329216269498
  0
LINE
  8
_0-3_躯体と製品
  6
CONTINUOUS
 62
    4
 10
1233.2553086127882
 20
1059.3819216269421
 11
1233.2553086127882
 21
1058.9329216269498
  0
LINE
  8
_0-3_躯体と製品
  6
CONTINUOUS
 62
    4
 10
1241.0553086128057
 20
1058.7329216269382
 11
1237.2553086127882
 21
1058.7329216269382
  0
ARC
  8
_0-3_躯体と製品
  6
CONTINUOUS
 62
    4
 10
1233.4553086127917
 20
1058.9329216269416
 40
0.2000000000033658
 50
180.00000600046451
 51
269.99999700082321
  0
LINE
  8
_0-3_躯体と製品
  6
CONTINUOUS
 62
    4
 10
1233.4553086127989
 20
1058.7329216269382
 11
1237.2553086127882
 21
1058.7329216269382
  0
ARC
  8
_0-3_躯体と製品
  6
CONTINUOUS
 62
    4
 10
1241.0553086128027
 20
1058.9329216269518
 40
0.2000000000136425
 50
269.9999969995464
 51
359.99999999942685
  0
LINE
  8
_0-3_躯体と製品
  6
CONTINUOUS
 62
    4
 10
1241.0203086128022
 20
1060.5329216269565
 11
1237.2553086127882
 21
1060.5329216269565
  0
ARC
  8
_0-3_躯体と製品
  6
CONTINUOUS
 62
    4
 10
1237.8023086127582
 20
1056.9449216269404
 40
4.8189999999965529
 50
48.111754999080979
 51
96.517442000063127
  0
LINE
  8
_0-3_躯体と製品
  6
CONTINUOUS
 62
    4
 10
1233.4903086128024
 20
1060.5329216269565
 11
1233.2553086127882
 21
1059.3819216269421
  0
ARC
  8
_0-3_躯体と製品
  6
CONTINUOUS
 62
    4
 10
1236.7083086128071
 20
1056.9449216269345
 40
4.8190000000168984
 50
83.482563001155967
 51
131.88825099942517
  0
LINE
  8
_0-3_躯体と製品
  6
CONTINUOUS
 62
    4
 10
1233.4903086128024
 20
1060.5329216269565
 11
1237.2553086127882
 21
1060.5329216269565
  0
LINE
  8
_0-3_躯体と製品
  6
CONTINUOUS
 62
    4
 10
1241.0203086128022
 20
1060.5329216269565
 11
1241.2553086127864
 21
1059.3819216269421
  0
LINE
  8
_0-3_躯体と製品
  6
CONTINUOUS
 62
    4
 10
1296.1874926127857
 20
1059.3819216269421
 11
1296.1874926127857
 21
1058.9329216269498
  0
LINE
  8
_0-3_躯体と製品
  6
CONTINUOUS
 62
    4
 10
1288.1874926127857
 20
1059.3819216269421
 11
1288.1874926127857
 21
1058.9329216269498
  0
LINE
  8
_0-3_躯体と製品
  6
CONTINUOUS
 62
    4
 10
1295.9874926128032
 20
1058.7329216269382
 11
1292.1874926127848
 21
1058.7329216269382
  0
ARC
  8
_0-3_躯体と製品
  6
CONTINUOUS
 62
    4
 10
1288.3874926127892
 20
1058.9329216269416
 40
0.2000000000033658
 50
180.00000600046451
 51
269.99999700082321
  0
LINE
  8
_0-3_躯体と製品
  6
CONTINUOUS
 62
    4
 10
1288.3874926127964
 20
1058.7329216269382
 11
1292.1874926127848
 21
1058.7329216269382
  0
ARC
  8
_0-3_躯体と製品
  6
CONTINUOUS
 62
    4
 10
1295.9874926127998
 20
1058.9329216269523
 40
0.2000000000140972
 50
269.99999699941611
 51
359.99999999929656
  0
LINE
  8
_0-3_躯体と製品
  6
CONTINUOUS
 62
    4
 10
1295.9524926127997
 20
1060.5329216269565
 11
1292.1874926127848
 21
1060.5329216269565
  0
ARC
  8
_0-3_躯体と製品
  6
CONTINUOUS
 62
    4
 10
1292.7344926127553
 20
1056.9449216269413
 40
4.818999999995496
 50
48.111754999076979
 51
96.51744200005912
  0
LINE
  8
_0-3_躯体と製品
  6
CONTINUOUS
 62
    4
 10
1288.4224926128009
 20
1060.5329216269565
 11
1288.1874926127857
 21
1059.3819216269421
  0
ARC
  8
_0-3_躯体と製品
  6
CONTINUOUS
 62
    4
 10
1291.6404926128032
 20
1056.9449216269336
 40
4.8190000000179554
 50
83.482563001152002
 51
131.88825099942119
  0
LINE
  8
_0-3_躯体と製品
  6
CONTINUOUS
 62
    4
 10
1288.4224926128009
 20
1060.5329216269565
 11
1292.1874926127848
 21
1060.5329216269565
  0
LINE
  8
_0-3_躯体と製品
  6
CONTINUOUS
 62
    4
 10
1295.9524926127997
 20
1060.5329216269565
 11
1296.1874926127857
 21
1059.3819216269421
  0
LINE
  8
_0-5_中心線
  6
CENTER1
 62
    7
 10
1264.721400612787
 20
1047.5507870584715
 11
1264.721400612787
 21
1100.5900633441197
  0
LINE
  8
_0-3_躯体と製品
  6
CONTINUOUS
 62
    4
 10
1283.1214006127811
 20
1059.2329216269445
 11
1283.1214006127811
 21
1095.0329216269392
  0
ARC
  8
_0-3_躯体と製品
  6
CONTINUOUS
 62
    4
 10
1282.6214006258706
 20
1095.0329216400287
 40
0.4999999869105527
 50
359.9999985000598
 51
90.00000149994024
  0
LINE
  8
_0-3_躯体と製品
  6
CONTINUOUS
 62
    4
 10
1282.6214006127811
 20
1095.5329216269392
 11
1264.721400612787
 21
1095.5329216269392
  0
LINE
  8
_0-3_躯体と製品
  6
CONTINUOUS
 62
    4
 10
1264.721400612787
 20
1095.5329216269392
 11
1246.821400586613
 21
1095.5329216269392
  0
ARC
  8
_0-3_躯体と製品
  6
CONTINUOUS
 62
    4
 10
1246.8214005866125
 20
1095.0329216531195
 40
0.4999999738197412
 50
89.999999999947946
 51
180.00000300003686
  0
LINE
  8
_0-3_躯体と製品
  6
CONTINUOUS
 62
    4
 10
1246.3214006127928
 20
1095.0329216269392
 11
1246.3214006127891
 21
1059.2329216269445
  0
ARC
  8
_0-3_躯体と製品
  6
CONTINUOUS
 62
    4
 10
1244.2214006677646
 20
1059.2329215719706
 40
2.0999999450246856
 50
269.99999850001012
 51
0.0000014998905927
  0
LINE
  8
_0-3_躯体と製品
  6
CONTINUOUS
 62
    4
 10
1244.221400612787
 20
1057.132921626946
 11
1227.721400612787
 21
1057.132921626946
  0
LINE
  8
_0-3_躯体と製品
  6
CONTINUOUS
 62
    4
 10
1227.721400612787
 20
1057.132921626946
 11
1227.721400612787
 21
1058.7329216269436
  0
LINE
  8
_0-3_躯体と製品
  6
CONTINUOUS
 62
    4
 10
1227.721400612787
 20
1058.7329216269436
 11
1244.2214005866081
 21
1058.7329216269436
  0
ARC
  8
_0-3_躯体と製品
  6
CONTINUOUS
 62
    4
 10
1244.221400612787
 20
1059.2329216269445
 40
0.5000000000009098
 50
269.99999700011961
 51
0.0000000000000508
  0
LINE
  8
_0-3_躯体と製品
  6
CONTINUOUS
 62
    4
 10
1244.7214006127879
 20
1059.2329216269445
 11
1244.7214006127952
 21
1095.0329214070298
  0
ARC
  8
_0-3_躯体と製品
  6
CONTINUOUS
 62
    4
 10
1246.8214006677727
 20
1095.0329215719685
 40
2.1000000549774103
 50
90.000001500051724
 51
180.00000450014065
  0
LINE
  8
_0-3_躯体と製品
  6
CONTINUOUS
 62
    4
 10
1246.8214006127928
 20
1097.132921626946
 11
1264.721400612787
 21
1097.132921626946
  0
LINE
  8
_0-3_躯体と製品
  6
CONTINUOUS
 62
    4
 10
1264.721400612787
 20
1097.132921626946
 11
1282.6214005028305
 21
1097.1329216269396
  0
ARC
  8
_0-3_躯体と製品
  6
CONTINUOUS
 62
    4
 10
1282.6214006127843
 20
1095.032921626937
 40
2.1000000000027299
 50
0.0000000000644634
 51
90.000002999944925
  0
LINE
  8
_0-3_躯体と製品
  6
CONTINUOUS
 62
    4
 10
1284.721400612787
 20
1095.0329216269392
 11
1284.721400612787
 21
1059.2329215745849
  0
ARC
  8
_0-3_躯体と製品
  6
CONTINUOUS
 62
    4
 10
1285.2214006258764
 20
1059.2329216400331
 40
0.5000000130894509
 50
180.00000749980549
 51
269.99999849995572
  0
LINE
  8
_0-3_躯体と製品
  6
CONTINUOUS
 62
    4
 10
1285.2214006127861
 20
1058.7329216269436
 11
1301.721400612787
 21
1058.7329216269436
  0
LINE
  8
_0-3_躯体と製品
  6
CONTINUOUS
 62
    4
 10
1301.721400612787
 20
1058.7329216269436
 11
1301.721400612787
 21
1057.132921626946
  0
LINE
  8
_0-3_躯体と製品
  6
CONTINUOUS
 62
    4
 10
1301.721400612787
 20
1057.132921626946
 11
1285.2214005028354
 21
1057.1329216269423
  0
ARC
  8
_0-3_躯体と製品
  6
CONTINUOUS
 62
    4
 10
1285.2214006127879
 20
1059.2329216269418
 40
2.0999999999993704
 50
180.00000599994218
 51
269.99999700009238
  0
LINE
  8
_0-3_躯体と製品
  6
CONTINUOUS
 62
    4
 10
1011.5204011647838
 20
1055.1329216269442
 11
1089.5204011647847
 21
1055.1329216269442
  0
LINE
  8
_0-3_躯体と製品
  6
CONTINUOUS
 62
    4
 10
1089.5204011647847
 20
1055.1329216269442
 11
1089.5204011647847
 21
1062.5329216269447
  0
LINE
  8
_0-3_躯体と製品
  6
CONTINUOUS
 62
    4
 10
1089.5204011647847
 20
1062.5329216269447
 11
1084.5204011647857
 21
1062.5329216269447
  0
LINE
  8
_0-3_躯体と製品
  6
CONTINUOUS
 62
    4
 10
1084.5204011647857
 20
1062.5329216269447
 11
1084.5204011647857
 21
1060.5329216269447
  0
LINE
  8
_0-3_躯体と製品
  6
CONTINUOUS
 62
    4
 10
1084.5204011647857
 20
1060.5329216269447
 11
1087.5204011647857
 21
1060.5329216269447
  0
LINE
  8
_0-3_躯体と製品
  6
CONTINUOUS
 62
    4
 10
1087.5204011647857
 20
1060.5329216269447
 11
1087.5204011647857
 21
1057.132921626946
  0
LINE
  8
_0-3_躯体と製品
  6
CONTINUOUS
 62
    4
 10
1087.5204011647857
 20
1057.132921626946
 11
1013.5204011647838
 21
1057.132921626946
  0
LINE
  8
_0-3_躯体と製品
  6
CONTINUOUS
 62
    4
 10
1013.5204011647838
 20
1057.132921626946
 11
1013.5204011647838
 21
1060.5329216269447
  0
LINE
  8
_0-3_躯体と製品
  6
CONTINUOUS
 62
    4
 10
1013.5204011647838
 20
1060.5329216269447
 11
1016.5204011647838
 21
1060.5329216269447
  0
LINE
  8
_0-3_躯体と製品
  6
CONTINUOUS
 62
    4
 10
1016.5204011647838
 20
1060.5329216269447
 11
1016.5204011647838
 21
1062.5329216269447
  0
LINE
  8
_0-3_躯体と製品
  6
CONTINUOUS
 62
    4
 10
1016.5204011647838
 20
1062.5329216269447
 11
1011.5204011647838
 21
1062.5329216269447
  0
LINE
  8
_0-3_躯体と製品
  6
CONTINUOUS
 62
    4
 10
1011.5204011647838
 20
1062.5329216269447
 11
1011.5204011647838
 21
1055.1329216269442
  0
LINE
  8
_0-3_躯体と製品
  6
CONTINUOUS
 62
    4
 10
1027.0543091647851
 20
1059.3819216269421
 11
1027.0543091647851
 21
1058.9329216269498
  0
LINE
  8
_0-3_躯体と製品
  6
CONTINUOUS
 62
    4
 10
1019.0543091647846
 20
1059.3819216269421
 11
1019.0543091647846
 21
1058.9329216269498
  0
LINE
  8
_0-3_躯体と製品
  6
CONTINUOUS
 62
    4
 10
1026.8543091648016
 20
1058.7329216269382
 11
1023.0543091647846
 21
1058.7329216269382
  0
ARC
  8
_0-3_躯体と製品
  6
CONTINUOUS
 62
    4
 10
1019.2543091647881
 20
1058.9329216269416
 40
0.2000000000033658
 50
180.00000600046451
 51
269.99999700082321
  0
LINE
  8
_0-3_躯体と製品
  6
CONTINUOUS
 62
    4
 10
1019.2543091647967
 20
1058.7329216269382
 11
1023.0543091647846
 21
1058.7329216269382
  0
ARC
  8
_0-3_躯体と製品
  6
CONTINUOUS
 62
    4
 10
1026.8543091647996
 20
1058.9329216269527
 40
0.200000000014552
 50
269.99999699928583
 51
359.99999999916628
  0
LINE
  8
_0-3_躯体と製品
  6
CONTINUOUS
 62
    4
 10
1026.8193091647981
 20
1060.5329216269565
 11
1023.0543091647846
 21
1060.5329216269565
  0
ARC
  8
_0-3_躯体と製品
  6
CONTINUOUS
 62
    4
 10
1023.6013091647549
 20
1056.9449216269377
 40
4.8189999999991944
 50
48.111754999090998
 51
96.517442000073146
  0
LINE
  8
_0-3_躯体と製品
  6
CONTINUOUS
 62
    4
 10
1019.2893091647998
 20
1060.5329216269565
 11
1019.0543091647846
 21
1059.3819216269421
  0
ARC
  8
_0-3_躯体と製品
  6
CONTINUOUS
 62
    4
 10
1022.5073091648026
 20
1056.9449216269345
 40
4.8190000000168984
 50
83.482563001155967
 51
131.88825099942517
  0
LINE
  8
_0-3_躯体と製品
  6
CONTINUOUS
 62
    4
 10
1019.2893091647998
 20
1060.5329216269565
 11
1023.0543091647846
 21
1060.5329216269565
  0
LINE
  8
_0-3_躯体と製品
  6
CONTINUOUS
 62
    4
 10
1026.8193091647981
 20
1060.5329216269565
 11
1027.0543091647851
 21
1059.3819216269421
  0
LINE
  8
_0-3_躯体と製品
  6
CONTINUOUS
 62
    4
 10
1081.9864931647817
 20
1059.3819216269421
 11
1081.9864931647817
 21
1058.9329216269498
  0
LINE
  8
_0-3_躯体と製品
  6
CONTINUOUS
 62
    4
 10
1073.9864931647817
 20
1059.3819216269421
 11
1073.9864931647817
 21
1058.9329216269498
  0
LINE
  8
_0-3_躯体と製品
  6
CONTINUOUS
 62
    4
 10
1081.786493164801
 20
1058.7329216269382
 11
1077.9864931647826
 21
1058.7329216269382
  0
ARC
  8
_0-3_躯体と製品
  6
CONTINUOUS
 62
    4
 10
1074.1864931647856
 20
1058.9329216269421
 40
0.2000000000038205
 50
180.00000600059479
 51
269.99999700095344
  0
LINE
  8
_0-3_躯体と製品
  6
CONTINUOUS
 62
    4
 10
1074.1864931647924
 20
1058.7329216269382
 11
1077.9864931647826
 21
1058.7329216269382
  0
ARC
  8
_0-3_躯体と製品
  6
CONTINUOUS
 62
    4
 10
1081.7864931647971
 20
1058.9329216269527
 40
0.200000000014552
 50
269.99999699928583
 51
359.99999999916628
  0
LINE
  8
_0-3_躯体と製品
  6
CONTINUOUS
 62
    4
 10
1081.7514931647966
 20
1060.5329216269565
 11
1077.9864931647826
 21
1060.5329216269565
  0
ARC
  8
_0-3_躯体と製品
  6
CONTINUOUS
 62
    4
 10
1078.5334931647521
 20
1056.9449216269413
 40
4.818999999995496
 50
48.111754999076979
 51
96.51744200005912
  0
LINE
  8
_0-3_躯体と製品
  6
CONTINUOUS
 62
    4
 10
1074.2214931647968
 20
1060.5329216269565
 11
1073.9864931647817
 21
1059.3819216269421
  0
ARC
  8
_0-3_躯体と製品
  6
CONTINUOUS
 62
    4
 10
1077.4394931648005
 20
1056.9449216269345
 40
4.8190000000168984
 50
83.482563001155967
 51
131.88825099942517
  0
LINE
  8
_0-3_躯体と製品
  6
CONTINUOUS
 62
    4
 10
1074.2214931647968
 20
1060.5329216269565
 11
1077.9864931647826
 21
1060.5329216269565
  0
LINE
  8
_0-3_躯体と製品
  6
CONTINUOUS
 62
    4
 10
1081.7514931647966
 20
1060.5329216269565
 11
1081.9864931647817
 21
1059.3819216269421
  0
LINE
  8
_0-5_中心線
  6
CENTER1
 62
    7
 10
1050.5204011647838
 20
1047.5507870584715
 11
1050.5204011647838
 21
1100.5900633441197
  0
LINE
  8
_0-3_躯体と製品
  6
CONTINUOUS
 62
    4
 10
1068.920401164778
 20
1059.2329216269445
 11
1068.920401164778
 21
1095.0329216269392
  0
ARC
  8
_0-3_躯体と製品
  6
CONTINUOUS
 62
    4
 10
1068.420401177867
 20
1095.0329216400282
 40
0.4999999869110074
 50
359.99999850011187
 51
90.000001499992351
  0
LINE
  8
_0-3_躯体と製品
  6
CONTINUOUS
 62
    4
 10
1068.4204011647771
 20
1095.5329216269392
 11
1050.5204011647838
 21
1095.5329216269392
  0
LINE
  8
_0-3_躯体と製品
  6
CONTINUOUS
 62
    4
 10
1050.5204011647838
 20
1095.5329216269392
 11
1032.6204011386108
 21
1095.5329216269392
  0
ARC
  8
_0-3_躯体と製品
  6
CONTINUOUS
 62
    4
 10
1032.6204011386094
 20
1095.0329216531186
 40
0.4999999738206507
 50
89.999999999843723
 51
180.00000299993263
  0
LINE
  8
_0-3_躯体と製品
  6
CONTINUOUS
 62
    4
 10
1032.1204011647887
 20
1095.0329216269392
 11
1032.120401164786
 21
1059.2329216269445
  0
ARC
  8
_0-3_躯体と製品
  6
CONTINUOUS
 62
    4
 10
1030.0204012197614
 20
1059.2329215719706
 40
2.0999999450246856
 50
269.99999850001012
 51
0.0000014998905927
  0
LINE
  8
_0-3_躯体と製品
  6
CONTINUOUS
 62
    4
 10
1030.0204011647838
 20
1057.132921626946
 11
1013.5204011647838
 21
1057.132921626946
  0
LINE
  8
_0-3_躯体と製品
  6
CONTINUOUS
 62
    4
 10
1013.5204011647838
 20
1057.132921626946
 11
1013.5204011647838
 21
1058.7329216269436
  0
LINE
  8
_0-3_躯体と製品
  6
CONTINUOUS
 62
    4
 10
1013.5204011647838
 20
1058.7329216269436
 11
1030.0204011386049
 21
1058.7329216269436
  0
ARC
  8
_0-3_躯体と製品
  6
CONTINUOUS
 62
    4
 10
1030.0204011647834
 20
1059.2329216269441
 40
0.500000000000455
 50
269.99999700017167
 51
0.000000000052161
  0
LINE
  8
_0-3_躯体と製品
  6
CONTINUOUS
 62
    4
 10
1030.5204011647838
 20
1059.2329216269445
 11
1030.5204011647911
 21
1095.0329214070298
  0
ARC
  8
_0-3_躯体と製品
  6
CONTINUOUS
 62
    4
 10
1032.6204012197691
 20
1095.032921571968
 40
2.100000054977865
 50
90.000001500039332
 51
180.00000450012823
  0
LINE
  8
_0-3_躯体と製品
  6
CONTINUOUS
 62
    4
 10
1032.6204011647897
 20
1097.132921626946
 11
1050.5204011647838
 21
1097.132921626946
  0
LINE
  8
_0-3_躯体と製品
  6
CONTINUOUS
 62
    4
 10
1050.5204011647838
 20
1097.132921626946
 11
1068.4204010548265
 21
1097.1329216269396
  0
ARC
  8
_0-3_躯体と製品
  6
CONTINUOUS
 62
    4
 10
1068.4204011647803
 20
1095.032921626937
 40
2.1000000000027299
 50
0.0000000000644634
 51
90.000002999944925
  0
LINE
  8
_0-3_躯体と製品
  6
CONTINUOUS
 62
    4
 10
1070.5204011647829
 20
1095.0329216269392
 11
1070.5204011647829
 21
1059.2329215745849
  0
ARC
  8
_0-3_躯体と製品
  6
CONTINUOUS
 62
    4
 10
1071.0204011778733
 20
1059.232921640034
 40
0.5000000130903604
 50
180.00000749990971
 51
269.99999850005997
  0
LINE
  8
_0-3_躯体と製品
  6
CONTINUOUS
 62
    4
 10
1071.0204011647838
 20
1058.7329216269436
 11
1087.5204011647838
 21
1058.7329216269436
  0
LINE
  8
_0-3_躯体と製品
  6
CONTINUOUS
 62
    4
 10
1087.5204011647838
 20
1058.7329216269436
 11
1087.5204011647838
 21
1057.132921626946
  0
LINE
  8
_0-3_躯体と製品
  6
CONTINUOUS
 62
    4
 10
1087.5204011647838
 20
1057.132921626946
 11
1071.0204010548332
 21
1057.1329216269423
  0
ARC
  8
_0-3_躯体と製品
  6
CONTINUOUS
 62
    4
 10
1071.0204011647847
 20
1059.2329216269427
 40
2.1000000000002803
 50
180.00000599996699
 51
269.99999700011722
  0
LINE
  8
_0-3_躯体と製品
  6
CONTINUOUS
 62
    4
 10
811.52040116478383
 20
1055.1329216269442
 11
889.52040116478565
 21
1055.1329216269442
  0
LINE
  8
_0-3_躯体と製品
  6
CONTINUOUS
 62
    4
 10
889.52040116478565
 20
1055.1329216269442
 11
889.52040116478565
 21
1062.5329216269447
  0
LINE
  8
_0-3_躯体と製品
  6
CONTINUOUS
 62
    4
 10
889.52040116478565
 20
1062.5329216269447
 11
884.52040116478565
 21
1062.5329216269447
  0
LINE
  8
_0-3_躯体と製品
  6
CONTINUOUS
 62
    4
 10
884.52040116478565
 20
1062.5329216269447
 11
884.52040116478565
 21
1060.5329216269447
  0
LINE
  8
_0-3_躯体と製品
  6
CONTINUOUS
 62
    4
 10
884.52040116478565
 20
1060.5329216269447
 11
887.52040116478565
 21
1060.5329216269447
  0
LINE
  8
_0-3_躯体と製品
  6
CONTINUOUS
 62
    4
 10
887.52040116478565
 20
1060.5329216269447
 11
887.52040116478565
 21
1057.132921626946
  0
LINE
  8
_0-3_躯体と製品
  6
CONTINUOUS
 62
    4
 10
887.52040116478565
 20
1057.132921626946
 11
813.52040116478383
 21
1057.132921626946
  0
LINE
  8
_0-3_躯体と製品
  6
CONTINUOUS
 62
    4
 10
813.52040116478383
 20
1057.132921626946
 11
813.52040116478383
 21
1060.5329216269447
  0
LINE
  8
_0-3_躯体と製品
  6
CONTINUOUS
 62
    4
 10
813.52040116478383
 20
1060.5329216269447
 11
816.52040116478383
 21
1060.5329216269447
  0
LINE
  8
_0-3_躯体と製品
  6
CONTINUOUS
 62
    4
 10
816.52040116478383
 20
1060.5329216269447
 11
816.52040116478383
 21
1062.5329216269447
  0
LINE
  8
_0-3_躯体と製品
  6
CONTINUOUS
 62
    4
 10
816.52040116478383
 20
1062.5329216269447
 11
811.52040116478383
 21
1062.5329216269447
  0
LINE
  8
_0-3_躯体と製品
  6
CONTINUOUS
 62
    4
 10
811.52040116478383
 20
1062.5329216269447
 11
811.52040116478383
 21
1055.1329216269442
  0
LINE
  8
_0-3_躯体と製品
  6
CONTINUOUS
 62
    4
 10
827.05430916478599
 20
1059.3819216269421
 11
827.05430916478599
 21
1058.9329216269498
  0
LINE
  8
_0-3_躯体と製品
  6
CONTINUOUS
 62
    4
 10
819.05430916478599
 20
1059.3819216269421
 11
819.05430916478599
 21
1058.9329216269498
  0
LINE
  8
_0-3_躯体と製品
  6
CONTINUOUS
 62
    4
 10
826.854309164803
 20
1058.7329216269382
 11
823.05430916478599
 21
1058.7329216269382
  0
ARC
  8
_0-3_躯体と製品
  6
CONTINUOUS
 62
    4
 10
819.25430916478922
 20
1058.9329216269412
 40
0.2000000000031384
 50
180.00000600039937
 51
269.99999700075807
  0
LINE
  8
_0-3_躯体と製品
  6
CONTINUOUS
 62
    4
 10
819.25430916479672
 20
1058.7329216269382
 11
823.05430916478599
 21
1058.7329216269382
  0
ARC
  8
_0-3_躯体と製品
  6
CONTINUOUS
 62
    4
 10
826.85430916479959
 20
1058.9329216269523
 40
0.2000000000140972
 50
269.99999699941611
 51
359.99999999929656
  0
LINE
  8
_0-3_躯体と製品
  6
CONTINUOUS
 62
    4
 10
826.8193091647986
 20
1060.5329216269565
 11
823.05430916478599
 21
1060.5329216269565
  0
ARC
  8
_0-3_躯体と製品
  6
CONTINUOUS
 62
    4
 10
823.60130916475555
 20
1056.9449216269395
 40
4.818999999997609
 50
48.111754999084987
 51
96.517442000067135
  0
LINE
  8
_0-3_躯体と製品
  6
CONTINUOUS
 62
    4
 10
819.28930916480067
 20
1060.5329216269565
 11
819.05430916478599
 21
1059.3819216269421
  0
ARC
  8
_0-3_躯体と製品
  6
CONTINUOUS
 62
    4
 10
822.50730916480256
 20
1056.9449216269345
 40
4.8190000000168984
 50
83.482563001155967
 51
131.88825099942517
  0
LINE
  8
_0-3_躯体と製品
  6
CONTINUOUS
 62
    4
 10
819.28930916480067
 20
1060.5329216269565
 11
823.05430916478599
 21
1060.5329216269565
  0
LINE
  8
_0-3_躯体と製品
  6
CONTINUOUS
 62
    4
 10
826.8193091647986
 20
1060.5329216269565
 11
827.05430916478599
 21
1059.3819216269421
  0
LINE
  8
_0-3_躯体と製品
  6
CONTINUOUS
 62
    4
 10
881.98649316478259
 20
1059.3819216269421
 11
881.98649316478259
 21
1058.9329216269498
  0
LINE
  8
_0-3_躯体と製品
  6
CONTINUOUS
 62
    4
 10
873.98649316478259
 20
1059.3819216269421
 11
873.98649316478259
 21
1058.9329216269498
  0
LINE
  8
_0-3_躯体と製品
  6
CONTINUOUS
 62
    4
 10
881.78649316480096
 20
1058.7329216269382
 11
877.98649316478259
 21
1058.7329216269382
  0
ARC
  8
_0-3_躯体と製品
  6
CONTINUOUS
 62
    4
 10
874.18649316478604
 20
1058.9329216269416
 40
0.2000000000033658
 50
180.00000600046451
 51
269.99999700082321
  0
LINE
  8
_0-3_躯体と製品
  6
CONTINUOUS
 62
    4
 10
874.18649316479377
 20
1058.7329216269382
 11
877.98649316478259
 21
1058.7329216269382
  0
ARC
  8
_0-3_躯体と製品
  6
CONTINUOUS
 62
    4
 10
881.78649316479709
 20
1058.9329216269527
 40
0.200000000014552
 50
269.99999699928583
 51
359.99999999916628
  0
LINE
  8
_0-3_躯体と製品
  6
CONTINUOUS
 62
    4
 10
881.75149316479701
 20
1060.5329216269565
 11
877.98649316478259
 21
1060.5329216269565
  0
ARC
  8
_0-3_躯体と製品
  6
CONTINUOUS
 62
    4
 10
878.5334931647526
 20
1056.9449216269413
 40
4.818999999995496
 50
48.111754999076979
 51
96.51744200005912
  0
LINE
  8
_0-3_躯体と製品
  6
CONTINUOUS
 62
    4
 10
874.22149316479772
 20
1060.5329216269565
 11
873.98649316478259
 21
1059.3819216269421
  0
ARC
  8
_0-3_躯体と製品
  6
CONTINUOUS
 62
    4
 10
877.43949316480052
 20
1056.9449216269345
 40
4.8190000000168984
 50
83.482563001155967
 51
131.88825099942517
  0
LINE
  8
_0-3_躯体と製品
  6
CONTINUOUS
 62
    4
 10
874.22149316479772
 20
1060.5329216269565
 11
877.98649316478259
 21
1060.5329216269565
  0
LINE
  8
_0-3_躯体と製品
  6
CONTINUOUS
 62
    4
 10
881.75149316479701
 20
1060.5329216269565
 11
881.98649316478259
 21
1059.3819216269421
  0
LINE
  8
_0-5_中心線
  6
CENTER1
 62
    7
 10
850.52040116478383
 20
1047.5507870584715
 11
850.52040116478383
 21
1100.5900633441197
  0
LINE
  8
_0-3_躯体と製品
  6
CONTINUOUS
 62
    4
 10
868.92040116477801
 20
1059.2329216269445
 11
868.92040116477801
 21
1095.0329216269392
  0
ARC
  8
_0-3_躯体と製品
  6
CONTINUOUS
 62
    4
 10
868.42040117786746
 20
1095.0329216400287
 40
0.4999999869105527
 50
359.9999985000598
 51
90.00000149994024
  0
LINE
  8
_0-3_躯体と製品
  6
CONTINUOUS
 62
    4
 10
868.42040116477801
 20
1095.5329216269392
 11
850.52040116478383
 21
1095.5329216269392
  0
LINE
  8
_0-3_躯体と製品
  6
CONTINUOUS
 62
    4
 10
850.52040116478383
 20
1095.5329216269392
 11
832.62040113861167
 21
1095.5329216269392
  0
ARC
  8
_0-3_躯体と製品
  6
CONTINUOUS
 62
    4
 10
832.62040113860985
 20
1095.0329216531181
 40
0.4999999738211054
 50
89.999999999791612
 51
180.00000299988054
  0
LINE
  8
_0-3_躯体と製品
  6
CONTINUOUS
 62
    4
 10
832.12040116478875
 20
1095.0329216269392
 11
832.12040116478602
 21
1059.2329216269445
  0
ARC
  8
_0-3_躯体と製品
  6
CONTINUOUS
 62
    4
 10
830.02040121976142
 20
1059.2329215719706
 40
2.0999999450246856
 50
269.99999850001012
 51
0.0000014998905927
  0
LINE
  8
_0-3_躯体と製品
  6
CONTINUOUS
 62
    4
 10
830.02040116478383
 20
1057.132921626946
 11
813.52040116478383
 21
1057.132921626946
  0
LINE
  8
_0-3_躯体と製品
  6
CONTINUOUS
 62
    4
 10
813.52040116478383
 20
1057.132921626946
 11
813.52040116478383
 21
1058.7329216269436
  0
LINE
  8
_0-3_躯体と製品
  6
CONTINUOUS
 62
    4
 10
813.52040116478383
 20
1058.7329216269436
 11
830.02040113860585
 21
1058.7329216269436
  0
ARC
  8
_0-3_躯体と製品
  6
CONTINUOUS
 62
    4
 10
830.02040116478383
 20
1059.2329216269436
 40
0.5000000000000003
 50
269.9999970002238
 51
0.0000000001042713
  0
LINE
  8
_0-3_躯体と製品
  6
CONTINUOUS
 62
    4
 10
830.52040116478383
 20
1059.2329216269445
 11
830.52040116479066
 21
1095.0329214070298
  0
ARC
  8
_0-3_躯体と製品
  6
CONTINUOUS
 62
    4
 10
832.62040121976884
 20
1095.032921571968
 40
2.1000000549780924
 50
90.000001500033079
 51
180.000004500122
  0
LINE
  8
_0-3_躯体と製品
  6
CONTINUOUS
 62
    4
 10
832.62040116478966
 20
1097.132921626946
 11
850.52040116478383
 21
1097.132921626946
  0
LINE
  8
_0-3_躯体と製品
  6
CONTINUOUS
 62
    4
 10
850.52040116478383
 20
1097.132921626946
 11
868.42040105482783
 21
1097.1329216269396
  0
ARC
  8
_0-3_躯体と製品
  6
CONTINUOUS
 62
    4
 10
868.42040116478142
 20
1095.032921626937
 40
2.1000000000025025
 50
0.000000000058255
 51
90.000002999938715
  0
LINE
  8
_0-3_躯体と製品
  6
CONTINUOUS
 62
    4
 10
870.52040116478383
 20
1095.0329216269392
 11
870.52040116478383
 21
1059.2329215745849
  0
ARC
  8
_0-3_躯体と製品
  6
CONTINUOUS
 62
    4
 10
871.02040117787374
 20
1059.2329216400335
 40
0.5000000130899057
 50
180.00000749985762
 51
269.99999850000785
  0
LINE
  8
_0-3_躯体と製品
  6
CONTINUOUS
 62
    4
 10
871.02040116478383
 20
1058.7329216269436
 11
887.52040116478383
 21
1058.7329216269436
  0
LINE
  8
_0-3_躯体と製品
  6
CONTINUOUS
 62
    4
 10
887.52040116478383
 20
1058.7329216269436
 11
887.52040116478383
 21
1057.132921626946
  0
LINE
  8
_0-3_躯体と製品
  6
CONTINUOUS
 62
    4
 10
887.52040116478383
 20
1057.132921626946
 11
871.02040105483275
 21
1057.1329216269423
  0
ARC
  8
_0-3_躯体と製品
  6
CONTINUOUS
 62
    4
 10
871.02040116478474
 20
1059.2329216269422
 40
2.0999999999998247
 50
180.00000599995457
 51
269.99999700010483
  0
LINE
  8
_0-4_文字-記号
  6
CONTINUOUS
 62
    7
 10
3490.267552701338
 20
2077.0555910133444
 11
3495.6265365920681
 21
2097.0555909890327
  0
LINE
  8
_0-4_文字-記号
  6
CONTINUOUS
 62
    7
 10
3495.6265365920681
 20
2097.0555909890327
 11
3480.9855204827982
 21
2082.4145748133442
  0
LINE
  8
_0-4_文字-記号
  6
CONTINUOUS
 62
    7
 10
3495.6265365920681
 20
2097.0555909890327
 11
3435.1561226410704
 21
1992.3177616711864
  0
LINE
  8
_0-4_文字-記号
  6
CONTINUOUS
 62
    7
 10
3435.1561226410704
 20
1992.3177616711864
 11
3173.9434610643821
 21
1992.3177616711864
  0
LINE
  8
_0-4_文字-記号
  6
CONTINUOUS
 62
    7
 10
3173.9434610643821
 20
1992.3177616711864
 11
3070.1087531176454
 21
1992.3177616711864
  0
LINE
  8
_0-3_躯体と製品
  6
CONTINUOUS
 62
    4
 10
900.52040116478474
 20
2272.6108416269453
 11
905.52040116478383
 21
2272.6108416269453
  0
LINE
  8
_0-3_躯体と製品
  6
CONTINUOUS
 62
    3
 10
905.52040116478383
 20
2274.2108416269448
 11
900.52040116478474
 21
2274.2108416269448
  0
TEXT
  8
_0-4_文字-記号
 62
    7
 10
3333.9966600903645
 20
2468.2643994139435
 40
45
 41
0.8
 50
0
  1
２００×１０００
  0
ENDSEC
  0
EOF
