  0
SECTION
  2
HEADER
  9
$ACADVER
  1
AC1009
  9
$INSBASE
 10
0
 20
0
 30
0
  9
$EXTMIN
 10
0
 20
0
  9
$EXTMAX
 10
840
 20
594
  9
$LIMMIN
 10
0
 20
0
  9
$LIMMAX
 10
840
 20
594
  9
$LTSCALE
 40
2
  0
ENDSEC
  0
SECTION
  2
TABLES
  0
TABLE
  2
LTYPE
 70
     9
  0
LTYPE
  2
CONTINUOUS
 70
    64
  3
実線
 72
    65
 73
     0
 40
0.0
  0
LTYPE
  2
DASHED1
 70
    64
  3
--  --  --  --  --  --  --  --  
 72
    65
 73
     2
 40
2.5
 49
1.25
 49
-1.25
  0
LTYPE
  2
DASHED2
 70
    64
  3
----    ----    ----    ----    
 72
    65
 73
     2
 40
5.0
 49
2.5
 49
-2.5
  0
LTYPE
  2
DASHED3
 70
    64
  3
------  ------  ------  ------  
 72
    65
 73
     2
 40
5.0
 49
3.75
 49
-1.25
  0
LTYPE
  2
CENTER1
 70
    64
  3
----- - ----- - ----- - ----- - 
 72
    65
 73
     4
 40
10.0
 49
6.25
 49
-1.25
 49
1.25
 49
-1.25
  0
LTYPE
  2
CENTER2
 70
    64
  3
----------  --  ----------  --  
 72
    65
 73
     4
 40
20.0
 49
12.5
 49
-2.5
 49
2.5
 49
-2.5
  0
LTYPE
  2
PHANTOM1
 70
    64
  3
--- - - --- - - --- - - --- - - 
 72
    65
 73
     6
 40
10.0
 49
3.25
 49
-1.25
 49
1.25
 49
-1.25
 49
1.25
 49
-1.25
  0
LTYPE
  2
PHANTOM2
 70
    64
  3
--------  -  -  --------  -  -  
 72
    65
 73
     6
 40
20.0
 49
10.0
 49
-2.5
 49
1.25
 49
-2.5
 49
1.25
 49
-2.5
  0
LTYPE
  2
DOT
 70
    64
  3
-   -   -   -   -   -   -   -   
 72
    65
 73
     2
 40
2.5
 49
0.625
 49
-1.875
  0
LTYPE
  2
DUMMY
 70
    64
  3
ダミー
 72
    65
 73
     0
 40
0.0
  0
LTYPE
  2
RAND1
 70
    64
  3
ランダム線1
 72
    65
 73
     4
 40
10.0
 49
1.0
 49
-2.0
 49
3.0
 49
-4.0
  0
LTYPE
  2
RAND2
 70
    64
  3
ランダム線2
 72
    65
 73
     4
 40
14.0
 49
2.0
 49
-3.0
 49
4.0
 49
-5.0
  0
LTYPE
  2
RAND3
 70
    64
  3
ランダム線3
 72
    65
 73
     4
 40
18.0
 49
3.0
 49
-4.0
 49
5.0
 49
-6.0
  0
LTYPE
  2
RAND4
 70
    64
  3
ランダム線4
 72
    65
 73
     4
 40
22.0
 49
4.0
 49
-5.0
 49
6.0
 49
-7.0
  0
LTYPE
  2
RAND5
 70
    64
  3
ランダム線5
 72
    65
 73
     4
 40
26.0
 49
5.0
 49
-6.0
 49
7.0
 49
-8.0
  0
LTYPE
  2
LONG1
 70
    64
  3
----------  --  ----------  --  
 72
    65
 73
     4
 40
40.0
 49
32.5
 49
-2.5
 49
2.5
 49
-2.5
  0
LTYPE
  2
LONG2
 70
    64
  3
--------  -  -  --------  -  -  
 72
    65
 73
     6
 40
40.0
 49
30.0
 49
-2.5
 49
1.25
 49
-2.5
 49
1.25
 49
-2.5
  0
LTYPE
  2
LONG3
 70
    64
  3
+++++++++++++++..+++++++++++++++
 72
    65
 73
     2
 40
40.0
 49
37.5
 49
-2.5
  0
LTYPE
  2
LONG4
 70
    64
  3
+++++++++++++++..+++++++++++++++
 72
    65
 73
     2
 40
80.0
 49
75.0
 49
-5.0
  0
LTYPE
  2
LONG5
 70
    64
  3
----------  --  ----------  --  
 72
    65
 73
     4
 40
60.0
 49
37.5
 49
-7.5
 49
7.5
 49
-7.5
  0
LTYPE
  2
dashed
 70
   64
  3
-------   -------------   ------
 72
   65
 73
    2
 40
7.5
 49
6
 49
-1.5
  0
LTYPE
  2
dashed_spaced
 70
   64
  3
----        --------        ----
 72
   65
 73
    2
 40
12
 49
6
 49
-6
  0
LTYPE
  2
long_dashed_dotted
 70
   64
  3
------------- --- --------------
 72
   65
 73
    4
 40
15.25
 49
12
 49
-1.5
 49
0.25
 49
-1.5
  0
LTYPE
  2
long_dashed_double-dotted
 70
   64
  3
----------- --- --- ------------
 72
   65
 73
    6
 40
17
 49
12
 49
-1.5
 49
0.25
 49
-1.5
 49
0.25
 49
-1.5
  0
LTYPE
  2
long_dashed_triplicate-dotted
 70
   64
  3
--------- --- --- --- ----------
 72
   65
 73
    8
 40
18.75
 49
12
 49
-1.5
 49
0.25
 49
-1.5
 49
0.25
 49
-1.5
 49
0.25
 49
-1.5
  0
LTYPE
  2
dotted
 70
   64
  3
   -       -       -       -    
 72
   65
 73
    2
 40
1.75
 49
0.25
 49
-1.5
  0
LTYPE
  2
chain
 70
   64
  3
-------------- -- --------------
 72
   65
 73
    4
 40
18.5
 49
12
 49
-1.5
 49
3.5
 49
-1.5
  0
LTYPE
  2
chain_double_dash
 70
   64
  3
------------ -- -- -------------
 72
   65
 73
    6
 40
23.5
 49
12
 49
-1.5
 49
3.5
 49
-1.5
 49
3.5
 49
-1.5
  0
LTYPE
  2
dashed_dotted
 70
   64
  3
-----------     -     ----------
 72
   65
 73
    4
 40
9.25
 49
6
 49
-1.5
 49
0.25
 49
-1.5
  0
LTYPE
  2
double-dashed_dotted
 70
   64
  3
------   -----------   -   -----
 72
   65
 73
    6
 40
16.75
 49
6
 49
-1.5
 49
6
 49
-1.5
 49
0.25
 49
-1.5
  0
LTYPE
  2
dashed_double-dotted
 70
   64
  3
---------    -    -    ---------
 72
   65
 73
    6
 40
11
 49
6
 49
-1.5
 49
0.25
 49
-1.5
 49
0.25
 49
-1.5
  0
LTYPE
  2
double-dashed_double-dotted
 70
   64
  3
-----   ---------   -   -   ----
 72
   65
 73
    8
 40
18.5
 49
6
 49
-1.5
 49
6
 49
-1.5
 49
0.25
 49
-1.5
 49
0.25
 49
-1.5
  0
LTYPE
  2
dashed_triplicate-dotted
 70
   64
  3
-------    -    -    -    ------
 72
   65
 73
    8
 40
12.75
 49
6
 49
-1.5
 49
0.25
 49
-1.5
 49
0.25
 49
-1.5
 49
0.25
 49
-1.5
  0
LTYPE
  2
double-dashed_triplicate-dotted
 70
   64
  3
-----  ---------  -  -  -  -----
 72
   65
 73
   10
 40
20.25
 49
6
 49
-1.5
 49
6
 49
-1.5
 49
0.25
 49
-1.5
 49
0.25
 49
-1.5
 49
0.25
 49
-1.5
  0
LTYPE
  2
undefined
 70
   64
  3
--------------------------------
 72
   65
 73
    0
 40
0
  0
LTYPE
  2
PLINE2
 70
   64
  3
------     -----------     -----
 72
   65
 73
    2
 40
3
 49
2.1000000000000001
 49
-0.9
  0
LTYPE
  2
PHANTOM2_18
 70
   64
  3
---------   ---   ---   --------
 72
   65
 73
    6
 40
1.25
 49
0.625
 49
-0.125
 49
0.125
 49
-0.125
 49
0.125
 49
-0.125
  0
ENDTAB
  0
TABLE
  2
STYLE
  5
3
100
AcDbSymbolTable
 70
     1
  0
STYLE
  5
10
100
AcDbSymbolTableRecord
100
AcDbTextStyleTableRecord
  2
STANDARD
 70
     0
 40
0.0
 41
1.0
 50
0.0
 71
     0
 42
0.2
  3
txt
  4
bigfont.shx
  0
STYLE
  5
26
100
AcDbSymbolTableRecord
100
AcDbTextStyleTableRecord
  2
TATEGAKI
 70
    68
 40
0.0
 41
1.0
 50
0.0
 71
     0
 42
1.0
  3
txt
  4
bigfont.shx
  0
ENDTAB
  0
TABLE
  2
LAYER
 70
    5
  0
LAYER
  2
_0-2_寸法
 70
   64
 62
    7
  6
CONTINUOUS
  0
LAYER
  2
_0-3_躯体と製品
 70
   64
 62
    7
  6
CONTINUOUS
  0
LAYER
  2
_0-4_文字-記号
 70
   64
 62
    7
  6
CONTINUOUS
  0
LAYER
  2
_0-5_中心線
 70
   64
 62
    7
  6
CONTINUOUS
  0
LAYER
  2
ADD_LINE
 70
   64
 62
    7
  6
CONTINUOUS
  0
ENDTAB
  0
ENDSEC
  0
SECTION
  2
BLOCKS
  0
BLOCK
  2
-000-_Small
 70
   64
 10
0
 20
0
 30
0
  0
CIRCLE
  8
_0-0_0
  6
CONTINUOUS
 62
    7
 10
0
 20
0
 40
0.25
  0
ENDBLK
  0
BLOCK
  2
-001-_D2
 70
   64
 10
0
 20
0
 30
0
  0
LINE
  8
_0-2_寸法
  6
CONTINUOUS
 62
    4
 10
736.2983075922798
 20
-127.27063216671171
 11
736.2983075922798
 21
-87.249074166711807
  0
INSERT
  2
-000-_Small
  8
_0-2_寸法
 10
736.2983075922798
 20
-127.27063216671171
 41
5
 42
5
 50
270
  0
INSERT
  2
-000-_Small
  8
_0-2_寸法
 10
736.2983075922798
 20
-87.249074166711807
 41
5
 42
5
 50
90
  0
TEXT
  8
_0-2_寸法
 62
    7
 10
733.2983075922798
 20
-110.50985316671159
 40
6.5
 41
1
 50
90
  1
40
  0
POINT
  8
_0-1_Defpoints
 62
    7
 10
736.2983075922798
 20
-127.27063216671171
  0
POINT
  8
_0-1_Defpoints
 62
    7
 10
736.2983075922798
 20
-87.249074166711807
  0
POINT
  8
_0-1_Defpoints
 62
    7
 10
736.2983075922798
 20
-87.249074166711807
  0
ENDBLK
  0
BLOCK
  2
-002-_D3
 70
   64
 10
0
 20
0
 30
0
  0
LINE
  8
_0-2_寸法
  6
CONTINUOUS
 62
    4
 10
1110.61145915663
 20
-179.2464301667116
 11
1110.61145915663
 21
-129.2466861667119
  0
INSERT
  2
-000-_Small
  8
_0-2_寸法
 10
1110.61145915663
 20
-179.2464301667116
 41
5
 42
5
 50
270
  0
INSERT
  2
-000-_Small
  8
_0-2_寸法
 10
1110.61145915663
 20
-129.2466861667119
 41
5
 42
5
 50
90
  0
TEXT
  8
_0-2_寸法
 62
    7
 10
1107.6114591566291
 20
-157.49655816671159
 40
6.5
 41
1
 50
90
  1
50
  0
POINT
  8
_0-1_Defpoints
 62
    7
 10
1110.61145915663
 20
-179.2464301667116
  0
POINT
  8
_0-1_Defpoints
 62
    7
 10
1110.61145915663
 20
-129.2466861667119
  0
POINT
  8
_0-1_Defpoints
 62
    7
 10
1110.61145915663
 20
-129.2466861667119
  0
ENDBLK
  0
BLOCK
  2
-003-_D4
 70
   64
 10
0
 20
0
 30
0
  0
LINE
  8
_0-2_寸法
  6
CONTINUOUS
 62
    4
 10
961.56563715662969
 20
-458.74907416671169
 11
961.56563715662969
 21
-480.71249907577487
  0
LINE
  8
_0-2_寸法
  6
CONTINUOUS
 62
    4
 10
1021.565331156629
 20
-458.74907416671169
 11
1021.565331156629
 21
-480.71249907577487
  0
LINE
  8
_0-2_寸法
  6
CONTINUOUS
 62
    4
 10
961.56563715662969
 20
-480.71249907577487
 11
1021.565331156629
 21
-480.71249907577487
  0
INSERT
  2
-000-_Small
  8
_0-2_寸法
 10
961.56563715662969
 20
-480.71249907577487
 41
5
 42
5
 50
180
  0
INSERT
  2
-000-_Small
  8
_0-2_寸法
 10
1021.565331156629
 20
-480.71249907577487
 41
5
 42
5
 50
0
  0
TEXT
  8
_0-2_寸法
 62
    7
 10
988.31548415662974
 20
-477.71249907577487
 40
6.5
 41
1
 50
0
  1
60
  0
POINT
  8
_0-1_Defpoints
 62
    7
 10
961.56563715662969
 20
-458.74907416671169
  0
POINT
  8
_0-1_Defpoints
 62
    7
 10
1021.565331156629
 20
-458.74907416671169
  0
POINT
  8
_0-1_Defpoints
 62
    7
 10
1021.565331156629
 20
-480.71249907577487
  0
ENDBLK
  0
BLOCK
  2
-004-_D5
 70
   64
 10
0
 20
0
 30
0
  0
LINE
  8
_0-2_寸法
  6
CONTINUOUS
 62
    4
 10
1127.7612231566291
 20
-454.2490741667113
 11
1166.993104156631
 21
-454.24907416671141
  0
LINE
  8
_0-2_寸法
  6
CONTINUOUS
 62
    4
 10
1127.76122315663
 20
-87.249074166711566
 11
1166.993104156631
 21
-87.249074166711566
  0
LINE
  8
_0-2_寸法
  6
CONTINUOUS
 62
    4
 10
1166.993104156631
 20
-454.24907416671141
 11
1166.993104156631
 21
-87.249074166711566
  0
INSERT
  2
-000-_Small
  8
_0-2_寸法
 10
1166.993104156631
 20
-454.24907416671141
 41
5
 42
5
 50
270
  0
INSERT
  2
-000-_Small
  8
_0-2_寸法
 10
1166.993104156631
 20
-87.249074166711566
 41
5
 42
5
 50
90
  0
TEXT
  8
_0-2_寸法
 62
    7
 10
1163.993104156631
 20
-286.9990741667113
 40
6.5
 41
1
 50
90
  1
h=222～999
  0
POINT
  8
_0-1_Defpoints
 62
    7
 10
1127.7612231566291
 20
-454.2490741667113
  0
POINT
  8
_0-1_Defpoints
 62
    7
 10
1127.76122315663
 20
-87.249074166711566
  0
POINT
  8
_0-1_Defpoints
 62
    7
 10
1166.993104156631
 20
-87.249074166711566
  0
ENDBLK
  0
ENDSEC
  0
SECTION
  2
ENTITIES
  0
LINE
  8
_0-3_躯体と製品
  6
CONTINUOUS
 62
    4
 10
220.80740316240542
 20
281.51019869705237
 11
220.80740316240542
 21
190.12584869705219
  0
LINE
  8
_0-3_躯体と製品
  6
CONTINUOUS
 62
    4
 10
204.80740316240531
 20
281.51019869705237
 11
204.80740316240531
 21
190.12584869705219
  0
LINE
  8
_0-3_躯体と製品
  6
CONTINUOUS
 62
    3
 10
219.30740316240542
 20
281.51019869705237
 11
219.30740316240542
 21
190.12584869705219
  0
LINE
  8
_0-3_躯体と製品
  6
CONTINUOUS
 62
    3
 10
206.30740316240542
 20
281.51019869705237
 11
206.30740316240542
 21
190.12584869705219
  0
LINE
  8
_0-3_躯体と製品
  6
CONTINUOUS
 62
    4
 10
62.695315162405507
 20
71.125848697052305
 11
363.25485316240508
 21
71.125848697052305
  0
LINE
  8
_0-3_躯体と製品
  6
CONTINUOUS
 62
    3
 10
99.432011162405445
 20
71.125848697052305
 11
74.640323162406105
 21
46.334160697052397
  0
LINE
  8
_0-3_躯体と製品
  6
CONTINUOUS
 62
    3
 10
127.72002716240593
 20
71.125848697052305
 11
102.92833916240562
 21
46.334160697052397
  0
LINE
  8
_0-3_躯体と製品
  6
CONTINUOUS
 62
    3
 10
113.5760191624048
 20
71.125848697052305
 11
88.784331162405408
 21
46.334160697052397
  0
LINE
  8
_0-3_躯体と製品
  6
CONTINUOUS
 62
    3
 10
340.25211916240539
 20
71.125848697052305
 11
315.4604331624048
 21
46.334160697052397
  0
LINE
  8
_0-3_躯体と製品
  6
CONTINUOUS
 62
    3
 10
326.10811116240598
 20
71.125848697052305
 11
301.31642316240493
 21
46.334160697052397
  0
LINE
  8
_0-3_躯体と製品
  6
CONTINUOUS
 62
    3
 10
311.96410316240497
 20
71.125848697052305
 11
287.17241516240563
 21
46.334160697052397
  0
LINE
  8
_0-3_躯体と製品
  6
CONTINUOUS
 62
    3
 10
179.50740316160932
 20
399.72584869705076
 11
62.695315162405507
 21
399.72584869705076
  0
LINE
  8
_0-3_躯体と製品
  6
CONTINUOUS
 62
    4
 10
179.50740316160932
 20
398.12584869705222
 11
62.695315162405507
 21
398.12584869705222
  0
LINE
  8
_0-3_躯体と製品
  6
CONTINUOUS
 62
    4
 10
62.695315162405507
 20
438.12584869705222
 11
363.11403516240523
 21
438.12584869705222
  0
LINE
  8
_0-3_躯体と製品
  6
CONTINUOUS
 62
    3
 10
62.695315162405507
 20
448.12584869705222
 11
363.11403516240523
 21
448.12584869705222
  0
LINE
  8
_0-3_躯体と製品
  6
CONTINUOUS
 62
    3
 10
62.695315162405507
 20
443.12584869705222
 11
363.11403516240523
 21
443.12584869705222
  0
LINE
  8
_0-3_躯体と製品
  6
CONTINUOUS
 62
    4
 10
62.695315162405507
 20
453.12584869705222
 11
363.11403516240523
 21
453.12584869705222
  0
LINE
  8
_0-3_躯体と製品
  6
CONTINUOUS
 62
    4
 10
62.695315162405507
 20
471.12584869705222
 11
363.11403516240523
 21
471.12584869705222
  0
LINE
  8
_0-3_躯体と製品
  6
CONTINUOUS
 62
    3
 10
246.64797316240561
 20
399.72584869705076
 11
363.11403516240523
 21
399.72584869705076
  0
LINE
  8
_0-3_躯体と製品
  6
CONTINUOUS
 62
    4
 10
246.10740316240549
 20
398.12584869705222
 11
363.11403516240523
 21
398.12584869705222
  0
LINE
  8
_0-3_躯体と製品
  6
CONTINUOUS
 62
    3
 10
251.64797316240572
 20
403.31019869705239
 11
260.50740316240615
 21
403.31019869705267
  0
LINE
  8
_0-3_躯体と製品
  6
CONTINUOUS
 62
    3
 10
251.64797316240572
 20
408.31019869705239
 11
260.50740316240615
 21
408.31019869705267
  0
LINE
  8
_0-3_躯体と製品
  6
CONTINUOUS
 62
    3
 10
251.64797316240572
 20
408.81019869705239
 11
260.50740316240615
 21
408.81019869705267
  0
LINE
  8
_0-3_躯体と製品
  6
CONTINUOUS
 62
    3
 10
260.50740316240615
 20
402.81019869705267
 11
251.64797316240572
 21
402.81019869705239
  0
LINE
  8
_0-3_躯体と製品
  6
CONTINUOUS
 62
    4
 10
242.80740316240531
 20
393.54019002363049
 11
242.80740316240531
 21
317.1101986970524
  0
ARC
  8
_0-3_躯体と製品
  6
CONTINUOUS
 62
    4
 10
240.50740316240532
 20
317.11019869705257
 40
2.2999999999999714
 50
269.99999999999761
 51
359.99999999999534
  0
LINE
  8
_0-3_躯体と製品
  6
CONTINUOUS
 62
    4
 10
240.50740316240524
 20
314.81019869705261
 11
237.80740316240542
 21
314.81019869705261
  0
LINE
  8
_0-3_躯体と製品
  6
CONTINUOUS
 62
    3
 10
246.10740316240549
 20
321.22441225942549
 11
246.10740316240549
 21
408.39598513467928
  0
LINE
  8
_0-3_躯体と製品
  6
CONTINUOUS
 62
    4
 10
237.80740316240542
 20
329.11122669705253
 11
237.80740316240542
 21
401.10882469705251
  0
LINE
  8
_0-3_躯体と製品
  6
CONTINUOUS
 62
    4
 10
212.80740316240542
 20
312.51019869705237
 11
185.10740316240549
 21
312.51019869705237
  0
ARC
  8
_0-3_躯体と製品
  6
CONTINUOUS
 62
    4
 10
185.10740316240543
 20
317.11019869705274
 40
4.6000000000003132
 50
180.00000000000153
 51
270.00000000000068
  0
LINE
  8
_0-3_躯体と製品
  6
CONTINUOUS
 62
    4
 10
180.50740316240513
 20
317.11019869705262
 11
180.50740315968494
 21
394.81019869591898
  0
LINE
  8
_0-3_躯体と製品
  6
CONTINUOUS
 62
    4
 10
187.80740316240542
 20
329.11122669705253
 11
187.80740316240542
 21
401.12584869705239
  0
LINE
  8
_0-3_躯体と製品
  6
CONTINUOUS
 62
    3
 10
179.50740316161125
 20
408.39598513474209
 11
179.50740316159488
 21
321.22441225967771
  0
LINE
  8
_0-3_躯体と製品
  6
PLINE2
 62
    3
 10
187.80740316240542
 20
314.81019869705261
 11
237.80740316240542
 21
314.81019869705261
  0
LINE
  8
_0-3_躯体と製品
  6
CONTINUOUS
 62
    4
 10
245.1074031624056
 20
394.81019869705221
 11
245.1074031624056
 21
317.11019869705262
  0
ARC
  8
_0-3_躯体と製品
  6
CONTINUOUS
 62
    4
 10
240.50740316240575
 20
317.11019869705228
 40
4.5999999999998584
 50
270.000000000005
 51
0.0000000000041636
  0
LINE
  8
_0-3_躯体と製品
  6
CONTINUOUS
 62
    4
 10
240.50740316240615
 20
312.51019869705237
 11
212.80740316240542
 21
312.51019869705237
  0
LINE
  8
_0-3_躯体と製品
  6
CONTINUOUS
 62
    4
 10
187.22175672499168
 20
311.51019869705249
 11
238.39304959981916
 21
311.51019869705249
  0
LINE
  8
_0-3_躯体と製品
  6
CONTINUOUS
 62
    4
 10
236.30740244714957
 20
346.12584869705222
 11
189.30740316240531
 21
346.12584869705222
  0
LINE
  8
_0-3_躯体と製品
  6
CONTINUOUS
 62
    4
 10
190.10740316240549
 20
317.51019869705249
 11
235.50740316240615
 21
317.51019869705249
  0
LINE
  8
_0-3_躯体と製品
  6
CONTINUOUS
 62
    4
 10
187.80740316240542
 20
315.1101986970524
 11
187.80740316240542
 21
315.2101986970527
  0
LINE
  8
_0-3_躯体と製品
  6
CONTINUOUS
 62
    4
 10
187.80740316240542
 20
314.81019869705261
 11
185.10740316240549
 21
314.81019869705261
  0
ARC
  8
_0-3_躯体と製品
  6
CONTINUOUS
 62
    4
 10
185.1074031624054
 20
317.11019869705257
 40
2.2999999999999714
 50
180.00000000000469
 51
270.00000000000244
  0
LINE
  8
_0-3_躯体と製品
  6
CONTINUOUS
 62
    4
 10
182.80740316240542
 20
317.1101986970524
 11
182.80740316240542
 21
393.54019002359462
  0
ARC
  8
_0-3_躯体と製品
  6
CONTINUOUS
 62
    4
 10
187.22175672499154
 20
313.01039669705256
 40
1.500198000000073
 50
199.47656789581461
 51
270.00000000000506
  0
LINE
  8
_0-3_躯体と製品
  6
CONTINUOUS
 62
    4
 10
187.80740316240542
 20
315.1101986970524
 11
187.80740316240542
 21
312.51019869705237
  0
LINE
  8
_0-3_躯体と製品
  6
CONTINUOUS
 62
    4
 10
192.30844759097715
 20
336.12584869705222
 11
191.80740316240542
 21
329.11122669705253
  0
ARC
  8
_0-3_躯体と製品
  6
CONTINUOUS
 62
    3
 10
181.00740316159477
 20
321.22441225967782
 40
1.4999999999998996
 50
180.00000000000438
 51
250.52877939440043
  0
ARC
  8
_0-3_躯体と製品
  6
CONTINUOUS
 62
    4
 10
190.10740316240535
 20
315.21019869705253
 40
2.2999999999999261
 50
89.999999999996433
 51
179.99999999999645
  0
LINE
  8
_0-3_躯体と製品
  6
CONTINUOUS
 62
    4
 10
191.80740316240542
 20
329.11122669705253
 11
187.80740316240542
 21
329.11122669705253
  0
LINE
  8
_0-3_躯体と製品
  6
CONTINUOUS
 62
    4
 10
237.80740316240542
 20
315.1101986970524
 11
237.80740316240542
 21
315.2101986970527
  0
ARC
  8
_0-3_躯体と製品
  6
CONTINUOUS
 62
    4
 10
238.39304959981931
 20
313.01039669705256
 40
1.500198000000073
 50
269.99999999999488
 51
340.52343210418536
  0
LINE
  8
_0-3_躯体と製品
  6
CONTINUOUS
 62
    4
 10
237.80740316240542
 20
315.1101986970524
 11
237.80740316240542
 21
312.51019869705237
  0
LINE
  8
_0-3_躯体と製品
  6
CONTINUOUS
 62
    4
 10
202.05583651954828
 20
336.12584869705222
 11
202.80740316240542
 21
329.11122669705253
  0
LINE
  8
_0-3_躯体と製品
  6
CONTINUOUS
 62
    4
 10
207.05896980526256
 20
336.12584869705222
 11
206.30740316240542
 21
329.11122669705253
  0
LINE
  8
_0-3_躯体と製品
  6
CONTINUOUS
 62
    4
 10
218.55583651954828
 20
336.12584869705222
 11
219.30740316240542
 21
329.11122669705253
  0
LINE
  8
_0-3_躯体と製品
  6
CONTINUOUS
 62
    4
 10
223.55896980526256
 20
336.12584869705222
 11
222.80740316240542
 21
329.11122669705253
  0
LINE
  8
_0-3_躯体と製品
  6
CONTINUOUS
 62
    4
 10
202.80740316240542
 20
329.11122669705253
 11
206.30740316240542
 21
329.11122669705253
  0
LINE
  8
_0-3_躯体と製品
  6
CONTINUOUS
 62
    4
 10
219.30740316240542
 20
329.11122669705253
 11
222.80740316240542
 21
329.11122669705253
  0
LINE
  8
_0-3_躯体と製品
  6
CONTINUOUS
 62
    4
 10
233.80740316240531
 20
329.11122669705253
 11
233.30635873383358
 21
336.12584869705222
  0
ARC
  8
_0-3_躯体と製品
  6
CONTINUOUS
 62
    4
 10
235.50740316240589
 20
315.21019869705299
 40
2.2999999999995282
 50
359.99999999999363
 51
89.999999999993634
  0
LINE
  8
_0-3_躯体と製品
  6
CONTINUOUS
 62
    4
 10
237.80740316240542
 20
329.11122669705253
 11
233.77940316240517
 21
329.11122669705253
  0
ARC
  8
_0-3_躯体と製品
  6
CONTINUOUS
 62
    3
 10
244.60740316240577
 20
321.22441225942555
 40
1.499999999999722
 50
289.47122063448779
 51
359.99999999999756
  0
LINE
  8
_0-3_躯体と製品
  6
CONTINUOUS
 62
    4
 10
192.80740316240531
 20
403.12584869705239
 11
232.80740316240542
 21
403.12584869705239
  0
LINE
  8
_0-3_躯体と製品
  6
CONTINUOUS
 62
    3
 10
242.80740316240531
 20
403.31019869705239
 11
182.80740316240542
 21
403.31019869705267
  0
LINE
  8
_0-3_躯体と製品
  6
CONTINUOUS
 62
    3
 10
242.80740316240531
 20
408.31019869705239
 11
182.80740316240542
 21
408.31019869705267
  0
ARC
  8
_0-3_躯体と製品
  6
CONTINUOUS
 62
    4
 10
179.26902281116327
 20
397.8101986970529
 40
3.2455486276349568
 50
292.43051456130456
 51
67.569485438675883
  0
ARC
  8
_0-3_躯体と製品
  6
CONTINUOUS
 62
    4
 10
179.26902281116296
 20
397.81019869705244
 40
5.5455486276349601
 50
309.64714376104513
 51
50.352856238954857
  0
LINE
  8
_0-3_躯体と製品
  6
CONTINUOUS
 62
    4
 10
192.80740316240531
 20
403.12584869705239
 11
192.80740316240531
 21
396.12584869705222
  0
LINE
  8
_0-3_躯体と製品
  6
CONTINUOUS
 62
    4
 10
192.80740316240531
 20
398.12584869705239
 11
187.80740316240542
 21
398.12584869705222
  0
LINE
  8
_0-3_躯体と製品
  6
CONTINUOUS
 62
    4
 10
182.80740316240542
 20
414.81019869705267
 11
180.50740316240513
 21
414.81019869705267
  0
LINE
  8
_0-3_躯体と製品
  6
CONTINUOUS
 62
    4
 10
180.50740315968494
 20
400.81019869818613
 11
180.50740316240513
 21
414.81019869705267
  0
ARC
  8
_0-3_躯体と製品
  6
CONTINUOUS
 62
    3
 10
181.00740316161148
 20
408.3959851347422
 40
1.5000000000002276
 50
109.47122064168667
 51
180.00000000000304
  0
ARC
  8
_0-3_躯体と製品
  6
CONTINUOUS
 62
    3
 10
179.50740316167668
 20
408.06019869705267
 40
3.0000000000000568
 50
89.999999999998934
 51
179.99999999999892
  0
LINE
  8
_0-3_躯体と製品
  6
CONTINUOUS
 62
    3
 10
176.50740316167662
 20
408.06019869705267
 11
176.50740316245788
 21
403.56026714794541
  0
LINE
  8
_0-3_躯体と製品
  6
CONTINUOUS
 62
    3
 10
180.50740316167662
 20
411.06019869705267
 11
179.50740316167673
 21
411.06019869705267
  0
LINE
  8
_0-3_躯体と製品
  6
CONTINUOUS
 62
    4
 10
182.80740316240542
 20
402.08020737051027
 11
182.80740316240542
 21
414.81019869705267
  0
LINE
  8
_0-3_躯体と製品
  6
CONTINUOUS
 62
    3
 10
187.80740316240542
 20
399.72584869705076
 11
192.80740316240531
 21
399.72584869705099
  0
LINE
  8
_0-3_躯体と製品
  6
CONTINUOUS
 62
    4
 10
183.71419791768574
 20
401.12584763109442
 11
187.80740316240542
 21
401.12587869705237
  0
ARC
  8
_0-3_躯体と製品
  6
CONTINUOUS
 62
    4
 10
246.34578351375552
 20
397.81019869705256
 40
3.2455486276758565
 50
112.43051456307036
 51
247.56948543692963
  0
ARC
  8
_0-3_躯体と製品
  6
CONTINUOUS
 62
    4
 10
246.34578351375515
 20
397.81019869705244
 40
5.5455486276759887
 50
129.6471437621347
 51
230.35285623786527
  0
LINE
  8
_0-3_躯体と製品
  6
CONTINUOUS
 62
    4
 10
232.80740316240542
 20
403.12584869705239
 11
232.80740316240542
 21
396.12584869705222
  0
LINE
  8
_0-3_躯体と製品
  6
CONTINUOUS
 62
    4
 10
237.80740316240542
 20
398.12584869705222
 11
232.80740316240542
 21
398.12584869705222
  0
LINE
  8
_0-3_躯体と製品
  6
CONTINUOUS
 62
    4
 10
242.80740316240531
 20
414.81019869705267
 11
245.1074031624056
 21
414.81019869705267
  0
LINE
  8
_0-3_躯体と製品
  6
CONTINUOUS
 62
    4
 10
242.80740316240531
 20
402.08020737047428
 11
242.80740316240531
 21
414.81019869705267
  0
LINE
  8
_0-3_躯体と製品
  6
CONTINUOUS
 62
    3
 10
237.50740316240615
 20
408.81019869705267
 11
237.00740316240615
 21
408.31019869705267
  0
LINE
  8
_0-3_躯体と製品
  6
CONTINUOUS
 62
    3
 10
237.50740316240615
 20
402.81019869705267
 11
237.00740316240615
 21
403.31019869705267
  0
LINE
  8
_0-3_躯体と製品
  6
CONTINUOUS
 62
    3
 10
232.80740316240542
 20
399.72584869705076
 11
237.80740316240542
 21
399.72584869705076
  0
LINE
  8
_0-3_躯体と製品
  6
CONTINUOUS
 62
    4
 10
241.90060840718138
 20
401.12584763109442
 11
237.80740316240542
 21
401.12587869705237
  0
LINE
  8
_0-3_躯体と製品
  6
CONTINUOUS
 62
    3
 10
242.80740316240531
 20
408.81019869705267
 11
237.50740316240615
 21
408.81019869705267
  0
LINE
  8
_0-3_躯体と製品
  6
CONTINUOUS
 62
    3
 10
242.80740316240531
 20
402.81019869705267
 11
237.50740316240615
 21
402.81019869705267
  0
LINE
  8
_0-3_躯体と製品
  6
CONTINUOUS
 62
    3
 10
237.50740316240615
 20
402.81019869705267
 11
237.50740316240615
 21
408.81019869705267
  0
LINE
  8
_0-3_躯体と製品
  6
CONTINUOUS
 62
    4
 10
245.1074031624056
 20
414.81019869705267
 11
245.1074031624056
 21
400.81019869705267
  0
LINE
  8
_0-3_躯体と製品
  6
CONTINUOUS
 62
    3
 10
251.64797316240572
 20
401.43519869705239
 11
251.64797316240572
 21
410.18519869705239
  0
LINE
  8
_0-3_躯体と製品
  6
CONTINUOUS
 62
    3
 10
251.64797316240572
 20
410.18519869705239
 11
251.64797316240572
 21
401.43519869705239
  0
LINE
  8
_0-3_躯体と製品
  6
CONTINUOUS
 62
    3
 10
246.64797316240561
 20
401.43519869705239
 11
246.64797316240561
 21
410.18519869705239
  0
LINE
  8
_0-3_躯体と製品
  6
CONTINUOUS
 62
    3
 10
246.64797316240561
 20
411.91019869705241
 11
246.64797316240561
 21
399.71019869705253
  0
LINE
  8
_0-3_躯体と製品
  6
CONTINUOUS
 62
    3
 10
251.04797316240536
 20
408.31019869705239
 11
247.24797316240517
 21
408.31019869705239
  0
LINE
  8
_0-3_躯体と製品
  6
CONTINUOUS
 62
    3
 10
251.04797316240536
 20
403.31019869705239
 11
247.24797316240517
 21
403.31019869705239
  0
LINE
  8
_0-3_躯体と製品
  6
CONTINUOUS
 62
    3
 10
251.04797316240536
 20
400.81019869705239
 11
247.24797316240517
 21
400.81019869705239
  0
ARC
  8
_0-3_躯体と製品
  6
CONTINUOUS
 62
    3
 10
248.25005716240551
 20
409.56019869705221
 40
1.6020839999999068
 50
179.99999999999417
 51
231.28201199999916
  0
ARC
  8
_0-3_躯体と製品
  6
CONTINUOUS
 62
    3
 10
252.1563071624056
 20
405.81019869705239
 40
5.5083339999996346
 50
153.00853300000176
 51
206.99146699999824
  0
ARC
  8
_0-3_躯体と製品
  6
CONTINUOUS
 62
    3
 10
248.25005716240545
 20
402.0601986970525
 40
1.6020839999998615
 50
128.71798800000008
 51
180.00000000000304
  0
LINE
  8
_0-3_躯体と製品
  6
CONTINUOUS
 62
    3
 10
246.64797316240561
 20
401.43519869705239
 11
247.24797316240517
 21
400.81019869705239
  0
ARC
  8
_0-3_躯体と製品
  6
CONTINUOUS
 62
    3
 10
250.0458891624055
 20
409.56019869705329
 40
1.6020840000002119
 50
308.71798799996441
 51
359.99999999996737
  0
ARC
  8
_0-3_躯体と製品
  6
CONTINUOUS
 62
    3
 10
246.13963916240584
 20
405.81019869705239
 40
5.5083339999996346
 50
333.00853300000176
 51
26.991466999998252
  0
ARC
  8
_0-3_躯体と製品
  6
CONTINUOUS
 62
    3
 10
250.04588916240542
 20
402.06019869705153
 40
1.6020840000003165
 50
0.0000000000308538
 51
51.282012000033809
  0
LINE
  8
_0-3_躯体と製品
  6
CONTINUOUS
 62
    3
 10
251.64797316240572
 20
401.43519869705239
 11
251.04797316240536
 21
400.81019869705239
  0
LINE
  8
_0-3_躯体と製品
  6
CONTINUOUS
 62
    3
 10
251.04797316240536
 20
410.81019869705239
 11
247.24797316240517
 21
410.81019869705239
  0
LINE
  8
_0-3_躯体と製品
  6
CONTINUOUS
 62
    3
 10
246.64797316240561
 20
411.91019869705241
 11
245.1074031624056
 21
411.91019869705241
  0
LINE
  8
_0-3_躯体と製品
  6
CONTINUOUS
 62
    3
 10
246.64797316240561
 20
410.18519869705239
 11
247.24797316240517
 21
410.81019869705239
  0
LINE
  8
_0-3_躯体と製品
  6
CONTINUOUS
 62
    3
 10
251.64797316240572
 20
410.18519869705239
 11
251.04797316240536
 21
410.81019869705239
  0
LINE
  8
_0-3_躯体と製品
  6
CONTINUOUS
 62
    3
 10
260.50740316240615
 20
408.81019869705267
 11
260.50740316240615
 21
402.81019869705267
  0
LINE
  8
_0-3_躯体と製品
  6
CONTINUOUS
 62
    3
 10
595.06175272675659
 20
281.520014417097
 11
595.06175272665666
 21
190.11604180919161
  0
LINE
  8
_0-3_躯体と製品
  6
CONTINUOUS
 62
    3
 10
608.06175272675671
 20
281.52001448560151
 11
608.06175272665678
 21
190.11604157691849
  0
LINE
  8
_0-3_躯体と製品
  6
CONTINUOUS
 62
    4
 10
593.56175272675671
 20
281.66804647892934
 11
593.56175272665655
 21
189.96800999686261
  0
LINE
  8
_0-3_躯体と製品
  6
CONTINUOUS
 62
    4
 10
609.56175272677024
 20
281.66804651843267
 11
609.56175272667019
 21
189.96800929458348
  0
LINE
  8
_0-3_躯体と製品
  6
CONTINUOUS
 62
    3
 10
699.97920072675481
 20
71.125848697052305
 11
675.18751472675569
 21
46.334160697052397
  0
LINE
  8
_0-3_躯体と製品
  6
CONTINUOUS
 62
    4
 10
400.03599472675501
 20
71.125848697052305
 11
735.75749072675478
 21
71.125848697052305
  0
LINE
  8
_0-3_躯体と製品
  6
CONTINUOUS
 62
    3
 10
685.83519272675574
 20
71.125848697052305
 11
661.0435067267548
 21
46.334160697052397
  0
LINE
  8
_0-3_躯体と製品
  6
CONTINUOUS
 62
    3
 10
502.66257272675546
 20
71.125848697052305
 11
477.87088472675521
 21
46.334160697052397
  0
LINE
  8
_0-3_躯体と製品
  6
CONTINUOUS
 62
    3
 10
516.80658271606603
 20
71.125848697052305
 11
492.01489272675531
 21
46.334160697052397
  0
LINE
  8
_0-3_躯体と製品
  6
CONTINUOUS
 62
    3
 10
530.95059072675554
 20
71.125848697052305
 11
506.15890272675529
 21
46.334160697052397
  0
LINE
  8
_0-3_躯体と製品
  6
CONTINUOUS
 62
    3
 10
671.69118472675575
 20
71.125848697052305
 11
646.89949872675572
 21
46.334160697052397
  0
LINE
  8
_0-3_躯体と製品
  6
CONTINUOUS
 62
    4
 10
626.56175272674068
 20
346.12584869705222
 11
735.75749072675478
 21
346.12584869705222
  0
LINE
  8
_0-3_躯体と製品
  6
PLINE2
 62
    3
 10
626.56175272674068
 20
347.72584869705236
 11
735.75749072675478
 21
347.72584869705236
  0
LINE
  8
_0-3_躯体と製品
  6
CONTINUOUS
 62
    3
 10
399.49090872675504
 20
443.12584869705222
 11
735.75883872675479
 21
443.12624208472505
  0
LINE
  8
_0-3_躯体と製品
  6
CONTINUOUS
 62
    3
 10
399.49090872675504
 20
448.12584869705222
 11
735.75883872675479
 21
448.12584869705222
  0
LINE
  8
_0-3_躯体と製品
  6
CONTINUOUS
 62
    4
 10
626.56175272674068
 20
396.12584869705222
 11
735.75883872675479
 21
396.12584869705222
  0
LINE
  8
_0-3_躯体と製品
  6
CONTINUOUS
 62
    4
 10
399.49090872675504
 20
453.12584869705222
 11
735.75883872675479
 21
453.12584869705222
  0
LINE
  8
_0-3_躯体と製品
  6
CONTINUOUS
 62
    4
 10
399.49090872675504
 20
438.12584869705222
 11
735.75883872675479
 21
438.12584869705222
  0
LINE
  8
_0-3_躯体と製品
  6
PLINE2
 62
    3
 10
626.56258672674073
 20
394.52584869705231
 11
735.75883872675479
 21
394.52584869705231
  0
LINE
  8
_0-3_躯体と製品
  6
CONTINUOUS
 62
    4
 10
399.49090872675504
 20
471.12584869705222
 11
735.75883872675479
 21
471.12584869705222
  0
LINE
  8
_0-3_躯体と製品
  6
CONTINUOUS
 62
    4
 10
399.49090872675504
 20
346.12584869705222
 11
576.56175272675569
 21
346.12584869705222
  0
LINE
  8
_0-3_躯体と製品
  6
PLINE2
 62
    3
 10
399.49090872675504
 20
347.72584869705236
 11
576.56175272675569
 21
347.72584869705236
  0
LINE
  8
_0-3_躯体と製品
  6
CONTINUOUS
 62
    4
 10
576.56175272675569
 20
396.12584869705222
 11
399.49090872675504
 21
396.12584869705222
  0
LINE
  8
_0-3_躯体と製品
  6
PLINE2
 62
    3
 10
399.49090872675504
 20
394.52584869705231
 11
576.5623527267561
 21
394.52584869705231
  0
LINE
  8
_0-3_躯体と製品
  6
CONTINUOUS
 62
    3
 10
611.56175172674273
 20
404.8102246970526
 11
611.56175172684175
 21
325.06388706076018
  0
LINE
  8
_0-3_躯体と製品
  6
CONTINUOUS
 62
    3
 10
591.56177722683594
 20
324.8099590607481
 11
591.56177722673681
 21
404.8102246970401
  0
LINE
  8
_0-3_躯体と製品
  6
CONTINUOUS
 62
    3
 10
581.56182922673702
 20
404.8102246970401
 11
581.56182922683615
 21
325.06388706074802
  0
LINE
  8
_0-3_躯体と製品
  6
CONTINUOUS
 62
    3
 10
621.56170172684176
 20
324.8099590607606
 11
621.56170172674274
 21
404.8102246970526
  0
LINE
  8
_0-3_躯体と製品
  6
CONTINUOUS
 62
    4
 10
626.56175272674068
 20
410.82299469705259
 11
626.5617527268397
 21
312.51019869705237
  0
LINE
  8
_0-3_躯体と製品
  6
CONTINUOUS
 62
    4
 10
576.56175272675569
 20
410.82299469705259
 11
576.56175272685505
 21
312.51019869705237
  0
LINE
  8
_0-3_躯体と製品
  6
CONTINUOUS
 62
    4
 10
626.5617527268397
 20
312.51019869705237
 11
576.56175272685505
 21
312.51019869705237
  0
LINE
  8
_0-3_躯体と製品
  6
CONTINUOUS
 62
    4
 10
574.56175272685482
 20
314.4981926970525
 11
574.56175272685039
 21
317.51019869705249
  0
LINE
  8
_0-3_躯体と製品
  6
CONTINUOUS
 62
    4
 10
582.97596063226308
 20
311.51019869705249
 11
620.14754482124772
 21
311.51019869705249
  0
ARC
  8
_0-3_躯体と製品
  6
CONTINUOUS
 62
    4
 10
576.54974872685455
 20
314.49819269705267
 40
1.9879939999999447
 50
180.00000000000517
 51
270.34596820554987
  0
ARC
  8
_0-3_躯体と製品
  6
CONTINUOUS
 62
    4
 10
582.97596063226308
 20
313.01019069705239
 40
1.499991999999897
 50
199.47100455756714
 51
269.99999999999875
  0
ARC
  8
_0-3_躯体と製品
  6
CONTINUOUS
 62
    4
 10
620.14754482124795
 20
313.01019069705279
 40
1.4999920000002989
 50
269.99999999999039
 51
340.528995442422
  0
LINE
  8
_0-3_躯体と製品
  6
CONTINUOUS
 62
    4
 10
576.56175272685027
 20
317.51019869705249
 11
574.56175272685039
 21
317.51019869705249
  0
ARC
  8
_0-3_躯体と製品
  6
CONTINUOUS
 62
    3
 10
586.56180322683633
 20
324.80995906074816
 40
4.9999739999996429
 50
177.08893599999919
 51
359.9999999999996
  0
ARC
  8
_0-3_躯体と製品
  6
CONTINUOUS
 62
    3
 10
616.56172572684193
 20
324.80995906076055
 40
4.9999739999998694
 50
177.0889359999999
 51
0.0000000000002842
  0
LINE
  8
_0-3_躯体と製品
  6
CONTINUOUS
 62
    4
 10
628.5617527268397
 20
314.4981926970525
 11
628.5617527268347
 21
317.51019869705249
  0
ARC
  8
_0-3_躯体と製品
  6
CONTINUOUS
 62
    4
 10
626.57375872683974
 20
314.4981926970525
 40
1.9879939999998875
 50
269.65397415160749
 51
359.99999999999977
  0
LINE
  8
_0-3_躯体と製品
  6
CONTINUOUS
 62
    4
 10
626.5617527268347
 20
317.51019869705249
 11
628.5617527268347
 21
317.51019869705249
  0
LINE
  8
_0-3_躯体と製品
  6
CONTINUOUS
 62
    3
 10
621.56170172674274
 20
394.81019869705267
 11
626.56175272674068
 21
394.81019869705267
  0
LINE
  8
_0-3_躯体と製品
  6
CONTINUOUS
 62
    3
 10
621.56170172674274
 20
400.81019869705267
 11
626.56175272674068
 21
400.81019869705267
  0
ARC
  8
_0-3_躯体と製品
  6
CONTINUOUS
 62
    4
 10
622.56166347166345
 20
410.81010944052713
 40
4.0001092565694005
 50
0.0015649417037126
 51
90.000268493690896
  0
LINE
  8
_0-3_躯体と製品
  6
CONTINUOUS
 62
    3
 10
591.56177722673681
 20
394.81019869704016
 11
611.56175172674273
 21
394.81019869705267
  0
LINE
  8
_0-3_躯体と製品
  6
CONTINUOUS
 62
    3
 10
576.56175272675569
 20
394.81019869705267
 11
581.56182922673702
 21
394.81019869704016
  0
LINE
  8
_0-3_躯体と製品
  6
CONTINUOUS
 62
    3
 10
600.2220592332485
 20
400.81019869705267
 11
591.56177722673772
 21
400.81019869704016
  0
LINE
  8
_0-3_躯体と製品
  6
CONTINUOUS
 62
    4
 10
622.57442072675576
 20
414.81019869705267
 11
580.5489567267557
 21
414.81019869705267
  0
LINE
  8
_0-3_躯体と製品
  6
CONTINUOUS
 62
    3
 10
576.56175272675569
 20
400.81019869705267
 11
581.56182922673702
 21
400.81019869704016
  0
ARC
  8
_0-3_躯体と製品
  6
CONTINUOUS
 62
    4
 10
580.56173272675528
 20
410.81021869705268
 40
3.9999999999999427
 50
90.00000000000081
 51
180.00000000000082
  0
ARC
  8
_0-3_躯体と製品
  6
CONTINUOUS
 62
    3
 10
586.56180322673686
 20
404.8102246970401
 40
4.9999739999998951
 50
0.000000000000007
 51
179.99999999999997
  0
LINE
  8
_0-3_躯体と製品
  6
CONTINUOUS
 62
    3
 10
602.90136672675521
 20
400.81019869705267
 11
611.56175172674375
 21
400.81019869705267
  0
LINE
  8
_0-3_躯体と製品
  6
CONTINUOUS
 62
    3
 10
601.56175272675569
 20
411.58367269705229
 11
606.56172672675518
 21
408.69693669705237
  0
LINE
  8
_0-3_躯体と製品
  6
CONTINUOUS
 62
    3
 10
596.56177672675562
 20
408.69693669705237
 11
601.56175272675569
 21
411.58367269705229
  0
CIRCLE
  8
_0-3_躯体と製品
  6
CONTINUOUS
 62
    3
 10
601.56175272675569
 20
405.81019869705267
 40
4.999973999999999
  0
LINE
  8
_0-3_躯体と製品
  6
CONTINUOUS
 62
    3
 10
601.56175272675569
 20
400.03672669705242
 11
596.56177672675562
 21
402.92346269705229
  0
CIRCLE
  8
_0-3_躯体と製品
  6
CONTINUOUS
 62
    3
 10
601.56175272675569
 20
405.81019869705267
 40
2.4999880000000001
  0
CIRCLE
  8
_0-3_躯体と製品
  6
CONTINUOUS
 62
    3
 10
601.56175272675569
 20
405.81019869705267
 40
2.9999839999999991
  0
LINE
  8
_0-3_躯体と製品
  6
CONTINUOUS
 62
    3
 10
596.56177672675562
 20
402.92346269705229
 11
596.56177672675562
 21
408.69693669705237
  0
LINE
  8
_0-3_躯体と製品
  6
CONTINUOUS
 62
    4
 10
596.06178072675527
 20
404.56020469705243
 11
596.46275872675574
 21
404.56020469705243
  0
ARC
  8
_0-3_躯体と製品
  6
CONTINUOUS
 62
    4
 10
596.06178072675584
 20
405.06020269705215
 40
0.4999979999997563
 50
179.9999999999373
 51
269.9999999999373
  0
LINE
  8
_0-3_躯体と製品
  6
CONTINUOUS
 62
    4
 10
595.56178272675606
 20
406.56019469705268
 11
595.56178272675606
 21
405.06020269705272
  0
ARC
  8
_0-3_躯体と製品
  6
CONTINUOUS
 62
    4
 10
596.06178072675561
 20
406.56019469705302
 40
0.4999979999995076
 50
90.000000000034191
 51
180.00000000003419
  0
LINE
  8
_0-3_躯体と製品
  6
CONTINUOUS
 62
    4
 10
596.46275872675574
 20
407.06019269705251
 11
596.06178072675527
 21
407.06019269705251
  0
LINE
  8
_0-3_躯体と製品
  6
CONTINUOUS
 62
    3
 10
606.56172672675518
 20
402.92346269705229
 11
601.56175272675569
 21
400.03672669705242
  0
LINE
  8
_0-3_躯体と製品
  6
CONTINUOUS
 62
    3
 10
606.56172672675518
 20
408.69693669705237
 11
606.56172672675518
 21
402.92346269705229
  0
LINE
  8
_0-3_躯体と製品
  6
CONTINUOUS
 62
    4
 10
607.06172472675541
 20
404.56020469705243
 11
606.66074472675598
 21
404.56020469705243
  0
ARC
  8
_0-3_躯体と製品
  6
CONTINUOUS
 62
    4
 10
607.0617247267553
 20
405.0602026970526
 40
0.499998000000211
 50
270.00000000001057
 51
0.0000000000105976
  0
LINE
  8
_0-3_躯体と製品
  6
CONTINUOUS
 62
    4
 10
607.56172072675588
 20
406.56019469705268
 11
607.56172072675588
 21
405.06020269705272
  0
ARC
  8
_0-3_躯体と製品
  6
CONTINUOUS
 62
    4
 10
607.06172472675553
 20
406.56019469705257
 40
0.4999979999999624
 50
0.0000000000179207
 51
90.000000000017934
  0
LINE
  8
_0-3_躯体と製品
  6
CONTINUOUS
 62
    4
 10
606.66074472675598
 20
407.06019269705251
 11
607.06172472675541
 21
407.06019269705251
  0
ARC
  8
_0-3_躯体と製品
  6
CONTINUOUS
 62
    3
 10
616.56172572674325
 20
404.8102246970526
 40
4.9999739999994972
 50
0.000000000000007
 51
179.99999999999997
  0
TEXT
  8
_0-4_文字-記号
 62
    7
 10
59.99799938641064
 20
537.56979589000446
 40
13
 41
1
 50
0
  1
■スリーベース２０１ＭＢ型（武道場用高強度タイプ）
  0
INSERT
  2
-001-_D2
  8
_0-2_寸法
 10
-390.00373242987428
 20
525.37492286376403
 41
1
 42
1
 50
0
  0
INSERT
  2
-002-_D3
  8
_0-2_寸法
 10
-390.00373242987428
 20
525.37492286376403
 41
1
 42
1
 50
0
  0
INSERT
  2
-003-_D4
  8
_0-2_寸法
 10
-390.00373242987428
 20
525.37492286376403
 41
1
 42
1
 50
0
  0
LINE
  8
_0-3_躯体と製品
  6
CONTINUOUS
 62
    3
 10
167.67738616240581
 20
458.12571269705256
 11
167.67738616240581
 21
453.12584869705222
  0
ARC
  8
_0-3_躯体と製品
  6
CONTINUOUS
 62
    3
 10
158.67615016240569
 20
464.12571069705211
 40
1.0001380000002766
 50
89.999999999990223
 51
179.99999999999022
  0
ARC
  8
_0-3_躯体と製品
  6
CONTINUOUS
 62
    3
 10
166.67724816240485
 20
466.12598469705244
 40
1.0001380000000493
 50
269.99999999999022
 51
359.99999999999022
  0
LINE
  8
_0-3_躯体と製品
  6
CONTINUOUS
 62
    3
 10
166.67724816240468
 20
459.12584869705222
 11
158.67615016240586
 21
459.12584869705222
  0
LINE
  8
_0-3_躯体と製品
  6
CONTINUOUS
 62
    3
 10
157.67601416240518
 20
464.12571069705234
 11
157.67601416240518
 21
460.12598669705255
  0
ARC
  8
_0-3_躯体と製品
  6
CONTINUOUS
 62
    3
 10
158.67615016240569
 20
460.12598669705267
 40
1.0001380000002766
 50
180.00000000000978
 51
270.00000000000978
  0
ARC
  8
_0-3_躯体と製品
  6
CONTINUOUS
 62
    3
 10
166.67724816240485
 20
458.12571269705234
 40
1.0001380000000493
 50
0.0000000000097748
 51
90.000000000009777
  0
LINE
  8
_0-3_躯体と製品
  6
CONTINUOUS
 62
    3
 10
166.67724816240468
 20
465.12584869705222
 11
158.67615016240586
 21
465.12584869705222
  0
LINE
  8
_0-3_躯体と製品
  6
CONTINUOUS
 62
    3
 10
167.67738616240581
 20
466.12598469705233
 11
167.67738616240581
 21
471.12584869705222
  0
LINE
  8
_0-3_躯体と製品
  6
CONTINUOUS
 62
    4
 10
212.80740316240542
 20
344.12584869705222
 11
189.30740316240531
 21
344.12584869705222
  0
LINE
  8
_0-3_躯体と製品
  6
CONTINUOUS
 62
    4
 10
189.30740316240531
 20
346.12584869705222
 11
189.30740316240531
 21
336.12584869705222
  0
LINE
  8
_0-3_躯体と製品
  6
CONTINUOUS
 62
    4
 10
236.30740244714957
 20
346.12584869705222
 11
236.30740244714957
 21
336.12584869705222
  0
LINE
  8
_0-3_躯体と製品
  6
CONTINUOUS
 62
    4
 10
212.80740316240542
 20
344.12584869705222
 11
236.30740244714957
 21
344.12584869705222
  0
LINE
  8
_0-3_躯体と製品
  6
CONTINUOUS
 62
    4
 10
189.30740316240531
 20
336.12584869705222
 11
236.30740244714957
 21
336.12584869705222
  0
LINE
  8
_0-5_中心線
  6
CENTER1
 62
    7
 10
212.80740316240542
 20
56.826273816618112
 11
212.80740316240542
 21
419.82862032739183
  0
LINE
  8
_0-5_中心線
  6
CENTER1
 62
    7
 10
601.56175272675569
 20
56.826273816618112
 11
601.56175272675569
 21
419.82862032739183
  0
LINE
  8
_0-3_躯体と製品
  6
CONTINUOUS
 62
    4
 10
204.80740316240531
 20
156.92584801333342
 11
204.80740316240531
 21
133.01019869705252
  0
LINE
  8
_0-3_躯体と製品
  6
CONTINUOUS
 62
    4
 10
220.80740316240542
 20
156.92584801333342
 11
220.80740316240542
 21
133.01019869705252
  0
LINE
  8
_0-3_躯体と製品
  6
CONTINUOUS
 62
    3
 10
219.30740316240542
 20
156.92584801333342
 11
219.30740316240542
 21
131.5101986970524
  0
LINE
  8
_0-3_躯体と製品
  6
CONTINUOUS
 62
    3
 10
206.30740316240542
 20
156.92584801333342
 11
206.30740316240542
 21
131.5101986970524
  0
LINE
  8
_0-3_躯体と製品
  6
CONTINUOUS
 62
    4
 10
206.30740316240542
 20
131.5101986970524
 11
219.30740316240542
 21
131.5101986970524
  0
LINE
  8
_0-3_躯体と製品
  6
CONTINUOUS
 62
    4
 10
204.80740316240531
 20
133.01019869705252
 11
206.30740316240542
 21
131.5101986970524
  0
LINE
  8
_0-3_躯体と製品
  6
CONTINUOUS
 62
    4
 10
220.80740316240542
 20
133.01019869705252
 11
219.30740316240542
 21
131.5101986970524
  0
LINE
  8
_0-3_躯体と製品
  6
CONTINUOUS
 62
    3
 10
204.80740316240531
 20
133.01019869705252
 11
220.80740316240542
 21
133.01019869705252
  0
LINE
  8
_0-3_躯体と製品
  6
CONTINUOUS
 62
    4
 10
175.49862409433058
 20
76.325848697034672
 11
144.8074031962658
 21
76.325848697034672
  0
LINE
  8
_0-3_躯体と製品
  6
CONTINUOUS
 62
    4
 10
144.8074031962658
 20
76.325848697034672
 11
144.8074031962658
 21
73.125848697052191
  0
LINE
  8
_0-3_躯体と製品
  6
CONTINUOUS
 62
    4
 10
144.8074031962658
 20
73.125848697052191
 11
175.49862409433058
 21
73.125848697052191
  0
ARC
  8
_0-3_躯体と製品
  6
CONTINUOUS
 62
    4
 10
175.49862409433126
 20
80.325848697058177
 40
7.200000000005998
 50
269.99999999999454
 51
352.46565723241537
  0
LINE
  8
_0-3_躯体と製品
  6
CONTINUOUS
 62
    4
 10
182.6364625099576
 20
79.381781563589726
 11
194.15235157392988
 21
166.45033043784977
  0
ARC
  8
_0-3_躯体と製品
  6
CONTINUOUS
 62
    4
 10
198.11781736037631
 20
165.92584869705206
 40
3.9999999999884284
 50
90.000000000231282
 51
172.46565723264874
  0
LINE
  8
_0-3_躯体と製品
  6
CONTINUOUS
 62
    4
 10
198.11781736036016
 20
169.92584869704049
 11
212.8074031962658
 21
169.92584869704049
  0
LINE
  8
_0-3_躯体と製品
  6
CONTINUOUS
 62
    4
 10
171.94344855569022
 20
76.325848697034672
 11
183.47885991941973
 21
163.5420004442179
  0
ARC
  8
_0-3_躯体と製品
  6
CONTINUOUS
 62
    4
 10
187.44432570588651
 20
163.01751870340121
 40
4.0000000000111013
 50
97.534342767582473
 51
172.46565723241753
  0
LINE
  8
_0-3_躯体と製品
  6
CONTINUOUS
 62
    4
 10
186.91984396506984
 20
166.98298448986802
 11
191.06748977979237
 21
167.53156178551339
  0
ARC
  8
_0-3_躯体と製品
  6
CONTINUOUS
 62
    4
 10
198.1462974183529
 20
165.85014458981826
 40
7.2757598482716741
 50
90.224277783048734
 51
166.63824627910046
  0
LINE
  8
_0-3_躯体と製品
  6
CONTINUOUS
 62
    4
 10
198.11781736038927
 20
173.12584869705219
 11
212.8074031962658
 21
173.12584869705219
  0
LINE
  8
_0-3_躯体と製品
  6
CONTINUOUS
 62
    4
 10
173.30740319626591
 20
76.325848697034672
 11
173.30740319626591
 21
73.125848697052191
  0
LINE
  8
_0-3_躯体と製品
  6
CONTINUOUS
 62
    4
 10
144.8074031962658
 20
71.125848697052305
 11
169.8074031962658
 21
71.125848697052305
  0
LINE
  8
_0-3_躯体と製品
  6
CONTINUOUS
 62
    4
 10
169.8074031962658
 20
71.125848697052305
 11
169.8074031962658
 21
73.125848697052191
  0
LINE
  8
_0-3_躯体と製品
  6
CONTINUOUS
 62
    4
 10
169.8074031962658
 20
73.125848697052191
 11
144.8074031962658
 21
73.125848697052191
  0
LINE
  8
_0-3_躯体と製品
  6
CONTINUOUS
 62
    4
 10
144.8074031962658
 20
73.125848697052191
 11
144.8074031962658
 21
71.125848697052305
  0
LINE
  8
_0-3_躯体と製品
  6
CONTINUOUS
 62
    4
 10
196.85470263261766
 20
173.01034460652349
 11
198.11781736036016
 21
169.92584869704049
  0
LINE
  8
_0-3_躯体と製品
  6
CONTINUOUS
 62
    4
 10
198.80740223383134
 20
177.12584938073027
 11
226.80740227120066
 21
177.12584938073027
  0
LINE
  8
_0-3_躯体と製品
  6
CONTINUOUS
 62
    4
 10
226.80740227120066
 20
177.12584938073027
 11
226.80740227120066
 21
173.12584938073027
  0
LINE
  8
_0-3_躯体と製品
  6
CONTINUOUS
 62
    4
 10
226.80740227120066
 20
173.12584938073027
 11
198.80740223383134
 21
173.12584938073027
  0
LINE
  8
_0-3_躯体と製品
  6
CONTINUOUS
 62
    4
 10
198.80740223383134
 20
173.12584938073027
 11
198.80740223383134
 21
177.12584938073027
  0
LINE
  8
_0-3_躯体と製品
  6
CONTINUOUS
 62
    4
 10
212.8074014016654
 20
177.12584938073027
 11
208.8074014016654
 21
173.12584938073027
  0
LINE
  8
_0-3_躯体と製品
  6
CONTINUOUS
 62
    4
 10
216.80740144907566
 20
177.12584940942671
 11
212.80740144907566
 21
173.12584940942659
  0
LINE
  8
_0-3_躯体と製品
  6
CONTINUOUS
 62
    4
 10
250.11618172636906
 20
76.325848697034672
 11
280.80740262440474
 21
76.325848697034672
  0
LINE
  8
_0-3_躯体と製品
  6
CONTINUOUS
 62
    4
 10
280.80740262440474
 20
76.325848697034672
 11
280.80740262440474
 21
73.125848697052191
  0
LINE
  8
_0-3_躯体と製品
  6
CONTINUOUS
 62
    4
 10
280.80740262440474
 20
73.125848697052191
 11
250.11618172636906
 21
73.125848697052191
  0
ARC
  8
_0-3_躯体と製品
  6
CONTINUOUS
 62
    4
 10
250.11618172636844
 20
80.32584869705812
 40
7.200000000005935
 50
187.53434276758418
 51
270.000000000005
  0
LINE
  8
_0-3_躯体と製品
  6
CONTINUOUS
 62
    4
 10
242.97834331074216
 20
79.381781563589726
 11
231.46245424676988
 21
166.45033043784977
  0
ARC
  8
_0-3_躯体と製品
  6
CONTINUOUS
 62
    4
 10
227.49698846030884
 20
165.92584869703541
 40
4.0000000000050964
 50
7.5343427675605215
 51
89.999999999977973
  0
LINE
  8
_0-3_躯体と製品
  6
CONTINUOUS
 62
    4
 10
227.49698846031038
 20
169.92584869704049
 11
212.80740262440474
 21
169.92584869704049
  0
LINE
  8
_0-3_躯体と製品
  6
CONTINUOUS
 62
    4
 10
253.67135726498043
 20
76.325848697034672
 11
242.13594590127991
 21
163.5420004442179
  0
ARC
  8
_0-3_躯体と製品
  6
CONTINUOUS
 62
    4
 10
238.17048011481313
 20
163.01751870340121
 40
4.0000000000111013
 50
7.5343427675824852
 51
82.465657232417513
  0
LINE
  8
_0-3_躯体と製品
  6
CONTINUOUS
 62
    4
 10
238.6949618556298
 20
166.98298448986802
 11
234.54731604087817
 21
167.53156178551339
  0
ARC
  8
_0-3_躯体と製品
  6
CONTINUOUS
 62
    4
 10
227.46850840233219
 20
165.85014458983676
 40
7.2757598482532444
 50
13.361753720784407
 51
89.775722216836115
  0
LINE
  8
_0-3_躯体と製品
  6
CONTINUOUS
 62
    4
 10
227.49698846031038
 20
173.12584869705219
 11
212.80740262440474
 21
173.12584869705219
  0
LINE
  8
_0-3_躯体と製品
  6
CONTINUOUS
 62
    4
 10
252.30740262440463
 20
76.325848697034672
 11
252.30740262440463
 21
73.125848697052191
  0
LINE
  8
_0-3_躯体と製品
  6
CONTINUOUS
 62
    4
 10
255.80740262440474
 20
71.125848697052305
 11
280.80740262440474
 21
71.125848697052305
  0
LINE
  8
_0-3_躯体と製品
  6
CONTINUOUS
 62
    4
 10
280.80740262440474
 20
71.125848697052305
 11
280.80740262440474
 21
73.125848697052191
  0
LINE
  8
_0-3_躯体と製品
  6
CONTINUOUS
 62
    4
 10
280.80740262440474
 20
73.125848697052191
 11
255.80740262440474
 21
73.125848697052191
  0
LINE
  8
_0-3_躯体と製品
  6
CONTINUOUS
 62
    4
 10
255.80740262440474
 20
73.125848697052191
 11
255.80740262440474
 21
71.125848697052305
  0
LINE
  8
_0-3_躯体と製品
  6
CONTINUOUS
 62
    4
 10
228.76010229814517
 20
173.01034483539601
 11
227.49698761464037
 21
169.92584890781049
  0
LINE
  8
_0-3_躯体と製品
  6
CONTINUOUS
 62
    4
 10
219.73560660696774
 20
188.62584869705219
 11
219.73560660696774
 21
177.12584869705219
  0
LINE
  8
_0-3_躯体と製品
  6
CONTINUOUS
 62
    4
 10
205.87920014642248
 20
188.62584869705219
 11
205.87920014642248
 21
177.12584869705219
  0
LINE
  8
_0-3_躯体と製品
  6
CONTINUOUS
 62
    4
 10
202.41509853129344
 20
190.12584869705219
 11
223.19970822212588
 21
190.12584869705219
  0
ARC
  8
_0-3_躯体と製品
  6
CONTINUOUS
 62
    4
 10
202.41509853129338
 20
185.37584869705907
 40
4.7499999999889821
 50
43.173551107269937
 51
136.8264488927301
  0
ARC
  8
_0-3_躯体と製品
  6
CONTINUOUS
 62
    4
 10
212.80740337669511
 20
173.37584869705699
 40
16.749999999994436
 50
65.56730232054764
 51
114.43269767945236
  0
ARC
  8
_0-3_躯体と製品
  6
CONTINUOUS
 62
    4
 10
223.19970822211133
 20
185.37584869704688
 40
4.7500000000079048
 50
43.173551107257659
 51
136.82644889274232
  0
LINE
  8
_0-3_躯体と製品
  6
CONTINUOUS
 62
    4
 10
226.66380983725492
 20
188.62584869705219
 11
226.66380983725492
 21
177.12584869705219
  0
LINE
  8
_0-3_躯体と製品
  6
CONTINUOUS
 62
    4
 10
226.66380983725492
 20
177.12584869705219
 11
198.95099691616429
 21
177.12584869705219
  0
LINE
  8
_0-3_躯体と製品
  6
CONTINUOUS
 62
    4
 10
198.95099691616429
 20
177.12584869705219
 11
198.95099691616429
 21
188.62584869705219
  0
LINE
  8
_0-3_躯体と製品
  6
CONTINUOUS
 62
    4
 10
219.73560766870457
 20
158.42584801333342
 11
219.73560766870457
 21
169.92584801333342
  0
LINE
  8
_0-3_躯体と製品
  6
CONTINUOUS
 62
    4
 10
205.8792012081592
 20
158.42584801333342
 11
205.8792012081592
 21
169.92584801333342
  0
LINE
  8
_0-3_躯体と製品
  6
CONTINUOUS
 62
    4
 10
202.41509959303028
 20
156.92584801333342
 11
223.1997092838335
 21
156.92584801333342
  0
ARC
  8
_0-3_躯体と製品
  6
CONTINUOUS
 62
    4
 10
202.41509959301561
 20
161.67584801334016
 40
4.7500000000088578
 50
223.1735511072699
 51
316.82644889273007
  0
ARC
  8
_0-3_躯体と製品
  6
CONTINUOUS
 62
    4
 10
212.80740443843189
 20
173.67584801332873
 40
16.749999999994575
 50
245.56730232054764
 51
294.43269767945236
  0
ARC
  8
_0-3_躯体と製品
  6
CONTINUOUS
 62
    4
 10
223.19970928384816
 20
161.67584801333876
 40
4.7500000000079048
 50
223.17355110725768
 51
316.82644889274235
  0
LINE
  8
_0-3_躯体と製品
  6
CONTINUOUS
 62
    4
 10
226.66381089899176
 20
158.42584801333342
 11
226.66381089899176
 21
169.92584801333342
  0
LINE
  8
_0-3_躯体と製品
  6
CONTINUOUS
 62
    4
 10
226.66381089899176
 20
169.92584801333342
 11
198.95099797787202
 21
169.92584801333342
  0
LINE
  8
_0-3_躯体と製品
  6
CONTINUOUS
 62
    4
 10
198.95099797787202
 20
169.92584801333342
 11
198.95099797787202
 21
158.42584801333342
  0
ARC
  8
_0-3_躯体と製品
  6
CONTINUOUS
 62
    4
 10
175.49862409433058
 20
74.72584869702888
 40
1.6000000000057923
 50
270
 51
89.999999999999972
  0
ARC
  8
_0-3_躯体と製品
  6
CONTINUOUS
 62
    4
 10
250.11618172636906
 20
74.72584869702888
 40
1.6000000000057923
 50
90
 51
270
  0
LINE
  8
_0-3_躯体と製品
  6
CONTINUOUS
 62
    4
 10
587.56175144199631
 20
177.12584998181168
 11
615.56175147939473
 21
177.12584998181168
  0
LINE
  8
_0-3_躯体と製品
  6
CONTINUOUS
 62
    4
 10
615.56175147939473
 20
177.12584998181168
 11
615.56175147939473
 21
173.12584998181168
  0
LINE
  8
_0-3_躯体と製品
  6
CONTINUOUS
 62
    4
 10
615.56175147939473
 20
173.12584998181168
 11
587.56175144199631
 21
173.12584998181168
  0
LINE
  8
_0-3_躯体と製品
  6
CONTINUOUS
 62
    4
 10
587.56175144199631
 20
173.12584998181168
 11
587.56175144199631
 21
177.12584998181168
  0
LINE
  8
_0-3_躯体と製品
  6
CONTINUOUS
 62
    4
 10
626.56175272675569
 20
76.325848697034672
 11
626.56175272675569
 21
167.53156178551339
  0
LINE
  8
_0-3_躯体と製品
  6
CONTINUOUS
 62
    4
 10
626.56175272675569
 20
167.53156178551339
 11
576.56175272675569
 21
167.53156178551339
  0
LINE
  8
_0-3_躯体と製品
  6
CONTINUOUS
 62
    4
 10
576.56175272675569
 20
167.53156178551339
 11
576.56175272675569
 21
76.325848697034672
  0
LINE
  8
_0-3_躯体と製品
  6
CONTINUOUS
 62
    4
 10
571.5617527267558
 20
73.125848697052191
 11
631.56175272675569
 21
73.125848697052191
  0
LINE
  8
_0-3_躯体と製品
  6
CONTINUOUS
 62
    4
 10
631.56175272675569
 20
73.125848697052191
 11
631.56175272675569
 21
76.325848697034672
  0
LINE
  8
_0-3_躯体と製品
  6
CONTINUOUS
 62
    4
 10
631.56175272675569
 20
76.325848697034672
 11
571.5617527267558
 21
76.325848697034672
  0
LINE
  8
_0-3_躯体と製品
  6
CONTINUOUS
 62
    4
 10
571.5617527267558
 20
76.325848697034672
 11
571.5617527267558
 21
73.125848697052191
  0
LINE
  8
_0-3_躯体と製品
  6
CONTINUOUS
 62
    4
 10
579.76175272676744
 20
173.12584869705219
 11
579.76175272676744
 21
76.325848697034672
  0
LINE
  8
_0-3_躯体と製品
  6
CONTINUOUS
 62
    4
 10
623.36175272677269
 20
173.12584869705219
 11
623.36175272677269
 21
76.325848697034672
  0
LINE
  8
_0-3_躯体と製品
  6
CONTINUOUS
 62
    4
 10
579.76175272676744
 20
169.92584869704049
 11
571.5617527267558
 21
169.92584869704049
  0
LINE
  8
_0-3_躯体と製品
  6
CONTINUOUS
 62
    4
 10
571.5617527267558
 20
169.92584869704049
 11
571.5617527267558
 21
173.12584869705219
  0
LINE
  8
_0-3_躯体と製品
  6
CONTINUOUS
 62
    4
 10
571.5617527267558
 20
173.12584869705219
 11
631.56175272675569
 21
173.12584869705219
  0
LINE
  8
_0-3_躯体と製品
  6
CONTINUOUS
 62
    4
 10
631.56175272675569
 20
173.12584869705219
 11
631.56175272675569
 21
169.92584869704049
  0
LINE
  8
_0-3_躯体と製品
  6
CONTINUOUS
 62
    4
 10
631.56175272675569
 20
169.92584869704049
 11
623.36175272677269
 21
169.92584869704049
  0
LINE
  8
_0-3_躯体と製品
  6
CONTINUOUS
 62
    4
 10
631.56175272675569
 20
71.125848697052305
 11
571.5617527267558
 21
71.125848697052305
  0
LINE
  8
_0-3_躯体と製品
  6
CONTINUOUS
 62
    4
 10
571.5617527267558
 20
71.125848697052305
 11
571.5617527267558
 21
73.125848697052191
  0
LINE
  8
_0-3_躯体と製品
  6
CONTINUOUS
 62
    4
 10
571.5617527267558
 20
73.125848697052191
 11
631.56175272675569
 21
73.125848697052191
  0
LINE
  8
_0-3_躯体と製品
  6
CONTINUOUS
 62
    4
 10
631.56175272675569
 20
73.125848697052191
 11
631.56175272675569
 21
71.125848697052305
  0
LINE
  8
_0-3_躯体と製品
  6
CONTINUOUS
 62
    4
 10
595.56118540992145
 20
190.1258494121042
 11
607.56175071402208
 21
190.12584934906531
  0
LINE
  8
_0-3_躯体と製品
  6
CONTINUOUS
 62
    4
 10
589.56175075115857
 20
177.1258497091961
 11
589.56175075115857
 21
188.62584938058481
  0
ARC
  8
_0-3_躯体と製品
  6
CONTINUOUS
 62
    4
 10
595.56175072221492
 20
177.37584987072799
 40
12.74999955390019
 50
61.927512142394527
 51
118.07248785760547
  0
ARC
  8
_0-3_躯体と製品
  6
CONTINUOUS
 62
    4
 10
607.56175072221504
 20
177.37584899695597
 40
12.750000352116601
 50
61.927513760650953
 51
118.07248623934905
  0
LINE
  8
_0-3_躯体と製品
  6
CONTINUOUS
 62
    4
 10
613.56175075115868
 20
188.62584938058481
 11
613.56175075115868
 21
177.12584953701779
  0
LINE
  8
_0-3_躯体と製品
  6
CONTINUOUS
 62
    4
 10
601.56175068253185
 20
188.62584938058481
 11
601.56175060334033
 21
177.12584962310697
  0
TEXT
  8
_0-4_文字-記号
 62
    7
 10
130.36594317118386
 20
257.27382094462871
 40
6.5
 41
1
 50
0
  1
調整ボルト Ｍ１６
  0
LINE
  8
_0-4_文字-記号
  6
CONTINUOUS
 62
    7
 10
129.22123017118417
 20
254.71975094462849
 11
195.33931590170857
 21
254.71975094462849
  0
LINE
  8
_0-4_文字-記号
  6
CONTINUOUS
 62
    7
 10
195.33931590170857
 20
254.71975094462849
 11
204.80740283863804
 21
238.32054331938812
  0
LINE
  8
_0-4_文字-記号
  6
CONTINUOUS
 62
    7
 10
188.34459193737882
 20
378.31291089876993
 11
173.25192275299366
 21
352.17164104958641
  0
LINE
  8
_0-4_文字-記号
  6
CONTINUOUS
 62
    7
 10
173.25192275299366
 20
352.17164104958641
 11
113.30136823853883
 21
352.17164104958641
  0
TEXT
  8
_0-4_文字-記号
 62
    7
 10
117.48177067700431
 20
354.56107504958629
 40
6.5
 41
1
 50
0
  1
大引鋼t=２.３
  0
LINE
  8
_0-4_文字-記号
  6
CONTINUOUS
 62
    7
 10
140.53981095359427
 20
398.12584869705222
 11
129.69646179595998
 21
379.34461703182103
  0
LINE
  8
_0-4_文字-記号
  6
CONTINUOUS
 62
    7
 10
129.69646179595998
 20
379.34461703182103
 11
68.8455730312524
 21
379.34461703182103
  0
TEXT
  8
_0-4_文字-記号
 62
    7
 10
73.025975469716116
 20
381.73405103182097
 40
6.5
 41
1
 50
0
  1
根太鋼t=１.６
  0
LINE
  8
_0-4_文字-記号
  6
CONTINUOUS
 62
    7
 10
230.6867691454479
 20
324.10107124620669
 11
248.18853988772742
 21
293.78711509815719
  0
LINE
  8
_0-4_文字-記号
  6
CONTINUOUS
 62
    7
 10
248.18853988772742
 20
293.78711509815719
 11
328.79236786877834
 21
293.78711509815719
  0
TEXT
  8
_0-4_文字-記号
 62
    7
 10
250.6494775114478
 20
296.3541453981162
 40
6.5
 41
1
 50
0
  1
メインクッションゴム
  0
INSERT
  2
-004-_D5
  8
_0-2_寸法
 10
-390.00373242987428
 20
525.37492286376403
 41
1
 42
1
 50
0
  0
TEXT
  8
_0-4_文字-記号
 62
    7
 10
519.12029405940098
 20
257.26160130833648
 40
6.5
 41
1
 50
0
  1
調整ボルト Ｍ１６
  0
LINE
  8
_0-4_文字-記号
  6
CONTINUOUS
 62
    7
 10
517.9755810594005
 20
254.70753130833631
 11
584.09366678992569
 21
254.70753130833631
  0
LINE
  8
_0-4_文字-記号
  6
CONTINUOUS
 62
    7
 10
584.09366678992569
 20
254.70753130833631
 11
593.56175372685527
 21
238.30832368309612
  0
LINE
  8
_0-4_文字-記号
  6
CONTINUOUS
 62
    7
 10
515.5001719353603
 20
346.12584869705222
 11
500.40750275097514
 21
319.98457884786859
  0
LINE
  8
_0-4_文字-記号
  6
CONTINUOUS
 62
    7
 10
500.40750275097514
 20
319.98457884786859
 11
440.85535407054965
 21
319.98457884786859
  0
TEXT
  8
_0-4_文字-記号
 62
    7
 10
445.03575650901428
 20
322.37401284786847
 40
6.5
 41
1
 50
0
  1
大引鋼t=２.３
  0
LINE
  8
_0-3_躯体と製品
  6
CONTINUOUS
 62
    4
 10
202.41509831698909
 20
298.51019869705249
 11
223.19970800782164
 21
298.51019869705249
  0
LINE
  8
_0-3_躯体と製品
  6
CONTINUOUS
 62
    4
 10
205.87919993214734
 20
300.01019869705237
 11
205.87919993214734
 21
311.51019869705249
  0
LINE
  8
_0-3_躯体と製品
  6
CONTINUOUS
 62
    4
 10
219.73560639269249
 20
283.01019869705249
 11
219.73560639269249
 21
294.51019869705249
  0
LINE
  8
_0-3_躯体と製品
  6
CONTINUOUS
 62
    4
 10
219.73560639269249
 20
300.01019869705237
 11
219.73560639269249
 21
311.51019869705249
  0
LINE
  8
_0-3_躯体と製品
  6
CONTINUOUS
 62
    4
 10
205.87919993214734
 20
283.01019869705249
 11
205.87919993214734
 21
294.51019869705249
  0
ARC
  8
_0-3_躯体と製品
  6
CONTINUOUS
 62
    4
 10
202.41509831700375
 20
303.26019869705846
 40
4.7500000000083809
 50
223.17355110726379
 51
316.82644889273621
  0
ARC
  8
_0-3_躯体と製品
  6
CONTINUOUS
 62
    4
 10
212.80740316241992
 20
315.26019837661221
 40
16.749999708254752
 50
245.56730186717647
 51
294.43269813282353
  0
ARC
  8
_0-3_躯体と製品
  6
CONTINUOUS
 62
    4
 10
223.19970800782158
 20
303.26019869704527
 40
4.7499999999888161
 50
223.17355110726777
 51
316.82644889273217
  0
LINE
  8
_0-3_躯体と製品
  6
CONTINUOUS
 62
    4
 10
226.66380962295068
 20
300.01019869705237
 11
226.66380962295068
 21
311.51019869705249
  0
LINE
  8
_0-3_躯体と製品
  6
CONTINUOUS
 62
    4
 10
226.66380962295068
 20
311.51019869705249
 11
198.95099670186016
 21
311.51019869705249
  0
LINE
  8
_0-3_躯体と製品
  6
CONTINUOUS
 62
    4
 10
198.95099670186016
 20
311.51019869705249
 11
198.95099670186016
 21
300.01019869705237
  0
LINE
  8
_0-3_躯体と製品
  6
CONTINUOUS
 62
    4
 10
198.80740315806895
 20
294.51019869705249
 11
226.80740319543827
 21
294.51019869705249
  0
LINE
  8
_0-3_躯体と製品
  6
CONTINUOUS
 62
    4
 10
226.80740319543827
 20
294.51019869705249
 11
226.80740319543827
 21
298.51019869705249
  0
LINE
  8
_0-3_躯体と製品
  6
CONTINUOUS
 62
    4
 10
226.80740319543827
 20
298.51019869705249
 11
198.80740315806895
 21
298.51019869705249
  0
LINE
  8
_0-3_躯体と製品
  6
CONTINUOUS
 62
    4
 10
198.80740315806895
 20
298.51019869705249
 11
198.80740315806895
 21
294.51019869705249
  0
LINE
  8
_0-3_躯体と製品
  6
CONTINUOUS
 62
    4
 10
202.41509831698909
 20
281.51019869705237
 11
223.19970800782164
 21
281.51019869705237
  0
LINE
  8
_0-3_躯体と製品
  6
CONTINUOUS
 62
    4
 10
212.8074031767535
 20
294.51019869705249
 11
216.8074031767535
 21
298.51019869705249
  0
ARC
  8
_0-3_躯体と製品
  6
CONTINUOUS
 62
    4
 10
202.41509831700375
 20
286.2601986970592
 40
4.7500000000088578
 50
223.1735511072699
 51
316.82644889273007
  0
ARC
  8
_0-3_躯体と製品
  6
CONTINUOUS
 62
    4
 10
212.80740316241992
 20
298.26019869704754
 40
16.749999999994301
 50
245.56730232054764
 51
294.43269767945236
  0
ARC
  8
_0-3_躯体と製品
  6
CONTINUOUS
 62
    4
 10
223.19970800782158
 20
286.26019869704425
 40
4.7499999999880291
 50
223.17355110725768
 51
316.82644889274235
  0
LINE
  8
_0-3_躯体と製品
  6
CONTINUOUS
 62
    4
 10
226.66380962295068
 20
283.01019869705249
 11
226.66380962295068
 21
294.51019869705249
  0
LINE
  8
_0-3_躯体と製品
  6
CONTINUOUS
 62
    4
 10
226.66380962295068
 20
294.51019869705249
 11
198.95099670186016
 21
294.51019869705249
  0
LINE
  8
_0-3_躯体と製品
  6
CONTINUOUS
 62
    4
 10
198.95099670186016
 20
294.51019869705249
 11
198.95099670186016
 21
283.01019869705249
  0
LINE
  8
_0-3_躯体と製品
  6
CONTINUOUS
 62
    4
 10
208.80740312937257
 20
294.51019866835611
 11
212.80740312937257
 21
298.51019866835611
  0
LINE
  8
_0-3_躯体と製品
  6
CONTINUOUS
 62
    4
 10
595.56118734503877
 20
298.5102065443474
 11
607.56175264916851
 21
298.51020660738629
  0
LINE
  8
_0-3_躯体と製品
  6
CONTINUOUS
 62
    4
 10
587.56175268193954
 20
294.51020652129711
 11
615.56175271933773
 21
294.51020652129711
  0
LINE
  8
_0-3_躯体と製品
  6
CONTINUOUS
 62
    4
 10
615.56175271933773
 20
294.51020652129711
 11
615.56175271933773
 21
298.51020652129716
  0
LINE
  8
_0-3_躯体と製品
  6
CONTINUOUS
 62
    4
 10
615.56175271933773
 20
298.51020652129716
 11
587.56175268193954
 21
298.51020652129716
  0
LINE
  8
_0-3_躯体と製品
  6
CONTINUOUS
 62
    4
 10
587.56175268193954
 20
298.51020652129716
 11
587.56175268193954
 21
294.51020652129711
  0
LINE
  8
_0-3_躯体と製品
  6
CONTINUOUS
 62
    4
 10
589.56175268630511
 20
311.5102062472555
 11
589.56175268630511
 21
300.01020652129711
  0
ARC
  8
_0-3_躯体と製品
  6
CONTINUOUS
 62
    4
 10
595.56175266440448
 20
311.2602066360019
 40
12.750000090903935
 50
241.92751339355425
 51
298.07248660644575
  0
ARC
  8
_0-3_躯体と製品
  6
CONTINUOUS
 62
    4
 10
607.56175266440437
 20
311.26020734063258
 40
12.750000733249175
 50
241.927514709977
 51
298.072485290023
  0
LINE
  8
_0-3_躯体と製品
  6
CONTINUOUS
 62
    4
 10
613.56175268630477
 20
300.01020652129711
 11
613.56175268630477
 21
311.5102064194337
  0
LINE
  8
_0-3_躯体と製品
  6
CONTINUOUS
 62
    4
 10
595.561187496466
 20
281.51020673229993
 11
607.56175280056675
 21
281.51020679533883
  0
LINE
  8
_0-3_躯体と製品
  6
CONTINUOUS
 62
    4
 10
589.56175283770335
 20
294.51020643520803
 11
589.56175283770335
 21
283.01020676381938
  0
ARC
  8
_0-3_躯体と製品
  6
CONTINUOUS
 62
    4
 10
595.56175280875948
 20
294.26020627367581
 40
12.749999553899707
 50
241.92751214239453
 51
298.07248785760549
  0
ARC
  8
_0-3_躯体と製品
  6
CONTINUOUS
 62
    4
 10
607.56175280875914
 20
294.26020714744794
 40
12.750000352116238
 50
241.92751376065095
 51
298.07248623934902
  0
LINE
  8
_0-3_躯体と製品
  6
CONTINUOUS
 62
    4
 10
613.56175283770267
 20
283.01020676381938
 11
613.56175283770267
 21
294.51020660738629
  0
LINE
  8
_0-3_躯体と製品
  6
CONTINUOUS
 62
    4
 10
601.56175264250385
 20
300.01020652129711
 11
601.56175254922607
 21
311.51020633334463
  0
LINE
  8
_0-3_躯体と製品
  6
CONTINUOUS
 62
    4
 10
601.56175276904719
 20
283.01020676381938
 11
601.56175268988488
 21
294.51020652129711
  0
LINE
  8
_0-3_躯体と製品
  6
CONTINUOUS
 62
    4
 10
192.80745916240528
 20
396.12584869705222
 11
232.80745916240528
 21
396.12584869705222
  0
LINE
  8
_0-4_文字-記号
  6
CONTINUOUS
 62
    7
 10
207.1513951524247
 20
471.12584869705222
 11
225.92047742629791
 21
503.63485280684051
  0
LINE
  8
_0-4_文字-記号
  6
CONTINUOUS
 62
    7
 10
225.92047742629791
 20
503.63485280684051
 11
328.91687545718912
 21
503.63485280684051
  0
TEXT
  8
_0-4_文字-記号
 62
    7
 10
232.64079686468892
 20
505.46513408452927
 40
6.5
 41
1
 50
0
  1
大型積層仕上げ材 t=１８
  0
LINE
  8
_0-4_文字-記号
  6
CONTINUOUS
 62
    7
 10
219.2307513593986
 20
448.12584869705222
 11
242.63032118623937
 21
488.65509251239644
  0
LINE
  8
_0-4_文字-記号
  6
CONTINUOUS
 62
    7
 10
242.63032118623937
 20
488.65509251239644
 11
324.27723965323992
 21
488.65509251239644
  0
TEXT
  8
_0-4_文字-記号
 62
    7
 10
251.01674570899911
 20
490.48537379008519
 40
6.5
 41
1
 50
0
  1
構造用合板 t=１５
  0
ARC
  8
_0-3_躯体と製品
  6
CONTINUOUS
 62
    3
 10
244.60740316240535
 20
408.39598513467956
 40
1.5000000000001541
 50
359.99999999999079
 51
70.528779365500554
  0
LINE
  8
_0-3_躯体と製品
  6
CONTINUOUS
 62
    3
 10
246.64797316240561
 20
399.71019869705253
 11
246.10740316240549
 21
399.71019869705253
  0
ARC
  8
_0-3_躯体と製品
  6
CONTINUOUS
 62
    3
 10
179.50740316167671
 20
403.56019869705261
 40
3.0000000000000768
 50
179.99999999999852
 51
269.61294971880375
  0
LINE
  8
_0-3_躯体と製品
  6
CONTINUOUS
 62
    3
 10
179.50740316160932
 20
400.56026714794541
 11
179.48713741047948
 21
400.56026714794541
  0
LINE
  8
_0-3_躯体と製品
  6
CONTINUOUS
 62
    4
 10
202.80745916240528
 20
348.4258486970524
 11
193.80745916240528
 21
348.4258486970524
  0
ARC
  8
_0-3_躯体と製品
  6
CONTINUOUS
 62
    4
 10
193.80745916240579
 20
352.12584869705182
 40
3.6999999999994171
 50
179.99999999999426
 51
269.99999999999216
  0
LINE
  8
_0-3_躯体と製品
  6
CONTINUOUS
 62
    4
 10
190.10745916240637
 20
352.12584869705222
 11
190.10745916240637
 21
390.12584869705222
  0
ARC
  8
_0-3_躯体と製品
  6
CONTINUOUS
 62
    4
 10
193.80745916240579
 20
390.12584869705256
 40
3.6999999999994313
 50
90.000000000008072
 51
180.000000000006
  0
LINE
  8
_0-3_躯体と製品
  6
CONTINUOUS
 62
    4
 10
193.80745916240528
 20
393.82584869705204
 11
231.80745916240528
 21
393.82584869705204
  0
ARC
  8
_0-3_躯体と製品
  6
CONTINUOUS
 62
    4
 10
231.80745916240562
 20
390.12584869705171
 40
3.7000000000002835
 50
0.0000000000072134
 51
90.000000000005116
  0
LINE
  8
_0-3_躯体と製品
  6
CONTINUOUS
 62
    4
 10
235.50745916240589
 20
390.12584869705222
 11
235.50745916240589
 21
352.12584869705222
  0
ARC
  8
_0-3_躯体と製品
  6
CONTINUOUS
 62
    4
 10
231.80745916240562
 20
352.12584869705267
 40
3.7000000000002689
 50
269.99999999999466
 51
359.99999999999255
  0
LINE
  8
_0-3_躯体と製品
  6
CONTINUOUS
 62
    4
 10
231.80745916240528
 20
348.4258486970524
 11
222.80745916240528
 21
348.4258486970524
  0
LINE
  8
_0-3_躯体と製品
  6
CONTINUOUS
 62
    4
 10
222.80745916240528
 20
348.4258486970524
 11
222.80745916240528
 21
346.12584869705222
  0
LINE
  8
_0-3_躯体と製品
  6
CONTINUOUS
 62
    4
 10
222.80745916240528
 20
346.12584869705222
 11
231.80745916240528
 21
346.12584869705222
  0
ARC
  8
_0-3_躯体と製品
  6
CONTINUOUS
 62
    4
 10
231.80745916240528
 20
352.12584869705222
 40
6
 50
270
 51
0.0000000000000127
  0
LINE
  8
_0-3_躯体と製品
  6
CONTINUOUS
 62
    4
 10
237.80745916240528
 20
352.12584869705222
 11
237.80745916240528
 21
390.12584869705222
  0
ARC
  8
_0-3_躯体と製品
  6
CONTINUOUS
 62
    4
 10
231.80745916240528
 20
390.12584869705222
 40
6
 50
0.0000000000000052
 51
90.000000000000014
  0
LINE
  8
_0-3_躯体と製品
  6
CONTINUOUS
 62
    4
 10
231.80745916240528
 20
396.12584869705222
 11
193.80745916240528
 21
396.12584869705222
  0
ARC
  8
_0-3_躯体と製品
  6
CONTINUOUS
 62
    4
 10
193.80745916240528
 20
390.12584869705222
 40
6
 50
90
 51
180
  0
LINE
  8
_0-3_躯体と製品
  6
CONTINUOUS
 62
    4
 10
187.80745916240528
 20
390.12584869705222
 11
187.80745916240528
 21
352.12584869705222
  0
ARC
  8
_0-3_躯体と製品
  6
CONTINUOUS
 62
    4
 10
193.80745916240528
 20
352.12584869705222
 40
6
 50
180
 51
270
  0
LINE
  8
_0-3_躯体と製品
  6
CONTINUOUS
 62
    4
 10
193.80745916240528
 20
346.12584869705222
 11
202.80745916240528
 21
346.12584869705222
  0
LINE
  8
_0-3_躯体と製品
  6
CONTINUOUS
 62
    4
 10
202.80745916240528
 20
346.12584869705222
 11
202.80745916240528
 21
348.4258486970524
  0
TEXT
  8
_0-4_文字-記号
 62
    7
 10
373.03599264665252
 20
426.59438388769229
 40
6.5
 41
1
 50
0
  1
根太鋼t=１.６
  0
LINE
  8
_0-4_文字-記号
  6
CONTINUOUS
 62
    7
 10
371.91759689324567
 20
424.20494988769212
 11
426.34144372675553
 21
424.20494988769212
  0
LINE
  8
_0-4_文字-記号
  6
CONTINUOUS
 62
    7
 10
426.34144372675553
 20
424.20494988769212
 11
431.56175272675569
 21
416.43002161108836
  0
LINE
  8
_0-3_躯体と製品
  6
CONTINUOUS
 62
    4
 10
412.5617527267558
 20
396.12584869705222
 11
490.5617527267575
 21
396.12584869705222
  0
LINE
  8
_0-3_躯体と製品
  6
CONTINUOUS
 62
    4
 10
490.5617527267575
 20
396.12584869705222
 11
490.5617527267575
 21
403.52584869705231
  0
LINE
  8
_0-3_躯体と製品
  6
CONTINUOUS
 62
    4
 10
490.5617527267575
 20
403.52584869705231
 11
485.56175272675762
 21
403.52584869705231
  0
LINE
  8
_0-3_躯体と製品
  6
CONTINUOUS
 62
    4
 10
485.56175272675762
 20
403.52584869705231
 11
485.56175272675762
 21
401.52584869705231
  0
LINE
  8
_0-3_躯体と製品
  6
CONTINUOUS
 62
    4
 10
485.56175272675762
 20
401.52584869705231
 11
488.5617527267575
 21
401.52584869705231
  0
LINE
  8
_0-3_躯体と製品
  6
CONTINUOUS
 62
    4
 10
488.5617527267575
 20
401.52584869705231
 11
488.5617527267575
 21
398.12584869705222
  0
LINE
  8
_0-3_躯体と製品
  6
CONTINUOUS
 62
    4
 10
488.5617527267575
 20
398.12584869705222
 11
414.56175272675569
 21
398.12584869705222
  0
LINE
  8
_0-3_躯体と製品
  6
CONTINUOUS
 62
    4
 10
414.56175272675569
 20
398.12584869705222
 11
414.56175272675569
 21
401.52584869705231
  0
LINE
  8
_0-3_躯体と製品
  6
CONTINUOUS
 62
    4
 10
414.56175272675569
 20
401.52584869705231
 11
417.56175272675569
 21
401.52584869705231
  0
LINE
  8
_0-3_躯体と製品
  6
CONTINUOUS
 62
    4
 10
417.56175272675569
 20
401.52584869705231
 11
417.56175272675569
 21
403.52584869705231
  0
LINE
  8
_0-3_躯体と製品
  6
CONTINUOUS
 62
    4
 10
417.56175272675569
 20
403.52584869705231
 11
412.5617527267558
 21
403.52584869705231
  0
LINE
  8
_0-3_躯体と製品
  6
CONTINUOUS
 62
    4
 10
412.5617527267558
 20
403.52584869705231
 11
412.5617527267558
 21
396.12584869705222
  0
LINE
  8
_0-3_躯体と製品
  6
CONTINUOUS
 62
    4
 10
428.09566072675693
 20
400.37484869704969
 11
428.09566072675693
 21
399.92584869705649
  0
LINE
  8
_0-3_躯体と製品
  6
CONTINUOUS
 62
    4
 10
420.09566072675693
 20
400.37484869704969
 11
420.09566072675693
 21
399.92584869705649
  0
LINE
  8
_0-3_躯体と製品
  6
CONTINUOUS
 62
    4
 10
427.89566072677451
 20
399.72584869704491
 11
424.09566072675705
 21
399.72584869704491
  0
ARC
  8
_0-3_躯体と製品
  6
CONTINUOUS
 62
    4
 10
420.29566072675982
 20
399.92584869704774
 40
0.2000000000028684
 50
180.00000600060702
 51
269.99999700096566
  0
LINE
  8
_0-3_躯体と製品
  6
CONTINUOUS
 62
    4
 10
420.29566072676857
 20
399.72584869704491
 11
424.09566072675705
 21
399.72584869704491
  0
ARC
  8
_0-3_躯体と製品
  6
CONTINUOUS
 62
    4
 10
427.89566072677167
 20
399.92584869705934
 40
0.2000000000144738
 50
269.999996999296
 51
359.99999999917645
  0
LINE
  8
_0-3_躯体と製品
  6
CONTINUOUS
 62
    4
 10
427.86066072677102
 20
401.52584869706232
 11
424.09566072675705
 21
401.52584869706232
  0
ARC
  8
_0-3_躯体と製品
  6
CONTINUOUS
 62
    4
 10
424.64266072672689
 20
397.93784869704723
 40
4.818999999996441
 50
48.111754999079693
 51
96.517442000061848
  0
LINE
  8
_0-3_躯体と製品
  6
CONTINUOUS
 62
    4
 10
420.33066072677218
 20
401.52584869706232
 11
420.09566072675693
 21
400.37484869704969
  0
ARC
  8
_0-3_躯体と製品
  6
CONTINUOUS
 62
    4
 10
423.54866072677487
 20
397.93784869704137
 40
4.8190000000167457
 50
83.482563001155711
 51
131.88825099942491
  0
LINE
  8
_0-3_躯体と製品
  6
CONTINUOUS
 62
    4
 10
420.33066072677218
 20
401.52584869706232
 11
424.09566072675705
 21
401.52584869706232
  0
LINE
  8
_0-3_躯体と製品
  6
CONTINUOUS
 62
    4
 10
427.86066072677102
 20
401.52584869706232
 11
428.09566072675693
 21
400.37484869704969
  0
LINE
  8
_0-3_躯体と製品
  6
CONTINUOUS
 62
    4
 10
483.02784472675467
 20
400.37484869704969
 11
483.02784472675467
 21
399.92584869705649
  0
LINE
  8
_0-3_躯体と製品
  6
CONTINUOUS
 62
    4
 10
475.02784472675467
 20
400.37484869704969
 11
475.02784472675467
 21
399.92584869705649
  0
LINE
  8
_0-3_躯体と製品
  6
CONTINUOUS
 62
    4
 10
482.8278447267719
 20
399.72584869704491
 11
479.02784472675455
 21
399.72584869704491
  0
ARC
  8
_0-3_躯体と製品
  6
CONTINUOUS
 62
    4
 10
475.22784472675744
 20
399.92584869704763
 40
0.2000000000027547
 50
180.00000600057444
 51
269.99999700093309
  0
LINE
  8
_0-3_躯体と製品
  6
CONTINUOUS
 62
    4
 10
475.22784472676619
 20
399.72584869704491
 11
479.02784472675455
 21
399.72584869704491
  0
ARC
  8
_0-3_躯体と製品
  6
CONTINUOUS
 62
    4
 10
482.82784472676906
 20
399.92584869705934
 40
0.2000000000144738
 50
269.999996999296
 51
359.99999999917645
  0
LINE
  8
_0-3_躯体と製品
  6
CONTINUOUS
 62
    4
 10
482.79284472676841
 20
401.52584869706232
 11
479.02784472675455
 21
401.52584869706232
  0
ARC
  8
_0-3_躯体と製品
  6
CONTINUOUS
 62
    4
 10
479.57484472672439
 20
397.93784869704695
 40
4.8189999999967057
 50
48.111754999080702
 51
96.517442000062843
  0
LINE
  8
_0-3_躯体と製品
  6
CONTINUOUS
 62
    4
 10
475.26284472676957
 20
401.52584869706232
 11
475.02784472675467
 21
400.37484869704969
  0
ARC
  8
_0-3_躯体と製品
  6
CONTINUOUS
 62
    4
 10
478.48084472677237
 20
397.93784869704115
 40
4.8190000000170086
 50
83.482563001154702
 51
131.88825099942389
  0
LINE
  8
_0-3_躯体と製品
  6
CONTINUOUS
 62
    4
 10
475.26284472676957
 20
401.52584869706232
 11
479.02784472675455
 21
401.52584869706232
  0
LINE
  8
_0-3_躯体と製品
  6
CONTINUOUS
 62
    4
 10
482.79284472676841
 20
401.52584869706232
 11
483.02784472675467
 21
400.37484869704969
  0
LINE
  8
_0-5_中心線
  6
CENTER1
 62
    7
 10
451.56175272675569
 20
388.5437141285787
 11
451.56175272675569
 21
441.58299041422686
  0
LINE
  8
_0-3_躯体と製品
  6
CONTINUOUS
 62
    4
 10
469.96175272674998
 20
400.22584869705076
 11
469.96175272674998
 21
436.0258486970464
  0
ARC
  8
_0-3_躯体と製品
  6
CONTINUOUS
 62
    4
 10
469.46175273983943
 20
436.02584871013585
 40
0.4999999869105384
 50
359.99999850006139
 51
90.00000149994186
  0
LINE
  8
_0-3_躯体と製品
  6
CONTINUOUS
 62
    4
 10
469.46175272674998
 20
436.5258486970464
 11
451.56175272675569
 21
436.5258486970464
  0
LINE
  8
_0-3_躯体と製品
  6
CONTINUOUS
 62
    4
 10
451.56175272675569
 20
436.5258486970464
 11
433.66175270058261
 21
436.5258486970464
  0
ARC
  8
_0-3_躯体と製品
  6
CONTINUOUS
 62
    4
 10
433.66175270058176
 20
436.0258487232262
 40
0.4999999738201249
 50
89.999999999900709
 51
180.00000299998962
  0
LINE
  8
_0-3_躯体と製品
  6
CONTINUOUS
 62
    4
 10
433.16175272676162
 20
436.0258486970464
 11
433.16175272675787
 21
400.22584869705076
  0
ARC
  8
_0-3_躯体と製品
  6
CONTINUOUS
 62
    4
 10
431.06175278173316
 20
400.22584864207693
 40
2.0999999450247064
 50
269.99999850001069
 51
0.0000014998911729
  0
LINE
  8
_0-3_躯体と製品
  6
CONTINUOUS
 62
    4
 10
431.06175272675569
 20
398.12584869705222
 11
414.56175272675569
 21
398.12584869705222
  0
LINE
  8
_0-3_躯体と製品
  6
CONTINUOUS
 62
    4
 10
414.56175272675569
 20
398.12584869705222
 11
414.56175272675569
 21
399.72584869705076
  0
LINE
  8
_0-3_躯体と製品
  6
CONTINUOUS
 62
    4
 10
414.56175272675569
 20
399.72584869705076
 11
431.06175270057679
 21
399.72584869705076
  0
ARC
  8
_0-3_躯体と製品
  6
CONTINUOUS
 62
    4
 10
431.06175272675569
 20
400.22584869705076
 40
0.5000000000000002
 50
269.99999700011961
 51
0.0000000000000508
  0
LINE
  8
_0-3_躯体と製品
  6
CONTINUOUS
 62
    4
 10
431.56175272675569
 20
400.22584869705076
 11
431.56175272676307
 21
436.02584847713604
  0
ARC
  8
_0-3_躯体と製品
  6
CONTINUOUS
 62
    4
 10
433.66175278174086
 20
436.02584864207438
 40
2.1000000549778086
 50
90.000001500040867
 51
180.00000450012976
  0
LINE
  8
_0-3_躯体と製品
  6
CONTINUOUS
 62
    4
 10
433.66175272676151
 20
438.12584869705222
 11
451.56175272675569
 21
438.12584869705222
  0
LINE
  8
_0-3_躯体と製品
  6
CONTINUOUS
 62
    4
 10
451.56175272675569
 20
438.12584869705222
 11
469.46175261679946
 21
438.12584869704631
  0
ARC
  8
_0-3_躯体と製品
  6
CONTINUOUS
 62
    4
 10
469.46175272675339
 20
436.02584869704384
 40
2.1000000000024315
 50
0.0000000000695014
 51
90.000002999949956
  0
LINE
  8
_0-3_躯体と製品
  6
CONTINUOUS
 62
    4
 10
471.5617527267558
 20
436.0258486970464
 11
471.5617527267558
 21
400.22584864469121
  0
ARC
  8
_0-3_躯体と製品
  6
CONTINUOUS
 62
    4
 10
472.06175273984519
 20
400.22584871014021
 40
0.5000000130894012
 50
180.00000749990238
 51
269.99999850005258
  0
LINE
  8
_0-3_躯体と製品
  6
CONTINUOUS
 62
    4
 10
472.06175272675569
 20
399.72584869705076
 11
488.5617527267558
 21
399.72584869705076
  0
LINE
  8
_0-3_躯体と製品
  6
CONTINUOUS
 62
    4
 10
488.5617527267558
 20
399.72584869705076
 11
488.5617527267558
 21
398.12584869705222
  0
LINE
  8
_0-3_躯体と製品
  6
CONTINUOUS
 62
    4
 10
488.5617527267558
 20
398.12584869705222
 11
472.06175261680505
 21
398.1258486970508
  0
ARC
  8
_0-3_躯体と製品
  6
CONTINUOUS
 62
    4
 10
472.06175272675682
 20
400.22584869705037
 40
2.0999999999995693
 50
180.00000599995846
 51
269.99999700010869
  0
TEXT
  8
_0-4_文字-記号
 62
    7
 10
108.92022975109001
 20
314.88223512413072
 40
6.5
 41
1
 50
0
  1
受けプレ－トＭＢ
  0
LINE
  8
_0-4_文字-記号
  6
CONTINUOUS
 62
    7
 10
189.96345049998558
 20
342.62916097222126
 11
172.46167975770618
 21
312.3152048241717
  0
LINE
  8
_0-4_文字-記号
  6
CONTINUOUS
 62
    7
 10
172.46167975770618
 20
312.3152048241717
 11
108.0389268535817
 21
312.3152048241717
  0
ENDSEC
  0
EOF
