  0
SECTION
  2
HEADER
  9
$ACADVER
  1
AC1009
  9
$INSBASE
 10
0
 20
0
 30
0
  9
$EXTMIN
 10
0
 20
0
  9
$EXTMAX
 10
3360
 20
2376
  9
$LIMMIN
 10
0
 20
0
  9
$LIMMAX
 10
3360
 20
2376
  9
$LTSCALE
 40
8
  0
ENDSEC
  0
SECTION
  2
TABLES
  0
TABLE
  2
LTYPE
 70
     9
  0
LTYPE
  2
CONTINUOUS
 70
    64
  3
実線
 72
    65
 73
     0
 40
0.0
  0
LTYPE
  2
DASHED1
 70
    64
  3
--  --  --  --  --  --  --  --  
 72
    65
 73
     2
 40
2.5
 49
1.25
 49
-1.25
  0
LTYPE
  2
DASHED2
 70
    64
  3
----    ----    ----    ----    
 72
    65
 73
     2
 40
5.0
 49
2.5
 49
-2.5
  0
LTYPE
  2
DASHED3
 70
    64
  3
------  ------  ------  ------  
 72
    65
 73
     2
 40
5.0
 49
3.75
 49
-1.25
  0
LTYPE
  2
CENTER1
 70
    64
  3
----- - ----- - ----- - ----- - 
 72
    65
 73
     4
 40
10.0
 49
6.25
 49
-1.25
 49
1.25
 49
-1.25
  0
LTYPE
  2
CENTER2
 70
    64
  3
----------  --  ----------  --  
 72
    65
 73
     4
 40
20.0
 49
12.5
 49
-2.5
 49
2.5
 49
-2.5
  0
LTYPE
  2
PHANTOM1
 70
    64
  3
--- - - --- - - --- - - --- - - 
 72
    65
 73
     6
 40
10.0
 49
3.25
 49
-1.25
 49
1.25
 49
-1.25
 49
1.25
 49
-1.25
  0
LTYPE
  2
PHANTOM2
 70
    64
  3
--------  -  -  --------  -  -  
 72
    65
 73
     6
 40
20.0
 49
10.0
 49
-2.5
 49
1.25
 49
-2.5
 49
1.25
 49
-2.5
  0
LTYPE
  2
DOT
 70
    64
  3
-   -   -   -   -   -   -   -   
 72
    65
 73
     2
 40
2.5
 49
0.625
 49
-1.875
  0
LTYPE
  2
DUMMY
 70
    64
  3
ダミー
 72
    65
 73
     0
 40
0.0
  0
LTYPE
  2
RAND1
 70
    64
  3
ランダム線1
 72
    65
 73
     4
 40
10.0
 49
1.0
 49
-2.0
 49
3.0
 49
-4.0
  0
LTYPE
  2
RAND2
 70
    64
  3
ランダム線2
 72
    65
 73
     4
 40
14.0
 49
2.0
 49
-3.0
 49
4.0
 49
-5.0
  0
LTYPE
  2
RAND3
 70
    64
  3
ランダム線3
 72
    65
 73
     4
 40
18.0
 49
3.0
 49
-4.0
 49
5.0
 49
-6.0
  0
LTYPE
  2
RAND4
 70
    64
  3
ランダム線4
 72
    65
 73
     4
 40
22.0
 49
4.0
 49
-5.0
 49
6.0
 49
-7.0
  0
LTYPE
  2
RAND5
 70
    64
  3
ランダム線5
 72
    65
 73
     4
 40
26.0
 49
5.0
 49
-6.0
 49
7.0
 49
-8.0
  0
LTYPE
  2
LONG1
 70
    64
  3
----------  --  ----------  --  
 72
    65
 73
     4
 40
40.0
 49
32.5
 49
-2.5
 49
2.5
 49
-2.5
  0
LTYPE
  2
LONG2
 70
    64
  3
--------  -  -  --------  -  -  
 72
    65
 73
     6
 40
40.0
 49
30.0
 49
-2.5
 49
1.25
 49
-2.5
 49
1.25
 49
-2.5
  0
LTYPE
  2
LONG3
 70
    64
  3
+++++++++++++++..+++++++++++++++
 72
    65
 73
     2
 40
40.0
 49
37.5
 49
-2.5
  0
LTYPE
  2
LONG4
 70
    64
  3
+++++++++++++++..+++++++++++++++
 72
    65
 73
     2
 40
80.0
 49
75.0
 49
-5.0
  0
LTYPE
  2
LONG5
 70
    64
  3
----------  --  ----------  --  
 72
    65
 73
     4
 40
60.0
 49
37.5
 49
-7.5
 49
7.5
 49
-7.5
  0
LTYPE
  2
dashed
 70
   64
  3
-------   -------------   ------
 72
   65
 73
    2
 40
7.5
 49
6
 49
-1.5
  0
LTYPE
  2
dashed_spaced
 70
   64
  3
----        --------        ----
 72
   65
 73
    2
 40
12
 49
6
 49
-6
  0
LTYPE
  2
long_dashed_dotted
 70
   64
  3
------------- --- --------------
 72
   65
 73
    4
 40
15.25
 49
12
 49
-1.5
 49
0.25
 49
-1.5
  0
LTYPE
  2
long_dashed_double-dotted
 70
   64
  3
----------- --- --- ------------
 72
   65
 73
    6
 40
17
 49
12
 49
-1.5
 49
0.25
 49
-1.5
 49
0.25
 49
-1.5
  0
LTYPE
  2
long_dashed_triplicate-dotted
 70
   64
  3
--------- --- --- --- ----------
 72
   65
 73
    8
 40
18.75
 49
12
 49
-1.5
 49
0.25
 49
-1.5
 49
0.25
 49
-1.5
 49
0.25
 49
-1.5
  0
LTYPE
  2
dotted
 70
   64
  3
   -       -       -       -    
 72
   65
 73
    2
 40
1.75
 49
0.25
 49
-1.5
  0
LTYPE
  2
chain
 70
   64
  3
-------------- -- --------------
 72
   65
 73
    4
 40
18.5
 49
12
 49
-1.5
 49
3.5
 49
-1.5
  0
LTYPE
  2
chain_double_dash
 70
   64
  3
------------ -- -- -------------
 72
   65
 73
    6
 40
23.5
 49
12
 49
-1.5
 49
3.5
 49
-1.5
 49
3.5
 49
-1.5
  0
LTYPE
  2
dashed_dotted
 70
   64
  3
-----------     -     ----------
 72
   65
 73
    4
 40
9.25
 49
6
 49
-1.5
 49
0.25
 49
-1.5
  0
LTYPE
  2
double-dashed_dotted
 70
   64
  3
------   -----------   -   -----
 72
   65
 73
    6
 40
16.75
 49
6
 49
-1.5
 49
6
 49
-1.5
 49
0.25
 49
-1.5
  0
LTYPE
  2
dashed_double-dotted
 70
   64
  3
---------    -    -    ---------
 72
   65
 73
    6
 40
11
 49
6
 49
-1.5
 49
0.25
 49
-1.5
 49
0.25
 49
-1.5
  0
LTYPE
  2
double-dashed_double-dotted
 70
   64
  3
-----   ---------   -   -   ----
 72
   65
 73
    8
 40
18.5
 49
6
 49
-1.5
 49
6
 49
-1.5
 49
0.25
 49
-1.5
 49
0.25
 49
-1.5
  0
LTYPE
  2
dashed_triplicate-dotted
 70
   64
  3
-------    -    -    -    ------
 72
   65
 73
    8
 40
12.75
 49
6
 49
-1.5
 49
0.25
 49
-1.5
 49
0.25
 49
-1.5
 49
0.25
 49
-1.5
  0
LTYPE
  2
double-dashed_triplicate-dotted
 70
   64
  3
-----  ---------  -  -  -  -----
 72
   65
 73
   10
 40
20.25
 49
6
 49
-1.5
 49
6
 49
-1.5
 49
0.25
 49
-1.5
 49
0.25
 49
-1.5
 49
0.25
 49
-1.5
  0
LTYPE
  2
undefined
 70
   64
  3
--------------------------------
 72
   65
 73
    0
 40
0
  0
LTYPE
  2
PLINE2
 70
   64
  3
------     -----------     -----
 72
   65
 73
    0
 40
0
  0
ENDTAB
  0
TABLE
  2
STYLE
  5
3
100
AcDbSymbolTable
 70
     1
  0
STYLE
  5
10
100
AcDbSymbolTableRecord
100
AcDbTextStyleTableRecord
  2
STANDARD
 70
     0
 40
0.0
 41
1.0
 50
0.0
 71
     0
 42
0.2
  3
txt
  4
bigfont.shx
  0
STYLE
  5
26
100
AcDbSymbolTableRecord
100
AcDbTextStyleTableRecord
  2
TATEGAKI
 70
    68
 40
0.0
 41
1.0
 50
0.0
 71
     0
 42
1.0
  3
txt
  4
bigfont.shx
  0
ENDTAB
  0
TABLE
  2
LAYER
 70
    5
  0
LAYER
  2
_0-2_寸法
 70
   64
 62
    7
  6
CONTINUOUS
  0
LAYER
  2
_0-3_躯体と製品
 70
   64
 62
    7
  6
CONTINUOUS
  0
LAYER
  2
_0-4_文字-記号
 70
   64
 62
    7
  6
CONTINUOUS
  0
LAYER
  2
_0-5_中心線
 70
   64
 62
    7
  6
CONTINUOUS
  0
LAYER
  2
ADD_LINE
 70
   64
 62
    7
  6
CONTINUOUS
  0
ENDTAB
  0
ENDSEC
  0
SECTION
  2
BLOCKS
  0
BLOCK
  2
-000-_Small
 70
   64
 10
0
 20
0
 30
0
  0
CIRCLE
  8
_0-0_0
  6
CONTINUOUS
 62
    7
 10
0
 20
0
 40
0.25
  0
ENDBLK
  0
BLOCK
  2
-001-_D2
 70
   64
 10
0
 20
0
 30
0
  0
LINE
  8
_0-2_寸法
  6
CONTINUOUS
 62
    4
 10
-163.24095760369531
 20
876.13341322507927
 11
-163.24095760369531
 21
761.3473732250792
  0
LINE
  8
_0-2_寸法
  6
CONTINUOUS
 62
    4
 10
-13.24095760369528
 20
876.13341322507927
 11
-13.24095760369528
 21
761.3473732250792
  0
LINE
  8
_0-2_寸法
  6
CONTINUOUS
 62
    4
 10
-163.24095760369531
 20
761.3473732250792
 11
-13.24095760369528
 21
761.3473732250792
  0
INSERT
  2
-000-_Small
  8
_0-2_寸法
 10
-163.24095760369531
 20
761.3473732250792
 41
10
 42
10
 50
180
  0
INSERT
  2
-000-_Small
  8
_0-2_寸法
 10
-13.24095760369528
 20
761.3473732250792
 41
10
 42
10
 50
0
  0
TEXT
  8
_0-2_寸法
 62
    7
 10
-125.74095760369528
 20
776.3473732250792
 40
50
 41
1
 50
0
  1
150
  0
POINT
  8
_0-1_Defpoints
 62
    7
 10
-163.24095760369531
 20
876.13341322507927
  0
POINT
  8
_0-1_Defpoints
 62
    7
 10
-13.24095760369528
 20
876.13341322507927
  0
POINT
  8
_0-1_Defpoints
 62
    7
 10
-13.24095760369528
 20
761.3473732250792
  0
ENDBLK
  0
BLOCK
  2
-002-_D3
 70
   64
 10
0
 20
0
 30
0
  0
LINE
  8
_0-2_寸法
  6
CONTINUOUS
 62
    4
 10
-13.24095760369528
 20
876.13341322507927
 11
-13.24095760369528
 21
761.34737322507897
  0
LINE
  8
_0-2_寸法
  6
CONTINUOUS
 62
    4
 10
764.96927044220513
 20
876.13341322507927
 11
764.96927044220513
 21
761.34737322507897
  0
LINE
  8
_0-2_寸法
  6
CONTINUOUS
 62
    4
 10
-13.24095760369528
 20
761.34737322507897
 11
764.96927044220513
 21
761.34737322507897
  0
INSERT
  2
-000-_Small
  8
_0-2_寸法
 10
-13.24095760369528
 20
761.34737322507897
 41
10
 42
10
 50
180
  0
INSERT
  2
-000-_Small
  8
_0-2_寸法
 10
764.96927044220513
 20
761.34737322507897
 41
10
 42
10
 50
0
  0
TEXT
  8
_0-2_寸法
 62
    7
 10
288.36415641925493
 20
776.34737322507897
 40
50
 41
1
 50
0
  1
900以内
  0
POINT
  8
_0-1_Defpoints
 62
    7
 10
-13.24095760369528
 20
876.13341322507927
  0
POINT
  8
_0-1_Defpoints
 62
    7
 10
764.96927044220513
 20
876.13341322507927
  0
POINT
  8
_0-1_Defpoints
 62
    7
 10
764.96927044220513
 20
761.34737322507897
  0
ENDBLK
  0
BLOCK
  2
-003-_D4
 70
   64
 10
0
 20
0
 30
0
  0
LINE
  8
_0-2_寸法
  6
CONTINUOUS
 62
    4
 10
-163.24095760369519
 20
-342.69387168030983
 11
-163.24095760369519
 21
-442.47992168030999
  0
LINE
  8
_0-2_寸法
  6
CONTINUOUS
 62
    4
 10
36.759042396304793
 20
-342.69387168030983
 11
36.759042396304793
 21
-442.47992168030999
  0
LINE
  8
_0-2_寸法
  6
CONTINUOUS
 62
    4
 10
-163.24095760369519
 20
-442.47992168030999
 11
36.759042396304793
 21
-442.47992168030999
  0
INSERT
  2
-000-_Small
  8
_0-2_寸法
 10
-163.24095760369519
 20
-442.47992168030999
 41
10
 42
10
 50
180
  0
INSERT
  2
-000-_Small
  8
_0-2_寸法
 10
36.759042396304793
 20
-442.47992168030999
 41
10
 42
10
 50
0
  0
TEXT
  8
_0-2_寸法
 62
    7
 10
-100.74095760369522
 20
-427.47992168030999
 40
50
 41
1
 50
0
  1
200
  0
POINT
  8
_0-1_Defpoints
 62
    7
 10
-163.24095760369519
 20
-342.69387168030983
  0
POINT
  8
_0-1_Defpoints
 62
    7
 10
36.759042396304793
 20
-342.69387168030983
  0
POINT
  8
_0-1_Defpoints
 62
    7
 10
36.759042396304793
 20
-442.47992168030999
  0
ENDBLK
  0
BLOCK
  2
-004-_D5
 70
   64
 10
0
 20
0
 30
0
  0
LINE
  8
_0-2_寸法
  6
CONTINUOUS
 62
    4
 10
36.759042396304793
 20
-342.69387168030983
 11
36.759042396304793
 21
-442.47992168030999
  0
LINE
  8
_0-2_寸法
  6
CONTINUOUS
 62
    4
 10
764.96927044220513
 20
-342.64814157551882
 11
764.96927044220513
 21
-442.47992168030999
  0
LINE
  8
_0-2_寸法
  6
CONTINUOUS
 62
    4
 10
36.759042396304793
 20
-442.47992168030999
 11
764.96927044220513
 21
-442.47992168030999
  0
INSERT
  2
-000-_Small
  8
_0-2_寸法
 10
36.759042396304793
 20
-442.47992168030999
 41
10
 42
10
 50
180
  0
INSERT
  2
-000-_Small
  8
_0-2_寸法
 10
764.96927044220513
 20
-442.47992168030999
 41
10
 42
10
 50
0
  0
TEXT
  8
_0-2_寸法
 62
    7
 10
313.36415641925493
 20
-427.47992168030987
 40
50
 41
1
 50
0
  1
900以内
  0
POINT
  8
_0-1_Defpoints
 62
    7
 10
36.759042396304793
 20
-342.69387168030983
  0
POINT
  8
_0-1_Defpoints
 62
    7
 10
764.96927044220513
 20
-342.64814157551882
  0
POINT
  8
_0-1_Defpoints
 62
    7
 10
764.96927044220513
 20
-442.47992168030999
  0
ENDBLK
  0
BLOCK
  2
-005-_D6
 70
   64
 10
0
 20
0
 30
0
  0
LINE
  8
_0-2_寸法
  6
CONTINUOUS
 62
    4
 10
1661.883772396304
 20
876.13341322507927
 11
1661.883772396304
 21
761.3473732250792
  0
LINE
  8
_0-2_寸法
  6
CONTINUOUS
 62
    4
 10
1811.8837723963049
 20
876.13341322507927
 11
1811.8837723963049
 21
761.3473732250792
  0
LINE
  8
_0-2_寸法
  6
CONTINUOUS
 62
    4
 10
1661.883772396304
 20
761.3473732250792
 11
1811.8837723963049
 21
761.3473732250792
  0
INSERT
  2
-000-_Small
  8
_0-2_寸法
 10
1661.883772396304
 20
761.3473732250792
 41
10
 42
10
 50
180
  0
INSERT
  2
-000-_Small
  8
_0-2_寸法
 10
1811.8837723963049
 20
761.3473732250792
 41
10
 42
10
 50
0
  0
TEXT
  8
_0-2_寸法
 62
    7
 10
1699.3837723963049
 20
776.3473732250792
 40
50
 41
1
 50
0
  1
150
  0
POINT
  8
_0-1_Defpoints
 62
    7
 10
1661.883772396304
 20
876.13341322507927
  0
POINT
  8
_0-1_Defpoints
 62
    7
 10
1811.8837723963049
 20
876.13341322507927
  0
POINT
  8
_0-1_Defpoints
 62
    7
 10
1811.8837723963049
 20
761.3473732250792
  0
ENDBLK
  0
BLOCK
  2
-006-_D7
 70
   64
 10
0
 20
0
 30
0
  0
LINE
  8
_0-2_寸法
  6
CONTINUOUS
 62
    4
 10
1811.8837723963049
 20
876.13341322507927
 11
1811.8837723963049
 21
761.3473732250792
  0
LINE
  8
_0-2_寸法
  6
CONTINUOUS
 62
    4
 10
2561.8837723963052
 20
876.13341322507927
 11
2561.8837723963052
 21
761.3473732250792
  0
LINE
  8
_0-2_寸法
  6
CONTINUOUS
 62
    4
 10
1811.8837723963049
 20
761.3473732250792
 11
2561.8837723963052
 21
761.3473732250792
  0
INSERT
  2
-000-_Small
  8
_0-2_寸法
 10
1811.8837723963049
 20
761.3473732250792
 41
10
 42
10
 50
180
  0
INSERT
  2
-000-_Small
  8
_0-2_寸法
 10
2561.8837723963052
 20
761.3473732250792
 41
10
 42
10
 50
0
  0
TEXT
  8
_0-2_寸法
 62
    7
 10
2099.3837723963052
 20
776.3473732250792
 40
50
 41
1
 50
0
  1
900以内
  0
POINT
  8
_0-1_Defpoints
 62
    7
 10
1811.8837723963049
 20
876.13341322507927
  0
POINT
  8
_0-1_Defpoints
 62
    7
 10
2561.8837723963052
 20
876.13341322507927
  0
POINT
  8
_0-1_Defpoints
 62
    7
 10
2561.8837723963052
 20
761.3473732250792
  0
ENDBLK
  0
BLOCK
  2
-007-_D8
 70
   64
 10
0
 20
0
 30
0
  0
LINE
  8
_0-2_寸法
  6
CONTINUOUS
 62
    4
 10
1110.1895804422049
 20
886.13341322507915
 11
1194.0067804422049
 21
886.13341322507915
  0
LINE
  8
_0-2_寸法
  6
CONTINUOUS
 62
    4
 10
1110.1895804422049
 20
1353.1334132250799
 11
1194.0067804422049
 21
1353.1334132250799
  0
LINE
  8
_0-2_寸法
  6
CONTINUOUS
 62
    4
 10
1194.0067804422049
 20
886.13341322507915
 11
1194.0067804422049
 21
1353.1334132250799
  0
INSERT
  2
-000-_Small
  8
_0-2_寸法
 10
1194.0067804422049
 20
886.13341322507915
 41
10
 42
10
 50
270
  0
INSERT
  2
-000-_Small
  8
_0-2_寸法
 10
1194.0067804422049
 20
1353.1334132250799
 41
10
 42
10
 50
90
  0
TEXT
  8
_0-2_寸法
 62
    7
 10
1174.2448756803001
 20
994.63341322507995
 40
50
 41
1
 50
90
  1
200～1,060
  0
POINT
  8
_0-1_Defpoints
 62
    7
 10
1110.1895804422049
 20
886.13341322507915
  0
POINT
  8
_0-1_Defpoints
 62
    7
 10
1110.1895804422049
 20
1353.1334132250799
  0
POINT
  8
_0-1_Defpoints
 62
    7
 10
1194.0067804422049
 20
1353.1334132250799
  0
ENDBLK
  0
BLOCK
  2
-008-_D9
 70
   64
 10
0
 20
0
 30
0
  0
LINE
  8
_0-2_寸法
  6
CONTINUOUS
 62
    4
 10
1110.1895804422049
 20
1386.133413225079
 11
1286.340153243051
 21
1386.133413225079
  0
LINE
  8
_0-2_寸法
  6
CONTINUOUS
 62
    4
 10
1110.1895804422049
 20
886.13341322507915
 11
1286.340153243051
 21
886.13341322507915
  0
LINE
  8
_0-2_寸法
  6
CONTINUOUS
 62
    4
 10
1286.340153243051
 20
1386.133413225079
 11
1286.340153243051
 21
886.13341322507915
  0
INSERT
  2
-000-_Small
  8
_0-2_寸法
 10
1286.340153243051
 20
1386.133413225079
 41
10
 42
10
 50
90
  0
INSERT
  2
-000-_Small
  8
_0-2_寸法
 10
1286.340153243051
 20
886.13341322507915
 41
10
 42
10
 50
270
  0
TEXT
  8
_0-2_寸法
 62
    7
 10
1271.3401532430501
 20
1123.633413225079
 40
50
 41
1
 50
90
  1
H
  0
POINT
  8
_0-1_Defpoints
 62
    7
 10
1110.1895804422049
 20
1386.133413225079
  0
POINT
  8
_0-1_Defpoints
 62
    7
 10
1110.1895804422049
 20
886.13341322507915
  0
POINT
  8
_0-1_Defpoints
 62
    7
 10
1286.340153243051
 20
886.13341322507915
  0
ENDBLK
  0
BLOCK
  2
-009-_D10
 70
   64
 10
0
 20
0
 30
0
  0
LINE
  8
_0-2_寸法
  6
CONTINUOUS
 62
    4
 10
2964.8074023963059
 20
886.13341322507938
 11
3048.624602396304
 21
886.13341322507938
  0
LINE
  8
_0-2_寸法
  6
CONTINUOUS
 62
    4
 10
2964.8074023963059
 20
1353.1334132250799
 11
3048.624602396304
 21
1353.1334132250799
  0
LINE
  8
_0-2_寸法
  6
CONTINUOUS
 62
    4
 10
3048.624602396304
 20
886.13341322507938
 11
3048.624602396304
 21
1353.1334132250799
  0
INSERT
  2
-000-_Small
  8
_0-2_寸法
 10
3048.624602396304
 20
886.13341322507938
 41
10
 42
10
 50
270
  0
INSERT
  2
-000-_Small
  8
_0-2_寸法
 10
3048.624602396304
 20
1353.1334132250799
 41
10
 42
10
 50
90
  0
TEXT
  8
_0-2_寸法
 62
    7
 10
3028.862697634399
 20
994.63341322507995
 40
50
 41
1
 50
90
  1
200～1,060
  0
POINT
  8
_0-1_Defpoints
 62
    7
 10
2964.8074023963059
 20
886.13341322507938
  0
POINT
  8
_0-1_Defpoints
 62
    7
 10
2964.8074023963059
 20
1353.1334132250799
  0
POINT
  8
_0-1_Defpoints
 62
    7
 10
3048.624602396304
 20
1353.1334132250799
  0
ENDBLK
  0
BLOCK
  2
-010-_D11
 70
   64
 10
0
 20
0
 30
0
  0
LINE
  8
_0-2_寸法
  6
CONTINUOUS
 62
    4
 10
2964.8074023963059
 20
1386.133413225079
 11
3138.3059257262948
 21
1386.133413225079
  0
LINE
  8
_0-2_寸法
  6
CONTINUOUS
 62
    4
 10
2964.8074023963059
 20
886.13341322507938
 11
3138.3059257262948
 21
886.13341322507938
  0
LINE
  8
_0-2_寸法
  6
CONTINUOUS
 62
    4
 10
3138.3059257262948
 20
1386.133413225079
 11
3138.3059257262948
 21
886.13341322507938
  0
INSERT
  2
-000-_Small
  8
_0-2_寸法
 10
3138.3059257262948
 20
1386.133413225079
 41
10
 42
10
 50
90
  0
INSERT
  2
-000-_Small
  8
_0-2_寸法
 10
3138.3059257262948
 20
886.13341322507938
 41
10
 42
10
 50
270
  0
TEXT
  8
_0-2_寸法
 62
    7
 10
3123.3059257262948
 20
1123.6334132250799
 40
50
 41
1
 50
90
  1
H
  0
POINT
  8
_0-1_Defpoints
 62
    7
 10
2964.8074023963059
 20
1386.133413225079
  0
POINT
  8
_0-1_Defpoints
 62
    7
 10
2964.8074023963059
 20
886.13341322507938
  0
POINT
  8
_0-1_Defpoints
 62
    7
 10
3138.3059257262948
 20
886.13341322507938
  0
ENDBLK
  0
BLOCK
  2
-011-_D12
 70
   64
 10
0
 20
0
 30
0
  0
LINE
  8
_0-2_寸法
  6
CONTINUOUS
 62
    4
 10
1179.6274404422049
 20
-329.34450677492077
 11
1263.444650442206
 21
-329.34450677492077
  0
LINE
  8
_0-2_寸法
  6
CONTINUOUS
 62
    4
 10
1179.6274404422061
 20
137.655493225079
 11
1263.444650442206
 21
137.65549322507891
  0
LINE
  8
_0-2_寸法
  6
CONTINUOUS
 62
    4
 10
1263.444650442206
 20
-329.34450677492077
 11
1263.444650442206
 21
137.65549322507891
  0
INSERT
  2
-000-_Small
  8
_0-2_寸法
 10
1263.444650442206
 20
-329.34450677492077
 41
10
 42
10
 50
270
  0
INSERT
  2
-000-_Small
  8
_0-2_寸法
 10
1263.444650442206
 20
137.65549322507891
 41
10
 42
10
 50
90
  0
TEXT
  8
_0-2_寸法
 62
    7
 10
1243.682745680301
 20
-220.84450677492069
 40
50
 41
1
 50
90
  1
200～1,060
  0
POINT
  8
_0-1_Defpoints
 62
    7
 10
1179.6274404422049
 20
-329.34450677492077
  0
POINT
  8
_0-1_Defpoints
 62
    7
 10
1179.6274404422061
 20
137.655493225079
  0
POINT
  8
_0-1_Defpoints
 62
    7
 10
1263.444650442206
 20
137.65549322507891
  0
ENDBLK
  0
BLOCK
  2
-012-_D13
 70
   64
 10
0
 20
0
 30
0
  0
LINE
  8
_0-2_寸法
  6
CONTINUOUS
 62
    4
 10
1179.6274404422049
 20
-329.34450677492077
 11
1368.053665400352
 21
-329.34450677492077
  0
LINE
  8
_0-2_寸法
  6
CONTINUOUS
 62
    4
 10
1179.6274404422061
 20
170.6554932250786
 11
1368.053665400352
 21
170.6554932250786
  0
LINE
  8
_0-2_寸法
  6
CONTINUOUS
 62
    4
 10
1368.053665400352
 20
-329.34450677492077
 11
1368.053665400352
 21
170.6554932250786
  0
INSERT
  2
-000-_Small
  8
_0-2_寸法
 10
1368.053665400352
 20
-329.34450677492077
 41
10
 42
10
 50
270
  0
INSERT
  2
-000-_Small
  8
_0-2_寸法
 10
1368.053665400352
 20
170.6554932250786
 41
10
 42
10
 50
90
  0
TEXT
  8
_0-2_寸法
 62
    7
 10
1353.053665400352
 20
-91.844506774920873
 40
50
 41
1
 50
90
  1
H
  0
POINT
  8
_0-1_Defpoints
 62
    7
 10
1179.6274404422049
 20
-329.34450677492077
  0
POINT
  8
_0-1_Defpoints
 62
    7
 10
1179.6274404422061
 20
170.6554932250786
  0
POINT
  8
_0-1_Defpoints
 62
    7
 10
1368.053665400352
 20
170.6554932250786
  0
ENDBLK
  0
BLOCK
  2
-013-_D14
 70
   64
 10
0
 20
0
 30
0
  0
LINE
  8
_0-2_寸法
  6
CONTINUOUS
 62
    4
 10
314.97027044220482
 20
178.5741932250788
 11
314.97027044220482
 21
268.80784322507901
  0
LINE
  8
_0-2_寸法
  6
CONTINUOUS
 62
    4
 10
614.97027044220465
 20
179.57652322507889
 11
614.97027044220465
 21
268.80784322507901
  0
LINE
  8
_0-2_寸法
  6
CONTINUOUS
 62
    4
 10
314.97027044220482
 20
268.80784322507901
 11
614.97027044220465
 21
268.80784322507901
  0
INSERT
  2
-000-_Small
  8
_0-2_寸法
 10
314.97027044220482
 20
268.80784322507901
 41
10
 42
10
 50
180
  0
INSERT
  2
-000-_Small
  8
_0-2_寸法
 10
614.97027044220465
 20
268.80784322507901
 41
10
 42
10
 50
0
  0
TEXT
  8
_0-2_寸法
 62
    7
 10
427.47027044220471
 20
283.80784322507901
 40
50
 41
1
 50
0
  1
300
  0
POINT
  8
_0-1_Defpoints
 62
    7
 10
314.97027044220482
 20
178.5741932250788
  0
POINT
  8
_0-1_Defpoints
 62
    7
 10
614.97027044220465
 20
179.57652322507889
  0
POINT
  8
_0-1_Defpoints
 62
    7
 10
614.97027044220465
 20
268.80784322507901
  0
ENDBLK
  0
BLOCK
  2
-014-_D15
 70
   64
 10
0
 20
0
 30
0
  0
LINE
  8
_0-2_寸法
  6
CONTINUOUS
 62
    4
 10
614.97027044220465
 20
179.57652322507889
 11
614.97027044220465
 21
268.80784322507901
  0
LINE
  8
_0-2_寸法
  6
CONTINUOUS
 62
    4
 10
914.97027044220465
 20
179.57652322507889
 11
914.97027044220465
 21
268.80784322507901
  0
LINE
  8
_0-2_寸法
  6
CONTINUOUS
 62
    4
 10
614.97027044220465
 20
268.80784322507901
 11
914.97027044220465
 21
268.80784322507901
  0
INSERT
  2
-000-_Small
  8
_0-2_寸法
 10
614.97027044220465
 20
268.80784322507901
 41
10
 42
10
 50
180
  0
INSERT
  2
-000-_Small
  8
_0-2_寸法
 10
914.97027044220465
 20
268.80784322507901
 41
10
 42
10
 50
0
  0
TEXT
  8
_0-2_寸法
 62
    7
 10
727.47027044220465
 20
283.80784322507901
 40
50
 41
1
 50
0
  1
300
  0
POINT
  8
_0-1_Defpoints
 62
    7
 10
614.97027044220465
 20
179.57652322507889
  0
POINT
  8
_0-1_Defpoints
 62
    7
 10
914.97027044220465
 20
179.57652322507889
  0
POINT
  8
_0-1_Defpoints
 62
    7
 10
914.97027044220465
 20
268.80784322507901
  0
ENDBLK
  0
BLOCK
  2
-015-_D16
 70
   64
 10
0
 20
0
 30
0
  0
LINE
  8
_0-2_寸法
  6
CONTINUOUS
 62
    4
 10
1861.8837723963049
 20
1396.133413225079
 11
1861.8837723963049
 21
1489.8125999449651
  0
LINE
  8
_0-2_寸法
  6
CONTINUOUS
 62
    4
 10
2061.8837723963052
 20
1396.1067632250781
 11
2061.8837723963052
 21
1489.8125999449651
  0
LINE
  8
_0-2_寸法
  6
CONTINUOUS
 62
    4
 10
1861.8837723963049
 20
1489.8125999449651
 11
2061.8837723963052
 21
1489.8125999449651
  0
INSERT
  2
-000-_Small
  8
_0-2_寸法
 10
1861.8837723963049
 20
1489.8125999449651
 41
10
 42
10
 50
180
  0
INSERT
  2
-000-_Small
  8
_0-2_寸法
 10
2061.8837723963052
 20
1489.8125999449651
 41
10
 42
10
 50
0
  0
TEXT
  8
_0-2_寸法
 62
    7
 10
1924.3837723963049
 20
1504.8125999449651
 40
50
 41
1
 50
0
  1
200
  0
POINT
  8
_0-1_Defpoints
 62
    7
 10
1861.8837723963049
 20
1396.133413225079
  0
POINT
  8
_0-1_Defpoints
 62
    7
 10
2061.8837723963052
 20
1396.1067632250781
  0
POINT
  8
_0-1_Defpoints
 62
    7
 10
2061.8837723963052
 20
1489.8125999449651
  0
ENDBLK
  0
ENDSEC
  0
SECTION
  2
ENTITIES
  0
TEXT
  8
_0-4_文字-記号
 62
    7
 10
598.73361390321134
 20
2397.1636902520736
 40
59.999999999985
 41
0.8
 50
0
  1
スリーベース６０１型　標準床組（病院・体育館器具室等：標準タイプ）
  0
TEXT
  8
_0-4_文字-記号
 62
    7
 10
439.10529846308282
 20
1137.026553447864
 40
45
 41
0.8
 50
0
  1
壁廻り納まり（根太方向）
  0
TEXT
  8
_0-4_文字-記号
 62
    7
 10
428.25957846308256
 20
-102.66567655213657
 40
45
 41
0.8
 50
0
  1
壁廻り納まり（大引方向）
  0
TEXT
  8
_0-4_文字-記号
 62
    7
 10
666.82098455762355
 20
1554.1953309000735
 40
45
 41
0.8
 50
0
  1
支持脚６０１
  0
TEXT
  8
_0-4_文字-記号
 62
    7
 10
319.22913459635538
 20
1699.9858589220905
 40
45
 41
0.8
 50
0.0000100000010064
  1
大引鋼
  0
TEXT
  8
_0-4_文字-記号
 62
    7
 10
189.43049386996245
 20
2111.0811333523588
 40
45
 41
0.8
 50
0
  1
巾木
  0
TEXT
  8
_0-4_文字-記号
 62
    7
 10
855.06976876088595
 20
1984.1389834263825
 40
45
 41
0.8
 50
0
  1
捨　板
  0
TEXT
  8
_0-4_文字-記号
 62
    7
 10
734.99998118476435
 20
1698.2420767156545
 40
45
 41
0.8
 50
0
  1
根太鋼
  0
TEXT
  8
_0-4_文字-記号
 62
    7
 10
721.39506940932688
 20
2054.4615720892175
 40
45
 41
0.8
 50
0
  1
フローリング
  0
TEXT
  8
_0-4_文字-記号
 62
    7
 10
2365.2924284630813
 20
1121.8895334478634
 40
45
 41
0.8
 50
0
  1
床上換気口設置例
  0
TEXT
  8
_0-4_文字-記号
 62
    7
 10
2400.3611584630835
 20
2078.4231934478635
 40
45
 41
0.8
 50
0
  1
床上換気口（ベースピット）
  0
TEXT
  8
_0-4_文字-記号
 62
    7
 10
2395.0637840637464
 20
1978.8166960017786
 40
45
 41
0.8
 50
0
  1
ＥＸＰゴム
  0
CIRCLE
  8
_0-3_躯体と製品
  6
CONTINUOUS
 62
    3
 10
2112.6140184630822
 20
2119.3753534478615
 40
3
  0
CIRCLE
  8
_0-3_躯体と製品
  6
CONTINUOUS
 62
    3
 10
2292.6140184630826
 20
2119.3753534478615
 40
3
  0
INSERT
  2
-001-_D2
  8
_0-2_寸法
 10
240.73024606677745
 20
496.19000022278351
 41
1
 42
1
 50
0
  0
INSERT
  2
-002-_D3
  8
_0-2_寸法
 10
240.73024606677745
 20
496.19000022278351
 41
1
 42
1
 50
0
  0
INSERT
  2
-003-_D4
  8
_0-2_寸法
 10
240.73024606677745
 20
496.19000022278351
 41
1
 42
1
 50
0
  0
INSERT
  2
-004-_D5
  8
_0-2_寸法
 10
240.73024606677745
 20
496.19000022278351
 41
1
 42
1
 50
0
  0
INSERT
  2
-005-_D6
  8
_0-2_寸法
 10
240.73024606677745
 20
496.19000022278351
 41
1
 42
1
 50
0
  0
INSERT
  2
-006-_D7
  8
_0-2_寸法
 10
240.73024606677745
 20
496.19000022278351
 41
1
 42
1
 50
0
  0
INSERT
  2
-007-_D8
  8
_0-2_寸法
 10
240.73024606677745
 20
496.19000022278351
 41
1
 42
1
 50
0
  0
INSERT
  2
-008-_D9
  8
_0-2_寸法
 10
240.73024606677745
 20
496.19000022278351
 41
1
 42
1
 50
0
  0
INSERT
  2
-009-_D10
  8
_0-2_寸法
 10
240.73024606677745
 20
496.19000022278351
 41
1
 42
1
 50
0
  0
INSERT
  2
-010-_D11
  8
_0-2_寸法
 10
240.73024606677745
 20
496.19000022278351
 41
1
 42
1
 50
0
  0
INSERT
  2
-011-_D12
  8
_0-2_寸法
 10
240.73024606677745
 20
496.19000022278351
 41
1
 42
1
 50
0
  0
INSERT
  2
-012-_D13
  8
_0-2_寸法
 10
240.73024606677745
 20
496.19000022278351
 41
1
 42
1
 50
0
  0
INSERT
  2
-013-_D14
  8
_0-2_寸法
 10
240.73024606677745
 20
496.19000022278351
 41
1
 42
1
 50
0
  0
INSERT
  2
-014-_D15
  8
_0-2_寸法
 10
240.73024606677745
 20
496.19000022278351
 41
1
 42
1
 50
0
  0
TEXT
  8
_0-2_寸法
 62
    7
 10
1193.5699716561862
 20
782.97433914031762
 40
45
 41
1
 50
0
  1
@300
  0
TEXT
  8
_0-2_寸法
 62
    7
 10
1119.0140347664101
 20
1275.3286636140988
 40
45
 41
1
 50
0
  1
@900
  0
TEXT
  8
_0-2_寸法
 62
    7
 10
2938.5593714158454
 20
1275.0363538605393
 40
45
 41
1
 50
0
  1
@900
  0
TEXT
  8
_0-2_寸法
 62
    7
 10
1129.0035955225499
 20
74.022994180957994
 40
45
 41
1
 50
0
  1
@900
  0
INSERT
  2
-015-_D16
  8
_0-2_寸法
 10
240.73024606677745
 20
496.19000022278351
 41
1
 42
1
 50
0
  0
TEXT
  8
_0-4_文字-記号
 62
    7
 10
1968.5360291944055
 20
2048.1559503457738
 40
45
 41
0.8
 50
0
  1
巾木
  0
TEXT
  8
_0-4_文字-記号
 62
    7
 10
2144.8117673323732
 20
1703.6901223725206
 40
45
 41
0.8
 50
0.0000100000010064
  1
大引鋼
  0
TEXT
  8
_0-4_文字-記号
 62
    7
 10
3029.0754107991474
 20
1699.9595652808935
 40
45
 41
0.8
 50
0
  1
根太鋼
  0
TEXT
  8
_0-4_文字-記号
 62
    7
 10
2875.0561096299093
 20
1541.8746220875605
 40
45
 41
0.8
 50
0
  1
支持脚６０１
  0
TEXT
  8
_0-4_文字-記号
 62
    7
 10
611.8209166027068
 20
462.70932096468869
 40
45
 41
0.8
 50
0.0000100000010064
  1
大引鋼
  0
TEXT
  8
_0-4_文字-記号
 62
    7
 10
1225.6690986182953
 20
499.7440111627941
 40
45
 41
0.8
 50
0
  1
根太鋼
  0
TEXT
  8
_0-4_文字-記号
 62
    7
 10
1075.8478331112888
 20
317.88803937170007
 40
45
 41
0.8
 50
0
  1
支持脚６０１
  0
LINE
  8
_0-5_中心線
  6
CENTER1
 62
    7
 10
1005.6995165089826
 20
1372.3234134478628
 11
1005.6995165089826
 21
1844.0293476586385
  0
ARC
  8
_0-3_躯体と製品
  6
CONTINUOUS
 62
    4
 10
961.4053282225774
 20
1385.9234134478543
 40
1.5999999999912689
 50
270
 51
89.999999999999972
  0
LINE
  8
_0-3_躯体と製品
  6
CONTINUOUS
 62
    4
 10
961.4053282225774
 20
1387.5234134478455
 11
930.69951650898804
 21
1387.5234134478455
  0
LINE
  8
_0-3_躯体と製品
  6
CONTINUOUS
 62
    4
 10
930.69951650898804
 20
1387.5234134478455
 11
930.69951650898804
 21
1384.323413447863
  0
LINE
  8
_0-3_躯体と製品
  6
CONTINUOUS
 62
    4
 10
930.69951650898804
 20
1384.323413447863
 11
961.4053282225774
 21
1384.323413447863
  0
ARC
  8
_0-3_躯体と製品
  6
CONTINUOUS
 62
    4
 10
961.40532822259456
 20
1391.5234134478569
 40
7.1999999999937891
 50
269.9999999998638
 51
352.31944208863814
  0
LINE
  8
_0-3_躯体と製品
  6
CONTINUOUS
 62
    4
 10
968.54073420009593
 20
1390.5611341037225
 11
987.02959036343748
 21
1527.6580130834845
  0
ARC
  8
_0-3_躯体と製品
  6
CONTINUOUS
 62
    4
 10
990.99370479538629
 20
1527.1234134478511
 40
4.0000000000005249
 50
89.999999999822265
 51
172.31944208859821
  0
LINE
  8
_0-3_躯体と製品
  6
CONTINUOUS
 62
    4
 10
990.99370479539868
 20
1531.1234134478516
 11
1020.4053282225774
 21
1531.1234134478516
  0
ARC
  8
_0-3_躯体と製品
  6
CONTINUOUS
 62
    4
 10
1020.4053282225898
 20
1527.1234134478511
 40
4.0000000000005249
 50
7.6805579114017926
 51
90.000000000177735
  0
LINE
  8
_0-3_躯体と製品
  6
CONTINUOUS
 62
    4
 10
1024.3694426545385
 20
1527.6580130834845
 11
1042.85829881788
 21
1390.5611341037225
  0
ARC
  8
_0-3_躯体と製品
  6
CONTINUOUS
 62
    4
 10
1049.9937047953815
 20
1391.5234134478569
 40
7.1999999999937891
 50
187.68055791136192
 51
270.0000000001362
  0
LINE
  8
_0-3_躯体と製品
  6
CONTINUOUS
 62
    4
 10
1049.9937047953986
 20
1384.323413447863
 11
1080.6995165089879
 21
1384.323413447863
  0
LINE
  8
_0-3_躯体と製品
  6
CONTINUOUS
 62
    4
 10
1080.6995165089879
 20
1384.323413447863
 11
1080.6995165089879
 21
1387.5234134478455
  0
LINE
  8
_0-3_躯体と製品
  6
CONTINUOUS
 62
    4
 10
1080.6995165089879
 20
1387.5234134478455
 11
1049.9937047953986
 21
1387.5234134478455
  0
ARC
  8
_0-3_躯体と製品
  6
CONTINUOUS
 62
    4
 10
1049.9937047953986
 20
1385.9234134478543
 40
1.5999999999912689
 50
90
 51
270
  0
LINE
  8
_0-3_躯体と製品
  6
CONTINUOUS
 62
    4
 10
959.19951650898793
 20
1387.5234134478455
 11
959.19951650898793
 21
1384.323413447863
  0
LINE
  8
_0-3_躯体と製品
  6
CONTINUOUS
 62
    4
 10
1052.1995165089879
 20
1387.5234134478455
 11
1052.1995165089879
 21
1384.323413447863
  0
LINE
  8
_0-3_躯体と製品
  6
CONTINUOUS
 62
    4
 10
990.99370479539868
 20
1531.1234134478516
 11
989.69951650898804
 21
1534.2061443250934
  0
LINE
  8
_0-3_躯体と製品
  6
CONTINUOUS
 62
    4
 10
991.69951691571407
 20
1538.3234141315404
 11
1019.6995169530834
 21
1538.3234141315404
  0
LINE
  8
_0-3_躯体と製品
  6
CONTINUOUS
 62
    4
 10
1019.6995169530834
 20
1538.3234141315404
 11
1019.6995169530834
 21
1534.3234141315404
  0
LINE
  8
_0-3_躯体と製品
  6
CONTINUOUS
 62
    4
 10
1019.6995169530834
 20
1534.3234141315404
 11
991.69951691571407
 21
1534.3234141315404
  0
LINE
  8
_0-3_躯体と製品
  6
CONTINUOUS
 62
    4
 10
991.69951691571407
 20
1534.3234141315404
 11
991.69951691571407
 21
1538.3234141315404
  0
LINE
  8
_0-3_躯体と製品
  6
CONTINUOUS
 62
    4
 10
1005.6995160835774
 20
1538.3234141315404
 11
1001.6995160835774
 21
1534.3234141315404
  0
LINE
  8
_0-3_躯体と製品
  6
CONTINUOUS
 62
    4
 10
1009.6995161309584
 20
1538.3234141602375
 11
1005.6995161309584
 21
1534.3234141602375
  0
LINE
  8
_0-3_躯体と製品
  6
CONTINUOUS
 62
    4
 10
1020.4053282225774
 20
1531.1234134478516
 11
1021.6995165089879
 21
1534.2061443250934
  0
LINE
  8
_0-3_躯体と製品
  6
CONTINUOUS
 62
    4
 10
930.69951650898804
 20
1382.323413447863
 11
955.69951650898804
 21
1382.323413447863
  0
LINE
  8
_0-3_躯体と製品
  6
CONTINUOUS
 62
    4
 10
955.69951650898804
 20
1382.323413447863
 11
955.69951650898804
 21
1384.323413447863
  0
LINE
  8
_0-3_躯体と製品
  6
CONTINUOUS
 62
    4
 10
955.69951650898804
 20
1384.323413447863
 11
930.69951650898804
 21
1384.323413447863
  0
LINE
  8
_0-3_躯体と製品
  6
CONTINUOUS
 62
    4
 10
930.69951650898804
 20
1384.323413447863
 11
930.69951650898804
 21
1382.323413447863
  0
LINE
  8
_0-3_躯体と製品
  6
CONTINUOUS
 62
    4
 10
1080.6995165089879
 20
1382.323413447863
 11
1055.6995165089879
 21
1382.323413447863
  0
LINE
  8
_0-3_躯体と製品
  6
CONTINUOUS
 62
    4
 10
1055.6995165089879
 20
1382.323413447863
 11
1055.6995165089879
 21
1384.323413447863
  0
LINE
  8
_0-3_躯体と製品
  6
CONTINUOUS
 62
    4
 10
1055.6995165089879
 20
1384.323413447863
 11
1080.6995165089879
 21
1384.323413447863
  0
LINE
  8
_0-3_躯体と製品
  6
CONTINUOUS
 62
    4
 10
1080.6995165089879
 20
1384.323413447863
 11
1080.6995165089879
 21
1382.323413447863
  0
LINE
  8
_0-3_躯体と製品
  6
CONTINUOUS
 62
    4
 10
1053.5603016960063
 20
1387.5234141345504
 11
1035.2465654902894
 21
1523.3217448752914
  0
ARC
  8
_0-3_躯体と製品
  6
CONTINUOUS
 62
    4
 10
1031.2824510660125
 20
1522.7871451827841
 40
3.9999999999987201
 50
7.680558733437878
 51
82.319442910985771
  0
LINE
  8
_0-3_躯体と製品
  6
CONTINUOUS
 62
    4
 10
1031.8170506447473
 20
1526.7512596224044
 11
1027.6448144454603
 21
1527.3139264546994
  0
LINE
  8
_0-3_躯体と製品
  6
CONTINUOUS
 62
    4
 10
1027.6448144454603
 20
1527.3139264546994
 11
1027.5407342000958
 21
1528.0856927919745
  0
ARC
  8
_0-3_躯体と製品
  6
CONTINUOUS
 62
    4
 10
1020.4053282225926
 20
1527.1234134478711
 40
7.1999999999914124
 50
7.6805579111153079
 51
89.999999999889468
  0
LINE
  8
_0-3_躯体と製品
  6
CONTINUOUS
 62
    4
 10
1020.4053282226065
 20
1534.3234134478625
 11
990.99370479539868
 21
1534.3234134478625
  0
ARC
  8
_0-3_躯体と製品
  6
CONTINUOUS
 62
    4
 10
991.02398025885418
 20
1527.048889896058
 40
7.2745865524746938
 50
90.238454965639789
 51
177.91206638987759
  0
LINE
  8
_0-3_躯体と製品
  6
CONTINUOUS
 62
    4
 10
983.75422338646388
 20
1527.3139267345905
 11
979.58198030103597
 21
1526.7512592476635
  0
ARC
  8
_0-3_躯体と製品
  6
CONTINUOUS
 62
    4
 10
980.11657993665665
 20
1522.7871448157152
 40
3.9999999999983218
 50
97.680557911220333
 51
172.31944208876823
  0
LINE
  8
_0-3_躯体と製品
  6
CONTINUOUS
 62
    4
 10
976.1524655047084
 20
1523.3217444513366
 11
957.83873124734748
 21
1387.5234134478455
  0
LINE
  8
_0-3_躯体と製品
  6
CONTINUOUS
 62
    4
 10
1012.6277228047235
 20
1549.8234141315404
 11
1012.6277228047235
 21
1538.3234141315404
  0
LINE
  8
_0-3_躯体と製品
  6
CONTINUOUS
 62
    4
 10
998.77131634414911
 20
1549.8234141315404
 11
998.77131634414911
 21
1538.3234141315404
  0
LINE
  8
_0-3_躯体と製品
  6
CONTINUOUS
 62
    4
 10
995.30721472902007
 20
1551.3234141315404
 11
1016.0918244198524
 21
1551.3234141315404
  0
ARC
  8
_0-3_躯体と製品
  6
CONTINUOUS
 62
    4
 10
995.30721472901996
 20
1546.5734141315472
 40
4.7499999999889821
 50
43.173551107269937
 51
136.8264488927301
  0
ARC
  8
_0-3_躯体と製品
  6
CONTINUOUS
 62
    4
 10
1005.6995195744363
 20
1534.5734141315131
 40
16.750000000029619
 50
65.56730232054764
 51
114.43269767945236
  0
ARC
  8
_0-3_躯体と製品
  6
CONTINUOUS
 62
    4
 10
1016.0918244198525
 20
1546.5734141315488
 40
4.749999999987951
 50
43.173551107257659
 51
136.82644889274232
  0
LINE
  8
_0-3_躯体と製品
  6
CONTINUOUS
 62
    4
 10
1019.5559260349816
 20
1549.8234141315404
 11
1019.5559260349816
 21
1538.3234141315404
  0
LINE
  8
_0-3_躯体と製品
  6
CONTINUOUS
 62
    4
 10
1019.5559260349816
 20
1538.3234141315404
 11
991.84311311389092
 21
1538.3234141315404
  0
LINE
  8
_0-3_躯体と製品
  6
CONTINUOUS
 62
    4
 10
991.84311311389092
 20
1538.3234141315404
 11
991.84311311389092
 21
1549.8234141315404
  0
LINE
  8
_0-3_躯体と製品
  6
CONTINUOUS
 62
    4
 10
1012.6277238664311
 20
1519.6234134478514
 11
1012.6277238664311
 21
1531.1234134478516
  0
LINE
  8
_0-3_躯体と製品
  6
CONTINUOUS
 62
    4
 10
998.77131740588595
 20
1519.6234134478514
 11
998.77131740588595
 21
1531.1234134478516
  0
LINE
  8
_0-3_躯体と製品
  6
CONTINUOUS
 62
    4
 10
995.3072157907568
 20
1518.1234134478514
 11
1016.0918254815892
 21
1518.1234134478514
  0
ARC
  8
_0-3_躯体と製品
  6
CONTINUOUS
 62
    4
 10
995.30721579074236
 20
1522.8734134478582
 40
4.7500000000088578
 50
223.1735511072699
 51
316.82644889273007
  0
ARC
  8
_0-3_躯体と製品
  6
CONTINUOUS
 62
    4
 10
1005.6995206361585
 20
1534.8734134478466
 40
16.749999999994301
 50
245.56730232054764
 51
294.43269767945236
  0
ARC
  8
_0-3_躯体と製品
  6
CONTINUOUS
 62
    4
 10
1016.0918254815747
 20
1522.8734134478568
 40
4.7500000000079829
 50
223.17355110725768
 51
316.82644889274235
  0
LINE
  8
_0-3_躯体と製品
  6
CONTINUOUS
 62
    4
 10
1019.5559270967184
 20
1519.6234134478514
 11
1019.5559270967184
 21
1531.1234134478516
  0
LINE
  8
_0-3_躯体と製品
  6
CONTINUOUS
 62
    4
 10
1019.5559270967184
 20
1531.1234134478516
 11
991.84311417559877
 21
1531.1234134478516
  0
LINE
  8
_0-3_躯体と製品
  6
CONTINUOUS
 62
    4
 10
991.84311417559877
 20
1531.1234134478516
 11
991.84311417559877
 21
1519.6234134478514
  0
LINE
  8
_0-5_中心線
  6
CENTER1
 62
    7
 10
227.48928846308218
 20
1372.3234134478628
 11
227.48928846308218
 21
1844.0293476586385
  0
ARC
  8
_0-3_躯体と製品
  6
CONTINUOUS
 62
    4
 10
183.19510017667699
 20
1385.9234134478543
 40
1.5999999999912689
 50
270
 51
89.999999999999972
  0
LINE
  8
_0-3_躯体と製品
  6
CONTINUOUS
 62
    4
 10
183.19510017667699
 20
1387.5234134478455
 11
152.48928846308763
 21
1387.5234134478455
  0
LINE
  8
_0-3_躯体と製品
  6
CONTINUOUS
 62
    4
 10
152.48928846308763
 20
1387.5234134478455
 11
152.48928846308763
 21
1384.323413447863
  0
LINE
  8
_0-3_躯体と製品
  6
CONTINUOUS
 62
    4
 10
152.48928846308763
 20
1384.323413447863
 11
183.19510017667699
 21
1384.323413447863
  0
ARC
  8
_0-3_躯体と製品
  6
CONTINUOUS
 62
    4
 10
183.19510017669404
 20
1391.5234134478569
 40
7.1999999999937891
 50
269.9999999998638
 51
352.31944208863814
  0
LINE
  8
_0-3_躯体と製品
  6
CONTINUOUS
 62
    4
 10
190.33050615419552
 20
1390.5611341037225
 11
208.81936231753707
 21
1527.6580130834845
  0
ARC
  8
_0-3_躯体と製品
  6
CONTINUOUS
 62
    4
 10
212.78347674948577
 20
1527.1234134478511
 40
4.0000000000005249
 50
89.999999999822265
 51
172.31944208859821
  0
LINE
  8
_0-3_躯体と製品
  6
CONTINUOUS
 62
    4
 10
212.78347674949828
 20
1531.1234134478516
 11
242.19510017667699
 21
1531.1234134478516
  0
ARC
  8
_0-3_躯体と製品
  6
CONTINUOUS
 62
    4
 10
242.19510017668949
 20
1527.1234134478511
 40
4.0000000000005249
 50
7.6805579114017926
 51
90.000000000177735
  0
LINE
  8
_0-3_躯体と製品
  6
CONTINUOUS
 62
    4
 10
246.15921460863819
 20
1527.6580130834845
 11
264.64807077197975
 21
1390.5611341037225
  0
ARC
  8
_0-3_躯体と製品
  6
CONTINUOUS
 62
    4
 10
271.78347674948122
 20
1391.5234134478569
 40
7.1999999999937891
 50
187.68055791136192
 51
270.0000000001362
  0
LINE
  8
_0-3_躯体と製品
  6
CONTINUOUS
 62
    4
 10
271.78347674949828
 20
1384.323413447863
 11
302.48928846308763
 21
1384.323413447863
  0
LINE
  8
_0-3_躯体と製品
  6
CONTINUOUS
 62
    4
 10
302.48928846308763
 20
1384.323413447863
 11
302.48928846308763
 21
1387.5234134478455
  0
LINE
  8
_0-3_躯体と製品
  6
CONTINUOUS
 62
    4
 10
302.48928846308763
 20
1387.5234134478455
 11
271.78347674949828
 21
1387.5234134478455
  0
ARC
  8
_0-3_躯体と製品
  6
CONTINUOUS
 62
    4
 10
271.78347674949828
 20
1385.9234134478543
 40
1.5999999999912689
 50
90
 51
270
  0
LINE
  8
_0-3_躯体と製品
  6
CONTINUOUS
 62
    4
 10
180.98928846308763
 20
1387.5234134478455
 11
180.98928846308763
 21
1384.323413447863
  0
LINE
  8
_0-3_躯体と製品
  6
CONTINUOUS
 62
    4
 10
273.98928846308763
 20
1387.5234134478455
 11
273.98928846308763
 21
1384.323413447863
  0
LINE
  8
_0-3_躯体と製品
  6
CONTINUOUS
 62
    4
 10
212.78347674949828
 20
1531.1234134478516
 11
211.48928846308763
 21
1534.2061443250934
  0
LINE
  8
_0-3_躯体と製品
  6
CONTINUOUS
 62
    4
 10
213.48928886981366
 20
1538.3234141315404
 11
241.48928890718298
 21
1538.3234141315404
  0
LINE
  8
_0-3_躯体と製品
  6
CONTINUOUS
 62
    4
 10
241.48928890718298
 20
1538.3234141315404
 11
241.48928890718298
 21
1534.3234141315404
  0
LINE
  8
_0-3_躯体と製品
  6
CONTINUOUS
 62
    4
 10
241.48928890718298
 20
1534.3234141315404
 11
213.48928886981366
 21
1534.3234141315404
  0
LINE
  8
_0-3_躯体と製品
  6
CONTINUOUS
 62
    4
 10
213.48928886981366
 20
1534.3234141315404
 11
213.48928886981366
 21
1538.3234141315404
  0
LINE
  8
_0-3_躯体と製品
  6
CONTINUOUS
 62
    4
 10
227.48928803767694
 20
1538.3234141315404
 11
223.48928803767694
 21
1534.3234141315404
  0
LINE
  8
_0-3_躯体と製品
  6
CONTINUOUS
 62
    4
 10
231.48928808505798
 20
1538.3234141602375
 11
227.48928808505798
 21
1534.3234141602375
  0
LINE
  8
_0-3_躯体と製品
  6
CONTINUOUS
 62
    4
 10
242.19510017667699
 20
1531.1234134478516
 11
243.48928846308763
 21
1534.2061443250934
  0
LINE
  8
_0-3_躯体と製品
  6
CONTINUOUS
 62
    4
 10
152.48928846308763
 20
1382.323413447863
 11
177.48928846308763
 21
1382.323413447863
  0
LINE
  8
_0-3_躯体と製品
  6
CONTINUOUS
 62
    4
 10
177.48928846308763
 20
1382.323413447863
 11
177.48928846308763
 21
1384.323413447863
  0
LINE
  8
_0-3_躯体と製品
  6
CONTINUOUS
 62
    4
 10
177.48928846308763
 20
1384.323413447863
 11
152.48928846308763
 21
1384.323413447863
  0
LINE
  8
_0-3_躯体と製品
  6
CONTINUOUS
 62
    4
 10
152.48928846308763
 20
1384.323413447863
 11
152.48928846308763
 21
1382.323413447863
  0
LINE
  8
_0-3_躯体と製品
  6
CONTINUOUS
 62
    4
 10
302.48928846308763
 20
1382.323413447863
 11
277.48928846308763
 21
1382.323413447863
  0
LINE
  8
_0-3_躯体と製品
  6
CONTINUOUS
 62
    4
 10
277.48928846308763
 20
1382.323413447863
 11
277.48928846308763
 21
1384.323413447863
  0
LINE
  8
_0-3_躯体と製品
  6
CONTINUOUS
 62
    4
 10
277.48928846308763
 20
1384.323413447863
 11
302.48928846308763
 21
1384.323413447863
  0
LINE
  8
_0-3_躯体と製品
  6
CONTINUOUS
 62
    4
 10
302.48928846308763
 20
1384.323413447863
 11
302.48928846308763
 21
1382.323413447863
  0
LINE
  8
_0-3_躯体と製品
  6
CONTINUOUS
 62
    4
 10
275.35007365010597
 20
1387.5234141345504
 11
257.03633744438912
 21
1523.3217448752914
  0
ARC
  8
_0-3_躯体と製品
  6
CONTINUOUS
 62
    4
 10
253.07222302011223
 20
1522.7871451827841
 40
3.9999999999987201
 50
7.680558733437878
 51
82.319442910985771
  0
LINE
  8
_0-3_躯体と製品
  6
CONTINUOUS
 62
    4
 10
253.60682259884697
 20
1526.7512596224044
 11
249.43458639955998
 21
1527.3139264546994
  0
LINE
  8
_0-3_躯体と製品
  6
CONTINUOUS
 62
    4
 10
249.43458639955998
 20
1527.3139264546994
 11
249.33050615419552
 21
1528.0856927919745
  0
ARC
  8
_0-3_躯体と製品
  6
CONTINUOUS
 62
    4
 10
242.19510017669222
 20
1527.1234134478711
 40
7.1999999999914799
 50
7.6805579111157591
 51
89.999999999889923
  0
LINE
  8
_0-3_躯体と製品
  6
CONTINUOUS
 62
    4
 10
242.19510017670609
 20
1534.3234134478625
 11
212.78347674949828
 21
1534.3234134478625
  0
ARC
  8
_0-3_躯体と製品
  6
CONTINUOUS
 62
    4
 10
212.81375221295389
 20
1527.048889896058
 40
7.2745865524746938
 50
90.238454965639789
 51
177.91206638987759
  0
LINE
  8
_0-3_躯体と製品
  6
CONTINUOUS
 62
    4
 10
205.54399534056347
 20
1527.3139267345905
 11
201.37175225513556
 21
1526.7512592476635
  0
ARC
  8
_0-3_躯体と製品
  6
CONTINUOUS
 62
    4
 10
201.90635189075624
 20
1522.7871448157152
 40
3.9999999999983218
 50
97.680557911220333
 51
172.31944208876823
  0
LINE
  8
_0-3_躯体と製品
  6
CONTINUOUS
 62
    4
 10
197.94223745880799
 20
1523.3217444513366
 11
179.62850320144707
 21
1387.5234134478455
  0
LINE
  8
_0-3_躯体と製品
  6
CONTINUOUS
 62
    4
 10
234.41749475882307
 20
1549.8234141315404
 11
234.41749475882307
 21
1538.3234141315404
  0
LINE
  8
_0-3_躯体と製品
  6
CONTINUOUS
 62
    4
 10
220.56108829824871
 20
1549.8234141315404
 11
220.56108829824871
 21
1538.3234141315404
  0
LINE
  8
_0-3_躯体と製品
  6
CONTINUOUS
 62
    4
 10
217.09698668311967
 20
1551.3234141315404
 11
237.88159637395211
 21
1551.3234141315404
  0
ARC
  8
_0-3_躯体と製品
  6
CONTINUOUS
 62
    4
 10
217.09698668311967
 20
1546.5734141315475
 40
4.749999999988904
 50
43.173551107269937
 51
136.8264488927301
  0
ARC
  8
_0-3_躯体と製品
  6
CONTINUOUS
 62
    4
 10
227.48929152853589
 20
1534.5734141315131
 40
16.750000000029619
 50
65.56730232054764
 51
114.43269767945236
  0
ARC
  8
_0-3_躯体と製品
  6
CONTINUOUS
 62
    4
 10
237.88159637395211
 20
1546.5734141315488
 40
4.749999999987951
 50
43.173551107257659
 51
136.82644889274232
  0
LINE
  8
_0-3_躯体と製品
  6
CONTINUOUS
 62
    4
 10
241.34569798908115
 20
1549.8234141315404
 11
241.34569798908115
 21
1538.3234141315404
  0
LINE
  8
_0-3_躯体と製品
  6
CONTINUOUS
 62
    4
 10
241.34569798908115
 20
1538.3234141315404
 11
213.63288506799063
 21
1538.3234141315404
  0
LINE
  8
_0-3_躯体と製品
  6
CONTINUOUS
 62
    4
 10
213.63288506799063
 20
1538.3234141315404
 11
213.63288506799063
 21
1549.8234141315404
  0
LINE
  8
_0-3_躯体と製品
  6
CONTINUOUS
 62
    4
 10
234.4174958205308
 20
1519.6234134478514
 11
234.4174958205308
 21
1531.1234134478516
  0
LINE
  8
_0-3_躯体と製品
  6
CONTINUOUS
 62
    4
 10
220.56108935998554
 20
1519.6234134478514
 11
220.56108935998554
 21
1531.1234134478516
  0
LINE
  8
_0-3_躯体と製品
  6
CONTINUOUS
 62
    4
 10
217.09698774485651
 20
1518.1234134478514
 11
237.88159743568895
 21
1518.1234134478514
  0
ARC
  8
_0-3_躯体と製品
  6
CONTINUOUS
 62
    4
 10
217.09698774484195
 20
1522.8734134478582
 40
4.7500000000088578
 50
223.1735511072699
 51
316.82644889273007
  0
ARC
  8
_0-3_躯体と製品
  6
CONTINUOUS
 62
    4
 10
227.48929259025817
 20
1534.8734134478468
 40
16.749999999994436
 50
245.56730232054764
 51
294.43269767945236
  0
ARC
  8
_0-3_躯体と製品
  6
CONTINUOUS
 62
    4
 10
237.88159743567439
 20
1522.8734134478568
 40
4.7500000000079048
 50
223.17355110725768
 51
316.82644889274235
  0
LINE
  8
_0-3_躯体と製品
  6
CONTINUOUS
 62
    4
 10
241.34569905081798
 20
1519.6234134478514
 11
241.34569905081798
 21
1531.1234134478516
  0
LINE
  8
_0-3_躯体と製品
  6
CONTINUOUS
 62
    4
 10
241.34569905081798
 20
1531.1234134478516
 11
213.63288612969836
 21
1531.1234134478516
  0
LINE
  8
_0-3_躯体と製品
  6
CONTINUOUS
 62
    4
 10
213.63288612969836
 20
1531.1234134478516
 11
213.63288612969836
 21
1519.6234134478514
  0
LINE
  8
_0-3_躯体と製品
  6
CONTINUOUS
 62
    4
 10
219.48928847326806
 20
1518.1234134478514
 11
219.48928847326806
 21
1466.2234134478581
  0
LINE
  8
_0-3_躯体と製品
  6
CONTINUOUS
 62
    3
 10
220.98928846308218
 20
1518.1280950758005
 11
220.98928846308218
 21
1464.7234134478581
  0
LINE
  8
_0-3_躯体と製品
  6
CONTINUOUS
 62
    4
 10
235.48928953055793
 20
1518.1234134478514
 11
235.48928953055793
 21
1466.2234134478581
  0
LINE
  8
_0-3_躯体と製品
  6
CONTINUOUS
 62
    3
 10
233.98928846308218
 20
1518.1234134478514
 11
233.98928846308218
 21
1464.7234134478581
  0
LINE
  8
_0-3_躯体と製品
  6
CONTINUOUS
 62
    4
 10
219.48928847326806
 20
1466.2234134478581
 11
220.98928846308218
 21
1464.7234134478581
  0
LINE
  8
_0-3_躯体と製品
  6
CONTINUOUS
 62
    3
 10
219.48928847326806
 20
1466.2234134478581
 11
235.48928953055793
 21
1466.2234134478581
  0
LINE
  8
_0-3_躯体と製品
  6
CONTINUOUS
 62
    4
 10
235.48928953055793
 20
1466.2234134478581
 11
233.98928846308218
 21
1464.7234134478581
  0
LINE
  8
_0-3_躯体と製品
  6
CONTINUOUS
 62
    4
 10
220.98928846308218
 20
1464.7234134478581
 11
233.98928846308218
 21
1464.7234134478581
  0
LINE
  8
_0-5_中心線
  6
CENTER1
 62
    7
 10
2802.6140184630826
 20
1372.3234134478625
 11
2802.6140184630826
 21
1844.0293476586376
  0
ARC
  8
_0-3_躯体と製品
  6
CONTINUOUS
 62
    4
 10
2758.3198301766774
 20
1385.9234134478538
 40
1.5999999999912689
 50
270
 51
89.999999999999972
  0
LINE
  8
_0-3_躯体と製品
  6
CONTINUOUS
 62
    4
 10
2758.3198301766774
 20
1387.5234134478451
 11
2727.6140184630885
 21
1387.5234134478451
  0
LINE
  8
_0-3_躯体と製品
  6
CONTINUOUS
 62
    4
 10
2727.6140184630885
 20
1387.5234134478451
 11
2727.6140184630885
 21
1384.3234134478625
  0
LINE
  8
_0-3_躯体と製品
  6
CONTINUOUS
 62
    4
 10
2727.6140184630885
 20
1384.3234134478625
 11
2758.3198301766774
 21
1384.3234134478625
  0
ARC
  8
_0-3_躯体と製品
  6
CONTINUOUS
 62
    4
 10
2758.3198301766943
 20
1391.523413447856
 40
7.1999999999934747
 50
269.99999999986511
 51
352.31944208863939
  0
LINE
  8
_0-3_躯体と製品
  6
CONTINUOUS
 62
    4
 10
2765.4552361541955
 20
1390.561134103722
 11
2783.9440923175375
 21
1527.6580130834845
  0
ARC
  8
_0-3_躯体と製品
  6
CONTINUOUS
 62
    4
 10
2787.9082067494855
 20
1527.1234134478507
 40
3.9999999999996962
 50
89.999999999816211
 51
172.31944208859215
  0
LINE
  8
_0-3_躯体と製品
  6
CONTINUOUS
 62
    4
 10
2787.9082067494983
 20
1531.1234134478505
 11
2817.3198301766774
 21
1531.1234134478505
  0
ARC
  8
_0-3_躯体と製品
  6
CONTINUOUS
 62
    4
 10
2817.3198301766906
 20
1527.1234134478505
 40
3.999999999999956
 50
7.680557911411106
 51
90.000000000187057
  0
LINE
  8
_0-3_躯体と製品
  6
CONTINUOUS
 62
    4
 10
2821.2839446086386
 20
1527.6580130834845
 11
2839.7728007719793
 21
1390.561134103722
  0
ARC
  8
_0-3_躯体と製品
  6
CONTINUOUS
 62
    4
 10
2846.908206749481
 20
1391.5234134478565
 40
7.1999999999939943
 50
187.68055791136422
 51
270.00000000013853
  0
LINE
  8
_0-3_躯体と製品
  6
CONTINUOUS
 62
    4
 10
2846.9082067494983
 20
1384.3234134478625
 11
2877.6140184630876
 21
1384.3234134478625
  0
LINE
  8
_0-3_躯体と製品
  6
CONTINUOUS
 62
    4
 10
2877.6140184630876
 20
1384.3234134478625
 11
2877.6140184630876
 21
1387.5234134478451
  0
LINE
  8
_0-3_躯体と製品
  6
CONTINUOUS
 62
    4
 10
2877.6140184630876
 20
1387.5234134478451
 11
2846.9082067494983
 21
1387.5234134478451
  0
ARC
  8
_0-3_躯体と製品
  6
CONTINUOUS
 62
    4
 10
2846.9082067494983
 20
1385.9234134478538
 40
1.5999999999912689
 50
90
 51
270
  0
LINE
  8
_0-3_躯体と製品
  6
CONTINUOUS
 62
    4
 10
2756.1140184630876
 20
1387.5234134478451
 11
2756.1140184630876
 21
1384.3234134478625
  0
LINE
  8
_0-3_躯体と製品
  6
CONTINUOUS
 62
    4
 10
2849.1140184630876
 20
1387.5234134478451
 11
2849.1140184630876
 21
1384.3234134478625
  0
LINE
  8
_0-3_躯体と製品
  6
CONTINUOUS
 62
    4
 10
2787.9082067494983
 20
1531.1234134478505
 11
2786.6140184630876
 21
1534.2061443250925
  0
LINE
  8
_0-3_躯体と製品
  6
CONTINUOUS
 62
    4
 10
2788.6140188698137
 20
1538.3234141315404
 11
2816.6140189071834
 21
1538.3234141315404
  0
LINE
  8
_0-3_躯体と製品
  6
CONTINUOUS
 62
    4
 10
2816.6140189071834
 20
1538.3234141315404
 11
2816.6140189071834
 21
1534.3234141315404
  0
LINE
  8
_0-3_躯体と製品
  6
CONTINUOUS
 62
    4
 10
2816.6140189071834
 20
1534.3234141315404
 11
2788.6140188698137
 21
1534.3234141315404
  0
LINE
  8
_0-3_躯体と製品
  6
CONTINUOUS
 62
    4
 10
2788.6140188698137
 20
1534.3234141315404
 11
2788.6140188698137
 21
1538.3234141315404
  0
LINE
  8
_0-3_躯体と製品
  6
CONTINUOUS
 62
    4
 10
2802.6140180376774
 20
1538.3234141315404
 11
2798.6140180376774
 21
1534.3234141315404
  0
LINE
  8
_0-3_躯体と製品
  6
CONTINUOUS
 62
    4
 10
2806.6140180850584
 20
1538.3234141602366
 11
2802.6140180850584
 21
1534.3234141602366
  0
LINE
  8
_0-3_躯体と製品
  6
CONTINUOUS
 62
    4
 10
2817.3198301766774
 20
1531.1234134478505
 11
2818.6140184630876
 21
1534.2061443250925
  0
LINE
  8
_0-3_躯体と製品
  6
CONTINUOUS
 62
    4
 10
2727.6140184630885
 20
1382.3234134478625
 11
2752.6140184630876
 21
1382.3234134478625
  0
LINE
  8
_0-3_躯体と製品
  6
CONTINUOUS
 62
    4
 10
2752.6140184630876
 20
1382.3234134478625
 11
2752.6140184630876
 21
1384.3234134478625
  0
LINE
  8
_0-3_躯体と製品
  6
CONTINUOUS
 62
    4
 10
2752.6140184630876
 20
1384.3234134478625
 11
2727.6140184630885
 21
1384.3234134478625
  0
LINE
  8
_0-3_躯体と製品
  6
CONTINUOUS
 62
    4
 10
2727.6140184630885
 20
1384.3234134478625
 11
2727.6140184630885
 21
1382.3234134478625
  0
LINE
  8
_0-3_躯体と製品
  6
CONTINUOUS
 62
    4
 10
2877.6140184630876
 20
1382.3234134478625
 11
2852.6140184630885
 21
1382.3234134478625
  0
LINE
  8
_0-3_躯体と製品
  6
CONTINUOUS
 62
    4
 10
2852.6140184630885
 20
1382.3234134478625
 11
2852.6140184630885
 21
1384.3234134478625
  0
LINE
  8
_0-3_躯体と製品
  6
CONTINUOUS
 62
    4
 10
2852.6140184630885
 20
1384.3234134478625
 11
2877.6140184630876
 21
1384.3234134478625
  0
LINE
  8
_0-3_躯体と製品
  6
CONTINUOUS
 62
    4
 10
2877.6140184630876
 20
1384.3234134478625
 11
2877.6140184630876
 21
1382.3234134478625
  0
LINE
  8
_0-3_躯体と製品
  6
CONTINUOUS
 62
    4
 10
2850.4748036501064
 20
1387.52341413455
 11
2832.1610674443896
 21
1523.3217448752905
  0
ARC
  8
_0-3_躯体と製品
  6
CONTINUOUS
 62
    4
 10
2828.1969530201127
 20
1522.7871451827832
 40
3.9999999999987201
 50
7.680558733437878
 51
82.319442910985771
  0
LINE
  8
_0-3_躯体と製品
  6
CONTINUOUS
 62
    4
 10
2828.7315525988474
 20
1526.7512596224035
 11
2824.5593163995604
 21
1527.3139264546985
  0
LINE
  8
_0-3_躯体と製品
  6
CONTINUOUS
 62
    4
 10
2824.5593163995604
 20
1527.3139264546985
 11
2824.4552361541955
 21
1528.0856927919735
  0
ARC
  8
_0-3_躯体と製品
  6
CONTINUOUS
 62
    4
 10
2817.319830176692
 20
1527.1234134478709
 40
7.1999999999916735
 50
7.6805579111098083
 51
89.999999999883968
  0
LINE
  8
_0-3_躯体と製品
  6
CONTINUOUS
 62
    4
 10
2817.3198301767065
 20
1534.3234134478625
 11
2787.9082067494983
 21
1534.3234134478625
  0
ARC
  8
_0-3_躯体と製品
  6
CONTINUOUS
 62
    4
 10
2787.9384822129541
 20
1527.048889896058
 40
7.2745865524746938
 50
90.238454965639789
 51
177.91206638987759
  0
LINE
  8
_0-3_躯体と製品
  6
CONTINUOUS
 62
    4
 10
2780.6687253405635
 20
1527.3139267345905
 11
2776.4964822551356
 21
1526.7512592476635
  0
ARC
  8
_0-3_躯体と製品
  6
CONTINUOUS
 62
    4
 10
2777.0310818907574
 20
1522.7871448157148
 40
3.9999999999987197
 50
97.680557911233663
 51
172.31944208878156
  0
LINE
  8
_0-3_躯体と製品
  6
CONTINUOUS
 62
    4
 10
2773.0669674588084
 20
1523.3217444513355
 11
2754.7532332014475
 21
1387.5234134478451
  0
LINE
  8
_0-3_躯体と製品
  6
CONTINUOUS
 62
    4
 10
2809.5422247588235
 20
1549.8234141315404
 11
2809.5422247588235
 21
1538.3234141315404
  0
LINE
  8
_0-3_躯体と製品
  6
CONTINUOUS
 62
    4
 10
2795.6858182982496
 20
1549.8234141315404
 11
2795.6858182982496
 21
1538.3234141315404
  0
LINE
  8
_0-3_躯体と製品
  6
CONTINUOUS
 62
    4
 10
2792.2217166831206
 20
1551.3234141315404
 11
2813.0063263739526
 21
1551.3234141315404
  0
ARC
  8
_0-3_躯体と製品
  6
CONTINUOUS
 62
    4
 10
2792.2217166831201
 20
1546.573414131547
 40
4.7499999999895284
 50
43.173551107269937
 51
136.8264488927301
  0
ARC
  8
_0-3_躯体と製品
  6
CONTINUOUS
 62
    4
 10
2802.6140215285368
 20
1534.5734141315138
 40
16.750000000029068
 50
65.56730232054764
 51
114.43269767945236
  0
ARC
  8
_0-3_躯体と製品
  6
CONTINUOUS
 62
    4
 10
2813.0063263739526
 20
1546.5734141315488
 40
4.749999999987951
 50
43.173551107257659
 51
136.82644889274232
  0
LINE
  8
_0-3_躯体と製品
  6
CONTINUOUS
 62
    4
 10
2816.4704279890816
 20
1549.8234141315404
 11
2816.4704279890816
 21
1538.3234141315404
  0
LINE
  8
_0-3_躯体と製品
  6
CONTINUOUS
 62
    4
 10
2816.4704279890816
 20
1538.3234141315404
 11
2788.7576150679906
 21
1538.3234141315404
  0
LINE
  8
_0-3_躯体と製品
  6
CONTINUOUS
 62
    4
 10
2788.7576150679906
 20
1538.3234141315404
 11
2788.7576150679906
 21
1549.8234141315404
  0
LINE
  8
_0-3_躯体と製品
  6
CONTINUOUS
 62
    4
 10
2809.5422258205313
 20
1519.6234134478505
 11
2809.5422258205313
 21
1531.1234134478505
  0
LINE
  8
_0-3_躯体と製品
  6
CONTINUOUS
 62
    4
 10
2795.6858193599855
 20
1519.6234134478505
 11
2795.6858193599855
 21
1531.1234134478505
  0
LINE
  8
_0-3_躯体と製品
  6
CONTINUOUS
 62
    4
 10
2792.2217177448565
 20
1518.1234134478505
 11
2813.0063274356894
 21
1518.1234134478505
  0
ARC
  8
_0-3_躯体と製品
  6
CONTINUOUS
 62
    4
 10
2792.221717744842
 20
1522.8734134478573
 40
4.7500000000088578
 50
223.1735511072699
 51
316.82644889273007
  0
ARC
  8
_0-3_躯体と製品
  6
CONTINUOUS
 62
    4
 10
2802.6140225902582
 20
1534.8734134478464
 40
16.749999999994987
 50
245.56730232054764
 51
294.43269767945236
  0
ARC
  8
_0-3_躯体と製品
  6
CONTINUOUS
 62
    4
 10
2813.0063274356744
 20
1522.8734134478555
 40
4.7500000000072813
 50
223.17355110725768
 51
316.82644889274235
  0
LINE
  8
_0-3_躯体と製品
  6
CONTINUOUS
 62
    4
 10
2816.4704290508175
 20
1519.6234134478505
 11
2816.4704290508175
 21
1531.1234134478505
  0
LINE
  8
_0-3_躯体と製品
  6
CONTINUOUS
 62
    4
 10
2816.4704290508175
 20
1531.1234134478505
 11
2788.7576161296984
 21
1531.1234134478505
  0
LINE
  8
_0-3_躯体と製品
  6
CONTINUOUS
 62
    4
 10
2788.7576161296984
 20
1531.1234134478505
 11
2788.7576161296984
 21
1519.6234134478505
  0
LINE
  8
_0-5_中心線
  6
CENTER1
 62
    7
 10
2052.6140184630822
 20
1372.3234134478625
 11
2052.6140184630822
 21
1844.0293476586376
  0
ARC
  8
_0-3_躯体と製品
  6
CONTINUOUS
 62
    4
 10
2008.3198301766765
 20
1385.9234134478538
 40
1.5999999999912689
 50
270
 51
89.999999999999972
  0
LINE
  8
_0-3_躯体と製品
  6
CONTINUOUS
 62
    4
 10
2008.3198301766765
 20
1387.5234134478451
 11
1977.6140184630874
 21
1387.5234134478451
  0
LINE
  8
_0-3_躯体と製品
  6
CONTINUOUS
 62
    4
 10
1977.6140184630874
 20
1387.5234134478451
 11
1977.6140184630874
 21
1384.3234134478625
  0
LINE
  8
_0-3_躯体と製品
  6
CONTINUOUS
 62
    4
 10
1977.6140184630874
 20
1384.3234134478625
 11
2008.3198301766765
 21
1384.3234134478625
  0
ARC
  8
_0-3_躯体と製品
  6
CONTINUOUS
 62
    4
 10
2008.3198301766938
 20
1391.5234134478565
 40
7.1999999999939943
 50
269.99999999986153
 51
352.31944208863581
  0
LINE
  8
_0-3_躯体と製品
  6
CONTINUOUS
 62
    4
 10
2015.4552361541955
 20
1390.561134103722
 11
2033.9440923175364
 21
1527.6580130834845
  0
ARC
  8
_0-3_躯体と製品
  6
CONTINUOUS
 62
    4
 10
2037.9082067494851
 20
1527.12341344785
 40
4.000000000000477
 50
89.999999999806448
 51
172.31944208858241
  0
LINE
  8
_0-3_躯体と製品
  6
CONTINUOUS
 62
    4
 10
2037.9082067494985
 20
1531.1234134478505
 11
2067.3198301766765
 21
1531.1234134478505
  0
ARC
  8
_0-3_躯体と製品
  6
CONTINUOUS
 62
    4
 10
2067.3198301766897
 20
1527.12341344785
 40
4.0000000000003464
 50
7.680557911415991
 51
90.000000000191946
  0
LINE
  8
_0-3_躯体と製品
  6
CONTINUOUS
 62
    4
 10
2071.2839446086382
 20
1527.6580130834845
 11
2089.7728007719797
 21
1390.561134103722
  0
ARC
  8
_0-3_躯体と製品
  6
CONTINUOUS
 62
    4
 10
2096.908206749481
 20
1391.5234134478565
 40
7.1999999999939943
 50
187.68055791136422
 51
270.00000000013853
  0
LINE
  8
_0-3_躯体と製品
  6
CONTINUOUS
 62
    4
 10
2096.9082067494983
 20
1384.3234134478625
 11
2127.6140184630876
 21
1384.3234134478625
  0
LINE
  8
_0-3_躯体と製品
  6
CONTINUOUS
 62
    4
 10
2127.6140184630876
 20
1384.3234134478625
 11
2127.6140184630876
 21
1387.5234134478451
  0
LINE
  8
_0-3_躯体と製品
  6
CONTINUOUS
 62
    4
 10
2127.6140184630876
 20
1387.5234134478451
 11
2096.9082067494983
 21
1387.5234134478451
  0
ARC
  8
_0-3_躯体と製品
  6
CONTINUOUS
 62
    4
 10
2096.9082067494983
 20
1385.9234134478538
 40
1.5999999999912689
 50
90
 51
270
  0
LINE
  8
_0-3_躯体と製品
  6
CONTINUOUS
 62
    4
 10
2006.1140184630874
 20
1387.5234134478451
 11
2006.1140184630874
 21
1384.3234134478625
  0
LINE
  8
_0-3_躯体と製品
  6
CONTINUOUS
 62
    4
 10
2099.1140184630876
 20
1387.5234134478451
 11
2099.1140184630876
 21
1384.3234134478625
  0
LINE
  8
_0-3_躯体と製品
  6
CONTINUOUS
 62
    4
 10
2037.9082067494985
 20
1531.1234134478505
 11
2036.6140184630874
 21
1534.2061443250925
  0
LINE
  8
_0-3_躯体と製品
  6
CONTINUOUS
 62
    4
 10
2038.6140188698134
 20
1538.3234141315404
 11
2066.6140189071834
 21
1538.3234141315404
  0
LINE
  8
_0-3_躯体と製品
  6
CONTINUOUS
 62
    4
 10
2066.6140189071834
 20
1538.3234141315404
 11
2066.6140189071834
 21
1534.3234141315404
  0
LINE
  8
_0-3_躯体と製品
  6
CONTINUOUS
 62
    4
 10
2066.6140189071834
 20
1534.3234141315404
 11
2038.6140188698134
 21
1534.3234141315404
  0
LINE
  8
_0-3_躯体と製品
  6
CONTINUOUS
 62
    4
 10
2038.6140188698134
 20
1534.3234141315404
 11
2038.6140188698134
 21
1538.3234141315404
  0
LINE
  8
_0-3_躯体と製品
  6
CONTINUOUS
 62
    4
 10
2052.6140180376765
 20
1538.3234141315404
 11
2048.6140180376765
 21
1534.3234141315404
  0
LINE
  8
_0-3_躯体と製品
  6
CONTINUOUS
 62
    4
 10
2056.6140180850575
 20
1538.3234141602366
 11
2052.6140180850584
 21
1534.3234141602366
  0
LINE
  8
_0-3_躯体と製品
  6
CONTINUOUS
 62
    4
 10
2067.3198301766765
 20
1531.1234134478505
 11
2068.6140184630876
 21
1534.2061443250925
  0
LINE
  8
_0-3_躯体と製品
  6
CONTINUOUS
 62
    4
 10
1977.6140184630874
 20
1382.3234134478625
 11
2002.6140184630874
 21
1382.3234134478625
  0
LINE
  8
_0-3_躯体と製品
  6
CONTINUOUS
 62
    4
 10
2002.6140184630874
 20
1382.3234134478625
 11
2002.6140184630874
 21
1384.3234134478625
  0
LINE
  8
_0-3_躯体と製品
  6
CONTINUOUS
 62
    4
 10
2002.6140184630874
 20
1384.3234134478625
 11
1977.6140184630874
 21
1384.3234134478625
  0
LINE
  8
_0-3_躯体と製品
  6
CONTINUOUS
 62
    4
 10
1977.6140184630874
 20
1384.3234134478625
 11
1977.6140184630874
 21
1382.3234134478625
  0
LINE
  8
_0-3_躯体と製品
  6
CONTINUOUS
 62
    4
 10
2127.6140184630876
 20
1382.3234134478625
 11
2102.6140184630876
 21
1382.3234134478625
  0
LINE
  8
_0-3_躯体と製品
  6
CONTINUOUS
 62
    4
 10
2102.6140184630876
 20
1382.3234134478625
 11
2102.6140184630876
 21
1384.3234134478625
  0
LINE
  8
_0-3_躯体と製品
  6
CONTINUOUS
 62
    4
 10
2102.6140184630876
 20
1384.3234134478625
 11
2127.6140184630876
 21
1384.3234134478625
  0
LINE
  8
_0-3_躯体と製品
  6
CONTINUOUS
 62
    4
 10
2127.6140184630876
 20
1384.3234134478625
 11
2127.6140184630876
 21
1382.3234134478625
  0
LINE
  8
_0-3_躯体と製品
  6
CONTINUOUS
 62
    4
 10
2100.4748036501064
 20
1387.52341413455
 11
2082.1610674443891
 21
1523.3217448752905
  0
ARC
  8
_0-3_躯体と製品
  6
CONTINUOUS
 62
    4
 10
2078.1969530201122
 20
1522.7871451827828
 40
3.999999999999118
 50
7.680558733443573
 51
82.319442910991469
  0
LINE
  8
_0-3_躯体と製品
  6
CONTINUOUS
 62
    4
 10
2078.7315525988465
 20
1526.7512596224035
 11
2074.5593163995595
 21
1527.3139264546985
  0
LINE
  8
_0-3_躯体と製品
  6
CONTINUOUS
 62
    4
 10
2074.5593163995595
 20
1527.3139264546985
 11
2074.4552361541955
 21
1528.0856927919735
  0
ARC
  8
_0-3_躯体と製品
  6
CONTINUOUS
 62
    4
 10
2067.3198301766915
 20
1527.1234134478702
 40
7.1999999999923228
 50
7.6805579111143292
 51
89.999999999888502
  0
LINE
  8
_0-3_躯体と製品
  6
CONTINUOUS
 62
    4
 10
2067.3198301767052
 20
1534.3234134478625
 11
2037.9082067494985
 21
1534.3234134478625
  0
ARC
  8
_0-3_躯体と製品
  6
CONTINUOUS
 62
    4
 10
2037.9384822129539
 20
1527.048889896058
 40
7.2745865524748119
 50
90.238454965638923
 51
177.91206638987671
  0
LINE
  8
_0-3_躯体と製品
  6
CONTINUOUS
 62
    4
 10
2030.6687253405635
 20
1527.3139267345905
 11
2026.4964822551356
 21
1526.7512592476635
  0
ARC
  8
_0-3_躯体と製品
  6
CONTINUOUS
 62
    4
 10
2027.0310818907567
 20
1522.7871448157143
 40
3.9999999999992499
 50
97.680557911226032
 51
172.31944208877391
  0
LINE
  8
_0-3_躯体と製品
  6
CONTINUOUS
 62
    4
 10
2023.0669674588075
 20
1523.3217444513355
 11
2004.7532332014464
 21
1387.5234134478451
  0
LINE
  8
_0-3_躯体と製品
  6
CONTINUOUS
 62
    4
 10
2059.5422247588222
 20
1549.8234141315404
 11
2059.5422247588222
 21
1538.3234141315404
  0
LINE
  8
_0-3_躯体と製品
  6
CONTINUOUS
 62
    4
 10
2045.6858182982485
 20
1549.8234141315404
 11
2045.6858182982485
 21
1538.3234141315404
  0
LINE
  8
_0-3_躯体と製品
  6
CONTINUOUS
 62
    4
 10
2042.2217166831194
 20
1551.3234141315404
 11
2063.0063263739512
 21
1551.3234141315404
  0
ARC
  8
_0-3_躯体と製品
  6
CONTINUOUS
 62
    4
 10
2042.2217166831194
 20
1546.5734141315475
 40
4.749999999988904
 50
43.173551107269937
 51
136.8264488927301
  0
ARC
  8
_0-3_躯体と製品
  6
CONTINUOUS
 62
    4
 10
2052.6140215285354
 20
1534.5734141315138
 40
16.750000000029068
 50
65.56730232054764
 51
114.43269767945236
  0
ARC
  8
_0-3_躯体と製品
  6
CONTINUOUS
 62
    4
 10
2063.0063263739521
 20
1546.5734141315484
 40
4.7499999999885745
 50
43.173551107257659
 51
136.82644889274232
  0
LINE
  8
_0-3_躯体と製品
  6
CONTINUOUS
 62
    4
 10
2066.4704279890811
 20
1549.8234141315404
 11
2066.4704279890811
 21
1538.3234141315404
  0
LINE
  8
_0-3_躯体と製品
  6
CONTINUOUS
 62
    4
 10
2066.4704279890811
 20
1538.3234141315404
 11
2038.7576150679904
 21
1538.3234141315404
  0
LINE
  8
_0-3_躯体と製品
  6
CONTINUOUS
 62
    4
 10
2038.7576150679904
 20
1538.3234141315404
 11
2038.7576150679904
 21
1549.8234141315404
  0
LINE
  8
_0-3_躯体と製品
  6
CONTINUOUS
 62
    4
 10
2059.5422258205303
 20
1519.6234134478505
 11
2059.5422258205303
 21
1531.1234134478505
  0
LINE
  8
_0-3_躯体と製品
  6
CONTINUOUS
 62
    4
 10
2045.6858193599855
 20
1519.6234134478505
 11
2045.6858193599855
 21
1531.1234134478505
  0
LINE
  8
_0-3_躯体と製品
  6
CONTINUOUS
 62
    4
 10
2042.2217177448565
 20
1518.1234134478505
 11
2063.0063274356894
 21
1518.1234134478505
  0
ARC
  8
_0-3_躯体と製品
  6
CONTINUOUS
 62
    4
 10
2042.221717744842
 20
1522.8734134478573
 40
4.7500000000088578
 50
223.1735511072699
 51
316.82644889273007
  0
ARC
  8
_0-3_躯体と製品
  6
CONTINUOUS
 62
    4
 10
2052.6140225902582
 20
1534.8734134478452
 40
16.749999999993886
 50
245.56730232054764
 51
294.43269767945236
  0
ARC
  8
_0-3_躯体と製品
  6
CONTINUOUS
 62
    4
 10
2063.0063274356739
 20
1522.8734134478559
 40
4.7500000000079048
 50
223.17355110725768
 51
316.82644889274235
  0
LINE
  8
_0-3_躯体と製品
  6
CONTINUOUS
 62
    4
 10
2066.4704290508175
 20
1519.6234134478505
 11
2066.4704290508175
 21
1531.1234134478505
  0
LINE
  8
_0-3_躯体と製品
  6
CONTINUOUS
 62
    4
 10
2066.4704290508175
 20
1531.1234134478505
 11
2038.7576161296984
 21
1531.1234134478505
  0
LINE
  8
_0-3_躯体と製品
  6
CONTINUOUS
 62
    4
 10
2038.7576161296984
 20
1531.1234134478505
 11
2038.7576161296984
 21
1519.6234134478505
  0
LINE
  8
_0-5_中心線
  6
CENTER1
 62
    7
 10
1005.6995165089826
 20
153.54185864726469
 11
1005.6995165089825
 21
628.55142765863775
  0
LINE
  8
_0-3_躯体と製品
  6
CONTINUOUS
 62
    4
 10
991.69951522422662
 20
322.845494732622
 11
1019.6995152615958
 21
322.845494732622
  0
LINE
  8
_0-3_躯体と製品
  6
CONTINUOUS
 62
    4
 10
1019.6995152615958
 20
322.845494732622
 11
1019.6995152615958
 21
318.845494732622
  0
LINE
  8
_0-3_躯体と製品
  6
CONTINUOUS
 62
    4
 10
1019.6995152615958
 20
318.845494732622
 11
991.69951522422662
 21
318.845494732622
  0
LINE
  8
_0-3_躯体と製品
  6
CONTINUOUS
 62
    4
 10
991.69951522422662
 20
318.845494732622
 11
991.69951522422662
 21
322.845494732622
  0
LINE
  8
_0-3_躯体と製品
  6
CONTINUOUS
 62
    4
 10
1005.6995152429112
 20
322.845494732622
 11
1009.6995152429112
 21
318.845494732622
  0
LINE
  8
_0-3_躯体と製品
  6
CONTINUOUS
 62
    4
 10
1001.6995151955301
 20
322.84549476131838
 11
1005.6995151955301
 21
318.84549476131838
  0
LINE
  8
_0-3_躯体と製品
  6
CONTINUOUS
 62
    4
 10
1030.6995165089861
 20
172.04549344784505
 11
1030.6995165089861
 21
311.83600673459046
  0
LINE
  8
_0-3_躯体と製品
  6
CONTINUOUS
 62
    4
 10
1030.6995165089861
 20
311.83600673459046
 11
980.69951650898611
 21
311.83600673459046
  0
LINE
  8
_0-3_躯体と製品
  6
CONTINUOUS
 62
    4
 10
980.69951650898611
 20
311.83600673459046
 11
980.69951650898611
 21
172.04549344784505
  0
LINE
  8
_0-3_躯体と製品
  6
CONTINUOUS
 62
    4
 10
975.69951650898611
 20
168.84549344786251
 11
1035.6995165089861
 21
168.84549344786251
  0
LINE
  8
_0-3_躯体と製品
  6
CONTINUOUS
 62
    4
 10
1035.6995165089861
 20
168.84549344786251
 11
1035.6995165089861
 21
172.04549344784505
  0
LINE
  8
_0-3_躯体と製品
  6
CONTINUOUS
 62
    4
 10
1035.6995165089861
 20
172.04549344784505
 11
975.69951650898611
 21
172.04549344784505
  0
LINE
  8
_0-3_躯体と製品
  6
CONTINUOUS
 62
    4
 10
975.69951650898611
 20
172.04549344784505
 11
975.69951650898611
 21
168.84549344786251
  0
LINE
  8
_0-3_躯体と製品
  6
CONTINUOUS
 62
    4
 10
983.89951650899775
 20
318.84549344786251
 11
983.89951650899775
 21
172.04549344784505
  0
LINE
  8
_0-3_躯体と製品
  6
CONTINUOUS
 62
    4
 10
1027.4995165089745
 20
318.84549344786251
 11
1027.4995165089745
 21
172.04549344784505
  0
LINE
  8
_0-3_躯体と製品
  6
CONTINUOUS
 62
    4
 10
983.89951650899775
 20
315.64549344785087
 11
975.69951650898611
 21
315.64549344785087
  0
LINE
  8
_0-3_躯体と製品
  6
CONTINUOUS
 62
    4
 10
975.69951650898611
 20
315.64549344785087
 11
975.69951650898611
 21
318.84549344786251
  0
LINE
  8
_0-3_躯体と製品
  6
CONTINUOUS
 62
    4
 10
975.69951650898611
 20
318.84549344786251
 11
1035.6995165089861
 21
318.84549344786251
  0
LINE
  8
_0-3_躯体と製品
  6
CONTINUOUS
 62
    4
 10
1035.6995165089861
 20
318.84549344786251
 11
1035.6995165089861
 21
315.64549344785087
  0
LINE
  8
_0-3_躯体と製品
  6
CONTINUOUS
 62
    4
 10
1035.6995165089861
 20
315.64549344785087
 11
1027.4995165089745
 21
315.64549344785087
  0
LINE
  8
_0-3_躯体と製品
  6
CONTINUOUS
 62
    4
 10
1035.6995165089861
 20
166.84549344786251
 11
975.69951650898611
 21
166.84549344786251
  0
LINE
  8
_0-3_躯体と製品
  6
CONTINUOUS
 62
    4
 10
975.69951650898611
 20
166.84549344786251
 11
975.69951650898611
 21
168.84549344786251
  0
LINE
  8
_0-3_躯体と製品
  6
CONTINUOUS
 62
    4
 10
975.69951650898611
 20
168.84549344786251
 11
1035.6995165089861
 21
168.84549344786251
  0
LINE
  8
_0-3_躯体と製品
  6
CONTINUOUS
 62
    4
 10
1035.6995165089861
 20
168.84549344786251
 11
1035.6995165089861
 21
166.84549344786251
  0
LINE
  8
_0-3_躯体と製品
  6
CONTINUOUS
 62
    4
 10
999.69894883344705
 20
335.84549452159013
 11
1011.6995141375478
 21
335.84549445858033
  0
LINE
  8
_0-3_躯体と製品
  6
CONTINUOUS
 62
    4
 10
993.69951417468428
 20
322.84549481871113
 11
993.69951417468428
 21
334.34549449009978
  0
ARC
  8
_0-3_躯体と製品
  6
CONTINUOUS
 62
    4
 10
999.69951414574052
 20
323.09549498024319
 40
12.749999553899949
 50
61.927512142394527
 51
118.07248785760547
  0
ARC
  8
_0-3_躯体と製品
  6
CONTINUOUS
 62
    4
 10
1011.6995141457405
 20
323.09549410647082
 40
12.750000352116722
 50
61.927513760650953
 51
118.07248623934905
  0
LINE
  8
_0-3_躯体と製品
  6
CONTINUOUS
 62
    4
 10
1017.6995141746843
 20
334.34549449009978
 11
1017.6995141746843
 21
322.84549464653287
  0
LINE
  8
_0-3_躯体と製品
  6
CONTINUOUS
 62
    4
 10
1005.6995141060573
 20
334.34549449009978
 11
1005.6995140268658
 21
322.845494732622
  0
LINE
  8
_0-5_中心線
  6
CENTER1
 62
    7
 10
277.4892884630824
 20
153.54185864726469
 11
277.48928846308218
 21
628.55142765863775
  0
LINE
  8
_0-3_躯体と製品
  6
CONTINUOUS
 62
    4
 10
263.48928717832632
 20
322.84549473262211
 11
291.48928721569564
 21
322.84549473262211
  0
LINE
  8
_0-3_躯体と製品
  6
CONTINUOUS
 62
    4
 10
291.48928721569564
 20
322.84549473262211
 11
291.48928721569564
 21
318.84549473262211
  0
LINE
  8
_0-3_躯体と製品
  6
CONTINUOUS
 62
    4
 10
291.48928721569564
 20
318.84549473262211
 11
263.48928717832632
 21
318.84549473262211
  0
LINE
  8
_0-3_躯体と製品
  6
CONTINUOUS
 62
    4
 10
263.48928717832632
 20
318.84549473262211
 11
263.48928717832632
 21
322.84549473262211
  0
LINE
  8
_0-3_躯体と製品
  6
CONTINUOUS
 62
    4
 10
277.48928719701098
 20
322.84549473262211
 11
281.48928719701098
 21
318.84549473262211
  0
LINE
  8
_0-3_躯体と製品
  6
CONTINUOUS
 62
    4
 10
273.48928714962994
 20
322.84549476131849
 11
277.48928714963017
 21
318.84549476131849
  0
LINE
  8
_0-3_躯体と製品
  6
CONTINUOUS
 62
    4
 10
302.48928846308581
 20
172.04549344784505
 11
302.48928846308581
 21
311.83600673459057
  0
LINE
  8
_0-3_躯体と製品
  6
CONTINUOUS
 62
    4
 10
302.48928846308581
 20
311.83600673459057
 11
252.48928846308581
 21
311.83600673459057
  0
LINE
  8
_0-3_躯体と製品
  6
CONTINUOUS
 62
    4
 10
252.48928846308581
 20
311.83600673459057
 11
252.48928846308581
 21
172.04549344784505
  0
LINE
  8
_0-3_躯体と製品
  6
CONTINUOUS
 62
    4
 10
247.48928846308581
 20
168.84549344786262
 11
307.48928846308581
 21
168.84549344786262
  0
LINE
  8
_0-3_躯体と製品
  6
CONTINUOUS
 62
    4
 10
307.48928846308581
 20
168.84549344786262
 11
307.48928846308581
 21
172.04549344784505
  0
LINE
  8
_0-3_躯体と製品
  6
CONTINUOUS
 62
    4
 10
307.48928846308581
 20
172.04549344784505
 11
247.48928846308581
 21
172.04549344784505
  0
LINE
  8
_0-3_躯体と製品
  6
CONTINUOUS
 62
    4
 10
247.48928846308581
 20
172.04549344784505
 11
247.48928846308581
 21
168.84549344786262
  0
LINE
  8
_0-3_躯体と製品
  6
CONTINUOUS
 62
    4
 10
255.68928846309745
 20
318.84549344786262
 11
255.68928846309745
 21
172.04549344784505
  0
LINE
  8
_0-3_躯体と製品
  6
CONTINUOUS
 62
    4
 10
299.28928846307417
 20
318.84549344786262
 11
299.28928846307417
 21
172.04549344784505
  0
LINE
  8
_0-3_躯体と製品
  6
CONTINUOUS
 62
    4
 10
255.68928846309745
 20
315.64549344785098
 11
247.48928846308581
 21
315.64549344785098
  0
LINE
  8
_0-3_躯体と製品
  6
CONTINUOUS
 62
    4
 10
247.48928846308581
 20
315.64549344785098
 11
247.48928846308581
 21
318.84549344786262
  0
LINE
  8
_0-3_躯体と製品
  6
CONTINUOUS
 62
    4
 10
247.48928846308581
 20
318.84549344786262
 11
307.48928846308581
 21
318.84549344786262
  0
LINE
  8
_0-3_躯体と製品
  6
CONTINUOUS
 62
    4
 10
307.48928846308581
 20
318.84549344786262
 11
307.48928846308581
 21
315.64549344785098
  0
LINE
  8
_0-3_躯体と製品
  6
CONTINUOUS
 62
    4
 10
307.48928846308581
 20
315.64549344785098
 11
299.28928846307417
 21
315.64549344785098
  0
LINE
  8
_0-3_躯体と製品
  6
CONTINUOUS
 62
    4
 10
307.48928846308581
 20
166.84549344786262
 11
247.48928846308581
 21
166.84549344786262
  0
LINE
  8
_0-3_躯体と製品
  6
CONTINUOUS
 62
    4
 10
247.48928846308581
 20
166.84549344786262
 11
247.48928846308581
 21
168.84549344786262
  0
LINE
  8
_0-3_躯体と製品
  6
CONTINUOUS
 62
    4
 10
247.48928846308581
 20
168.84549344786262
 11
307.48928846308581
 21
168.84549344786262
  0
LINE
  8
_0-3_躯体と製品
  6
CONTINUOUS
 62
    4
 10
307.48928846308581
 20
168.84549344786262
 11
307.48928846308581
 21
166.84549344786262
  0
LINE
  8
_0-3_躯体と製品
  6
CONTINUOUS
 62
    4
 10
271.48872078754675
 20
335.84549452159024
 11
283.4892860916475
 21
335.84549445858045
  0
LINE
  8
_0-3_躯体と製品
  6
CONTINUOUS
 62
    4
 10
265.48928612878422
 20
322.84549481871124
 11
265.48928612878422
 21
334.3454944900999
  0
ARC
  8
_0-3_躯体と製品
  6
CONTINUOUS
 62
    4
 10
271.48928609984023
 20
323.09549498024353
 40
12.749999553899707
 50
61.927512142394527
 51
118.07248785760547
  0
ARC
  8
_0-3_躯体と製品
  6
CONTINUOUS
 62
    4
 10
283.48928609984023
 20
323.09549410647094
 40
12.750000352116722
 50
61.927513760650953
 51
118.07248623934905
  0
LINE
  8
_0-3_躯体と製品
  6
CONTINUOUS
 62
    4
 10
289.48928612878399
 20
334.3454944900999
 11
289.48928612878399
 21
322.84549464653298
  0
LINE
  8
_0-3_躯体と製品
  6
CONTINUOUS
 62
    4
 10
277.48928606015738
 20
334.3454944900999
 11
277.48928598096586
 21
322.84549473262211
  0
TEXT
  8
_0-4_文字-記号
 62
    7
 10
156.2535922152183
 20
1971.8319095321076
 40
45
 41
0.8
 50
0
  1
または巾木のみ込み
  0
CIRCLE
  8
_0-3_躯体と製品
  6
CONTINUOUS
 62
    3
 10
277.48928846308218
 20
612.84549344786262
 40
2.4999880000000001
  0
CIRCLE
  8
_0-3_躯体と製品
  6
CONTINUOUS
 62
    3
 10
277.48928846308218
 20
612.84549344786262
 40
2.9999839999999991
  0
CIRCLE
  8
_0-3_躯体と製品
  6
CONTINUOUS
 62
    3
 10
277.48928846308218
 20
612.84549344786262
 40
4.999973999999999
  0
LINE
  8
_0-3_躯体と製品
  6
CONTINUOUS
 62
    3
 10
252.48928846308218
 20
599.34549344786262
 11
254.98928846308218
 21
599.34549344786262
  0
ARC
  8
_0-3_躯体と製品
  6
CONTINUOUS
 62
    3
 10
254.98928846308218
 20
601.84549344786262
 40
2.5
 50
270
 51
89.999999999999972
  0
LINE
  8
_0-3_躯体と製品
  6
CONTINUOUS
 62
    3
 10
254.98928846308218
 20
604.34549344786262
 11
252.48928846308218
 21
604.34549344786262
  0
ARC
  8
_0-3_躯体と製品
  6
CONTINUOUS
 62
    3
 10
284.98928846305307
 20
601.84549344786262
 40
2.5
 50
270
 51
90
  0
LINE
  8
_0-3_躯体と製品
  6
CONTINUOUS
 62
    3
 10
284.98928846305307
 20
599.34549344786262
 11
269.98928846308218
 21
599.34549344786262
  0
ARC
  8
_0-3_躯体と製品
  6
CONTINUOUS
 62
    3
 10
269.98928846308218
 20
601.84549344786262
 40
2.5
 50
90
 51
270
  0
LINE
  8
_0-3_躯体と製品
  6
CONTINUOUS
 62
    3
 10
269.98928846308218
 20
604.34549344786262
 11
284.98928846305307
 21
604.34549344786262
  0
LINE
  8
_0-3_躯体と製品
  6
CONTINUOUS
 62
    3
 10
302.48928846308218
 20
599.34549344786262
 11
299.98928846305307
 21
599.34549344786262
  0
ARC
  8
_0-3_躯体と製品
  6
CONTINUOUS
 62
    3
 10
299.98928846305307
 20
601.84549344786262
 40
2.5
 50
90
 51
270
  0
LINE
  8
_0-3_躯体と製品
  6
CONTINUOUS
 62
    3
 10
299.98928846305307
 20
604.34549344786262
 11
302.48928846308218
 21
604.34549344786262
  0
ARC
  8
_0-3_躯体と製品
  6
CONTINUOUS
 62
    4
 10
300.28928846308509
 20
620.64549344786553
 40
2.1999999999970896
 50
359.99999999962102
 51
89.999999999621011
  0
LINE
  8
_0-3_躯体と製品
  6
CONTINUOUS
 62
    4
 10
302.48928846308218
 20
620.64549344785098
 11
302.48928846308218
 21
549.2454934478568
  0
LINE
  8
_0-3_躯体と製品
  6
CONTINUOUS
 62
    4
 10
302.48928846308218
 20
549.2454934478568
 11
252.48928846308218
 21
549.2454934478568
  0
LINE
  8
_0-3_躯体と製品
  6
CONTINUOUS
 62
    4
 10
252.48928846308218
 20
549.2454934478568
 11
252.48928846305307
 21
620.64549344785098
  0
ARC
  8
_0-3_躯体と製品
  6
CONTINUOUS
 62
    4
 10
254.68928846306471
 20
620.64549344785098
 40
2.2000000000116411
 50
89.999999999999986
 51
180
  0
LINE
  8
_0-3_躯体と製品
  6
CONTINUOUS
 62
    4
 10
254.68928846306471
 20
622.84549344786262
 11
300.28928846309964
 21
622.84549344786262
  0
ARC
  8
_0-3_躯体と製品
  6
CONTINUOUS
 62
    3
 10
292.48928846306762
 20
613.84549344786262
 40
5.0000000000145519
 50
0.0000000000000254
 51
180
  0
LINE
  8
_0-3_躯体と製品
  6
CONTINUOUS
 62
    3
 10
297.48928846308218
 20
613.84549344786262
 11
297.48928846308218
 21
558.2454934478568
  0
ARC
  8
_0-3_躯体と製品
  6
CONTINUOUS
 62
    3
 10
292.48928846308218
 20
558.2454934478568
 40
5
 50
180.00000000000003
 51
0
  0
LINE
  8
_0-3_躯体と製品
  6
CONTINUOUS
 62
    3
 10
287.48928846308218
 20
558.2454934478568
 11
287.48928846305307
 21
613.84549344786262
  0
ARC
  8
_0-3_躯体と製品
  6
CONTINUOUS
 62
    3
 10
262.48928846308218
 20
613.84549344786262
 40
5
 50
0.000000000000007
 51
179.99999999999997
  0
LINE
  8
_0-3_躯体と製品
  6
CONTINUOUS
 62
    3
 10
257.48928846308218
 20
613.84549344786262
 11
257.48928846308218
 21
558.2454934478568
  0
ARC
  8
_0-3_躯体と製品
  6
CONTINUOUS
 62
    3
 10
262.48928846308218
 20
558.2454934478568
 40
5
 50
180
 51
0
  0
LINE
  8
_0-3_躯体と製品
  6
CONTINUOUS
 62
    3
 10
267.48928846308218
 20
558.2454934478568
 11
267.48928846308218
 21
613.84549344786262
  0
LINE
  8
_0-3_躯体と製品
  6
CONTINUOUS
 62
    4
 10
271.48872308126511
 20
536.24549365885957
 11
283.48928838539496
 21
536.24549372189847
  0
LINE
  8
_0-3_躯体と製品
  6
CONTINUOUS
 62
    4
 10
263.48928841816587
 20
532.24549363580934
 11
291.48928845556429
 21
532.24549363580934
  0
LINE
  8
_0-3_躯体と製品
  6
CONTINUOUS
 62
    4
 10
291.48928845556429
 20
532.24549363580934
 11
291.48928845556429
 21
536.24549363580934
  0
LINE
  8
_0-3_躯体と製品
  6
CONTINUOUS
 62
    4
 10
291.48928845556429
 20
536.24549363580934
 11
263.48928841816587
 21
536.24549363580934
  0
LINE
  8
_0-3_躯体と製品
  6
CONTINUOUS
 62
    4
 10
263.48928841816587
 20
536.24549363580934
 11
263.48928841816587
 21
532.24549363580934
  0
LINE
  8
_0-3_躯体と製品
  6
CONTINUOUS
 62
    4
 10
265.48928842253144
 20
549.24549336176767
 11
265.48928842253144
 21
537.74549363580934
  0
ARC
  8
_0-3_躯体と製品
  6
CONTINUOUS
 62
    4
 10
271.48928840063081
 20
548.99549375051413
 40
12.750000090903935
 50
241.92751339355425
 51
298.07248660644575
  0
ARC
  8
_0-3_躯体と製品
  6
CONTINUOUS
 62
    4
 10
283.48928840063081
 20
548.99549445514515
 40
12.750000733249538
 50
241.927514709977
 51
298.072485290023
  0
LINE
  8
_0-3_躯体と製品
  6
CONTINUOUS
 62
    4
 10
289.48928842253144
 20
537.74549363580934
 11
289.48928842253144
 21
549.24549353394593
  0
LINE
  8
_0-3_躯体と製品
  6
CONTINUOUS
 62
    4
 10
271.48872323269234
 20
519.24549384681211
 11
283.48928853679308
 21
519.24549390985101
  0
LINE
  8
_0-3_躯体と製品
  6
CONTINUOUS
 62
    4
 10
265.48928857392957
 20
532.24549354972021
 11
265.48928857392957
 21
520.74549387833156
  0
ARC
  8
_0-3_躯体と製品
  6
CONTINUOUS
 62
    4
 10
271.48928854498581
 20
531.99549338818815
 40
12.749999553899949
 50
241.92751214239453
 51
298.07248785760549
  0
ARC
  8
_0-3_躯体と製品
  6
CONTINUOUS
 62
    4
 10
283.48928854498581
 20
531.99549426196052
 40
12.750000352116722
 50
241.92751376065095
 51
298.07248623934902
  0
LINE
  8
_0-3_躯体と製品
  6
CONTINUOUS
 62
    4
 10
289.48928857392957
 20
520.74549387833156
 11
289.48928857392957
 21
532.24549372189847
  0
LINE
  8
_0-3_躯体と製品
  6
CONTINUOUS
 62
    4
 10
277.48928837873018
 20
537.74549363580934
 11
277.4892882854524
 21
549.2454934478568
  0
LINE
  8
_0-3_躯体と製品
  6
CONTINUOUS
 62
    4
 10
277.48928850527363
 20
520.74549387833156
 11
277.48928842611122
 21
532.24549363580934
  0
LINE
  8
_0-3_躯体と製品
  6
CONTINUOUS
 62
    4
 10
217.09698361766596
 20
1751.7234134478585
 11
237.8815933084984
 21
1751.7234134478585
  0
LINE
  8
_0-3_躯体と製品
  6
CONTINUOUS
 62
    4
 10
220.5610852328241
 20
1753.2234134478585
 11
220.5610852328241
 21
1764.7234134478585
  0
LINE
  8
_0-3_躯体と製品
  6
CONTINUOUS
 62
    4
 10
234.41749169336936
 20
1736.2234134478585
 11
234.41749169336936
 21
1747.7234134478585
  0
LINE
  8
_0-3_躯体と製品
  6
CONTINUOUS
 62
    4
 10
234.41749169336936
 20
1753.2234134478585
 11
234.41749169336936
 21
1764.7234134478585
  0
LINE
  8
_0-3_躯体と製品
  6
CONTINUOUS
 62
    4
 10
220.5610852328241
 20
1736.2234134478585
 11
220.5610852328241
 21
1747.7234134478585
  0
ARC
  8
_0-3_躯体と製品
  6
CONTINUOUS
 62
    4
 10
217.09698361768051
 20
1756.4734134478645
 40
4.7500000000083809
 50
223.17355110726379
 51
316.82644889273621
  0
ARC
  8
_0-3_躯体と製品
  6
CONTINUOUS
 62
    4
 10
227.48928846309673
 20
1768.4734131274186
 40
16.74999970825489
 50
245.56730186717647
 51
294.43269813282353
  0
ARC
  8
_0-3_躯体と製品
  6
CONTINUOUS
 62
    4
 10
237.8815933084984
 20
1756.4734134478513
 40
4.7499999999887379
 50
223.17355110726777
 51
316.82644889273217
  0
LINE
  8
_0-3_躯体と製品
  6
CONTINUOUS
 62
    4
 10
241.34569492362743
 20
1753.2234134478585
 11
241.34569492362743
 21
1764.7234134478585
  0
LINE
  8
_0-3_躯体と製品
  6
CONTINUOUS
 62
    4
 10
241.34569492362743
 20
1764.7234134478585
 11
213.63288200253692
 21
1764.7234134478585
  0
LINE
  8
_0-3_躯体と製品
  6
CONTINUOUS
 62
    4
 10
213.63288200253692
 20
1764.7234134478585
 11
213.63288200253692
 21
1753.2234134478585
  0
LINE
  8
_0-3_躯体と製品
  6
CONTINUOUS
 62
    4
 10
213.4892884587457
 20
1747.7234134478585
 11
241.48928849611502
 21
1747.7234134478585
  0
LINE
  8
_0-3_躯体と製品
  6
CONTINUOUS
 62
    4
 10
241.48928849611502
 20
1747.7234134478585
 11
241.48928849611502
 21
1751.7234134478585
  0
LINE
  8
_0-3_躯体と製品
  6
CONTINUOUS
 62
    4
 10
241.48928849611502
 20
1751.7234134478585
 11
213.4892884587457
 21
1751.7234134478585
  0
LINE
  8
_0-3_躯体と製品
  6
CONTINUOUS
 62
    4
 10
213.4892884587457
 20
1751.7234134478585
 11
213.4892884587457
 21
1747.7234134478585
  0
LINE
  8
_0-3_躯体と製品
  6
CONTINUOUS
 62
    4
 10
217.09698361766596
 20
1734.7234134478585
 11
237.8815933084984
 21
1734.7234134478585
  0
LINE
  8
_0-3_躯体と製品
  6
CONTINUOUS
 62
    4
 10
227.48928847743036
 20
1747.7234134478585
 11
231.48928847743036
 21
1751.7234134478585
  0
ARC
  8
_0-3_躯体と製品
  6
CONTINUOUS
 62
    4
 10
217.09698361768051
 20
1739.4734134478654
 40
4.7500000000088578
 50
223.1735511072699
 51
316.82644889273007
  0
ARC
  8
_0-3_躯体と製品
  6
CONTINUOUS
 62
    4
 10
227.48928846309673
 20
1751.4734134478538
 40
16.749999999994436
 50
245.56730232054764
 51
294.43269767945236
  0
ARC
  8
_0-3_躯体と製品
  6
CONTINUOUS
 62
    4
 10
237.8815933084984
 20
1739.4734134478504
 40
4.749999999987951
 50
223.17355110725768
 51
316.82644889274235
  0
LINE
  8
_0-3_躯体と製品
  6
CONTINUOUS
 62
    4
 10
241.34569492362743
 20
1736.2234134478585
 11
241.34569492362743
 21
1747.7234134478585
  0
LINE
  8
_0-3_躯体と製品
  6
CONTINUOUS
 62
    4
 10
241.34569492362743
 20
1747.7234134478585
 11
213.63288200253692
 21
1747.7234134478585
  0
LINE
  8
_0-3_躯体と製品
  6
CONTINUOUS
 62
    4
 10
213.63288200253692
 20
1747.7234134478585
 11
213.63288200253692
 21
1736.2234134478585
  0
LINE
  8
_0-3_躯体と製品
  6
CONTINUOUS
 62
    4
 10
223.48928843004933
 20
1747.7234134191615
 11
227.48928843004933
 21
1751.7234134191624
  0
LINE
  8
_0-3_躯体と製品
  6
CONTINUOUS
 62
    4
 10
995.30721166356625
 20
1751.7234134478574
 11
1016.0918213543988
 21
1751.7234134478574
  0
LINE
  8
_0-3_躯体と製品
  6
CONTINUOUS
 62
    4
 10
998.77131327872451
 20
1753.2234134478574
 11
998.77131327872451
 21
1764.7234134478574
  0
LINE
  8
_0-3_躯体と製品
  6
CONTINUOUS
 62
    4
 10
1012.6277197392698
 20
1736.2234134478574
 11
1012.6277197392698
 21
1747.7234134478585
  0
LINE
  8
_0-3_躯体と製品
  6
CONTINUOUS
 62
    4
 10
1012.6277197392698
 20
1753.2234134478574
 11
1012.6277197392698
 21
1764.7234134478574
  0
LINE
  8
_0-3_躯体と製品
  6
CONTINUOUS
 62
    4
 10
998.77131327872451
 20
1736.2234134478574
 11
998.77131327872451
 21
1747.7234134478585
  0
ARC
  8
_0-3_躯体と製品
  6
CONTINUOUS
 62
    4
 10
995.30721166358092
 20
1756.4734134478635
 40
4.7500000000083809
 50
223.17355110726379
 51
316.82644889273621
  0
ARC
  8
_0-3_躯体と製品
  6
CONTINUOUS
 62
    4
 10
1005.6995165089971
 20
1768.4734131274174
 40
16.74999970825489
 50
245.56730186717647
 51
294.43269813282353
  0
ARC
  8
_0-3_躯体と製品
  6
CONTINUOUS
 62
    4
 10
1016.0918213543988
 20
1756.4734134478504
 40
4.7499999999887379
 50
223.17355110726777
 51
316.82644889273217
  0
LINE
  8
_0-3_躯体と製品
  6
CONTINUOUS
 62
    4
 10
1019.5559229695278
 20
1753.2234134478574
 11
1019.5559229695278
 21
1764.7234134478574
  0
LINE
  8
_0-3_躯体と製品
  6
CONTINUOUS
 62
    4
 10
1019.5559229695278
 20
1764.7234134478574
 11
991.84311004843732
 21
1764.7234134478574
  0
LINE
  8
_0-3_躯体と製品
  6
CONTINUOUS
 62
    4
 10
991.84311004843732
 20
1764.7234134478574
 11
991.84311004843732
 21
1753.2234134478574
  0
LINE
  8
_0-3_躯体と製品
  6
CONTINUOUS
 62
    4
 10
991.699516504646
 20
1747.7234134478585
 11
1019.6995165420153
 21
1747.7234134478585
  0
LINE
  8
_0-3_躯体と製品
  6
CONTINUOUS
 62
    4
 10
1019.6995165420153
 20
1747.7234134478585
 11
1019.6995165420153
 21
1751.7234134478574
  0
LINE
  8
_0-3_躯体と製品
  6
CONTINUOUS
 62
    4
 10
1019.6995165420153
 20
1751.7234134478574
 11
991.699516504646
 21
1751.7234134478574
  0
LINE
  8
_0-3_躯体と製品
  6
CONTINUOUS
 62
    4
 10
991.699516504646
 20
1751.7234134478574
 11
991.699516504646
 21
1747.7234134478585
  0
LINE
  8
_0-3_躯体と製品
  6
CONTINUOUS
 62
    4
 10
995.30721166356625
 20
1734.7234134478574
 11
1016.0918213543988
 21
1734.7234134478574
  0
LINE
  8
_0-3_躯体と製品
  6
CONTINUOUS
 62
    4
 10
1005.6995165233307
 20
1747.7234134478585
 11
1009.6995165233307
 21
1751.7234134478574
  0
ARC
  8
_0-3_躯体と製品
  6
CONTINUOUS
 62
    4
 10
995.30721166358092
 20
1739.473413447864
 40
4.7500000000088578
 50
223.1735511072699
 51
316.82644889273007
  0
ARC
  8
_0-3_躯体と製品
  6
CONTINUOUS
 62
    4
 10
1005.6995165089971
 20
1751.4734134478526
 40
16.749999999994436
 50
245.56730232054764
 51
294.43269767945236
  0
ARC
  8
_0-3_躯体と製品
  6
CONTINUOUS
 62
    4
 10
1016.0918213543988
 20
1739.473413447849
 40
4.749999999987951
 50
223.17355110725768
 51
316.82644889274235
  0
LINE
  8
_0-3_躯体と製品
  6
CONTINUOUS
 62
    4
 10
1019.5559229695278
 20
1736.2234134478574
 11
1019.5559229695278
 21
1747.7234134478585
  0
LINE
  8
_0-3_躯体と製品
  6
CONTINUOUS
 62
    4
 10
1019.5559229695278
 20
1747.7234134478585
 11
991.84311004843732
 21
1747.7234134478585
  0
LINE
  8
_0-3_躯体と製品
  6
CONTINUOUS
 62
    4
 10
991.84311004843732
 20
1747.7234134478585
 11
991.84311004843732
 21
1736.2234134478574
  0
LINE
  8
_0-3_躯体と製品
  6
CONTINUOUS
 62
    4
 10
1001.6995164759496
 20
1747.7234134191615
 11
1005.6995164759496
 21
1751.7234134191615
  0
LINE
  8
_0-3_躯体と製品
  6
CONTINUOUS
 62
    4
 10
2042.2217136176664
 20
1751.7234134478574
 11
2063.0063233084984
 21
1751.7234134478574
  0
LINE
  8
_0-3_躯体と製品
  6
CONTINUOUS
 62
    4
 10
2045.6858152328234
 20
1753.2234134478574
 11
2045.6858152328234
 21
1764.7234134478574
  0
LINE
  8
_0-3_躯体と製品
  6
CONTINUOUS
 62
    4
 10
2059.5422216933694
 20
1736.2234134478574
 11
2059.5422216933694
 21
1747.7234134478585
  0
LINE
  8
_0-3_躯体と製品
  6
CONTINUOUS
 62
    4
 10
2059.5422216933694
 20
1753.2234134478574
 11
2059.5422216933694
 21
1764.7234134478574
  0
LINE
  8
_0-3_躯体と製品
  6
CONTINUOUS
 62
    4
 10
2045.6858152328234
 20
1736.2234134478574
 11
2045.6858152328234
 21
1747.7234134478585
  0
ARC
  8
_0-3_躯体と製品
  6
CONTINUOUS
 62
    4
 10
2042.2217136176805
 20
1756.4734134478629
 40
4.750000000007601
 50
223.17355110726379
 51
316.82644889273621
  0
ARC
  8
_0-3_躯体と製品
  6
CONTINUOUS
 62
    4
 10
2052.6140184630963
 20
1768.4734131274181
 40
16.749999708255714
 50
245.56730186717647
 51
294.43269813282353
  0
ARC
  8
_0-3_躯体と製品
  6
CONTINUOUS
 62
    4
 10
2063.0063233084984
 20
1756.4734134478504
 40
4.7499999999887379
 50
223.17355110726777
 51
316.82644889273217
  0
LINE
  8
_0-3_躯体と製品
  6
CONTINUOUS
 62
    4
 10
2066.4704249236274
 20
1753.2234134478574
 11
2066.4704249236274
 21
1764.7234134478574
  0
LINE
  8
_0-3_躯体と製品
  6
CONTINUOUS
 62
    4
 10
2066.4704249236274
 20
1764.7234134478574
 11
2038.7576120025374
 21
1764.7234134478574
  0
LINE
  8
_0-3_躯体と製品
  6
CONTINUOUS
 62
    4
 10
2038.7576120025374
 20
1764.7234134478574
 11
2038.7576120025374
 21
1753.2234134478574
  0
LINE
  8
_0-3_躯体と製品
  6
CONTINUOUS
 62
    4
 10
2038.6140184587455
 20
1747.7234134478585
 11
2066.6140184961141
 21
1747.7234134478585
  0
LINE
  8
_0-3_躯体と製品
  6
CONTINUOUS
 62
    4
 10
2066.6140184961141
 20
1747.7234134478585
 11
2066.6140184961141
 21
1751.7234134478574
  0
LINE
  8
_0-3_躯体と製品
  6
CONTINUOUS
 62
    4
 10
2066.6140184961141
 20
1751.7234134478574
 11
2038.6140184587455
 21
1751.7234134478574
  0
LINE
  8
_0-3_躯体と製品
  6
CONTINUOUS
 62
    4
 10
2038.6140184587455
 20
1751.7234134478574
 11
2038.6140184587455
 21
1747.7234134478585
  0
LINE
  8
_0-3_躯体と製品
  6
CONTINUOUS
 62
    4
 10
2042.2217136176664
 20
1734.7234134478574
 11
2063.0063233084984
 21
1734.7234134478574
  0
LINE
  8
_0-3_躯体と製品
  6
CONTINUOUS
 62
    4
 10
2052.6140184774304
 20
1747.7234134478585
 11
2056.6140184774304
 21
1751.7234134478574
  0
ARC
  8
_0-3_躯体と製品
  6
CONTINUOUS
 62
    4
 10
2042.2217136176805
 20
1739.4734134478635
 40
4.7500000000080789
 50
223.1735511072699
 51
316.82644889273007
  0
ARC
  8
_0-3_躯体と製品
  6
CONTINUOUS
 62
    4
 10
2052.6140184630963
 20
1751.4734134478533
 40
16.749999999995261
 50
245.56730232054764
 51
294.43269767945236
  0
ARC
  8
_0-3_躯体と製品
  6
CONTINUOUS
 62
    4
 10
2063.0063233084984
 20
1739.473413447849
 40
4.749999999987951
 50
223.17355110725768
 51
316.82644889274235
  0
LINE
  8
_0-3_躯体と製品
  6
CONTINUOUS
 62
    4
 10
2066.4704249236274
 20
1736.2234134478574
 11
2066.4704249236274
 21
1747.7234134478585
  0
LINE
  8
_0-3_躯体と製品
  6
CONTINUOUS
 62
    4
 10
2066.4704249236274
 20
1747.7234134478585
 11
2038.7576120025374
 21
1747.7234134478585
  0
LINE
  8
_0-3_躯体と製品
  6
CONTINUOUS
 62
    4
 10
2038.7576120025374
 20
1747.7234134478585
 11
2038.7576120025374
 21
1736.2234134478574
  0
LINE
  8
_0-3_躯体と製品
  6
CONTINUOUS
 62
    4
 10
2048.6140184300493
 20
1747.7234134191615
 11
2052.6140184300493
 21
1751.7234134191615
  0
LINE
  8
_0-3_躯体と製品
  6
CONTINUOUS
 62
    4
 10
2792.2217136176664
 20
1751.7234134478574
 11
2813.0063233084984
 21
1751.7234134478574
  0
LINE
  8
_0-3_躯体と製品
  6
CONTINUOUS
 62
    4
 10
2795.6858152328246
 20
1753.2234134478574
 11
2795.6858152328246
 21
1764.7234134478574
  0
LINE
  8
_0-3_躯体と製品
  6
CONTINUOUS
 62
    4
 10
2809.5422216933694
 20
1736.2234134478574
 11
2809.5422216933694
 21
1747.7234134478585
  0
LINE
  8
_0-3_躯体と製品
  6
CONTINUOUS
 62
    4
 10
2809.5422216933694
 20
1753.2234134478574
 11
2809.5422216933694
 21
1764.7234134478574
  0
LINE
  8
_0-3_躯体と製品
  6
CONTINUOUS
 62
    4
 10
2795.6858152328246
 20
1736.2234134478574
 11
2795.6858152328246
 21
1747.7234134478585
  0
ARC
  8
_0-3_躯体と製品
  6
CONTINUOUS
 62
    4
 10
2792.221713617681
 20
1756.4734134478635
 40
4.7500000000083809
 50
223.17355110726379
 51
316.82644889273621
  0
ARC
  8
_0-3_躯体と製品
  6
CONTINUOUS
 62
    4
 10
2802.6140184630967
 20
1768.4734131274167
 40
16.749999708254339
 50
245.56730186717647
 51
294.43269813282353
  0
ARC
  8
_0-3_躯体と製品
  6
CONTINUOUS
 62
    4
 10
2813.0063233084984
 20
1756.4734134478504
 40
4.7499999999887379
 50
223.17355110726777
 51
316.82644889273217
  0
LINE
  8
_0-3_躯体と製品
  6
CONTINUOUS
 62
    4
 10
2816.4704249236274
 20
1753.2234134478574
 11
2816.4704249236274
 21
1764.7234134478574
  0
LINE
  8
_0-3_躯体と製品
  6
CONTINUOUS
 62
    4
 10
2816.4704249236274
 20
1764.7234134478574
 11
2788.7576120025374
 21
1764.7234134478574
  0
LINE
  8
_0-3_躯体と製品
  6
CONTINUOUS
 62
    4
 10
2788.7576120025374
 20
1764.7234134478574
 11
2788.7576120025374
 21
1753.2234134478574
  0
LINE
  8
_0-3_躯体と製品
  6
CONTINUOUS
 62
    4
 10
2788.6140184587452
 20
1747.7234134478585
 11
2816.6140184961146
 21
1747.7234134478585
  0
LINE
  8
_0-3_躯体と製品
  6
CONTINUOUS
 62
    4
 10
2816.6140184961146
 20
1747.7234134478585
 11
2816.6140184961146
 21
1751.7234134478574
  0
LINE
  8
_0-3_躯体と製品
  6
CONTINUOUS
 62
    4
 10
2816.6140184961146
 20
1751.7234134478574
 11
2788.6140184587452
 21
1751.7234134478574
  0
LINE
  8
_0-3_躯体と製品
  6
CONTINUOUS
 62
    4
 10
2788.6140184587452
 20
1751.7234134478574
 11
2788.6140184587452
 21
1747.7234134478585
  0
LINE
  8
_0-3_躯体と製品
  6
CONTINUOUS
 62
    4
 10
2792.2217136176664
 20
1734.7234134478574
 11
2813.0063233084984
 21
1734.7234134478574
  0
LINE
  8
_0-3_躯体と製品
  6
CONTINUOUS
 62
    4
 10
2802.6140184774304
 20
1747.7234134478585
 11
2806.6140184774304
 21
1751.7234134478574
  0
ARC
  8
_0-3_躯体と製品
  6
CONTINUOUS
 62
    4
 10
2792.221713617681
 20
1739.473413447864
 40
4.7500000000088578
 50
223.1735511072699
 51
316.82644889273007
  0
ARC
  8
_0-3_躯体と製品
  6
CONTINUOUS
 62
    4
 10
2802.6140184630967
 20
1751.4734134478522
 40
16.749999999993886
 50
245.56730232054764
 51
294.43269767945236
  0
ARC
  8
_0-3_躯体と製品
  6
CONTINUOUS
 62
    4
 10
2813.0063233084984
 20
1739.473413447849
 40
4.749999999987951
 50
223.17355110725768
 51
316.82644889274235
  0
LINE
  8
_0-3_躯体と製品
  6
CONTINUOUS
 62
    4
 10
2816.4704249236274
 20
1736.2234134478574
 11
2816.4704249236274
 21
1747.7234134478585
  0
LINE
  8
_0-3_躯体と製品
  6
CONTINUOUS
 62
    4
 10
2816.4704249236274
 20
1747.7234134478585
 11
2788.7576120025374
 21
1747.7234134478585
  0
LINE
  8
_0-3_躯体と製品
  6
CONTINUOUS
 62
    4
 10
2788.7576120025374
 20
1747.7234134478585
 11
2788.7576120025374
 21
1736.2234134478574
  0
LINE
  8
_0-3_躯体と製品
  6
CONTINUOUS
 62
    4
 10
2798.6140184300493
 20
1747.7234134191615
 11
2802.6140184300493
 21
1751.7234134191615
  0
CIRCLE
  8
_0-3_躯体と製品
  6
CONTINUOUS
 62
    3
 10
1005.6995165089824
 20
612.84549344786251
 40
2.4999880000000001
  0
CIRCLE
  8
_0-3_躯体と製品
  6
CONTINUOUS
 62
    3
 10
1005.6995165089824
 20
612.84549344786251
 40
2.9999839999999991
  0
CIRCLE
  8
_0-3_躯体と製品
  6
CONTINUOUS
 62
    3
 10
1005.6995165089824
 20
612.84549344786251
 40
4.999973999999999
  0
LINE
  8
_0-3_躯体と製品
  6
CONTINUOUS
 62
    3
 10
980.69951650898236
 20
599.34549344786251
 11
983.19951650898224
 21
599.34549344786251
  0
ARC
  8
_0-3_躯体と製品
  6
CONTINUOUS
 62
    3
 10
983.19951650898224
 20
601.84549344786251
 40
2.5
 50
270
 51
89.999999999999972
  0
LINE
  8
_0-3_躯体と製品
  6
CONTINUOUS
 62
    3
 10
983.19951650898224
 20
604.34549344786251
 11
980.69951650898236
 21
604.34549344786251
  0
ARC
  8
_0-3_躯体と製品
  6
CONTINUOUS
 62
    3
 10
1013.1995165089533
 20
601.84549344786251
 40
2.5
 50
270
 51
90
  0
LINE
  8
_0-3_躯体と製品
  6
CONTINUOUS
 62
    3
 10
1013.1995165089533
 20
599.34549344786251
 11
998.19951650898236
 21
599.34549344786251
  0
ARC
  8
_0-3_躯体と製品
  6
CONTINUOUS
 62
    3
 10
998.19951650898236
 20
601.84549344786251
 40
2.5
 50
90
 51
270
  0
LINE
  8
_0-3_躯体と製品
  6
CONTINUOUS
 62
    3
 10
998.19951650898236
 20
604.34549344786251
 11
1013.1995165089533
 21
604.34549344786251
  0
LINE
  8
_0-3_躯体と製品
  6
CONTINUOUS
 62
    3
 10
1030.6995165089825
 20
599.34549344786251
 11
1028.1995165089531
 21
599.34549344786251
  0
ARC
  8
_0-3_躯体と製品
  6
CONTINUOUS
 62
    3
 10
1028.1995165089531
 20
601.84549344786251
 40
2.5
 50
90
 51
270
  0
LINE
  8
_0-3_躯体と製品
  6
CONTINUOUS
 62
    3
 10
1028.1995165089531
 20
604.34549344786251
 11
1030.6995165089825
 21
604.34549344786251
  0
ARC
  8
_0-3_躯体と製品
  6
CONTINUOUS
 62
    4
 10
1028.4995165089854
 20
620.64549344786542
 40
2.1999999999970896
 50
359.99999999962102
 51
89.999999999621011
  0
LINE
  8
_0-3_躯体と製品
  6
CONTINUOUS
 62
    4
 10
1030.6995165089825
 20
620.64549344785087
 11
1030.6995165089825
 21
549.24549344785669
  0
LINE
  8
_0-3_躯体と製品
  6
CONTINUOUS
 62
    4
 10
1030.6995165089825
 20
549.24549344785669
 11
980.69951650898236
 21
549.24549344785669
  0
LINE
  8
_0-3_躯体と製品
  6
CONTINUOUS
 62
    4
 10
980.69951650898236
 20
549.24549344785669
 11
980.69951650895325
 21
620.64549344785087
  0
ARC
  8
_0-3_躯体と製品
  6
CONTINUOUS
 62
    4
 10
982.89951650896489
 20
620.64549344785087
 40
2.2000000000116411
 50
89.999999999999986
 51
180
  0
LINE
  8
_0-3_躯体と製品
  6
CONTINUOUS
 62
    4
 10
982.89951650896489
 20
622.84549344786251
 11
1028.4995165089999
 21
622.84549344786251
  0
ARC
  8
_0-3_躯体と製品
  6
CONTINUOUS
 62
    3
 10
1020.6995165089677
 20
613.84549344786251
 40
5.0000000000145519
 50
0.0000000000000254
 51
180
  0
LINE
  8
_0-3_躯体と製品
  6
CONTINUOUS
 62
    3
 10
1025.6995165089822
 20
613.84549344786251
 11
1025.6995165089822
 21
558.24549344785669
  0
ARC
  8
_0-3_躯体と製品
  6
CONTINUOUS
 62
    3
 10
1020.6995165089822
 20
558.24549344785669
 40
4.9999999999999432
 50
180.00000000000003
 51
0
  0
LINE
  8
_0-3_躯体と製品
  6
CONTINUOUS
 62
    3
 10
1015.6995165089824
 20
558.24549344785669
 11
1015.6995165089531
 21
613.84549344786251
  0
ARC
  8
_0-3_躯体と製品
  6
CONTINUOUS
 62
    3
 10
990.69951650898224
 20
613.84549344786251
 40
4.9999999999999432
 50
0.000000000000007
 51
179.99999999999997
  0
LINE
  8
_0-3_躯体と製品
  6
CONTINUOUS
 62
    3
 10
985.69951650898236
 20
613.84549344786251
 11
985.69951650898236
 21
558.24549344785669
  0
ARC
  8
_0-3_躯体と製品
  6
CONTINUOUS
 62
    3
 10
990.69951650898224
 20
558.24549344785669
 40
4.9999999999999432
 50
180
 51
0
  0
LINE
  8
_0-3_躯体と製品
  6
CONTINUOUS
 62
    3
 10
995.69951650898224
 20
558.24549344785669
 11
995.69951650898224
 21
613.84549344786251
  0
LINE
  8
_0-3_躯体と製品
  6
CONTINUOUS
 62
    4
 10
999.69895112716529
 20
536.24549365885946
 11
1011.6995164312951
 21
536.24549372189836
  0
LINE
  8
_0-3_躯体と製品
  6
CONTINUOUS
 62
    4
 10
991.69951646406605
 20
532.24549363580923
 11
1019.6995165014645
 21
532.24549363580923
  0
LINE
  8
_0-3_躯体と製品
  6
CONTINUOUS
 62
    4
 10
1019.6995165014645
 20
532.24549363580923
 11
1019.6995165014645
 21
536.24549363580923
  0
LINE
  8
_0-3_躯体と製品
  6
CONTINUOUS
 62
    4
 10
1019.6995165014645
 20
536.24549363580923
 11
991.69951646406605
 21
536.24549363580923
  0
LINE
  8
_0-3_躯体と製品
  6
CONTINUOUS
 62
    4
 10
991.69951646406605
 20
536.24549363580923
 11
991.69951646406605
 21
532.24549363580923
  0
LINE
  8
_0-3_躯体と製品
  6
CONTINUOUS
 62
    4
 10
993.69951646843151
 20
549.24549336176756
 11
993.69951646843151
 21
537.74549363580923
  0
ARC
  8
_0-3_躯体と製品
  6
CONTINUOUS
 62
    4
 10
999.69951644653088
 20
548.99549375051413
 40
12.750000090904056
 50
241.92751339355425
 51
298.07248660644575
  0
ARC
  8
_0-3_躯体と製品
  6
CONTINUOUS
 62
    4
 10
1011.6995164465309
 20
548.99549445514492
 40
12.750000733249417
 50
241.927514709977
 51
298.072485290023
  0
LINE
  8
_0-3_躯体と製品
  6
CONTINUOUS
 62
    4
 10
1017.6995164684315
 20
537.74549363580923
 11
1017.6995164684315
 21
549.24549353394582
  0
LINE
  8
_0-3_躯体と製品
  6
CONTINUOUS
 62
    4
 10
999.69895127859252
 20
519.245493846812
 11
1011.6995165826933
 21
519.24549390985089
  0
LINE
  8
_0-3_躯体と製品
  6
CONTINUOUS
 62
    4
 10
993.69951661982964
 20
532.24549354972009
 11
993.69951661982964
 21
520.74549387833144
  0
ARC
  8
_0-3_躯体と製品
  6
CONTINUOUS
 62
    4
 10
999.69951659088588
 20
531.99549338818815
 40
12.74999955390007
 50
241.92751214239453
 51
298.07248785760549
  0
ARC
  8
_0-3_躯体と製品
  6
CONTINUOUS
 62
    4
 10
1011.6995165908859
 20
531.99549426196029
 40
12.750000352116601
 50
241.92751376065095
 51
298.07248623934902
  0
LINE
  8
_0-3_躯体と製品
  6
CONTINUOUS
 62
    4
 10
1017.6995166198296
 20
520.74549387833144
 11
1017.6995166198296
 21
532.24549372189836
  0
LINE
  8
_0-3_躯体と製品
  6
CONTINUOUS
 62
    4
 10
1005.6995164246304
 20
537.74549363580923
 11
1005.6995163313526
 21
549.24549344785669
  0
LINE
  8
_0-3_躯体と製品
  6
CONTINUOUS
 62
    4
 10
1005.6995165511737
 20
520.74549387833144
 11
1005.6995164720114
 21
532.24549363580923
  0
LINE
  8
_0-3_躯体と製品
  6
CONTINUOUS
 62
    4
 10
118.48928846308218
 20
602.84549344786274
 11
186.48928846308218
 21
602.84549344786274
  0
LINE
  8
_0-3_躯体と製品
  6
CONTINUOUS
 62
    4
 10
186.48928846308218
 20
602.84549344786274
 11
186.48928846308218
 21
609.84549344786274
  0
LINE
  8
_0-3_躯体と製品
  6
CONTINUOUS
 62
    4
 10
186.48928846308218
 20
609.84549344786274
 11
181.48928846308218
 21
609.84549344786274
  0
LINE
  8
_0-3_躯体と製品
  6
CONTINUOUS
 62
    4
 10
181.48928846308218
 20
609.84549344786274
 11
181.48928846308218
 21
607.84549344786274
  0
LINE
  8
_0-3_躯体と製品
  6
CONTINUOUS
 62
    4
 10
181.48928846308218
 20
607.84549344786274
 11
184.48928846308218
 21
607.84549344786274
  0
LINE
  8
_0-3_躯体と製品
  6
CONTINUOUS
 62
    4
 10
184.48928846308218
 20
607.84549344786274
 11
184.48928846308218
 21
604.84549344786274
  0
LINE
  8
_0-3_躯体と製品
  6
CONTINUOUS
 62
    4
 10
184.48928846308218
 20
604.84549344786274
 11
120.48928846308218
 21
604.84549344786274
  0
LINE
  8
_0-3_躯体と製品
  6
CONTINUOUS
 62
    4
 10
120.48928846308218
 20
604.84549344786274
 11
120.48928846308218
 21
607.84549344786274
  0
LINE
  8
_0-3_躯体と製品
  6
CONTINUOUS
 62
    4
 10
120.48928846308218
 20
607.84549344786274
 11
123.48928846308218
 21
607.84549344786274
  0
LINE
  8
_0-3_躯体と製品
  6
CONTINUOUS
 62
    4
 10
123.48928846308218
 20
607.84549344786274
 11
123.48928846308218
 21
609.84549344786274
  0
LINE
  8
_0-3_躯体と製品
  6
CONTINUOUS
 62
    4
 10
123.48928846308218
 20
609.84549344786274
 11
118.48928846308218
 21
609.84549344786274
  0
LINE
  8
_0-3_躯体と製品
  6
CONTINUOUS
 62
    4
 10
118.48928846308218
 20
609.84549344786274
 11
118.48928846308218
 21
602.84549344786274
  0
ARC
  8
_0-3_躯体と製品
  6
CONTINUOUS
 62
    4
 10
168.28928846308213
 20
632.14549344786269
 40
1.7000000000000453
 50
359.99999999999233
 51
89.999999999992326
  0
LINE
  8
_0-3_躯体と製品
  6
CONTINUOUS
 62
    4
 10
169.98928846308218
 20
632.14549344786246
 11
169.98928846308218
 21
606.54549344786255
  0
ARC
  8
_0-3_躯体と製品
  6
CONTINUOUS
 62
    4
 10
170.48928846308218
 20
606.54549344786255
 40
0.4999999999999999
 50
180
 51
270
  0
LINE
  8
_0-3_躯体と製品
  6
CONTINUOUS
 62
    4
 10
170.48928846308218
 20
606.04549344786255
 11
182.78928846308236
 21
606.04549344786255
  0
ARC
  8
_0-3_躯体と製品
  6
CONTINUOUS
 62
    4
 10
182.78928846308236
 20
606.54549344786255
 40
0.4999999999999999
 50
270
 51
0.0000000000000127
  0
LINE
  8
_0-3_躯体と製品
  6
CONTINUOUS
 62
    4
 10
183.28928846308236
 20
606.54549344786255
 11
183.28928846308236
 21
607.84549344786274
  0
LINE
  8
_0-3_躯体と製品
  6
CONTINUOUS
 62
    4
 10
183.28928846308236
 20
607.84549344786274
 11
184.48928846308218
 21
607.84549344786274
  0
LINE
  8
_0-3_躯体と製品
  6
CONTINUOUS
 62
    4
 10
184.48928846308218
 20
607.84549344786274
 11
184.48928846308218
 21
606.54549344786255
  0
ARC
  8
_0-3_躯体と製品
  6
CONTINUOUS
 62
    4
 10
182.78928846308236
 20
606.54549344786255
 40
1.6999999999998181
 50
270
 51
0
  0
LINE
  8
_0-3_躯体と製品
  6
CONTINUOUS
 62
    4
 10
182.78928846308236
 20
604.84549344786274
 11
170.48928846308218
 21
604.84549344786274
  0
ARC
  8
_0-3_躯体と製品
  6
CONTINUOUS
 62
    4
 10
170.48928846308218
 20
606.54549344786255
 40
1.6999999999998181
 50
180
 51
270
  0
LINE
  8
_0-3_躯体と製品
  6
CONTINUOUS
 62
    4
 10
168.78928846308236
 20
606.54549344786255
 11
168.78928846308236
 21
632.14549344786246
  0
ARC
  8
_0-3_躯体と製品
  6
CONTINUOUS
 62
    4
 10
168.28928846308236
 20
632.14549344786246
 40
0.4999999999999999
 50
0.0000000000000052
 51
90.000000000000014
  0
LINE
  8
_0-3_躯体と製品
  6
CONTINUOUS
 62
    4
 10
168.28928846308236
 20
632.64549344786246
 11
136.68928846308199
 21
632.64549344786246
  0
ARC
  8
_0-3_躯体と製品
  6
CONTINUOUS
 62
    4
 10
136.68928846308199
 20
632.14549344786246
 40
0.4999999999999999
 50
90
 51
180
  0
LINE
  8
_0-3_躯体と製品
  6
CONTINUOUS
 62
    4
 10
136.18928846308199
 20
632.14549344786246
 11
136.18928846308199
 21
606.54549344786255
  0
ARC
  8
_0-3_躯体と製品
  6
CONTINUOUS
 62
    4
 10
134.48928846308218
 20
606.54549344786255
 40
1.6999999999998181
 50
270
 51
0
  0
LINE
  8
_0-3_躯体と製品
  6
CONTINUOUS
 62
    4
 10
134.48928846308218
 20
604.84549344786274
 11
122.18928846308199
 21
604.84549344786274
  0
ARC
  8
_0-3_躯体と製品
  6
CONTINUOUS
 62
    4
 10
122.18928846308199
 20
606.54549344786255
 40
1.6999999999998181
 50
180
 51
270
  0
LINE
  8
_0-3_躯体と製品
  6
CONTINUOUS
 62
    4
 10
120.48928846308218
 20
606.54549344786255
 11
120.48928846308218
 21
607.84549344786274
  0
LINE
  8
_0-3_躯体と製品
  6
CONTINUOUS
 62
    4
 10
120.48928846308218
 20
607.84549344786274
 11
121.68928846308199
 21
607.84549344786274
  0
LINE
  8
_0-3_躯体と製品
  6
CONTINUOUS
 62
    4
 10
121.68928846308199
 20
607.84549344786274
 11
121.68928846308199
 21
606.54549344786255
  0
ARC
  8
_0-3_躯体と製品
  6
CONTINUOUS
 62
    4
 10
122.18928846308199
 20
606.54549344786255
 40
0.4999999999999999
 50
180
 51
270
  0
LINE
  8
_0-3_躯体と製品
  6
CONTINUOUS
 62
    4
 10
122.18928846308199
 20
606.04549344786255
 11
134.48928846308218
 21
606.04549344786255
  0
ARC
  8
_0-3_躯体と製品
  6
CONTINUOUS
 62
    4
 10
134.48928846308218
 20
606.54549344786255
 40
0.4999999999999999
 50
270
 51
0.0000000000000127
  0
LINE
  8
_0-3_躯体と製品
  6
CONTINUOUS
 62
    4
 10
134.98928846308218
 20
606.54549344786255
 11
134.98928846308218
 21
632.14549344786246
  0
ARC
  8
_0-3_躯体と製品
  6
CONTINUOUS
 62
    4
 10
136.68928846308222
 20
632.14549344786269
 40
1.7000000000000453
 50
90.000000000007617
 51
180.00000000000765
  0
LINE
  8
_0-3_躯体と製品
  6
CONTINUOUS
 62
    4
 10
136.68928846308199
 20
633.84549344786274
 11
168.28928846308236
 21
633.84549344786274
  0
LINE
  8
_0-3_躯体と製品
  6
CONTINUOUS
 62
    4
 10
131.69028846306492
 20
606.69449344786744
 11
131.69028846306492
 21
606.2454934478742
  0
LINE
  8
_0-3_躯体と製品
  6
CONTINUOUS
 62
    4
 10
123.69028846306492
 20
606.69449344786744
 11
123.69028846306492
 21
606.2454934478742
  0
LINE
  8
_0-3_躯体と製品
  6
CONTINUOUS
 62
    4
 10
131.49028846308238
 20
606.04549344786255
 11
127.69028846306492
 21
606.04549344786255
  0
ARC
  8
_0-3_躯体と製品
  6
CONTINUOUS
 62
    4
 10
123.89028846306792
 20
606.24549344786544
 40
0.200000000002911
 50
180.00000600059479
 51
269.99999700095344
  0
LINE
  8
_0-3_躯体と製品
  6
CONTINUOUS
 62
    4
 10
123.89028846307656
 20
606.04549344786255
 11
127.69028846306492
 21
606.04549344786255
  0
ARC
  8
_0-3_躯体と製品
  6
CONTINUOUS
 62
    4
 10
131.49028846307942
 20
606.24549344787715
 40
0.200000000014552
 50
269.99999699928583
 51
359.99999999916628
  0
LINE
  8
_0-3_躯体と製品
  6
CONTINUOUS
 62
    4
 10
131.45528846307889
 20
607.84549344788002
 11
127.69028846306492
 21
607.84549344788002
  0
ARC
  8
_0-3_躯体と製品
  6
CONTINUOUS
 62
    4
 10
128.23728846303493
 20
604.25749344786482
 40
4.8189999999965529
 50
48.111754999080979
 51
96.517442000063127
  0
LINE
  8
_0-3_躯体と製品
  6
CONTINUOUS
 62
    4
 10
123.92528846308005
 20
607.84549344788002
 11
123.69028846306492
 21
606.69449344786744
  0
ARC
  8
_0-3_躯体と製品
  6
CONTINUOUS
 62
    4
 10
127.14328846308285
 20
604.25749344785902
 40
4.8190000000168984
 50
83.482563001155967
 51
131.88825099942517
  0
LINE
  8
_0-3_躯体と製品
  6
CONTINUOUS
 62
    4
 10
123.92528846308005
 20
607.84549344788002
 11
127.69028846306492
 21
607.84549344788002
  0
LINE
  8
_0-3_躯体と製品
  6
CONTINUOUS
 62
    4
 10
131.45528846307889
 20
607.84549344788002
 11
131.69028846306492
 21
606.69449344786744
  0
LINE
  8
_0-3_躯体と製品
  6
CONTINUOUS
 62
    4
 10
181.29028846307074
 20
606.69449344786744
 11
181.29028846307074
 21
606.2454934478742
  0
LINE
  8
_0-3_躯体と製品
  6
CONTINUOUS
 62
    4
 10
173.29028846307074
 20
606.69449344786744
 11
173.29028846307074
 21
606.2454934478742
  0
LINE
  8
_0-3_躯体と製品
  6
CONTINUOUS
 62
    4
 10
181.0902884630591
 20
606.04549344786255
 11
177.29028846307074
 21
606.04549344786255
  0
ARC
  8
_0-3_躯体と製品
  6
CONTINUOUS
 62
    4
 10
173.49028846307374
 20
606.24549344786544
 40
0.200000000002911
 50
180.00000600059479
 51
269.99999700095344
  0
LINE
  8
_0-3_躯体と製品
  6
CONTINUOUS
 62
    4
 10
173.49028846308238
 20
606.04549344786255
 11
177.29028846307074
 21
606.04549344786255
  0
ARC
  8
_0-3_躯体と製品
  6
CONTINUOUS
 62
    4
 10
181.09028846305614
 20
606.24549344787715
 40
0.200000000014552
 50
269.99999699928583
 51
359.99999999916628
  0
LINE
  8
_0-3_躯体と製品
  6
CONTINUOUS
 62
    4
 10
181.05528846308471
 20
607.84549344788002
 11
177.29028846307074
 21
607.84549344788002
  0
ARC
  8
_0-3_躯体と製品
  6
CONTINUOUS
 62
    4
 10
177.83728846304075
 20
604.25749344786482
 40
4.8189999999965529
 50
48.111754999080979
 51
96.517442000063127
  0
LINE
  8
_0-3_躯体と製品
  6
CONTINUOUS
 62
    4
 10
173.52528846305677
 20
607.84549344788002
 11
173.29028846307074
 21
606.69449344786744
  0
ARC
  8
_0-3_躯体と製品
  6
CONTINUOUS
 62
    4
 10
176.74328846305957
 20
604.25749344785902
 40
4.8190000000168984
 50
83.482563001155967
 51
131.88825099942517
  0
LINE
  8
_0-3_躯体と製品
  6
CONTINUOUS
 62
    4
 10
173.52528846305677
 20
607.84549344788002
 11
177.29028846307074
 21
607.84549344788002
  0
LINE
  8
_0-3_躯体と製品
  6
CONTINUOUS
 62
    4
 10
181.05528846308471
 20
607.84549344788002
 11
181.29028846307074
 21
606.69449344786744
  0
LINE
  8
_0-3_躯体と製品
  6
CONTINUOUS
 62
    4
 10
318.48928846308218
 20
602.84549344786319
 11
386.48928846308218
 21
602.84549344786319
  0
LINE
  8
_0-3_躯体と製品
  6
CONTINUOUS
 62
    4
 10
386.48928846308218
 20
602.84549344786319
 11
386.48928846308218
 21
609.84549344786319
  0
LINE
  8
_0-3_躯体と製品
  6
CONTINUOUS
 62
    4
 10
386.48928846308218
 20
609.84549344786319
 11
381.48928846308218
 21
609.84549344786319
  0
LINE
  8
_0-3_躯体と製品
  6
CONTINUOUS
 62
    4
 10
381.48928846308218
 20
609.84549344786319
 11
381.48928846308218
 21
607.84549344786319
  0
LINE
  8
_0-3_躯体と製品
  6
CONTINUOUS
 62
    4
 10
381.48928846308218
 20
607.84549344786319
 11
384.48928846308218
 21
607.84549344786319
  0
LINE
  8
_0-3_躯体と製品
  6
CONTINUOUS
 62
    4
 10
384.48928846308218
 20
607.84549344786319
 11
384.48928846308218
 21
604.84549344786319
  0
LINE
  8
_0-3_躯体と製品
  6
CONTINUOUS
 62
    4
 10
384.48928846308218
 20
604.84549344786319
 11
320.48928846308218
 21
604.84549344786319
  0
LINE
  8
_0-3_躯体と製品
  6
CONTINUOUS
 62
    4
 10
320.48928846308218
 20
604.84549344786319
 11
320.48928846308218
 21
607.84549344786319
  0
LINE
  8
_0-3_躯体と製品
  6
CONTINUOUS
 62
    4
 10
320.48928846308218
 20
607.84549344786319
 11
323.48928846308218
 21
607.84549344786319
  0
LINE
  8
_0-3_躯体と製品
  6
CONTINUOUS
 62
    4
 10
323.48928846308218
 20
607.84549344786319
 11
323.48928846308218
 21
609.84549344786319
  0
LINE
  8
_0-3_躯体と製品
  6
CONTINUOUS
 62
    4
 10
323.48928846308218
 20
609.84549344786319
 11
318.48928846308218
 21
609.84549344786319
  0
LINE
  8
_0-3_躯体と製品
  6
CONTINUOUS
 62
    4
 10
318.48928846308218
 20
609.84549344786319
 11
318.48928846308218
 21
602.84549344786319
  0
ARC
  8
_0-3_躯体と製品
  6
CONTINUOUS
 62
    4
 10
368.28928846308213
 20
632.14549344786315
 40
1.7000000000000453
 50
359.99999999999233
 51
89.999999999992326
  0
LINE
  8
_0-3_躯体と製品
  6
CONTINUOUS
 62
    4
 10
369.98928846308218
 20
632.14549344786292
 11
369.98928846308218
 21
606.54549344786301
  0
ARC
  8
_0-3_躯体と製品
  6
CONTINUOUS
 62
    4
 10
370.48928846308218
 20
606.54549344786301
 40
0.4999999999999999
 50
180
 51
270
  0
LINE
  8
_0-3_躯体と製品
  6
CONTINUOUS
 62
    4
 10
370.48928846308218
 20
606.04549344786301
 11
382.78928846308236
 21
606.04549344786301
  0
ARC
  8
_0-3_躯体と製品
  6
CONTINUOUS
 62
    4
 10
382.78928846308236
 20
606.54549344786301
 40
0.4999999999999999
 50
270
 51
0.0000000000000127
  0
LINE
  8
_0-3_躯体と製品
  6
CONTINUOUS
 62
    4
 10
383.28928846308236
 20
606.54549344786301
 11
383.28928846308236
 21
607.84549344786319
  0
LINE
  8
_0-3_躯体と製品
  6
CONTINUOUS
 62
    4
 10
383.28928846308236
 20
607.84549344786319
 11
384.48928846308218
 21
607.84549344786319
  0
LINE
  8
_0-3_躯体と製品
  6
CONTINUOUS
 62
    4
 10
384.48928846308218
 20
607.84549344786319
 11
384.48928846308218
 21
606.54549344786301
  0
ARC
  8
_0-3_躯体と製品
  6
CONTINUOUS
 62
    4
 10
382.78928846308236
 20
606.54549344786301
 40
1.6999999999998181
 50
270
 51
0
  0
LINE
  8
_0-3_躯体と製品
  6
CONTINUOUS
 62
    4
 10
382.78928846308236
 20
604.84549344786319
 11
370.48928846308218
 21
604.84549344786319
  0
ARC
  8
_0-3_躯体と製品
  6
CONTINUOUS
 62
    4
 10
370.48928846308218
 20
606.54549344786301
 40
1.6999999999998181
 50
180
 51
270
  0
LINE
  8
_0-3_躯体と製品
  6
CONTINUOUS
 62
    4
 10
368.78928846308236
 20
606.54549344786301
 11
368.78928846308236
 21
632.14549344786292
  0
ARC
  8
_0-3_躯体と製品
  6
CONTINUOUS
 62
    4
 10
368.28928846308236
 20
632.14549344786292
 40
0.4999999999999999
 50
0.0000000000000052
 51
90.000000000000014
  0
LINE
  8
_0-3_躯体と製品
  6
CONTINUOUS
 62
    4
 10
368.28928846308236
 20
632.64549344786292
 11
336.68928846308199
 21
632.64549344786292
  0
ARC
  8
_0-3_躯体と製品
  6
CONTINUOUS
 62
    4
 10
336.68928846308199
 20
632.14549344786292
 40
0.4999999999999999
 50
90
 51
180
  0
LINE
  8
_0-3_躯体と製品
  6
CONTINUOUS
 62
    4
 10
336.18928846308199
 20
632.14549344786292
 11
336.18928846308199
 21
606.54549344786301
  0
ARC
  8
_0-3_躯体と製品
  6
CONTINUOUS
 62
    4
 10
334.48928846308218
 20
606.54549344786301
 40
1.6999999999998181
 50
270
 51
0
  0
LINE
  8
_0-3_躯体と製品
  6
CONTINUOUS
 62
    4
 10
334.48928846308218
 20
604.84549344786319
 11
322.18928846308199
 21
604.84549344786319
  0
ARC
  8
_0-3_躯体と製品
  6
CONTINUOUS
 62
    4
 10
322.18928846308199
 20
606.54549344786301
 40
1.6999999999998181
 50
180
 51
270
  0
LINE
  8
_0-3_躯体と製品
  6
CONTINUOUS
 62
    4
 10
320.48928846308218
 20
606.54549344786301
 11
320.48928846308218
 21
607.84549344786319
  0
LINE
  8
_0-3_躯体と製品
  6
CONTINUOUS
 62
    4
 10
320.48928846308218
 20
607.84549344786319
 11
321.68928846308199
 21
607.84549344786319
  0
LINE
  8
_0-3_躯体と製品
  6
CONTINUOUS
 62
    4
 10
321.68928846308199
 20
607.84549344786319
 11
321.68928846308199
 21
606.54549344786301
  0
ARC
  8
_0-3_躯体と製品
  6
CONTINUOUS
 62
    4
 10
322.18928846308199
 20
606.54549344786301
 40
0.4999999999999999
 50
180
 51
270
  0
LINE
  8
_0-3_躯体と製品
  6
CONTINUOUS
 62
    4
 10
322.18928846308199
 20
606.04549344786301
 11
334.48928846308218
 21
606.04549344786301
  0
ARC
  8
_0-3_躯体と製品
  6
CONTINUOUS
 62
    4
 10
334.48928846308218
 20
606.54549344786301
 40
0.4999999999999999
 50
270
 51
0.0000000000000127
  0
LINE
  8
_0-3_躯体と製品
  6
CONTINUOUS
 62
    4
 10
334.98928846308218
 20
606.54549344786301
 11
334.98928846308218
 21
632.14549344786292
  0
ARC
  8
_0-3_躯体と製品
  6
CONTINUOUS
 62
    4
 10
336.68928846308222
 20
632.14549344786315
 40
1.7000000000000453
 50
90.000000000007617
 51
180.00000000000765
  0
LINE
  8
_0-3_躯体と製品
  6
CONTINUOUS
 62
    4
 10
336.68928846308199
 20
633.84549344786319
 11
368.28928846308236
 21
633.84549344786319
  0
LINE
  8
_0-3_躯体と製品
  6
CONTINUOUS
 62
    4
 10
331.69028846306492
 20
606.6944934478679
 11
331.69028846306492
 21
606.24549344787465
  0
LINE
  8
_0-3_躯体と製品
  6
CONTINUOUS
 62
    4
 10
323.69028846306492
 20
606.6944934478679
 11
323.69028846306492
 21
606.24549344787465
  0
LINE
  8
_0-3_躯体と製品
  6
CONTINUOUS
 62
    4
 10
331.49028846308238
 20
606.04549344786301
 11
327.69028846306492
 21
606.04549344786301
  0
ARC
  8
_0-3_躯体と製品
  6
CONTINUOUS
 62
    4
 10
323.89028846306792
 20
606.2454934478659
 40
0.200000000002911
 50
180.00000600059479
 51
269.99999700095344
  0
LINE
  8
_0-3_躯体と製品
  6
CONTINUOUS
 62
    4
 10
323.89028846307656
 20
606.04549344786301
 11
327.69028846306492
 21
606.04549344786301
  0
ARC
  8
_0-3_躯体と製品
  6
CONTINUOUS
 62
    4
 10
331.49028846307942
 20
606.24549344787761
 40
0.200000000014552
 50
269.99999699928583
 51
359.99999999916628
  0
LINE
  8
_0-3_躯体と製品
  6
CONTINUOUS
 62
    4
 10
331.45528846307889
 20
607.84549344788047
 11
327.69028846306492
 21
607.84549344788047
  0
ARC
  8
_0-3_躯体と製品
  6
CONTINUOUS
 62
    4
 10
328.23728846303493
 20
604.25749344786527
 40
4.8189999999965529
 50
48.111754999080979
 51
96.517442000063127
  0
LINE
  8
_0-3_躯体と製品
  6
CONTINUOUS
 62
    4
 10
323.92528846308005
 20
607.84549344788047
 11
323.69028846306492
 21
606.6944934478679
  0
ARC
  8
_0-3_躯体と製品
  6
CONTINUOUS
 62
    4
 10
327.14328846308285
 20
604.25749344785947
 40
4.8190000000168984
 50
83.482563001155967
 51
131.88825099942517
  0
LINE
  8
_0-3_躯体と製品
  6
CONTINUOUS
 62
    4
 10
323.92528846308005
 20
607.84549344788047
 11
327.69028846306492
 21
607.84549344788047
  0
LINE
  8
_0-3_躯体と製品
  6
CONTINUOUS
 62
    4
 10
331.45528846307889
 20
607.84549344788047
 11
331.69028846306492
 21
606.6944934478679
  0
LINE
  8
_0-3_躯体と製品
  6
CONTINUOUS
 62
    4
 10
381.29028846307074
 20
606.6944934478679
 11
381.29028846307074
 21
606.24549344787465
  0
LINE
  8
_0-3_躯体と製品
  6
CONTINUOUS
 62
    4
 10
373.29028846307074
 20
606.6944934478679
 11
373.29028846307074
 21
606.24549344787465
  0
LINE
  8
_0-3_躯体と製品
  6
CONTINUOUS
 62
    4
 10
381.0902884630591
 20
606.04549344786301
 11
377.29028846307074
 21
606.04549344786301
  0
ARC
  8
_0-3_躯体と製品
  6
CONTINUOUS
 62
    4
 10
373.49028846307374
 20
606.2454934478659
 40
0.200000000002911
 50
180.00000600059479
 51
269.99999700095344
  0
LINE
  8
_0-3_躯体と製品
  6
CONTINUOUS
 62
    4
 10
373.49028846308238
 20
606.04549344786301
 11
377.29028846307074
 21
606.04549344786301
  0
ARC
  8
_0-3_躯体と製品
  6
CONTINUOUS
 62
    4
 10
381.09028846305614
 20
606.24549344787761
 40
0.200000000014552
 50
269.99999699928583
 51
359.99999999916628
  0
LINE
  8
_0-3_躯体と製品
  6
CONTINUOUS
 62
    4
 10
381.05528846308471
 20
607.84549344788047
 11
377.29028846307074
 21
607.84549344788047
  0
ARC
  8
_0-3_躯体と製品
  6
CONTINUOUS
 62
    4
 10
377.83728846304075
 20
604.25749344786527
 40
4.8189999999965529
 50
48.111754999080979
 51
96.517442000063127
  0
LINE
  8
_0-3_躯体と製品
  6
CONTINUOUS
 62
    4
 10
373.52528846305677
 20
607.84549344788047
 11
373.29028846307074
 21
606.6944934478679
  0
ARC
  8
_0-3_躯体と製品
  6
CONTINUOUS
 62
    4
 10
376.74328846305957
 20
604.25749344785947
 40
4.8190000000168984
 50
83.482563001155967
 51
131.88825099942517
  0
LINE
  8
_0-3_躯体と製品
  6
CONTINUOUS
 62
    4
 10
373.52528846305677
 20
607.84549344788047
 11
377.29028846307074
 21
607.84549344788047
  0
LINE
  8
_0-3_躯体と製品
  6
CONTINUOUS
 62
    4
 10
381.05528846308471
 20
607.84549344788047
 11
381.29028846307074
 21
606.6944934478679
  0
LINE
  8
_0-3_躯体と製品
  6
CONTINUOUS
 62
    4
 10
521.69951650898247
 20
602.84549344786296
 11
589.69951650898247
 21
602.84549344786296
  0
LINE
  8
_0-3_躯体と製品
  6
CONTINUOUS
 62
    4
 10
589.69951650898247
 20
602.84549344786296
 11
589.69951650898247
 21
609.84549344786296
  0
LINE
  8
_0-3_躯体と製品
  6
CONTINUOUS
 62
    4
 10
589.69951650898247
 20
609.84549344786296
 11
584.69951650898247
 21
609.84549344786296
  0
LINE
  8
_0-3_躯体と製品
  6
CONTINUOUS
 62
    4
 10
584.69951650898247
 20
609.84549344786296
 11
584.69951650898247
 21
607.84549344786296
  0
LINE
  8
_0-3_躯体と製品
  6
CONTINUOUS
 62
    4
 10
584.69951650898247
 20
607.84549344786296
 11
587.69951650898247
 21
607.84549344786296
  0
LINE
  8
_0-3_躯体と製品
  6
CONTINUOUS
 62
    4
 10
587.69951650898247
 20
607.84549344786296
 11
587.69951650898247
 21
604.84549344786296
  0
LINE
  8
_0-3_躯体と製品
  6
CONTINUOUS
 62
    4
 10
587.69951650898247
 20
604.84549344786296
 11
523.69951650898247
 21
604.84549344786296
  0
LINE
  8
_0-3_躯体と製品
  6
CONTINUOUS
 62
    4
 10
523.69951650898247
 20
604.84549344786296
 11
523.69951650898247
 21
607.84549344786296
  0
LINE
  8
_0-3_躯体と製品
  6
CONTINUOUS
 62
    4
 10
523.69951650898247
 20
607.84549344786296
 11
526.69951650898247
 21
607.84549344786296
  0
LINE
  8
_0-3_躯体と製品
  6
CONTINUOUS
 62
    4
 10
526.69951650898247
 20
607.84549344786296
 11
526.69951650898247
 21
609.84549344786296
  0
LINE
  8
_0-3_躯体と製品
  6
CONTINUOUS
 62
    4
 10
526.69951650898247
 20
609.84549344786296
 11
521.69951650898247
 21
609.84549344786296
  0
LINE
  8
_0-3_躯体と製品
  6
CONTINUOUS
 62
    4
 10
521.69951650898247
 20
609.84549344786296
 11
521.69951650898247
 21
602.84549344786296
  0
ARC
  8
_0-3_躯体と製品
  6
CONTINUOUS
 62
    4
 10
571.49951650898242
 20
632.14549344786292
 40
1.7000000000000453
 50
359.99999999999233
 51
89.999999999992326
  0
LINE
  8
_0-3_躯体と製品
  6
CONTINUOUS
 62
    4
 10
573.19951650898247
 20
632.14549344786269
 11
573.19951650898247
 21
606.54549344786267
  0
ARC
  8
_0-3_躯体と製品
  6
CONTINUOUS
 62
    4
 10
573.69951650898247
 20
606.54549344786267
 40
0.4999999999999431
 50
180.00000000000651
 51
270.00000000000654
  0
LINE
  8
_0-3_躯体と製品
  6
CONTINUOUS
 62
    4
 10
573.69951650898247
 20
606.04549344786278
 11
585.99951650898265
 21
606.04549344786278
  0
ARC
  8
_0-3_躯体と製品
  6
CONTINUOUS
 62
    4
 10
585.99951650898265
 20
606.54549344786278
 40
0.4999999999999431
 50
269.99999999999352
 51
359.99999999999352
  0
LINE
  8
_0-3_躯体と製品
  6
CONTINUOUS
 62
    4
 10
586.49951650898265
 20
606.54549344786267
 11
586.49951650898265
 21
607.84549344786296
  0
LINE
  8
_0-3_躯体と製品
  6
CONTINUOUS
 62
    4
 10
586.49951650898265
 20
607.84549344786296
 11
587.69951650898247
 21
607.84549344786296
  0
LINE
  8
_0-3_躯体と製品
  6
CONTINUOUS
 62
    4
 10
587.69951650898247
 20
607.84549344786296
 11
587.69951650898247
 21
606.54549344786267
  0
ARC
  8
_0-3_躯体と製品
  6
CONTINUOUS
 62
    4
 10
585.99951650898265
 20
606.54549344786267
 40
1.6999999999997613
 50
269.99999999999807
 51
359.99999999999807
  0
LINE
  8
_0-3_躯体と製品
  6
CONTINUOUS
 62
    4
 10
585.99951650898265
 20
604.84549344786296
 11
573.69951650898247
 21
604.84549344786296
  0
ARC
  8
_0-3_躯体と製品
  6
CONTINUOUS
 62
    4
 10
573.69951650898247
 20
606.54549344786278
 40
1.6999999999997613
 50
180.00000000000193
 51
270.00000000000193
  0
LINE
  8
_0-3_躯体と製品
  6
CONTINUOUS
 62
    4
 10
571.99951650898265
 20
606.54549344786267
 11
571.99951650898265
 21
632.14549344786269
  0
ARC
  8
_0-3_躯体と製品
  6
CONTINUOUS
 62
    4
 10
571.49951650898265
 20
632.14549344786269
 40
0.4999999999999999
 50
0.0000000000000052
 51
90.000000000000014
  0
LINE
  8
_0-3_躯体と製品
  6
CONTINUOUS
 62
    4
 10
571.49951650898265
 20
632.64549344786269
 11
539.89951650898229
 21
632.64549344786269
  0
ARC
  8
_0-3_躯体と製品
  6
CONTINUOUS
 62
    4
 10
539.89951650898229
 20
632.14549344786269
 40
0.4999999999999999
 50
90
 51
180
  0
LINE
  8
_0-3_躯体と製品
  6
CONTINUOUS
 62
    4
 10
539.39951650898229
 20
632.14549344786269
 11
539.39951650898229
 21
606.54549344786267
  0
ARC
  8
_0-3_躯体と製品
  6
CONTINUOUS
 62
    4
 10
537.69951650898247
 20
606.54549344786267
 40
1.6999999999997613
 50
269.99999999999807
 51
359.99999999999807
  0
LINE
  8
_0-3_躯体と製品
  6
CONTINUOUS
 62
    4
 10
537.69951650898247
 20
604.84549344786296
 11
525.39951650898229
 21
604.84549344786296
  0
ARC
  8
_0-3_躯体と製品
  6
CONTINUOUS
 62
    4
 10
525.39951650898229
 20
606.54549344786278
 40
1.6999999999997613
 50
180.00000000000193
 51
270.00000000000193
  0
LINE
  8
_0-3_躯体と製品
  6
CONTINUOUS
 62
    4
 10
523.69951650898247
 20
606.54549344786267
 11
523.69951650898247
 21
607.84549344786296
  0
LINE
  8
_0-3_躯体と製品
  6
CONTINUOUS
 62
    4
 10
523.69951650898247
 20
607.84549344786296
 11
524.89951650898229
 21
607.84549344786296
  0
LINE
  8
_0-3_躯体と製品
  6
CONTINUOUS
 62
    4
 10
524.89951650898229
 20
607.84549344786296
 11
524.89951650898229
 21
606.54549344786267
  0
ARC
  8
_0-3_躯体と製品
  6
CONTINUOUS
 62
    4
 10
525.39951650898229
 20
606.54549344786267
 40
0.4999999999999431
 50
180.00000000000651
 51
270.00000000000654
  0
LINE
  8
_0-3_躯体と製品
  6
CONTINUOUS
 62
    4
 10
525.39951650898229
 20
606.04549344786278
 11
537.69951650898247
 21
606.04549344786278
  0
ARC
  8
_0-3_躯体と製品
  6
CONTINUOUS
 62
    4
 10
537.69951650898247
 20
606.54549344786278
 40
0.4999999999999431
 50
269.99999999999352
 51
359.99999999999352
  0
LINE
  8
_0-3_躯体と製品
  6
CONTINUOUS
 62
    4
 10
538.19951650898247
 20
606.54549344786267
 11
538.19951650898247
 21
632.14549344786269
  0
ARC
  8
_0-3_躯体と製品
  6
CONTINUOUS
 62
    4
 10
539.89951650898252
 20
632.14549344786292
 40
1.7000000000000453
 50
90.000000000007617
 51
180.00000000000765
  0
LINE
  8
_0-3_躯体と製品
  6
CONTINUOUS
 62
    4
 10
539.89951650898229
 20
633.84549344786296
 11
571.49951650898265
 21
633.84549344786296
  0
LINE
  8
_0-3_躯体と製品
  6
CONTINUOUS
 62
    4
 10
534.90051650896521
 20
606.69449344786767
 11
534.90051650896521
 21
606.24549344787442
  0
LINE
  8
_0-3_躯体と製品
  6
CONTINUOUS
 62
    4
 10
526.90051650896521
 20
606.69449344786767
 11
526.90051650896521
 21
606.24549344787442
  0
LINE
  8
_0-3_躯体と製品
  6
CONTINUOUS
 62
    4
 10
534.70051650898267
 20
606.04549344786278
 11
530.90051650896521
 21
606.04549344786278
  0
ARC
  8
_0-3_躯体と製品
  6
CONTINUOUS
 62
    4
 10
527.10051650896821
 20
606.24549344786567
 40
0.200000000002911
 50
180.00000600059479
 51
269.99999700095344
  0
LINE
  8
_0-3_躯体と製品
  6
CONTINUOUS
 62
    4
 10
527.10051650897685
 20
606.04549344786278
 11
530.90051650896521
 21
606.04549344786278
  0
ARC
  8
_0-3_躯体と製品
  6
CONTINUOUS
 62
    4
 10
534.70051650897972
 20
606.24549344787738
 40
0.200000000014552
 50
269.99999699928583
 51
359.99999999916628
  0
LINE
  8
_0-3_躯体と製品
  6
CONTINUOUS
 62
    4
 10
534.66551650897918
 20
607.84549344788024
 11
530.90051650896521
 21
607.84549344788024
  0
ARC
  8
_0-3_躯体と製品
  6
CONTINUOUS
 62
    4
 10
531.44751650893522
 20
604.25749344786504
 40
4.8189999999965529
 50
48.111754999080979
 51
96.517442000063127
  0
LINE
  8
_0-3_躯体と製品
  6
CONTINUOUS
 62
    4
 10
527.13551650898034
 20
607.84549344788024
 11
526.90051650896521
 21
606.69449344786767
  0
ARC
  8
_0-3_躯体と製品
  6
CONTINUOUS
 62
    4
 10
530.35351650898292
 20
604.25749344785913
 40
4.8190000000168567
 50
83.482563001154389
 51
131.88825099942358
  0
LINE
  8
_0-3_躯体と製品
  6
CONTINUOUS
 62
    4
 10
527.13551650898034
 20
607.84549344788024
 11
530.90051650896521
 21
607.84549344788024
  0
LINE
  8
_0-3_躯体と製品
  6
CONTINUOUS
 62
    4
 10
534.66551650897918
 20
607.84549344788024
 11
534.90051650896521
 21
606.69449344786767
  0
LINE
  8
_0-3_躯体と製品
  6
CONTINUOUS
 62
    4
 10
584.50051650897103
 20
606.69449344786767
 11
584.50051650897103
 21
606.24549344787442
  0
LINE
  8
_0-3_躯体と製品
  6
CONTINUOUS
 62
    4
 10
576.50051650897103
 20
606.69449344786767
 11
576.50051650897103
 21
606.24549344787442
  0
LINE
  8
_0-3_躯体と製品
  6
CONTINUOUS
 62
    4
 10
584.30051650895939
 20
606.04549344786278
 11
580.50051650897103
 21
606.04549344786278
  0
ARC
  8
_0-3_躯体と製品
  6
CONTINUOUS
 62
    4
 10
576.70051650897403
 20
606.24549344786567
 40
0.200000000002911
 50
180.00000600059479
 51
269.99999700095344
  0
LINE
  8
_0-3_躯体と製品
  6
CONTINUOUS
 62
    4
 10
576.70051650898267
 20
606.04549344786278
 11
580.50051650897103
 21
606.04549344786278
  0
ARC
  8
_0-3_躯体と製品
  6
CONTINUOUS
 62
    4
 10
584.30051650895643
 20
606.24549344787738
 40
0.200000000014552
 50
269.99999699928583
 51
359.99999999916628
  0
LINE
  8
_0-3_躯体と製品
  6
CONTINUOUS
 62
    4
 10
584.265516508985
 20
607.84549344788024
 11
580.50051650897103
 21
607.84549344788024
  0
ARC
  8
_0-3_躯体と製品
  6
CONTINUOUS
 62
    4
 10
581.04751650894104
 20
604.25749344786504
 40
4.8189999999965529
 50
48.111754999080979
 51
96.517442000063127
  0
LINE
  8
_0-3_躯体と製品
  6
CONTINUOUS
 62
    4
 10
576.73551650895706
 20
607.84549344788024
 11
576.50051650897103
 21
606.69449344786767
  0
ARC
  8
_0-3_躯体と製品
  6
CONTINUOUS
 62
    4
 10
579.95351650895964
 20
604.25749344785913
 40
4.8190000000168567
 50
83.482563001154389
 51
131.88825099942358
  0
LINE
  8
_0-3_躯体と製品
  6
CONTINUOUS
 62
    4
 10
576.73551650895706
 20
607.84549344788024
 11
580.50051650897103
 21
607.84549344788024
  0
LINE
  8
_0-3_躯体と製品
  6
CONTINUOUS
 62
    4
 10
584.265516508985
 20
607.84549344788024
 11
584.50051650897103
 21
606.69449344786767
  0
LINE
  8
_0-3_躯体と製品
  6
CONTINUOUS
 62
    4
 10
821.69951650898247
 20
602.84549344786296
 11
889.69951650898247
 21
602.84549344786296
  0
LINE
  8
_0-3_躯体と製品
  6
CONTINUOUS
 62
    4
 10
889.69951650898247
 20
602.84549344786296
 11
889.69951650898247
 21
609.84549344786296
  0
LINE
  8
_0-3_躯体と製品
  6
CONTINUOUS
 62
    4
 10
889.69951650898247
 20
609.84549344786296
 11
884.69951650898247
 21
609.84549344786296
  0
LINE
  8
_0-3_躯体と製品
  6
CONTINUOUS
 62
    4
 10
884.69951650898247
 20
609.84549344786296
 11
884.69951650898247
 21
607.84549344786296
  0
LINE
  8
_0-3_躯体と製品
  6
CONTINUOUS
 62
    4
 10
884.69951650898247
 20
607.84549344786296
 11
887.69951650898247
 21
607.84549344786296
  0
LINE
  8
_0-3_躯体と製品
  6
CONTINUOUS
 62
    4
 10
887.69951650898247
 20
607.84549344786296
 11
887.69951650898247
 21
604.84549344786296
  0
LINE
  8
_0-3_躯体と製品
  6
CONTINUOUS
 62
    4
 10
887.69951650898247
 20
604.84549344786296
 11
823.69951650898247
 21
604.84549344786296
  0
LINE
  8
_0-3_躯体と製品
  6
CONTINUOUS
 62
    4
 10
823.69951650898247
 20
604.84549344786296
 11
823.69951650898247
 21
607.84549344786296
  0
LINE
  8
_0-3_躯体と製品
  6
CONTINUOUS
 62
    4
 10
823.69951650898247
 20
607.84549344786296
 11
826.69951650898247
 21
607.84549344786296
  0
LINE
  8
_0-3_躯体と製品
  6
CONTINUOUS
 62
    4
 10
826.69951650898247
 20
607.84549344786296
 11
826.69951650898247
 21
609.84549344786296
  0
LINE
  8
_0-3_躯体と製品
  6
CONTINUOUS
 62
    4
 10
826.69951650898247
 20
609.84549344786296
 11
821.69951650898247
 21
609.84549344786296
  0
LINE
  8
_0-3_躯体と製品
  6
CONTINUOUS
 62
    4
 10
821.69951650898247
 20
609.84549344786296
 11
821.69951650898247
 21
602.84549344786296
  0
ARC
  8
_0-3_躯体と製品
  6
CONTINUOUS
 62
    4
 10
871.49951650898242
 20
632.14549344786292
 40
1.7000000000000453
 50
359.99999999999233
 51
89.999999999992326
  0
LINE
  8
_0-3_躯体と製品
  6
CONTINUOUS
 62
    4
 10
873.19951650898247
 20
632.14549344786269
 11
873.19951650898247
 21
606.54549344786267
  0
ARC
  8
_0-3_躯体と製品
  6
CONTINUOUS
 62
    4
 10
873.69951650898247
 20
606.54549344786267
 40
0.4999999999999431
 50
180.00000000000651
 51
270.00000000000654
  0
LINE
  8
_0-3_躯体と製品
  6
CONTINUOUS
 62
    4
 10
873.69951650898247
 20
606.04549344786278
 11
885.99951650898265
 21
606.04549344786278
  0
ARC
  8
_0-3_躯体と製品
  6
CONTINUOUS
 62
    4
 10
885.99951650898277
 20
606.54549344786278
 40
0.4999999999999431
 50
269.99999999999352
 51
359.99999999999352
  0
LINE
  8
_0-3_躯体と製品
  6
CONTINUOUS
 62
    4
 10
886.49951650898265
 20
606.54549344786267
 11
886.49951650898265
 21
607.84549344786296
  0
LINE
  8
_0-3_躯体と製品
  6
CONTINUOUS
 62
    4
 10
886.49951650898265
 20
607.84549344786296
 11
887.69951650898247
 21
607.84549344786296
  0
LINE
  8
_0-3_躯体と製品
  6
CONTINUOUS
 62
    4
 10
887.69951650898247
 20
607.84549344786296
 11
887.69951650898247
 21
606.54549344786267
  0
ARC
  8
_0-3_躯体と製品
  6
CONTINUOUS
 62
    4
 10
885.99951650898265
 20
606.54549344786267
 40
1.6999999999997613
 50
269.99999999999807
 51
359.99999999999807
  0
LINE
  8
_0-3_躯体と製品
  6
CONTINUOUS
 62
    4
 10
885.99951650898265
 20
604.84549344786296
 11
873.69951650898247
 21
604.84549344786296
  0
ARC
  8
_0-3_躯体と製品
  6
CONTINUOUS
 62
    4
 10
873.69951650898236
 20
606.54549344786278
 40
1.6999999999997613
 50
180.00000000000193
 51
270.00000000000193
  0
LINE
  8
_0-3_躯体と製品
  6
CONTINUOUS
 62
    4
 10
871.99951650898265
 20
606.54549344786267
 11
871.99951650898265
 21
632.14549344786269
  0
ARC
  8
_0-3_躯体と製品
  6
CONTINUOUS
 62
    4
 10
871.49951650898265
 20
632.14549344786269
 40
0.4999999999999999
 50
0.0000000000000052
 51
90.000000000000014
  0
LINE
  8
_0-3_躯体と製品
  6
CONTINUOUS
 62
    4
 10
871.49951650898265
 20
632.64549344786269
 11
839.89951650898229
 21
632.64549344786269
  0
ARC
  8
_0-3_躯体と製品
  6
CONTINUOUS
 62
    4
 10
839.89951650898229
 20
632.14549344786269
 40
0.4999999999999999
 50
90
 51
180
  0
LINE
  8
_0-3_躯体と製品
  6
CONTINUOUS
 62
    4
 10
839.39951650898229
 20
632.14549344786269
 11
839.39951650898229
 21
606.54549344786267
  0
ARC
  8
_0-3_躯体と製品
  6
CONTINUOUS
 62
    4
 10
837.69951650898247
 20
606.54549344786267
 40
1.6999999999997613
 50
269.99999999999807
 51
359.99999999999807
  0
LINE
  8
_0-3_躯体と製品
  6
CONTINUOUS
 62
    4
 10
837.69951650898247
 20
604.84549344786296
 11
825.39951650898229
 21
604.84549344786296
  0
ARC
  8
_0-3_躯体と製品
  6
CONTINUOUS
 62
    4
 10
825.39951650898217
 20
606.54549344786278
 40
1.6999999999997613
 50
180.00000000000193
 51
270.00000000000193
  0
LINE
  8
_0-3_躯体と製品
  6
CONTINUOUS
 62
    4
 10
823.69951650898247
 20
606.54549344786267
 11
823.69951650898247
 21
607.84549344786296
  0
LINE
  8
_0-3_躯体と製品
  6
CONTINUOUS
 62
    4
 10
823.69951650898247
 20
607.84549344786296
 11
824.89951650898229
 21
607.84549344786296
  0
LINE
  8
_0-3_躯体と製品
  6
CONTINUOUS
 62
    4
 10
824.89951650898229
 20
607.84549344786296
 11
824.89951650898229
 21
606.54549344786267
  0
ARC
  8
_0-3_躯体と製品
  6
CONTINUOUS
 62
    4
 10
825.39951650898229
 20
606.54549344786267
 40
0.4999999999999431
 50
180.00000000000651
 51
270.00000000000654
  0
LINE
  8
_0-3_躯体と製品
  6
CONTINUOUS
 62
    4
 10
825.39951650898229
 20
606.04549344786278
 11
837.69951650898247
 21
606.04549344786278
  0
ARC
  8
_0-3_躯体と製品
  6
CONTINUOUS
 62
    4
 10
837.69951650898258
 20
606.54549344786278
 40
0.4999999999999431
 50
269.99999999999352
 51
359.99999999999352
  0
LINE
  8
_0-3_躯体と製品
  6
CONTINUOUS
 62
    4
 10
838.19951650898247
 20
606.54549344786267
 11
838.19951650898247
 21
632.14549344786269
  0
ARC
  8
_0-3_躯体と製品
  6
CONTINUOUS
 62
    4
 10
839.89951650898252
 20
632.14549344786292
 40
1.7000000000000453
 50
90.000000000007617
 51
180.00000000000765
  0
LINE
  8
_0-3_躯体と製品
  6
CONTINUOUS
 62
    4
 10
839.89951650898229
 20
633.84549344786296
 11
871.49951650898265
 21
633.84549344786296
  0
LINE
  8
_0-3_躯体と製品
  6
CONTINUOUS
 62
    4
 10
834.9005165089651
 20
606.69449344786767
 11
834.9005165089651
 21
606.24549344787442
  0
LINE
  8
_0-3_躯体と製品
  6
CONTINUOUS
 62
    4
 10
826.9005165089651
 20
606.69449344786767
 11
826.9005165089651
 21
606.24549344787442
  0
LINE
  8
_0-3_躯体と製品
  6
CONTINUOUS
 62
    4
 10
834.70051650898267
 20
606.04549344786278
 11
830.9005165089651
 21
606.04549344786278
  0
ARC
  8
_0-3_躯体と製品
  6
CONTINUOUS
 62
    4
 10
827.1005165089681
 20
606.24549344786578
 40
0.2000000000029678
 50
180.00000600061108
 51
269.99999700096976
  0
LINE
  8
_0-3_躯体と製品
  6
CONTINUOUS
 62
    4
 10
827.10051650897685
 20
606.04549344786278
 11
830.9005165089651
 21
606.04549344786278
  0
ARC
  8
_0-3_躯体と製品
  6
CONTINUOUS
 62
    4
 10
834.70051650897972
 20
606.24549344787727
 40
0.2000000000144951
 50
269.99999699930208
 51
359.99999999918259
  0
LINE
  8
_0-3_躯体と製品
  6
CONTINUOUS
 62
    4
 10
834.66551650897918
 20
607.84549344788024
 11
830.9005165089651
 21
607.84549344788024
  0
ARC
  8
_0-3_躯体と製品
  6
CONTINUOUS
 62
    4
 10
831.44751650893511
 20
604.25749344786504
 40
4.8189999999965529
 50
48.111754999080979
 51
96.517442000063127
  0
LINE
  8
_0-3_躯体と製品
  6
CONTINUOUS
 62
    4
 10
827.13551650898034
 20
607.84549344788024
 11
826.9005165089651
 21
606.69449344786767
  0
ARC
  8
_0-3_躯体と製品
  6
CONTINUOUS
 62
    4
 10
830.35351650898303
 20
604.25749344785913
 40
4.8190000000168567
 50
83.482563001154389
 51
131.88825099942358
  0
LINE
  8
_0-3_躯体と製品
  6
CONTINUOUS
 62
    4
 10
827.13551650898034
 20
607.84549344788024
 11
830.9005165089651
 21
607.84549344788024
  0
LINE
  8
_0-3_躯体と製品
  6
CONTINUOUS
 62
    4
 10
834.66551650897918
 20
607.84549344788024
 11
834.9005165089651
 21
606.69449344786767
  0
LINE
  8
_0-3_躯体と製品
  6
CONTINUOUS
 62
    4
 10
884.50051650897092
 20
606.69449344786767
 11
884.50051650897092
 21
606.24549344787442
  0
LINE
  8
_0-3_躯体と製品
  6
CONTINUOUS
 62
    4
 10
876.50051650897092
 20
606.69449344786767
 11
876.50051650897092
 21
606.24549344787442
  0
LINE
  8
_0-3_躯体と製品
  6
CONTINUOUS
 62
    4
 10
884.30051650895939
 20
606.04549344786278
 11
880.50051650897092
 21
606.04549344786278
  0
ARC
  8
_0-3_躯体と製品
  6
CONTINUOUS
 62
    4
 10
876.70051650897392
 20
606.24549344786578
 40
0.2000000000029678
 50
180.00000600061108
 51
269.99999700096976
  0
LINE
  8
_0-3_躯体と製品
  6
CONTINUOUS
 62
    4
 10
876.70051650898267
 20
606.04549344786278
 11
880.50051650897092
 21
606.04549344786278
  0
ARC
  8
_0-3_躯体と製品
  6
CONTINUOUS
 62
    4
 10
884.30051650895632
 20
606.24549344787738
 40
0.200000000014552
 50
269.99999699928583
 51
359.99999999916628
  0
LINE
  8
_0-3_躯体と製品
  6
CONTINUOUS
 62
    4
 10
884.265516508985
 20
607.84549344788024
 11
880.50051650897092
 21
607.84549344788024
  0
ARC
  8
_0-3_躯体と製品
  6
CONTINUOUS
 62
    4
 10
881.04751650894093
 20
604.25749344786504
 40
4.8189999999965529
 50
48.111754999080979
 51
96.517442000063127
  0
LINE
  8
_0-3_躯体と製品
  6
CONTINUOUS
 62
    4
 10
876.73551650895706
 20
607.84549344788024
 11
876.50051650897092
 21
606.69449344786767
  0
ARC
  8
_0-3_躯体と製品
  6
CONTINUOUS
 62
    4
 10
879.95351650895975
 20
604.25749344785913
 40
4.8190000000168567
 50
83.482563001154389
 51
131.88825099942358
  0
LINE
  8
_0-3_躯体と製品
  6
CONTINUOUS
 62
    4
 10
876.73551650895706
 20
607.84549344788024
 11
880.50051650897092
 21
607.84549344788024
  0
LINE
  8
_0-3_躯体と製品
  6
CONTINUOUS
 62
    4
 10
884.265516508985
 20
607.84549344788024
 11
884.50051650897092
 21
606.69449344786767
  0
LINE
  8
_0-3_躯体と製品
  6
CONTINUOUS
 62
    4
 10
1121.6995165089825
 20
602.84549344786319
 11
1189.6995165089825
 21
602.84549344786319
  0
LINE
  8
_0-3_躯体と製品
  6
CONTINUOUS
 62
    4
 10
1189.6995165089825
 20
602.84549344786319
 11
1189.6995165089825
 21
609.84549344786319
  0
LINE
  8
_0-3_躯体と製品
  6
CONTINUOUS
 62
    4
 10
1189.6995165089825
 20
609.84549344786319
 11
1184.6995165089825
 21
609.84549344786319
  0
LINE
  8
_0-3_躯体と製品
  6
CONTINUOUS
 62
    4
 10
1184.6995165089825
 20
609.84549344786319
 11
1184.6995165089825
 21
607.84549344786319
  0
LINE
  8
_0-3_躯体と製品
  6
CONTINUOUS
 62
    4
 10
1184.6995165089825
 20
607.84549344786319
 11
1187.6995165089825
 21
607.84549344786319
  0
LINE
  8
_0-3_躯体と製品
  6
CONTINUOUS
 62
    4
 10
1187.6995165089825
 20
607.84549344786319
 11
1187.6995165089825
 21
604.84549344786319
  0
LINE
  8
_0-3_躯体と製品
  6
CONTINUOUS
 62
    4
 10
1187.6995165089825
 20
604.84549344786319
 11
1123.6995165089825
 21
604.84549344786319
  0
LINE
  8
_0-3_躯体と製品
  6
CONTINUOUS
 62
    4
 10
1123.6995165089825
 20
604.84549344786319
 11
1123.6995165089825
 21
607.84549344786319
  0
LINE
  8
_0-3_躯体と製品
  6
CONTINUOUS
 62
    4
 10
1123.6995165089825
 20
607.84549344786319
 11
1126.6995165089825
 21
607.84549344786319
  0
LINE
  8
_0-3_躯体と製品
  6
CONTINUOUS
 62
    4
 10
1126.6995165089825
 20
607.84549344786319
 11
1126.6995165089825
 21
609.84549344786319
  0
LINE
  8
_0-3_躯体と製品
  6
CONTINUOUS
 62
    4
 10
1126.6995165089825
 20
609.84549344786319
 11
1121.6995165089825
 21
609.84549344786319
  0
LINE
  8
_0-3_躯体と製品
  6
CONTINUOUS
 62
    4
 10
1121.6995165089825
 20
609.84549344786319
 11
1121.6995165089825
 21
602.84549344786319
  0
ARC
  8
_0-3_躯体と製品
  6
CONTINUOUS
 62
    4
 10
1171.4995165089824
 20
632.14549344786315
 40
1.7000000000000453
 50
359.99999999999233
 51
89.999999999992326
  0
LINE
  8
_0-3_躯体と製品
  6
CONTINUOUS
 62
    4
 10
1173.1995165089825
 20
632.14549344786292
 11
1173.1995165089825
 21
606.54549344786301
  0
ARC
  8
_0-3_躯体と製品
  6
CONTINUOUS
 62
    4
 10
1173.6995165089825
 20
606.54549344786301
 40
0.5000000000000567
 50
180.00000000000651
 51
270.00000000000654
  0
LINE
  8
_0-3_躯体と製品
  6
CONTINUOUS
 62
    4
 10
1173.6995165089825
 20
606.04549344786301
 11
1185.9995165089827
 21
606.04549344786301
  0
ARC
  8
_0-3_躯体と製品
  6
CONTINUOUS
 62
    4
 10
1185.9995165089827
 20
606.54549344786301
 40
0.4999999999999999
 50
270
 51
0.0000000000000127
  0
LINE
  8
_0-3_躯体と製品
  6
CONTINUOUS
 62
    4
 10
1186.4995165089827
 20
606.54549344786301
 11
1186.4995165089827
 21
607.84549344786319
  0
LINE
  8
_0-3_躯体と製品
  6
CONTINUOUS
 62
    4
 10
1186.4995165089827
 20
607.84549344786319
 11
1187.6995165089825
 21
607.84549344786319
  0
LINE
  8
_0-3_躯体と製品
  6
CONTINUOUS
 62
    4
 10
1187.6995165089825
 20
607.84549344786319
 11
1187.6995165089825
 21
606.54549344786301
  0
ARC
  8
_0-3_躯体と製品
  6
CONTINUOUS
 62
    4
 10
1185.9995165089827
 20
606.5454934478629
 40
1.6999999999997613
 50
270.00000000000188
 51
0.0000000000019108
  0
LINE
  8
_0-3_躯体と製品
  6
CONTINUOUS
 62
    4
 10
1185.9995165089827
 20
604.84549344786319
 11
1173.6995165089825
 21
604.84549344786319
  0
ARC
  8
_0-3_躯体と製品
  6
CONTINUOUS
 62
    4
 10
1173.6995165089825
 20
606.54549344786312
 40
1.6999999999999318
 50
180.00000000000381
 51
270.00000000000381
  0
LINE
  8
_0-3_躯体と製品
  6
CONTINUOUS
 62
    4
 10
1171.9995165089827
 20
606.54549344786301
 11
1171.9995165089827
 21
632.14549344786292
  0
ARC
  8
_0-3_躯体と製品
  6
CONTINUOUS
 62
    4
 10
1171.4995165089827
 20
632.14549344786303
 40
0.4999999999999431
 50
359.99999999999352
 51
89.999999999993506
  0
LINE
  8
_0-3_躯体と製品
  6
CONTINUOUS
 62
    4
 10
1171.4995165089827
 20
632.64549344786292
 11
1139.8995165089823
 21
632.64549344786292
  0
ARC
  8
_0-3_躯体と製品
  6
CONTINUOUS
 62
    4
 10
1139.8995165089823
 20
632.14549344786292
 40
0.4999999999999431
 50
90.000000000006509
 51
180.00000000000651
  0
LINE
  8
_0-3_躯体と製品
  6
CONTINUOUS
 62
    4
 10
1139.3995165089823
 20
632.14549344786292
 11
1139.3995165089823
 21
606.54549344786301
  0
ARC
  8
_0-3_躯体と製品
  6
CONTINUOUS
 62
    4
 10
1137.6995165089825
 20
606.54549344786312
 40
1.6999999999999318
 50
269.99999999999613
 51
359.99999999999613
  0
LINE
  8
_0-3_躯体と製品
  6
CONTINUOUS
 62
    4
 10
1137.6995165089825
 20
604.84549344786319
 11
1125.3995165089823
 21
604.84549344786319
  0
ARC
  8
_0-3_躯体と製品
  6
CONTINUOUS
 62
    4
 10
1125.3995165089823
 20
606.54549344786301
 40
1.6999999999997613
 50
179.99999999999807
 51
269.99999999999807
  0
LINE
  8
_0-3_躯体と製品
  6
CONTINUOUS
 62
    4
 10
1123.6995165089825
 20
606.54549344786301
 11
1123.6995165089825
 21
607.84549344786319
  0
LINE
  8
_0-3_躯体と製品
  6
CONTINUOUS
 62
    4
 10
1123.6995165089825
 20
607.84549344786319
 11
1124.8995165089823
 21
607.84549344786319
  0
LINE
  8
_0-3_躯体と製品
  6
CONTINUOUS
 62
    4
 10
1124.8995165089823
 20
607.84549344786319
 11
1124.8995165089823
 21
606.54549344786301
  0
ARC
  8
_0-3_躯体と製品
  6
CONTINUOUS
 62
    4
 10
1125.3995165089823
 20
606.54549344786301
 40
0.5000000000000567
 50
180.00000000000651
 51
270.00000000000654
  0
LINE
  8
_0-3_躯体と製品
  6
CONTINUOUS
 62
    4
 10
1125.3995165089823
 20
606.04549344786301
 11
1137.6995165089825
 21
606.04549344786301
  0
ARC
  8
_0-3_躯体と製品
  6
CONTINUOUS
 62
    4
 10
1137.6995165089825
 20
606.54549344786301
 40
0.5000000000000567
 50
269.99999999999352
 51
359.99999999999352
  0
LINE
  8
_0-3_躯体と製品
  6
CONTINUOUS
 62
    4
 10
1138.1995165089825
 20
606.54549344786301
 11
1138.1995165089825
 21
632.14549344786292
  0
ARC
  8
_0-3_躯体と製品
  6
CONTINUOUS
 62
    4
 10
1139.8995165089825
 20
632.14549344786315
 40
1.7000000000000453
 50
90.000000000007617
 51
180.00000000000765
  0
LINE
  8
_0-3_躯体と製品
  6
CONTINUOUS
 62
    4
 10
1139.8995165089823
 20
633.84549344786319
 11
1171.4995165089827
 21
633.84549344786319
  0
LINE
  8
_0-3_躯体と製品
  6
CONTINUOUS
 62
    4
 10
1134.9005165089652
 20
606.6944934478679
 11
1134.9005165089652
 21
606.24549344787465
  0
LINE
  8
_0-3_躯体と製品
  6
CONTINUOUS
 62
    4
 10
1126.9005165089652
 20
606.6944934478679
 11
1126.9005165089652
 21
606.24549344787465
  0
LINE
  8
_0-3_躯体と製品
  6
CONTINUOUS
 62
    4
 10
1134.7005165089827
 20
606.04549344786301
 11
1130.9005165089652
 21
606.04549344786301
  0
ARC
  8
_0-3_躯体と製品
  6
CONTINUOUS
 62
    4
 10
1127.1005165089682
 20
606.2454934478659
 40
0.2000000000028542
 50
180.00000600057851
 51
269.99999700093719
  0
LINE
  8
_0-3_躯体と製品
  6
CONTINUOUS
 62
    4
 10
1127.1005165089769
 20
606.04549344786301
 11
1130.9005165089652
 21
606.04549344786301
  0
ARC
  8
_0-3_躯体と製品
  6
CONTINUOUS
 62
    4
 10
1134.7005165089797
 20
606.24549344787749
 40
0.2000000000144951
 50
269.99999699930208
 51
359.99999999918259
  0
LINE
  8
_0-3_躯体と製品
  6
CONTINUOUS
 62
    4
 10
1134.6655165089792
 20
607.84549344788047
 11
1130.9005165089652
 21
607.84549344788047
  0
ARC
  8
_0-3_躯体と製品
  6
CONTINUOUS
 62
    4
 10
1131.4475165089352
 20
604.25749344786527
 40
4.8189999999965529
 50
48.111754999080979
 51
96.517442000063127
  0
LINE
  8
_0-3_躯体と製品
  6
CONTINUOUS
 62
    4
 10
1127.1355165089803
 20
607.84549344788047
 11
1126.9005165089652
 21
606.6944934478679
  0
ARC
  8
_0-3_躯体と製品
  6
CONTINUOUS
 62
    4
 10
1130.3535165089829
 20
604.25749344785936
 40
4.8190000000170299
 50
83.482563001155512
 51
131.88825099942468
  0
LINE
  8
_0-3_躯体と製品
  6
CONTINUOUS
 62
    4
 10
1127.1355165089803
 20
607.84549344788047
 11
1130.9005165089652
 21
607.84549344788047
  0
LINE
  8
_0-3_躯体と製品
  6
CONTINUOUS
 62
    4
 10
1134.6655165089792
 20
607.84549344788047
 11
1134.9005165089652
 21
606.6944934478679
  0
LINE
  8
_0-3_躯体と製品
  6
CONTINUOUS
 62
    4
 10
1184.500516508971
 20
606.6944934478679
 11
1184.500516508971
 21
606.24549344787465
  0
LINE
  8
_0-3_躯体と製品
  6
CONTINUOUS
 62
    4
 10
1176.500516508971
 20
606.6944934478679
 11
1176.500516508971
 21
606.24549344787465
  0
LINE
  8
_0-3_躯体と製品
  6
CONTINUOUS
 62
    4
 10
1184.3005165089594
 20
606.04549344786301
 11
1180.500516508971
 21
606.04549344786301
  0
ARC
  8
_0-3_躯体と製品
  6
CONTINUOUS
 62
    4
 10
1176.7005165089738
 20
606.24549344786601
 40
0.2000000000029678
 50
180.00000600061108
 51
269.99999700096976
  0
LINE
  8
_0-3_躯体と製品
  6
CONTINUOUS
 62
    4
 10
1176.7005165089827
 20
606.04549344786301
 11
1180.500516508971
 21
606.04549344786301
  0
ARC
  8
_0-3_躯体と製品
  6
CONTINUOUS
 62
    4
 10
1184.3005165089564
 20
606.24549344787749
 40
0.2000000000144951
 50
269.99999699930208
 51
359.99999999918259
  0
LINE
  8
_0-3_躯体と製品
  6
CONTINUOUS
 62
    4
 10
1184.265516508985
 20
607.84549344788047
 11
1180.500516508971
 21
607.84549344788047
  0
ARC
  8
_0-3_躯体と製品
  6
CONTINUOUS
 62
    4
 10
1181.047516508941
 20
604.2574934478655
 40
4.8189999999962883
 50
48.111754999079984
 51
96.517442000062118
  0
LINE
  8
_0-3_躯体と製品
  6
CONTINUOUS
 62
    4
 10
1176.7355165089571
 20
607.84549344788047
 11
1176.500516508971
 21
606.6944934478679
  0
ARC
  8
_0-3_躯体と製品
  6
CONTINUOUS
 62
    4
 10
1179.9535165089599
 20
604.25749344785936
 40
4.8190000000170299
 50
83.482563001155512
 51
131.88825099942468
  0
LINE
  8
_0-3_躯体と製品
  6
CONTINUOUS
 62
    4
 10
1176.7355165089571
 20
607.84549344788047
 11
1180.500516508971
 21
607.84549344788047
  0
LINE
  8
_0-3_躯体と製品
  6
CONTINUOUS
 62
    4
 10
1184.265516508985
 20
607.84549344788047
 11
1184.500516508971
 21
606.6944934478679
  0
LINE
  8
_0-3_躯体と製品
  6
CONTINUOUS
 62
    4
 10
207.48928840568942
 20
1818.3234134478646
 11
247.48915426098097
 21
1818.3234134478646
  0
LINE
  8
_0-3_躯体と製品
  6
CONTINUOUS
 62
    4
 10
247.48915426098097
 20
1818.3234134478646
 11
247.48934206357285
 21
1825.3234134453446
  0
LINE
  8
_0-3_躯体と製品
  6
CONTINUOUS
 62
    4
 10
247.48934206357285
 20
1825.3234134453446
 11
207.4894762082813
 21
1825.3234134453446
  0
LINE
  8
_0-3_躯体と製品
  6
CONTINUOUS
 62
    4
 10
207.4894762082813
 20
1825.3234134453446
 11
207.48928840568942
 21
1818.3234134478646
  0
LINE
  8
_0-3_躯体と製品
  6
CONTINUOUS
 62
    4
 10
203.88928846307635
 20
1768.3234134478646
 11
227.48928846308218
 21
1768.3234134478646
  0
LINE
  8
_0-3_躯体と製品
  6
CONTINUOUS
 62
    4
 10
227.48928846308218
 20
1768.3234134478646
 11
251.08928846305889
 21
1768.3234134478646
  0
ARC
  8
_0-3_躯体と製品
  6
CONTINUOUS
 62
    4
 10
203.88928846305885
 20
1769.7234134478704
 40
1.4000000000057116
 50
180.00000600000388
 51
269.99999700036255
  0
LINE
  8
_0-3_躯体と製品
  6
CONTINUOUS
 62
    4
 10
254.48928846308218
 20
1822.0254134478546
 11
252.48928846308218
 21
1822.0254134478546
  0
LINE
  8
_0-3_躯体と製品
  6
CONTINUOUS
 62
    4
 10
252.48928846308218
 20
1822.0254134478546
 11
252.48928846305307
 21
1769.7234134478585
  0
ARC
  8
_0-3_躯体と製品
  6
CONTINUOUS
 62
    4
 10
251.08928846305321
 20
1769.7234134478645
 40
1.3999999999998871
 50
269.99999699987671
 51
359.99999999975716
  0
LINE
  8
_0-3_躯体と製品
  6
CONTINUOUS
 62
    4
 10
200.48928846308218
 20
1822.0254134478546
 11
202.48928846308218
 21
1822.0254134478546
  0
LINE
  8
_0-3_躯体と製品
  6
CONTINUOUS
 62
    4
 10
202.48928846308218
 20
1822.0254134478546
 11
202.48928846308218
 21
1769.7234134478585
  0
LINE
  8
_0-3_躯体と製品
  6
CONTINUOUS
 62
    4
 10
237.48928846308218
 20
1768.3234134478646
 11
246.98928846308218
 21
1768.3234134478646
  0
ARC
  8
_0-3_躯体と製品
  6
CONTINUOUS
 62
    4
 10
246.98928846308218
 20
1773.8234134478646
 40
5.5
 50
270
 51
0.0000000000000127
  0
LINE
  8
_0-3_躯体と製品
  6
CONTINUOUS
 62
    4
 10
252.48928846308218
 20
1773.8234134478646
 11
252.48928846308218
 21
1812.8234134478646
  0
ARC
  8
_0-3_躯体と製品
  6
CONTINUOUS
 62
    4
 10
246.98928846308218
 20
1812.8234134478646
 40
5.5
 50
0.0000000000000052
 51
90.000000000000014
  0
LINE
  8
_0-3_躯体と製品
  6
CONTINUOUS
 62
    4
 10
246.98928846308218
 20
1818.3234134478646
 11
207.98928846308218
 21
1818.3234134478646
  0
ARC
  8
_0-3_躯体と製品
  6
CONTINUOUS
 62
    4
 10
207.98928846308218
 20
1812.8234134478646
 40
5.5
 50
90
 51
180
  0
LINE
  8
_0-3_躯体と製品
  6
CONTINUOUS
 62
    4
 10
202.48928846308218
 20
1812.8234134478646
 11
202.48928846308218
 21
1773.8234134478646
  0
ARC
  8
_0-3_躯体と製品
  6
CONTINUOUS
 62
    4
 10
207.98928846308218
 20
1773.8234134478646
 40
5.5
 50
180
 51
270
  0
LINE
  8
_0-3_躯体と製品
  6
CONTINUOUS
 62
    4
 10
207.98928846308218
 20
1768.3234134478646
 11
217.48928846308218
 21
1768.3234134478646
  0
LINE
  8
_0-3_躯体と製品
  6
CONTINUOUS
 62
    4
 10
217.48928846308218
 20
1768.3234134478646
 11
217.48928846308218
 21
1769.9234134478704
  0
LINE
  8
_0-3_躯体と製品
  6
CONTINUOUS
 62
    4
 10
217.48928846308218
 20
1769.9234134478704
 11
207.98928846308218
 21
1769.9234134478704
  0
ARC
  8
_0-3_躯体と製品
  6
CONTINUOUS
 62
    4
 10
207.98928846308218
 20
1773.8234134478644
 40
3.8999999999940957
 50
179.99999999999878
 51
270.00000000000125
  0
LINE
  8
_0-3_躯体と製品
  6
CONTINUOUS
 62
    4
 10
204.089288463088
 20
1773.8234134478646
 11
204.089288463088
 21
1812.8234134478646
  0
ARC
  8
_0-3_躯体と製品
  6
CONTINUOUS
 62
    4
 10
207.98928846308218
 20
1812.8234134478644
 40
3.8999999999940651
 50
89.999999999998309
 51
179.99999999999832
  0
LINE
  8
_0-3_躯体と製品
  6
CONTINUOUS
 62
    4
 10
207.98928846308218
 20
1816.7234134478585
 11
246.98928846308218
 21
1816.7234134478585
  0
ARC
  8
_0-3_躯体と製品
  6
CONTINUOUS
 62
    4
 10
246.9892884630824
 20
1812.8234134478644
 40
3.8999999999940651
 50
0.0000000000016538
 51
90.000000000001663
  0
LINE
  8
_0-3_躯体と製品
  6
CONTINUOUS
 62
    4
 10
250.88928846307635
 20
1812.8234134478646
 11
250.88928846307635
 21
1773.8234134478646
  0
ARC
  8
_0-3_躯体と製品
  6
CONTINUOUS
 62
    4
 10
246.98928846308218
 20
1773.8234134478646
 40
3.8999999999941788
 50
270
 51
0
  0
LINE
  8
_0-3_躯体と製品
  6
CONTINUOUS
 62
    4
 10
246.98928846308218
 20
1769.9234134478704
 11
237.48928846308218
 21
1769.9234134478704
  0
LINE
  8
_0-3_躯体と製品
  6
CONTINUOUS
 62
    4
 10
237.48928846308218
 20
1769.9234134478704
 11
237.48928846308218
 21
1768.3234134478646
  0
LINE
  8
_0-3_躯体と製品
  6
CONTINUOUS
 62
    4
 10
256.08928846305889
 20
1838.3234134478646
 11
254.48928846308218
 21
1838.3234134478646
  0
LINE
  8
_0-3_躯体と製品
  6
CONTINUOUS
 62
    4
 10
256.08928846305889
 20
1838.3234134478646
 11
256.08928846305889
 21
1823.4864134478646
  0
LINE
  8
_0-3_躯体と製品
  6
CONTINUOUS
 62
    4
 10
200.48928846308218
 20
1810.8204134478385
 11
200.48928846308218
 21
1814.5944134478425
  0
ARC
  8
_0-3_躯体と製品
  6
CONTINUOUS
 62
    4
 10
253.19311099363063
 20
1821.9903477375608
 40
1.2966517020204444
 50
317.69510576086839
 51
1.5496545246891198
  0
ARC
  8
_0-3_躯体と製品
  6
CONTINUOUS
 62
    4
 10
253.19155476310084
 20
1821.9917227601968
 40
2.8986452925362789
 50
312.85330359612027
 51
1.4369837799495409
  0
ARC
  8
_0-3_躯体と製品
  6
CONTINUOUS
 62
    4
 10
256.08933782676581
 20
1818.3234367946689
 40
3.4000487118014395
 50
124.7344287759372
 51
232.17927813485491
  0
ARC
  8
_0-3_躯体と製品
  6
CONTINUOUS
 62
    4
 10
253.20082649097594
 20
1814.6333270343453
 40
2.8884909711744493
 50
358.29513856526148
 51
50.516591623346557
  0
ARC
  8
_0-3_躯体と製品
  6
CONTINUOUS
 62
    4
 10
253.19830767160374
 20
1814.6234262607977
 40
1.2955573261576008
 50
4.8173213682956115
 51
51.520260392021825
  0
ARC
  8
_0-3_躯体と製品
  6
CONTINUOUS
 62
    4
 10
201.7822884630466
 20
1814.6324134478382
 40
2.8929999999884264
 50
129.41760799991658
 51
181.684095999769
  0
ARC
  8
_0-3_躯体と製品
  6
CONTINUOUS
 62
    4
 10
201.7822884630682
 20
1814.6324134478732
 40
1.2929999999988697
 50
129.4141160010027
 51
181.6846790000989
  0
LINE
  8
_0-3_躯体と製品
  6
CONTINUOUS
 62
    4
 10
256.08928846305889
 20
1822.0644134478446
 11
256.08928846305889
 21
1823.4864134478646
  0
ARC
  8
_0-3_躯体と製品
  6
CONTINUOUS
 62
    4
 10
198.89075890359823
 20
1818.3242398128482
 40
1.7984965284365719
 50
305.89915875100542
 51
59.054554349272522
  0
LINE
  8
_0-3_躯体と製品
  6
CONTINUOUS
 62
    4
 10
198.88928846307635
 20
1823.4864134478646
 11
198.88928846307635
 21
1822.0734134478646
  0
LINE
  8
_0-3_躯体と製品
  6
CONTINUOUS
 62
    4
 10
256.08803884100007
 20
1814.5473913815315
 11
256.08928846305889
 21
1813.3964134478394
  0
ARC
  8
_0-3_躯体と製品
  6
CONTINUOUS
 62
    4
 10
256.08924477952769
 20
1818.3233922227032
 40
1.7999572498780092
 50
120.97053275035857
 51
234.24477663207162
  0
ARC
  8
_0-3_躯体と製品
  6
CONTINUOUS
 62
    4
 10
201.78802643697145
 20
1821.9907727780742
 40
1.299199869467798
 50
178.4721369914914
 51
222.18063130780277
  0
ARC
  8
_0-3_躯体と製品
  6
CONTINUOUS
 62
    4
 10
201.78814824583878
 20
1821.9925100001069
 40
2.8999883062919838
 50
178.40151376473008
 51
227.14095868503648
  0
ARC
  8
_0-3_躯体と製品
  6
CONTINUOUS
 62
    4
 10
198.89271956741686
 20
1818.3252704442282
 40
3.3965202044817318
 50
307.52011129179976
 51
55.320735768251183
  0
LINE
  8
_0-3_躯体と製品
  6
CONTINUOUS
 62
    4
 10
254.48928846308218
 20
1838.3234134478646
 11
254.48928846308218
 21
1822.0254134478546
  0
ARC
  8
_0-3_躯体と製品
  6
CONTINUOUS
 62
    3
 10
256.08928846306526
 20
1829.9394134478498
 40
1.5999999999995462
 50
359.99999999980781
 51
90.000002999688263
  0
LINE
  8
_0-3_躯体と製品
  6
CONTINUOUS
 62
    4
 10
198.88928846307635
 20
1838.3234134478646
 11
198.88928846307635
 21
1823.4864134478646
  0
LINE
  8
_0-3_躯体と製品
  6
CONTINUOUS
 62
    4
 10
198.88928846307635
 20
1838.3234134478646
 11
200.48928846308218
 21
1838.3234134478646
  0
LINE
  8
_0-3_躯体と製品
  6
CONTINUOUS
 62
    4
 10
200.48928846308218
 20
1838.3234134478646
 11
200.48928846308218
 21
1822.0254134478835
  0
ARC
  8
_0-3_躯体と製品
  6
CONTINUOUS
 62
    3
 10
198.88928846308477
 20
1829.9394134478352
 40
1.6000000000142165
 50
90.000002999763907
 51
180.00000599964437
  0
ARC
  8
_0-3_躯体と製品
  6
CONTINUOUS
 62
    3
 10
256.08928846306458
 20
1773.3234134478587
 40
1.6000000000001147
 50
269.99999700033209
 51
0.0000000002125628
  0
ARC
  8
_0-3_躯体と製品
  6
CONTINUOUS
 62
    4
 10
251.08928846305321
 20
1769.7234134478645
 40
3.3999999999998884
 50
269.99999700001956
 51
359.99999999990007
  0
ARC
  8
_0-3_躯体と製品
  6
CONTINUOUS
 62
    4
 10
251.08928846305889
 20
1769.7234134478585
 40
5.0000000000000027
 50
269.99999700011961
 51
0.0000000000000508
  0
ARC
  8
_0-3_躯体と製品
  6
CONTINUOUS
 62
    4
 10
203.88928846307613
 20
1769.7234134478585
 40
4.9999999999999032
 50
180.00000599976232
 51
269.99999700012097
  0
LINE
  8
_0-3_躯体と製品
  6
CONTINUOUS
 62
    4
 10
251.08928846305889
 20
1764.7234134478585
 11
227.48928846308218
 21
1764.7234134478585
  0
LINE
  8
_0-3_躯体と製品
  6
CONTINUOUS
 62
    4
 10
251.08928846305889
 20
1766.3234134478646
 11
227.48928846308218
 21
1766.3234134478646
  0
LINE
  8
_0-3_躯体と製品
  6
CONTINUOUS
 62
    4
 10
203.88928846307635
 20
1766.3234134478646
 11
227.48928846308218
 21
1766.3234134478646
  0
LINE
  8
_0-3_躯体と製品
  6
CONTINUOUS
 62
    4
 10
203.88928846307635
 20
1764.7234134478585
 11
227.48928846308218
 21
1764.7234134478585
  0
ARC
  8
_0-3_躯体と製品
  6
CONTINUOUS
 62
    3
 10
198.88928846307931
 20
1773.3234134478673
 40
1.6000000000087362
 50
180.00000600007368
 51
269.99999700043236
  0
ARC
  8
_0-3_躯体と製品
  6
CONTINUOUS
 62
    4
 10
203.8892884630734
 20
1769.7234134478558
 40
3.3999999999912802
 50
180.00000599961388
 51
269.99999699997255
  0
LINE
  8
_0-3_躯体と製品
  6
CONTINUOUS
 62
    4
 10
254.48928846308218
 20
1814.7322259914686
 11
254.48928846308218
 21
1769.7234134478585
  0
LINE
  8
_0-3_躯体と製品
  6
CONTINUOUS
 62
    4
 10
256.08928846305889
 20
1813.3964134478394
 11
256.08928846305889
 21
1769.7234134478585
  0
LINE
  8
_0-3_躯体と製品
  6
CONTINUOUS
 62
    4
 10
198.8905380762294
 20
1814.5473916842984
 11
198.88928846307635
 21
1769.7234134478585
  0
LINE
  8
_0-3_躯体と製品
  6
CONTINUOUS
 62
    4
 10
200.48928846308218
 20
1810.8204134478385
 11
200.48928846308218
 21
1769.7234134478585
  0
LINE
  8
_0-3_躯体と製品
  6
CONTINUOUS
 62
    3
 10
257.68928846306471
 20
1773.3234134478646
 11
257.68928846306471
 21
1829.9394134478446
  0
LINE
  8
_0-3_躯体と製品
  6
CONTINUOUS
 62
    3
 10
197.28928846307053
 20
1773.3234134478646
 11
197.28928846307053
 21
1829.9394134478446
  0
LINE
  8
_0-3_躯体と製品
  6
CONTINUOUS
 62
    4
 10
985.69951645158972
 20
1818.3234134478635
 11
1025.6993823068815
 21
1818.3234134478635
  0
LINE
  8
_0-3_躯体と製品
  6
CONTINUOUS
 62
    4
 10
1025.6993823068815
 20
1818.3234134478635
 11
1025.6995701094734
 21
1825.3234134453446
  0
LINE
  8
_0-3_躯体と製品
  6
CONTINUOUS
 62
    4
 10
1025.6995701094734
 20
1825.3234134453446
 11
985.6997042541816
 21
1825.3234134453446
  0
LINE
  8
_0-3_躯体と製品
  6
CONTINUOUS
 62
    4
 10
985.6997042541816
 20
1825.3234134453446
 11
985.69951645158972
 21
1818.3234134478635
  0
LINE
  8
_0-3_躯体と製品
  6
CONTINUOUS
 62
    4
 10
982.09951650897665
 20
1768.3234134478635
 11
1005.6995165089826
 21
1768.3234134478635
  0
LINE
  8
_0-3_躯体と製品
  6
CONTINUOUS
 62
    4
 10
1005.6995165089826
 20
1768.3234134478635
 11
1029.2995165089592
 21
1768.3234134478635
  0
ARC
  8
_0-3_躯体と製品
  6
CONTINUOUS
 62
    4
 10
982.09951650895903
 20
1769.723413447869
 40
1.4000000000057116
 50
180.00000600000388
 51
269.99999700036255
  0
LINE
  8
_0-3_躯体と製品
  6
CONTINUOUS
 62
    4
 10
1032.6995165089825
 20
1822.0254134478535
 11
1030.6995165089825
 21
1822.0254134478535
  0
LINE
  8
_0-3_躯体と製品
  6
CONTINUOUS
 62
    4
 10
1030.6995165089825
 20
1822.0254134478535
 11
1030.6995165089534
 21
1769.7234134478574
  0
ARC
  8
_0-3_躯体と製品
  6
CONTINUOUS
 62
    4
 10
1029.2995165089535
 20
1769.7234134478635
 40
1.399999999999944
 50
269.99999699987438
 51
359.99999999975483
  0
LINE
  8
_0-3_躯体と製品
  6
CONTINUOUS
 62
    4
 10
978.69951650898258
 20
1822.0254134478535
 11
980.69951650898258
 21
1822.0254134478535
  0
LINE
  8
_0-3_躯体と製品
  6
CONTINUOUS
 62
    4
 10
980.69951650898258
 20
1822.0254134478535
 11
980.69951650898258
 21
1769.7234134478574
  0
LINE
  8
_0-3_躯体と製品
  6
CONTINUOUS
 62
    4
 10
1015.6995165089826
 20
1768.3234134478635
 11
1025.1995165089825
 21
1768.3234134478635
  0
ARC
  8
_0-3_躯体と製品
  6
CONTINUOUS
 62
    4
 10
1025.1995165089825
 20
1773.8234134478635
 40
5.5
 50
270
 51
0.0000000000000127
  0
LINE
  8
_0-3_躯体と製品
  6
CONTINUOUS
 62
    4
 10
1030.6995165089825
 20
1773.8234134478635
 11
1030.6995165089825
 21
1812.8234134478635
  0
ARC
  8
_0-3_躯体と製品
  6
CONTINUOUS
 62
    4
 10
1025.1995165089825
 20
1812.8234134478635
 40
5.5
 50
0.0000000000000052
 51
90.000000000000014
  0
LINE
  8
_0-3_躯体と製品
  6
CONTINUOUS
 62
    4
 10
1025.1995165089825
 20
1818.3234134478635
 11
986.19951650898258
 21
1818.3234134478635
  0
ARC
  8
_0-3_躯体と製品
  6
CONTINUOUS
 62
    4
 10
986.19951650898258
 20
1812.8234134478635
 40
5.5
 50
90
 51
180
  0
LINE
  8
_0-3_躯体と製品
  6
CONTINUOUS
 62
    4
 10
980.69951650898258
 20
1812.8234134478635
 11
980.69951650898258
 21
1773.8234134478635
  0
ARC
  8
_0-3_躯体と製品
  6
CONTINUOUS
 62
    4
 10
986.19951650898258
 20
1773.8234134478635
 40
5.5
 50
180
 51
270
  0
LINE
  8
_0-3_躯体と製品
  6
CONTINUOUS
 62
    4
 10
986.19951650898258
 20
1768.3234134478635
 11
995.69951650898258
 21
1768.3234134478635
  0
LINE
  8
_0-3_躯体と製品
  6
CONTINUOUS
 62
    4
 10
995.69951650898258
 20
1768.3234134478635
 11
995.69951650898258
 21
1769.9234134478695
  0
LINE
  8
_0-3_躯体と製品
  6
CONTINUOUS
 62
    4
 10
995.69951650898258
 20
1769.9234134478695
 11
986.19951650898258
 21
1769.9234134478695
  0
ARC
  8
_0-3_躯体と製品
  6
CONTINUOUS
 62
    4
 10
986.19951650898236
 20
1773.8234134478635
 40
3.8999999999939821
 50
180.00000000000045
 51
270.0000000000029
  0
LINE
  8
_0-3_躯体と製品
  6
CONTINUOUS
 62
    4
 10
982.2995165089884
 20
1773.8234134478635
 11
982.2995165089884
 21
1812.8234134478635
  0
ARC
  8
_0-3_躯体と製品
  6
CONTINUOUS
 62
    4
 10
986.19951650898304
 20
1812.8234134478639
 40
3.8999999999946335
 50
90.000000000006651
 51
180.00000000000668
  0
LINE
  8
_0-3_躯体と製品
  6
CONTINUOUS
 62
    4
 10
986.19951650898258
 20
1816.7234134478585
 11
1025.1995165089825
 21
1816.7234134478585
  0
ARC
  8
_0-3_躯体と製品
  6
CONTINUOUS
 62
    4
 10
1025.199516508982
 20
1812.8234134478639
 40
3.8999999999946335
 50
359.99999999999329
 51
89.999999999993321
  0
LINE
  8
_0-3_躯体と製品
  6
CONTINUOUS
 62
    4
 10
1029.0995165089766
 20
1812.8234134478635
 11
1029.0995165089766
 21
1773.8234134478635
  0
ARC
  8
_0-3_躯体と製品
  6
CONTINUOUS
 62
    4
 10
1025.1995165089827
 20
1773.8234134478635
 40
3.8999999999940651
 50
269.99999999999829
 51
359.99999999999835
  0
LINE
  8
_0-3_躯体と製品
  6
CONTINUOUS
 62
    4
 10
1025.1995165089825
 20
1769.9234134478695
 11
1015.6995165089826
 21
1769.9234134478695
  0
LINE
  8
_0-3_躯体と製品
  6
CONTINUOUS
 62
    4
 10
1015.6995165089826
 20
1769.9234134478695
 11
1015.6995165089826
 21
1768.3234134478635
  0
LINE
  8
_0-3_躯体と製品
  6
CONTINUOUS
 62
    4
 10
1034.2995165089592
 20
1838.3234134478635
 11
1032.6995165089825
 21
1838.3234134478635
  0
LINE
  8
_0-3_躯体と製品
  6
CONTINUOUS
 62
    4
 10
1034.2995165089592
 20
1838.3234134478635
 11
1034.2995165089592
 21
1823.4864134478646
  0
LINE
  8
_0-3_躯体と製品
  6
CONTINUOUS
 62
    4
 10
978.69951650898258
 20
1810.8204134478376
 11
978.69951650898258
 21
1814.5944134478425
  0
ARC
  8
_0-3_躯体と製品
  6
CONTINUOUS
 62
    4
 10
1031.4033390395309
 20
1821.9903477375597
 40
1.2966517020204444
 50
317.69510576086839
 51
1.5496545246891198
  0
ARC
  8
_0-3_躯体と製品
  6
CONTINUOUS
 62
    4
 10
1031.4017828090025
 20
1821.9917227601964
 40
2.8986452925350594
 50
312.85330359610714
 51
1.4369837799364114
  0
ARC
  8
_0-3_躯体と製品
  6
CONTINUOUS
 62
    4
 10
1034.2995658726663
 20
1818.3234367946677
 40
3.4000487118013001
 50
124.73442877593598
 51
232.17927813485369
  0
ARC
  8
_0-3_躯体と製品
  6
CONTINUOUS
 62
    4
 10
1031.4110545368753
 20
1814.6333270343448
 40
2.8884909711753908
 50
358.29513856525301
 51
50.51659162333808
  0
ARC
  8
_0-3_躯体と製品
  6
CONTINUOUS
 62
    4
 10
1031.4085357175049
 20
1814.623426260797
 40
1.2955573261566571
 50
4.817321368325155
 51
51.52026039205137
  0
ARC
  8
_0-3_躯体と製品
  6
CONTINUOUS
 62
    4
 10
979.99251650894689
 20
1814.6324134478373
 40
2.8929999999884264
 50
129.41760799991658
 51
181.684095999769
  0
ARC
  8
_0-3_躯体と製品
  6
CONTINUOUS
 62
    4
 10
979.99251650896974
 20
1814.6324134478728
 40
1.2929999999999908
 50
129.41411600103154
 51
181.68467900012774
  0
LINE
  8
_0-3_躯体と製品
  6
CONTINUOUS
 62
    4
 10
1034.2995165089592
 20
1822.0644134478434
 11
1034.2995165089592
 21
1823.4864134478646
  0
ARC
  8
_0-3_躯体と製品
  6
CONTINUOUS
 62
    4
 10
977.10098694949818
 20
1818.324239812848
 40
1.7984965284371137
 50
305.89915875100246
 51
59.054554349269594
  0
LINE
  8
_0-3_躯体と製品
  6
CONTINUOUS
 62
    4
 10
977.09951650897676
 20
1823.4864134478646
 11
977.09951650897676
 21
1822.0734134478635
  0
LINE
  8
_0-3_躯体と製品
  6
CONTINUOUS
 62
    4
 10
1034.2982668869004
 20
1814.5473913815306
 11
1034.2995165089592
 21
1813.3964134478385
  0
ARC
  8
_0-3_躯体と製品
  6
CONTINUOUS
 62
    4
 10
1034.299472825428
 20
1818.3233922227032
 40
1.7999572498780063
 50
120.9705327503607
 51
234.24477663207375
  0
ARC
  8
_0-3_躯体と製品
  6
CONTINUOUS
 62
    4
 10
979.99825448287061
 20
1821.9907727780737
 40
1.2991998694663658
 50
178.47213699151482
 51
222.18063130782616
  0
ARC
  8
_0-3_躯体と製品
  6
CONTINUOUS
 62
    4
 10
979.99837629173919
 20
1821.9925100001069
 40
2.8999883062919838
 50
178.40151376473008
 51
227.14095868503648
  0
ARC
  8
_0-3_躯体と製品
  6
CONTINUOUS
 62
    4
 10
977.10294761331727
 20
1818.3252704442282
 40
3.39652020448173
 50
307.52011129179857
 51
55.320735768250003
  0
LINE
  8
_0-3_躯体と製品
  6
CONTINUOUS
 62
    4
 10
1032.6995165089825
 20
1838.3234134478635
 11
1032.6995165089825
 21
1822.0254134478535
  0
ARC
  8
_0-3_躯体と製品
  6
CONTINUOUS
 62
    3
 10
1034.2995165089649
 20
1829.9394134478493
 40
1.6000000000001147
 50
359.99999999978746
 51
90.000002999667927
  0
LINE
  8
_0-3_躯体と製品
  6
CONTINUOUS
 62
    4
 10
977.09951650897676
 20
1838.3234134478635
 11
977.09951650897676
 21
1823.4864134478646
  0
LINE
  8
_0-3_躯体と製品
  6
CONTINUOUS
 62
    4
 10
977.09951650897676
 20
1838.3234134478635
 11
978.69951650898258
 21
1838.3234134478635
  0
LINE
  8
_0-3_躯体と製品
  6
CONTINUOUS
 62
    4
 10
978.69951650898258
 20
1838.3234134478635
 11
978.69951650898258
 21
1822.0254134478835
  0
ARC
  8
_0-3_躯体と製品
  6
CONTINUOUS
 62
    3
 10
977.09951650898506
 20
1829.9394134478352
 40
1.6000000000141594
 50
90.000002999765954
 51
180.00000599964639
  0
ARC
  8
_0-3_躯体と製品
  6
CONTINUOUS
 62
    3
 10
1034.2995165089656
 20
1773.323413447858
 40
1.5999999999995462
 50
269.99999700031174
 51
0.0000000001922072
  0
ARC
  8
_0-3_躯体と製品
  6
CONTINUOUS
 62
    4
 10
1029.2995165089537
 20
1769.7234134478633
 40
3.3999999999998884
 50
269.99999700001956
 51
359.99999999990007
  0
ARC
  8
_0-3_躯体と製品
  6
CONTINUOUS
 62
    4
 10
1029.2995165089592
 20
1769.7234134478574
 40
5.0000000000000027
 50
269.99999700011961
 51
0.0000000000000508
  0
ARC
  8
_0-3_躯体と製品
  6
CONTINUOUS
 62
    4
 10
982.09951650897722
 20
1769.7234134478579
 40
5.0000000000004716
 50
180.00000599975581
 51
269.99999700011449
  0
LINE
  8
_0-3_躯体と製品
  6
CONTINUOUS
 62
    4
 10
1029.2995165089592
 20
1764.7234134478574
 11
1005.6995165089826
 21
1764.7234134478574
  0
LINE
  8
_0-3_躯体と製品
  6
CONTINUOUS
 62
    4
 10
1029.2995165089592
 20
1766.3234134478635
 11
1005.6995165089826
 21
1766.3234134478635
  0
LINE
  8
_0-3_躯体と製品
  6
CONTINUOUS
 62
    4
 10
982.09951650897665
 20
1766.3234134478635
 11
1005.6995165089826
 21
1766.3234134478635
  0
LINE
  8
_0-3_躯体と製品
  6
CONTINUOUS
 62
    4
 10
982.09951650897665
 20
1764.7234134478574
 11
1005.6995165089826
 21
1764.7234134478574
  0
ARC
  8
_0-3_躯体と製品
  6
CONTINUOUS
 62
    3
 10
977.0995165089796
 20
1773.3234134478671
 40
1.6000000000086798
 50
180.00000600007166
 51
269.99999700043031
  0
ARC
  8
_0-3_躯体と製品
  6
CONTINUOUS
 62
    4
 10
982.09951650897381
 20
1769.7234134478547
 40
3.3999999999912802
 50
180.00000599961388
 51
269.99999699997255
  0
LINE
  8
_0-3_躯体と製品
  6
CONTINUOUS
 62
    4
 10
1032.6995165089825
 20
1814.7322259914686
 11
1032.6995165089825
 21
1769.7234134478574
  0
LINE
  8
_0-3_躯体と製品
  6
CONTINUOUS
 62
    4
 10
1034.2995165089592
 20
1813.3964134478385
 11
1034.2995165089592
 21
1769.7234134478574
  0
LINE
  8
_0-3_躯体と製品
  6
CONTINUOUS
 62
    4
 10
977.1007661221297
 20
1814.5473916842975
 11
977.09951650897676
 21
1769.7234134478574
  0
LINE
  8
_0-3_躯体と製品
  6
CONTINUOUS
 62
    4
 10
978.69951650898258
 20
1810.8204134478376
 11
978.69951650898258
 21
1769.7234134478574
  0
LINE
  8
_0-3_躯体と製品
  6
CONTINUOUS
 62
    3
 10
1035.899516508965
 20
1773.3234134478635
 11
1035.899516508965
 21
1829.9394134478434
  0
LINE
  8
_0-3_躯体と製品
  6
CONTINUOUS
 62
    3
 10
975.49951650897094
 20
1773.3234134478635
 11
975.49951650897094
 21
1829.9394134478434
  0
LINE
  8
_0-3_躯体と製品
  6
CONTINUOUS
 62
    4
 10
2032.6140184056894
 20
1818.3234134478635
 11
2072.6138842609807
 21
1818.3234134478635
  0
LINE
  8
_0-3_躯体と製品
  6
CONTINUOUS
 62
    4
 10
2072.6138842609807
 20
1818.3234134478635
 11
2072.6140720635722
 21
1825.3234134453446
  0
LINE
  8
_0-3_躯体と製品
  6
CONTINUOUS
 62
    4
 10
2072.6140720635722
 20
1825.3234134453446
 11
2032.6142062082804
 21
1825.3234134453446
  0
LINE
  8
_0-3_躯体と製品
  6
CONTINUOUS
 62
    4
 10
2032.6142062082804
 20
1825.3234134453446
 11
2032.6140184056894
 21
1818.3234134478635
  0
LINE
  8
_0-3_躯体と製品
  6
CONTINUOUS
 62
    4
 10
2029.0140184630754
 20
1768.3234134478635
 11
2052.6140184630822
 21
1768.3234134478635
  0
LINE
  8
_0-3_躯体と製品
  6
CONTINUOUS
 62
    4
 10
2052.6140184630822
 20
1768.3234134478635
 11
2076.2140184630584
 21
1768.3234134478635
  0
ARC
  8
_0-3_躯体と製品
  6
CONTINUOUS
 62
    4
 10
2029.0140184630582
 20
1769.7234134478692
 40
1.4000000000058255
 50
180.00000600000854
 51
269.99999700036722
  0
LINE
  8
_0-3_躯体と製品
  6
CONTINUOUS
 62
    4
 10
2079.6140184630822
 20
1822.0254134478535
 11
2077.6140184630822
 21
1822.0254134478535
  0
LINE
  8
_0-3_躯体と製品
  6
CONTINUOUS
 62
    4
 10
2077.6140184630822
 20
1822.0254134478535
 11
2077.6140184630522
 21
1769.7234134478574
  0
ARC
  8
_0-3_躯体と製品
  6
CONTINUOUS
 62
    4
 10
2076.2140184630525
 20
1769.7234134478635
 40
1.4000000000000008
 50
269.99999699987205
 51
359.9999999997525
  0
LINE
  8
_0-3_躯体と製品
  6
CONTINUOUS
 62
    4
 10
2025.6140184630815
 20
1822.0254134478535
 11
2027.6140184630815
 21
1822.0254134478535
  0
LINE
  8
_0-3_躯体と製品
  6
CONTINUOUS
 62
    4
 10
2027.6140184630815
 20
1822.0254134478535
 11
2027.6140184630815
 21
1769.7234134478574
  0
LINE
  8
_0-3_躯体と製品
  6
CONTINUOUS
 62
    4
 10
2062.6140184630813
 20
1768.3234134478635
 11
2072.1140184630813
 21
1768.3234134478635
  0
ARC
  8
_0-3_躯体と製品
  6
CONTINUOUS
 62
    4
 10
2072.1140184630822
 20
1773.8234134478639
 40
5.5000000000004539
 50
269.99999999999528
 51
359.99999999999528
  0
LINE
  8
_0-3_躯体と製品
  6
CONTINUOUS
 62
    4
 10
2077.6140184630822
 20
1773.8234134478635
 11
2077.6140184630822
 21
1812.8234134478635
  0
ARC
  8
_0-3_躯体と製品
  6
CONTINUOUS
 62
    4
 10
2072.1140184630822
 20
1812.823413447863
 40
5.5000000000004539
 50
0.0000000000047416
 51
90.000000000004761
  0
LINE
  8
_0-3_躯体と製品
  6
CONTINUOUS
 62
    4
 10
2072.1140184630813
 20
1818.3234134478635
 11
2033.1140184630824
 21
1818.3234134478635
  0
ARC
  8
_0-3_躯体と製品
  6
CONTINUOUS
 62
    4
 10
2033.1140184630819
 20
1812.823413447863
 40
5.5000000000004539
 50
89.999999999995268
 51
179.99999999999525
  0
LINE
  8
_0-3_躯体と製品
  6
CONTINUOUS
 62
    4
 10
2027.6140184630815
 20
1812.8234134478635
 11
2027.6140184630815
 21
1773.8234134478635
  0
ARC
  8
_0-3_躯体と製品
  6
CONTINUOUS
 62
    4
 10
2033.1140184630819
 20
1773.8234134478639
 40
5.5000000000004539
 50
180.00000000000475
 51
270.00000000000477
  0
LINE
  8
_0-3_躯体と製品
  6
CONTINUOUS
 62
    4
 10
2033.1140184630824
 20
1768.3234134478635
 11
2042.6140184630815
 21
1768.3234134478635
  0
LINE
  8
_0-3_躯体と製品
  6
CONTINUOUS
 62
    4
 10
2042.6140184630815
 20
1768.3234134478635
 11
2042.6140184630815
 21
1769.9234134478695
  0
LINE
  8
_0-3_躯体と製品
  6
CONTINUOUS
 62
    4
 10
2042.6140184630815
 20
1769.9234134478695
 11
2033.1140184630824
 21
1769.9234134478695
  0
ARC
  8
_0-3_躯体と製品
  6
CONTINUOUS
 62
    4
 10
2033.1140184630819
 20
1773.8234134478639
 40
3.8999999999943231
 50
180.00000000000546
 51
270.0000000000079
  0
LINE
  8
_0-3_躯体と製品
  6
CONTINUOUS
 62
    4
 10
2029.2140184630875
 20
1773.8234134478635
 11
2029.2140184630875
 21
1812.8234134478635
  0
ARC
  8
_0-3_躯体と製品
  6
CONTINUOUS
 62
    4
 10
2033.1140184630826
 20
1812.8234134478635
 40
3.8999999999949746
 50
90.000000000001705
 51
180.00000000000168
  0
LINE
  8
_0-3_躯体と製品
  6
CONTINUOUS
 62
    4
 10
2033.1140184630824
 20
1816.7234134478585
 11
2072.1140184630813
 21
1816.7234134478585
  0
ARC
  8
_0-3_躯体と製品
  6
CONTINUOUS
 62
    4
 10
2072.1140184630813
 20
1812.8234134478635
 40
3.8999999999949746
 50
359.99999999999829
 51
89.999999999998337
  0
LINE
  8
_0-3_躯体と製品
  6
CONTINUOUS
 62
    4
 10
2076.0140184630764
 20
1812.8234134478635
 11
2076.0140184630764
 21
1773.8234134478635
  0
ARC
  8
_0-3_躯体と製品
  6
CONTINUOUS
 62
    4
 10
2072.1140184630822
 20
1773.8234134478639
 40
3.8999999999944062
 50
269.99999999999329
 51
359.99999999999329
  0
LINE
  8
_0-3_躯体と製品
  6
CONTINUOUS
 62
    4
 10
2072.1140184630813
 20
1769.9234134478695
 11
2062.6140184630813
 21
1769.9234134478695
  0
LINE
  8
_0-3_躯体と製品
  6
CONTINUOUS
 62
    4
 10
2062.6140184630813
 20
1769.9234134478695
 11
2062.6140184630813
 21
1768.3234134478635
  0
LINE
  8
_0-3_躯体と製品
  6
CONTINUOUS
 62
    4
 10
2081.2140184630584
 20
1838.3234134478635
 11
2079.6140184630822
 21
1838.3234134478635
  0
LINE
  8
_0-3_躯体と製品
  6
CONTINUOUS
 62
    4
 10
2081.2140184630584
 20
1838.3234134478635
 11
2081.2140184630584
 21
1823.4864134478646
  0
LINE
  8
_0-3_躯体と製品
  6
CONTINUOUS
 62
    4
 10
2025.6140184630815
 20
1810.8204134478376
 11
2025.6140184630815
 21
1814.5944134478425
  0
ARC
  8
_0-3_躯体と製品
  6
CONTINUOUS
 62
    4
 10
2078.3178409936309
 20
1821.9903477375597
 40
1.2966517020204444
 50
317.69510576086839
 51
1.5496545246891198
  0
ARC
  8
_0-3_躯体と製品
  6
CONTINUOUS
 62
    4
 10
2078.316284763102
 20
1821.9917227601959
 40
2.8986452925348987
 50
312.8533035961147
 51
1.4369837799439684
  0
ARC
  8
_0-3_躯体と製品
  6
CONTINUOUS
 62
    4
 10
2081.2140678267656
 20
1818.3234367946675
 40
3.4000487118013099
 50
124.73442877593003
 51
232.17927813484775
  0
ARC
  8
_0-3_躯体と製品
  6
CONTINUOUS
 62
    4
 10
2078.3255564909746
 20
1814.6333270343457
 40
2.8884909711750706
 50
358.29513856523903
 51
50.516591623324089
  0
ARC
  8
_0-3_躯体と製品
  6
CONTINUOUS
 62
    4
 10
2078.3230376716047
 20
1814.6234262607964
 40
1.2955573261569957
 50
4.8173213683531069
 51
51.520260392079322
  0
ARC
  8
_0-3_躯体と製品
  6
CONTINUOUS
 62
    4
 10
2026.9070184630466
 20
1814.6324134478373
 40
2.8929999999884264
 50
129.41760799991658
 51
181.684095999769
  0
ARC
  8
_0-3_躯体と製品
  6
CONTINUOUS
 62
    4
 10
2026.9070184630691
 20
1814.6324134478723
 40
1.2930000000002584
 50
129.41411600100554
 51
181.68467900010174
  0
LINE
  8
_0-3_躯体と製品
  6
CONTINUOUS
 62
    4
 10
2081.2140184630584
 20
1822.0644134478434
 11
2081.2140184630584
 21
1823.4864134478646
  0
ARC
  8
_0-3_躯体と製品
  6
CONTINUOUS
 62
    4
 10
2024.0154889035975
 20
1818.3242398128477
 40
1.7984965284371341
 50
305.89915875101764
 51
59.054554349284771
  0
LINE
  8
_0-3_躯体と製品
  6
CONTINUOUS
 62
    4
 10
2024.0140184630764
 20
1823.4864134478646
 11
2024.0140184630764
 21
1822.0734134478635
  0
LINE
  8
_0-3_躯体と製品
  6
CONTINUOUS
 62
    4
 10
2081.2127688409992
 20
1814.5473913815306
 11
2081.2140184630584
 21
1813.3964134478385
  0
ARC
  8
_0-3_躯体と製品
  6
CONTINUOUS
 62
    4
 10
2081.2139747795277
 20
1818.3233922227034
 40
1.7999572498780037
 50
120.97053275036289
 51
234.244776632076
  0
ARC
  8
_0-3_躯体と製品
  6
CONTINUOUS
 62
    4
 10
2026.9127564369696
 20
1821.9907727780742
 40
1.2991998694665781
 50
178.47213699154005
 51
222.1806313078514
  0
ARC
  8
_0-3_躯体と製品
  6
CONTINUOUS
 62
    4
 10
2026.9128782458383
 20
1821.992510000106
 40
2.899988306291664
 50
178.40151376471502
 51
227.14095868502142
  0
ARC
  8
_0-3_躯体と製品
  6
CONTINUOUS
 62
    4
 10
2024.0174495674169
 20
1818.325270444228
 40
3.3965202044817353
 50
307.5201112918021
 51
55.320735768253556
  0
LINE
  8
_0-3_躯体と製品
  6
CONTINUOUS
 62
    4
 10
2079.6140184630822
 20
1838.3234134478635
 11
2079.6140184630822
 21
1822.0254134478535
  0
ARC
  8
_0-3_躯体と製品
  6
CONTINUOUS
 62
    3
 10
2081.2140184630643
 20
1829.9394134478491
 40
1.6000000000003418
 50
359.99999999979559
 51
90.000002999676056
  0
LINE
  8
_0-3_躯体と製品
  6
CONTINUOUS
 62
    4
 10
2024.0140184630764
 20
1838.3234134478635
 11
2024.0140184630764
 21
1823.4864134478646
  0
LINE
  8
_0-3_躯体と製品
  6
CONTINUOUS
 62
    4
 10
2024.0140184630764
 20
1838.3234134478635
 11
2025.6140184630815
 21
1838.3234134478635
  0
LINE
  8
_0-3_躯体と製品
  6
CONTINUOUS
 62
    4
 10
2025.6140184630815
 20
1838.3234134478635
 11
2025.6140184630815
 21
1822.0254134478835
  0
ARC
  8
_0-3_躯体と製品
  6
CONTINUOUS
 62
    3
 10
2024.0140184630848
 20
1829.9394134478352
 40
1.6000000000142165
 50
90.000002999763907
 51
180.00000599964437
  0
ARC
  8
_0-3_躯体と製品
  6
CONTINUOUS
 62
    3
 10
2081.2140184630648
 20
1773.3234134478585
 40
1.5999999999997736
 50
269.99999700030361
 51
0.000000000184065
  0
ARC
  8
_0-3_躯体と製品
  6
CONTINUOUS
 62
    4
 10
2076.2140184630525
 20
1769.7234134478631
 40
3.3999999999996611
 50
269.99999700002343
 51
359.99999999990388
  0
ARC
  8
_0-3_躯体と製品
  6
CONTINUOUS
 62
    4
 10
2076.2140184630584
 20
1769.7234134478574
 40
5.0000000000000027
 50
269.99999700011961
 51
0.0000000000000508
  0
ARC
  8
_0-3_躯体と製品
  6
CONTINUOUS
 62
    4
 10
2029.0140184630768
 20
1769.7234134478579
 40
5.0000000000004716
 50
180.00000599975581
 51
269.99999700011449
  0
LINE
  8
_0-3_躯体と製品
  6
CONTINUOUS
 62
    4
 10
2076.2140184630584
 20
1764.7234134478574
 11
2052.6140184630822
 21
1764.7234134478574
  0
LINE
  8
_0-3_躯体と製品
  6
CONTINUOUS
 62
    4
 10
2076.2140184630584
 20
1766.3234134478635
 11
2052.6140184630822
 21
1766.3234134478635
  0
LINE
  8
_0-3_躯体と製品
  6
CONTINUOUS
 62
    4
 10
2029.0140184630754
 20
1766.3234134478635
 11
2052.6140184630822
 21
1766.3234134478635
  0
LINE
  8
_0-3_躯体と製品
  6
CONTINUOUS
 62
    4
 10
2029.0140184630754
 20
1764.7234134478574
 11
2052.6140184630822
 21
1764.7234134478574
  0
ARC
  8
_0-3_躯体と製品
  6
CONTINUOUS
 62
    3
 10
2024.0140184630793
 20
1773.3234134478673
 40
1.6000000000087362
 50
180.00000600007368
 51
269.99999700043236
  0
ARC
  8
_0-3_躯体と製品
  6
CONTINUOUS
 62
    4
 10
2029.0140184630727
 20
1769.7234134478547
 40
3.3999999999912802
 50
180.00000599961388
 51
269.99999699997255
  0
LINE
  8
_0-3_躯体と製品
  6
CONTINUOUS
 62
    4
 10
2079.6140184630822
 20
1814.7322259914686
 11
2079.6140184630822
 21
1769.7234134478574
  0
LINE
  8
_0-3_躯体と製品
  6
CONTINUOUS
 62
    4
 10
2081.2140184630584
 20
1813.3964134478385
 11
2081.2140184630584
 21
1769.7234134478574
  0
LINE
  8
_0-3_躯体と製品
  6
CONTINUOUS
 62
    4
 10
2024.0152680762294
 20
1814.5473916842975
 11
2024.0140184630764
 21
1769.7234134478574
  0
LINE
  8
_0-3_躯体と製品
  6
CONTINUOUS
 62
    4
 10
2025.6140184630815
 20
1810.8204134478376
 11
2025.6140184630815
 21
1769.7234134478574
  0
LINE
  8
_0-3_躯体と製品
  6
CONTINUOUS
 62
    3
 10
2082.8140184630647
 20
1773.3234134478635
 11
2082.8140184630647
 21
1829.9394134478434
  0
LINE
  8
_0-3_躯体と製品
  6
CONTINUOUS
 62
    3
 10
2022.4140184630705
 20
1773.3234134478635
 11
2022.4140184630705
 21
1829.9394134478434
  0
LINE
  8
_0-3_躯体と製品
  6
CONTINUOUS
 62
    4
 10
2782.6140184056894
 20
1818.3234134478635
 11
2822.6138842609816
 21
1818.3234134478635
  0
LINE
  8
_0-3_躯体と製品
  6
CONTINUOUS
 62
    4
 10
2822.6138842609816
 20
1818.3234134478635
 11
2822.6140720635726
 21
1825.3234134453446
  0
LINE
  8
_0-3_躯体と製品
  6
CONTINUOUS
 62
    4
 10
2822.6140720635726
 20
1825.3234134453446
 11
2782.6142062082813
 21
1825.3234134453446
  0
LINE
  8
_0-3_躯体と製品
  6
CONTINUOUS
 62
    4
 10
2782.6142062082813
 20
1825.3234134453446
 11
2782.6140184056894
 21
1818.3234134478635
  0
LINE
  8
_0-3_躯体と製品
  6
CONTINUOUS
 62
    4
 10
2779.0140184630764
 20
1768.3234134478635
 11
2802.6140184630826
 21
1768.3234134478635
  0
LINE
  8
_0-3_躯体と製品
  6
CONTINUOUS
 62
    4
 10
2802.6140184630826
 20
1768.3234134478635
 11
2826.2140184630584
 21
1768.3234134478635
  0
ARC
  8
_0-3_躯体と製品
  6
CONTINUOUS
 62
    4
 10
2779.0140184630582
 20
1769.723413447869
 40
1.4000000000057116
 50
180.00000600000388
 51
269.99999700036255
  0
LINE
  8
_0-3_躯体と製品
  6
CONTINUOUS
 62
    4
 10
2829.6140184630813
 20
1822.0254134478535
 11
2827.6140184630813
 21
1822.0254134478535
  0
LINE
  8
_0-3_躯体と製品
  6
CONTINUOUS
 62
    4
 10
2827.6140184630813
 20
1822.0254134478535
 11
2827.6140184630526
 21
1769.7234134478574
  0
ARC
  8
_0-3_躯体と製品
  6
CONTINUOUS
 62
    4
 10
2826.214018463053
 20
1769.7234134478631
 40
1.3999999999996597
 50
269.99999699988598
 51
359.99999999976649
  0
LINE
  8
_0-3_躯体と製品
  6
CONTINUOUS
 62
    4
 10
2775.6140184630813
 20
1822.0254134478535
 11
2777.6140184630826
 21
1822.0254134478535
  0
LINE
  8
_0-3_躯体と製品
  6
CONTINUOUS
 62
    4
 10
2777.6140184630826
 20
1822.0254134478535
 11
2777.6140184630826
 21
1769.7234134478574
  0
LINE
  8
_0-3_躯体と製品
  6
CONTINUOUS
 62
    4
 10
2812.6140184630826
 20
1768.3234134478635
 11
2822.1140184630813
 21
1768.3234134478635
  0
ARC
  8
_0-3_躯体と製品
  6
CONTINUOUS
 62
    4
 10
2822.1140184630813
 20
1773.8234134478635
 40
5.5
 50
270
 51
0.0000000000000127
  0
LINE
  8
_0-3_躯体と製品
  6
CONTINUOUS
 62
    4
 10
2827.6140184630813
 20
1773.8234134478635
 11
2827.6140184630813
 21
1812.8234134478635
  0
ARC
  8
_0-3_躯体と製品
  6
CONTINUOUS
 62
    4
 10
2822.1140184630813
 20
1812.8234134478635
 40
5.5
 50
0.0000000000000052
 51
90.000000000000014
  0
LINE
  8
_0-3_躯体と製品
  6
CONTINUOUS
 62
    4
 10
2822.1140184630813
 20
1818.3234134478635
 11
2783.1140184630813
 21
1818.3234134478635
  0
ARC
  8
_0-3_躯体と製品
  6
CONTINUOUS
 62
    4
 10
2783.1140184630822
 20
1812.8234134478641
 40
5.4999999999993179
 50
90.00000000000712
 51
180.00000000000713
  0
LINE
  8
_0-3_躯体と製品
  6
CONTINUOUS
 62
    4
 10
2777.6140184630826
 20
1812.8234134478635
 11
2777.6140184630826
 21
1773.8234134478635
  0
ARC
  8
_0-3_躯体と製品
  6
CONTINUOUS
 62
    4
 10
2783.1140184630822
 20
1773.8234134478628
 40
5.4999999999993179
 50
179.99999999999289
 51
269.99999999999295
  0
LINE
  8
_0-3_躯体と製品
  6
CONTINUOUS
 62
    4
 10
2783.1140184630813
 20
1768.3234134478635
 11
2792.6140184630813
 21
1768.3234134478635
  0
LINE
  8
_0-3_躯体と製品
  6
CONTINUOUS
 62
    4
 10
2792.6140184630813
 20
1768.3234134478635
 11
2792.6140184630813
 21
1769.9234134478695
  0
LINE
  8
_0-3_躯体と製品
  6
CONTINUOUS
 62
    4
 10
2792.6140184630813
 20
1769.9234134478695
 11
2783.1140184630813
 21
1769.9234134478695
  0
ARC
  8
_0-3_躯体と製品
  6
CONTINUOUS
 62
    4
 10
2783.1140184630813
 20
1773.8234134478632
 40
3.8999999999937547
 50
179.9999999999971
 51
269.99999999999955
  0
LINE
  8
_0-3_躯体と製品
  6
CONTINUOUS
 62
    4
 10
2779.2140184630875
 20
1773.8234134478635
 11
2779.2140184630875
 21
1812.8234134478635
  0
ARC
  8
_0-3_躯体と製品
  6
CONTINUOUS
 62
    4
 10
2783.1140184630822
 20
1812.8234134478641
 40
3.8999999999944062
 50
90.000000000010004
 51
180.00000000001003
  0
LINE
  8
_0-3_躯体と製品
  6
CONTINUOUS
 62
    4
 10
2783.1140184630813
 20
1816.7234134478585
 11
2822.1140184630813
 21
1816.7234134478585
  0
ARC
  8
_0-3_躯体と製品
  6
CONTINUOUS
 62
    4
 10
2822.1140184630808
 20
1812.8234134478639
 40
3.8999999999946335
 50
359.99999999999329
 51
89.999999999993321
  0
LINE
  8
_0-3_躯体と製品
  6
CONTINUOUS
 62
    4
 10
2826.0140184630754
 20
1812.8234134478635
 11
2826.0140184630754
 21
1773.8234134478635
  0
ARC
  8
_0-3_躯体と製品
  6
CONTINUOUS
 62
    4
 10
2822.1140184630813
 20
1773.8234134478635
 40
3.8999999999940651
 50
269.99999999999829
 51
359.99999999999835
  0
LINE
  8
_0-3_躯体と製品
  6
CONTINUOUS
 62
    4
 10
2822.1140184630813
 20
1769.9234134478695
 11
2812.6140184630826
 21
1769.9234134478695
  0
LINE
  8
_0-3_躯体と製品
  6
CONTINUOUS
 62
    4
 10
2812.6140184630826
 20
1769.9234134478695
 11
2812.6140184630826
 21
1768.3234134478635
  0
LINE
  8
_0-3_躯体と製品
  6
CONTINUOUS
 62
    4
 10
2831.2140184630584
 20
1838.3234134478635
 11
2829.6140184630813
 21
1838.3234134478635
  0
LINE
  8
_0-3_躯体と製品
  6
CONTINUOUS
 62
    4
 10
2831.2140184630584
 20
1838.3234134478635
 11
2831.2140184630584
 21
1823.4864134478646
  0
LINE
  8
_0-3_躯体と製品
  6
CONTINUOUS
 62
    4
 10
2775.6140184630813
 20
1810.8204134478376
 11
2775.6140184630813
 21
1814.5944134478425
  0
ARC
  8
_0-3_躯体と製品
  6
CONTINUOUS
 62
    4
 10
2828.3178409936299
 20
1821.9903477375597
 40
1.2966517020204444
 50
317.69510576086839
 51
1.5496545246891198
  0
ARC
  8
_0-3_躯体と製品
  6
CONTINUOUS
 62
    4
 10
2828.316284763102
 20
1821.9917227601954
 40
2.8986452925347912
 50
312.85330359611976
 51
1.4369837799490002
  0
ARC
  8
_0-3_躯体と製品
  6
CONTINUOUS
 62
    4
 10
2831.2140678267651
 20
1818.3234367946679
 40
3.4000487118012908
 50
124.73442877594189
 51
232.1792781348596
  0
ARC
  8
_0-3_躯体と製品
  6
CONTINUOUS
 62
    4
 10
2828.325556490975
 20
1814.6333270343453
 40
2.8884909711751776
 50
358.29513856524369
 51
50.51659162332875
  0
ARC
  8
_0-3_躯体と製品
  6
CONTINUOUS
 62
    4
 10
2828.3230376716037
 20
1814.6234262607977
 40
1.2955573261563187
 50
4.817321368297196
 51
51.520260392023417
  0
ARC
  8
_0-3_躯体と製品
  6
CONTINUOUS
 62
    4
 10
2776.9070184630464
 20
1814.6324134478364
 40
2.8929999999888536
 50
129.41760799989802
 51
181.68409599975041
  0
ARC
  8
_0-3_躯体と製品
  6
CONTINUOUS
 62
    4
 10
2776.9070184630687
 20
1814.6324134478732
 40
1.292999999999831
 50
129.41411600104718
 51
181.68467900014338
  0
LINE
  8
_0-3_躯体と製品
  6
CONTINUOUS
 62
    4
 10
2831.2140184630584
 20
1822.0644134478434
 11
2831.2140184630584
 21
1823.4864134478646
  0
ARC
  8
_0-3_躯体と製品
  6
CONTINUOUS
 62
    4
 10
2774.0154889035975
 20
1818.3242398128477
 40
1.7984965284371399
 50
305.89915875102201
 51
59.054554349289106
  0
LINE
  8
_0-3_躯体と製品
  6
CONTINUOUS
 62
    4
 10
2774.0140184630764
 20
1823.4864134478646
 11
2774.0140184630764
 21
1822.0734134478635
  0
LINE
  8
_0-3_躯体と製品
  6
CONTINUOUS
 62
    4
 10
2831.2127688409996
 20
1814.5473913815306
 11
2831.2140184630584
 21
1813.3964134478385
  0
ARC
  8
_0-3_躯体と製品
  6
CONTINUOUS
 62
    4
 10
2831.2139747795277
 20
1818.3233922227032
 40
1.7999572498780092
 50
120.97053275035857
 51
234.24477663207162
  0
ARC
  8
_0-3_躯体と製品
  6
CONTINUOUS
 62
    4
 10
2776.9127564369692
 20
1821.9907727780742
 40
1.2991998694665781
 50
178.47213699154005
 51
222.1806313078514
  0
ARC
  8
_0-3_躯体と製品
  6
CONTINUOUS
 62
    4
 10
2776.9128782458383
 20
1821.992510000106
 40
2.899988306291557
 50
178.40151376470999
 51
227.14095868501641
  0
ARC
  8
_0-3_躯体と製品
  6
CONTINUOUS
 62
    4
 10
2774.0174495674164
 20
1818.3252704442284
 40
3.3965202044817251
 50
307.52011129179499
 51
55.320735768246436
  0
LINE
  8
_0-3_躯体と製品
  6
CONTINUOUS
 62
    4
 10
2829.6140184630813
 20
1838.3234134478635
 11
2829.6140184630813
 21
1822.0254134478535
  0
ARC
  8
_0-3_躯体と製品
  6
CONTINUOUS
 62
    3
 10
2831.2140184630643
 20
1829.9394134478493
 40
1.6000000000001147
 50
359.99999999978746
 51
90.000002999667927
  0
LINE
  8
_0-3_躯体と製品
  6
CONTINUOUS
 62
    4
 10
2774.0140184630764
 20
1838.3234134478635
 11
2774.0140184630764
 21
1823.4864134478646
  0
LINE
  8
_0-3_躯体と製品
  6
CONTINUOUS
 62
    4
 10
2774.0140184630764
 20
1838.3234134478635
 11
2775.6140184630813
 21
1838.3234134478635
  0
LINE
  8
_0-3_躯体と製品
  6
CONTINUOUS
 62
    4
 10
2775.6140184630813
 20
1838.3234134478635
 11
2775.6140184630813
 21
1822.0254134478835
  0
ARC
  8
_0-3_躯体と製品
  6
CONTINUOUS
 62
    3
 10
2774.0140184630845
 20
1829.9394134478352
 40
1.6000000000142165
 50
90.000002999763907
 51
180.00000599964437
  0
ARC
  8
_0-3_躯体と製品
  6
CONTINUOUS
 62
    3
 10
2831.2140184630648
 20
1773.323413447858
 40
1.5999999999995462
 50
269.99999700031174
 51
0.0000000001922072
  0
ARC
  8
_0-3_躯体と製品
  6
CONTINUOUS
 62
    4
 10
2826.2140184630525
 20
1769.7234134478633
 40
3.3999999999998884
 50
269.99999700001956
 51
359.99999999990007
  0
ARC
  8
_0-3_躯体と製品
  6
CONTINUOUS
 62
    4
 10
2826.2140184630584
 20
1769.7234134478574
 40
5.0000000000000027
 50
269.99999700011961
 51
0.0000000000000508
  0
ARC
  8
_0-3_躯体と製品
  6
CONTINUOUS
 62
    4
 10
2779.0140184630764
 20
1769.7234134478574
 40
5.0000000000000169
 50
180.00000599975058
 51
269.99999700010926
  0
LINE
  8
_0-3_躯体と製品
  6
CONTINUOUS
 62
    4
 10
2826.2140184630584
 20
1764.7234134478574
 11
2802.6140184630826
 21
1764.7234134478574
  0
LINE
  8
_0-3_躯体と製品
  6
CONTINUOUS
 62
    4
 10
2826.2140184630584
 20
1766.3234134478635
 11
2802.6140184630826
 21
1766.3234134478635
  0
LINE
  8
_0-3_躯体と製品
  6
CONTINUOUS
 62
    4
 10
2779.0140184630764
 20
1766.3234134478635
 11
2802.6140184630826
 21
1766.3234134478635
  0
LINE
  8
_0-3_躯体と製品
  6
CONTINUOUS
 62
    4
 10
2779.0140184630764
 20
1764.7234134478574
 11
2802.6140184630826
 21
1764.7234134478574
  0
ARC
  8
_0-3_躯体と製品
  6
CONTINUOUS
 62
    3
 10
2774.0140184630791
 20
1773.3234134478673
 40
1.6000000000087362
 50
180.00000600007368
 51
269.99999700043236
  0
ARC
  8
_0-3_躯体と製品
  6
CONTINUOUS
 62
    4
 10
2779.0140184630727
 20
1769.7234134478547
 40
3.3999999999912802
 50
180.00000599961388
 51
269.99999699997255
  0
LINE
  8
_0-3_躯体と製品
  6
CONTINUOUS
 62
    4
 10
2829.6140184630813
 20
1814.7322259914686
 11
2829.6140184630813
 21
1769.7234134478574
  0
LINE
  8
_0-3_躯体と製品
  6
CONTINUOUS
 62
    4
 10
2831.2140184630584
 20
1813.3964134478385
 11
2831.2140184630584
 21
1769.7234134478574
  0
LINE
  8
_0-3_躯体と製品
  6
CONTINUOUS
 62
    4
 10
2774.0152680762285
 20
1814.5473916842975
 11
2774.0140184630764
 21
1769.7234134478574
  0
LINE
  8
_0-3_躯体と製品
  6
CONTINUOUS
 62
    4
 10
2775.6140184630813
 20
1810.8204134478376
 11
2775.6140184630813
 21
1769.7234134478574
  0
LINE
  8
_0-3_躯体と製品
  6
CONTINUOUS
 62
    3
 10
2832.8140184630643
 20
1773.3234134478635
 11
2832.8140184630643
 21
1829.9394134478434
  0
LINE
  8
_0-3_躯体と製品
  6
CONTINUOUS
 62
    3
 10
2772.4140184630705
 20
1773.3234134478635
 11
2772.4140184630705
 21
1829.9394134478434
  0
LINE
  8
_0-4_文字-記号
  6
CONTINUOUS
 62
    7
 10
2941.3146641511844
 20
1821.8309623481755
 11
2951.3146641511844
 21
1804.5104542724864
  0
LINE
  8
_0-4_文字-記号
  6
CONTINUOUS
 62
    7
 10
2951.3146641511844
 20
1804.5104542724864
 11
3020.1871768834453
 21
1685.2197629752754
  0
LINE
  8
_0-4_文字-記号
  6
CONTINUOUS
 62
    7
 10
3020.1871768834453
 20
1685.2197629752754
 11
3161.3649911129123
 21
1685.2197629752754
  0
LINE
  8
_0-4_文字-記号
  6
CONTINUOUS
 62
    7
 10
3161.3649911129123
 20
1685.2197629752754
 11
3161.4549911129125
 21
1685.2197629752754
  0
LINE
  8
_0-4_文字-記号
  6
CONTINUOUS
 62
    7
 10
2807.6326130357975
 20
1633.7681628099506
 11
2817.6326130357975
 21
1616.4476547342615
  0
LINE
  8
_0-4_文字-記号
  6
CONTINUOUS
 62
    7
 10
2817.6326130357975
 20
1616.4476547342615
 11
2868.1030269867933
 21
1529.0303334921025
  0
LINE
  8
_0-4_文字-記号
  6
CONTINUOUS
 62
    7
 10
2868.1030269867933
 20
1529.0303334921025
 11
3129.3156885634835
 21
1529.0303334921025
  0
LINE
  8
_0-4_文字-記号
  6
CONTINUOUS
 62
    7
 10
3129.3156885634835
 20
1529.0303334921025
 11
3129.4056885634836
 21
1529.0303334921025
  0
LINE
  8
_0-4_文字-記号
  6
CONTINUOUS
 62
    7
 10
2322.6140184630826
 20
1878.0452034478626
 11
2332.6140184630826
 21
1895.3657115235515
  0
LINE
  8
_0-4_文字-記号
  6
CONTINUOUS
 62
    7
 10
2332.6140184630826
 20
1895.3657115235515
 11
2376.6204888970346
 21
1971.5871541769325
  0
LINE
  8
_0-4_文字-記号
  6
CONTINUOUS
 62
    7
 10
2376.6204888970346
 20
1971.5871541769325
 11
2628.1231036896575
 21
1971.5871541769325
  0
LINE
  8
_0-4_文字-記号
  6
CONTINUOUS
 62
    7
 10
2292.6138684630823
 20
1879.3234134478635
 11
2302.6138684630823
 21
1896.6439215235514
  0
LINE
  8
_0-4_文字-記号
  6
CONTINUOUS
 62
    7
 10
2302.6138684630823
 20
1896.6439215235514
 11
2398.2581671005164
 21
2062.3047062178775
  0
LINE
  8
_0-4_文字-記号
  6
CONTINUOUS
 62
    7
 10
2398.2581671005164
 20
2062.3047062178775
 11
3001.9124671949894
 21
2062.3047062178775
  0
LINE
  8
_0-4_文字-記号
  6
CONTINUOUS
 62
    7
 10
2077.8590473323725
 20
1793.6448261148946
 11
2087.8590473323725
 21
1776.3243180392064
  0
LINE
  8
_0-4_文字-記号
  6
CONTINUOUS
 62
    7
 10
2087.8590473323725
 20
1776.3243180392064
 11
2137.8601274722323
 21
1689.7199068036446
  0
LINE
  8
_0-4_文字-記号
  6
CONTINUOUS
 62
    7
 10
2137.8601274722323
 20
1689.7199068036446
 11
2297.3488155538803
 21
1689.7199068036446
  0
LINE
  8
_0-4_文字-記号
  6
CONTINUOUS
 62
    7
 10
2297.3488155538803
 20
1689.7199068036446
 11
2297.4388155538804
 21
1689.7199068036446
  0
LINE
  8
_0-4_文字-記号
  6
CONTINUOUS
 62
    7
 10
1914.4169574353434
 20
1964.6937134478635
 11
1924.4169574353425
 21
1982.0142215235526
  0
LINE
  8
_0-4_文字-記号
  6
CONTINUOUS
 62
    7
 10
1924.4169574353425
 20
1982.0142215235526
 11
1957.8787548745315
 21
2039.9717548008055
  0
LINE
  8
_0-4_文字-記号
  6
CONTINUOUS
 62
    7
 10
1957.8787548745315
 20
2039.9717548008055
 11
2078.8014875349418
 21
2039.9717548008055
  0
LINE
  8
_0-4_文字-記号
  6
CONTINUOUS
 62
    7
 10
757.53586957818652
 20
1858.3234134478635
 11
767.53586957818663
 21
1875.6439215235525
  0
LINE
  8
_0-4_文字-記号
  6
CONTINUOUS
 62
    7
 10
767.53586957818663
 20
1875.6439215235525
 11
825.85163565076573
 21
1976.6497912435605
  0
LINE
  8
_0-4_文字-記号
  6
CONTINUOUS
 62
    7
 10
825.85163565076573
 20
1976.6497912435605
 11
1021.6952949828769
 21
1976.6497912435605
  0
LINE
  8
_0-4_文字-記号
  6
CONTINUOUS
 62
    7
 10
627.02886978410106
 20
1881.6292420582745
 11
637.02886978410106
 21
1898.9497501339636
  0
LINE
  8
_0-4_文字-記号
  6
CONTINUOUS
 62
    7
 10
637.02886978410106
 20
1898.9497501339636
 11
722.44138562489161
 21
2046.8885671724954
  0
LINE
  8
_0-4_文字-記号
  6
CONTINUOUS
 62
    7
 10
722.44138562489161
 20
2046.8885671724954
 11
991.03292384210147
 21
2046.8885671724954
  0
LINE
  8
_0-4_文字-記号
  6
CONTINUOUS
 62
    7
 10
649.65946753349772
 20
1821.2531830189905
 11
659.65946753349783
 21
1803.9326749433014
  0
LINE
  8
_0-4_文字-記号
  6
CONTINUOUS
 62
    7
 10
659.65946753349783
 20
1803.9326749433014
 11
728.5319802657591
 21
1684.6419836460905
  0
LINE
  8
_0-4_文字-記号
  6
CONTINUOUS
 62
    7
 10
728.5319802657591
 20
1684.6419836460905
 11
869.70979449522531
 21
1684.6419836460905
  0
LINE
  8
_0-4_文字-記号
  6
CONTINUOUS
 62
    7
 10
869.70979449522531
 20
1684.6419836460905
 11
869.79979449522546
 21
1684.6419836460905
  0
LINE
  8
_0-4_文字-記号
  6
CONTINUOUS
 62
    7
 10
252.27641459635379
 20
1789.9405626644646
 11
262.27641459635379
 21
1772.6200545887755
  0
LINE
  8
_0-4_文字-記号
  6
CONTINUOUS
 62
    7
 10
262.27641459635379
 20
1772.6200545887755
 11
312.27749473621452
 21
1686.0156433532136
  0
LINE
  8
_0-4_文字-記号
  6
CONTINUOUS
 62
    7
 10
312.27749473621452
 20
1686.0156433532136
 11
471.76618281786205
 21
1686.0156433532136
  0
LINE
  8
_0-4_文字-記号
  6
CONTINUOUS
 62
    7
 10
471.76618281786205
 20
1686.0156433532136
 11
471.85618281786219
 21
1686.0156433532136
  0
LINE
  8
_0-4_文字-記号
  6
CONTINUOUS
 62
    7
 10
90.797766037234851
 20
1881.6292420582745
 11
100.79776603723485
 21
1898.9497501339636
  0
LINE
  8
_0-4_文字-記号
  6
CONTINUOUS
 62
    7
 10
100.79776603723485
 20
1898.9497501339636
 11
138.50402395763058
 21
1964.2589046153855
  0
LINE
  8
_0-4_文字-記号
  6
CONTINUOUS
 62
    7
 10
138.50402395763058
 20
1964.2589046153855
 11
530.98100056495059
 21
1964.2589046153855
  0
LINE
  8
_0-4_文字-記号
  6
CONTINUOUS
 62
    7
 10
89.98928846308263
 20
1974.3742156141534
 11
99.98928846308263
 21
1991.6947236898425
  0
LINE
  8
_0-4_文字-記号
  6
CONTINUOUS
 62
    7
 10
99.98928846308263
 20
1991.6947236898425
 11
168.97305305596637
 21
2111.1781088620874
  0
LINE
  8
_0-4_文字-記号
  6
CONTINUOUS
 62
    7
 10
168.97305305596637
 20
2111.1781088620874
 11
289.89578571637639
 21
2111.1781088620874
  0
LINE
  8
_0-4_文字-記号
  6
CONTINUOUS
 62
    7
 10
998.3690704939014
 20
1646.0888716224636
 11
988.3690704939014
 21
1628.7683635467745
  0
LINE
  8
_0-4_文字-記号
  6
CONTINUOUS
 62
    7
 10
988.3690704939014
 20
1628.7683635467745
 11
937.89865654290554
 21
1541.3510423046166
  0
LINE
  8
_0-4_文字-記号
  6
CONTINUOUS
 62
    7
 10
937.89865654290554
 20
1541.3510423046166
 11
651.66550159806638
 21
1541.3510423046166
  0
LINE
  8
_0-4_文字-記号
  6
CONTINUOUS
 62
    7
 10
1139.4219809097162
 20
623.63229888533647
 11
1149.4219809097162
 21
606.31179080964785
  0
LINE
  8
_0-4_文字-記号
  6
CONTINUOUS
 62
    7
 10
1149.4219809097162
 20
606.31179080964785
 11
1218.2944936419767
 21
487.02109951243699
  0
LINE
  8
_0-4_文字-記号
  6
CONTINUOUS
 62
    7
 10
1218.2944936419767
 20
487.02109951243699
 11
1359.4723078714435
 21
487.02109951243699
  0
LINE
  8
_0-4_文字-記号
  6
CONTINUOUS
 62
    7
 10
1359.4723078714435
 20
487.02109951243699
 11
1359.5623078714425
 21
487.02109951243699
  0
LINE
  8
_0-4_文字-記号
  6
CONTINUOUS
 62
    7
 10
1013.539995755656
 20
404.76724610075189
 11
1023.5399957556559
 21
387.44673802506327
  0
LINE
  8
_0-4_文字-記号
  6
CONTINUOUS
 62
    7
 10
1023.5399957556559
 20
387.44673802506327
 11
1074.0104097066528
 21
300.02941678290449
  0
LINE
  8
_0-4_文字-記号
  6
CONTINUOUS
 62
    7
 10
1074.0104097066528
 20
300.02941678290449
 11
1335.2230712833414
 21
300.02941678290449
  0
LINE
  8
_0-4_文字-記号
  6
CONTINUOUS
 62
    7
 10
1335.2230712833414
 20
300.02941678290449
 11
1335.3130712833424
 21
300.02941678290449
  0
LINE
  8
_0-4_文字-記号
  6
CONTINUOUS
 62
    7
 10
544.86819660270567
 20
552.66402470706271
 11
554.86819660270567
 21
535.34351663137397
  0
LINE
  8
_0-4_文字-記号
  6
CONTINUOUS
 62
    7
 10
554.86819660270567
 20
535.34351663137397
 11
604.86927674256594
 21
448.73910539581198
  0
LINE
  8
_0-4_文字-記号
  6
CONTINUOUS
 62
    7
 10
604.86927674256594
 20
448.73910539581198
 11
764.35796482421335
 21
448.73910539581198
  0
LINE
  8
_0-4_文字-記号
  6
CONTINUOUS
 62
    7
 10
764.35796482421335
 20
448.73910539581198
 11
764.4479648242135
 21
448.73910539581198
  0
LINE
  8
_0-4_文字-記号
  6
CONTINUOUS
 62
    7
 10
2946.6736480419145
 20
1801.8309623724865
 11
2941.3146641511844
 21
1821.8309623481755
  0
LINE
  8
_0-4_文字-記号
  6
CONTINUOUS
 62
    7
 10
2941.3146641511844
 20
1821.8309623481755
 11
2955.9556802604534
 21
1807.1899461724865
  0
LINE
  8
_0-4_文字-記号
  6
CONTINUOUS
 62
    7
 10
2812.9915969265285
 20
1613.7681628342616
 11
2807.6326130357975
 21
1633.7681628099506
  0
LINE
  8
_0-4_文字-記号
  6
CONTINUOUS
 62
    7
 10
2807.6326130357975
 20
1633.7681628099506
 11
2822.2736291450665
 21
1619.1271466342614
  0
LINE
  8
_0-4_文字-記号
  6
CONTINUOUS
 62
    7
 10
2337.2550345723516
 20
1892.6862196235516
 11
2322.6140184630826
 21
1878.0452034478626
  0
LINE
  8
_0-4_文字-記号
  6
CONTINUOUS
 62
    7
 10
2322.6140184630826
 20
1878.0452034478626
 11
2327.9730023538136
 21
1898.0452034235516
  0
LINE
  8
_0-4_文字-記号
  6
CONTINUOUS
 62
    7
 10
2307.2548845723513
 20
1893.9644296235515
 11
2292.6138684630823
 21
1879.3234134478635
  0
LINE
  8
_0-4_文字-記号
  6
CONTINUOUS
 62
    7
 10
2292.6138684630823
 20
1879.3234134478635
 11
2297.9728523538142
 21
1899.3234134235515
  0
LINE
  8
_0-4_文字-記号
  6
CONTINUOUS
 62
    7
 10
1929.0579735446115
 20
1979.3347296235524
 11
1914.4169574353434
 21
1964.6937134478635
  0
LINE
  8
_0-4_文字-記号
  6
CONTINUOUS
 62
    7
 10
1914.4169574353434
 20
1964.6937134478635
 11
1919.7759413260744
 21
1984.6937134235525
  0
LINE
  8
_0-4_文字-記号
  6
CONTINUOUS
 62
    7
 10
2083.2180312231021
 20
1773.6448261392065
 11
2077.8590473323725
 21
1793.6448261148946
  0
LINE
  8
_0-4_文字-記号
  6
CONTINUOUS
 62
    7
 10
2077.8590473323725
 20
1793.6448261148946
 11
2092.5000634416415
 21
1779.0038099392054
  0
LINE
  8
_0-4_文字-記号
  6
CONTINUOUS
 62
    7
 10
104.63030457235209
 20
1989.0152317898414
 11
89.98928846308263
 21
1974.3742156141534
  0
LINE
  8
_0-4_文字-記号
  6
CONTINUOUS
 62
    7
 10
89.98928846308263
 20
1974.3742156141534
 11
95.348272353813172
 21
1994.3742155898415
  0
LINE
  8
_0-4_文字-記号
  6
CONTINUOUS
 62
    7
 10
105.43878214650431
 20
1896.2702582339634
 11
90.797766037234851
 21
1881.6292420582745
  0
LINE
  8
_0-4_文字-記号
  6
CONTINUOUS
 62
    7
 10
90.797766037234851
 20
1881.6292420582745
 11
96.156749927965393
 21
1901.6292420339635
  0
LINE
  8
_0-4_文字-記号
  6
CONTINUOUS
 62
    7
 10
772.17688568745552
 20
1872.9644296235524
 11
757.53586957818652
 21
1858.3234134478635
  0
LINE
  8
_0-4_文字-記号
  6
CONTINUOUS
 62
    7
 10
757.53586957818652
 20
1858.3234134478635
 11
762.89485346891763
 21
1878.3234134235524
  0
LINE
  8
_0-4_文字-記号
  6
CONTINUOUS
 62
    7
 10
641.66988589337006
 20
1896.2702582339634
 11
627.02886978410106
 21
1881.6292420582745
  0
LINE
  8
_0-4_文字-記号
  6
CONTINUOUS
 62
    7
 10
627.02886978410106
 20
1881.6292420582745
 11
632.38785367483115
 21
1901.6292420339635
  0
LINE
  8
_0-4_文字-記号
  6
CONTINUOUS
 62
    7
 10
257.63539848708433
 20
1769.9405626887756
 11
252.27641459635379
 21
1789.9405626644646
  0
LINE
  8
_0-4_文字-記号
  6
CONTINUOUS
 62
    7
 10
252.27641459635379
 20
1789.9405626644646
 11
266.91743070562325
 21
1775.2995464887756
  0
LINE
  8
_0-4_文字-記号
  6
CONTINUOUS
 62
    7
 10
655.01845142422872
 20
1801.2531830433015
 11
649.65946753349772
 21
1821.2531830189905
  0
LINE
  8
_0-4_文字-記号
  6
CONTINUOUS
 62
    7
 10
649.65946753349772
 20
1821.2531830189905
 11
664.30048364276684
 21
1806.6121668433016
  0
LINE
  8
_0-4_文字-記号
  6
CONTINUOUS
 62
    7
 10
983.7280543846324
 20
1631.4478554467755
 11
998.3690704939014
 21
1646.0888716224636
  0
LINE
  8
_0-4_文字-記号
  6
CONTINUOUS
 62
    7
 10
998.3690704939014
 20
1646.0888716224636
 11
993.0100866031712
 21
1626.0888716467755
  0
LINE
  8
_0-4_文字-記号
  6
CONTINUOUS
 62
    7
 10
550.22718049343666
 20
532.66402473137396
 11
544.86819660270567
 21
552.66402470706271
  0
LINE
  8
_0-4_文字-記号
  6
CONTINUOUS
 62
    7
 10
544.86819660270567
 20
552.66402470706271
 11
559.50921271197467
 21
538.02300853137388
  0
LINE
  8
_0-4_文字-記号
  6
CONTINUOUS
 62
    7
 10
1144.7809648004472
 20
603.63229890964783
 11
1139.4219809097162
 21
623.63229888533647
  0
LINE
  8
_0-4_文字-記号
  6
CONTINUOUS
 62
    7
 10
1139.4219809097162
 20
623.63229888533647
 11
1154.0629970189852
 21
608.99128270964775
  0
LINE
  8
_0-4_文字-記号
  6
CONTINUOUS
 62
    7
 10
1018.8989796463869
 20
384.76724612506314
 11
1013.539995755656
 21
404.76724610075189
  0
LINE
  8
_0-4_文字-記号
  6
CONTINUOUS
 62
    7
 10
1013.539995755656
 20
404.76724610075189
 11
1028.1810118649259
 21
390.12622992506317
  0
LINE
  8
_0-4_文字-記号
  6
CONTINUOUS
 62
    3
 10
550.76482430751048
 20
2377.4623520488703
 11
550.76482430751048
 21
2478.6656404891528
  0
LINE
  8
_0-4_文字-記号
  6
CONTINUOUS
 62
    3
 10
550.76482430751048
 20
2478.6656404891528
 11
2525.0645365537794
 21
2478.6656404891528
  0
LINE
  8
_0-4_文字-記号
  6
CONTINUOUS
 62
    3
 10
2525.0645365537794
 20
2478.6656404891528
 11
2525.0645365537794
 21
2377.4623520488703
  0
LINE
  8
_0-4_文字-記号
  6
CONTINUOUS
 62
    3
 10
2525.0645365537794
 20
2377.4623520488703
 11
550.76482430751048
 21
2377.4623520488703
  0
LINE
  8
_0-3_躯体と製品
  6
CONTINUOUS
 62
    3
 10
2782.6140184056894
 20
1823.3234134478635
 11
2775.6145328740577
 21
1823.3234134478635
  0
LINE
  8
_0-3_躯体と製品
  6
CONTINUOUS
 62
    3
 10
2837.8146824630644
 20
1832.6989924478635
 11
2837.2146024630642
 21
1833.3240764478635
  0
LINE
  8
_0-3_躯体と製品
  6
CONTINUOUS
 62
    3
 10
2822.6138842609816
 20
1823.3234134478635
 11
2829.6140184630813
 21
1823.3234134478635
  0
LINE
  8
_0-3_躯体と製品
  6
CONTINUOUS
 62
    4
 10
2782.6140184056894
 20
1820.3234134478635
 11
2777.6140184630826
 21
1820.3234134478635
  0
LINE
  8
_0-3_躯体と製品
  6
CONTINUOUS
 62
    4
 10
2822.6138842609816
 20
1820.3234134478635
 11
2827.6140184630813
 21
1820.3234134478635
  0
ARC
  8
_0-3_躯体と製品
  6
CONTINUOUS
 62
    3
 10
2836.2123864630648
 20
1832.0739104478635
 40
1.6022959999993489
 50
308.71798799998697
 51
359.99999999999454
  0
ARC
  8
_0-3_躯体と製品
  6
CONTINUOUS
 62
    3
 10
2836.2123864630639
 20
1824.5729184478639
 40
1.6022960000005333
 50
359.99999999998511
 51
51.282011999992712
  0
LINE
  8
_0-3_躯体と製品
  6
CONTINUOUS
 62
    3
 10
2832.8140184630643
 20
1834.4242224478635
 11
2831.2140184630584
 21
1834.4242224478635
  0
ARC
  8
_0-3_躯体と製品
  6
CONTINUOUS
 62
    3
 10
2834.4163144630638
 20
1832.0739104478635
 40
1.6022959999993489
 50
180.00000000000543
 51
231.28201200001303
  0
LINE
  8
_0-3_躯体と製品
  6
CONTINUOUS
 62
    3
 10
2832.8140184630643
 20
1832.6989924478635
 11
2833.4140984630644
 21
1833.3240764478635
  0
LINE
  8
_0-3_躯体と製品
  6
CONTINUOUS
 62
    3
 10
2837.8146824630644
 20
1830.8233474478634
 11
2846.0140184630754
 21
1830.8233474478634
  0
LINE
  8
_0-3_躯体と製品
  6
CONTINUOUS
 62
    3
 10
2837.2146024630642
 20
1833.3240764478635
 11
2833.4140984630644
 21
1833.3240764478635
  0
ARC
  8
_0-3_躯体と製品
  6
CONTINUOUS
 62
    3
 10
2834.4163144630647
 20
1824.5729184478639
 40
1.6022960000005333
 50
128.7179880000073
 51
180.00000000001492
  0
LINE
  8
_0-3_躯体と製品
  6
CONTINUOUS
 62
    3
 10
2837.8146824630644
 20
1831.3234134478635
 11
2846.0140184630754
 21
1831.3234134478635
  0
LINE
  8
_0-3_躯体と製品
  6
CONTINUOUS
 62
    3
 10
2837.8146824630644
 20
1823.9478344478634
 11
2837.2146024630642
 21
1823.3227524478634
  0
LINE
  8
_0-3_躯体と製品
  6
CONTINUOUS
 62
    3
 10
2837.2146024630642
 20
1830.8237444478634
 11
2833.4140984630644
 21
1830.8237444478634
  0
LINE
  8
_0-3_躯体と製品
  6
CONTINUOUS
 62
    3
 10
2832.8140184630643
 20
1823.9478344478634
 11
2833.4140984630644
 21
1823.3227524478634
  0
LINE
  8
_0-3_躯体と製品
  6
CONTINUOUS
 62
    3
 10
2846.0140184630754
 20
1825.3234134478635
 11
2837.8146824630644
 21
1825.3234134478635
  0
LINE
  8
_0-3_躯体と製品
  6
CONTINUOUS
 62
    3
 10
2837.2146024630642
 20
1825.8230824478635
 11
2833.4140984630644
 21
1825.8230824478635
  0
LINE
  8
_0-3_躯体と製品
  6
CONTINUOUS
 62
    3
 10
2837.8146824630644
 20
1825.8234794478635
 11
2846.0140184630754
 21
1825.8234794478635
  0
ARC
  8
_0-3_躯体と製品
  6
CONTINUOUS
 62
    3
 10
2832.305618463065
 20
1828.3234144478638
 40
5.5090619999997825
 50
333.0085330000021
 51
26.99146699999789
  0
LINE
  8
_0-3_躯体と製品
  6
CONTINUOUS
 62
    3
 10
2832.8140184630643
 20
1829.9394134478434
 11
2832.8140184630643
 21
1834.4242224478635
  0
ARC
  8
_0-3_躯体と製品
  6
CONTINUOUS
 62
    3
 10
2838.3230824630641
 20
1828.3234144478638
 40
5.5090619999997825
 50
153.0085330000021
 51
206.9914669999979
  0
LINE
  8
_0-3_躯体と製品
  6
CONTINUOUS
 62
    3
 10
2837.8146824630644
 20
1823.9478344478634
 11
2837.8146824630644
 21
1832.6989924478635
  0
LINE
  8
_0-3_躯体と製品
  6
CONTINUOUS
 62
    3
 10
2837.2146024630642
 20
1823.3227524478634
 11
2833.4140984630644
 21
1823.3227524478634
  0
LINE
  8
_0-3_躯体と製品
  6
CONTINUOUS
 62
    3
 10
2832.8140184630643
 20
1823.9478344478634
 11
2832.8140184630643
 21
1832.6989924478635
  0
LINE
  8
_0-3_躯体と製品
  6
CONTINUOUS
 62
    3
 10
2846.0140184630754
 20
1831.3234134478635
 11
2846.0140184630764
 21
1825.3234134478635
  0
LINE
  8
_0-3_躯体と製品
  6
CONTINUOUS
 62
    3
 10
2825.0140184630764
 20
1831.3234134478635
 11
2824.5139524630763
 21
1830.8233474478634
  0
LINE
  8
_0-3_躯体と製品
  6
CONTINUOUS
 62
    3
 10
2837.8146824630644
 20
1832.6989924478635
 11
2837.8146824630644
 21
1823.9478344478634
  0
LINE
  8
_0-3_躯体と製品
  6
CONTINUOUS
 62
    3
 10
2832.8140184630643
 20
1832.6989924478635
 11
2832.8140184630643
 21
1823.9478344478634
  0
LINE
  8
_0-3_躯体と製品
  6
CONTINUOUS
 62
    3
 10
2825.0140184630764
 20
1825.3234134478635
 11
2824.5139524630763
 21
1825.8234794478635
  0
LINE
  8
_0-3_躯体と製品
  6
CONTINUOUS
 62
    3
 10
2829.6140184630813
 20
1825.3234134478635
 11
2825.0140184630764
 21
1825.3234134478635
  0
LINE
  8
_0-3_躯体と製品
  6
CONTINUOUS
 62
    3
 10
2774.0140184630764
 20
1833.5741074478635
 11
2773.0138864630762
 21
1833.5741074478635
  0
LINE
  8
_0-3_躯体と製品
  6
CONTINUOUS
 62
    3
 10
2829.6140184630813
 20
1831.3234134478635
 11
2825.0140184630764
 21
1831.3234134478635
  0
ARC
  8
_0-3_躯体と製品
  6
CONTINUOUS
 62
    3
 10
2773.0138864630762
 20
1826.0731154478635
 40
3.0003979999998829
 50
180.0000000000023
 51
258.46716498573142
  0
LINE
  8
_0-3_躯体と製品
  6
CONTINUOUS
 62
    3
 10
2825.0140184630764
 20
1825.3230154478636
 11
2825.0140184630764
 21
1831.3238094478636
  0
ARC
  8
_0-3_躯体と製品
  6
CONTINUOUS
 62
    3
 10
2773.0138864630762
 20
1830.5737114478638
 40
3.000397999999791
 50
90.000000000002188
 51
180.00000000000219
  0
LINE
  8
_0-3_躯体と製品
  6
CONTINUOUS
 62
    3
 10
2770.0134884630766
 20
1830.5737114478636
 11
2770.0134884630766
 21
1826.0731154478635
  0
LINE
  8
_0-3_躯体と製品
  6
CONTINUOUS
 62
    3
 10
2829.6140184630813
 20
1825.8234794478635
 11
2775.6144368620276
 21
1825.8234794478635
  0
LINE
  8
_0-3_躯体と製品
  6
CONTINUOUS
 62
    3
 10
2829.6140184630813
 20
1830.8233474478634
 11
2775.6142653689994
 21
1830.8233474478634
  0
LINE
  8
_0-3_躯体と製品
  6
CONTINUOUS
 62
    4
 10
2072.6138842609807
 20
1820.3234134478635
 11
2077.6140184630804
 21
1820.3234134478635
  0
LINE
  8
_0-3_躯体と製品
  6
CONTINUOUS
 62
    4
 10
2032.6140184056894
 20
1820.3234134478635
 11
2027.6140184630815
 21
1820.3234134478635
  0
LINE
  8
_0-3_躯体と製品
  6
CONTINUOUS
 62
    3
 10
2072.6138842609807
 20
1823.3234134478635
 11
2079.6140184630822
 21
1823.3234134478635
  0
LINE
  8
_0-3_躯体と製品
  6
CONTINUOUS
 62
    3
 10
2032.6140184056894
 20
1823.3234134478635
 11
2025.6145328740574
 21
1823.3234134478635
  0
ARC
  8
_0-3_躯体と製品
  6
CONTINUOUS
 62
    3
 10
2086.2123864630653
 20
1832.0739104478635
 40
1.602295999999235
 50
308.71798799999544
 51
0.0000000000030406
  0
LINE
  8
_0-3_躯体と製品
  6
CONTINUOUS
 62
    3
 10
2087.8146824630644
 20
1832.6989924478635
 11
2087.2146024630647
 21
1833.3240764478635
  0
LINE
  8
_0-3_躯体と製品
  6
CONTINUOUS
 62
    3
 10
2082.8140184630647
 20
1834.4242224478635
 11
2081.2140184630584
 21
1834.4242224478635
  0
ARC
  8
_0-3_躯体と製品
  6
CONTINUOUS
 62
    3
 10
2084.4163144630638
 20
1832.0739104478635
 40
1.6022959999993489
 50
180.00000000000543
 51
231.28201200001303
  0
LINE
  8
_0-3_躯体と製品
  6
CONTINUOUS
 62
    3
 10
2082.8140184630647
 20
1832.6989924478635
 11
2083.4140984630644
 21
1833.3240764478635
  0
LINE
  8
_0-3_躯体と製品
  6
CONTINUOUS
 62
    3
 10
2087.2146024630647
 20
1833.3240764478635
 11
2083.4140984630644
 21
1833.3240764478635
  0
LINE
  8
_0-3_躯体と製品
  6
CONTINUOUS
 62
    3
 10
2087.2146024630647
 20
1830.8237444478634
 11
2083.4140984630644
 21
1830.8237444478634
  0
LINE
  8
_0-3_躯体と製品
  6
CONTINUOUS
 62
    3
 10
2087.8146824630644
 20
1831.3234134478635
 11
2096.0140184630764
 21
1831.3234134478635
  0
LINE
  8
_0-3_躯体と製品
  6
CONTINUOUS
 62
    3
 10
2087.8146824630644
 20
1830.8233474478634
 11
2096.0140184630764
 21
1830.8233474478634
  0
ARC
  8
_0-3_躯体と製品
  6
CONTINUOUS
 62
    3
 10
2086.2123864630639
 20
1824.5729184478641
 40
1.6022960000004194
 50
359.99999999997664
 51
51.282011999984242
  0
LINE
  8
_0-3_躯体と製品
  6
CONTINUOUS
 62
    3
 10
2087.8146824630644
 20
1823.9478344478634
 11
2087.2146024630647
 21
1823.3227524478634
  0
ARC
  8
_0-3_躯体と製品
  6
CONTINUOUS
 62
    3
 10
2084.4163144630652
 20
1824.5729184478639
 40
1.6022960000005333
 50
128.7179880000073
 51
180.00000000001492
  0
LINE
  8
_0-3_躯体と製品
  6
CONTINUOUS
 62
    3
 10
2082.8140184630647
 20
1823.9478344478634
 11
2083.4140984630644
 21
1823.3227524478634
  0
LINE
  8
_0-3_躯体と製品
  6
CONTINUOUS
 62
    3
 10
2087.2146024630647
 20
1825.8230824478635
 11
2083.4140984630644
 21
1825.8230824478635
  0
LINE
  8
_0-3_躯体と製品
  6
CONTINUOUS
 62
    3
 10
2087.2146024630647
 20
1823.3227524478634
 11
2083.4140984630644
 21
1823.3227524478634
  0
LINE
  8
_0-3_躯体と製品
  6
CONTINUOUS
 62
    3
 10
2096.0140184630764
 20
1825.3234134478635
 11
2087.8146824630644
 21
1825.3234134478635
  0
LINE
  8
_0-3_躯体と製品
  6
CONTINUOUS
 62
    3
 10
2087.8146824630644
 20
1825.8234794478635
 11
2096.0140184630764
 21
1825.8234794478635
  0
LINE
  8
_0-3_躯体と製品
  6
CONTINUOUS
 62
    3
 10
2082.8140184630647
 20
1829.9394134478434
 11
2082.8140184630647
 21
1834.4242224478635
  0
ARC
  8
_0-3_躯体と製品
  6
CONTINUOUS
 62
    3
 10
2082.305618463065
 20
1828.3234144478638
 40
5.5090619999997825
 50
333.0085330000021
 51
26.99146699999789
  0
LINE
  8
_0-3_躯体と製品
  6
CONTINUOUS
 62
    3
 10
2087.8146824630644
 20
1823.9478344478634
 11
2087.8146824630644
 21
1832.6989924478635
  0
LINE
  8
_0-3_躯体と製品
  6
CONTINUOUS
 62
    3
 10
2087.8146824630644
 20
1832.6989924478635
 11
2087.8146824630644
 21
1823.9478344478634
  0
ARC
  8
_0-3_躯体と製品
  6
CONTINUOUS
 62
    3
 10
2088.3230824630641
 20
1828.3234144478638
 40
5.5090619999997825
 50
153.0085330000021
 51
206.9914669999979
  0
LINE
  8
_0-3_躯体と製品
  6
CONTINUOUS
 62
    3
 10
2082.8140184630647
 20
1823.9478344478634
 11
2082.8140184630647
 21
1832.6989924478635
  0
LINE
  8
_0-3_躯体と製品
  6
CONTINUOUS
 62
    3
 10
2082.8140184630647
 20
1832.6989924478635
 11
2082.8140184630647
 21
1823.9478344478634
  0
LINE
  8
_0-3_躯体と製品
  6
CONTINUOUS
 62
    3
 10
2096.0140184630754
 20
1831.3234134478635
 11
2096.0140184630764
 21
1825.3234134478635
  0
LINE
  8
_0-3_躯体と製品
  6
CONTINUOUS
 62
    3
 10
2075.0140184630764
 20
1831.3234134478635
 11
2074.5139524630754
 21
1830.8233474478634
  0
LINE
  8
_0-3_躯体と製品
  6
CONTINUOUS
 62
    3
 10
2075.0140184630764
 20
1825.3234134478635
 11
2074.5139524630754
 21
1825.8234794478635
  0
LINE
  8
_0-3_躯体と製品
  6
CONTINUOUS
 62
    3
 10
2075.0140184630764
 20
1825.3230154478636
 11
2075.0140184630764
 21
1831.3238094478636
  0
LINE
  8
_0-3_躯体と製品
  6
CONTINUOUS
 62
    3
 10
2079.6140184630822
 20
1825.3234134478635
 11
2075.0140184630764
 21
1825.3234134478635
  0
LINE
  8
_0-3_躯体と製品
  6
CONTINUOUS
 62
    3
 10
2079.6140184630822
 20
1831.3234134478635
 11
2075.0140184630764
 21
1831.3234134478635
  0
LINE
  8
_0-3_躯体と製品
  6
CONTINUOUS
 62
    3
 10
2024.0140184630764
 20
1833.5741074478635
 11
2023.0138864630765
 21
1833.5741074478635
  0
ARC
  8
_0-3_躯体と製品
  6
CONTINUOUS
 62
    3
 10
2023.0138864630765
 20
1830.5737114478636
 40
3.0003979999999038
 50
90
 51
180
  0
ARC
  8
_0-3_躯体と製品
  6
CONTINUOUS
 62
    3
 10
2023.0138864630765
 20
1826.0731154478635
 40
3.0003979999998829
 50
180.0000000000023
 51
258.46716498573142
  0
LINE
  8
_0-3_躯体と製品
  6
CONTINUOUS
 62
    3
 10
2020.0134884630766
 20
1830.5737114478636
 11
2020.0134884630766
 21
1826.0731154478635
  0
LINE
  8
_0-3_躯体と製品
  6
CONTINUOUS
 62
    3
 10
2079.6140184630822
 20
1825.8234794478635
 11
2025.6144368620264
 21
1825.8234794478635
  0
LINE
  8
_0-3_躯体と製品
  6
CONTINUOUS
 62
    3
 10
2079.6140184630822
 20
1830.8233474478634
 11
2025.6142653689985
 21
1830.8233474478634
  0
LINE
  8
_0-3_躯体と製品
  6
CONTINUOUS
 62
    4
 10
1025.6993823068815
 20
1820.3234134478635
 11
1030.6995165089816
 21
1820.3234134478635
  0
LINE
  8
_0-3_躯体と製品
  6
CONTINUOUS
 62
    4
 10
985.69951645158972
 20
1820.3234134478635
 11
980.69951650898258
 21
1820.3234134478635
  0
LINE
  8
_0-3_躯体と製品
  6
CONTINUOUS
 62
    3
 10
1025.6993823068815
 20
1823.3234134478635
 11
1032.6995165089825
 21
1823.3234134478635
  0
LINE
  8
_0-3_躯体と製品
  6
CONTINUOUS
 62
    3
 10
985.69951645158972
 20
1823.3234134478635
 11
978.70003091995784
 21
1823.3234134478635
  0
ARC
  8
_0-3_躯体と製品
  6
CONTINUOUS
 62
    3
 10
1039.2978845089658
 20
1832.0739104478637
 40
1.6022959999994055
 50
308.71798799998271
 51
359.99999999999034
  0
LINE
  8
_0-3_躯体と製品
  6
CONTINUOUS
 62
    3
 10
1040.9001805089651
 20
1832.6989924478635
 11
1040.300100508965
 21
1833.3240764478635
  0
LINE
  8
_0-3_躯体と製品
  6
CONTINUOUS
 62
    3
 10
1035.899516508965
 20
1834.4242224478635
 11
1034.2995165089592
 21
1834.4242224478635
  0
ARC
  8
_0-3_躯体と製品
  6
CONTINUOUS
 62
    3
 10
1037.5018125089646
 20
1832.0739104478639
 40
1.6022959999994626
 50
180.0000000000139
 51
231.2820120000215
  0
LINE
  8
_0-3_躯体と製品
  6
CONTINUOUS
 62
    3
 10
1035.899516508965
 20
1832.6989924478635
 11
1036.4995965089652
 21
1833.3240764478635
  0
LINE
  8
_0-3_躯体と製品
  6
CONTINUOUS
 62
    3
 10
1040.300100508965
 20
1833.3240764478635
 11
1036.4995965089652
 21
1833.3240764478635
  0
LINE
  8
_0-3_躯体と製品
  6
CONTINUOUS
 62
    3
 10
1040.300100508965
 20
1830.8237444478634
 11
1036.4995965089652
 21
1830.8237444478634
  0
LINE
  8
_0-3_躯体と製品
  6
CONTINUOUS
 62
    3
 10
1040.9001805089651
 20
1831.3234134478635
 11
1049.0995165089766
 21
1831.3234134478635
  0
LINE
  8
_0-3_躯体と製品
  6
CONTINUOUS
 62
    3
 10
1040.9001805089651
 20
1830.8233474478634
 11
1049.0995165089766
 21
1830.8233474478634
  0
ARC
  8
_0-3_躯体と製品
  6
CONTINUOUS
 62
    3
 10
1039.2978845089647
 20
1824.5729184478637
 40
1.6022960000005899
 50
359.99999999998931
 51
51.282011999996946
  0
LINE
  8
_0-3_躯体と製品
  6
CONTINUOUS
 62
    3
 10
1040.9001805089651
 20
1823.9478344478634
 11
1040.300100508965
 21
1823.3227524478634
  0
ARC
  8
_0-3_躯体と製品
  6
CONTINUOUS
 62
    3
 10
1037.5018125089655
 20
1824.5729184478637
 40
1.602296000000647
 50
128.7179879999988
 51
180.00000000000642
  0
LINE
  8
_0-3_躯体と製品
  6
CONTINUOUS
 62
    3
 10
1035.899516508965
 20
1823.9478344478634
 11
1036.4995965089652
 21
1823.3227524478634
  0
LINE
  8
_0-3_躯体と製品
  6
CONTINUOUS
 62
    3
 10
1040.300100508965
 20
1825.8230824478635
 11
1036.4995965089652
 21
1825.8230824478635
  0
LINE
  8
_0-3_躯体と製品
  6
CONTINUOUS
 62
    3
 10
1040.300100508965
 20
1823.3227524478634
 11
1036.4995965089652
 21
1823.3227524478634
  0
LINE
  8
_0-3_躯体と製品
  6
CONTINUOUS
 62
    3
 10
1049.0995165089766
 20
1825.3234134478635
 11
1040.9001805089651
 21
1825.3234134478635
  0
LINE
  8
_0-3_躯体と製品
  6
CONTINUOUS
 62
    3
 10
1040.9001805089651
 20
1825.8234794478635
 11
1049.0995165089766
 21
1825.8234794478635
  0
LINE
  8
_0-3_躯体と製品
  6
CONTINUOUS
 62
    3
 10
1035.899516508965
 20
1829.9394134478434
 11
1035.899516508965
 21
1834.4242224478635
  0
ARC
  8
_0-3_躯体と製品
  6
CONTINUOUS
 62
    3
 10
1035.3911165089651
 20
1828.3234144478638
 40
5.5090619999997825
 50
333.0085330000021
 51
26.99146699999789
  0
LINE
  8
_0-3_躯体と製品
  6
CONTINUOUS
 62
    3
 10
1040.9001805089651
 20
1823.9478344478634
 11
1040.9001805089651
 21
1832.6989924478635
  0
LINE
  8
_0-3_躯体と製品
  6
CONTINUOUS
 62
    3
 10
1040.9001805089651
 20
1832.6989924478635
 11
1040.9001805089651
 21
1823.9478344478634
  0
ARC
  8
_0-3_躯体と製品
  6
CONTINUOUS
 62
    3
 10
1041.4085805089649
 20
1828.3234144478638
 40
5.5090619999997825
 50
153.0085330000021
 51
206.9914669999979
  0
LINE
  8
_0-3_躯体と製品
  6
CONTINUOUS
 62
    3
 10
1035.899516508965
 20
1823.9478344478634
 11
1035.899516508965
 21
1832.6989924478635
  0
LINE
  8
_0-3_躯体と製品
  6
CONTINUOUS
 62
    3
 10
1035.899516508965
 20
1832.6989924478635
 11
1035.899516508965
 21
1823.9478344478634
  0
LINE
  8
_0-3_躯体と製品
  6
CONTINUOUS
 62
    3
 10
1049.0995165089764
 20
1831.3234134478635
 11
1049.0995165089771
 21
1825.3234134478635
  0
LINE
  8
_0-3_躯体と製品
  6
CONTINUOUS
 62
    3
 10
1028.0995165089766
 20
1831.3234134478635
 11
1027.5994505089766
 21
1830.8233474478634
  0
LINE
  8
_0-3_躯体と製品
  6
CONTINUOUS
 62
    3
 10
1028.0995165089766
 20
1825.3234134478635
 11
1027.5994505089766
 21
1825.8234794478635
  0
LINE
  8
_0-3_躯体と製品
  6
CONTINUOUS
 62
    3
 10
1028.0995165089766
 20
1825.3230154478636
 11
1028.0995165089766
 21
1831.3238094478636
  0
LINE
  8
_0-3_躯体と製品
  6
CONTINUOUS
 62
    3
 10
1032.6995165089825
 20
1825.3234134478635
 11
1028.0995165089766
 21
1825.3234134478635
  0
LINE
  8
_0-3_躯体と製品
  6
CONTINUOUS
 62
    3
 10
1032.6995165089825
 20
1831.3234134478635
 11
1028.0995165089766
 21
1831.3234134478635
  0
LINE
  8
_0-3_躯体と製品
  6
CONTINUOUS
 62
    3
 10
977.09951650897676
 20
1833.5741074478635
 11
976.0993845089771
 21
1833.5741074478635
  0
ARC
  8
_0-3_躯体と製品
  6
CONTINUOUS
 62
    3
 10
976.09938450897698
 20
1830.5737114478634
 40
3.0003980000000183
 50
89.999999999997812
 51
179.99999999999781
  0
ARC
  8
_0-3_躯体と製品
  6
CONTINUOUS
 62
    3
 10
976.09938450897687
 20
1826.0731154478638
 40
3.0003979999999402
 50
180.00000000000361
 51
258.46716498573272
  0
LINE
  8
_0-3_躯体と製品
  6
CONTINUOUS
 62
    3
 10
973.09898650897696
 20
1830.5737114478636
 11
973.09898650897696
 21
1826.0731154478635
  0
LINE
  8
_0-3_躯体と製品
  6
CONTINUOUS
 62
    3
 10
1032.6995165089825
 20
1825.8234794478635
 11
978.69993490792706
 21
1825.8234794478635
  0
LINE
  8
_0-3_躯体と製品
  6
CONTINUOUS
 62
    3
 10
1032.6995165089825
 20
1830.8233474478634
 11
978.69976341489939
 21
1830.8233474478634
  0
LINE
  8
_0-3_躯体と製品
  6
CONTINUOUS
 62
    4
 10
247.48915426098097
 20
1820.3234134478635
 11
252.48928846308127
 21
1820.3234134478635
  0
LINE
  8
_0-3_躯体と製品
  6
CONTINUOUS
 62
    4
 10
207.48928840568942
 20
1820.3234134478646
 11
202.48928846308218
 21
1820.3234134478646
  0
LINE
  8
_0-3_躯体と製品
  6
CONTINUOUS
 62
    3
 10
247.48915426098097
 20
1823.3234134478646
 11
254.48928846308218
 21
1823.3234134478646
  0
LINE
  8
_0-3_躯体と製品
  6
CONTINUOUS
 62
    3
 10
207.48928840568942
 20
1823.3234134478635
 11
200.48980287405743
 21
1823.3234134478635
  0
ARC
  8
_0-3_躯体と製品
  6
CONTINUOUS
 62
    3
 10
261.08765646306415
 20
1832.0739104478644
 40
1.602296000000647
 50
308.7179879999988
 51
0.0000000000064247
  0
LINE
  8
_0-3_躯体と製品
  6
CONTINUOUS
 62
    3
 10
262.68995246306486
 20
1832.6989924478646
 11
262.08987246306469
 21
1833.3240764478644
  0
LINE
  8
_0-3_躯体と製品
  6
CONTINUOUS
 62
    3
 10
257.68928846306471
 20
1834.4242224478646
 11
256.08928846305889
 21
1834.4242224478646
  0
ARC
  8
_0-3_躯体と製品
  6
CONTINUOUS
 62
    3
 10
259.29158446306542
 20
1832.0739104478644
 40
1.602296000000647
 50
179.99999999999355
 51
231.28201200000115
  0
LINE
  8
_0-3_躯体と製品
  6
CONTINUOUS
 62
    3
 10
257.68928846306471
 20
1832.6989924478646
 11
258.28936846306487
 21
1833.3240764478644
  0
LINE
  8
_0-3_躯体と製品
  6
CONTINUOUS
 62
    3
 10
262.08987246306469
 20
1833.3240764478644
 11
258.28936846306487
 21
1833.3240764478644
  0
LINE
  8
_0-3_躯体と製品
  6
CONTINUOUS
 62
    3
 10
262.08987246306469
 20
1830.8237444478646
 11
258.28936846306487
 21
1830.8237444478646
  0
LINE
  8
_0-3_躯体と製品
  6
CONTINUOUS
 62
    3
 10
262.68995246306486
 20
1831.3234134478646
 11
270.88928846307635
 21
1831.3234134478646
  0
LINE
  8
_0-3_躯体と製品
  6
CONTINUOUS
 62
    3
 10
262.68995246306486
 20
1830.8233474478645
 11
270.88928846307635
 21
1830.8233474478645
  0
ARC
  8
_0-3_躯体と製品
  6
CONTINUOUS
 62
    3
 10
261.08765646306529
 20
1824.5729184478641
 40
1.6022959999994626
 50
0.0000000000139004
 51
51.28201200002151
  0
LINE
  8
_0-3_躯体と製品
  6
CONTINUOUS
 62
    3
 10
262.68995246306486
 20
1823.9478344478646
 11
262.08987246306469
 21
1823.3227524478646
  0
ARC
  8
_0-3_躯体と製品
  6
CONTINUOUS
 62
    3
 10
259.29158446306428
 20
1824.5729184478641
 40
1.6022959999994626
 50
128.7179879999785
 51
179.9999999999861
  0
LINE
  8
_0-3_躯体と製品
  6
CONTINUOUS
 62
    3
 10
257.68928846306471
 20
1823.9478344478646
 11
258.28936846306487
 21
1823.3227524478646
  0
LINE
  8
_0-3_躯体と製品
  6
CONTINUOUS
 62
    3
 10
262.08987246306469
 20
1825.8230824478644
 11
258.28936846306487
 21
1825.8230824478644
  0
LINE
  8
_0-3_躯体と製品
  6
CONTINUOUS
 62
    3
 10
262.08987246306469
 20
1823.3227524478646
 11
258.28936846306487
 21
1823.3227524478646
  0
LINE
  8
_0-3_躯体と製品
  6
CONTINUOUS
 62
    3
 10
270.88928846307635
 20
1825.3234134478646
 11
262.68995246306486
 21
1825.3234134478646
  0
LINE
  8
_0-3_躯体と製品
  6
CONTINUOUS
 62
    3
 10
262.68995246306486
 20
1825.8234794478644
 11
270.88928846307635
 21
1825.8234794478644
  0
LINE
  8
_0-3_躯体と製品
  6
CONTINUOUS
 62
    3
 10
257.68928846306471
 20
1829.9394134478446
 11
257.68928846306471
 21
1834.4242224478646
  0
ARC
  8
_0-3_躯体と製品
  6
CONTINUOUS
 62
    3
 10
257.18088846306478
 20
1828.3234144478638
 40
5.5090619999997825
 50
333.0085330000021
 51
26.99146699999789
  0
LINE
  8
_0-3_躯体と製品
  6
CONTINUOUS
 62
    3
 10
262.68995246306486
 20
1823.9478344478646
 11
262.68995246306486
 21
1832.6989924478646
  0
LINE
  8
_0-3_躯体と製品
  6
CONTINUOUS
 62
    3
 10
262.68995246306486
 20
1832.6989924478646
 11
262.68995246306486
 21
1823.9478344478646
  0
ARC
  8
_0-3_躯体と製品
  6
CONTINUOUS
 62
    3
 10
263.19835246306434
 20
1828.3234144478638
 40
5.5090619999997825
 50
153.0085330000021
 51
206.9914669999979
  0
LINE
  8
_0-3_躯体と製品
  6
CONTINUOUS
 62
    3
 10
257.68928846306471
 20
1823.9478344478646
 11
257.68928846306471
 21
1832.6989924478646
  0
LINE
  8
_0-3_躯体と製品
  6
CONTINUOUS
 62
    3
 10
257.68928846306471
 20
1832.6989924478646
 11
257.68928846306471
 21
1823.9478344478646
  0
LINE
  8
_0-3_躯体と製品
  6
CONTINUOUS
 62
    3
 10
270.88928846307613
 20
1831.3234134478646
 11
270.88928846307658
 21
1825.3234134478646
  0
LINE
  8
_0-3_躯体と製品
  6
CONTINUOUS
 62
    3
 10
249.88928846307635
 20
1831.3234134478646
 11
249.38922246307629
 21
1830.8233474478645
  0
LINE
  8
_0-3_躯体と製品
  6
CONTINUOUS
 62
    3
 10
249.88928846307635
 20
1825.3234134478646
 11
249.38922246307629
 21
1825.8234794478644
  0
LINE
  8
_0-3_躯体と製品
  6
CONTINUOUS
 62
    3
 10
249.88928846307635
 20
1825.3230154478645
 11
249.88928846307635
 21
1831.3238094478645
  0
LINE
  8
_0-3_躯体と製品
  6
CONTINUOUS
 62
    3
 10
254.48928846308218
 20
1825.3234134478646
 11
249.88928846307635
 21
1825.3234134478646
  0
LINE
  8
_0-3_躯体と製品
  6
CONTINUOUS
 62
    3
 10
254.48928846308218
 20
1831.3234134478646
 11
249.88928846307635
 21
1831.3234134478646
  0
LINE
  8
_0-3_躯体と製品
  6
CONTINUOUS
 62
    3
 10
198.88928846307635
 20
1833.5741074478644
 11
197.88915646307669
 21
1833.5741074478644
  0
ARC
  8
_0-3_躯体と製品
  6
CONTINUOUS
 62
    3
 10
197.88915646307669
 20
1830.5737114478645
 40
3.0003979999999038
 50
90
 51
180
  0
ARC
  8
_0-3_躯体と製品
  6
CONTINUOUS
 62
    3
 10
197.88915646307646
 20
1826.0731154478644
 40
3.0003979999996302
 50
180.00000000000182
 51
258.4671649857309
  0
LINE
  8
_0-3_躯体と製品
  6
CONTINUOUS
 62
    3
 10
194.88875846307656
 20
1830.5737114478645
 11
194.88875846307656
 21
1826.0731154478644
  0
LINE
  8
_0-3_躯体と製品
  6
CONTINUOUS
 62
    3
 10
254.48928846308218
 20
1825.8234794478644
 11
200.48970686202665
 21
1825.8234794478644
  0
LINE
  8
_0-3_躯体と製品
  6
CONTINUOUS
 62
    3
 10
254.48928846308218
 20
1830.8233474478645
 11
200.48953536899899
 21
1830.8233474478645
  0
LINE
  8
_0-3_躯体と製品
  6
CONTINUOUS
 62
    3
 10
3109.3211531421243
 20
1869.3233734478636
 11
3109.3211531421243
 21
1864.3234134478635
  0
ARC
  8
_0-3_躯体と製品
  6
CONTINUOUS
 62
    3
 10
3108.3211151421251
 20
1869.323373447864
 40
1.0000399999994443
 50
359.99999999997397
 51
89.999999999973952
  0
LINE
  8
_0-3_躯体と製品
  6
CONTINUOUS
 62
    3
 10
3108.3211151421256
 20
1870.3234134478635
 11
3100.3207991421255
 21
1870.3234134478635
  0
LINE
  8
_0-3_躯体と製品
  6
CONTINUOUS
 62
    3
 10
3109.3211531421243
 20
1877.3234514478636
 11
3109.3211531421243
 21
1882.3234134478635
  0
ARC
  8
_0-3_躯体と製品
  6
CONTINUOUS
 62
    3
 10
3108.3211151421251
 20
1877.3234514478631
 40
1.0000399999995579
 50
270.00000000003257
 51
0.0000000000325816
  0
LINE
  8
_0-3_躯体と製品
  6
CONTINUOUS
 62
    3
 10
3108.3211151421256
 20
1876.3234134478635
 11
3100.3207991421255
 21
1876.3234134478635
  0
ARC
  8
_0-3_躯体と製品
  6
CONTINUOUS
 62
    3
 10
3100.3207991421255
 20
1875.3233734478636
 40
1.000039999999899
 50
90
 51
180
  0
LINE
  8
_0-3_躯体と製品
  6
CONTINUOUS
 62
    3
 10
3099.3207611421253
 20
1875.3233734478636
 11
3099.3207611421253
 21
1871.3234534478636
  0
ARC
  8
_0-3_躯体と製品
  6
CONTINUOUS
 62
    3
 10
3100.3207991421255
 20
1871.3234534478634
 40
1.0000400000000127
 50
179.99999999999349
 51
269.99999999999346
  0
LINE
  8
_0-3_躯体と製品
  6
CONTINUOUS
 62
    3
 10
2809.3211531421252
 20
1869.3233734478636
 11
2809.3211531421252
 21
1864.3234134478635
  0
ARC
  8
_0-3_躯体と製品
  6
CONTINUOUS
 62
    3
 10
2808.3211151421251
 20
1869.323373447864
 40
1.0000399999994443
 50
359.99999999997397
 51
89.999999999973952
  0
LINE
  8
_0-3_躯体と製品
  6
CONTINUOUS
 62
    3
 10
2808.3211151421256
 20
1870.3234134478635
 11
2800.3207991421255
 21
1870.3234134478635
  0
LINE
  8
_0-3_躯体と製品
  6
CONTINUOUS
 62
    3
 10
2809.3211531421252
 20
1877.3234514478636
 11
2809.3211531421252
 21
1882.3234134478635
  0
ARC
  8
_0-3_躯体と製品
  6
CONTINUOUS
 62
    3
 10
2808.3211151421251
 20
1877.3234514478631
 40
1.0000399999995579
 50
270.00000000003257
 51
0.0000000000325816
  0
LINE
  8
_0-3_躯体と製品
  6
CONTINUOUS
 62
    3
 10
2808.3211151421256
 20
1876.3234134478635
 11
2800.3207991421255
 21
1876.3234134478635
  0
ARC
  8
_0-3_躯体と製品
  6
CONTINUOUS
 62
    3
 10
2800.3207991421255
 20
1875.3233734478636
 40
1.000039999999899
 50
90
 51
180
  0
LINE
  8
_0-3_躯体と製品
  6
CONTINUOUS
 62
    3
 10
2799.3207611421253
 20
1875.3233734478636
 11
2799.3207611421253
 21
1871.3234534478636
  0
ARC
  8
_0-3_躯体と製品
  6
CONTINUOUS
 62
    3
 10
2800.3207991421255
 20
1871.3234534478634
 40
1.0000400000000127
 50
179.99999999999349
 51
269.99999999999346
  0
LINE
  8
_0-3_躯体と製品
  6
CONTINUOUS
 62
    3
 10
628.83792150898262
 20
1869.3233734478636
 11
628.83792150898262
 21
1864.3234134478635
  0
ARC
  8
_0-3_躯体と製品
  6
CONTINUOUS
 62
    3
 10
627.83788350898249
 20
1869.3233734478636
 40
1.0000400000000127
 50
0.0000000000065183
 51
90.000000000006523
  0
LINE
  8
_0-3_躯体と製品
  6
CONTINUOUS
 62
    3
 10
627.83788350898249
 20
1870.3234134478635
 11
619.83756750898283
 21
1870.3234134478635
  0
LINE
  8
_0-3_躯体と製品
  6
CONTINUOUS
 62
    3
 10
628.83792150898262
 20
1877.3234514478636
 11
628.83792150898262
 21
1882.3234134478635
  0
ARC
  8
_0-3_躯体と製品
  6
CONTINUOUS
 62
    3
 10
627.83788350898249
 20
1877.3234514478636
 40
1.0000400000001264
 50
270
 51
0.0000000000000127
  0
LINE
  8
_0-3_躯体と製品
  6
CONTINUOUS
 62
    3
 10
627.83788350898249
 20
1876.3234134478635
 11
619.83756750898283
 21
1876.3234134478635
  0
ARC
  8
_0-3_躯体と製品
  6
CONTINUOUS
 62
    3
 10
619.83756750898283
 20
1875.3233734478636
 40
1.000039999999899
 50
90
 51
180
  0
LINE
  8
_0-3_躯体と製品
  6
CONTINUOUS
 62
    3
 10
618.83752950898293
 20
1875.3233734478636
 11
618.83752950898293
 21
1871.3234534478636
  0
ARC
  8
_0-3_躯体と製品
  6
CONTINUOUS
 62
    3
 10
619.83756750898283
 20
1871.3234534478634
 40
1.0000400000000127
 50
179.99999999999349
 51
269.99999999999346
  0
LINE
  8
_0-3_躯体と製品
  6
CONTINUOUS
 62
    3
 10
1228.8379215089826
 20
1869.3233734478636
 11
1228.8379215089826
 21
1864.3234134478635
  0
ARC
  8
_0-3_躯体と製品
  6
CONTINUOUS
 62
    3
 10
1227.8378835089827
 20
1869.3233734478636
 40
1.0000399999999559
 50
0.0000000000032618
 51
90.000000000003268
  0
LINE
  8
_0-3_躯体と製品
  6
CONTINUOUS
 62
    3
 10
1227.8378835089825
 20
1870.3234134478635
 11
1219.8375675089828
 21
1870.3234134478635
  0
LINE
  8
_0-3_躯体と製品
  6
CONTINUOUS
 62
    3
 10
1228.8379215089826
 20
1877.3234514478636
 11
1228.8379215089826
 21
1882.3234134478635
  0
ARC
  8
_0-3_躯体と製品
  6
CONTINUOUS
 62
    3
 10
1227.8378835089825
 20
1877.3234514478636
 40
1.0000400000000695
 50
270.00000000000324
 51
0.0000000000032696
  0
LINE
  8
_0-3_躯体と製品
  6
CONTINUOUS
 62
    3
 10
1227.8378835089825
 20
1876.3234134478635
 11
1219.8375675089828
 21
1876.3234134478635
  0
ARC
  8
_0-3_躯体と製品
  6
CONTINUOUS
 62
    3
 10
1219.8375675089828
 20
1875.3233734478636
 40
1.000039999999899
 50
90
 51
180
  0
LINE
  8
_0-3_躯体と製品
  6
CONTINUOUS
 62
    3
 10
1218.8375295089827
 20
1875.3233734478636
 11
1218.8375295089827
 21
1871.3234534478636
  0
ARC
  8
_0-3_躯体と製品
  6
CONTINUOUS
 62
    3
 10
1219.8375675089828
 20
1871.3234534478634
 40
1.0000400000000127
 50
179.99999999999349
 51
269.99999999999346
  0
LINE
  8
_0-3_躯体と製品
  6
CONTINUOUS
 62
    4
 10
1010.7985105089823
 20
614.09548744786252
 11
1011.199488508982
 21
614.09548744786252
  0
ARC
  8
_0-3_躯体と製品
  6
CONTINUOUS
 62
    4
 10
1011.199488508982
 20
613.59548944786252
 40
0.4999980000000049
 50
0.0000000000000052
 51
90.000000000000014
  0
LINE
  8
_0-3_躯体と製品
  6
CONTINUOUS
 62
    4
 10
1011.6994865089822
 20
613.59548944786252
 11
1011.6994865089822
 21
612.0954974478625
  0
ARC
  8
_0-3_躯体と製品
  6
CONTINUOUS
 62
    4
 10
1011.199488508982
 20
612.0954974478625
 40
0.4999980000000049
 50
270
 51
0.0000000000000127
  0
LINE
  8
_0-3_躯体と製品
  6
CONTINUOUS
 62
    4
 10
1011.199488508982
 20
611.59549944786249
 11
1010.7985105089823
 21
611.59549944786249
  0
LINE
  8
_0-3_躯体と製品
  6
CONTINUOUS
 62
    4
 10
1000.6005245089822
 20
614.09548744786252
 11
1000.1995445089817
 21
614.09548744786252
  0
ARC
  8
_0-3_躯体と製品
  6
CONTINUOUS
 62
    4
 10
1000.1995445089817
 20
613.59548944786252
 40
0.4999980000000049
 50
90
 51
180
  0
LINE
  8
_0-3_躯体と製品
  6
CONTINUOUS
 62
    4
 10
999.69954850898216
 20
613.59548944786252
 11
999.69954850898216
 21
612.0954974478625
  0
ARC
  8
_0-3_躯体と製品
  6
CONTINUOUS
 62
    4
 10
1000.1995445089817
 20
612.0954974478625
 40
0.4999980000000049
 50
180
 51
270
  0
LINE
  8
_0-3_躯体と製品
  6
CONTINUOUS
 62
    4
 10
1000.1995445089817
 20
611.59549944786249
 11
1000.6005245089822
 21
611.59549944786249
  0
LINE
  8
_0-3_躯体と製品
  6
CONTINUOUS
 62
    3
 10
1005.6995165089824
 20
607.07201944786243
 11
1000.6995425089821
 21
609.95875744786235
  0
LINE
  8
_0-3_躯体と製品
  6
CONTINUOUS
 62
    3
 10
1000.6995425089821
 20
609.95875744786235
 11
1000.6995425089821
 21
615.73222944786244
  0
LINE
  8
_0-3_躯体と製品
  6
CONTINUOUS
 62
    3
 10
1000.6995425089821
 20
615.73222944786244
 11
1005.6995165089824
 21
618.61896744786259
  0
LINE
  8
_0-3_躯体と製品
  6
CONTINUOUS
 62
    3
 10
1005.6995165089824
 20
618.61896744786259
 11
1010.6994925089823
 21
615.73222944786244
  0
LINE
  8
_0-3_躯体と製品
  6
CONTINUOUS
 62
    3
 10
1010.6994925089823
 20
615.73222944786244
 11
1010.6994925089823
 21
609.95875744786235
  0
LINE
  8
_0-3_躯体と製品
  6
CONTINUOUS
 62
    3
 10
1010.6994925089823
 20
609.95875744786235
 11
1005.6995165089824
 21
607.07201944786243
  0
LINE
  8
_0-3_躯体と製品
  6
CONTINUOUS
 62
    4
 10
282.58828246308212
 20
614.09548744786264
 11
282.98926046308179
 21
614.09548744786264
  0
ARC
  8
_0-3_躯体と製品
  6
CONTINUOUS
 62
    4
 10
282.98926046308179
 20
613.59548944786263
 40
0.4999980000000049
 50
0.0000000000000052
 51
90.000000000000014
  0
LINE
  8
_0-3_躯体と製品
  6
CONTINUOUS
 62
    4
 10
283.48925846308202
 20
613.59548944786263
 11
283.48925846308202
 21
612.09549744786261
  0
ARC
  8
_0-3_躯体と製品
  6
CONTINUOUS
 62
    4
 10
282.98926046308179
 20
612.09549744786261
 40
0.4999980000000049
 50
270
 51
0.0000000000000127
  0
LINE
  8
_0-3_躯体と製品
  6
CONTINUOUS
 62
    4
 10
282.98926046308179
 20
611.59549944786261
 11
282.58828246308212
 21
611.59549944786261
  0
LINE
  8
_0-3_躯体と製品
  6
CONTINUOUS
 62
    4
 10
272.390296463082
 20
614.09548744786264
 11
271.98931646308165
 21
614.09548744786264
  0
ARC
  8
_0-3_躯体と製品
  6
CONTINUOUS
 62
    4
 10
271.98931646308165
 20
613.59548944786263
 40
0.4999980000000049
 50
90
 51
180
  0
LINE
  8
_0-3_躯体と製品
  6
CONTINUOUS
 62
    4
 10
271.48932046308209
 20
613.59548944786263
 11
271.48932046308209
 21
612.09549744786261
  0
ARC
  8
_0-3_躯体と製品
  6
CONTINUOUS
 62
    4
 10
271.98931646308165
 20
612.09549744786261
 40
0.4999980000000049
 50
180
 51
270
  0
LINE
  8
_0-3_躯体と製品
  6
CONTINUOUS
 62
    4
 10
271.98931646308165
 20
611.59549944786261
 11
272.390296463082
 21
611.59549944786261
  0
LINE
  8
_0-3_躯体と製品
  6
CONTINUOUS
 62
    3
 10
277.48928846308218
 20
607.07201944786254
 11
272.48931446308188
 21
609.95875744786235
  0
LINE
  8
_0-3_躯体と製品
  6
CONTINUOUS
 62
    3
 10
272.48931446308188
 20
609.95875744786235
 11
272.48931446308188
 21
615.73222944786255
  0
LINE
  8
_0-3_躯体と製品
  6
CONTINUOUS
 62
    3
 10
272.48931446308188
 20
615.73222944786255
 11
277.48928846308218
 21
618.6189674478627
  0
LINE
  8
_0-3_躯体と製品
  6
CONTINUOUS
 62
    3
 10
277.48928846308218
 20
618.6189674478627
 11
282.48926446308224
 21
615.73222944786255
  0
LINE
  8
_0-3_躯体と製品
  6
CONTINUOUS
 62
    3
 10
282.48926446308224
 20
615.73222944786255
 11
282.48926446308224
 21
609.95875744786235
  0
LINE
  8
_0-3_躯体と製品
  6
CONTINUOUS
 62
    3
 10
282.48926446308224
 20
609.95875744786235
 11
277.48928846308218
 21
607.07201944786254
  0
LINE
  8
_0-3_躯体と製品
  6
CONTINUOUS
 62
    3
 10
359.48928846308263
 20
1869.3233734478636
 11
359.48928846308263
 21
1864.3234134478635
  0
ARC
  8
_0-3_躯体と製品
  6
CONTINUOUS
 62
    3
 10
358.48925046308295
 20
1869.3233734478631
 40
1.0000399999994443
 50
0.000000000026062
 51
90.000000000026077
  0
LINE
  8
_0-3_躯体と製品
  6
CONTINUOUS
 62
    3
 10
358.4892504630825
 20
1870.3234134478635
 11
350.48893446308284
 21
1870.3234134478635
  0
LINE
  8
_0-3_躯体と製品
  6
CONTINUOUS
 62
    3
 10
359.48928846308263
 20
1877.3234514478636
 11
359.48928846308263
 21
1882.3234134478635
  0
ARC
  8
_0-3_躯体と製品
  6
CONTINUOUS
 62
    3
 10
358.4892504630825
 20
1877.3234514478636
 40
1.0000400000000127
 50
270.00000000000648
 51
0.0000000000065264
  0
LINE
  8
_0-3_躯体と製品
  6
CONTINUOUS
 62
    3
 10
358.4892504630825
 20
1876.3234134478625
 11
350.48893446308284
 21
1876.3234134478625
  0
ARC
  8
_0-3_躯体と製品
  6
CONTINUOUS
 62
    3
 10
350.48893446308239
 20
1875.3233734478631
 40
1.0000399999994443
 50
89.999999999973952
 51
179.99999999997394
  0
LINE
  8
_0-3_躯体と製品
  6
CONTINUOUS
 62
    3
 10
349.48889646308271
 20
1875.3233734478636
 11
349.48889646308271
 21
1871.3234534478636
  0
ARC
  8
_0-3_躯体と製品
  6
CONTINUOUS
 62
    3
 10
350.48893446308284
 20
1871.3234534478634
 40
1.0000400000000127
 50
179.99999999999349
 51
269.99999999999346
  0
LINE
  8
_0-3_躯体と製品
  6
CONTINUOUS
 62
    6
 10
83.976799459508811
 20
653.84549344786274
 11
89.489288463082403
 21
659.35797146488926
  0
LINE
  8
_0-3_躯体と製品
  6
CONTINUOUS
 62
    3
 10
77.489288463082403
 20
766.84549344786251
 11
89.489288463082403
 21
766.84549344786296
  0
LINE
  8
_0-3_躯体と製品
  6
CONTINUOUS
 62
    3
 10
64.989288463082403
 20
758.84549344786274
 11
77.489288463082403
 21
758.84549344786274
  0
LINE
  8
_0-3_躯体と製品
  6
CONTINUOUS
 62
    3
 10
64.989288463082403
 20
1048.534823447862
 11
64.989288463082403
 21
758.84549344786274
  0
LINE
  8
_0-3_躯体と製品
  6
CONTINUOUS
 62
    3
 10
64.989288463082403
 20
756.84549344786274
 11
77.489288463082403
 21
756.84549344786274
  0
LINE
  8
_0-3_躯体と製品
  6
CONTINUOUS
 62
    6
 10
64.989288463082403
 20
736.71579344786278
 11
89.489288463082403
 21
761.21579344786255
  0
LINE
  8
_0-3_躯体と製品
  6
CONTINUOUS
 62
    6
 10
64.989288463082403
 20
753.68635344786253
 11
68.14842846308261
 21
756.84549344786251
  0
LINE
  8
_0-3_躯体と製品
  6
CONTINUOUS
 62
    6
 10
64.989288463082403
 20
702.77466344786217
 11
89.489288463082403
 21
727.27466344786194
  0
LINE
  8
_0-3_躯体と製品
  6
CONTINUOUS
 62
    6
 10
64.989288463082403
 20
685.80410344786242
 11
89.489288463082403
 21
710.30410344786219
  0
LINE
  8
_0-3_躯体と製品
  6
CONTINUOUS
 62
    6
 10
64.989288463082403
 20
719.74522344786192
 11
89.489288463082403
 21
744.24522344786192
  0
LINE
  8
_0-3_躯体と製品
  6
CONTINUOUS
 62
    3
 10
64.989288463082403
 20
653.84549344786274
 11
89.489288463082403
 21
653.84549344786274
  0
LINE
  8
_0-3_躯体と製品
  6
CONTINUOUS
 62
    6
 10
66.971762588498905
 20
653.84549344786251
 11
89.48928846308263
 21
676.36297444437696
  0
LINE
  8
_0-3_躯体と製品
  6
CONTINUOUS
 62
    6
 10
64.989288463082403
 20
668.83354481767492
 11
89.489288463082403
 21
693.33353367525865
  0
LINE
  8
_0-3_躯体と製品
  6
CONTINUOUS
 62
    3
 10
77.489288463082403
 20
1048.534823447862
 11
77.489288463082403
 21
756.84549344786274
  0
LINE
  8
_0-3_躯体と製品
  6
CONTINUOUS
 62
    3
 10
64.989288463082403
 20
758.84549344786274
 11
64.989288463082403
 21
653.84549344786251
  0
LINE
  8
_0-3_躯体と製品
  6
CONTINUOUS
 62
    3
 10
89.489288463082403
 20
653.84549344786274
 11
89.489288463082403
 21
766.84549344786296
  0
LINE
  8
_0-3_躯体と製品
  6
CONTINUOUS
 62
    4
 10
89.489288462714285
 20
648.84549344787297
 11
89.489288463082403
 21
666.84549344785978
  0
LINE
  8
_0-3_躯体と製品
  6
CONTINUOUS
 62
    4
 10
109.4892884630824
 20
666.84549344785978
 11
109.48928846308286
 21
648.84549344786001
  0
LINE
  8
_0-3_躯体と製品
  6
CONTINUOUS
 62
    4
 10
109.48928846308286
 20
648.84549344786001
 11
89.489288463082403
 21
648.84549344786001
  0
LINE
  8
_0-3_躯体と製品
  6
CONTINUOUS
 62
    6
 10
89.489288463082403
 20
649.63835344785934
 11
106.69642846308284
 21
666.84549344785978
  0
LINE
  8
_0-3_躯体と製品
  6
CONTINUOUS
 62
    6
 10
95.767498463083712
 20
648.84549344786001
 11
109.4892884630824
 21
662.56728344785847
  0
LINE
  8
_0-3_躯体と製品
  6
CONTINUOUS
 62
    6
 10
102.83855977014923
 20
648.84549344786024
 11
109.4892884630824
 21
655.49621344785896
  0
LINE
  8
_0-3_躯体と製品
  6
CONTINUOUS
 62
    6
 10
89.489288463082403
 20
656.70942344785976
 11
99.62535846308333
 21
666.84549344785978
  0
LINE
  8
_0-3_躯体と製品
  6
CONTINUOUS
 62
    6
 10
89.489288463082403
 20
663.78048344785952
 11
92.554288463083822
 21
666.84549344785978
  0
LINE
  8
_0-3_躯体と製品
  6
CONTINUOUS
 62
    3
 10
39.989288463082403
 20
816.84549344786137
 11
64.989288463082403
 21
816.84549344786137
  0
LINE
  8
_0-3_躯体と製品
  6
CONTINUOUS
 62
    3
 10
64.989288463082403
 20
1048.534823447862
 11
64.989288463082403
 21
789.59706344786173
  0
LINE
  8
_0-3_躯体と製品
  6
CONTINUOUS
 62
    3
 10
39.989288463082403
 20
763.67775344786241
 11
64.989288463082403
 21
763.67775344786241
  0
LINE
  8
_0-3_躯体と製品
  6
CONTINUOUS
 62
    3
 10
39.989288463082403
 20
743.67775344786241
 11
64.989288463082403
 21
743.67775344786241
  0
LINE
  8
_0-3_躯体と製品
  6
CONTINUOUS
 62
    3
 10
39.989288463082403
 20
690.33444344786221
 11
64.989288463082403
 21
690.33444344786221
  0
LINE
  8
_0-3_躯体と製品
  6
CONTINUOUS
 62
    3
 10
39.989288463082403
 20
743.67775344786241
 11
64.989288463082403
 21
690.33444344786221
  0
LINE
  8
_0-3_躯体と製品
  6
CONTINUOUS
 62
    3
 10
64.989288463082403
 20
763.67775344786241
 11
39.989288463082403
 21
816.84549344786137
  0
LINE
  8
_0-3_躯体と製品
  6
CONTINUOUS
 62
    6
 10
83.976799459509039
 20
1869.3234134478625
 11
89.48928846308263
 21
1874.8358914648895
  0
LINE
  8
_0-3_躯体と製品
  6
CONTINUOUS
 62
    3
 10
77.48928846308263
 20
1982.3234134478625
 11
89.48928846308263
 21
1982.3234134478635
  0
LINE
  8
_0-3_躯体と製品
  6
CONTINUOUS
 62
    3
 10
64.98928846308263
 20
1974.3234134478625
 11
77.48928846308263
 21
1974.3234134478625
  0
LINE
  8
_0-3_躯体と製品
  6
CONTINUOUS
 62
    3
 10
64.98928846308263
 20
2264.0127434478627
 11
64.98928846308263
 21
1974.3234134478625
  0
LINE
  8
_0-3_躯体と製品
  6
CONTINUOUS
 62
    3
 10
64.98928846308263
 20
1972.3234134478625
 11
77.48928846308263
 21
1972.3234134478625
  0
LINE
  8
_0-3_躯体と製品
  6
CONTINUOUS
 62
    6
 10
64.98928846308263
 20
1952.1937134478626
 11
89.48928846308263
 21
1976.6937134478626
  0
LINE
  8
_0-3_躯体と製品
  6
CONTINUOUS
 62
    6
 10
64.98928846308263
 20
1969.1642734478626
 11
68.148428463082837
 21
1972.3234134478625
  0
LINE
  8
_0-3_躯体と製品
  6
CONTINUOUS
 62
    6
 10
64.98928846308263
 20
1918.2525834478624
 11
89.48928846308263
 21
1942.7525834478624
  0
LINE
  8
_0-3_躯体と製品
  6
CONTINUOUS
 62
    6
 10
64.98928846308263
 20
1901.2820234478625
 11
89.48928846308263
 21
1925.7820234478625
  0
LINE
  8
_0-3_躯体と製品
  6
CONTINUOUS
 62
    6
 10
64.98928846308263
 20
1935.2231434478624
 11
89.48928846308263
 21
1959.7231434478624
  0
LINE
  8
_0-3_躯体と製品
  6
CONTINUOUS
 62
    3
 10
64.98928846308263
 20
1869.3234134478625
 11
89.48928846308263
 21
1869.3234134478625
  0
LINE
  8
_0-3_躯体と製品
  6
CONTINUOUS
 62
    6
 10
66.971762588499132
 20
1869.3234134478625
 11
89.489288463082858
 21
1891.8408944443765
  0
LINE
  8
_0-3_躯体と製品
  6
CONTINUOUS
 62
    6
 10
64.98928846308263
 20
1884.3114648176754
 11
89.48928846308263
 21
1908.8114536752585
  0
LINE
  8
_0-3_躯体と製品
  6
CONTINUOUS
 62
    3
 10
77.48928846308263
 20
2264.0127434478627
 11
77.48928846308263
 21
1972.3234134478625
  0
LINE
  8
_0-3_躯体と製品
  6
CONTINUOUS
 62
    3
 10
64.98928846308263
 20
1974.3234134478625
 11
64.98928846308263
 21
1869.3234134478625
  0
LINE
  8
_0-3_躯体と製品
  6
CONTINUOUS
 62
    3
 10
89.48928846308263
 20
1869.3234134478625
 11
89.48928846308263
 21
1982.3234134478635
  0
LINE
  8
_0-3_躯体と製品
  6
CONTINUOUS
 62
    4
 10
89.489288462714512
 20
1864.3234134478735
 11
89.48928846308263
 21
1882.3234134478596
  0
LINE
  8
_0-3_躯体と製品
  6
CONTINUOUS
 62
    4
 10
109.48928846308263
 20
1882.3234134478596
 11
109.48928846308308
 21
1864.3234134478605
  0
LINE
  8
_0-3_躯体と製品
  6
CONTINUOUS
 62
    4
 10
109.48928846308308
 20
1864.3234134478605
 11
89.48928846308263
 21
1864.3234134478605
  0
LINE
  8
_0-3_躯体と製品
  6
CONTINUOUS
 62
    6
 10
89.48928846308263
 20
1865.1162734478596
 11
106.69642846308307
 21
1882.3234134478596
  0
LINE
  8
_0-3_躯体と製品
  6
CONTINUOUS
 62
    6
 10
95.767498463083939
 20
1864.3234134478605
 11
109.48928846308263
 21
1878.0452034478585
  0
LINE
  8
_0-3_躯体と製品
  6
CONTINUOUS
 62
    6
 10
102.83855977014946
 20
1864.3234134478605
 11
109.48928846308263
 21
1870.9741334478595
  0
LINE
  8
_0-3_躯体と製品
  6
CONTINUOUS
 62
    6
 10
89.48928846308263
 20
1872.1873434478596
 11
99.625358463083558
 21
1882.3234134478596
  0
LINE
  8
_0-3_躯体と製品
  6
CONTINUOUS
 62
    6
 10
89.48928846308263
 20
1879.2584034478596
 11
92.554288463084049
 21
1882.3234134478596
  0
LINE
  8
_0-3_躯体と製品
  6
CONTINUOUS
 62
    3
 10
39.98928846308263
 20
2032.3234134478614
 11
64.98928846308263
 21
2032.3234134478614
  0
LINE
  8
_0-3_躯体と製品
  6
CONTINUOUS
 62
    3
 10
64.98928846308263
 20
2264.0127434478627
 11
64.98928846308263
 21
2005.0749834478615
  0
LINE
  8
_0-3_躯体と製品
  6
CONTINUOUS
 62
    3
 10
39.98928846308263
 20
1979.1556734478625
 11
64.98928846308263
 21
1979.1556734478625
  0
LINE
  8
_0-3_躯体と製品
  6
CONTINUOUS
 62
    3
 10
39.98928846308263
 20
1959.1556734478625
 11
64.98928846308263
 21
1959.1556734478625
  0
LINE
  8
_0-3_躯体と製品
  6
CONTINUOUS
 62
    3
 10
39.98928846308263
 20
1905.8123634478625
 11
64.98928846308263
 21
1905.8123634478625
  0
LINE
  8
_0-3_躯体と製品
  6
CONTINUOUS
 62
    3
 10
39.98928846308263
 20
1959.1556734478625
 11
64.98928846308263
 21
1905.8123634478625
  0
LINE
  8
_0-3_躯体と製品
  6
CONTINUOUS
 62
    4
 10
64.98928846308263
 20
1820.3234134478625
 11
64.98928846308263
 21
1864.3234134478625
  0
LINE
  8
_0-3_躯体と製品
  6
CONTINUOUS
 62
    3
 10
64.98928846308263
 20
1979.1556734478625
 11
39.98928846308263
 21
2032.3234134478614
  0
LINE
  8
_0-3_躯体と製品
  6
CONTINUOUS
 62
    6
 10
1909.1015294595084
 20
1869.3234134478625
 11
1914.6140184630824
 21
1874.8358914648895
  0
LINE
  8
_0-3_躯体と製品
  6
CONTINUOUS
 62
    3
 10
1902.6140184630824
 20
1982.3234134478625
 11
1914.6140184630824
 21
1982.3234134478635
  0
LINE
  8
_0-3_躯体と製品
  6
CONTINUOUS
 62
    3
 10
1890.1140184630824
 20
1974.3234134478625
 11
1902.6140184630824
 21
1974.3234134478625
  0
LINE
  8
_0-3_躯体と製品
  6
CONTINUOUS
 62
    3
 10
1890.1140184630824
 20
2264.0127434478627
 11
1890.1140184630824
 21
1974.3234134478625
  0
LINE
  8
_0-3_躯体と製品
  6
CONTINUOUS
 62
    3
 10
1890.1140184630824
 20
1972.3234134478625
 11
1902.6140184630824
 21
1972.3234134478625
  0
LINE
  8
_0-3_躯体と製品
  6
CONTINUOUS
 62
    6
 10
1890.1140184630824
 20
1952.1937134478626
 11
1914.6140184630824
 21
1976.6937134478626
  0
LINE
  8
_0-3_躯体と製品
  6
CONTINUOUS
 62
    6
 10
1890.1140184630824
 20
1969.1642734478626
 11
1893.2731584630824
 21
1972.3234134478625
  0
LINE
  8
_0-3_躯体と製品
  6
CONTINUOUS
 62
    6
 10
1890.1140184630824
 20
1918.2525834478624
 11
1914.6140184630824
 21
1942.7525834478624
  0
LINE
  8
_0-3_躯体と製品
  6
CONTINUOUS
 62
    6
 10
1890.1140184630824
 20
1901.2820234478625
 11
1914.6140184630824
 21
1925.7820234478625
  0
LINE
  8
_0-3_躯体と製品
  6
CONTINUOUS
 62
    6
 10
1890.1140184630824
 20
1935.2231434478624
 11
1914.6140184630824
 21
1959.7231434478624
  0
LINE
  8
_0-3_躯体と製品
  6
CONTINUOUS
 62
    3
 10
1890.1140184630824
 20
1869.3234134478625
 11
1914.6140184630824
 21
1869.3234134478625
  0
LINE
  8
_0-3_躯体と製品
  6
CONTINUOUS
 62
    6
 10
1892.0964925884984
 20
1869.3234134478625
 11
1914.6140184630824
 21
1891.8408944443765
  0
LINE
  8
_0-3_躯体と製品
  6
CONTINUOUS
 62
    6
 10
1890.1140184630824
 20
1884.3114648176754
 11
1914.6140184630824
 21
1908.8114536752585
  0
LINE
  8
_0-3_躯体と製品
  6
CONTINUOUS
 62
    3
 10
1902.6140184630824
 20
2264.0127434478627
 11
1902.6140184630824
 21
1972.3234134478625
  0
LINE
  8
_0-3_躯体と製品
  6
CONTINUOUS
 62
    3
 10
1890.1140184630824
 20
1974.3234134478625
 11
1890.1140184630824
 21
1869.3234134478625
  0
LINE
  8
_0-3_躯体と製品
  6
CONTINUOUS
 62
    3
 10
1914.6140184630824
 20
1869.3234134478625
 11
1914.6140184630824
 21
1982.3234134478635
  0
LINE
  8
_0-3_躯体と製品
  6
CONTINUOUS
 62
    4
 10
1914.6140184627145
 20
1864.3234134478735
 11
1914.6140184630824
 21
1882.3234134478596
  0
LINE
  8
_0-3_躯体と製品
  6
CONTINUOUS
 62
    4
 10
1934.6140184630824
 20
1882.3234134478596
 11
1934.6140184630835
 21
1864.3234134478605
  0
LINE
  8
_0-3_躯体と製品
  6
CONTINUOUS
 62
    4
 10
1934.6140184630835
 20
1864.3234134478605
 11
1914.6140184630824
 21
1864.3234134478605
  0
LINE
  8
_0-3_躯体と製品
  6
CONTINUOUS
 62
    6
 10
1914.6140184630824
 20
1865.1162734478596
 11
1931.8211584630824
 21
1882.3234134478596
  0
LINE
  8
_0-3_躯体と製品
  6
CONTINUOUS
 62
    6
 10
1920.8922284630835
 20
1864.3234134478605
 11
1934.6140184630824
 21
1878.0452034478585
  0
LINE
  8
_0-3_躯体と製品
  6
CONTINUOUS
 62
    6
 10
1927.9632897701495
 20
1864.3234134478605
 11
1934.6140184630824
 21
1870.9741334478595
  0
LINE
  8
_0-3_躯体と製品
  6
CONTINUOUS
 62
    6
 10
1914.6140184630824
 20
1872.1873434478596
 11
1924.7500884630836
 21
1882.3234134478596
  0
LINE
  8
_0-3_躯体と製品
  6
CONTINUOUS
 62
    6
 10
1914.6140184630824
 20
1879.2584034478596
 11
1917.6790184630845
 21
1882.3234134478596
  0
LINE
  8
_0-3_躯体と製品
  6
CONTINUOUS
 62
    3
 10
815.7005165089821
 20
653.84545344786318
 11
815.7005165089821
 21
648.8454934478633
  0
ARC
  8
_0-3_躯体と製品
  6
CONTINUOUS
 62
    3
 10
814.70047850898209
 20
653.84545344786318
 40
1.0000400000000127
 50
0.0000000000000052
 51
90.000000000000014
  0
LINE
  8
_0-3_躯体と製品
  6
CONTINUOUS
 62
    3
 10
814.70047850898209
 20
654.8454934478633
 11
806.70016250898243
 21
654.8454934478633
  0
LINE
  8
_0-3_躯体と製品
  6
CONTINUOUS
 62
    3
 10
815.7005165089821
 20
661.84553144786321
 11
815.7005165089821
 21
666.84549344786308
  0
ARC
  8
_0-3_躯体と製品
  6
CONTINUOUS
 62
    3
 10
814.70047850898209
 20
661.84553144786321
 40
1.0000400000000127
 50
270
 51
0.0000000000000127
  0
LINE
  8
_0-3_躯体と製品
  6
CONTINUOUS
 62
    3
 10
814.70047850898209
 20
660.84549344786308
 11
806.70016250898243
 21
660.84549344786308
  0
ARC
  8
_0-3_躯体と製品
  6
CONTINUOUS
 62
    3
 10
806.70016250898232
 20
659.84545344786306
 40
1.0000400000000695
 50
89.999999999996746
 51
179.99999999999673
  0
LINE
  8
_0-3_躯体と製品
  6
CONTINUOUS
 62
    3
 10
805.7001245089823
 20
659.84545344786318
 11
805.7001245089823
 21
655.8455334478632
  0
ARC
  8
_0-3_躯体と製品
  6
CONTINUOUS
 62
    3
 10
806.70016250898243
 20
655.8455334478632
 40
1.0000400000000695
 50
180.00000000000327
 51
270.0000000000033
  0
LINE
  8
_0-3_躯体と製品
  6
CONTINUOUS
 62
    3
 10
2509.3211531421243
 20
1869.3233734478636
 11
2509.3211531421243
 21
1864.3234134478635
  0
ARC
  8
_0-3_躯体と製品
  6
CONTINUOUS
 62
    3
 10
2508.3211151421247
 20
1869.3233734478636
 40
1.000039999999899
 50
0.0000000000000052
 51
90.000000000000014
  0
LINE
  8
_0-3_躯体と製品
  6
CONTINUOUS
 62
    3
 10
2508.3211151421247
 20
1870.3234134478635
 11
2500.3207991421255
 21
1870.3234134478635
  0
LINE
  8
_0-3_躯体と製品
  6
CONTINUOUS
 62
    3
 10
2509.3211531421243
 20
1877.3234514478636
 11
2509.3211531421243
 21
1882.3234134478635
  0
ARC
  8
_0-3_躯体と製品
  6
CONTINUOUS
 62
    3
 10
2508.3211151421247
 20
1877.3234514478636
 40
1.0000400000000127
 50
270.00000000000648
 51
0.0000000000065264
  0
LINE
  8
_0-3_躯体と製品
  6
CONTINUOUS
 62
    3
 10
2508.3211151421247
 20
1876.3234134478635
 11
2500.3207991421255
 21
1876.3234134478635
  0
ARC
  8
_0-3_躯体と製品
  6
CONTINUOUS
 62
    3
 10
2500.3207991421255
 20
1875.3233734478636
 40
1.000039999999899
 50
90
 51
180
  0
LINE
  8
_0-3_躯体と製品
  6
CONTINUOUS
 62
    3
 10
2499.3207611421253
 20
1875.3233734478636
 11
2499.3207611421253
 21
1871.3234534478636
  0
ARC
  8
_0-3_躯体と製品
  6
CONTINUOUS
 62
    3
 10
2500.3207991421255
 20
1871.3234534478634
 40
1.0000400000000127
 50
179.99999999999349
 51
269.99999999999346
  0
LINE
  8
_0-3_躯体と製品
  6
CONTINUOUS
 62
    4
 10
2282.6137184630834
 20
1864.3234134478625
 11
3188.7347284630832
 21
1864.3234134478635
  0
LINE
  8
_0-3_躯体と製品
  6
CONTINUOUS
 62
    4
 10
1890.1140184630824
 20
1864.3234134478625
 11
2122.6143184630837
 21
1864.3234134478625
  0
LINE
  8
_0-3_躯体と製品
  6
CONTINUOUS
 62
    3
 10
2282.6137184630834
 20
1854.3234134478625
 11
3188.7347284630832
 21
1854.3234134478635
  0
LINE
  8
_0-3_躯体と製品
  6
CONTINUOUS
 62
    3
 10
1890.1140184630824
 20
1854.3234134478625
 11
2122.6143184630837
 21
1854.3234134478625
  0
LINE
  8
_0-3_躯体と製品
  6
CONTINUOUS
 62
    3
 10
2282.6137184630834
 20
1859.3234134478635
 11
3188.7347284630832
 21
1859.3234134478635
  0
LINE
  8
_0-3_躯体と製品
  6
CONTINUOUS
 62
    3
 10
1890.1140184630824
 20
1859.3234134478625
 11
2122.6143184630837
 21
1859.3234134478625
  0
LINE
  8
_0-3_躯体と製品
  6
CONTINUOUS
 62
    4
 10
1914.6140184630824
 20
1882.3234134479544
 11
3188.7347284630832
 21
1882.3234134478635
  0
LINE
  8
_0-3_躯体と製品
  6
CONTINUOUS
 62
    4
 10
1890.1140184630824
 20
1849.3234134478625
 11
3188.7347284630832
 21
1849.3234134478635
  0
LINE
  8
_0-3_躯体と製品
  6
CONTINUOUS
 62
    4
 10
285.48928846308218
 20
519.40333363295838
 11
285.48928846308218
 21
335.68765434711293
  0
LINE
  8
_0-3_躯体と製品
  6
CONTINUOUS
 62
    4
 10
269.4892884630824
 20
519.4033335934256
 11
269.4892884630824
 21
335.68765516336566
  0
LINE
  8
_0-3_躯体と製品
  6
CONTINUOUS
 62
    3
 10
283.98929646308216
 20
519.25530191408689
 11
283.98929646308216
 21
335.83568635838094
  0
LINE
  8
_0-3_躯体と製品
  6
CONTINUOUS
 62
    3
 10
270.98928046308242
 20
519.25530184557465
 11
270.98928046308242
 21
335.83568661881986
  0
LINE
  8
_0-3_躯体と製品
  6
CONTINUOUS
 62
    4
 10
1030.6993895089822
 20
552.84549344786296
 11
1406.3345465089835
 21
552.84549344786296
  0
LINE
  8
_0-3_躯体と製品
  6
CONTINUOUS
 62
    4
 10
518.55893650898247
 20
633.84549344786262
 11
1406.3345465089835
 21
633.84549344786296
  0
LINE
  8
_0-3_躯体と製品
  6
CONTINUOUS
 62
    4
 10
77.48928846308263
 20
633.84549344786251
 11
471.38204846308145
 21
633.84549344786262
  0
LINE
  8
_0-3_躯体と製品
  6
CONTINUOUS
 62
    4
 10
518.55893650898247
 20
666.84549344786308
 11
1406.3345465089835
 21
666.84549344786308
  0
LINE
  8
_0-3_躯体と製品
  6
CONTINUOUS
 62
    4
 10
89.489288463082403
 20
666.84549344786308
 11
471.38204846308145
 21
666.84549344786308
  0
LINE
  8
_0-3_躯体と製品
  6
CONTINUOUS
 62
    4
 10
518.55893650898247
 20
648.84549344786262
 11
1406.3345465089835
 21
648.84549344786296
  0
LINE
  8
_0-3_躯体と製品
  6
CONTINUOUS
 62
    4
 10
77.48928846308263
 20
648.84549344786251
 11
471.38204846308145
 21
648.84549344786262
  0
LINE
  8
_0-3_躯体と製品
  6
CONTINUOUS
 62
    4
 10
1030.6993895089822
 20
602.84549344786296
 11
1406.3345465089835
 21
602.84549344786296
  0
LINE
  8
_0-3_躯体と製品
  6
CONTINUOUS
 62
    3
 10
518.55893650898247
 20
643.84549344786274
 11
1406.3345465089835
 21
643.84549344786296
  0
LINE
  8
_0-3_躯体と製品
  6
CONTINUOUS
 62
    3
 10
77.48928846308263
 20
643.84549344786251
 11
471.38204846308145
 21
643.84549344786274
  0
LINE
  8
_0-3_躯体と製品
  6
CONTINUOUS
 62
    3
 10
518.55893650898247
 20
638.84549344786262
 11
1406.3345465089835
 21
638.84549344786296
  0
LINE
  8
_0-3_躯体と製品
  6
CONTINUOUS
 62
    3
 10
77.48928846308263
 20
638.84549344786251
 11
471.38204846308145
 21
638.84549344786262
  0
LINE
  8
_0-3_躯体と製品
  6
CONTINUOUS
 62
    4
 10
518.55893650898247
 20
552.84549344786296
 11
980.69964350898181
 21
552.84549344786296
  0
LINE
  8
_0-3_躯体と製品
  6
CONTINUOUS
 62
    4
 10
302.48916146308193
 20
552.84549344786296
 11
471.38204846308122
 21
552.84549344786296
  0
LINE
  8
_0-3_躯体と製品
  6
CONTINUOUS
 62
    4
 10
77.489288463082403
 20
552.84549344786274
 11
252.48941546308151
 21
552.84549344786296
  0
LINE
  8
_0-3_躯体と製品
  6
CONTINUOUS
 62
    4
 10
252.48941546308151
 20
602.84549344786296
 11
77.489288463082403
 21
602.84549344786274
  0
LINE
  8
_0-3_躯体と製品
  6
CONTINUOUS
 62
    4
 10
471.38204846308122
 20
602.84549344786296
 11
302.48916146308193
 21
602.84549344786296
  0
LINE
  8
_0-3_躯体と製品
  6
CONTINUOUS
 62
    4
 10
980.69964350898181
 20
602.84549344786296
 11
518.55893650898247
 21
602.84549344786296
  0
LINE
  8
_0-3_躯体と製品
  6
CONTINUOUS
 62
    4
 10
1013.6995165089825
 20
519.40333363295827
 11
1013.6995165089825
 21
335.68765434711281
  0
LINE
  8
_0-3_躯体と製品
  6
CONTINUOUS
 62
    4
 10
997.69951650898247
 20
519.40333359342549
 11
997.69951650898247
 21
335.68765516336555
  0
LINE
  8
_0-3_躯体と製品
  6
CONTINUOUS
 62
    3
 10
1012.1995245089824
 20
519.25530191408677
 11
1012.1995245089824
 21
335.83568635838083
  0
LINE
  8
_0-3_躯体と製品
  6
CONTINUOUS
 62
    3
 10
999.19950850898249
 20
519.25530184557465
 11
999.19950850898249
 21
335.83568661881986
  0
LINE
  8
_0-3_躯体と製品
  6
CONTINUOUS
 62
    4
 10
2022.4140184630705
 20
1820.3234134478625
 11
1890.1140184630824
 21
1820.3234134478625
  0
LINE
  8
_0-3_躯体と製品
  6
CONTINUOUS
 62
    3
 10
2022.4140184630705
 20
1823.3234134478635
 11
1890.1140184630824
 21
1823.3234134478635
  0
LINE
  8
_0-3_躯体と製品
  6
CONTINUOUS
 62
    4
 10
2832.8140184630643
 20
1820.3234134478625
 11
3188.7347284630832
 21
1820.3234134478625
  0
LINE
  8
_0-3_躯体と製品
  6
CONTINUOUS
 62
    4
 10
2772.4140184630705
 20
1820.3234134478625
 11
2082.8140184630647
 21
1820.3234134478625
  0
LINE
  8
_0-3_躯体と製品
  6
CONTINUOUS
 62
    3
 10
2832.8140184630643
 20
1823.3234134478635
 11
3188.7347284630832
 21
1823.3234134478635
  0
LINE
  8
_0-3_躯体と製品
  6
CONTINUOUS
 62
    3
 10
2772.4140184630705
 20
1823.3234134478635
 11
2082.8140184630647
 21
1823.3234134478635
  0
LINE
  8
_0-3_躯体と製品
  6
CONTINUOUS
 62
    4
 10
197.28928846307053
 20
1820.3234134478635
 11
64.98928846308263
 21
1820.3234134478635
  0
LINE
  8
_0-3_躯体と製品
  6
CONTINUOUS
 62
    3
 10
220.98928846308218
 20
1734.7234134478585
 11
220.98928846308218
 21
1551.3234141315404
  0
LINE
  8
_0-3_躯体と製品
  6
CONTINUOUS
 62
    3
 10
233.98928846308218
 20
1734.7234134478585
 11
233.98928846308218
 21
1551.3234141315404
  0
LINE
  8
_0-3_躯体と製品
  6
CONTINUOUS
 62
    4
 10
219.48928846308218
 20
1734.7234134478585
 11
219.48928846308218
 21
1551.3234141315404
  0
LINE
  8
_0-3_躯体と製品
  6
CONTINUOUS
 62
    4
 10
235.48928846308218
 20
1734.7234134478585
 11
235.48928846308218
 21
1551.3234141315404
  0
LINE
  8
_0-3_躯体と製品
  6
CONTINUOUS
 62
    3
 10
197.28928846307053
 20
1823.3234134478635
 11
64.98928846308263
 21
1823.3234134478635
  0
LINE
  8
_0-3_躯体と製品
  6
CONTINUOUS
 62
    3
 10
928.83792150898273
 20
1869.3233734478636
 11
928.83792150898273
 21
1864.3234134478635
  0
ARC
  8
_0-3_躯体と製品
  6
CONTINUOUS
 62
    3
 10
927.83788350898271
 20
1869.3233734478636
 40
1.0000399999999559
 50
0.0000000000032618
 51
90.000000000003268
  0
LINE
  8
_0-3_躯体と製品
  6
CONTINUOUS
 62
    3
 10
927.8378835089826
 20
1870.3234134478635
 11
919.83756750898294
 21
1870.3234134478635
  0
LINE
  8
_0-3_躯体と製品
  6
CONTINUOUS
 62
    3
 10
928.83792150898273
 20
1877.3234514478636
 11
928.83792150898273
 21
1882.3234134478635
  0
ARC
  8
_0-3_躯体と製品
  6
CONTINUOUS
 62
    3
 10
927.8378835089826
 20
1877.3234514478636
 40
1.0000400000000695
 50
270.00000000000324
 51
0.0000000000032696
  0
LINE
  8
_0-3_躯体と製品
  6
CONTINUOUS
 62
    3
 10
927.8378835089826
 20
1876.3234134478635
 11
919.83756750898294
 21
1876.3234134478635
  0
ARC
  8
_0-3_躯体と製品
  6
CONTINUOUS
 62
    3
 10
919.83756750898283
 20
1875.3233734478636
 40
1.0000399999999559
 50
89.999999999996746
 51
179.99999999999673
  0
LINE
  8
_0-3_躯体と製品
  6
CONTINUOUS
 62
    3
 10
918.83752950898281
 20
1875.3233734478636
 11
918.83752950898281
 21
1871.3234534478636
  0
ARC
  8
_0-3_躯体と製品
  6
CONTINUOUS
 62
    3
 10
919.83756750898306
 20
1871.3234534478634
 40
1.0000400000000695
 50
179.99999999999673
 51
269.99999999999676
  0
LINE
  8
_0-3_躯体と製品
  6
CONTINUOUS
 62
    4
 10
1035.899516508965
 20
1820.3234134478635
 11
1339.1169065089825
 21
1820.3234134478635
  0
LINE
  8
_0-3_躯体と製品
  6
CONTINUOUS
 62
    4
 10
518.55893650898292
 20
1864.3234134478625
 11
1339.1169065089825
 21
1864.3234134478635
  0
LINE
  8
_0-3_躯体と製品
  6
CONTINUOUS
 62
    4
 10
64.98928846308263
 20
1864.3234134478625
 11
471.38204846308145
 21
1864.3234134478625
  0
LINE
  8
_0-3_躯体と製品
  6
CONTINUOUS
 62
    3
 10
518.55893650898292
 20
1854.3234134478625
 11
1339.1169065089825
 21
1854.3234134478635
  0
LINE
  8
_0-3_躯体と製品
  6
CONTINUOUS
 62
    3
 10
64.98928846308263
 20
1854.3234134478625
 11
471.38204846308145
 21
1854.3234134478625
  0
LINE
  8
_0-3_躯体と製品
  6
CONTINUOUS
 62
    3
 10
518.55893650898292
 20
1859.3234134478635
 11
1339.1169065089825
 21
1859.3234134478635
  0
LINE
  8
_0-3_躯体と製品
  6
CONTINUOUS
 62
    3
 10
64.98928846308263
 20
1859.3234134478625
 11
471.38204846308145
 21
1859.3234134478635
  0
LINE
  8
_0-3_躯体と製品
  6
CONTINUOUS
 62
    4
 10
518.55893650898292
 20
1882.3234134478635
 11
1339.1169065089825
 21
1882.3234134478635
  0
LINE
  8
_0-3_躯体と製品
  6
CONTINUOUS
 62
    4
 10
89.48928846308263
 20
1882.3234134478625
 11
471.38204846308145
 21
1882.3234134478635
  0
LINE
  8
_0-3_躯体と製品
  6
CONTINUOUS
 62
    4
 10
518.55893650898292
 20
1849.3234134478635
 11
1339.1169065089825
 21
1849.3234134478635
  0
LINE
  8
_0-3_躯体と製品
  6
CONTINUOUS
 62
    4
 10
64.98928846308263
 20
1849.3234134478625
 11
471.38204846308145
 21
1849.3234134478635
  0
LINE
  8
_0-3_躯体と製品
  6
CONTINUOUS
 62
    4
 10
471.38204846308145
 20
1820.3234134478635
 11
257.68928846306471
 21
1820.3234134478635
  0
LINE
  8
_0-3_躯体と製品
  6
CONTINUOUS
 62
    4
 10
975.49951650897094
 20
1820.3234134478635
 11
518.55893650898292
 21
1820.3234134478635
  0
LINE
  8
_0-3_躯体と製品
  6
CONTINUOUS
 62
    3
 10
1035.899516508965
 20
1823.3234134478635
 11
1339.1169065089825
 21
1823.3234134478635
  0
LINE
  8
_0-3_躯体と製品
  6
CONTINUOUS
 62
    3
 10
471.38204846308145
 20
1823.3234134478635
 11
257.68928846306471
 21
1823.3234134478635
  0
LINE
  8
_0-3_躯体と製品
  6
CONTINUOUS
 62
    3
 10
975.49951650897094
 20
1823.3234134478635
 11
518.55893650898292
 21
1823.3234134478635
  0
LINE
  8
_0-2_寸法
  6
CONTINUOUS
 62
    4
 10
1005.6995165089826
 20
1257.5373734478626
 11
1352.8584465089825
 21
1257.5373734478626
  0
LINE
  8
_0-2_寸法
  6
CONTINUOUS
 62
    4
 10
2802.8640184630826
 20
1257.5373734478626
 11
3201.2347284630823
 21
1257.5373734478626
  0
LINE
  8
_0-2_寸法
  6
CONTINUOUS
 62
    4
 10
1005.6995165089826
 20
53.710078542473639
 11
1422.2963165089825
 21
53.710078542473639
  0
LINE
  8
_0-2_寸法
  6
CONTINUOUS
 62
    4
 10
1155.7005165089822
 20
764.99784344786258
 11
1406.3345465089835
 21
764.99784344786258
  0
LINE
  8
_0-3_躯体と製品
  6
CONTINUOUS
 62
    3
 10
2928.8728184630836
 20
1334.8641534478625
 11
2976.3320784630832
 21
1382.323413447863
  0
LINE
  8
_0-3_躯体と製品
  6
CONTINUOUS
 62
    3
 10
2943.0149584630826
 20
1334.8641534478625
 11
2990.4742184630836
 21
1382.323413447863
  0
LINE
  8
_0-3_躯体と製品
  6
CONTINUOUS
 62
    3
 10
2962.1899484630835
 20
1382.323413447863
 11
2914.7306784630823
 21
1334.8641534478625
  0
ARC
  8
_0-3_躯体と製品
  6
CONTINUOUS
 62
    3
 10
2271.6140184630835
 20
2245.6253534478615
 40
2.4999999999999996
 50
0.0000000000000052
 51
90.000000000000014
  0
LINE
  8
_0-3_躯体と製品
  6
CONTINUOUS
 62
    3
 10
2274.1140184630835
 20
2245.6253534478615
 11
2274.1140184630835
 21
2245.1253534478606
  0
ARC
  8
_0-3_躯体と製品
  6
CONTINUOUS
 62
    3
 10
2271.6140184630835
 20
2245.1253534478606
 40
2.4999999999999996
 50
270
 51
0.0000000000000127
  0
ARC
  8
_0-3_躯体と製品
  6
CONTINUOUS
 62
    3
 10
2271.6140184630835
 20
2231.6253534478615
 40
2.4999999999999996
 50
0.0000000000000052
 51
90.000000000000014
  0
LINE
  8
_0-3_躯体と製品
  6
CONTINUOUS
 62
    3
 10
2274.1140184630835
 20
2231.6253534478615
 11
2274.1140184630835
 21
2231.1253534478628
  0
ARC
  8
_0-3_躯体と製品
  6
CONTINUOUS
 62
    3
 10
2271.6140184630835
 20
2231.1253534478628
 40
2.4999999999999996
 50
270
 51
0.0000000000000127
  0
ARC
  8
_0-3_躯体と製品
  6
CONTINUOUS
 62
    3
 10
2271.6140184630835
 20
2217.6253534478606
 40
2.4999999999999996
 50
0.0000000000000052
 51
90.000000000000014
  0
LINE
  8
_0-3_躯体と製品
  6
CONTINUOUS
 62
    3
 10
2274.1140184630835
 20
2217.6253534478606
 11
2274.1140184630835
 21
2217.1253534478615
  0
ARC
  8
_0-3_躯体と製品
  6
CONTINUOUS
 62
    3
 10
2271.6140184630835
 20
2217.1253534478615
 40
2.4999999999999996
 50
270
 51
0.0000000000000127
  0
ARC
  8
_0-3_躯体と製品
  6
CONTINUOUS
 62
    3
 10
2271.6140184630835
 20
2203.6253534478628
 40
2.4999999999999996
 50
0.0000000000000052
 51
90.000000000000014
  0
LINE
  8
_0-3_躯体と製品
  6
CONTINUOUS
 62
    3
 10
2274.1140184630835
 20
2203.6253534478628
 11
2274.1140184630835
 21
2203.1253534478615
  0
ARC
  8
_0-3_躯体と製品
  6
CONTINUOUS
 62
    3
 10
2271.6140184630835
 20
2203.1253534478615
 40
2.4999999999999996
 50
270
 51
0.0000000000000127
  0
ARC
  8
_0-3_躯体と製品
  6
CONTINUOUS
 62
    3
 10
2271.6140184630835
 20
2189.6253534478615
 40
2.4999999999999996
 50
0.0000000000000052
 51
90.000000000000014
  0
LINE
  8
_0-3_躯体と製品
  6
CONTINUOUS
 62
    3
 10
2274.1140184630835
 20
2189.6253534478615
 11
2274.1140184630835
 21
2189.1253534478615
  0
ARC
  8
_0-3_躯体と製品
  6
CONTINUOUS
 62
    3
 10
2271.6140184630835
 20
2189.1253534478615
 40
2.4999999999999996
 50
270
 51
0.0000000000000127
  0
ARC
  8
_0-3_躯体と製品
  6
CONTINUOUS
 62
    3
 10
2271.6140184630835
 20
2175.6253534478615
 40
2.4999999999999996
 50
0.0000000000000052
 51
90.000000000000014
  0
LINE
  8
_0-3_躯体と製品
  6
CONTINUOUS
 62
    3
 10
2274.1140184630835
 20
2175.6253534478615
 11
2274.1140184630835
 21
2175.1253534478606
  0
ARC
  8
_0-3_躯体と製品
  6
CONTINUOUS
 62
    3
 10
2271.614018463084
 20
2175.125353447861
 40
2.4999999999995453
 50
269.9999999999896
 51
359.9999999999896
  0
ARC
  8
_0-3_躯体と製品
  6
CONTINUOUS
 62
    3
 10
2271.6140184630835
 20
2161.6253534478615
 40
2.4999999999999996
 50
0.0000000000000052
 51
90.000000000000014
  0
LINE
  8
_0-3_躯体と製品
  6
CONTINUOUS
 62
    3
 10
2274.1140184630835
 20
2161.6253534478615
 11
2274.1140184630835
 21
2161.1253534478628
  0
ARC
  8
_0-3_躯体と製品
  6
CONTINUOUS
 62
    3
 10
2271.6140184630835
 20
2161.1253534478628
 40
2.4999999999999996
 50
270
 51
0.0000000000000127
  0
ARC
  8
_0-3_躯体と製品
  6
CONTINUOUS
 62
    3
 10
2271.614018463084
 20
2147.625353447861
 40
2.4999999999995453
 50
0.0000000000104271
 51
90.000000000010445
  0
LINE
  8
_0-3_躯体と製品
  6
CONTINUOUS
 62
    3
 10
2274.1140184630835
 20
2147.6253534478615
 11
2274.1140184630835
 21
2147.1253534478615
  0
ARC
  8
_0-3_躯体と製品
  6
CONTINUOUS
 62
    3
 10
2271.6140184630835
 20
2147.1253534478615
 40
2.4999999999999996
 50
270
 51
0.0000000000000127
  0
ARC
  8
_0-3_躯体と製品
  6
CONTINUOUS
 62
    3
 10
2271.6140184630835
 20
2133.6253534478628
 40
2.4999999999999996
 50
0.0000000000000052
 51
90.000000000000014
  0
LINE
  8
_0-3_躯体と製品
  6
CONTINUOUS
 62
    3
 10
2274.1140184630835
 20
2133.6253534478628
 11
2274.1140184630835
 21
2133.1253534478615
  0
ARC
  8
_0-3_躯体と製品
  6
CONTINUOUS
 62
    3
 10
2271.6140184630835
 20
2133.1253534478615
 40
2.4999999999999996
 50
270
 51
0.0000000000000127
  0
ARC
  8
_0-3_躯体と製品
  6
CONTINUOUS
 62
    3
 10
2271.6140184630835
 20
2119.6253534478615
 40
2.4999999999999996
 50
0.0000000000000052
 51
90.000000000000014
  0
LINE
  8
_0-3_躯体と製品
  6
CONTINUOUS
 62
    3
 10
2274.1140184630835
 20
2119.6253534478615
 11
2274.1140184630835
 21
2119.1253534478615
  0
ARC
  8
_0-3_躯体と製品
  6
CONTINUOUS
 62
    3
 10
2271.6140184630835
 20
2119.1253534478615
 40
2.4999999999999996
 50
270
 51
0.0000000000000127
  0
ARC
  8
_0-3_躯体と製品
  6
CONTINUOUS
 62
    3
 10
2249.1140184630835
 20
2245.1253534478606
 40
2.4999999999999996
 50
180
 51
270
  0
LINE
  8
_0-3_躯体と製品
  6
CONTINUOUS
 62
    3
 10
2246.6140184630835
 20
2245.1253534478606
 11
2246.6140184630835
 21
2245.6253534478615
  0
ARC
  8
_0-3_躯体と製品
  6
CONTINUOUS
 62
    3
 10
2249.1140184630835
 20
2245.6253534478615
 40
2.4999999999999996
 50
90
 51
180
  0
ARC
  8
_0-3_躯体と製品
  6
CONTINUOUS
 62
    3
 10
2237.1140184630831
 20
2245.1253534478601
 40
2.4999999999994311
 50
270.00000000001302
 51
0.0000000000130402
  0
LINE
  8
_0-3_躯体と製品
  6
CONTINUOUS
 62
    3
 10
2239.6140184630822
 20
2245.1253534478606
 11
2239.6140184630822
 21
2245.6253534478615
  0
ARC
  8
_0-3_躯体と製品
  6
CONTINUOUS
 62
    3
 10
2237.1140184630831
 20
2245.6253534478619
 40
2.4999999999994311
 50
359.99999999998698
 51
89.999999999986997
  0
ARC
  8
_0-3_躯体と製品
  6
CONTINUOUS
 62
    3
 10
2249.1140184630835
 20
2231.1253534478628
 40
2.4999999999999996
 50
180
 51
270
  0
LINE
  8
_0-3_躯体と製品
  6
CONTINUOUS
 62
    3
 10
2246.6140184630835
 20
2231.1253534478628
 11
2246.6140184630835
 21
2231.6253534478615
  0
ARC
  8
_0-3_躯体と製品
  6
CONTINUOUS
 62
    3
 10
2249.1140184630835
 20
2231.6253534478615
 40
2.4999999999999996
 50
90
 51
180
  0
ARC
  8
_0-3_躯体と製品
  6
CONTINUOUS
 62
    3
 10
2237.1140184630831
 20
2231.1253534478619
 40
2.4999999999994311
 50
270.00000000001302
 51
0.0000000000130402
  0
LINE
  8
_0-3_躯体と製品
  6
CONTINUOUS
 62
    3
 10
2239.6140184630822
 20
2231.1253534478628
 11
2239.6140184630822
 21
2231.6253534478615
  0
ARC
  8
_0-3_躯体と製品
  6
CONTINUOUS
 62
    3
 10
2237.1140184630831
 20
2231.6253534478619
 40
2.4999999999994311
 50
359.99999999998698
 51
89.999999999986997
  0
ARC
  8
_0-3_躯体と製品
  6
CONTINUOUS
 62
    3
 10
2249.1140184630835
 20
2217.1253534478615
 40
2.4999999999999996
 50
180
 51
270
  0
LINE
  8
_0-3_躯体と製品
  6
CONTINUOUS
 62
    3
 10
2246.6140184630835
 20
2217.1253534478615
 11
2246.6140184630835
 21
2217.6253534478606
  0
ARC
  8
_0-3_躯体と製品
  6
CONTINUOUS
 62
    3
 10
2249.1140184630835
 20
2217.6253534478606
 40
2.4999999999999996
 50
90
 51
180
  0
ARC
  8
_0-3_躯体と製品
  6
CONTINUOUS
 62
    3
 10
2237.1140184630831
 20
2217.125353447861
 40
2.4999999999994311
 50
270.00000000001302
 51
0.0000000000130402
  0
LINE
  8
_0-3_躯体と製品
  6
CONTINUOUS
 62
    3
 10
2239.6140184630822
 20
2217.1253534478615
 11
2239.6140184630822
 21
2217.6253534478606
  0
ARC
  8
_0-3_躯体と製品
  6
CONTINUOUS
 62
    3
 10
2237.1140184630831
 20
2217.625353447861
 40
2.4999999999994311
 50
359.99999999998698
 51
89.999999999986997
  0
ARC
  8
_0-3_躯体と製品
  6
CONTINUOUS
 62
    3
 10
2249.1140184630835
 20
2203.1253534478615
 40
2.4999999999999996
 50
180
 51
270
  0
LINE
  8
_0-3_躯体と製品
  6
CONTINUOUS
 62
    3
 10
2246.6140184630835
 20
2203.1253534478615
 11
2246.6140184630835
 21
2203.6253534478628
  0
ARC
  8
_0-3_躯体と製品
  6
CONTINUOUS
 62
    3
 10
2249.1140184630835
 20
2203.6253534478628
 40
2.4999999999999996
 50
90
 51
180
  0
ARC
  8
_0-3_躯体と製品
  6
CONTINUOUS
 62
    3
 10
2237.1140184630831
 20
2203.125353447861
 40
2.4999999999994311
 50
270.00000000001302
 51
0.0000000000130402
  0
LINE
  8
_0-3_躯体と製品
  6
CONTINUOUS
 62
    3
 10
2239.6140184630822
 20
2203.1253534478615
 11
2239.6140184630822
 21
2203.6253534478628
  0
ARC
  8
_0-3_躯体と製品
  6
CONTINUOUS
 62
    3
 10
2237.1140184630831
 20
2203.6253534478633
 40
2.4999999999994311
 50
359.99999999998698
 51
89.999999999986997
  0
ARC
  8
_0-3_躯体と製品
  6
CONTINUOUS
 62
    3
 10
2190.6140184630844
 20
2245.6253534478615
 40
2.4999999999999996
 50
0.0000000000000052
 51
90.000000000000014
  0
LINE
  8
_0-3_躯体と製品
  6
CONTINUOUS
 62
    3
 10
2193.1140184630844
 20
2245.6253534478615
 11
2193.1140184630844
 21
2245.1253534478606
  0
ARC
  8
_0-3_躯体と製品
  6
CONTINUOUS
 62
    3
 10
2190.6140184630844
 20
2245.1253534478606
 40
2.4999999999999996
 50
270
 51
0.0000000000000127
  0
ARC
  8
_0-3_躯体と製品
  6
CONTINUOUS
 62
    3
 10
2190.6140184630844
 20
2231.6253534478615
 40
2.4999999999999996
 50
0.0000000000000052
 51
90.000000000000014
  0
LINE
  8
_0-3_躯体と製品
  6
CONTINUOUS
 62
    3
 10
2193.1140184630844
 20
2231.6253534478615
 11
2193.1140184630844
 21
2231.1253534478628
  0
ARC
  8
_0-3_躯体と製品
  6
CONTINUOUS
 62
    3
 10
2190.6140184630844
 20
2231.1253534478628
 40
2.4999999999999996
 50
270
 51
0.0000000000000127
  0
ARC
  8
_0-3_躯体と製品
  6
CONTINUOUS
 62
    3
 10
2190.6140184630844
 20
2217.6253534478606
 40
2.4999999999999996
 50
0.0000000000000052
 51
90.000000000000014
  0
LINE
  8
_0-3_躯体と製品
  6
CONTINUOUS
 62
    3
 10
2193.1140184630844
 20
2217.6253534478606
 11
2193.1140184630844
 21
2217.1253534478615
  0
ARC
  8
_0-3_躯体と製品
  6
CONTINUOUS
 62
    3
 10
2190.6140184630844
 20
2217.1253534478615
 40
2.4999999999999996
 50
270
 51
0.0000000000000127
  0
ARC
  8
_0-3_躯体と製品
  6
CONTINUOUS
 62
    3
 10
2190.6140184630844
 20
2203.6253534478628
 40
2.4999999999999996
 50
0.0000000000000052
 51
90.000000000000014
  0
LINE
  8
_0-3_躯体と製品
  6
CONTINUOUS
 62
    3
 10
2193.1140184630844
 20
2203.6253534478628
 11
2193.1140184630844
 21
2203.1253534478615
  0
ARC
  8
_0-3_躯体と製品
  6
CONTINUOUS
 62
    3
 10
2190.6140184630844
 20
2203.1253534478615
 40
2.4999999999999996
 50
270
 51
0.0000000000000127
  0
ARC
  8
_0-3_躯体と製品
  6
CONTINUOUS
 62
    3
 10
2214.6140184630831
 20
2245.6253534478619
 40
2.4999999999994311
 50
90.000000000013031
 51
180.00000000001302
  0
LINE
  8
_0-3_躯体と製品
  6
CONTINUOUS
 62
    3
 10
2212.1140184630835
 20
2245.6253534478615
 11
2212.1140184630835
 21
2245.1253534478606
  0
ARC
  8
_0-3_躯体と製品
  6
CONTINUOUS
 62
    3
 10
2214.6140184630831
 20
2245.1253534478601
 40
2.4999999999994311
 50
179.99999999998698
 51
269.99999999998698
  0
ARC
  8
_0-3_躯体と製品
  6
CONTINUOUS
 62
    3
 10
2214.6140184630831
 20
2231.6253534478619
 40
2.4999999999994311
 50
90.000000000013031
 51
180.00000000001302
  0
LINE
  8
_0-3_躯体と製品
  6
CONTINUOUS
 62
    3
 10
2212.1140184630835
 20
2231.6253534478615
 11
2212.1140184630835
 21
2231.1253534478628
  0
ARC
  8
_0-3_躯体と製品
  6
CONTINUOUS
 62
    3
 10
2214.6140184630831
 20
2231.1253534478619
 40
2.4999999999994311
 50
179.99999999998698
 51
269.99999999998698
  0
ARC
  8
_0-3_躯体と製品
  6
CONTINUOUS
 62
    3
 10
2214.6140184630831
 20
2217.625353447861
 40
2.4999999999994311
 50
90.000000000013031
 51
180.00000000001302
  0
LINE
  8
_0-3_躯体と製品
  6
CONTINUOUS
 62
    3
 10
2212.1140184630835
 20
2217.6253534478606
 11
2212.1140184630835
 21
2217.1253534478615
  0
ARC
  8
_0-3_躯体と製品
  6
CONTINUOUS
 62
    3
 10
2214.6140184630831
 20
2217.125353447861
 40
2.4999999999994311
 50
179.99999999998698
 51
269.99999999998698
  0
ARC
  8
_0-3_躯体と製品
  6
CONTINUOUS
 62
    3
 10
2214.6140184630831
 20
2203.6253534478633
 40
2.4999999999994311
 50
90.000000000013031
 51
180.00000000001302
  0
LINE
  8
_0-3_躯体と製品
  6
CONTINUOUS
 62
    3
 10
2212.1140184630835
 20
2203.6253534478628
 11
2212.1140184630835
 21
2203.1253534478615
  0
ARC
  8
_0-3_躯体と製品
  6
CONTINUOUS
 62
    3
 10
2214.6140184630831
 20
2203.125353447861
 40
2.4999999999994311
 50
179.99999999998698
 51
269.99999999998698
  0
LINE
  8
_0-3_躯体と製品
  6
CONTINUOUS
 62
    3
 10
2214.6140184630822
 20
2242.6253534478606
 11
2237.1140184630835
 21
2242.6253534478606
  0
LINE
  8
_0-3_躯体と製品
  6
CONTINUOUS
 62
    3
 10
2237.1140184630835
 20
2248.1253534478615
 11
2214.6140184630822
 21
2248.1253534478615
  0
LINE
  8
_0-3_躯体と製品
  6
CONTINUOUS
 62
    3
 10
2214.6140184630822
 20
2228.6253534478628
 11
2237.1140184630835
 21
2228.6253534478628
  0
LINE
  8
_0-3_躯体と製品
  6
CONTINUOUS
 62
    3
 10
2237.1140184630835
 20
2234.1253534478615
 11
2214.6140184630822
 21
2234.1253534478615
  0
LINE
  8
_0-3_躯体と製品
  6
CONTINUOUS
 62
    3
 10
2214.6140184630822
 20
2214.6253534478615
 11
2237.1140184630835
 21
2214.6253534478615
  0
LINE
  8
_0-3_躯体と製品
  6
CONTINUOUS
 62
    3
 10
2237.1140184630835
 20
2220.1253534478606
 11
2214.6140184630822
 21
2220.1253534478606
  0
LINE
  8
_0-3_躯体と製品
  6
CONTINUOUS
 62
    3
 10
2214.6140184630822
 20
2200.6253534478615
 11
2237.1140184630835
 21
2200.6253534478615
  0
LINE
  8
_0-3_躯体と製品
  6
CONTINUOUS
 62
    3
 10
2237.1140184630835
 20
2206.1253534478628
 11
2214.6140184630822
 21
2206.1253534478628
  0
ARC
  8
_0-3_躯体と製品
  6
CONTINUOUS
 62
    3
 10
2156.1140184630835
 20
2245.1253534478606
 40
2.4999999999999996
 50
270
 51
0.0000000000000127
  0
LINE
  8
_0-3_躯体と製品
  6
CONTINUOUS
 62
    3
 10
2158.6140184630835
 20
2245.1253534478606
 11
2158.6140184630835
 21
2245.6253534478615
  0
ARC
  8
_0-3_躯体と製品
  6
CONTINUOUS
 62
    3
 10
2156.1140184630835
 20
2245.6253534478615
 40
2.4999999999999996
 50
0.0000000000000052
 51
90.000000000000014
  0
ARC
  8
_0-3_躯体と製品
  6
CONTINUOUS
 62
    3
 10
2168.1140184630844
 20
2245.1253534478606
 40
2.4999999999999996
 50
180
 51
270
  0
LINE
  8
_0-3_躯体と製品
  6
CONTINUOUS
 62
    3
 10
2165.6140184630844
 20
2245.1253534478606
 11
2165.6140184630844
 21
2245.6253534478615
  0
ARC
  8
_0-3_躯体と製品
  6
CONTINUOUS
 62
    3
 10
2168.1140184630844
 20
2245.6253534478615
 40
2.4999999999999996
 50
90
 51
180
  0
ARC
  8
_0-3_躯体と製品
  6
CONTINUOUS
 62
    3
 10
2156.1140184630835
 20
2231.1253534478628
 40
2.4999999999999996
 50
270
 51
0.0000000000000127
  0
LINE
  8
_0-3_躯体と製品
  6
CONTINUOUS
 62
    3
 10
2158.6140184630835
 20
2231.1253534478628
 11
2158.6140184630835
 21
2231.6253534478615
  0
ARC
  8
_0-3_躯体と製品
  6
CONTINUOUS
 62
    3
 10
2156.1140184630835
 20
2231.6253534478615
 40
2.4999999999999996
 50
0.0000000000000052
 51
90.000000000000014
  0
ARC
  8
_0-3_躯体と製品
  6
CONTINUOUS
 62
    3
 10
2168.1140184630844
 20
2231.1253534478628
 40
2.4999999999999996
 50
180
 51
270
  0
LINE
  8
_0-3_躯体と製品
  6
CONTINUOUS
 62
    3
 10
2165.6140184630844
 20
2231.1253534478628
 11
2165.6140184630844
 21
2231.6253534478615
  0
ARC
  8
_0-3_躯体と製品
  6
CONTINUOUS
 62
    3
 10
2168.1140184630844
 20
2231.6253534478615
 40
2.4999999999999996
 50
90
 51
180
  0
ARC
  8
_0-3_躯体と製品
  6
CONTINUOUS
 62
    3
 10
2156.1140184630835
 20
2217.1253534478615
 40
2.4999999999999996
 50
270
 51
0.0000000000000127
  0
LINE
  8
_0-3_躯体と製品
  6
CONTINUOUS
 62
    3
 10
2158.6140184630835
 20
2217.1253534478615
 11
2158.6140184630835
 21
2217.6253534478606
  0
ARC
  8
_0-3_躯体と製品
  6
CONTINUOUS
 62
    3
 10
2156.1140184630835
 20
2217.6253534478606
 40
2.4999999999999996
 50
0.0000000000000052
 51
90.000000000000014
  0
ARC
  8
_0-3_躯体と製品
  6
CONTINUOUS
 62
    3
 10
2168.1140184630844
 20
2217.1253534478615
 40
2.4999999999999996
 50
180
 51
270
  0
LINE
  8
_0-3_躯体と製品
  6
CONTINUOUS
 62
    3
 10
2165.6140184630844
 20
2217.1253534478615
 11
2165.6140184630844
 21
2217.6253534478606
  0
ARC
  8
_0-3_躯体と製品
  6
CONTINUOUS
 62
    3
 10
2168.1140184630844
 20
2217.6253534478606
 40
2.4999999999999996
 50
90
 51
180
  0
ARC
  8
_0-3_躯体と製品
  6
CONTINUOUS
 62
    3
 10
2156.1140184630835
 20
2203.1253534478615
 40
2.4999999999999996
 50
270
 51
0.0000000000000127
  0
LINE
  8
_0-3_躯体と製品
  6
CONTINUOUS
 62
    3
 10
2158.6140184630835
 20
2203.1253534478615
 11
2158.6140184630835
 21
2203.6253534478628
  0
ARC
  8
_0-3_躯体と製品
  6
CONTINUOUS
 62
    3
 10
2156.1140184630835
 20
2203.6253534478628
 40
2.4999999999999996
 50
0.0000000000000052
 51
90.000000000000014
  0
ARC
  8
_0-3_躯体と製品
  6
CONTINUOUS
 62
    3
 10
2168.1140184630844
 20
2203.1253534478615
 40
2.4999999999999996
 50
180
 51
270
  0
LINE
  8
_0-3_躯体と製品
  6
CONTINUOUS
 62
    3
 10
2165.6140184630844
 20
2203.1253534478615
 11
2165.6140184630844
 21
2203.6253534478628
  0
ARC
  8
_0-3_躯体と製品
  6
CONTINUOUS
 62
    3
 10
2168.1140184630844
 20
2203.6253534478628
 40
2.4999999999999996
 50
90
 51
180
  0
ARC
  8
_0-3_躯体と製品
  6
CONTINUOUS
 62
    3
 10
2133.614018463084
 20
2245.625353447861
 40
2.5000000000004547
 50
89.999999999989569
 51
179.99999999998957
  0
LINE
  8
_0-3_躯体と製品
  6
CONTINUOUS
 62
    3
 10
2131.1140184630835
 20
2245.6253534478615
 11
2131.1140184630835
 21
2245.1253534478606
  0
ARC
  8
_0-3_躯体と製品
  6
CONTINUOUS
 62
    3
 10
2133.614018463084
 20
2245.125353447861
 40
2.5000000000004547
 50
180.00000000001043
 51
270.00000000001046
  0
ARC
  8
_0-3_躯体と製品
  6
CONTINUOUS
 62
    3
 10
2133.614018463084
 20
2231.625353447861
 40
2.5000000000004547
 50
89.999999999989569
 51
179.99999999998957
  0
LINE
  8
_0-3_躯体と製品
  6
CONTINUOUS
 62
    3
 10
2131.1140184630835
 20
2231.6253534478615
 11
2131.1140184630835
 21
2231.1253534478628
  0
ARC
  8
_0-3_躯体と製品
  6
CONTINUOUS
 62
    3
 10
2133.614018463084
 20
2231.1253534478628
 40
2.5000000000004547
 50
180.00000000001043
 51
270.00000000001046
  0
ARC
  8
_0-3_躯体と製品
  6
CONTINUOUS
 62
    3
 10
2133.614018463084
 20
2217.6253534478601
 40
2.5000000000004547
 50
89.999999999989569
 51
179.99999999998957
  0
LINE
  8
_0-3_躯体と製品
  6
CONTINUOUS
 62
    3
 10
2131.1140184630835
 20
2217.6253534478606
 11
2131.1140184630835
 21
2217.1253534478615
  0
ARC
  8
_0-3_躯体と製品
  6
CONTINUOUS
 62
    3
 10
2133.614018463084
 20
2217.1253534478619
 40
2.5000000000004547
 50
180.00000000001043
 51
270.00000000001046
  0
ARC
  8
_0-3_躯体と製品
  6
CONTINUOUS
 62
    3
 10
2133.614018463084
 20
2203.6253534478619
 40
2.5000000000004547
 50
89.999999999989569
 51
179.99999999998957
  0
LINE
  8
_0-3_躯体と製品
  6
CONTINUOUS
 62
    3
 10
2131.1140184630835
 20
2203.6253534478628
 11
2131.1140184630835
 21
2203.1253534478615
  0
ARC
  8
_0-3_躯体と製品
  6
CONTINUOUS
 62
    3
 10
2133.614018463084
 20
2203.1253534478619
 40
2.5000000000004547
 50
180.00000000001043
 51
270.00000000001046
  0
LINE
  8
_0-3_躯体と製品
  6
CONTINUOUS
 62
    3
 10
2133.6140184630844
 20
2242.6253534478606
 11
2156.1140184630835
 21
2242.6253534478606
  0
LINE
  8
_0-3_躯体と製品
  6
CONTINUOUS
 62
    3
 10
2156.1140184630835
 20
2248.1253534478615
 11
2133.6140184630844
 21
2248.1253534478615
  0
LINE
  8
_0-3_躯体と製品
  6
CONTINUOUS
 62
    3
 10
2133.6140184630844
 20
2228.6253534478628
 11
2156.1140184630835
 21
2228.6253534478628
  0
LINE
  8
_0-3_躯体と製品
  6
CONTINUOUS
 62
    3
 10
2156.1140184630835
 20
2234.1253534478615
 11
2133.6140184630844
 21
2234.1253534478615
  0
LINE
  8
_0-3_躯体と製品
  6
CONTINUOUS
 62
    3
 10
2133.6140184630844
 20
2214.6253534478615
 11
2156.1140184630835
 21
2214.6253534478615
  0
LINE
  8
_0-3_躯体と製品
  6
CONTINUOUS
 62
    3
 10
2156.1140184630835
 20
2220.1253534478606
 11
2133.6140184630844
 21
2220.1253534478606
  0
LINE
  8
_0-3_躯体と製品
  6
CONTINUOUS
 62
    3
 10
2133.6140184630844
 20
2200.6253534478615
 11
2156.1140184630835
 21
2200.6253534478615
  0
LINE
  8
_0-3_躯体と製品
  6
CONTINUOUS
 62
    3
 10
2156.1140184630835
 20
2206.1253534478628
 11
2133.6140184630844
 21
2206.1253534478628
  0
LINE
  8
_0-3_躯体と製品
  6
CONTINUOUS
 62
    3
 10
2190.6140184630844
 20
2242.6253534478606
 11
2168.1140184630844
 21
2242.6253534478606
  0
LINE
  8
_0-3_躯体と製品
  6
CONTINUOUS
 62
    3
 10
2168.1140184630844
 20
2248.1253534478615
 11
2190.6140184630844
 21
2248.1253534478615
  0
LINE
  8
_0-3_躯体と製品
  6
CONTINUOUS
 62
    3
 10
2190.6140184630844
 20
2228.6253534478628
 11
2168.1140184630844
 21
2228.6253534478628
  0
LINE
  8
_0-3_躯体と製品
  6
CONTINUOUS
 62
    3
 10
2168.1140184630844
 20
2234.1253534478615
 11
2190.6140184630844
 21
2234.1253534478615
  0
LINE
  8
_0-3_躯体と製品
  6
CONTINUOUS
 62
    3
 10
2190.6140184630844
 20
2214.6253534478615
 11
2168.1140184630844
 21
2214.6253534478615
  0
LINE
  8
_0-3_躯体と製品
  6
CONTINUOUS
 62
    3
 10
2168.1140184630844
 20
2220.1253534478606
 11
2190.6140184630844
 21
2220.1253534478606
  0
LINE
  8
_0-3_躯体と製品
  6
CONTINUOUS
 62
    3
 10
2190.6140184630844
 20
2200.6253534478615
 11
2168.1140184630844
 21
2200.6253534478615
  0
LINE
  8
_0-3_躯体と製品
  6
CONTINUOUS
 62
    3
 10
2168.1140184630844
 20
2206.1253534478628
 11
2190.6140184630844
 21
2206.1253534478628
  0
ARC
  8
_0-3_躯体と製品
  6
CONTINUOUS
 62
    3
 10
2249.1140184630835
 20
2189.1253534478615
 40
2.4999999999999996
 50
180
 51
270
  0
LINE
  8
_0-3_躯体と製品
  6
CONTINUOUS
 62
    3
 10
2246.6140184630835
 20
2189.1253534478615
 11
2246.6140184630835
 21
2189.6253534478615
  0
ARC
  8
_0-3_躯体と製品
  6
CONTINUOUS
 62
    3
 10
2249.1140184630835
 20
2189.6253534478615
 40
2.4999999999999996
 50
90
 51
180
  0
ARC
  8
_0-3_躯体と製品
  6
CONTINUOUS
 62
    3
 10
2237.1140184630831
 20
2189.125353447861
 40
2.4999999999994311
 50
270.00000000001302
 51
0.0000000000130402
  0
LINE
  8
_0-3_躯体と製品
  6
CONTINUOUS
 62
    3
 10
2239.6140184630822
 20
2189.1253534478615
 11
2239.6140184630822
 21
2189.6253534478615
  0
ARC
  8
_0-3_躯体と製品
  6
CONTINUOUS
 62
    3
 10
2237.1140184630831
 20
2189.6253534478619
 40
2.4999999999994311
 50
359.99999999998698
 51
89.999999999986997
  0
ARC
  8
_0-3_躯体と製品
  6
CONTINUOUS
 62
    3
 10
2249.1140184630831
 20
2175.125353447861
 40
2.4999999999995453
 50
180.00000000001043
 51
270.00000000001046
  0
LINE
  8
_0-3_躯体と製品
  6
CONTINUOUS
 62
    3
 10
2246.6140184630835
 20
2175.1253534478606
 11
2246.6140184630835
 21
2175.6253534478615
  0
ARC
  8
_0-3_躯体と製品
  6
CONTINUOUS
 62
    3
 10
2249.1140184630835
 20
2175.6253534478615
 40
2.4999999999999996
 50
90
 51
180
  0
ARC
  8
_0-3_躯体と製品
  6
CONTINUOUS
 62
    3
 10
2237.1140184630835
 20
2175.1253534478606
 40
2.4999999999989764
 50
270.00000000000261
 51
0.0000000000026207
  0
LINE
  8
_0-3_躯体と製品
  6
CONTINUOUS
 62
    3
 10
2239.6140184630822
 20
2175.1253534478606
 11
2239.6140184630822
 21
2175.6253534478615
  0
ARC
  8
_0-3_躯体と製品
  6
CONTINUOUS
 62
    3
 10
2237.1140184630831
 20
2175.6253534478619
 40
2.4999999999994311
 50
359.99999999998698
 51
89.999999999986997
  0
ARC
  8
_0-3_躯体と製品
  6
CONTINUOUS
 62
    3
 10
2249.1140184630835
 20
2161.1253534478628
 40
2.4999999999999996
 50
180
 51
270
  0
LINE
  8
_0-3_躯体と製品
  6
CONTINUOUS
 62
    3
 10
2246.6140184630835
 20
2161.1253534478628
 11
2246.6140184630835
 21
2161.6253534478615
  0
ARC
  8
_0-3_躯体と製品
  6
CONTINUOUS
 62
    3
 10
2249.1140184630835
 20
2161.6253534478615
 40
2.4999999999999996
 50
90
 51
180
  0
ARC
  8
_0-3_躯体と製品
  6
CONTINUOUS
 62
    3
 10
2237.1140184630831
 20
2161.1253534478619
 40
2.4999999999994311
 50
270.00000000001302
 51
0.0000000000130402
  0
LINE
  8
_0-3_躯体と製品
  6
CONTINUOUS
 62
    3
 10
2239.6140184630822
 20
2161.1253534478628
 11
2239.6140184630822
 21
2161.6253534478615
  0
ARC
  8
_0-3_躯体と製品
  6
CONTINUOUS
 62
    3
 10
2237.1140184630831
 20
2161.6253534478619
 40
2.4999999999994311
 50
359.99999999998698
 51
89.999999999986997
  0
ARC
  8
_0-3_躯体と製品
  6
CONTINUOUS
 62
    3
 10
2249.1140184630835
 20
2147.1253534478615
 40
2.4999999999999996
 50
180
 51
270
  0
LINE
  8
_0-3_躯体と製品
  6
CONTINUOUS
 62
    3
 10
2246.6140184630835
 20
2147.1253534478615
 11
2246.6140184630835
 21
2147.6253534478615
  0
ARC
  8
_0-3_躯体と製品
  6
CONTINUOUS
 62
    3
 10
2249.1140184630831
 20
2147.625353447861
 40
2.4999999999995453
 50
89.999999999989569
 51
179.99999999998957
  0
ARC
  8
_0-3_躯体と製品
  6
CONTINUOUS
 62
    3
 10
2237.1140184630831
 20
2147.125353447861
 40
2.4999999999994311
 50
270.00000000001302
 51
0.0000000000130402
  0
LINE
  8
_0-3_躯体と製品
  6
CONTINUOUS
 62
    3
 10
2239.6140184630822
 20
2147.1253534478615
 11
2239.6140184630822
 21
2147.6253534478615
  0
ARC
  8
_0-3_躯体と製品
  6
CONTINUOUS
 62
    3
 10
2237.1140184630835
 20
2147.6253534478615
 40
2.4999999999989764
 50
359.99999999999739
 51
89.999999999997414
  0
ARC
  8
_0-3_躯体と製品
  6
CONTINUOUS
 62
    3
 10
2190.6140184630844
 20
2189.6253534478615
 40
2.4999999999999996
 50
0.0000000000000052
 51
90.000000000000014
  0
LINE
  8
_0-3_躯体と製品
  6
CONTINUOUS
 62
    3
 10
2193.1140184630844
 20
2189.6253534478615
 11
2193.1140184630844
 21
2189.1253534478615
  0
ARC
  8
_0-3_躯体と製品
  6
CONTINUOUS
 62
    3
 10
2190.6140184630844
 20
2189.1253534478615
 40
2.4999999999999996
 50
270
 51
0.0000000000000127
  0
ARC
  8
_0-3_躯体と製品
  6
CONTINUOUS
 62
    3
 10
2190.6140184630844
 20
2175.6253534478615
 40
2.4999999999999996
 50
0.0000000000000052
 51
90.000000000000014
  0
LINE
  8
_0-3_躯体と製品
  6
CONTINUOUS
 62
    3
 10
2193.1140184630844
 20
2175.6253534478615
 11
2193.1140184630844
 21
2175.1253534478606
  0
ARC
  8
_0-3_躯体と製品
  6
CONTINUOUS
 62
    3
 10
2190.6140184630849
 20
2175.125353447861
 40
2.4999999999995453
 50
269.9999999999896
 51
359.9999999999896
  0
ARC
  8
_0-3_躯体と製品
  6
CONTINUOUS
 62
    3
 10
2190.6140184630844
 20
2161.6253534478615
 40
2.4999999999999996
 50
0.0000000000000052
 51
90.000000000000014
  0
LINE
  8
_0-3_躯体と製品
  6
CONTINUOUS
 62
    3
 10
2193.1140184630844
 20
2161.6253534478615
 11
2193.1140184630844
 21
2161.1253534478628
  0
ARC
  8
_0-3_躯体と製品
  6
CONTINUOUS
 62
    3
 10
2190.6140184630844
 20
2161.1253534478628
 40
2.4999999999999996
 50
270
 51
0.0000000000000127
  0
ARC
  8
_0-3_躯体と製品
  6
CONTINUOUS
 62
    3
 10
2190.6140184630849
 20
2147.625353447861
 40
2.4999999999995453
 50
0.0000000000104271
 51
90.000000000010445
  0
LINE
  8
_0-3_躯体と製品
  6
CONTINUOUS
 62
    3
 10
2193.1140184630844
 20
2147.6253534478615
 11
2193.1140184630844
 21
2147.1253534478615
  0
ARC
  8
_0-3_躯体と製品
  6
CONTINUOUS
 62
    3
 10
2190.6140184630844
 20
2147.1253534478615
 40
2.4999999999999996
 50
270
 51
0.0000000000000127
  0
ARC
  8
_0-3_躯体と製品
  6
CONTINUOUS
 62
    3
 10
2214.6140184630831
 20
2189.6253534478619
 40
2.4999999999994311
 50
90.000000000013031
 51
180.00000000001302
  0
LINE
  8
_0-3_躯体と製品
  6
CONTINUOUS
 62
    3
 10
2212.1140184630835
 20
2189.6253534478615
 11
2212.1140184630835
 21
2189.1253534478615
  0
ARC
  8
_0-3_躯体と製品
  6
CONTINUOUS
 62
    3
 10
2214.6140184630831
 20
2189.125353447861
 40
2.4999999999994311
 50
179.99999999998698
 51
269.99999999998698
  0
ARC
  8
_0-3_躯体と製品
  6
CONTINUOUS
 62
    3
 10
2214.6140184630831
 20
2175.6253534478619
 40
2.4999999999994311
 50
90.000000000013031
 51
180.00000000001302
  0
LINE
  8
_0-3_躯体と製品
  6
CONTINUOUS
 62
    3
 10
2212.1140184630835
 20
2175.6253534478615
 11
2212.1140184630835
 21
2175.1253534478606
  0
ARC
  8
_0-3_躯体と製品
  6
CONTINUOUS
 62
    3
 10
2214.6140184630826
 20
2175.1253534478606
 40
2.4999999999989764
 50
179.99999999999741
 51
269.99999999999739
  0
ARC
  8
_0-3_躯体と製品
  6
CONTINUOUS
 62
    3
 10
2214.6140184630831
 20
2161.6253534478619
 40
2.4999999999994311
 50
90.000000000013031
 51
180.00000000001302
  0
LINE
  8
_0-3_躯体と製品
  6
CONTINUOUS
 62
    3
 10
2212.1140184630835
 20
2161.6253534478615
 11
2212.1140184630835
 21
2161.1253534478628
  0
ARC
  8
_0-3_躯体と製品
  6
CONTINUOUS
 62
    3
 10
2214.6140184630831
 20
2161.1253534478619
 40
2.4999999999994311
 50
179.99999999998698
 51
269.99999999998698
  0
ARC
  8
_0-3_躯体と製品
  6
CONTINUOUS
 62
    3
 10
2214.6140184630826
 20
2147.6253534478615
 40
2.4999999999989764
 50
90.000000000002601
 51
180.00000000000259
  0
LINE
  8
_0-3_躯体と製品
  6
CONTINUOUS
 62
    3
 10
2212.1140184630835
 20
2147.6253534478615
 11
2212.1140184630835
 21
2147.1253534478615
  0
ARC
  8
_0-3_躯体と製品
  6
CONTINUOUS
 62
    3
 10
2214.6140184630831
 20
2147.125353447861
 40
2.4999999999994311
 50
179.99999999998698
 51
269.99999999998698
  0
LINE
  8
_0-3_躯体と製品
  6
CONTINUOUS
 62
    3
 10
2214.6140184630822
 20
2186.6253534478615
 11
2237.1140184630835
 21
2186.6253534478615
  0
LINE
  8
_0-3_躯体と製品
  6
CONTINUOUS
 62
    3
 10
2237.1140184630835
 20
2192.1253534478615
 11
2214.6140184630822
 21
2192.1253534478615
  0
LINE
  8
_0-3_躯体と製品
  6
CONTINUOUS
 62
    3
 10
2214.6140184630822
 20
2172.6253534478615
 11
2237.1140184630835
 21
2172.6253534478615
  0
LINE
  8
_0-3_躯体と製品
  6
CONTINUOUS
 62
    3
 10
2237.1140184630835
 20
2178.1253534478615
 11
2214.6140184630822
 21
2178.1253534478615
  0
LINE
  8
_0-3_躯体と製品
  6
CONTINUOUS
 62
    3
 10
2214.6140184630822
 20
2158.6253534478628
 11
2237.1140184630835
 21
2158.6253534478628
  0
LINE
  8
_0-3_躯体と製品
  6
CONTINUOUS
 62
    3
 10
2237.1140184630835
 20
2164.1253534478615
 11
2214.6140184630822
 21
2164.1253534478615
  0
LINE
  8
_0-3_躯体と製品
  6
CONTINUOUS
 62
    3
 10
2214.6140184630822
 20
2144.6253534478615
 11
2237.1140184630835
 21
2144.6253534478615
  0
LINE
  8
_0-3_躯体と製品
  6
CONTINUOUS
 62
    3
 10
2237.1140184630835
 20
2150.1253534478606
 11
2214.6140184630822
 21
2150.1253534478606
  0
ARC
  8
_0-3_躯体と製品
  6
CONTINUOUS
 62
    3
 10
2249.1140184630835
 20
2133.1253534478615
 40
2.4999999999999996
 50
180
 51
270
  0
LINE
  8
_0-3_躯体と製品
  6
CONTINUOUS
 62
    3
 10
2246.6140184630835
 20
2133.1253534478615
 11
2246.6140184630835
 21
2133.6253534478628
  0
ARC
  8
_0-3_躯体と製品
  6
CONTINUOUS
 62
    3
 10
2249.1140184630835
 20
2133.6253534478628
 40
2.4999999999999996
 50
90
 51
180
  0
ARC
  8
_0-3_躯体と製品
  6
CONTINUOUS
 62
    3
 10
2237.1140184630831
 20
2133.125353447861
 40
2.4999999999994311
 50
270.00000000001302
 51
0.0000000000130402
  0
LINE
  8
_0-3_躯体と製品
  6
CONTINUOUS
 62
    3
 10
2239.6140184630822
 20
2133.1253534478615
 11
2239.6140184630822
 21
2133.6253534478628
  0
ARC
  8
_0-3_躯体と製品
  6
CONTINUOUS
 62
    3
 10
2237.1140184630831
 20
2133.6253534478633
 40
2.4999999999994311
 50
359.99999999998698
 51
89.999999999986997
  0
ARC
  8
_0-3_躯体と製品
  6
CONTINUOUS
 62
    3
 10
2249.1140184630835
 20
2119.1253534478615
 40
2.4999999999999996
 50
180
 51
270
  0
LINE
  8
_0-3_躯体と製品
  6
CONTINUOUS
 62
    3
 10
2246.6140184630835
 20
2119.1253534478615
 11
2246.6140184630835
 21
2119.6253534478615
  0
ARC
  8
_0-3_躯体と製品
  6
CONTINUOUS
 62
    3
 10
2249.1140184630835
 20
2119.6253534478615
 40
2.4999999999999996
 50
90
 51
180
  0
ARC
  8
_0-3_躯体と製品
  6
CONTINUOUS
 62
    3
 10
2237.1140184630831
 20
2119.125353447861
 40
2.4999999999994311
 50
270.00000000001302
 51
0.0000000000130402
  0
LINE
  8
_0-3_躯体と製品
  6
CONTINUOUS
 62
    3
 10
2239.6140184630822
 20
2119.1253534478615
 11
2239.6140184630822
 21
2119.6253534478615
  0
ARC
  8
_0-3_躯体と製品
  6
CONTINUOUS
 62
    3
 10
2237.1140184630831
 20
2119.6253534478619
 40
2.4999999999994311
 50
359.99999999998698
 51
89.999999999986997
  0
ARC
  8
_0-3_躯体と製品
  6
CONTINUOUS
 62
    3
 10
2190.6140184630844
 20
2133.6253534478628
 40
2.4999999999999996
 50
0.0000000000000052
 51
90.000000000000014
  0
LINE
  8
_0-3_躯体と製品
  6
CONTINUOUS
 62
    3
 10
2193.1140184630844
 20
2133.6253534478628
 11
2193.1140184630844
 21
2133.1253534478615
  0
ARC
  8
_0-3_躯体と製品
  6
CONTINUOUS
 62
    3
 10
2190.6140184630844
 20
2133.1253534478615
 40
2.4999999999999996
 50
270
 51
0.0000000000000127
  0
ARC
  8
_0-3_躯体と製品
  6
CONTINUOUS
 62
    3
 10
2190.6140184630844
 20
2119.6253534478615
 40
2.4999999999999996
 50
0.0000000000000052
 51
90.000000000000014
  0
LINE
  8
_0-3_躯体と製品
  6
CONTINUOUS
 62
    3
 10
2193.1140184630844
 20
2119.6253534478615
 11
2193.1140184630844
 21
2119.1253534478615
  0
ARC
  8
_0-3_躯体と製品
  6
CONTINUOUS
 62
    3
 10
2190.6140184630844
 20
2119.1253534478615
 40
2.4999999999999996
 50
270
 51
0.0000000000000127
  0
ARC
  8
_0-3_躯体と製品
  6
CONTINUOUS
 62
    3
 10
2214.6140184630831
 20
2133.6253534478633
 40
2.4999999999994311
 50
90.000000000013031
 51
180.00000000001302
  0
LINE
  8
_0-3_躯体と製品
  6
CONTINUOUS
 62
    3
 10
2212.1140184630835
 20
2133.6253534478628
 11
2212.1140184630835
 21
2133.1253534478615
  0
ARC
  8
_0-3_躯体と製品
  6
CONTINUOUS
 62
    3
 10
2214.6140184630831
 20
2133.125353447861
 40
2.4999999999994311
 50
179.99999999998698
 51
269.99999999998698
  0
ARC
  8
_0-3_躯体と製品
  6
CONTINUOUS
 62
    3
 10
2214.6140184630831
 20
2119.6253534478619
 40
2.4999999999994311
 50
90.000000000013031
 51
180.00000000001302
  0
LINE
  8
_0-3_躯体と製品
  6
CONTINUOUS
 62
    3
 10
2212.1140184630835
 20
2119.6253534478615
 11
2212.1140184630835
 21
2119.1253534478615
  0
ARC
  8
_0-3_躯体と製品
  6
CONTINUOUS
 62
    3
 10
2214.6140184630831
 20
2119.125353447861
 40
2.4999999999994311
 50
179.99999999998698
 51
269.99999999998698
  0
LINE
  8
_0-3_躯体と製品
  6
CONTINUOUS
 62
    3
 10
2214.6140184630822
 20
2130.6253534478615
 11
2237.1140184630835
 21
2130.6253534478615
  0
LINE
  8
_0-3_躯体と製品
  6
CONTINUOUS
 62
    3
 10
2237.1140184630835
 20
2136.1253534478628
 11
2214.6140184630822
 21
2136.1253534478628
  0
LINE
  8
_0-3_躯体と製品
  6
CONTINUOUS
 62
    3
 10
2214.6140184630822
 20
2116.6253534478615
 11
2237.1140184630835
 21
2116.6253534478615
  0
LINE
  8
_0-3_躯体と製品
  6
CONTINUOUS
 62
    3
 10
2237.1140184630835
 20
2122.1253534478615
 11
2214.6140184630822
 21
2122.1253534478615
  0
ARC
  8
_0-3_躯体と製品
  6
CONTINUOUS
 62
    3
 10
2156.1140184630835
 20
2189.1253534478615
 40
2.4999999999999996
 50
270
 51
0.0000000000000127
  0
LINE
  8
_0-3_躯体と製品
  6
CONTINUOUS
 62
    3
 10
2158.6140184630835
 20
2189.1253534478615
 11
2158.6140184630835
 21
2189.6253534478615
  0
ARC
  8
_0-3_躯体と製品
  6
CONTINUOUS
 62
    3
 10
2156.1140184630835
 20
2189.6253534478615
 40
2.4999999999999996
 50
0.0000000000000052
 51
90.000000000000014
  0
ARC
  8
_0-3_躯体と製品
  6
CONTINUOUS
 62
    3
 10
2168.1140184630844
 20
2189.1253534478615
 40
2.4999999999999996
 50
180
 51
270
  0
LINE
  8
_0-3_躯体と製品
  6
CONTINUOUS
 62
    3
 10
2165.6140184630844
 20
2189.1253534478615
 11
2165.6140184630844
 21
2189.6253534478615
  0
ARC
  8
_0-3_躯体と製品
  6
CONTINUOUS
 62
    3
 10
2168.1140184630844
 20
2189.6253534478615
 40
2.4999999999999996
 50
90
 51
180
  0
ARC
  8
_0-3_躯体と製品
  6
CONTINUOUS
 62
    3
 10
2156.114018463084
 20
2175.125353447861
 40
2.4999999999995453
 50
269.9999999999896
 51
359.9999999999896
  0
LINE
  8
_0-3_躯体と製品
  6
CONTINUOUS
 62
    3
 10
2158.6140184630835
 20
2175.1253534478606
 11
2158.6140184630835
 21
2175.6253534478615
  0
ARC
  8
_0-3_躯体と製品
  6
CONTINUOUS
 62
    3
 10
2156.1140184630835
 20
2175.6253534478615
 40
2.4999999999999996
 50
0.0000000000000052
 51
90.000000000000014
  0
ARC
  8
_0-3_躯体と製品
  6
CONTINUOUS
 62
    3
 10
2168.114018463084
 20
2175.125353447861
 40
2.4999999999995453
 50
180.00000000001043
 51
270.00000000001046
  0
LINE
  8
_0-3_躯体と製品
  6
CONTINUOUS
 62
    3
 10
2165.6140184630844
 20
2175.1253534478606
 11
2165.6140184630844
 21
2175.6253534478615
  0
ARC
  8
_0-3_躯体と製品
  6
CONTINUOUS
 62
    3
 10
2168.1140184630844
 20
2175.6253534478615
 40
2.4999999999999996
 50
90
 51
180
  0
ARC
  8
_0-3_躯体と製品
  6
CONTINUOUS
 62
    3
 10
2156.1140184630835
 20
2161.1253534478628
 40
2.4999999999999996
 50
270
 51
0.0000000000000127
  0
LINE
  8
_0-3_躯体と製品
  6
CONTINUOUS
 62
    3
 10
2158.6140184630835
 20
2161.1253534478628
 11
2158.6140184630835
 21
2161.6253534478615
  0
ARC
  8
_0-3_躯体と製品
  6
CONTINUOUS
 62
    3
 10
2156.1140184630835
 20
2161.6253534478615
 40
2.4999999999999996
 50
0.0000000000000052
 51
90.000000000000014
  0
ARC
  8
_0-3_躯体と製品
  6
CONTINUOUS
 62
    3
 10
2168.1140184630844
 20
2161.1253534478628
 40
2.4999999999999996
 50
180
 51
270
  0
LINE
  8
_0-3_躯体と製品
  6
CONTINUOUS
 62
    3
 10
2165.6140184630844
 20
2161.1253534478628
 11
2165.6140184630844
 21
2161.6253534478615
  0
ARC
  8
_0-3_躯体と製品
  6
CONTINUOUS
 62
    3
 10
2168.1140184630844
 20
2161.6253534478615
 40
2.4999999999999996
 50
90
 51
180
  0
ARC
  8
_0-3_躯体と製品
  6
CONTINUOUS
 62
    3
 10
2156.1140184630835
 20
2147.1253534478615
 40
2.4999999999999996
 50
270
 51
0.0000000000000127
  0
LINE
  8
_0-3_躯体と製品
  6
CONTINUOUS
 62
    3
 10
2158.6140184630835
 20
2147.1253534478615
 11
2158.6140184630835
 21
2147.6253534478615
  0
ARC
  8
_0-3_躯体と製品
  6
CONTINUOUS
 62
    3
 10
2156.114018463084
 20
2147.625353447861
 40
2.4999999999995453
 50
0.0000000000104271
 51
90.000000000010445
  0
ARC
  8
_0-3_躯体と製品
  6
CONTINUOUS
 62
    3
 10
2168.1140184630844
 20
2147.1253534478615
 40
2.4999999999999996
 50
180
 51
270
  0
LINE
  8
_0-3_躯体と製品
  6
CONTINUOUS
 62
    3
 10
2165.6140184630844
 20
2147.1253534478615
 11
2165.6140184630844
 21
2147.6253534478615
  0
ARC
  8
_0-3_躯体と製品
  6
CONTINUOUS
 62
    3
 10
2168.114018463084
 20
2147.625353447861
 40
2.4999999999995453
 50
89.999999999989569
 51
179.99999999998957
  0
ARC
  8
_0-3_躯体と製品
  6
CONTINUOUS
 62
    3
 10
2133.614018463084
 20
2189.625353447861
 40
2.5000000000004547
 50
89.999999999989569
 51
179.99999999998957
  0
LINE
  8
_0-3_躯体と製品
  6
CONTINUOUS
 62
    3
 10
2131.1140184630835
 20
2189.6253534478615
 11
2131.1140184630835
 21
2189.1253534478615
  0
ARC
  8
_0-3_躯体と製品
  6
CONTINUOUS
 62
    3
 10
2133.614018463084
 20
2189.1253534478619
 40
2.5000000000004547
 50
180.00000000001043
 51
270.00000000001046
  0
ARC
  8
_0-3_躯体と製品
  6
CONTINUOUS
 62
    3
 10
2133.614018463084
 20
2175.625353447861
 40
2.5000000000004547
 50
89.999999999989569
 51
179.99999999998957
  0
LINE
  8
_0-3_躯体と製品
  6
CONTINUOUS
 62
    3
 10
2131.1140184630835
 20
2175.6253534478615
 11
2131.1140184630835
 21
2175.1253534478606
  0
ARC
  8
_0-3_躯体と製品
  6
CONTINUOUS
 62
    3
 10
2133.6140184630835
 20
2175.1253534478615
 40
2.4999999999999996
 50
180.00000000002083
 51
270.00000000002086
  0
ARC
  8
_0-3_躯体と製品
  6
CONTINUOUS
 62
    3
 10
2133.614018463084
 20
2161.625353447861
 40
2.5000000000004547
 50
89.999999999989569
 51
179.99999999998957
  0
LINE
  8
_0-3_躯体と製品
  6
CONTINUOUS
 62
    3
 10
2131.1140184630835
 20
2161.6253534478615
 11
2131.1140184630835
 21
2161.1253534478628
  0
ARC
  8
_0-3_躯体と製品
  6
CONTINUOUS
 62
    3
 10
2133.614018463084
 20
2161.1253534478628
 40
2.5000000000004547
 50
180.00000000001043
 51
270.00000000001046
  0
ARC
  8
_0-3_躯体と製品
  6
CONTINUOUS
 62
    3
 10
2133.6140184630835
 20
2147.6253534478606
 40
2.4999999999999996
 50
89.999999999979138
 51
179.99999999997914
  0
LINE
  8
_0-3_躯体と製品
  6
CONTINUOUS
 62
    3
 10
2131.1140184630835
 20
2147.6253534478615
 11
2131.1140184630835
 21
2147.1253534478615
  0
ARC
  8
_0-3_躯体と製品
  6
CONTINUOUS
 62
    3
 10
2133.614018463084
 20
2147.1253534478619
 40
2.5000000000004547
 50
180.00000000001043
 51
270.00000000001046
  0
LINE
  8
_0-3_躯体と製品
  6
CONTINUOUS
 62
    3
 10
2133.6140184630844
 20
2186.6253534478615
 11
2156.1140184630835
 21
2186.6253534478615
  0
LINE
  8
_0-3_躯体と製品
  6
CONTINUOUS
 62
    3
 10
2156.1140184630835
 20
2192.1253534478615
 11
2133.6140184630844
 21
2192.1253534478615
  0
LINE
  8
_0-3_躯体と製品
  6
CONTINUOUS
 62
    3
 10
2133.6140184630844
 20
2172.6253534478615
 11
2156.1140184630835
 21
2172.6253534478615
  0
LINE
  8
_0-3_躯体と製品
  6
CONTINUOUS
 62
    3
 10
2156.1140184630835
 20
2178.1253534478615
 11
2133.6140184630844
 21
2178.1253534478615
  0
LINE
  8
_0-3_躯体と製品
  6
CONTINUOUS
 62
    3
 10
2133.6140184630844
 20
2158.6253534478628
 11
2156.1140184630835
 21
2158.6253534478628
  0
LINE
  8
_0-3_躯体と製品
  6
CONTINUOUS
 62
    3
 10
2156.1140184630835
 20
2164.1253534478615
 11
2133.6140184630844
 21
2164.1253534478615
  0
LINE
  8
_0-3_躯体と製品
  6
CONTINUOUS
 62
    3
 10
2133.6140184630844
 20
2144.6253534478615
 11
2156.1140184630835
 21
2144.6253534478615
  0
LINE
  8
_0-3_躯体と製品
  6
CONTINUOUS
 62
    3
 10
2156.1140184630835
 20
2150.1253534478606
 11
2133.6140184630844
 21
2150.1253534478606
  0
ARC
  8
_0-3_躯体と製品
  6
CONTINUOUS
 62
    3
 10
2156.1140184630835
 20
2133.1253534478615
 40
2.4999999999999996
 50
270
 51
0.0000000000000127
  0
LINE
  8
_0-3_躯体と製品
  6
CONTINUOUS
 62
    3
 10
2158.6140184630835
 20
2133.1253534478615
 11
2158.6140184630835
 21
2133.6253534478628
  0
ARC
  8
_0-3_躯体と製品
  6
CONTINUOUS
 62
    3
 10
2156.1140184630835
 20
2133.6253534478628
 40
2.4999999999999996
 50
0.0000000000000052
 51
90.000000000000014
  0
ARC
  8
_0-3_躯体と製品
  6
CONTINUOUS
 62
    3
 10
2168.1140184630844
 20
2133.1253534478615
 40
2.4999999999999996
 50
180
 51
270
  0
LINE
  8
_0-3_躯体と製品
  6
CONTINUOUS
 62
    3
 10
2165.6140184630844
 20
2133.1253534478615
 11
2165.6140184630844
 21
2133.6253534478628
  0
ARC
  8
_0-3_躯体と製品
  6
CONTINUOUS
 62
    3
 10
2168.1140184630844
 20
2133.6253534478628
 40
2.4999999999999996
 50
90
 51
180
  0
ARC
  8
_0-3_躯体と製品
  6
CONTINUOUS
 62
    3
 10
2156.1140184630835
 20
2119.1253534478615
 40
2.4999999999999996
 50
270
 51
0.0000000000000127
  0
LINE
  8
_0-3_躯体と製品
  6
CONTINUOUS
 62
    3
 10
2158.6140184630835
 20
2119.1253534478615
 11
2158.6140184630835
 21
2119.6253534478615
  0
ARC
  8
_0-3_躯体と製品
  6
CONTINUOUS
 62
    3
 10
2156.1140184630835
 20
2119.6253534478615
 40
2.4999999999999996
 50
0.0000000000000052
 51
90.000000000000014
  0
ARC
  8
_0-3_躯体と製品
  6
CONTINUOUS
 62
    3
 10
2168.1140184630844
 20
2119.1253534478615
 40
2.4999999999999996
 50
180
 51
270
  0
LINE
  8
_0-3_躯体と製品
  6
CONTINUOUS
 62
    3
 10
2165.6140184630844
 20
2119.1253534478615
 11
2165.6140184630844
 21
2119.6253534478615
  0
ARC
  8
_0-3_躯体と製品
  6
CONTINUOUS
 62
    3
 10
2168.1140184630844
 20
2119.6253534478615
 40
2.4999999999999996
 50
90
 51
180
  0
ARC
  8
_0-3_躯体と製品
  6
CONTINUOUS
 62
    3
 10
2133.614018463084
 20
2133.6253534478619
 40
2.5000000000004547
 50
89.999999999989569
 51
179.99999999998957
  0
LINE
  8
_0-3_躯体と製品
  6
CONTINUOUS
 62
    3
 10
2131.1140184630835
 20
2133.6253534478628
 11
2131.1140184630835
 21
2133.1253534478615
  0
ARC
  8
_0-3_躯体と製品
  6
CONTINUOUS
 62
    3
 10
2133.614018463084
 20
2133.1253534478619
 40
2.5000000000004547
 50
180.00000000001043
 51
270.00000000001046
  0
ARC
  8
_0-3_躯体と製品
  6
CONTINUOUS
 62
    3
 10
2133.614018463084
 20
2119.625353447861
 40
2.5000000000004547
 50
89.999999999989569
 51
179.99999999998957
  0
LINE
  8
_0-3_躯体と製品
  6
CONTINUOUS
 62
    3
 10
2131.1140184630835
 20
2119.6253534478615
 11
2131.1140184630835
 21
2119.1253534478615
  0
ARC
  8
_0-3_躯体と製品
  6
CONTINUOUS
 62
    3
 10
2133.614018463084
 20
2119.1253534478619
 40
2.5000000000004547
 50
180.00000000001043
 51
270.00000000001046
  0
LINE
  8
_0-3_躯体と製品
  6
CONTINUOUS
 62
    3
 10
2133.6140184630844
 20
2130.6253534478615
 11
2156.1140184630835
 21
2130.6253534478615
  0
LINE
  8
_0-3_躯体と製品
  6
CONTINUOUS
 62
    3
 10
2156.1140184630835
 20
2136.1253534478628
 11
2133.6140184630844
 21
2136.1253534478628
  0
LINE
  8
_0-3_躯体と製品
  6
CONTINUOUS
 62
    3
 10
2133.6140184630844
 20
2116.6253534478615
 11
2156.1140184630835
 21
2116.6253534478615
  0
LINE
  8
_0-3_躯体と製品
  6
CONTINUOUS
 62
    3
 10
2156.1140184630835
 20
2122.1253534478615
 11
2133.6140184630844
 21
2122.1253534478615
  0
LINE
  8
_0-3_躯体と製品
  6
CONTINUOUS
 62
    3
 10
2190.6140184630844
 20
2186.6253534478615
 11
2168.1140184630844
 21
2186.6253534478615
  0
LINE
  8
_0-3_躯体と製品
  6
CONTINUOUS
 62
    3
 10
2168.1140184630844
 20
2192.1253534478615
 11
2190.6140184630844
 21
2192.1253534478615
  0
LINE
  8
_0-3_躯体と製品
  6
CONTINUOUS
 62
    3
 10
2190.6140184630844
 20
2172.6253534478615
 11
2168.1140184630844
 21
2172.6253534478615
  0
LINE
  8
_0-3_躯体と製品
  6
CONTINUOUS
 62
    3
 10
2168.1140184630844
 20
2178.1253534478615
 11
2190.6140184630844
 21
2178.1253534478615
  0
LINE
  8
_0-3_躯体と製品
  6
CONTINUOUS
 62
    3
 10
2190.6140184630844
 20
2158.6253534478628
 11
2168.1140184630844
 21
2158.6253534478628
  0
LINE
  8
_0-3_躯体と製品
  6
CONTINUOUS
 62
    3
 10
2168.1140184630844
 20
2164.1253534478615
 11
2190.6140184630844
 21
2164.1253534478615
  0
LINE
  8
_0-3_躯体と製品
  6
CONTINUOUS
 62
    3
 10
2190.6140184630844
 20
2144.6253534478615
 11
2168.1140184630844
 21
2144.6253534478615
  0
LINE
  8
_0-3_躯体と製品
  6
CONTINUOUS
 62
    3
 10
2168.1140184630844
 20
2150.1253534478606
 11
2190.6140184630844
 21
2150.1253534478606
  0
LINE
  8
_0-3_躯体と製品
  6
CONTINUOUS
 62
    3
 10
2190.6140184630844
 20
2130.6253534478615
 11
2168.1140184630844
 21
2130.6253534478615
  0
LINE
  8
_0-3_躯体と製品
  6
CONTINUOUS
 62
    3
 10
2168.1140184630844
 20
2136.1253534478628
 11
2190.6140184630844
 21
2136.1253534478628
  0
LINE
  8
_0-3_躯体と製品
  6
CONTINUOUS
 62
    3
 10
2190.6140184630844
 20
2116.6253534478615
 11
2168.1140184630844
 21
2116.6253534478615
  0
LINE
  8
_0-3_躯体と製品
  6
CONTINUOUS
 62
    3
 10
2168.1140184630844
 20
2122.1253534478615
 11
2190.6140184630844
 21
2122.1253534478615
  0
LINE
  8
_0-3_躯体と製品
  6
CONTINUOUS
 62
    3
 10
2271.6140184630835
 20
2242.6253534478606
 11
2249.1140184630835
 21
2242.6253534478606
  0
LINE
  8
_0-3_躯体と製品
  6
CONTINUOUS
 62
    3
 10
2249.1140184630835
 20
2248.1253534478615
 11
2271.6140184630835
 21
2248.1253534478615
  0
LINE
  8
_0-3_躯体と製品
  6
CONTINUOUS
 62
    3
 10
2271.6140184630835
 20
2228.6253534478628
 11
2249.1140184630835
 21
2228.6253534478628
  0
LINE
  8
_0-3_躯体と製品
  6
CONTINUOUS
 62
    3
 10
2249.1140184630835
 20
2234.1253534478615
 11
2271.6140184630835
 21
2234.1253534478615
  0
LINE
  8
_0-3_躯体と製品
  6
CONTINUOUS
 62
    3
 10
2271.6140184630835
 20
2214.6253534478615
 11
2249.1140184630835
 21
2214.6253534478615
  0
LINE
  8
_0-3_躯体と製品
  6
CONTINUOUS
 62
    3
 10
2249.1140184630835
 20
2220.1253534478606
 11
2271.6140184630835
 21
2220.1253534478606
  0
LINE
  8
_0-3_躯体と製品
  6
CONTINUOUS
 62
    3
 10
2271.6140184630835
 20
2200.6253534478615
 11
2249.1140184630835
 21
2200.6253534478615
  0
LINE
  8
_0-3_躯体と製品
  6
CONTINUOUS
 62
    3
 10
2249.1140184630835
 20
2206.1253534478628
 11
2271.6140184630835
 21
2206.1253534478628
  0
LINE
  8
_0-3_躯体と製品
  6
CONTINUOUS
 62
    3
 10
2271.6140184630835
 20
2186.6253534478615
 11
2249.1140184630835
 21
2186.6253534478615
  0
LINE
  8
_0-3_躯体と製品
  6
CONTINUOUS
 62
    3
 10
2249.1140184630835
 20
2192.1253534478615
 11
2271.6140184630835
 21
2192.1253534478615
  0
LINE
  8
_0-3_躯体と製品
  6
CONTINUOUS
 62
    3
 10
2271.6140184630835
 20
2172.6253534478615
 11
2249.1140184630835
 21
2172.6253534478615
  0
LINE
  8
_0-3_躯体と製品
  6
CONTINUOUS
 62
    3
 10
2249.1140184630835
 20
2178.1253534478615
 11
2271.6140184630835
 21
2178.1253534478615
  0
LINE
  8
_0-3_躯体と製品
  6
CONTINUOUS
 62
    3
 10
2271.6140184630835
 20
2158.6253534478628
 11
2249.1140184630835
 21
2158.6253534478628
  0
LINE
  8
_0-3_躯体と製品
  6
CONTINUOUS
 62
    3
 10
2249.1140184630835
 20
2164.1253534478615
 11
2271.6140184630835
 21
2164.1253534478615
  0
LINE
  8
_0-3_躯体と製品
  6
CONTINUOUS
 62
    3
 10
2271.6140184630835
 20
2144.6253534478615
 11
2249.1140184630835
 21
2144.6253534478615
  0
LINE
  8
_0-3_躯体と製品
  6
CONTINUOUS
 62
    3
 10
2249.1140184630835
 20
2150.1253534478606
 11
2271.6140184630835
 21
2150.1253534478606
  0
LINE
  8
_0-3_躯体と製品
  6
CONTINUOUS
 62
    3
 10
2271.6140184630835
 20
2130.6253534478615
 11
2249.1140184630835
 21
2130.6253534478615
  0
LINE
  8
_0-3_躯体と製品
  6
CONTINUOUS
 62
    3
 10
2249.1140184630835
 20
2136.1253534478628
 11
2271.6140184630835
 21
2136.1253534478628
  0
LINE
  8
_0-3_躯体と製品
  6
CONTINUOUS
 62
    3
 10
2271.6140184630835
 20
2116.6253534478615
 11
2249.1140184630835
 21
2116.6253534478615
  0
LINE
  8
_0-3_躯体と製品
  6
CONTINUOUS
 62
    3
 10
2249.1140184630835
 20
2122.1253534478615
 11
2271.6140184630835
 21
2122.1253534478615
  0
LINE
  8
_0-3_躯体と製品
  6
CONTINUOUS
 62
    3
 10
1865.1140184630824
 20
2032.3234134478614
 11
1890.1140184630824
 21
2032.3234134478614
  0
LINE
  8
_0-3_躯体と製品
  6
CONTINUOUS
 62
    3
 10
1890.1140184630824
 20
2264.0127434478627
 11
1890.1140184630824
 21
2005.0749834478615
  0
LINE
  8
_0-3_躯体と製品
  6
CONTINUOUS
 62
    3
 10
1803.5126184630824
 20
2018.8932334478625
 11
1865.1140184630824
 21
2080.4946334478627
  0
LINE
  8
_0-3_躯体と製品
  6
CONTINUOUS
 62
    3
 10
1803.5126184630824
 20
2004.7511034478625
 11
1865.1140184630824
 21
2066.3525034478625
  0
LINE
  8
_0-3_躯体と製品
  6
CONTINUOUS
 62
    3
 10
1865.1140184630824
 20
2094.6367734478617
 11
1803.5126184630824
 21
2033.0353734478624
  0
LINE
  8
_0-3_躯体と製品
  6
CONTINUOUS
 62
    4
 10
2302.6140184630826
 20
1882.3234134478635
 11
2302.6140184630835
 21
1864.3234134478635
  0
LINE
  8
_0-3_躯体と製品
  6
CONTINUOUS
 62
    4
 10
2322.6140184630826
 20
1864.3234134478635
 11
2322.6140184630826
 21
1882.3234134478635
  0
LINE
  8
_0-3_躯体と製品
  6
CONTINUOUS
 62
    4
 10
2302.6140184630835
 20
1864.3234134478635
 11
2322.6140184630826
 21
1864.3234134478635
  0
LINE
  8
_0-3_躯体と製品
  6
CONTINUOUS
 62
    6
 10
2302.6140184630826
 20
1865.1162734478626
 11
2319.8211584630835
 21
1882.3234134478635
  0
LINE
  8
_0-3_躯体と製品
  6
CONTINUOUS
 62
    6
 10
2302.6140184630826
 20
1872.1873434478634
 11
2312.7500884630836
 21
1882.3234134478635
  0
LINE
  8
_0-3_躯体と製品
  6
CONTINUOUS
 62
    6
 10
2302.6140184630826
 20
1879.2584034478625
 11
2305.6790184630845
 21
1882.3234134478635
  0
LINE
  8
_0-3_躯体と製品
  6
CONTINUOUS
 62
    6
 10
2308.8922284630844
 20
1864.3234134478635
 11
2322.6140184630826
 21
1878.0452034478615
  0
LINE
  8
_0-3_躯体と製品
  6
CONTINUOUS
 62
    6
 10
2315.9632897701495
 20
1864.3234134478625
 11
2322.6140184630826
 21
1870.9741334478624
  0
LINE
  8
_0-3_躯体と製品
  6
CONTINUOUS
 62
    4
 10
2282.6137184630834
 20
1849.3234134478635
 11
2282.6137184630834
 21
1867.8234134478625
  0
LINE
  8
_0-3_躯体と製品
  6
CONTINUOUS
 62
    4
 10
2282.6137184630834
 20
1867.8234134478625
 11
2282.6137184630834
 21
1874.3234134478625
  0
LINE
  8
_0-3_躯体と製品
  6
CONTINUOUS
 62
    4
 10
2282.6137184630834
 20
1875.8234134478635
 11
2282.6137184630834
 21
1879.3234134478625
  0
LINE
  8
_0-3_躯体と製品
  6
CONTINUOUS
 62
    4
 10
2282.6137184630834
 20
1875.8234134478635
 11
2279.6137184630843
 21
1875.8234134478635
  0
LINE
  8
_0-3_躯体と製品
  6
CONTINUOUS
 62
    4
 10
2279.6137184630843
 20
1875.8234134478635
 11
2279.6137184630843
 21
1874.3234134478625
  0
LINE
  8
_0-3_躯体と製品
  6
CONTINUOUS
 62
    4
 10
2279.6137184630843
 20
1874.3234134478625
 11
2282.6137184630834
 21
1874.3234134478625
  0
LINE
  8
_0-3_躯体と製品
  6
CONTINUOUS
 62
    4
 10
2299.6140184630835
 20
1869.8234134478635
 11
2285.6137184630834
 21
1869.8234134478635
  0
LINE
  8
_0-3_躯体と製品
  6
CONTINUOUS
 62
    4
 10
2285.6137184630834
 20
1869.8234134478635
 11
2285.6137184630834
 21
1879.3234134478625
  0
LINE
  8
_0-3_躯体と製品
  6
CONTINUOUS
 62
    4
 10
2285.6137184630834
 20
1879.3234134478625
 11
2299.6140184630835
 21
1879.3234134478625
  0
LINE
  8
_0-3_躯体と製品
  6
CONTINUOUS
 62
    4
 10
2299.6140184630835
 20
1879.3234134478625
 11
2299.6140184630835
 21
1869.8234134478635
  0
LINE
  8
_0-3_躯体と製品
  6
CONTINUOUS
 62
    4
 10
2302.6140184630826
 20
1867.8234134478625
 11
2282.6137184630834
 21
1867.8234134478625
  0
LINE
  8
_0-3_躯体と製品
  6
CONTINUOUS
 62
    4
 10
2206.6140184630835
 20
1876.8234134478625
 11
2206.6140184630835
 21
1874.8234134478625
  0
LINE
  8
_0-3_躯体と製品
  6
CONTINUOUS
 62
    4
 10
2198.6140184630835
 20
1876.8234134478625
 11
2198.6140184630835
 21
1874.8234134478625
  0
LINE
  8
_0-3_躯体と製品
  6
CONTINUOUS
 62
    4
 10
2198.6140184630835
 20
1865.3234134478625
 11
2206.6140184630835
 21
1865.3234134478625
  0
LINE
  8
_0-3_躯体と製品
  6
CONTINUOUS
 62
    4
 10
2203.6140184630835
 20
1874.8234134478625
 11
2206.6140184630835
 21
1874.8234134478625
  0
LINE
  8
_0-3_躯体と製品
  6
CONTINUOUS
 62
    4
 10
2203.6140184630835
 20
1867.3234134478635
 11
2203.6140184630835
 21
1874.8234134478625
  0
LINE
  8
_0-3_躯体と製品
  6
CONTINUOUS
 62
    4
 10
2201.6140184630835
 20
1874.8234134478625
 11
2201.6140184630835
 21
1867.3234134478635
  0
LINE
  8
_0-3_躯体と製品
  6
CONTINUOUS
 62
    4
 10
2198.6140184630835
 20
1874.8234134478625
 11
2201.6140184630835
 21
1874.8234134478625
  0
LINE
  8
_0-3_躯体と製品
  6
CONTINUOUS
 62
    4
 10
2201.6140184630835
 20
1876.8234134478625
 11
2198.6140184630835
 21
1876.8234134478625
  0
LINE
  8
_0-3_躯体と製品
  6
CONTINUOUS
 62
    4
 10
2201.6140184630835
 20
1879.3234134478625
 11
2201.6140184630835
 21
1876.8234134478625
  0
LINE
  8
_0-3_躯体と製品
  6
CONTINUOUS
 62
    4
 10
2203.6140184630835
 20
1876.8234134478625
 11
2206.6140184630835
 21
1876.8234134478625
  0
LINE
  8
_0-3_躯体と製品
  6
CONTINUOUS
 62
    4
 10
2203.6140184630835
 20
1879.3234134478625
 11
2203.6140184630835
 21
1876.8234134478625
  0
LINE
  8
_0-3_躯体と製品
  6
CONTINUOUS
 62
    4
 10
2206.6140184630835
 20
1867.3234134478635
 11
2206.6140184630835
 21
1865.3234134478625
  0
LINE
  8
_0-3_躯体と製品
  6
CONTINUOUS
 62
    4
 10
2198.6140184630835
 20
1867.3234134478635
 11
2198.6140184630835
 21
1865.3234134478625
  0
LINE
  8
_0-3_躯体と製品
  6
CONTINUOUS
 62
    4
 10
2203.6140184630835
 20
1867.3234134478635
 11
2206.6140184630835
 21
1867.3234134478635
  0
LINE
  8
_0-3_躯体と製品
  6
CONTINUOUS
 62
    4
 10
2201.6140184630835
 20
1867.3234134478635
 11
2198.6140184630835
 21
1867.3234134478635
  0
LINE
  8
_0-3_躯体と製品
  6
CONTINUOUS
 62
    4
 10
2122.6143184630846
 20
1849.3234134478635
 11
2122.6143184630846
 21
1867.8234134478625
  0
LINE
  8
_0-3_躯体と製品
  6
CONTINUOUS
 62
    4
 10
2122.6143184630846
 20
1875.8234134478635
 11
2125.6143184630837
 21
1875.8234134478635
  0
LINE
  8
_0-3_躯体と製品
  6
CONTINUOUS
 62
    4
 10
2125.6143184630837
 20
1875.8234134478635
 11
2125.6143184630837
 21
1874.3234134478625
  0
LINE
  8
_0-3_躯体と製品
  6
CONTINUOUS
 62
    4
 10
2125.6143184630837
 20
1874.3234134478625
 11
2122.6143184630846
 21
1874.3234134478625
  0
LINE
  8
_0-3_躯体と製品
  6
CONTINUOUS
 62
    4
 10
2119.6143184630846
 20
1869.8234134478635
 11
2119.6143184630846
 21
1879.3234134478625
  0
LINE
  8
_0-3_躯体と製品
  6
CONTINUOUS
 62
    4
 10
2122.6143184630846
 20
1867.8234134478625
 11
2122.6143184630846
 21
1874.3234134478625
  0
LINE
  8
_0-3_躯体と製品
  6
CONTINUOUS
 62
    4
 10
2122.6143184630846
 20
1875.8234134478635
 11
2122.6143184630846
 21
1879.3234134478625
  0
LINE
  8
_0-3_躯体と製品
  6
CONTINUOUS
 62
    4
 10
2122.6143184630846
 20
1879.3234134478625
 11
2201.6140184630835
 21
1879.3234134478625
  0
LINE
  8
_0-3_躯体と製品
  6
CONTINUOUS
 62
    4
 10
2082.6140184630822
 20
1864.3234134478635
 11
2082.6140184630822
 21
1882.3234134478635
  0
LINE
  8
_0-3_躯体と製品
  6
CONTINUOUS
 62
    4
 10
2102.6140184630822
 20
1882.3234134478635
 11
2102.6140184630822
 21
1864.3234134478635
  0
LINE
  8
_0-3_躯体と製品
  6
CONTINUOUS
 62
    4
 10
2102.6140184630822
 20
1864.3234134478635
 11
2082.6140184630822
 21
1864.3234134478635
  0
LINE
  8
_0-3_躯体と製品
  6
CONTINUOUS
 62
    4
 10
2105.6140184630844
 20
1879.3234134478625
 11
2105.6140184630844
 21
1869.8234134478635
  0
LINE
  8
_0-3_躯体と製品
  6
CONTINUOUS
 62
    6
 10
2082.6140184630822
 20
1865.1162734478626
 11
2099.8211584630826
 21
1882.3234134478635
  0
LINE
  8
_0-3_躯体と製品
  6
CONTINUOUS
 62
    6
 10
2088.8922284630835
 20
1864.3234134478635
 11
2102.6140184630822
 21
1878.0452034478615
  0
LINE
  8
_0-3_躯体と製品
  6
CONTINUOUS
 62
    6
 10
2095.9632897701495
 20
1864.3234134478635
 11
2102.6140184630822
 21
1870.9741334478624
  0
LINE
  8
_0-3_躯体と製品
  6
CONTINUOUS
 62
    6
 10
2082.6140184630822
 20
1872.1873434478634
 11
2092.7500884630836
 21
1882.3234134478635
  0
LINE
  8
_0-3_躯体と製品
  6
CONTINUOUS
 62
    6
 10
2082.6140184630822
 20
1879.2584034478625
 11
2085.6790184630845
 21
1882.3234134478635
  0
LINE
  8
_0-3_躯体と製品
  6
CONTINUOUS
 62
    4
 10
2102.6140184630822
 20
1867.8234134478625
 11
2122.6143184630846
 21
1867.8234134478625
  0
LINE
  8
_0-3_躯体と製品
  6
CONTINUOUS
 62
    4
 10
2105.6140184630844
 20
1869.8234134478635
 11
2119.6143184630846
 21
1869.8234134478635
  0
LINE
  8
_0-3_躯体と製品
  6
CONTINUOUS
 62
    4
 10
2119.6143184630846
 20
1879.3234134478625
 11
2105.6140184630844
 21
1879.3234134478625
  0
LINE
  8
_0-3_躯体と製品
  6
CONTINUOUS
 62
    4
 10
2082.9709084630822
 20
2069.3753534478615
 11
2322.9709084630836
 21
2069.3753534478615
  0
LINE
  8
_0-3_躯体と製品
  6
CONTINUOUS
 62
    4
 10
2102.6140184630822
 20
2089.3753534478615
 11
2302.6140184630826
 21
2089.3753534478615
  0
LINE
  8
_0-3_躯体と製品
  6
CONTINUOUS
 62
    4
 10
2282.6140184630822
 20
1879.3234134478625
 11
2203.6140184630835
 21
1879.3234134478625
  0
LINE
  8
_0-3_躯体と製品
  6
CONTINUOUS
 62
    3
 10
2525.0672205813635
 20
1334.8641534478625
 11
2572.5264905813633
 21
1382.323413447863
  0
LINE
  8
_0-3_躯体と製品
  6
CONTINUOUS
 62
    3
 10
2510.9250905813633
 20
1334.8641534478625
 11
2558.3843505813616
 21
1382.323413447863
  0
LINE
  8
_0-3_躯体と製品
  6
CONTINUOUS
 62
    3
 10
2544.2422105813625
 20
1382.323413447863
 11
2496.7829505813625
 21
1334.8641534478625
  0
LINE
  8
_0-3_躯体と製品
  6
CONTINUOUS
 62
    3
 10
1865.1140184630824
 20
1979.1556734478625
 11
1890.1140184630824
 21
1979.1556734478625
  0
LINE
  8
_0-3_躯体と製品
  6
CONTINUOUS
 62
    3
 10
1865.1140184630824
 20
1959.1556734478625
 11
1890.1140184630824
 21
1959.1556734478625
  0
LINE
  8
_0-3_躯体と製品
  6
CONTINUOUS
 62
    3
 10
1865.1140184630824
 20
1905.8123634478625
 11
1890.1140184630824
 21
1905.8123634478625
  0
LINE
  8
_0-3_躯体と製品
  6
CONTINUOUS
 62
    3
 10
1865.1140184630824
 20
1959.1556734478625
 11
1890.1140184630824
 21
1905.8123634478625
  0
LINE
  8
_0-3_躯体と製品
  6
CONTINUOUS
 62
    4
 10
1890.1140184630824
 20
1820.3234134478625
 11
1890.1140184630824
 21
1864.3234134478625
  0
LINE
  8
_0-3_躯体と製品
  6
CONTINUOUS
 62
    3
 10
1803.5126184630824
 20
1690.9929234478625
 11
1865.1140184630824
 21
1752.5943234478625
  0
LINE
  8
_0-3_躯体と製品
  6
CONTINUOUS
 62
    3
 10
1803.5126184630824
 20
1676.8507934478625
 11
1865.1140184630824
 21
1738.4521934478626
  0
LINE
  8
_0-3_躯体と製品
  6
CONTINUOUS
 62
    3
 10
1865.1140184630824
 20
1766.7364634478624
 11
1803.5126184630824
 21
1705.1350634478624
  0
LINE
  8
_0-3_躯体と製品
  6
CONTINUOUS
 62
    3
 10
2095.6132084630826
 20
1334.8641534478625
 11
2143.0724684630813
 21
1382.323413447863
  0
LINE
  8
_0-3_躯体と製品
  6
CONTINUOUS
 62
    3
 10
2128.9303384630834
 20
1382.323413447863
 11
2081.4710684630818
 21
1334.8641534478625
  0
LINE
  8
_0-3_躯体と製品
  6
CONTINUOUS
 62
    3
 10
1803.5126184630824
 20
1419.9647534478618
 11
1865.1140184630824
 21
1481.5661534478627
  0
LINE
  8
_0-3_躯体と製品
  6
CONTINUOUS
 62
    3
 10
1803.5126184630824
 20
1405.822623447863
 11
1865.1140184630824
 21
1467.4240234478623
  0
LINE
  8
_0-3_躯体と製品
  6
CONTINUOUS
 62
    3
 10
1865.1140184630824
 20
1495.7082934478626
 11
1803.5126184630824
 21
1434.1068934478631
  0
LINE
  8
_0-3_躯体と製品
  6
CONTINUOUS
 62
    3
 10
2109.7553384630837
 20
1334.8641534478625
 11
2157.2146084630822
 21
1382.323413447863
  0
LINE
  8
_0-3_躯体と製品
  6
CONTINUOUS
 62
    4
 10
1865.1140184630824
 20
2264.0127434478627
 11
1865.1140184630824
 21
1382.323413447863
  0
LINE
  8
_0-3_躯体と製品
  6
CONTINUOUS
 62
    3
 10
1890.1140184630824
 20
1979.1556734478625
 11
1865.1140184630824
 21
2032.3234134478614
  0
LINE
  8
_0-3_躯体と製品
  6
CONTINUOUS
 62
    4
 10
2082.9709084630822
 20
2264.0127434478627
 11
2082.9709084630822
 21
2069.3753534478615
  0
LINE
  8
_0-3_躯体と製品
  6
CONTINUOUS
 62
    4
 10
2322.9709084630836
 20
2069.3753534478615
 11
2322.9709084630836
 21
2264.0127434478627
  0
LINE
  8
_0-3_躯体と製品
  6
CONTINUOUS
 62
    4
 10
2102.6140184630822
 20
2264.0127434478627
 11
2102.6140184630822
 21
2089.3753534478615
  0
LINE
  8
_0-3_躯体と製品
  6
CONTINUOUS
 62
    4
 10
2302.6140184630826
 20
2089.3753534478615
 11
2302.6140184630826
 21
2264.0127434478627
  0
LINE
  8
_0-3_躯体と製品
  6
CONTINUOUS
 62
    4
 10
1865.1140184630824
 20
1382.323413447863
 11
3188.7347284630832
 21
1382.323413447863
  0
LINE
  8
_0-3_躯体と製品
  6
CONTINUOUS
 62
    3
 10
1029.0553565089822
 20
1334.8641534478625
 11
1076.5146165089827
 21
1382.323413447863
  0
LINE
  8
_0-3_躯体と製品
  6
CONTINUOUS
 62
    3
 10
1043.1974865089824
 20
1334.8641534478625
 11
1090.6567465089829
 21
1382.323413447863
  0
LINE
  8
_0-3_躯体と製品
  6
CONTINUOUS
 62
    3
 10
1062.3724765089837
 20
1382.323413447863
 11
1014.9132165089833
 21
1334.8641534478625
  0
LINE
  8
_0-3_躯体と製品
  6
CONTINUOUS
 62
    3
 10
638.72956650898277
 20
1334.8641534478625
 11
686.18882650898331
 21
1382.323413447863
  0
LINE
  8
_0-3_躯体と製品
  6
CONTINUOUS
 62
    3
 10
652.87170650898179
 20
1334.8641534478625
 11
700.33096650898244
 21
1382.323413447863
  0
LINE
  8
_0-3_躯体と製品
  6
CONTINUOUS
 62
    3
 10
672.04669650898325
 20
1382.323413447863
 11
624.58743650898282
 21
1334.8641534478625
  0
LINE
  8
_0-3_躯体と製品
  6
CONTINUOUS
 62
    4
 10
518.55893650898292
 20
1382.323413447863
 11
1339.1169065089825
 21
1382.3234134478635
  0
LINE
  8
_0-3_躯体と製品
  6
CONTINUOUS
 62
    3
 10
-21.612111536916927
 20
2018.8932334478625
 11
39.98928846308263
 21
2080.4946334478627
  0
LINE
  8
_0-3_躯体と製品
  6
CONTINUOUS
 62
    3
 10
-21.612111536916927
 20
2004.7511034478625
 11
39.98928846308263
 21
2066.3525034478625
  0
LINE
  8
_0-3_躯体と製品
  6
CONTINUOUS
 62
    3
 10
39.98928846308263
 20
2094.6367734478617
 11
-21.612111536916927
 21
2033.0353734478624
  0
LINE
  8
_0-3_躯体と製品
  6
CONTINUOUS
 62
    4
 10
64.98928846308263
 20
1820.3234134478635
 11
64.98928846308263
 21
1864.3234134478625
  0
LINE
  8
_0-3_躯体と製品
  6
CONTINUOUS
 62
    3
 10
-21.612111536916927
 20
1690.9929234478625
 11
39.98928846308263
 21
1752.5943234478625
  0
LINE
  8
_0-3_躯体と製品
  6
CONTINUOUS
 62
    3
 10
-21.612111536916927
 20
1676.8507934478625
 11
39.98928846308263
 21
1738.4521934478626
  0
LINE
  8
_0-3_躯体と製品
  6
CONTINUOUS
 62
    3
 10
39.98928846308263
 20
1766.7364634478624
 11
-21.612111536916927
 21
1705.1350634478624
  0
LINE
  8
_0-3_躯体と製品
  6
CONTINUOUS
 62
    3
 10
270.48847846308308
 20
1334.8641534478625
 11
317.94773846308135
 21
1382.323413447863
  0
LINE
  8
_0-3_躯体と製品
  6
CONTINUOUS
 62
    3
 10
303.80559846308233
 20
1382.323413447863
 11
256.34633846308179
 21
1334.8641534478625
  0
LINE
  8
_0-3_躯体と製品
  6
CONTINUOUS
 62
    3
 10
-21.612111536916927
 20
1419.9647534478618
 11
39.98928846308263
 21
1481.5661534478627
  0
LINE
  8
_0-3_躯体と製品
  6
CONTINUOUS
 62
    3
 10
-21.612111536916927
 20
1405.822623447863
 11
39.98928846308263
 21
1467.4240234478623
  0
LINE
  8
_0-3_躯体と製品
  6
CONTINUOUS
 62
    3
 10
39.98928846308263
 20
1495.7082934478626
 11
-21.612111536916927
 21
1434.1068934478631
  0
LINE
  8
_0-3_躯体と製品
  6
CONTINUOUS
 62
    4
 10
39.98928846308263
 20
2264.0127434478627
 11
39.98928846308263
 21
1382.323413447863
  0
LINE
  8
_0-3_躯体と製品
  6
CONTINUOUS
 62
    4
 10
39.98928846308263
 20
1382.323413447863
 11
471.38204846308145
 21
1382.323413447863
  0
LINE
  8
_0-3_躯体と製品
  6
CONTINUOUS
 62
    3
 10
284.63060846308326
 20
1334.8641534478625
 11
332.08987846308264
 21
1382.323413447863
  0
LINE
  8
_0-3_躯体と製品
  6
CONTINUOUS
 62
    3
 10
1112.3724765089837
 20
166.84549344786274
 11
1064.9132165089832
 21
119.3862234478629
  0
LINE
  8
_0-3_躯体と製品
  6
CONTINUOUS
 62
    3
 10
1126.5146165089827
 20
166.84549344786274
 11
1077.1538765089831
 21
117.48475344786243
  0
LINE
  8
_0-3_躯体と製品
  6
CONTINUOUS
 62
    3
 10
1093.1974865089824
 20
119.3862234478629
 11
1140.6567465089829
 21
166.84549344786274
  0
LINE
  8
_0-3_躯体と製品
  6
CONTINUOUS
 62
    3
 10
734.05120650898243
 20
119.3862234478629
 11
781.51046650898297
 21
166.84549344786274
  0
LINE
  8
_0-3_躯体と製品
  6
CONTINUOUS
 62
    3
 10
748.19333650898261
 20
119.3862234478629
 11
795.65260650898199
 21
166.84549344786274
  0
LINE
  8
_0-3_躯体と製品
  6
CONTINUOUS
 62
    3
 10
767.36833650898279
 20
166.84549344786274
 11
719.90906650898341
 21
119.3862234478629
  0
LINE
  8
_0-3_躯体と製品
  6
CONTINUOUS
 62
    3
 10
334.63060846308326
 20
119.3862234478629
 11
382.08987846308264
 21
166.84549344786274
  0
LINE
  8
_0-3_躯体と製品
  6
CONTINUOUS
 62
    4
 10
471.38204846308122
 20
166.84549344786274
 11
39.98928846308263
 21
166.84549344786274
  0
LINE
  8
_0-3_躯体と製品
  6
CONTINUOUS
 62
    4
 10
1406.3345465089835
 20
166.84549344786274
 11
518.55893650898247
 21
166.84549344786274
  0
LINE
  8
_0-3_躯体と製品
  6
CONTINUOUS
 62
    3
 10
-21.612111536916927
 20
803.41531344786301
 11
39.98928846308263
 21
865.01671344786246
  0
LINE
  8
_0-3_躯体と製品
  6
CONTINUOUS
 62
    3
 10
-21.612111536916927
 20
789.27318344786283
 11
39.98928846308263
 21
850.87457344786242
  0
LINE
  8
_0-3_躯体と製品
  6
CONTINUOUS
 62
    3
 10
39.98928846308263
 20
879.15885344786273
 11
-21.612111536916927
 21
817.55745344786203
  0
LINE
  8
_0-3_躯体と製品
  6
CONTINUOUS
 62
    4
 10
77.48928846308263
 20
648.84549344786251
 11
77.48928846308263
 21
633.84549344786251
  0
LINE
  8
_0-3_躯体と製品
  6
CONTINUOUS
 62
    4
 10
77.489288463082403
 20
602.84549344786274
 11
77.489288463082403
 21
552.84549344786274
  0
LINE
  8
_0-3_躯体と製品
  6
CONTINUOUS
 62
    3
 10
-21.612111536916927
 20
475.51500344786302
 11
39.98928846308263
 21
537.11640344786258
  0
LINE
  8
_0-3_躯体と製品
  6
CONTINUOUS
 62
    3
 10
-21.612111536916927
 20
461.37287344786284
 11
39.98928846308263
 21
522.97426344786243
  0
LINE
  8
_0-3_躯体と製品
  6
CONTINUOUS
 62
    3
 10
39.98928846308263
 20
551.25853344786276
 11
-21.612111536916927
 21
489.65714344786204
  0
LINE
  8
_0-3_躯体と製品
  6
CONTINUOUS
 62
    3
 10
-21.612111536916927
 20
204.4868334478623
 11
39.98928846308263
 21
266.08823344786242
  0
LINE
  8
_0-3_躯体と製品
  6
CONTINUOUS
 62
    3
 10
-21.612111536916927
 20
190.34470344786268
 11
39.98928846308263
 21
251.94609344786284
  0
LINE
  8
_0-3_躯体と製品
  6
CONTINUOUS
 62
    3
 10
39.98928846308263
 20
280.2303634478626
 11
-21.612111536916927
 21
218.62897344786234
  0
LINE
  8
_0-3_躯体と製品
  6
CONTINUOUS
 62
    4
 10
39.98928846308263
 20
1048.534823447862
 11
39.98928846308263
 21
166.84549344786274
  0
LINE
  8
_0-3_躯体と製品
  6
CONTINUOUS
 62
    3
 10
367.94773846308135
 20
166.84549344786274
 11
318.58699846308173
 21
117.48475344786243
  0
LINE
  8
_0-3_躯体と製品
  6
CONTINUOUS
 62
    3
 10
353.80559846308233
 20
166.84549344786274
 11
306.34633846308179
 21
119.3862234478629
  0
LINE
  8
_0-3_躯体と製品
  6
CONTINUOUS
 62
    3
 10
1012.1995165089826
 20
1734.7234134478585
 11
1012.1995165089826
 21
1551.3234141315404
  0
LINE
  8
_0-3_躯体と製品
  6
CONTINUOUS
 62
    4
 10
997.69951650898258
 20
1734.7234134478585
 11
997.69951650898258
 21
1551.3234141315404
  0
LINE
  8
_0-3_躯体と製品
  6
CONTINUOUS
 62
    4
 10
1013.6995165089826
 20
1734.7234134478585
 11
1013.6995165089826
 21
1551.3234141315404
  0
LINE
  8
_0-3_躯体と製品
  6
CONTINUOUS
 62
    3
 10
999.19951650898258
 20
1734.7234134478585
 11
999.19951650898258
 21
1551.3234141315404
  0
LINE
  8
_0-3_躯体と製品
  6
CONTINUOUS
 62
    4
 10
997.69951651916847
 20
1518.1234134478514
 11
997.69951651916847
 21
1466.2234134478581
  0
LINE
  8
_0-3_躯体と製品
  6
CONTINUOUS
 62
    4
 10
1013.6995175764583
 20
1518.1234134478514
 11
1013.6995175764583
 21
1466.2234134478581
  0
LINE
  8
_0-3_躯体と製品
  6
CONTINUOUS
 62
    4
 10
1013.6995175764583
 20
1466.2234134478581
 11
1012.1995165089826
 21
1464.7234134478581
  0
LINE
  8
_0-3_躯体と製品
  6
CONTINUOUS
 62
    3
 10
999.19951650898258
 20
1518.1280950758005
 11
999.19951650898247
 21
1464.7234134478581
  0
LINE
  8
_0-3_躯体と製品
  6
CONTINUOUS
 62
    3
 10
1012.1995165089826
 20
1518.1234134478514
 11
1012.1995165089826
 21
1464.7234134478581
  0
LINE
  8
_0-3_躯体と製品
  6
CONTINUOUS
 62
    4
 10
999.19951650898247
 20
1464.7234134478581
 11
1012.1995165089826
 21
1464.7234134478581
  0
LINE
  8
_0-3_躯体と製品
  6
CONTINUOUS
 62
    4
 10
997.69951651916847
 20
1466.2234134478581
 11
999.19951650898247
 21
1464.7234134478581
  0
LINE
  8
_0-3_躯体と製品
  6
CONTINUOUS
 62
    3
 10
997.69951651916847
 20
1466.2234134478581
 11
1013.6995175764583
 21
1466.2234134478581
  0
LINE
  8
_0-3_躯体と製品
  6
CONTINUOUS
 62
    3
 10
2059.1140184630822
 20
1734.7234134478585
 11
2059.1140184630822
 21
1551.3234141315404
  0
LINE
  8
_0-3_躯体と製品
  6
CONTINUOUS
 62
    4
 10
2044.6140184630824
 20
1734.7234134478585
 11
2044.6140184630824
 21
1551.3234141315404
  0
LINE
  8
_0-3_躯体と製品
  6
CONTINUOUS
 62
    4
 10
2060.6140184630822
 20
1734.7234134478585
 11
2060.6140184630822
 21
1551.3234141315404
  0
LINE
  8
_0-3_躯体と製品
  6
CONTINUOUS
 62
    3
 10
2046.1140184630824
 20
1734.7234134478585
 11
2046.1140184630824
 21
1551.3234141315404
  0
LINE
  8
_0-3_躯体と製品
  6
CONTINUOUS
 62
    4
 10
2044.6140184732674
 20
1518.1234134478514
 11
2044.6140184732674
 21
1466.2234134478581
  0
LINE
  8
_0-3_躯体と製品
  6
CONTINUOUS
 62
    4
 10
2060.6140195305575
 20
1518.1234134478514
 11
2060.6140195305575
 21
1466.2234134478581
  0
LINE
  8
_0-3_躯体と製品
  6
CONTINUOUS
 62
    4
 10
2060.6140195305575
 20
1466.2234134478581
 11
2059.1140184630822
 21
1464.7234134478581
  0
LINE
  8
_0-3_躯体と製品
  6
CONTINUOUS
 62
    3
 10
2046.1140184630824
 20
1518.1280950758005
 11
2046.1140184630824
 21
1464.7234134478581
  0
LINE
  8
_0-3_躯体と製品
  6
CONTINUOUS
 62
    3
 10
2059.1140184630822
 20
1518.1234134478514
 11
2059.1140184630822
 21
1464.7234134478581
  0
LINE
  8
_0-3_躯体と製品
  6
CONTINUOUS
 62
    4
 10
2046.1140184630824
 20
1464.7234134478581
 11
2059.1140184630822
 21
1464.7234134478581
  0
LINE
  8
_0-3_躯体と製品
  6
CONTINUOUS
 62
    4
 10
2044.6140184732674
 20
1466.2234134478581
 11
2046.1140184630824
 21
1464.7234134478581
  0
LINE
  8
_0-3_躯体と製品
  6
CONTINUOUS
 62
    3
 10
2044.6140184732674
 20
1466.2234134478581
 11
2060.6140195305575
 21
1466.2234134478581
  0
LINE
  8
_0-3_躯体と製品
  6
CONTINUOUS
 62
    3
 10
2809.1140184630826
 20
1734.7234134478585
 11
2809.1140184630826
 21
1551.3234141315404
  0
LINE
  8
_0-3_躯体と製品
  6
CONTINUOUS
 62
    4
 10
2794.6140184630826
 20
1734.7234134478585
 11
2794.6140184630826
 21
1551.3234141315404
  0
LINE
  8
_0-3_躯体と製品
  6
CONTINUOUS
 62
    4
 10
2810.6140184630826
 20
1734.7234134478585
 11
2810.6140184630826
 21
1551.3234141315404
  0
LINE
  8
_0-3_躯体と製品
  6
CONTINUOUS
 62
    3
 10
2796.1140184630826
 20
1734.7234134478585
 11
2796.1140184630826
 21
1551.3234141315404
  0
LINE
  8
_0-3_躯体と製品
  6
CONTINUOUS
 62
    4
 10
2794.6140184732685
 20
1518.1234134478514
 11
2794.6140184732685
 21
1466.2234134478581
  0
LINE
  8
_0-3_躯体と製品
  6
CONTINUOUS
 62
    4
 10
2810.6140195305584
 20
1518.1234134478514
 11
2810.6140195305584
 21
1466.2234134478581
  0
LINE
  8
_0-3_躯体と製品
  6
CONTINUOUS
 62
    4
 10
2810.6140195305584
 20
1466.2234134478581
 11
2809.1140184630826
 21
1464.7234134478581
  0
LINE
  8
_0-3_躯体と製品
  6
CONTINUOUS
 62
    3
 10
2796.1140184630826
 20
1518.1280950758005
 11
2796.1140184630826
 21
1464.7234134478581
  0
LINE
  8
_0-3_躯体と製品
  6
CONTINUOUS
 62
    3
 10
2809.1140184630826
 20
1518.1234134478514
 11
2809.1140184630826
 21
1464.7234134478581
  0
LINE
  8
_0-3_躯体と製品
  6
CONTINUOUS
 62
    4
 10
2796.1140184630826
 20
1464.7234134478581
 11
2809.1140184630826
 21
1464.7234134478581
  0
LINE
  8
_0-3_躯体と製品
  6
CONTINUOUS
 62
    4
 10
2794.6140184732685
 20
1466.2234134478581
 11
2796.1140184630826
 21
1464.7234134478581
  0
LINE
  8
_0-3_躯体と製品
  6
CONTINUOUS
 62
    3
 10
2794.6140184732685
 20
1466.2234134478581
 11
2810.6140195305584
 21
1466.2234134478581
  0
TEXT
  8
_0-4_文字-記号
 62
    7
 10
163.74337060802827
 20
2025.4443113298514
 40
45
 41
0.8
 50
0
  1
ｴｷｽﾊﾟﾝｼｮﾝｺﾞﾑ取付
  0
TEXT
  8
_0-4_文字-記号
 62
    7
 10
189.43049386996222
 20
895.60321335235813
 40
45
 41
0.8
 50
0
  1
巾木
  0
TEXT
  8
_0-4_文字-記号
 62
    7
 10
156.25359221521808
 20
756.35398953210756
 40
45
 41
0.8
 50
0
  1
または巾木のみ込み
  0
LINE
  8
_0-4_文字-記号
  6
CONTINUOUS
 62
    7
 10
105.43878214650408
 20
680.79233823396339
 11
90.797766037234624
 21
666.15132205827467
  0
LINE
  8
_0-4_文字-記号
  6
CONTINUOUS
 62
    7
 10
90.797766037234624
 20
666.15132205827467
 11
96.156749927965166
 21
686.15132203396342
  0
LINE
  8
_0-4_文字-記号
  6
CONTINUOUS
 62
    7
 10
104.63030457235186
 20
773.53731178984185
 11
89.989288463082403
 21
758.89629561415313
  0
LINE
  8
_0-4_文字-記号
  6
CONTINUOUS
 62
    7
 10
89.989288463082403
 20
758.89629561415313
 11
95.348272353812945
 21
778.89629558984188
  0
LINE
  8
_0-4_文字-記号
  6
CONTINUOUS
 62
    7
 10
90.797766037234624
 20
666.15132205827467
 11
100.79776603723462
 21
683.47183013396352
  0
LINE
  8
_0-4_文字-記号
  6
CONTINUOUS
 62
    7
 10
100.79776603723462
 20
683.47183013396352
 11
138.50402395763035
 21
748.78098461538502
  0
LINE
  8
_0-4_文字-記号
  6
CONTINUOUS
 62
    7
 10
138.50402395763035
 20
748.78098461538502
 11
530.98100056495036
 21
748.78098461538502
  0
LINE
  8
_0-4_文字-記号
  6
CONTINUOUS
 62
    7
 10
89.989288463082403
 20
758.89629561415313
 11
99.989288463082403
 21
776.21680368984198
  0
LINE
  8
_0-4_文字-記号
  6
CONTINUOUS
 62
    7
 10
99.989288463082403
 20
776.21680368984198
 11
168.97305305596615
 21
895.70018886208732
  0
LINE
  8
_0-4_文字-記号
  6
CONTINUOUS
 62
    7
 10
168.97305305596615
 20
895.70018886208732
 11
289.89578571637617
 21
895.70018886208732
  0
TEXT
  8
_0-4_文字-記号
 62
    7
 10
163.74337060802804
 20
809.96639132985115
 40
45
 41
0.8
 50
0
  1
ｴｷｽﾊﾟﾝｼｮﾝｺﾞﾑ取付
  0
TEXT
  8
_0-4_文字-記号
 62
    7
 10
2635.9655473886633
 20
2004.9769712348605
 40
45
 41
0.8
 50
0
  1
２００×１０００
  0
ENDSEC
  0
EOF
