  0
SECTION
  2
HEADER
  9
$ACADVER
  1
AC1009
  9
$INSBASE
 10
0
 20
0
 30
0
  9
$EXTMIN
 10
0
 20
0
  9
$EXTMAX
 10
2523
 20
1782
  9
$LIMMIN
 10
0
 20
0
  9
$LIMMAX
 10
2523
 20
1782
  9
$LTSCALE
 40
3
  0
ENDSEC
  0
SECTION
  2
TABLES
  0
TABLE
  2
LTYPE
 70
     9
  0
LTYPE
  2
CONTINUOUS
 70
    64
  3
実線
 72
    65
 73
     0
 40
0.0
  0
LTYPE
  2
DASHED1
 70
    64
  3
--  --  --  --  --  --  --  --  
 72
    65
 73
     2
 40
2.5
 49
1.25
 49
-1.25
  0
LTYPE
  2
DASHED2
 70
    64
  3
----    ----    ----    ----    
 72
    65
 73
     2
 40
5.0
 49
2.5
 49
-2.5
  0
LTYPE
  2
DASHED3
 70
    64
  3
------  ------  ------  ------  
 72
    65
 73
     2
 40
5.0
 49
3.75
 49
-1.25
  0
LTYPE
  2
CENTER1
 70
    64
  3
----- - ----- - ----- - ----- - 
 72
    65
 73
     4
 40
10.0
 49
6.25
 49
-1.25
 49
1.25
 49
-1.25
  0
LTYPE
  2
CENTER2
 70
    64
  3
----------  --  ----------  --  
 72
    65
 73
     4
 40
20.0
 49
12.5
 49
-2.5
 49
2.5
 49
-2.5
  0
LTYPE
  2
PHANTOM1
 70
    64
  3
--- - - --- - - --- - - --- - - 
 72
    65
 73
     6
 40
10.0
 49
3.25
 49
-1.25
 49
1.25
 49
-1.25
 49
1.25
 49
-1.25
  0
LTYPE
  2
PHANTOM2
 70
    64
  3
--------  -  -  --------  -  -  
 72
    65
 73
     6
 40
20.0
 49
10.0
 49
-2.5
 49
1.25
 49
-2.5
 49
1.25
 49
-2.5
  0
LTYPE
  2
DOT
 70
    64
  3
-   -   -   -   -   -   -   -   
 72
    65
 73
     2
 40
2.5
 49
0.625
 49
-1.875
  0
LTYPE
  2
DUMMY
 70
    64
  3
ダミー
 72
    65
 73
     0
 40
0.0
  0
LTYPE
  2
RAND1
 70
    64
  3
ランダム線1
 72
    65
 73
     4
 40
10.0
 49
1.0
 49
-2.0
 49
3.0
 49
-4.0
  0
LTYPE
  2
RAND2
 70
    64
  3
ランダム線2
 72
    65
 73
     4
 40
14.0
 49
2.0
 49
-3.0
 49
4.0
 49
-5.0
  0
LTYPE
  2
RAND3
 70
    64
  3
ランダム線3
 72
    65
 73
     4
 40
18.0
 49
3.0
 49
-4.0
 49
5.0
 49
-6.0
  0
LTYPE
  2
RAND4
 70
    64
  3
ランダム線4
 72
    65
 73
     4
 40
22.0
 49
4.0
 49
-5.0
 49
6.0
 49
-7.0
  0
LTYPE
  2
RAND5
 70
    64
  3
ランダム線5
 72
    65
 73
     4
 40
26.0
 49
5.0
 49
-6.0
 49
7.0
 49
-8.0
  0
LTYPE
  2
LONG1
 70
    64
  3
----------  --  ----------  --  
 72
    65
 73
     4
 40
40.0
 49
32.5
 49
-2.5
 49
2.5
 49
-2.5
  0
LTYPE
  2
LONG2
 70
    64
  3
--------  -  -  --------  -  -  
 72
    65
 73
     6
 40
40.0
 49
30.0
 49
-2.5
 49
1.25
 49
-2.5
 49
1.25
 49
-2.5
  0
LTYPE
  2
LONG3
 70
    64
  3
+++++++++++++++..+++++++++++++++
 72
    65
 73
     2
 40
40.0
 49
37.5
 49
-2.5
  0
LTYPE
  2
LONG4
 70
    64
  3
+++++++++++++++..+++++++++++++++
 72
    65
 73
     2
 40
80.0
 49
75.0
 49
-5.0
  0
LTYPE
  2
LONG5
 70
    64
  3
----------  --  ----------  --  
 72
    65
 73
     4
 40
60.0
 49
37.5
 49
-7.5
 49
7.5
 49
-7.5
  0
LTYPE
  2
dashed
 70
   64
  3
-------   -------------   ------
 72
   65
 73
    2
 40
7.5
 49
6
 49
-1.5
  0
LTYPE
  2
dashed_spaced
 70
   64
  3
----        --------        ----
 72
   65
 73
    2
 40
12
 49
6
 49
-6
  0
LTYPE
  2
long_dashed_dotted
 70
   64
  3
------------- --- --------------
 72
   65
 73
    4
 40
15.25
 49
12
 49
-1.5
 49
0.25
 49
-1.5
  0
LTYPE
  2
long_dashed_double-dotted
 70
   64
  3
----------- --- --- ------------
 72
   65
 73
    6
 40
17
 49
12
 49
-1.5
 49
0.25
 49
-1.5
 49
0.25
 49
-1.5
  0
LTYPE
  2
long_dashed_triplicate-dotted
 70
   64
  3
--------- --- --- --- ----------
 72
   65
 73
    8
 40
18.75
 49
12
 49
-1.5
 49
0.25
 49
-1.5
 49
0.25
 49
-1.5
 49
0.25
 49
-1.5
  0
LTYPE
  2
dotted
 70
   64
  3
   -       -       -       -    
 72
   65
 73
    2
 40
1.75
 49
0.25
 49
-1.5
  0
LTYPE
  2
chain
 70
   64
  3
-------------- -- --------------
 72
   65
 73
    4
 40
18.5
 49
12
 49
-1.5
 49
3.5
 49
-1.5
  0
LTYPE
  2
chain_double_dash
 70
   64
  3
------------ -- -- -------------
 72
   65
 73
    6
 40
23.5
 49
12
 49
-1.5
 49
3.5
 49
-1.5
 49
3.5
 49
-1.5
  0
LTYPE
  2
dashed_dotted
 70
   64
  3
-----------     -     ----------
 72
   65
 73
    4
 40
9.25
 49
6
 49
-1.5
 49
0.25
 49
-1.5
  0
LTYPE
  2
double-dashed_dotted
 70
   64
  3
------   -----------   -   -----
 72
   65
 73
    6
 40
16.75
 49
6
 49
-1.5
 49
6
 49
-1.5
 49
0.25
 49
-1.5
  0
LTYPE
  2
dashed_double-dotted
 70
   64
  3
---------    -    -    ---------
 72
   65
 73
    6
 40
11
 49
6
 49
-1.5
 49
0.25
 49
-1.5
 49
0.25
 49
-1.5
  0
LTYPE
  2
double-dashed_double-dotted
 70
   64
  3
-----   ---------   -   -   ----
 72
   65
 73
    8
 40
18.5
 49
6
 49
-1.5
 49
6
 49
-1.5
 49
0.25
 49
-1.5
 49
0.25
 49
-1.5
  0
LTYPE
  2
dashed_triplicate-dotted
 70
   64
  3
-------    -    -    -    ------
 72
   65
 73
    8
 40
12.75
 49
6
 49
-1.5
 49
0.25
 49
-1.5
 49
0.25
 49
-1.5
 49
0.25
 49
-1.5
  0
LTYPE
  2
double-dashed_triplicate-dotted
 70
   64
  3
-----  ---------  -  -  -  -----
 72
   65
 73
   10
 40
20.25
 49
6
 49
-1.5
 49
6
 49
-1.5
 49
0.25
 49
-1.5
 49
0.25
 49
-1.5
 49
0.25
 49
-1.5
  0
LTYPE
  2
undefined
 70
   64
  3
--------------------------------
 72
   65
 73
    0
 40
0
  0
LTYPE
  2
DASHED
 70
   64
  3
-----       ---------       ----
 72
   65
 73
    2
 40
3.5
 49
2
 49
-1.5
  0
LTYPE
  2
CENTER
 70
   64
  3
------------   ---   -----------
 72
   65
 73
    4
 40
17.5
 49
13
 49
-1.5
 49
1.5
 49
-1.5
  0
LTYPE
  2
PHANTOM
 70
   64
  3
---------   ---   ---   --------
 72
   65
 73
    6
 40
15.5
 49
8
 49
-1.5
 49
1.5
 49
-1.5
 49
1.5
 49
-1.5
  0
LTYPE
  2
HASEN
 70
   64
  3
-----      ----------      -----
 72
   65
 73
    2
 40
2.5
 49
1.5
 49
-1
  0
ENDTAB
  0
TABLE
  2
STYLE
  5
3
100
AcDbSymbolTable
 70
     1
  0
STYLE
  5
10
100
AcDbSymbolTableRecord
100
AcDbTextStyleTableRecord
  2
STANDARD
 70
     0
 40
0.0
 41
1.0
 50
0.0
 71
     0
 42
0.2
  3
txt
  4
bigfont.shx
  0
STYLE
  5
26
100
AcDbSymbolTableRecord
100
AcDbTextStyleTableRecord
  2
TATEGAKI
 70
    68
 40
0.0
 41
1.0
 50
0.0
 71
     0
 42
1.0
  3
txt
  4
bigfont.shx
  0
ENDTAB
  0
TABLE
  2
LAYER
 70
    6
  0
LAYER
  2
_0-0_0
 70
   64
 62
    7
  6
CONTINUOUS
  0
LAYER
  2
_0-2_寸法
 70
   64
 62
    7
  6
CONTINUOUS
  0
LAYER
  2
_0-3_躯体と製品
 70
   64
 62
    7
  6
CONTINUOUS
  0
LAYER
  2
_0-4_文字-記号
 70
   64
 62
    7
  6
CONTINUOUS
  0
LAYER
  2
_0-5_中心線
 70
   64
 62
    7
  6
CONTINUOUS
  0
LAYER
  2
ADD_LINE
 70
   64
 62
    7
  6
CONTINUOUS
  0
ENDTAB
  0
ENDSEC
  0
SECTION
  2
BLOCKS
  0
BLOCK
  2
-000-_Small
 70
   64
 10
0
 20
0
 30
0
  0
CIRCLE
  8
_0-0_0
  6
CONTINUOUS
 62
    7
 10
0
 20
0
 40
0.25
  0
ENDBLK
  0
ENDSEC
  0
SECTION
  2
ENTITIES
  0
LINE
  8
_0-3_躯体と製品
  6
CONTINUOUS
 62
    4
 10
1316.7593011174658
 20
1139.3728057044918
 11
1322.2593011174658
 21
1139.3728057044918
  0
LINE
  8
_0-3_躯体と製品
  6
CONTINUOUS
 62
    4
 10
1322.2593011174658
 20
1139.3728057044918
 11
1322.2593011174658
 21
1114.9458759908289
  0
LINE
  8
_0-3_躯体と製品
  6
CONTINUOUS
 62
    4
 10
1357.2593011174649
 20
1083.3728057044918
 11
1347.2593011174649
 21
1083.3728057044918
  0
LINE
  8
_0-3_躯体と製品
  6
CONTINUOUS
 62
    4
 10
1347.2593011174649
 20
1083.3728057044918
 11
1337.2593011174649
 21
1083.3728057044918
  0
LINE
  8
_0-3_躯体と製品
  6
CONTINUOUS
 62
    4
 10
1328.2593011174649
 20
1140.0728057045317
 11
1366.2593011174649
 21
1140.0728057045317
  0
LINE
  8
_0-3_躯体と製品
  6
CONTINUOUS
 62
    4
 10
1366.2593011174649
 20
1140.0728057045317
 11
1366.2593011174649
 21
1133.3728057044918
  0
LINE
  8
_0-3_躯体と製品
  6
CONTINUOUS
 62
    4
 10
1366.2593011174649
 20
1133.3728057044918
 11
1328.2593011174649
 21
1133.3728057044918
  0
LINE
  8
_0-3_躯体と製品
  6
CONTINUOUS
 62
    4
 10
1328.2593011174649
 20
1133.3728057044918
 11
1328.2593011174649
 21
1140.0728057045317
  0
LINE
  8
_0-3_躯体と製品
  6
CONTINUOUS
 62
    4
 10
1377.7593011174649
 20
1139.3728057044918
 11
1372.2593011174649
 21
1139.3728057044918
  0
LINE
  8
_0-3_躯体と製品
  6
CONTINUOUS
 62
    4
 10
1372.2593011174649
 20
1139.3728057044918
 11
1372.2593011174649
 21
1127.8734500835308
  0
LINE
  8
_0-3_躯体と製品
  6
CONTINUOUS
 62
    4
 10
1380.9593011174479
 20
1076.8728057044918
 11
1313.5593011174537
 21
1076.8728057044918
  0
LINE
  8
_0-3_躯体と製品
  6
CONTINUOUS
 62
    4
 10
1316.7593011174658
 20
1153.3728057045209
 11
1316.7593011174658
 21
1076.8728057044918
  0
LINE
  8
_0-3_躯体と製品
  6
CONTINUOUS
 62
    4
 10
416.75930111746476
 20
1139.3728057044918
 11
422.2593011174647
 21
1139.3728057044918
  0
LINE
  8
_0-3_躯体と製品
  6
CONTINUOUS
 62
    4
 10
422.2593011174647
 20
1139.3728057044918
 11
422.25930115521277
 21
1127.8728057044909
  0
LINE
  8
_0-3_躯体と製品
  6
CONTINUOUS
 62
    4
 10
457.25930111746476
 20
1083.3728057044918
 11
447.25930111746464
 21
1083.3728057044918
  0
LINE
  8
_0-3_躯体と製品
  6
CONTINUOUS
 62
    4
 10
447.25930111746464
 20
1083.3728057044918
 11
437.2593011174647
 21
1083.3728057044918
  0
LINE
  8
_0-3_躯体と製品
  6
CONTINUOUS
 62
    4
 10
428.2593011174647
 20
1140.0728057045317
 11
466.25930111746476
 21
1140.0728057045317
  0
LINE
  8
_0-3_躯体と製品
  6
CONTINUOUS
 62
    4
 10
466.25930111746476
 20
1140.0728057045317
 11
466.25930111746476
 21
1133.3728057044918
  0
LINE
  8
_0-3_躯体と製品
  6
CONTINUOUS
 62
    4
 10
466.25930111746476
 20
1133.3728057044918
 11
428.2593011174647
 21
1133.3728057044918
  0
LINE
  8
_0-3_躯体と製品
  6
CONTINUOUS
 62
    4
 10
428.2593011174647
 20
1133.3728057044918
 11
428.2593011174647
 21
1140.0728057045317
  0
LINE
  8
_0-3_躯体と製品
  6
CONTINUOUS
 62
    4
 10
477.7593011174647
 20
1139.3728057044918
 11
472.25930111746476
 21
1139.3728057044918
  0
LINE
  8
_0-3_躯体と製品
  6
CONTINUOUS
 62
    4
 10
472.25930111746476
 20
1139.3728057044918
 11
472.25930115521282
 21
1127.8728061197166
  0
LINE
  8
_0-3_躯体と製品
  6
CONTINUOUS
 62
    4
 10
480.95930111744764
 20
1076.8728057044918
 11
413.55930111745369
 21
1076.8728057044918
  0
LINE
  8
_0-3_躯体と製品
  6
CONTINUOUS
 62
    4
 10
416.75930111746476
 20
1153.3728057045209
 11
416.75930111746476
 21
1076.8728057044918
  0
LINE
  8
_0-3_躯体と製品
  6
CONTINUOUS
 62
    4
 10
428.75930111746476
 20
1063.6728057045239
 11
465.7593011174647
 21
1063.6728057045239
  0
LINE
  8
_0-3_躯体と製品
  6
CONTINUOUS
 62
    4
 10
436.86699627207787
 20
1050.6728057045239
 11
457.65160596288075
 21
1050.6728057045239
  0
LINE
  8
_0-3_躯体と製品
  6
CONTINUOUS
 62
    4
 10
440.33109788720657
 20
1052.1728057045239
 11
440.33109788720657
 21
1063.6728057045239
  0
LINE
  8
_0-3_躯体と製品
  6
CONTINUOUS
 62
    4
 10
454.18750434775171
 20
1035.1728057045239
 11
454.18750434775171
 21
1046.6728057045239
  0
LINE
  8
_0-3_躯体と製品
  6
CONTINUOUS
 62
    4
 10
454.18750434775171
 20
1052.1728057045239
 11
454.18750434775171
 21
1063.6728057045239
  0
LINE
  8
_0-3_躯体と製品
  6
CONTINUOUS
 62
    4
 10
440.33109788720657
 20
1035.1728057045239
 11
440.33109788720657
 21
1046.6728057045239
  0
ARC
  8
_0-3_躯体と製品
  6
CONTINUOUS
 62
    4
 10
436.86699627206303
 20
1055.4228057045298
 40
4.7500000000081855
 50
223.17355110726379
 51
316.82644889273621
  0
ARC
  8
_0-3_躯体と製品
  6
CONTINUOUS
 62
    4
 10
447.25930111747914
 20
1067.4228053840836
 40
16.749999708254752
 50
245.56730186717647
 51
294.43269813282353
  0
ARC
  8
_0-3_躯体と製品
  6
CONTINUOUS
 62
    4
 10
457.65160596289525
 20
1055.4228057045302
 40
4.7500000000086136
 50
223.17355110726777
 51
316.82644889273217
  0
LINE
  8
_0-3_躯体と製品
  6
CONTINUOUS
 62
    4
 10
461.11570757803878
 20
1052.1728057045239
 11
461.11570757803878
 21
1063.6728057045239
  0
LINE
  8
_0-3_躯体と製品
  6
CONTINUOUS
 62
    4
 10
461.11570757803878
 20
1063.6728057045239
 11
433.40289465691967
 21
1063.6728057045239
  0
LINE
  8
_0-3_躯体と製品
  6
CONTINUOUS
 62
    4
 10
433.40289465691967
 20
1063.6728057045239
 11
433.40289465691967
 21
1052.1728057045239
  0
LINE
  8
_0-3_躯体と製品
  6
CONTINUOUS
 62
    4
 10
433.25930111312869
 20
1046.6728057045239
 11
461.2593011505266
 21
1046.6728057045239
  0
LINE
  8
_0-3_躯体と製品
  6
CONTINUOUS
 62
    4
 10
461.2593011505266
 20
1046.6728057045239
 11
461.2593011505266
 21
1050.6728057045239
  0
LINE
  8
_0-3_躯体と製品
  6
CONTINUOUS
 62
    4
 10
461.2593011505266
 20
1050.6728057045239
 11
433.25930111312869
 21
1050.6728057045239
  0
LINE
  8
_0-3_躯体と製品
  6
CONTINUOUS
 62
    4
 10
433.25930111312869
 20
1050.6728057045239
 11
433.25930111312869
 21
1046.6728057045239
  0
LINE
  8
_0-3_躯体と製品
  6
CONTINUOUS
 62
    4
 10
436.86699627207787
 20
1033.6728057045239
 11
457.65160596288075
 21
1033.6728057045239
  0
LINE
  8
_0-3_躯体と製品
  6
CONTINUOUS
 62
    4
 10
447.25930113184171
 20
1046.6728057045239
 11
451.25930113184182
 21
1050.6728057045239
  0
ARC
  8
_0-3_躯体と製品
  6
CONTINUOUS
 62
    4
 10
436.86699627206303
 20
1038.4228057045304
 40
4.7500000000086633
 50
223.1735511072699
 51
316.82644889273007
  0
ARC
  8
_0-3_躯体と製品
  6
CONTINUOUS
 62
    4
 10
447.25930111747914
 20
1050.4228057045189
 40
16.749999999994301
 50
245.56730232054764
 51
294.43269767945236
  0
ARC
  8
_0-3_躯体と製品
  6
CONTINUOUS
 62
    4
 10
457.65160596289525
 20
1038.4228057045291
 40
4.7500000000078266
 50
223.17355110725768
 51
316.82644889274235
  0
LINE
  8
_0-3_躯体と製品
  6
CONTINUOUS
 62
    4
 10
461.11570757803878
 20
1035.1728057045239
 11
461.11570757803878
 21
1046.6728057045239
  0
LINE
  8
_0-3_躯体と製品
  6
CONTINUOUS
 62
    4
 10
461.11570757803878
 20
1046.6728057045239
 11
433.40289465691967
 21
1046.6728057045239
  0
LINE
  8
_0-3_躯体と製品
  6
CONTINUOUS
 62
    4
 10
433.40289465691967
 20
1046.6728057045239
 11
433.40289465691967
 21
1035.1728057045239
  0
LINE
  8
_0-3_躯体と製品
  6
CONTINUOUS
 62
    4
 10
443.25930108443163
 20
1046.6728056758129
 11
447.25930108443157
 21
1050.6728056758129
  0
LINE
  8
_0-3_躯体と製品
  6
CONTINUOUS
 62
    4
 10
2216.7593011174649
 20
1139.3728057044918
 11
2222.2593011174649
 21
1139.3728057044918
  0
LINE
  8
_0-3_躯体と製品
  6
CONTINUOUS
 62
    4
 10
2222.2593011174649
 20
1139.3728057044918
 11
2222.2593011174649
 21
1076.8728057044918
  0
LINE
  8
_0-3_躯体と製品
  6
CONTINUOUS
 62
    4
 10
2257.2593011174658
 20
1083.3728057044918
 11
2247.2593011174649
 21
1083.3728057044918
  0
LINE
  8
_0-3_躯体と製品
  6
CONTINUOUS
 62
    4
 10
2247.2593011174649
 20
1083.3728057044918
 11
2237.2593011174649
 21
1083.3728057044918
  0
LINE
  8
_0-3_躯体と製品
  6
CONTINUOUS
 62
    4
 10
2228.2593011174658
 20
1140.0728057045317
 11
2266.2593011174649
 21
1140.0728057045317
  0
LINE
  8
_0-3_躯体と製品
  6
CONTINUOUS
 62
    4
 10
2266.2593011174649
 20
1140.0728057045317
 11
2266.2593011174649
 21
1133.3728057044918
  0
LINE
  8
_0-3_躯体と製品
  6
CONTINUOUS
 62
    4
 10
2266.2593011174649
 20
1133.3728057044918
 11
2228.2593011174658
 21
1133.3728057044918
  0
LINE
  8
_0-3_躯体と製品
  6
CONTINUOUS
 62
    4
 10
2228.2593011174658
 20
1133.3728057044918
 11
2228.2593011174658
 21
1140.0728057045317
  0
LINE
  8
_0-3_躯体と製品
  6
CONTINUOUS
 62
    4
 10
2277.7593011174649
 20
1139.3728057044918
 11
2272.2593011174649
 21
1139.3728057044918
  0
LINE
  8
_0-3_躯体と製品
  6
CONTINUOUS
 62
    4
 10
2272.2593011174649
 20
1139.3728057044918
 11
2272.2593011174649
 21
1127.8734500835308
  0
LINE
  8
_0-3_躯体と製品
  6
CONTINUOUS
 62
    4
 10
2280.9593011174484
 20
1076.8728057044918
 11
2213.5593011174533
 21
1076.8728057044918
  0
LINE
  8
_0-3_躯体と製品
  6
CONTINUOUS
 62
    4
 10
2216.7593011174649
 20
1153.3728057045209
 11
2216.7593011174649
 21
1076.8728057044918
  0
LINE
  8
_0-3_躯体と製品
  6
CONTINUOUS
 62
    4
 10
2228.7593011174649
 20
1063.6728057045239
 11
2265.7593011174658
 21
1063.6728057045239
  0
LINE
  8
_0-3_躯体と製品
  6
CONTINUOUS
 62
    4
 10
2236.8669962720778
 20
1050.6728057045239
 11
2257.6516059628816
 21
1050.6728057045239
  0
LINE
  8
_0-3_躯体と製品
  6
CONTINUOUS
 62
    4
 10
2240.3310978872069
 20
1052.1728057045239
 11
2240.3310978872069
 21
1063.6728057045239
  0
LINE
  8
_0-3_躯体と製品
  6
CONTINUOUS
 62
    4
 10
2254.1875043477526
 20
1035.1728057045239
 11
2254.1875043477526
 21
1046.6728057045239
  0
LINE
  8
_0-3_躯体と製品
  6
CONTINUOUS
 62
    4
 10
2254.1875043477526
 20
1052.1728057045239
 11
2254.1875043477526
 21
1063.6728057045239
  0
LINE
  8
_0-3_躯体と製品
  6
CONTINUOUS
 62
    4
 10
2240.3310978872069
 20
1035.1728057045239
 11
2240.3310978872069
 21
1046.6728057045239
  0
ARC
  8
_0-3_躯体と製品
  6
CONTINUOUS
 62
    4
 10
2236.8669962720633
 20
1055.42280570453
 40
4.7500000000084199
 50
223.17355110726379
 51
316.82644889273621
  0
ARC
  8
_0-3_躯体と製品
  6
CONTINUOUS
 62
    4
 10
2247.2593011174799
 20
1067.4228053840843
 40
16.74999970825537
 50
245.56730186717647
 51
294.43269813282353
  0
ARC
  8
_0-3_躯体と製品
  6
CONTINUOUS
 62
    4
 10
2257.6516059628962
 20
1055.4228057045302
 40
4.7500000000087308
 50
223.17355110726777
 51
316.82644889273217
  0
LINE
  8
_0-3_躯体と製品
  6
CONTINUOUS
 62
    4
 10
2261.1157075780402
 20
1052.1728057045239
 11
2261.1157075780402
 21
1063.6728057045239
  0
LINE
  8
_0-3_躯体と製品
  6
CONTINUOUS
 62
    4
 10
2261.1157075780402
 20
1063.6728057045239
 11
2233.4028946569197
 21
1063.6728057045239
  0
LINE
  8
_0-3_躯体と製品
  6
CONTINUOUS
 62
    4
 10
2233.4028946569197
 20
1063.6728057045239
 11
2233.4028946569197
 21
1052.1728057045239
  0
LINE
  8
_0-3_躯体と製品
  6
CONTINUOUS
 62
    4
 10
2233.2593011131285
 20
1046.6728057045239
 11
2261.2593011505269
 21
1046.6728057045239
  0
LINE
  8
_0-3_躯体と製品
  6
CONTINUOUS
 62
    4
 10
2261.2593011505269
 20
1046.6728057045239
 11
2261.2593011505269
 21
1050.6728057045239
  0
LINE
  8
_0-3_躯体と製品
  6
CONTINUOUS
 62
    4
 10
2261.2593011505269
 20
1050.6728057045239
 11
2233.2593011131285
 21
1050.6728057045239
  0
LINE
  8
_0-3_躯体と製品
  6
CONTINUOUS
 62
    4
 10
2233.2593011131285
 20
1050.6728057045239
 11
2233.2593011131285
 21
1046.6728057045239
  0
LINE
  8
_0-3_躯体と製品
  6
CONTINUOUS
 62
    4
 10
2236.8669962720778
 20
1033.6728057045239
 11
2257.6516059628816
 21
1033.6728057045239
  0
LINE
  8
_0-3_躯体と製品
  6
CONTINUOUS
 62
    4
 10
2247.2593011318431
 20
1046.6728057045239
 11
2251.2593011318422
 21
1050.6728057045239
  0
ARC
  8
_0-3_躯体と製品
  6
CONTINUOUS
 62
    4
 10
2236.8669962720633
 20
1038.4228057045307
 40
4.7500000000088978
 50
223.1735511072699
 51
316.82644889273007
  0
ARC
  8
_0-3_躯体と製品
  6
CONTINUOUS
 62
    4
 10
2247.2593011174799
 20
1050.4228057045195
 40
16.74999999999492
 50
245.56730232054764
 51
294.43269767945236
  0
ARC
  8
_0-3_躯体と製品
  6
CONTINUOUS
 62
    4
 10
2257.6516059628962
 20
1038.4228057045293
 40
4.7500000000079439
 50
223.17355110725768
 51
316.82644889274235
  0
LINE
  8
_0-3_躯体と製品
  6
CONTINUOUS
 62
    4
 10
2261.1157075780402
 20
1035.1728057045239
 11
2261.1157075780402
 21
1046.6728057045239
  0
LINE
  8
_0-3_躯体と製品
  6
CONTINUOUS
 62
    4
 10
2261.1157075780402
 20
1046.6728057045239
 11
2233.4028946569197
 21
1046.6728057045239
  0
LINE
  8
_0-3_躯体と製品
  6
CONTINUOUS
 62
    4
 10
2233.4028946569197
 20
1046.6728057045239
 11
2233.4028946569197
 21
1035.1728057045239
  0
LINE
  8
_0-3_躯体と製品
  6
CONTINUOUS
 62
    4
 10
2243.2593010844316
 20
1046.6728056758129
 11
2247.2593010844312
 21
1050.6728056758129
  0
LINE
  8
_0-3_躯体と製品
  6
CONTINUOUS
 62
    4
 10
437.25930115521277
 20
1084.9728057045259
 11
427.75930115521288
 21
1084.9728057045259
  0
ARC
  8
_0-3_躯体と製品
  6
CONTINUOUS
 62
    4
 10
427.75930115519822
 20
1088.8728057045064
 40
3.8999999999804604
 50
180.00000000021222
 51
270.00000000021492
  0
LINE
  8
_0-3_躯体と製品
  6
CONTINUOUS
 62
    4
 10
423.85930115521779
 20
1088.8728057044918
 11
423.85930115521779
 21
1127.8728057044918
  0
ARC
  8
_0-3_躯体と製品
  6
CONTINUOUS
 62
    4
 10
427.7593011552342
 20
1127.8728057045132
 40
3.900000000016357
 50
90.000000000312468
 51
180.00000000031511
  0
LINE
  8
_0-3_躯体と製品
  6
CONTINUOUS
 62
    4
 10
427.75930115521288
 20
1131.7728057045297
 11
466.75930115521288
 21
1131.7728057045297
  0
ARC
  8
_0-3_躯体と製品
  6
CONTINUOUS
 62
    4
 10
466.75930115519105
 20
1127.8728057045139
 40
3.9000000000157602
 50
359.99999999967611
 51
89.999999999678764
  0
LINE
  8
_0-3_躯体と製品
  6
CONTINUOUS
 62
    4
 10
470.65930115520678
 20
1127.8728057044918
 11
470.65930115520678
 21
1088.8728057044918
  0
ARC
  8
_0-3_躯体と製品
  6
CONTINUOUS
 62
    4
 10
466.75930115522686
 20
1088.8728057045057
 40
3.8999999999798627
 50
269.99999999979383
 51
359.9999999997965
  0
LINE
  8
_0-3_躯体と製品
  6
CONTINUOUS
 62
    4
 10
466.75930115521288
 20
1084.9728057045259
 11
457.25930115521282
 21
1084.9728057045259
  0
LINE
  8
_0-3_躯体と製品
  6
CONTINUOUS
 62
    4
 10
457.25930115521282
 20
1084.9728057045259
 11
457.25930115521282
 21
1083.3728057044918
  0
LINE
  8
_0-3_躯体と製品
  6
CONTINUOUS
 62
    4
 10
457.25930115521282
 20
1083.3728057044918
 11
466.75930115521288
 21
1083.3728057044918
  0
ARC
  8
_0-3_躯体と製品
  6
CONTINUOUS
 62
    4
 10
466.75930115521288
 20
1088.8728057044918
 40
5.4999999999999849
 50
270.00000000000045
 51
0.0000000000004579
  0
LINE
  8
_0-3_躯体と製品
  6
CONTINUOUS
 62
    4
 10
472.25930115521282
 20
1088.8728057044918
 11
472.25930115521282
 21
1127.8728057044918
  0
ARC
  8
_0-3_躯体と製品
  6
CONTINUOUS
 62
    4
 10
466.75930115521288
 20
1127.8728057044918
 40
5.4999999999999636
 50
359.99999999999977
 51
89.999999999999801
  0
LINE
  8
_0-3_躯体と製品
  6
CONTINUOUS
 62
    4
 10
466.75930115521288
 20
1133.3728057044918
 11
427.75930115521288
 21
1133.3728057044918
  0
ARC
  8
_0-3_躯体と製品
  6
CONTINUOUS
 62
    4
 10
427.75930115521288
 20
1127.8728057044918
 40
5.5000000000000488
 50
89.999999999999332
 51
179.99999999999935
  0
LINE
  8
_0-3_躯体と製品
  6
CONTINUOUS
 62
    4
 10
422.25930115521277
 20
1127.8728057044918
 11
422.25930115521277
 21
1088.8728057044918
  0
ARC
  8
_0-3_躯体と製品
  6
CONTINUOUS
 62
    4
 10
427.75930115521288
 20
1088.8728057044918
 40
5.5000000000000711
 50
180.00000000000043
 51
270.00000000000045
  0
LINE
  8
_0-3_躯体と製品
  6
CONTINUOUS
 62
    4
 10
427.75930115521288
 20
1083.3728057044918
 11
437.25930115521277
 21
1083.3728057044918
  0
LINE
  8
_0-3_躯体と製品
  6
CONTINUOUS
 62
    4
 10
437.25930115521277
 20
1083.3728057044918
 11
437.25930115521277
 21
1084.9728057045259
  0
LINE
  8
_0-3_躯体と製品
  6
CONTINUOUS
 62
    4
 10
1337.2593011552126
 20
1084.9728057045259
 11
1327.7593011552126
 21
1084.9728057045259
  0
ARC
  8
_0-3_躯体と製品
  6
CONTINUOUS
 62
    4
 10
1327.7593011551987
 20
1088.8728057045057
 40
3.8999999999797783
 50
180.00000000020222
 51
270.00000000020486
  0
LINE
  8
_0-3_躯体と製品
  6
CONTINUOUS
 62
    4
 10
1323.8593011552189
 20
1088.8728057044918
 11
1323.8593011552189
 21
1127.8728057044918
  0
ARC
  8
_0-3_躯体と製品
  6
CONTINUOUS
 62
    4
 10
1327.7593011552344
 20
1127.8728057045139
 40
3.900000000015674
 50
90.000000000322416
 51
180.00000000032512
  0
LINE
  8
_0-3_躯体と製品
  6
CONTINUOUS
 62
    4
 10
1327.7593011552126
 20
1131.7728057045297
 11
1366.7593011552126
 21
1131.7728057045297
  0
ARC
  8
_0-3_躯体と製品
  6
CONTINUOUS
 62
    4
 10
1366.7593011551908
 20
1127.8728057045137
 40
3.9000000000158987
 50
359.99999999967815
 51
89.999999999680796
  0
LINE
  8
_0-3_躯体と製品
  6
CONTINUOUS
 62
    4
 10
1370.6593011552068
 20
1127.8728057044918
 11
1370.6593011552068
 21
1088.8728057044918
  0
ARC
  8
_0-3_躯体と製品
  6
CONTINUOUS
 62
    4
 10
1366.7593011552267
 20
1088.8728057045059
 40
3.8999999999800021
 50
269.99999999979178
 51
359.99999999979445
  0
LINE
  8
_0-3_躯体と製品
  6
CONTINUOUS
 62
    4
 10
1366.7593011552126
 20
1084.9728057045259
 11
1357.2593011552126
 21
1084.9728057045259
  0
LINE
  8
_0-3_躯体と製品
  6
CONTINUOUS
 62
    4
 10
1357.2593011552126
 20
1084.9728057045259
 11
1357.2593011552126
 21
1083.3728057044918
  0
LINE
  8
_0-3_躯体と製品
  6
CONTINUOUS
 62
    4
 10
1357.2593011552126
 20
1083.3728057044918
 11
1366.7593011552126
 21
1083.3728057044918
  0
ARC
  8
_0-3_躯体と製品
  6
CONTINUOUS
 62
    4
 10
1366.7593011552126
 20
1088.8728057044918
 40
5.5000000000000071
 50
270.00000000000023
 51
0.0000000000002289
  0
LINE
  8
_0-3_躯体と製品
  6
CONTINUOUS
 62
    4
 10
1372.2593011552126
 20
1088.8728057044918
 11
1372.2593011552126
 21
1127.8728057044918
  0
ARC
  8
_0-3_躯体と製品
  6
CONTINUOUS
 62
    4
 10
1366.7593011552126
 20
1127.8728057044918
 40
5.4999999999999849
 50
0.0000000000000052
 51
90.000000000000014
  0
LINE
  8
_0-3_躯体と製品
  6
CONTINUOUS
 62
    4
 10
1366.7593011552126
 20
1133.3728057044918
 11
1327.7593011552126
 21
1133.3728057044918
  0
ARC
  8
_0-3_躯体と製品
  6
CONTINUOUS
 62
    4
 10
1327.7593011552126
 20
1127.8728057044918
 40
5.4999999999999893
 50
89.999999999999943
 51
179.99999999999994
  0
LINE
  8
_0-3_躯体と製品
  6
CONTINUOUS
 62
    4
 10
1322.2593011552126
 20
1127.8728057044918
 11
1322.2593011552126
 21
1088.8728057044918
  0
ARC
  8
_0-3_躯体と製品
  6
CONTINUOUS
 62
    4
 10
1327.7593011552126
 20
1088.8728057044918
 40
5.5000000000000115
 50
179.99999999999983
 51
269.99999999999983
  0
LINE
  8
_0-3_躯体と製品
  6
CONTINUOUS
 62
    4
 10
1327.7593011552126
 20
1083.3728057044918
 11
1337.2593011552126
 21
1083.3728057044918
  0
LINE
  8
_0-3_躯体と製品
  6
CONTINUOUS
 62
    4
 10
1337.2593011552126
 20
1083.3728057044918
 11
1337.2593011552126
 21
1084.9728057045259
  0
LINE
  8
_0-3_躯体と製品
  6
CONTINUOUS
 62
    4
 10
2237.2593011552126
 20
1084.9728057045259
 11
2227.7593011552126
 21
1084.9728057045259
  0
ARC
  8
_0-3_躯体と製品
  6
CONTINUOUS
 62
    4
 10
2227.759301155199
 20
1088.8728057045057
 40
3.8999999999797783
 50
180.00000000020222
 51
270.00000000020486
  0
LINE
  8
_0-3_躯体と製品
  6
CONTINUOUS
 62
    4
 10
2223.8593011552184
 20
1088.8728057044918
 11
2223.8593011552184
 21
1127.8728057044918
  0
ARC
  8
_0-3_躯体と製品
  6
CONTINUOUS
 62
    4
 10
2227.7593011552344
 20
1127.8728057045139
 40
3.900000000015674
 50
90.000000000322416
 51
180.00000000032512
  0
LINE
  8
_0-3_躯体と製品
  6
CONTINUOUS
 62
    4
 10
2227.7593011552126
 20
1131.7728057045297
 11
2266.7593011552126
 21
1131.7728057045297
  0
ARC
  8
_0-3_躯体と製品
  6
CONTINUOUS
 62
    4
 10
2266.7593011551912
 20
1127.8728057045132
 40
3.900000000016357
 50
359.99999999968486
 51
89.999999999687532
  0
LINE
  8
_0-3_躯体と製品
  6
CONTINUOUS
 62
    4
 10
2270.6593011552077
 20
1127.8728057044918
 11
2270.6593011552077
 21
1088.8728057044918
  0
ARC
  8
_0-3_躯体と製品
  6
CONTINUOUS
 62
    4
 10
2266.7593011552271
 20
1088.8728057045064
 40
3.8999999999804604
 50
269.99999999978508
 51
359.99999999978775
  0
LINE
  8
_0-3_躯体と製品
  6
CONTINUOUS
 62
    4
 10
2266.7593011552126
 20
1084.9728057045259
 11
2257.2593011552126
 21
1084.9728057045259
  0
LINE
  8
_0-3_躯体と製品
  6
CONTINUOUS
 62
    4
 10
2257.2593011552126
 20
1084.9728057045259
 11
2257.2593011552126
 21
1083.3728057044918
  0
LINE
  8
_0-3_躯体と製品
  6
CONTINUOUS
 62
    4
 10
2257.2593011552126
 20
1083.3728057044918
 11
2266.7593011552126
 21
1083.3728057044918
  0
ARC
  8
_0-3_躯体と製品
  6
CONTINUOUS
 62
    4
 10
2266.7593011552126
 20
1088.8728057044918
 40
5.5000000000000711
 50
269.99999999999955
 51
359.99999999999955
  0
LINE
  8
_0-3_躯体と製品
  6
CONTINUOUS
 62
    4
 10
2272.2593011552126
 20
1088.8728057044918
 11
2272.2593011552126
 21
1127.8728057044918
  0
ARC
  8
_0-3_躯体と製品
  6
CONTINUOUS
 62
    4
 10
2266.7593011552126
 20
1127.8728057044918
 40
5.5000000000000488
 50
0.0000000000006754
 51
90.000000000000682
  0
LINE
  8
_0-3_躯体と製品
  6
CONTINUOUS
 62
    4
 10
2266.7593011552126
 20
1133.3728057044918
 11
2227.7593011552126
 21
1133.3728057044918
  0
ARC
  8
_0-3_躯体と製品
  6
CONTINUOUS
 62
    4
 10
2227.7593011552126
 20
1127.8728057044918
 40
5.4999999999999636
 50
90.000000000000199
 51
180.0000000000002
  0
LINE
  8
_0-3_躯体と製品
  6
CONTINUOUS
 62
    4
 10
2222.2593011552126
 20
1127.8728057044918
 11
2222.2593011552126
 21
1088.8728057044918
  0
ARC
  8
_0-3_躯体と製品
  6
CONTINUOUS
 62
    4
 10
2227.7593011552126
 20
1088.8728057044918
 40
5.4999999999999849
 50
179.99999999999955
 51
269.99999999999955
  0
LINE
  8
_0-3_躯体と製品
  6
CONTINUOUS
 62
    4
 10
2227.7593011552126
 20
1083.3728057044918
 11
2237.2593011552126
 21
1083.3728057044918
  0
LINE
  8
_0-3_躯体と製品
  6
CONTINUOUS
 62
    4
 10
2237.2593011552126
 20
1083.3728057044918
 11
2237.2593011552126
 21
1084.9728057045259
  0
LINE
  8
_0-3_躯体と製品
  6
CONTINUOUS
 62
    4
 10
1354.1859211242036
 20
965.87281298643984
 11
1354.1859211242036
 21
954.37281298643984
  0
LINE
  8
_0-3_躯体と製品
  6
CONTINUOUS
 62
    4
 10
1340.3295146636287
 20
965.87281298643984
 11
1340.3295146636287
 21
954.37281298643984
  0
LINE
  8
_0-3_躯体と製品
  6
CONTINUOUS
 62
    4
 10
1333.2577178895799
 20
954.37281298643984
 11
1361.2577179269497
 21
954.37281298643984
  0
LINE
  8
_0-3_躯体と製品
  6
CONTINUOUS
 62
    4
 10
1361.2577179269497
 20
954.37281298643984
 11
1361.2577179269497
 21
950.37281298643984
  0
LINE
  8
_0-3_躯体と製品
  6
CONTINUOUS
 62
    4
 10
1361.2577179269497
 20
950.37281298643984
 11
1333.2577178895799
 21
950.37281298643984
  0
LINE
  8
_0-3_躯体と製品
  6
CONTINUOUS
 62
    4
 10
1333.2577178895799
 20
950.37281298643984
 11
1333.2577178895799
 21
954.37281298643984
  0
LINE
  8
_0-3_躯体と製品
  6
CONTINUOUS
 62
    4
 10
1336.8654130484997
 20
967.37281298643984
 11
1357.6500227393326
 21
967.37281298643984
  0
LINE
  8
_0-3_躯体と製品
  6
CONTINUOUS
 62
    4
 10
1347.2577179082646
 20
954.37281298643984
 11
1351.2577179082646
 21
950.37281298643984
  0
ARC
  8
_0-3_躯体と製品
  6
CONTINUOUS
 62
    4
 10
1336.8654130484858
 20
962.62281298644962
 40
4.7499999999970592
 50
43.173551107130315
 51
136.82644889286968
  0
ARC
  8
_0-3_躯体と製品
  6
CONTINUOUS
 62
    4
 10
1347.2577178939162
 20
950.6228129864121
 40
16.75000000003017
 50
65.56730232054764
 51
114.43269767945236
  0
ARC
  8
_0-3_躯体と製品
  6
CONTINUOUS
 62
    4
 10
1357.6500227393326
 20
962.62281298644825
 40
4.749999999987959
 50
43.173551107257659
 51
136.82644889274232
  0
LINE
  8
_0-3_躯体と製品
  6
CONTINUOUS
 62
    4
 10
1361.1141243544616
 20
965.87281298643984
 11
1361.1141243544616
 21
954.37281298643984
  0
LINE
  8
_0-3_躯体と製品
  6
CONTINUOUS
 62
    4
 10
1333.4013114333429
 20
954.37281298643984
 11
1333.4013114333429
 21
965.87281298643984
  0
LINE
  8
_0-3_躯体と製品
  6
CONTINUOUS
 62
    4
 10
1343.2577178608835
 20
954.37281301513667
 11
1347.2577178608835
 21
950.37281301513667
  0
LINE
  8
_0-3_躯体と製品
  6
CONTINUOUS
 62
    4
 10
1354.1859210911707
 20
948.87281301513667
 11
1354.1859210911707
 21
937.37281301513576
  0
LINE
  8
_0-3_躯体と製品
  6
CONTINUOUS
 62
    4
 10
1340.3295146305968
 20
948.87281301513667
 11
1340.3295146305968
 21
937.37281301513576
  0
LINE
  8
_0-3_躯体と製品
  6
CONTINUOUS
 62
    4
 10
1336.8654130154678
 20
950.37281301513667
 11
1357.6500227062998
 21
950.37281301513667
  0
ARC
  8
_0-3_躯体と製品
  6
CONTINUOUS
 62
    4
 10
1336.8654130154528
 20
945.6228130151294
 40
4.7500000000094813
 50
43.173551107269937
 51
136.8264488927301
  0
ARC
  8
_0-3_躯体と製品
  6
CONTINUOUS
 62
    4
 10
1347.2577178608838
 20
933.62281301511007
 40
16.750000000029075
 50
65.56730232054764
 51
114.43269767945236
  0
ARC
  8
_0-3_躯体と製品
  6
CONTINUOUS
 62
    4
 10
1357.6500227062998
 20
945.62281301514497
 40
4.7499999999879439
 50
43.173551107257659
 51
136.82644889274232
  0
LINE
  8
_0-3_躯体と製品
  6
CONTINUOUS
 62
    4
 10
1361.1141243214288
 20
948.87281301513667
 11
1361.1141243214288
 21
937.37281301513576
  0
LINE
  8
_0-3_躯体と製品
  6
CONTINUOUS
 62
    4
 10
1361.1141243214288
 20
937.37281301513576
 11
1333.4013114003087
 21
937.37281301513576
  0
LINE
  8
_0-3_躯体と製品
  6
CONTINUOUS
 62
    4
 10
1333.4013114003087
 20
937.37281301513576
 11
1333.4013114003087
 21
948.87281301513667
  0
LINE
  8
_0-3_躯体と製品
  6
CONTINUOUS
 62
    4
 10
1347.2583207790335
 20
1065.1728057045239
 11
1277.2583207790335
 21
1065.1728057045239
  0
LINE
  8
_0-3_躯体と製品
  6
CONTINUOUS
 62
    4
 10
1277.2583207790335
 20
1065.1728057045239
 11
1277.2583207790335
 21
1036.1121698525781
  0
LINE
  8
_0-3_躯体と製品
  6
CONTINUOUS
 62
    4
 10
1314.2012693118859
 20
1005.1728057045239
 11
1380.3192935999059
 21
1005.1728057045239
  0
LINE
  8
_0-3_躯体と製品
  6
CONTINUOUS
 62
    4
 10
1417.2583207790335
 20
1036.1160911409411
 11
1417.2583207790335
 21
1065.1728057045239
  0
LINE
  8
_0-3_躯体と製品
  6
CONTINUOUS
 62
    4
 10
1417.2583207790335
 20
1065.1728057045239
 11
1347.2583207790335
 21
1065.1728057045239
  0
CIRCLE
  8
_0-3_躯体と製品
  6
CONTINUOUS
 62
    4
 10
1347.2592999539256
 20
879.37281587616008
 40
3.7649999999999988
  0
CIRCLE
  8
_0-3_躯体と製品
  6
CONTINUOUS
 62
    4
 10
1347.2592999539256
 20
879.37281587616008
 40
3.9999999999999991
  0
LINE
  8
_0-3_躯体と製品
  6
CONTINUOUS
 62
    4
 10
2254.1873596343066
 20
965.87281298643984
 11
2254.1873596343066
 21
954.37281298643984
  0
LINE
  8
_0-3_躯体と製品
  6
CONTINUOUS
 62
    4
 10
2240.3309531737323
 20
965.87281298643984
 11
2240.3309531737323
 21
954.37281298643984
  0
LINE
  8
_0-3_躯体と製品
  6
CONTINUOUS
 62
    4
 10
2233.2591563996821
 20
954.37281298643984
 11
2261.2591564370528
 21
954.37281298643984
  0
LINE
  8
_0-3_躯体と製品
  6
CONTINUOUS
 62
    4
 10
2261.2591564370528
 20
954.37281298643984
 11
2261.2591564370528
 21
950.37281298643984
  0
LINE
  8
_0-3_躯体と製品
  6
CONTINUOUS
 62
    4
 10
2261.2591564370528
 20
950.37281298643984
 11
2233.2591563996821
 21
950.37281298643984
  0
LINE
  8
_0-3_躯体と製品
  6
CONTINUOUS
 62
    4
 10
2233.2591563996821
 20
950.37281298643984
 11
2233.2591563996821
 21
954.37281298643984
  0
LINE
  8
_0-3_躯体と製品
  6
CONTINUOUS
 62
    4
 10
2236.8668515586037
 20
967.37281298643984
 11
2257.6514612494357
 21
967.37281298643984
  0
LINE
  8
_0-3_躯体と製品
  6
CONTINUOUS
 62
    4
 10
2247.2591564183676
 20
954.37281298643984
 11
2251.2591564183676
 21
950.37281298643984
  0
ARC
  8
_0-3_躯体と製品
  6
CONTINUOUS
 62
    4
 10
2236.8668515585887
 20
962.62281298644939
 40
4.7499999999974545
 50
43.173551107130315
 51
136.82644889286968
  0
ARC
  8
_0-3_躯体と製品
  6
CONTINUOUS
 62
    4
 10
2247.2591564040194
 20
950.6228129864121
 40
16.75000000003017
 50
65.56730232054764
 51
114.43269767945236
  0
ARC
  8
_0-3_躯体と製品
  6
CONTINUOUS
 62
    4
 10
2257.6514612494357
 20
962.62281298644825
 40
4.749999999987951
 50
43.173551107257659
 51
136.82644889274232
  0
LINE
  8
_0-3_躯体と製品
  6
CONTINUOUS
 62
    4
 10
2261.1155628645647
 20
965.87281298643984
 11
2261.1155628645647
 21
954.37281298643984
  0
LINE
  8
_0-3_躯体と製品
  6
CONTINUOUS
 62
    4
 10
2233.4027499434451
 20
954.37281298643984
 11
2233.4027499434451
 21
965.87281298643984
  0
LINE
  8
_0-3_躯体と製品
  6
CONTINUOUS
 62
    4
 10
2243.2591563709866
 20
954.37281301513667
 11
2247.2591563709866
 21
950.37281301513667
  0
LINE
  8
_0-3_躯体と製品
  6
CONTINUOUS
 62
    4
 10
2254.1873596012747
 20
948.87281301513667
 11
2254.1873596012747
 21
937.37281301513576
  0
LINE
  8
_0-3_躯体と製品
  6
CONTINUOUS
 62
    4
 10
2240.3309531406994
 20
948.87281301513667
 11
2240.3309531406994
 21
937.37281301513576
  0
LINE
  8
_0-3_躯体と製品
  6
CONTINUOUS
 62
    4
 10
2236.8668515255704
 20
950.37281301513667
 11
2257.6514612164028
 21
950.37281301513667
  0
ARC
  8
_0-3_躯体と製品
  6
CONTINUOUS
 62
    4
 10
2236.8668515255563
 20
945.62281301512996
 40
4.7500000000087805
 50
43.173551107269937
 51
136.8264488927301
  0
ARC
  8
_0-3_躯体と製品
  6
CONTINUOUS
 62
    4
 10
2247.2591563709871
 20
933.62281301510893
 40
16.75000000003017
 50
65.56730232054764
 51
114.43269767945236
  0
ARC
  8
_0-3_躯体と製品
  6
CONTINUOUS
 62
    4
 10
2257.6514612164037
 20
945.62281301514497
 40
4.749999999987951
 50
43.173551107257659
 51
136.82644889274232
  0
LINE
  8
_0-3_躯体と製品
  6
CONTINUOUS
 62
    4
 10
2261.1155628315328
 20
948.87281301513667
 11
2261.1155628315328
 21
937.37281301513576
  0
LINE
  8
_0-3_躯体と製品
  6
CONTINUOUS
 62
    4
 10
2261.1155628315328
 20
937.37281301513576
 11
2233.4027499104131
 21
937.37281301513576
  0
LINE
  8
_0-3_躯体と製品
  6
CONTINUOUS
 62
    4
 10
2233.4027499104131
 20
937.37281301513576
 11
2233.4027499104131
 21
948.87281301513667
  0
CIRCLE
  8
_0-3_躯体と製品
  6
CONTINUOUS
 62
    4
 10
2247.2607384640287
 20
879.37281587616008
 40
3.7649999999999988
  0
CIRCLE
  8
_0-3_躯体と製品
  6
CONTINUOUS
 62
    4
 10
2247.2607384640287
 20
879.37281587616008
 40
3.9999999999999991
  0
LINE
  8
_0-3_躯体と製品
  6
CONTINUOUS
 62
    4
 10
454.1859222877427
 20
965.87285177100966
 11
454.1859222877427
 21
954.37285177100875
  0
LINE
  8
_0-3_躯体と製品
  6
CONTINUOUS
 62
    4
 10
440.32951582716873
 20
965.87285177100966
 11
440.32951582716873
 21
954.37285177100875
  0
LINE
  8
_0-3_躯体と製品
  6
CONTINUOUS
 62
    4
 10
433.25771905311882
 20
954.37285177100875
 11
461.25771909048876
 21
954.37285177100875
  0
LINE
  8
_0-3_躯体と製品
  6
CONTINUOUS
 62
    4
 10
461.25771909048876
 20
954.37285177100875
 11
461.25771909048876
 21
950.37285177100875
  0
LINE
  8
_0-3_躯体と製品
  6
CONTINUOUS
 62
    4
 10
461.25771909048876
 20
950.37285177100875
 11
433.25771905311882
 21
950.37285177100875
  0
LINE
  8
_0-3_躯体と製品
  6
CONTINUOUS
 62
    4
 10
433.25771905311882
 20
950.37285177100875
 11
433.25771905311882
 21
954.37285177100875
  0
LINE
  8
_0-3_躯体と製品
  6
CONTINUOUS
 62
    4
 10
436.8654142120397
 20
967.37285177100966
 11
457.65002390287174
 21
967.37285177100966
  0
LINE
  8
_0-3_躯体と製品
  6
CONTINUOUS
 62
    4
 10
447.25771907180371
 20
954.37285177100875
 11
451.25771907180365
 21
950.37285177100875
  0
ARC
  8
_0-3_躯体と製品
  6
CONTINUOUS
 62
    4
 10
436.86541421202469
 20
962.62285177101842
 40
4.7499999999986233
 50
43.173551107130315
 51
136.82644889286968
  0
ARC
  8
_0-3_躯体と製品
  6
CONTINUOUS
 62
    4
 10
447.2577190574558
 20
950.62285177098295
 40
16.750000000029139
 50
65.56730232054764
 51
114.43269767945236
  0
ARC
  8
_0-3_躯体と製品
  6
CONTINUOUS
 62
    4
 10
457.65002390287174
 20
962.62285177101785
 40
4.749999999987951
 50
43.173551107257659
 51
136.82644889274232
  0
LINE
  8
_0-3_躯体と製品
  6
CONTINUOUS
 62
    4
 10
461.11412551800078
 20
965.87285177100966
 11
461.11412551800078
 21
954.37285177100875
  0
LINE
  8
_0-3_躯体と製品
  6
CONTINUOUS
 62
    4
 10
433.40131259688064
 20
954.37285177100875
 11
433.40131259688064
 21
965.87285177100966
  0
LINE
  8
_0-3_躯体と製品
  6
CONTINUOUS
 62
    4
 10
443.25771902442261
 20
954.37285179970604
 11
447.25771902442256
 21
950.37285179970604
  0
LINE
  8
_0-3_躯体と製品
  6
CONTINUOUS
 62
    4
 10
454.18592225470979
 20
948.87285179970604
 11
454.18592225470979
 21
937.37285179970604
  0
LINE
  8
_0-3_躯体と製品
  6
CONTINUOUS
 62
    4
 10
440.32951579413566
 20
948.87285179970604
 11
440.32951579413566
 21
937.37285179970604
  0
LINE
  8
_0-3_躯体と製品
  6
CONTINUOUS
 62
    4
 10
436.86541417900662
 20
950.37285179970604
 11
457.65002386983883
 21
950.37285179970604
  0
ARC
  8
_0-3_躯体と製品
  6
CONTINUOUS
 62
    4
 10
436.8654141789923
 20
945.62285179969945
 40
4.7500000000086633
 50
43.173551107269937
 51
136.8264488927301
  0
ARC
  8
_0-3_躯体と製品
  6
CONTINUOUS
 62
    4
 10
447.25771902442273
 20
933.62285179967898
 40
16.750000000029345
 50
65.56730232054764
 51
114.43269767945236
  0
ARC
  8
_0-3_躯体と製品
  6
CONTINUOUS
 62
    4
 10
457.65002386983883
 20
945.62285179971445
 40
4.7499999999878337
 50
43.173551107257659
 51
136.82644889274232
  0
LINE
  8
_0-3_躯体と製品
  6
CONTINUOUS
 62
    4
 10
461.1141254849677
 20
948.87285179970604
 11
461.1141254849677
 21
937.37285179970604
  0
LINE
  8
_0-3_躯体と製品
  6
CONTINUOUS
 62
    4
 10
461.1141254849677
 20
937.37285179970604
 11
433.40131256384876
 21
937.37285179970604
  0
LINE
  8
_0-3_躯体と製品
  6
CONTINUOUS
 62
    4
 10
433.40131256384876
 20
937.37285179970604
 11
433.40131256384876
 21
948.87285179970604
  0
CIRCLE
  8
_0-3_躯体と製品
  6
CONTINUOUS
 62
    4
 10
447.25930111746464
 20
879.37285466072808
 40
3.7649999999999988
  0
CIRCLE
  8
_0-3_躯体と製品
  6
CONTINUOUS
 62
    4
 10
447.25930111746464
 20
879.37285466072808
 40
3.9999999999999991
  0
TEXT
  8
_0-4_文字-記号
 62
    7
 10
1455.5286445611637
 20
1087.204623585581
 40
30
 41
0.9837445587017261
 50
0
  1
ネックアングル
  0
LINE
  8
_0-4_文字-記号
  6
CONTINUOUS
 62
    7
 10
1417.2583207790335
 20
1045.0370374556578
 11
1439.3756747031848
 21
1083.345418181269
  0
LINE
  8
_0-4_文字-記号
  6
CONTINUOUS
 62
    7
 10
1439.3756747031848
 20
1083.345418181269
 11
1721.7161644650118
 21
1083.345418181269
  0
LINE
  8
_0-4_文字-記号
  6
CONTINUOUS
 62
    7
 10
691.24410084117881
 20
838.22337153276703
 11
960.28046592087867
 21
838.22337153276703
  0
LINE
  8
_0-4_文字-記号
  6
CONTINUOUS
 62
    7
 10
960.28046592087867
 20
838.22337153276703
 11
1012.1508444078756
 21
748.38124058545782
  0
TEXT
  8
_0-4_文字-記号
 62
    7
 10
692.55793608188264
 20
847.11019567472567
 40
30
 41
0.9837445587017261
 50
0
  1
Ｍ１２～Ｍ１６
  0
TEXT
  8
_0-4_文字-記号
 62
    7
 10
692.55793608188264
 20
884.36810194339296
 40
30
 41
0.9837445587017261
 50
0
  1
ブレース
  0
LINE
  8
_0-4_文字-記号
  6
CONTINUOUS
 62
    7
 10
1322.3592659742899
 20
1115.0458408476529
 11
1252.9942111693877
 21
1045.6807860432887
  0
LINE
  8
_0-4_文字-記号
  6
CONTINUOUS
 62
    7
 10
1252.9942111693877
 20
1045.6807860432887
 11
1092.6023538102827
 21
1045.6807860432887
  0
TEXT
  8
_0-4_文字-記号
 62
    7
 10
1113.5043660026049
 20
1057.6279560432868
 40
30
 41
1.007498246740355
 50
0
  1
大引鋼
  0
LINE
  8
_0-4_文字-記号
  6
CONTINUOUS
 62
    7
 10
918.37347409311565
 20
1135.3728057044918
 11
866.8872922355805
 21
1046.196122839513
  0
LINE
  8
_0-4_文字-記号
  6
CONTINUOUS
 62
    7
 10
866.8872922355805
 20
1046.196122839513
 11
706.49543487647566
 21
1046.196122839513
  0
TEXT
  8
_0-4_文字-記号
 62
    7
 10
727.39744706879765
 20
1058.1432928395107
 40
30
 41
1.007498246740355
 50
0
  1
根太鋼
  0
LINE
  8
_0-3_躯体と製品
  6
CONTINUOUS
 62
    4
 10
1295.2602776411986
 20
1039.1010169166821
 11
1307.2602890852909
 21
1046.029231943538
  0
LINE
  8
_0-3_躯体と製品
  6
CONTINUOUS
 62
    4
 10
1307.2602890852909
 20
1046.029231943538
 11
1319.2602814558959
 21
1039.1010335717419
  0
LINE
  8
_0-3_躯体と製品
  6
CONTINUOUS
 62
    4
 10
1319.2602814558959
 20
1039.1010335717419
 11
1319.2602814558959
 21
1025.244605936457
  0
LINE
  8
_0-3_躯体と製品
  6
CONTINUOUS
 62
    4
 10
1319.2602814558959
 20
1025.244605936457
 11
1307.2603012776417
 21
1018.3164143879239
  0
LINE
  8
_0-3_躯体と製品
  6
CONTINUOUS
 62
    4
 10
1307.2603012776417
 20
1018.3164143879239
 11
1295.2602814558959
 21
1025.2446256000817
  0
LINE
  8
_0-3_躯体と製品
  6
CONTINUOUS
 62
    4
 10
1295.2602814558959
 20
1025.2446256000817
 11
1295.2602814558959
 21
1039.1009978431957
  0
CIRCLE
  8
_0-3_躯体と製品
  6
CONTINUOUS
 62
    4
 10
1307.2602814558959
 20
1032.1728057045239
 40
11.999999999999989
  0
LINE
  8
_0-3_躯体と製品
  6
CONTINUOUS
 62
    4
 10
662.46028876643982
 20
397.372813015068
 11
762.46028876643982
 21
397.372813015068
  0
LINE
  8
_0-3_躯体と製品
  6
CONTINUOUS
 62
    4
 10
711.10984822100363
 20
455.32062413370704
 11
723.66807852933266
 21
461.17650063852398
  0
LINE
  8
_0-3_躯体と製品
  6
CONTINUOUS
 62
    4
 10
723.66807852933266
 20
461.17650063852398
 11
735.0185087934517
 21
453.22870330890464
  0
LINE
  8
_0-3_躯体と製品
  6
CONTINUOUS
 62
    4
 10
735.0185087934517
 20
453.22870330890464
 11
733.81072650920964
 21
439.42501362946905
  0
LINE
  8
_0-3_躯体と製品
  6
CONTINUOUS
 62
    4
 10
733.81072650920964
 20
439.42501362946905
 11
721.25252939421466
 21
433.56915778835582
  0
LINE
  8
_0-3_躯体と製品
  6
CONTINUOUS
 62
    4
 10
721.25252939421466
 20
433.56915778835582
 11
709.90207290262583
 21
441.51697030223704
  0
LINE
  8
_0-3_躯体と製品
  6
CONTINUOUS
 62
    4
 10
709.90207290262583
 20
441.51697030223704
 11
711.10985035866065
 21
455.32060480031078
  0
CIRCLE
  8
_0-3_躯体と製品
  6
CONTINUOUS
 62
    4
 10
722.46028876643982
 20
447.37281301506891
 40
11.999999999999989
  0
LINE
  8
_0-3_躯体と製品
  6
CONTINUOUS
 62
    4
 10
662.46028876643982
 20
472.37281301506891
 11
737.46012693424063
 21
472.37281301506891
  0
LINE
  8
_0-3_躯体と製品
  6
CONTINUOUS
 62
    4
 10
737.46012693424063
 20
472.37281301506891
 11
762.46028876643982
 21
447.37281301506891
  0
LINE
  8
_0-3_躯体と製品
  6
CONTINUOUS
 62
    4
 10
1399.2602852705927
 20
1039.1010169166821
 11
1387.2602738265018
 21
1046.029231943538
  0
LINE
  8
_0-3_躯体と製品
  6
CONTINUOUS
 62
    4
 10
1387.2602738265018
 20
1046.029231943538
 11
1375.2602814558959
 21
1039.1010335717419
  0
LINE
  8
_0-3_躯体と製品
  6
CONTINUOUS
 62
    4
 10
1375.2602814558959
 20
1039.1010335717419
 11
1375.2602814558959
 21
1025.244605936457
  0
LINE
  8
_0-3_躯体と製品
  6
CONTINUOUS
 62
    4
 10
1375.2602814558959
 20
1025.244605936457
 11
1387.2602616341496
 21
1018.3164143879239
  0
LINE
  8
_0-3_躯体と製品
  6
CONTINUOUS
 62
    4
 10
1387.2602616341496
 20
1018.3164143879239
 11
1399.2602814558959
 21
1025.2446256000817
  0
LINE
  8
_0-3_躯体と製品
  6
CONTINUOUS
 62
    4
 10
1399.2602814558959
 20
1025.2446256000817
 11
1399.2602814558959
 21
1039.1009978431957
  0
CIRCLE
  8
_0-3_躯体と製品
  6
CONTINUOUS
 62
    4
 10
1387.2602814558959
 20
1032.1728057045239
 40
11.999999999999989
  0
LINE
  8
_0-3_躯体と製品
  6
CONTINUOUS
 62
    4
 10
2032.0602741453508
 20
397.372813015068
 11
1932.0602741453517
 21
397.372813015068
  0
LINE
  8
_0-3_躯体と製品
  6
CONTINUOUS
 62
    4
 10
1983.4107146907877
 20
455.32062413370704
 11
1970.8524843824589
 21
461.17650063852398
  0
LINE
  8
_0-3_躯体と製品
  6
CONTINUOUS
 62
    4
 10
1970.8524843824589
 20
461.17650063852398
 11
1959.5020541183399
 21
453.22870330890464
  0
LINE
  8
_0-3_躯体と製品
  6
CONTINUOUS
 62
    4
 10
1959.5020541183399
 20
453.22870330890464
 11
1960.7098364025819
 21
439.42501362946905
  0
LINE
  8
_0-3_躯体と製品
  6
CONTINUOUS
 62
    4
 10
1960.7098364025819
 20
439.42501362946905
 11
1973.2680335175769
 21
433.56915778835582
  0
LINE
  8
_0-3_躯体と製品
  6
CONTINUOUS
 62
    4
 10
1973.2680335175769
 20
433.56915778835582
 11
1984.6184900091657
 21
441.51697030223704
  0
LINE
  8
_0-3_躯体と製品
  6
CONTINUOUS
 62
    4
 10
1984.6184900091657
 20
441.51697030223704
 11
1983.4107125531309
 21
455.32060480031078
  0
CIRCLE
  8
_0-3_躯体と製品
  6
CONTINUOUS
 62
    4
 10
1972.0602741453517
 20
447.37281301506891
 40
11.999999999999989
  0
LINE
  8
_0-3_躯体と製品
  6
CONTINUOUS
 62
    4
 10
1960.2906139880638
 20
472.37281301506891
 11
1957.0604359775507
 21
472.37281301506891
  0
LINE
  8
_0-3_躯体と製品
  6
CONTINUOUS
 62
    4
 10
1957.0604359775507
 20
472.37281301506891
 11
1942.8677718516378
 21
458.18024076175607
  0
LINE
  8
_0-4_文字-記号
  6
CONTINUOUS
 62
    7
 10
1055.4337980510857
 20
1197.37280570435
 11
1149.2792094204497
 21
1359.9178262532928
  0
LINE
  8
_0-4_文字-記号
  6
CONTINUOUS
 62
    7
 10
1149.2792094204497
 20
1359.9178262532928
 11
1478.8520250126726
 21
1359.9178262532928
  0
TEXT
  8
_0-4_文字-記号
 62
    7
 10
1182.8808066124079
 20
1369.0692326417347
 40
30
 41
1.007498246740355
 50
0
  1
フローリング貼り
  0
LINE
  8
_0-4_文字-記号
  6
CONTINUOUS
 62
    7
 10
1135.8729063639616
 20
1174.3728057044927
 11
1199.7545307326377
 21
1285.0190247810719
  0
LINE
  8
_0-4_文字-記号
  6
CONTINUOUS
 62
    7
 10
1199.7545307326377
 20
1285.0190247810719
 11
1383.0862711690106
 21
1285.0190247810719
  0
TEXT
  8
_0-4_文字-記号
 62
    7
 10
1225.2316261719579
 20
1294.1704311695148
 40
30
 41
1.007498246740355
 50
0
  1
捨板貼り
  0
TEXT
  8
_0-4_文字-記号
 62
    7
 10
95.877241339038619
 20
1463.2923473265937
 40
45
 41
1
 50
0
  1
■スリーベースＧ（耐震体育館床下システム:耐震１Ｇをクリア）
  0
LINE
  8
_0-3_躯体と製品
  6
CONTINUOUS
 62
    4
 10
1802.1979135762399
 20
625.53531090182105
 11
1821.9660544977405
 21
588.74915279167271
  0
LINE
  8
_0-3_躯体と製品
  6
CONTINUOUS
 62
    4
 10
1830.4584433311638
 20
597.22731265800394
 11
1793.7055247428166
 21
617.05715103549073
  0
LINE
  8
_0-3_躯体と製品
  6
CONTINUOUS
 62
    4
 10
1821.9660544977405
 20
588.74915279167271
 11
1793.7055247428166
 21
617.05715103549073
  0
LINE
  8
_0-3_躯体と製品
  6
CONTINUOUS
 62
    4
 10
1830.4584433311638
 20
597.22731265800394
 11
1802.1979135762399
 21
625.53531090182105
  0
LINE
  8
_0-3_躯体と製品
  6
CONTINUOUS
 62
    4
 10
1830.4584433311638
 20
597.22731265800394
 11
1821.9660350905719
 21
588.74917223144075
  0
LINE
  8
_0-3_躯体と製品
  6
CONTINUOUS
 62
    4
 10
1802.1979135762399
 20
625.53531090182105
 11
1793.7055189619578
 21
617.05715682605978
  0
LINE
  8
_0-3_躯体と製品
  6
CONTINUOUS
 62
    4
 10
892.51613008546065
 20
625.92068842757408
 11
872.71682809437254
 21
589.15129266611302
  0
LINE
  8
_0-3_躯体と製品
  6
CONTINUOUS
 62
    4
 10
864.23162568201167
 20
597.63664491798681
 11
901.00133249782175
 21
617.43533617570074
  0
LINE
  8
_0-3_躯体と製品
  6
CONTINUOUS
 62
    4
 10
872.71682809437254
 20
589.15129266611302
 11
901.00133249782175
 21
617.43533617570074
  0
LINE
  8
_0-3_躯体と製品
  6
CONTINUOUS
 62
    4
 10
864.23162568201167
 20
597.63664491798681
 11
892.51613008546065
 21
625.92068842757408
  0
LINE
  8
_0-3_躯体と製品
  6
CONTINUOUS
 62
    4
 10
864.23162568201167
 20
597.63664491798681
 11
872.71684751800683
 21
589.15131208943103
  0
LINE
  8
_0-3_躯体と製品
  6
CONTINUOUS
 62
    4
 10
892.51613008546065
 20
625.92068842757408
 11
901.00133828358571
 21
617.43534196136989
  0
ARC
  8
_0-3_躯体と製品
  6
CONTINUOUS
 62
    4
 10
1978.0707217779291
 20
441.36244927278108
 40
24.000000000000071
 50
225.00047635390274
 51
315.00047885420469
  0
ARC
  8
_0-3_躯体と製品
  6
CONTINUOUS
 62
    4
 10
1978.0707217779286
 20
441.36244927278051
 40
23.999999999999989
 50
315.00046883632359
 51
45.000478166872718
  0
LINE
  8
_0-3_躯体と製品
  6
CONTINUOUS
 62
    4
 10
1898.5204880446277
 20
532.22501339633573
 11
1921.1481039249657
 21
509.59778604872184
  0
LINE
  8
_0-3_躯体と製品
  6
CONTINUOUS
 62
    4
 10
1887.2068710219305
 20
520.91121090705701
 11
1909.8344870685205
 21
498.28398165935505
  0
LINE
  8
_0-3_躯体と製品
  6
CONTINUOUS
 62
    4
 10
1944.4830683462828
 20
456.56497090234006
 11
1962.8676502605535
 21
474.94989761994293
  0
LINE
  8
_0-3_躯体と製品
  6
CONTINUOUS
 62
    4
 10
1935.0895755371748
 20
450.40209479747682
 11
1932.0602741453517
 21
447.37281301506891
  0
LINE
  8
_0-3_躯体と製品
  6
CONTINUOUS
 62
    4
 10
1909.8344870685205
 20
498.28398165935505
 11
1921.1481039249657
 21
509.59778604872184
  0
LINE
  8
_0-3_躯体と製品
  6
CONTINUOUS
 62
    4
 10
1866.3470726993019
 20
534.69961518864966
 11
1875.8932541654858
 21
509.59740651768783
  0
LINE
  8
_0-3_躯体と製品
  6
CONTINUOUS
 62
    4
 10
1909.8341050673257
 20
543.53881588561489
 11
1884.7317154553925
 21
553.08454678099088
  0
LINE
  8
_0-3_躯体と製品
  6
CONTINUOUS
 62
    4
 10
1883.6713886592706
 20
517.37564784284996
 11
1944.4830683462828
 21
456.56497090234006
  0
LINE
  8
_0-3_躯体と製品
  6
CONTINUOUS
 62
    4
 10
1883.6713886592706
 20
517.37564784284996
 11
1902.0559705735418
 21
535.76057456045282
  0
LINE
  8
_0-3_躯体と製品
  6
CONTINUOUS
 62
    4
 10
1866.3470726993019
 20
534.69961518864966
 11
1884.7317154553925
 21
553.08454678099088
  0
LINE
  8
_0-3_躯体と製品
  6
CONTINUOUS
 62
    4
 10
1902.0559705735418
 20
535.76057456045282
 11
1962.8676502605535
 21
474.94989761994293
  0
LINE
  8
_0-3_躯体と製品
  6
CONTINUOUS
 62
    4
 10
1961.1003564648558
 20
424.39175750924596
 11
1875.8932541654858
 21
509.59740651768783
  0
LINE
  8
_0-3_躯体と製品
  6
CONTINUOUS
 62
    4
 10
1995.0411472288479
 20
458.33315395674481
 11
1909.8341050673257
 21
543.53881588561489
  0
LINE
  8
_0-3_躯体と製品
  6
CONTINUOUS
 62
    4
 10
1932.0602741453517
 20
403.37281301506891
 11
2032.0602741453515
 21
403.372813015068
  0
LINE
  8
_0-3_躯体と製品
  6
CONTINUOUS
 62
    4
 10
1981.0012607443718
 20
472.37281301506891
 11
2032.0602741453508
 21
472.37281301506891
  0
LINE
  8
_0-3_躯体と製品
  6
CONTINUOUS
 62
    4
 10
2032.0602741453508
 20
472.37281301506891
 11
2032.0602741453508
 21
397.372813015068
  0
LINE
  8
_0-3_躯体と製品
  6
CONTINUOUS
 62
    4
 10
1932.0602741453517
 20
447.37281301506891
 11
1932.0602741453517
 21
397.372813015068
  0
ARC
  8
_0-3_躯体と製品
  6
CONTINUOUS
 62
    4
 10
1381.2498551470978
 20
1038.1831342510864
 40
23.999999999999812
 50
45.000478166873584
 51
135.00047726051076
  0
ARC
  8
_0-3_躯体と製品
  6
CONTINUOUS
 62
    4
 10
1381.2498551470981
 20
1038.1831342510864
 40
24.00000000000049
 50
135.00047726051002
 51
225.00047635390308
  0
LINE
  8
_0-3_躯体と製品
  6
CONTINUOUS
 62
    4
 10
1565.8061931005168
 20
862.1150720581968
 11
1529.0364741043909
 21
881.91377375661887
  0
LINE
  8
_0-3_躯体と製品
  6
CONTINUOUS
 62
    4
 10
1537.5216878273636
 20
890.39911469806475
 11
1557.3209793775427
 21
853.62973111675092
  0
LINE
  8
_0-3_躯体と製品
  6
CONTINUOUS
 62
    4
 10
1489.4380025296678
 20
941.31040740866774
 11
1881.2004051678459
 21
549.55318101396279
  0
LINE
  8
_0-3_躯体と製品
  6
CONTINUOUS
 62
    4
 10
1529.0364741043909
 20
881.91377375661887
 11
1557.3209793775427
 21
853.62973111675092
  0
LINE
  8
_0-3_躯体と製品
  6
CONTINUOUS
 62
    4
 10
1478.1243860057275
 20
929.99659921912098
 11
1869.8867841835226
 21
538.23938228433781
  0
LINE
  8
_0-3_躯体と製品
  6
CONTINUOUS
 62
    4
 10
1537.5216878273636
 20
890.39911469806475
 11
1565.8061931005168
 21
862.1150720581968
  0
LINE
  8
_0-3_躯体と製品
  6
CONTINUOUS
 62
    4
 10
1557.3209793775427
 20
853.62973111675092
 11
1561.5635862390295
 21
857.87240158747363
  0
LINE
  8
_0-3_躯体と製品
  6
CONTINUOUS
 62
    4
 10
1537.5216878273636
 20
890.39911469806475
 11
1533.2790836259119
 21
886.15641382591502
  0
LINE
  8
_0-3_躯体と製品
  6
CONTINUOUS
 62
    4
 10
1565.8061931005168
 20
862.1150720581968
 11
1561.5635862390295
 21
857.87240158747363
  0
LINE
  8
_0-3_躯体と製品
  6
CONTINUOUS
 62
    4
 10
1529.0364741043909
 20
881.91377375661887
 11
1533.2790836259119
 21
886.15641382591502
  0
LINE
  8
_0-3_躯体と製品
  6
CONTINUOUS
 62
    4
 10
1460.8001252432828
 20
947.32054841891204
 11
1438.1725240649025
 21
969.94778279680986
  0
LINE
  8
_0-3_躯体と製品
  6
CONTINUOUS
 62
    4
 10
1472.1137417672239
 20
958.6343566084588
 11
1449.4861329884866
 21
981.26159032134865
  0
LINE
  8
_0-3_躯体と製品
  6
CONTINUOUS
 62
    4
 10
1414.8375606410996
 20
1022.9805865426579
 11
1396.4529317946699
 21
1004.5956710357159
  0
LINE
  8
_0-3_躯体と製品
  6
CONTINUOUS
 62
    4
 10
1449.4861329884866
 20
981.26159032134865
 11
1438.1725240649025
 21
969.94778279680986
  0
LINE
  8
_0-3_躯体と製品
  6
CONTINUOUS
 62
    4
 10
1457.2646266823949
 20
943.78499542522286
 11
1396.4529317946699
 21
1004.5956710357159
  0
LINE
  8
_0-3_躯体と製品
  6
CONTINUOUS
 62
    4
 10
1449.4865163196996
 20
936.00674089437371
 11
1474.5888798444826
 21
926.46104556042292
  0
LINE
  8
_0-3_躯体と製品
  6
CONTINUOUS
 62
    4
 10
1475.6492479284675
 20
962.16991026715687
 11
1414.8375606410996
 21
1022.9805865426579
  0
LINE
  8
_0-3_躯体と製品
  6
CONTINUOUS
 62
    4
 10
1475.6492479284675
 20
962.16991026715687
 11
1457.2646266823949
 21
943.78499542522286
  0
LINE
  8
_0-3_躯体と製品
  6
CONTINUOUS
 62
    4
 10
1398.2202787928659
 20
1055.153815801475
 11
1483.4273506908066
 21
969.94816413299668
  0
LINE
  8
_0-3_躯体と製品
  6
CONTINUOUS
 62
    4
 10
1364.2794387214908
 20
1021.2123920640956
 11
1449.4865163196996
 21
936.00674089437371
  0
LINE
  8
_0-3_躯体と製品
  6
CONTINUOUS
 62
    4
 10
1492.9735010905556
 20
944.84596040235692
 11
1483.4273506908066
 21
969.94816413299668
  0
LINE
  8
_0-3_躯体と製品
  6
CONTINUOUS
 62
    4
 10
1492.9735010905556
 20
944.84596040235692
 11
1474.5888798444826
 21
926.46104556042292
  0
ARC
  8
_0-3_躯体と製品
  6
HASEN
 62
    4
 10
716.44984113386215
 20
441.36244927278074
 40
23.999999999999407
 50
224.9995211457819
 51
314.9995236461138
  0
ARC
  8
_0-3_躯体と製品
  6
HASEN
 62
    4
 10
716.44984113386215
 20
441.36244927278062
 40
23.999999999999375
 50
134.9995218331261
 51
224.99953116365685
  0
LINE
  8
_0-3_躯体と製品
  6
CONTINUOUS
 62
    4
 10
796.00007486716265
 20
532.22501339633573
 11
773.37245898682568
 21
509.59778604872184
  0
LINE
  8
_0-3_躯体と製品
  6
CONTINUOUS
 62
    4
 10
807.31369188986093
 20
520.91121090705701
 11
784.68607584327094
 21
498.28398165935505
  0
LINE
  8
_0-3_躯体と製品
  6
CONTINUOUS
 62
    4
 10
784.68607584327094
 20
498.28398165935505
 11
773.37245898682568
 21
509.59778604872184
  0
LINE
  8
_0-3_躯体と製品
  6
CONTINUOUS
 62
    4
 10
828.17349021248981
 20
534.69961518864966
 11
818.62730874630483
 21
509.59740651768783
  0
LINE
  8
_0-3_躯体と製品
  6
CONTINUOUS
 62
    4
 10
784.68645784446574
 20
543.53881588561489
 11
809.78884745639868
 21
553.08454678099088
  0
LINE
  8
_0-3_躯体と製品
  6
CONTINUOUS
 62
    4
 10
810.84917425252081
 20
517.37564784284996
 11
751.65279106015669
 21
458.18024076175971
  0
LINE
  8
_0-3_躯体と製品
  6
CONTINUOUS
 62
    4
 10
810.84917425252081
 20
517.37564784284996
 11
792.46459233824976
 21
535.76057456045282
  0
LINE
  8
_0-3_躯体と製品
  6
CONTINUOUS
 62
    4
 10
828.17349021248981
 20
534.69961518864966
 11
809.78884745639868
 21
553.08454678099088
  0
LINE
  8
_0-3_躯体と製品
  6
CONTINUOUS
 62
    4
 10
792.46459233824976
 20
535.76057456045282
 11
731.65291265123778
 21
474.94989761994293
  0
LINE
  8
_0-3_躯体と製品
  6
HASEN
 62
    4
 10
733.42020644693571
 20
424.39175750924596
 11
759.43098737461764
 21
450.40209479747773
  0
LINE
  8
_0-3_躯体と製品
  6
HASEN
 62
    4
 10
699.47941568294277
 20
458.33315395674481
 11
713.51930216741971
 21
472.37281301506891
  0
LINE
  8
_0-3_躯体と製品
  6
HASEN
 62
    4
 10
762.46028876643982
 20
403.37281301506891
 11
662.46028876643982
 21
403.372813015068
  0
LINE
  8
_0-3_躯体と製品
  6
CONTINUOUS
 62
    4
 10
662.46028876643982
 20
472.37281301506891
 11
662.46028876643982
 21
397.372813015068
  0
LINE
  8
_0-3_躯体と製品
  6
CONTINUOUS
 62
    4
 10
762.46028876643982
 20
447.37281301506891
 11
762.46028876643982
 21
397.372813015068
  0
ARC
  8
_0-3_躯体と製品
  6
CONTINUOUS
 62
    4
 10
1313.2707077646942
 20
1038.1831342510859
 40
24.000000000000608
 50
44.999522739505736
 51
134.99952183312678
  0
ARC
  8
_0-3_躯体と製品
  6
CONTINUOUS
 62
    4
 10
1313.2707077646944
 20
1038.1831342510868
 40
23.999999999999858
 50
314.99952364611153
 51
44.999522739504577
  0
LINE
  8
_0-3_躯体と製品
  6
CONTINUOUS
 62
    4
 10
1128.7143698112759
 20
862.1150720581968
 11
1165.4840888074018
 21
881.91377375661887
  0
LINE
  8
_0-3_躯体と製品
  6
CONTINUOUS
 62
    4
 10
1156.9988750844286
 20
890.39911469806475
 11
1137.1995835342486
 21
853.62973111675092
  0
LINE
  8
_0-3_躯体と製品
  6
CONTINUOUS
 62
    4
 10
1205.0825603821236
 20
941.31040740866774
 11
813.32015774394574
 21
549.55318101396279
  0
LINE
  8
_0-3_躯体と製品
  6
CONTINUOUS
 62
    4
 10
1165.4840888074018
 20
881.91377375661887
 11
1137.1995835342486
 21
853.62973111675092
  0
LINE
  8
_0-3_躯体と製品
  6
CONTINUOUS
 62
    4
 10
1216.3961769060647
 20
929.99659921912098
 11
824.63377872826857
 21
538.23938228433781
  0
LINE
  8
_0-3_躯体と製品
  6
CONTINUOUS
 62
    4
 10
1156.9988750844286
 20
890.39911469806475
 11
1128.7143698112759
 21
862.1150720581968
  0
LINE
  8
_0-3_躯体と製品
  6
CONTINUOUS
 62
    4
 10
1156.9988750844286
 20
890.39911469806475
 11
1165.4840693837668
 21
881.91375433330177
  0
LINE
  8
_0-3_躯体と製品
  6
CONTINUOUS
 62
    4
 10
1128.7143698112759
 20
862.1150720581968
 11
1137.1995777484849
 21
853.62972533108177
  0
LINE
  8
_0-3_躯体と製品
  6
CONTINUOUS
 62
    4
 10
1233.7204376685086
 20
947.32054841891204
 11
1256.3480388468888
 21
969.94778279680986
  0
LINE
  8
_0-3_躯体と製品
  6
CONTINUOUS
 62
    4
 10
1222.4068211445679
 20
958.6343566084588
 11
1245.0344299233047
 21
981.26159032134865
  0
LINE
  8
_0-3_躯体と製品
  6
CONTINUOUS
 62
    4
 10
1279.6830022706927
 20
1022.9805865426579
 11
1298.0676311171228
 21
1004.5956710357159
  0
LINE
  8
_0-3_躯体と製品
  6
CONTINUOUS
 62
    4
 10
1245.0344299233047
 20
981.26159032134865
 11
1256.3480388468888
 21
969.94778279680986
  0
LINE
  8
_0-3_躯体と製品
  6
CONTINUOUS
 62
    4
 10
1237.2559362293969
 20
943.78499542522286
 11
1298.0676311171228
 21
1004.5956710357159
  0
LINE
  8
_0-3_躯体と製品
  6
CONTINUOUS
 62
    4
 10
1245.0340465920926
 20
936.00674089437371
 11
1219.9316830673097
 21
926.46104556042292
  0
LINE
  8
_0-3_躯体と製品
  6
CONTINUOUS
 62
    4
 10
1218.8713149833238
 20
962.16991026715687
 11
1279.6830022706927
 21
1022.9805865426579
  0
LINE
  8
_0-3_躯体と製品
  6
CONTINUOUS
 62
    4
 10
1218.8713149833238
 20
962.16991026715687
 11
1237.2559362293969
 21
943.78499542522286
  0
LINE
  8
_0-3_躯体と製品
  6
CONTINUOUS
 62
    4
 10
1296.3002841189268
 20
1055.153815801475
 11
1211.0932122209847
 21
969.94816413299668
  0
LINE
  8
_0-3_躯体と製品
  6
CONTINUOUS
 62
    4
 10
1330.2411241903005
 20
1021.2123920640956
 11
1245.0340465920926
 21
936.00674089437371
  0
LINE
  8
_0-3_躯体と製品
  6
CONTINUOUS
 62
    4
 10
1201.5470618212357
 20
944.84596040235692
 11
1211.0932122209847
 21
969.94816413299668
  0
LINE
  8
_0-3_躯体と製品
  6
CONTINUOUS
 62
    4
 10
1201.5470618212357
 20
944.84596040235692
 11
1219.9316830673097
 21
926.46104556042292
  0
LINE
  8
_0-5_中心線
  6
CENTER1
 62
    7
 10
1347.2593011174649
 20
380.30146307930181
 11
1347.2593011174649
 21
1157.263235785138
  0
LINE
  8
_0-3_躯体と製品
  6
CONTINUOUS
 62
    4
 10
439.25930228092875
 20
895.87285561440285
 11
439.25930228099969
 21
933.87285752175103
  0
LINE
  8
_0-3_躯体と製品
  6
CONTINUOUS
 62
    3
 10
440.75930228093574
 20
895.87285561440285
 11
440.75930228097172
 21
933.87285752175103
  0
LINE
  8
_0-3_躯体と製品
  6
CONTINUOUS
 62
    3
 10
453.75930228093466
 20
895.87285561440285
 11
453.75930228097269
 21
933.87285752175103
  0
LINE
  8
_0-3_躯体と製品
  6
CONTINUOUS
 62
    4
 10
455.25930228092869
 20
895.87285561440285
 11
455.25930228099878
 21
933.87285752175103
  0
LINE
  8
_0-3_躯体と製品
  6
CONTINUOUS
 62
    4
 10
446.75930111746476
 20
882.564854660724
 11
447.7593011174647
 21
882.564854660724
  0
LINE
  8
_0-3_躯体と製品
  6
CONTINUOUS
 62
    4
 10
450.43430111751172
 20
879.87285466072899
 11
450.43430111751172
 21
878.87285466072899
  0
LINE
  8
_0-3_躯体と製品
  6
CONTINUOUS
 62
    4
 10
446.75930111746476
 20
876.25685466073401
 11
447.7593011174647
 21
876.25685466073401
  0
LINE
  8
_0-3_躯体と製品
  6
CONTINUOUS
 62
    4
 10
443.97430111749082
 20
879.87285466072899
 11
443.97430111749082
 21
878.87285466072899
  0
ARC
  8
_0-3_躯体と製品
  6
CONTINUOUS
 62
    4
 10
448.75930111746482
 20
877.87285466072876
 40
1.0000000000002025
 50
90.000003001562533
 51
180.00000599685728
  0
LINE
  8
_0-3_躯体と製品
  6
CONTINUOUS
 62
    4
 10
443.97430111749082
 20
878.87285466072899
 11
445.75930111746464
 21
878.87285466072899
  0
LINE
  8
_0-3_躯体と製品
  6
CONTINUOUS
 62
    4
 10
446.75930111746476
 20
877.87285466072899
 11
446.75930111746476
 21
876.25685466073401
  0
ARC
  8
_0-3_躯体と製品
  6
CONTINUOUS
 62
    4
 10
445.75930111746464
 20
877.87285466072899
 40
1.0000000000000571
 50
0.0000000000032479
 51
90.000003001551235
  0
LINE
  8
_0-3_躯体と製品
  6
CONTINUOUS
 62
    4
 10
443.97430111749082
 20
879.87285466072899
 11
445.75930111746464
 21
879.87285466072899
  0
LINE
  8
_0-3_躯体と製品
  6
CONTINUOUS
 62
    4
 10
446.75930111746476
 20
882.564854660724
 11
446.75930111746476
 21
880.87285466072808
  0
ARC
  8
_0-3_躯体と製品
  6
CONTINUOUS
 62
    4
 10
445.75930111746516
 20
880.87285466072865
 40
0.9999999999996027
 50
269.99999699842272
 51
359.99999999997073
  0
LINE
  8
_0-3_躯体と製品
  6
CONTINUOUS
 62
    4
 10
447.7593011174647
 20
882.564854660724
 11
447.7593011174647
 21
880.87285466072808
  0
LINE
  8
_0-3_躯体と製品
  6
CONTINUOUS
 62
    4
 10
448.75930111746464
 20
879.87285466072899
 11
450.43430111751172
 21
879.87285466072899
  0
ARC
  8
_0-3_躯体と製品
  6
CONTINUOUS
 62
    4
 10
448.75930111746447
 20
880.87285466072876
 40
0.9999999999997482
 50
180.00000599685421
 51
269.99999699846353
  0
LINE
  8
_0-3_躯体と製品
  6
CONTINUOUS
 62
    4
 10
447.7593011174647
 20
877.87285466072899
 11
447.7593011174647
 21
876.25685466073401
  0
LINE
  8
_0-3_躯体と製品
  6
CONTINUOUS
 62
    4
 10
448.75930111746464
 20
878.87285466072899
 11
450.43430111751172
 21
878.87285466072899
  0
ARC
  8
_0-3_躯体と製品
  6
CONTINUOUS
 62
    4
 10
420.90930836538928
 20
891.37285275337968
 40
1.000000014901417
 50
0.0000000000146155
 51
90.000002504483319
  0
ARC
  8
_0-3_躯体と製品
  6
CONTINUOUS
 62
    4
 10
425.56172268728926
 20
897.87285370705479
 40
2.0000000298028251
 50
177.24089545219303
 51
270.00000068326722
  0
ARC
  8
_0-3_躯体と製品
  6
CONTINUOUS
 62
    4
 10
427.31002705435441
 20
932.07285446999344
 40
8.2999998331071865
 50
90.000002504466565
 51
177.24089545219277
  0
ARC
  8
_0-3_躯体と製品
  6
CONTINUOUS
 62
    4
 10
427.20027821402255
 20
931.87284989235752
 40
2.0000000298022611
 50
90.000002504479383
 51
177.24089545220562
  0
ARC
  8
_0-3_躯体と製品
  6
CONTINUOUS
 62
    4
 10
468.95687954764037
 20
897.87285370705422
 40
2.0000000298024343
 50
269.99999749553183
 51
2.7591076357234425
  0
ARC
  8
_0-3_躯体と製品
  6
CONTINUOUS
 62
    4
 10
467.20857518057488
 20
932.07285446999379
 40
8.2999998331069609
 50
2.7591076357227431
 51
90.00000250446854
  0
ARC
  8
_0-3_躯体と製品
  6
CONTINUOUS
 62
    4
 10
473.60930340628278
 20
891.37285275338013
 40
1.0000000149009924
 50
90.000002504452269
 51
180.00000500892099
  0
ARC
  8
_0-3_躯体と製品
  6
CONTINUOUS
 62
    4
 10
467.31832402090708
 20
931.87284989235695
 40
2.0000000298027105
 50
2.7591076357242774
 51
90.000002504470075
  0
ARC
  8
_0-3_躯体と製品
  6
CONTINUOUS
 62
    4
 10
474.11472218374934
 20
898.87285275337968
 40
3.0000001192086714
 50
272.75910705226295
 51
2.7591076357268904
  0
ARC
  8
_0-3_躯体と製品
  6
CONTINUOUS
 62
    4
 10
467.20857518057505
 20
932.07285446999344
 40
5.2999997138974102
 50
2.7591076357215374
 51
90.000002504467332
  0
ARC
  8
_0-3_躯体と製品
  6
CONTINUOUS
 62
    4
 10
427.31002705435372
 20
932.07285446999379
 40
5.2999997138970691
 50
90.000002504464987
 51
177.24089545219121
  0
ARC
  8
_0-3_躯体と製品
  6
CONTINUOUS
 62
    4
 10
420.40388005118081
 20
898.87285275338036
 40
3.0000001192096253
 50
177.24089545219078
 51
267.24090478685724
  0
LINE
  8
_0-3_躯体と製品
  6
CONTINUOUS
 62
    4
 10
420.90930836538979
 20
892.37285656807808
 11
420.25930302481385
 21
892.37285656807808
  0
LINE
  8
_0-3_躯体と製品
  6
CONTINUOUS
 62
    4
 10
419.02645008902169
 20
932.61354012368065
 11
417.40735905508672
 21
899.01726288674172
  0
LINE
  8
_0-3_躯体と製品
  6
CONTINUOUS
 62
    4
 10
422.01618092398371
 20
932.32798142311867
 11
420.25930302481385
 21
895.87285561440285
  0
LINE
  8
_0-3_躯体と製品
  6
CONTINUOUS
 62
    4
 10
433.40131256384876
 20
940.37285370705376
 11
427.31002705435475
 21
940.37285370705376
  0
LINE
  8
_0-3_躯体と製品
  6
CONTINUOUS
 62
    4
 10
447.25930111746464
 20
895.87285561440285
 11
425.56172268728875
 21
895.87285561440285
  0
LINE
  8
_0-3_躯体と製品
  6
CONTINUOUS
 62
    4
 10
421.90929310660073
 20
891.3728527533799
 11
421.90929310660073
 21
872.37285418389183
  0
LINE
  8
_0-3_躯体と製品
  6
CONTINUOUS
 62
    4
 10
420.25930302481385
 20
895.87285561440285
 11
420.25930302481385
 21
892.37285656807808
  0
LINE
  8
_0-3_躯体と製品
  6
CONTINUOUS
 62
    4
 10
447.25930111746464
 20
933.87285752175194
 11
427.20027821402272
 21
933.87285752175194
  0
LINE
  8
_0-3_躯体と製品
  6
CONTINUOUS
 62
    4
 10
447.25930111746464
 20
937.37285179970604
 11
427.31002705435475
 21
937.37285179970604
  0
LINE
  8
_0-3_躯体と製品
  6
CONTINUOUS
 62
    4
 10
472.6092995915858
 20
872.37285418389183
 11
421.90929310660073
 21
872.37285418389183
  0
LINE
  8
_0-3_躯体と製品
  6
CONTINUOUS
 62
    4
 10
473.60930340628278
 20
892.37285656807808
 11
474.25929921011561
 21
892.37285656807808
  0
LINE
  8
_0-3_躯体と製品
  6
CONTINUOUS
 62
    4
 10
475.49215214590657
 20
932.61354012368065
 11
477.11124317984257
 21
899.01726288674172
  0
LINE
  8
_0-3_躯体と製品
  6
CONTINUOUS
 62
    4
 10
472.50243084768971
 20
932.32798142311867
 11
474.25929921011561
 21
895.87285561440285
  0
LINE
  8
_0-3_躯体と製品
  6
CONTINUOUS
 62
    4
 10
461.1141254849677
 20
940.37285370705376
 11
467.20857518057488
 21
940.37285370705376
  0
LINE
  8
_0-3_躯体と製品
  6
CONTINUOUS
 62
    4
 10
447.25930111746464
 20
895.87285561440285
 11
468.95687954764071
 21
895.87285561440285
  0
LINE
  8
_0-3_躯体と製品
  6
CONTINUOUS
 62
    4
 10
472.6092995915858
 20
891.3728527533799
 11
472.6092995915858
 21
872.37285418389183
  0
LINE
  8
_0-3_躯体と製品
  6
CONTINUOUS
 62
    4
 10
474.25929921011561
 20
895.87285561440285
 11
474.25929921011561
 21
892.37285656807808
  0
LINE
  8
_0-3_躯体と製品
  6
CONTINUOUS
 62
    4
 10
447.25930111746464
 20
933.87285752175194
 11
467.31832402090657
 21
933.87285752175194
  0
LINE
  8
_0-3_躯体と製品
  6
CONTINUOUS
 62
    4
 10
447.25930111746464
 20
937.37285179970604
 11
467.20857518057488
 21
937.37285179970604
  0
LINE
  8
_0-3_躯体と製品
  6
CONTINUOUS
 62
    4
 10
469.31600468496976
 20
931.96913285134178
 11
470.9545602117027
 21
897.96912712929588
  0
LINE
  8
_0-3_躯体と製品
  6
CONTINUOUS
 62
    4
 10
447.25930111746464
 20
892.37285656807808
 11
472.6092995915858
 21
892.37285656807808
  0
LINE
  8
_0-3_躯体と製品
  6
CONTINUOUS
 62
    4
 10
447.25930111746464
 20
892.37285656807808
 11
420.90930836538979
 21
892.37285656807808
  0
LINE
  8
_0-3_躯体と製品
  6
CONTINUOUS
 62
    4
 10
425.20259754995988
 20
931.96913285134178
 11
423.5640324864828
 21
897.96912712929588
  0
LINE
  8
_0-3_躯体と製品
  6
CONTINUOUS
 62
    4
 10
2239.2607396274925
 20
895.87281682983394
 11
2239.2607396275635
 21
933.87281873718166
  0
LINE
  8
_0-3_躯体と製品
  6
CONTINUOUS
 62
    3
 10
2240.7607396274998
 20
895.87281682983394
 11
2240.7607396275362
 21
933.87281873718166
  0
LINE
  8
_0-3_躯体と製品
  6
CONTINUOUS
 62
    3
 10
2253.7607396274998
 20
895.87281682983394
 11
2253.7607396275371
 21
933.87281873718166
  0
LINE
  8
_0-3_躯体と製品
  6
CONTINUOUS
 62
    4
 10
2255.2607396274925
 20
895.87281682983394
 11
2255.2607396275625
 21
933.87281873718166
  0
LINE
  8
_0-3_躯体と製品
  6
CONTINUOUS
 62
    4
 10
2242.1972384640399
 20
879.37281587616008
 11
2252.3242384640189
 21
879.37281587616008
  0
LINE
  8
_0-3_躯体と製品
  6
CONTINUOUS
 62
    4
 10
2246.7607384640287
 20
882.56481587615508
 11
2247.7607384640287
 21
882.56481587615508
  0
LINE
  8
_0-3_躯体と製品
  6
CONTINUOUS
 62
    4
 10
2250.4357384640757
 20
879.87281587615871
 11
2250.4357384640757
 21
878.87281587615871
  0
LINE
  8
_0-3_躯体と製品
  6
CONTINUOUS
 62
    4
 10
2246.7607384640287
 20
876.25681587616464
 11
2247.7607384640287
 21
876.25681587616464
  0
LINE
  8
_0-3_躯体と製品
  6
CONTINUOUS
 62
    4
 10
2243.9757384640552
 20
879.87281587615871
 11
2243.9757384640552
 21
878.87281587615871
  0
ARC
  8
_0-3_躯体と製品
  6
CONTINUOUS
 62
    4
 10
2248.7607384640282
 20
877.87281587615917
 40
0.9999999999995203
 50
90.000003001523453
 51
180.0000059968182
  0
LINE
  8
_0-3_躯体と製品
  6
CONTINUOUS
 62
    4
 10
2243.9757384640552
 20
878.87281587615871
 11
2245.7607384640287
 21
878.87281587615871
  0
LINE
  8
_0-3_躯体と製品
  6
CONTINUOUS
 62
    4
 10
2246.7607384640287
 20
877.87281587615871
 11
2246.7607384640287
 21
876.25681587616464
  0
ARC
  8
_0-3_躯体と製品
  6
CONTINUOUS
 62
    4
 10
2245.7607384640287
 20
877.8728158761586
 40
1.0000000000000571
 50
0.0000000000032479
 51
90.000003001551235
  0
LINE
  8
_0-3_躯体と製品
  6
CONTINUOUS
 62
    4
 10
2243.9757384640552
 20
879.87281587615871
 11
2245.7607384640287
 21
879.87281587615871
  0
LINE
  8
_0-3_躯体と製品
  6
CONTINUOUS
 62
    4
 10
2246.7607384640287
 20
882.56481587615508
 11
2246.7607384640287
 21
880.87281587616008
  0
ARC
  8
_0-3_躯体と製品
  6
CONTINUOUS
 62
    4
 10
2245.7607384640278
 20
880.87281587615939
 40
1.000000000000739
 50
269.99999699848786
 51
0.0000000000358512
  0
LINE
  8
_0-3_躯体と製品
  6
CONTINUOUS
 62
    4
 10
2247.7607384640287
 20
882.56481587615508
 11
2247.7607384640287
 21
880.87281587616008
  0
LINE
  8
_0-3_躯体と製品
  6
CONTINUOUS
 62
    4
 10
2248.7607384640287
 20
879.87281587615871
 11
2250.4357384640757
 21
879.87281587615871
  0
ARC
  8
_0-3_躯体と製品
  6
CONTINUOUS
 62
    4
 10
2248.7607384640291
 20
880.87281587615917
 40
1.0000000000004294
 50
180.00000599681516
 51
269.99999699842448
  0
LINE
  8
_0-3_躯体と製品
  6
CONTINUOUS
 62
    4
 10
2247.7607384640287
 20
877.87281587615871
 11
2247.7607384640287
 21
876.25681587616464
  0
LINE
  8
_0-3_躯体と製品
  6
CONTINUOUS
 62
    4
 10
2248.7607384640287
 20
878.87281587615871
 11
2250.4357384640757
 21
878.87281587615871
  0
ARC
  8
_0-3_躯体と製品
  6
CONTINUOUS
 62
    4
 10
2220.910745711954
 20
891.3728139688111
 40
1.000000014900678
 50
359.99999999999835
 51
90.000002504467034
  0
ARC
  8
_0-3_躯体と製品
  6
CONTINUOUS
 62
    4
 10
2225.5631600338529
 20
897.87281492248485
 40
2.0000000298028251
 50
177.24089545219303
 51
270.00000068326722
  0
ARC
  8
_0-3_躯体と製品
  6
CONTINUOUS
 62
    4
 10
2227.3114644009183
 20
932.07281568542476
 40
8.2999998331061118
 50
90.000002504473585
 51
177.24089545219982
  0
ARC
  8
_0-3_躯体と製品
  6
CONTINUOUS
 62
    4
 10
2227.2017155605863
 20
931.87281110778781
 40
2.0000000298020351
 50
90.000002504472576
 51
177.2408954521988
  0
ARC
  8
_0-3_躯体と製品
  6
CONTINUOUS
 62
    4
 10
2268.9583168942036
 20
897.87281492248508
 40
2.0000000298030511
 50
269.99999749553933
 51
2.7591076357309614
  0
ARC
  8
_0-3_躯体と製品
  6
CONTINUOUS
 62
    4
 10
2267.210012527139
 20
932.07281568542408
 40
8.29999983310673
 50
2.7591076357244035
 51
90.000002504470203
  0
ARC
  8
_0-3_躯体と製品
  6
CONTINUOUS
 62
    4
 10
2273.6107407528471
 20
891.37281396881031
 40
1.0000000149013621
 50
90.000002504483206
 51
180.00000500895194
  0
ARC
  8
_0-3_躯体と製品
  6
CONTINUOUS
 62
    4
 10
2267.319761367472
 20
931.87281110778758
 40
2.0000000298022576
 50
2.7591076357378923
 51
90.000002504483689
  0
ARC
  8
_0-3_躯体と製品
  6
CONTINUOUS
 62
    4
 10
2274.1161595303129
 20
898.87281396881099
 40
3.0000001192097958
 50
272.75910705225755
 51
2.7591076357214961
  0
ARC
  8
_0-3_躯体と製品
  6
CONTINUOUS
 62
    4
 10
2267.210012527139
 20
932.07281568542453
 40
5.2999997138974102
 50
2.7591076357215374
 51
90.000002504467332
  0
ARC
  8
_0-3_躯体と製品
  6
CONTINUOUS
 62
    4
 10
2227.3114644009183
 20
932.07281568542453
 40
5.299999713897436
 50
90.000002504471098
 51
177.24089545219732
  0
ARC
  8
_0-3_躯体と製品
  6
CONTINUOUS
 62
    4
 10
2220.4053173977445
 20
898.8728139688111
 40
3.0000001192093109
 50
177.24089545220244
 51
267.2409047868689
  0
LINE
  8
_0-3_躯体と製品
  6
CONTINUOUS
 62
    4
 10
2220.910745711954
 20
892.3728177835078
 11
2220.2607403713782
 21
892.3728177835078
  0
LINE
  8
_0-3_躯体と製品
  6
CONTINUOUS
 62
    4
 10
2219.0278874355863
 20
932.61350133911083
 11
2217.4087964016508
 21
899.0172241021728
  0
LINE
  8
_0-3_躯体と製品
  6
CONTINUOUS
 62
    4
 10
2222.0176182705472
 20
932.32794263854976
 11
2220.2607403713782
 21
895.87281682983394
  0
LINE
  8
_0-3_躯体と製品
  6
CONTINUOUS
 62
    4
 10
2233.4027499104131
 20
940.37281492248485
 11
2227.3114644009183
 21
940.37281492248485
  0
LINE
  8
_0-3_躯体と製品
  6
CONTINUOUS
 62
    4
 10
2247.2607384640287
 20
895.87281682983394
 11
2225.5631600338538
 21
895.87281682983394
  0
LINE
  8
_0-3_躯体と製品
  6
CONTINUOUS
 62
    4
 10
2221.9107304531649
 20
891.37281396881099
 11
2221.9107304531649
 21
872.37281539932201
  0
LINE
  8
_0-3_躯体と製品
  6
CONTINUOUS
 62
    4
 10
2220.2607403713782
 20
895.87281682983394
 11
2220.2607403713782
 21
892.3728177835078
  0
LINE
  8
_0-3_躯体と製品
  6
CONTINUOUS
 62
    4
 10
2247.2607384640287
 20
933.87281873718166
 11
2227.2017155605863
 21
933.87281873718166
  0
LINE
  8
_0-3_躯体と製品
  6
CONTINUOUS
 62
    4
 10
2247.2607384640287
 20
937.37281301513576
 11
2227.3114644009183
 21
937.37281301513576
  0
LINE
  8
_0-3_躯体と製品
  6
CONTINUOUS
 62
    4
 10
2272.6107369381498
 20
872.37281539932201
 11
2221.9107304531649
 21
872.37281539932201
  0
LINE
  8
_0-3_躯体と製品
  6
CONTINUOUS
 62
    4
 10
2273.6107407528466
 20
892.3728177835078
 11
2274.2607365566801
 21
892.3728177835078
  0
LINE
  8
_0-3_躯体と製品
  6
CONTINUOUS
 62
    4
 10
2275.493589492472
 20
932.61350133911083
 11
2277.1126805264066
 21
899.0172241021728
  0
LINE
  8
_0-3_躯体と製品
  6
CONTINUOUS
 62
    4
 10
2272.5038681942533
 20
932.32794263854976
 11
2274.2607365566801
 21
895.87281682983394
  0
LINE
  8
_0-3_躯体と製品
  6
CONTINUOUS
 62
    4
 10
2261.1155628315328
 20
940.37281492248485
 11
2267.2100125271381
 21
940.37281492248485
  0
LINE
  8
_0-3_躯体と製品
  6
CONTINUOUS
 62
    4
 10
2247.2607384640287
 20
895.87281682983394
 11
2268.9583168942045
 21
895.87281682983394
  0
LINE
  8
_0-3_躯体と製品
  6
CONTINUOUS
 62
    4
 10
2272.6107369381498
 20
891.37281396881099
 11
2272.6107369381498
 21
872.37281539932201
  0
LINE
  8
_0-3_躯体と製品
  6
CONTINUOUS
 62
    4
 10
2274.2607365566801
 20
895.87281682983394
 11
2274.2607365566801
 21
892.3728177835078
  0
LINE
  8
_0-3_躯体と製品
  6
CONTINUOUS
 62
    4
 10
2247.2607384640287
 20
933.87281873718166
 11
2267.3197613674702
 21
933.87281873718166
  0
LINE
  8
_0-3_躯体と製品
  6
CONTINUOUS
 62
    4
 10
2247.2607384640287
 20
937.37281301513576
 11
2267.2100125271381
 21
937.37281301513576
  0
LINE
  8
_0-3_躯体と製品
  6
CONTINUOUS
 62
    4
 10
2269.3174420315336
 20
931.96909406677196
 11
2270.9559975582665
 21
897.96908834472606
  0
LINE
  8
_0-3_躯体と製品
  6
CONTINUOUS
 62
    4
 10
2247.2607384640287
 20
892.3728177835078
 11
2272.6107369381498
 21
892.3728177835078
  0
LINE
  8
_0-3_躯体と製品
  6
CONTINUOUS
 62
    4
 10
2247.2607384640287
 20
892.3728177835078
 11
2220.910745711954
 21
892.3728177835078
  0
LINE
  8
_0-3_躯体と製品
  6
CONTINUOUS
 62
    4
 10
2225.2040348965238
 20
931.96909406677196
 11
2223.5654698330468
 21
897.96908834472606
  0
LINE
  8
_0-3_躯体と製品
  6
CONTINUOUS
 62
    4
 10
1339.2593011173899
 20
895.87281682983394
 11
1339.2593011174608
 21
933.87281873718166
  0
LINE
  8
_0-3_躯体と製品
  6
CONTINUOUS
 62
    3
 10
1340.7593011173967
 20
895.87281682983394
 11
1340.7593011174326
 21
933.87281873718166
  0
LINE
  8
_0-3_躯体と製品
  6
CONTINUOUS
 62
    3
 10
1353.7593011173958
 20
895.87281682983394
 11
1353.7593011174336
 21
933.87281873718166
  0
LINE
  8
_0-3_躯体と製品
  6
CONTINUOUS
 62
    4
 10
1355.2593011173899
 20
895.87281682983394
 11
1355.2593011174599
 21
933.87281873718166
  0
LINE
  8
_0-3_躯体と製品
  6
CONTINUOUS
 62
    4
 10
1339.2593011174158
 20
967.37281298643984
 11
1339.2593011174708
 21
1005.1728057045239
  0
LINE
  8
_0-3_躯体と製品
  6
CONTINUOUS
 62
    3
 10
1340.7593011174099
 20
967.37281298643984
 11
1340.7593011174386
 21
1005.1728057045239
  0
LINE
  8
_0-3_躯体と製品
  6
CONTINUOUS
 62
    3
 10
1353.7593011174108
 20
967.37281298643984
 11
1353.7593011174399
 21
1005.1728057045239
  0
LINE
  8
_0-3_躯体と製品
  6
CONTINUOUS
 62
    4
 10
1355.2593011174158
 20
967.37281298643984
 11
1355.2593011174699
 21
1005.1728057045239
  0
LINE
  8
_0-3_躯体と製品
  6
CONTINUOUS
 62
    4
 10
1346.7592999539256
 20
882.56481587615508
 11
1347.7592999539256
 21
882.56481587615508
  0
LINE
  8
_0-3_躯体と製品
  6
CONTINUOUS
 62
    4
 10
1350.4342999539717
 20
879.87281587615871
 11
1350.4342999539717
 21
878.87281587615871
  0
LINE
  8
_0-3_躯体と製品
  6
CONTINUOUS
 62
    4
 10
1346.7592999539256
 20
876.25681587616464
 11
1347.7592999539256
 21
876.25681587616464
  0
LINE
  8
_0-3_躯体と製品
  6
CONTINUOUS
 62
    4
 10
1343.9742999539517
 20
879.87281587615871
 11
1343.9742999539517
 21
878.87281587615871
  0
ARC
  8
_0-3_躯体と製品
  6
CONTINUOUS
 62
    4
 10
1348.7592999539252
 20
877.87281587615917
 40
0.999999999999547
 50
90.000003001521918
 51
180.00000599681667
  0
LINE
  8
_0-3_躯体と製品
  6
CONTINUOUS
 62
    4
 10
1343.9742999539517
 20
878.87281587615871
 11
1345.7592999539256
 21
878.87281587615871
  0
LINE
  8
_0-3_躯体と製品
  6
CONTINUOUS
 62
    4
 10
1346.7592999539256
 20
877.87281587615871
 11
1346.7592999539256
 21
876.25681587616464
  0
ARC
  8
_0-3_躯体と製品
  6
CONTINUOUS
 62
    4
 10
1345.7592999539256
 20
877.87281587615871
 40
0.9999999999999982
 50
359.99999999999989
 51
90.000003001547881
  0
LINE
  8
_0-3_躯体と製品
  6
CONTINUOUS
 62
    4
 10
1343.9742999539517
 20
879.87281587615871
 11
1345.7592999539256
 21
879.87281587615871
  0
LINE
  8
_0-3_躯体と製品
  6
CONTINUOUS
 62
    4
 10
1346.7592999539256
 20
882.56481587615508
 11
1346.7592999539256
 21
880.87281587616008
  0
ARC
  8
_0-3_躯体と製品
  6
CONTINUOUS
 62
    4
 10
1345.7592999539249
 20
880.87281587615939
 40
1.0000000000006806
 50
269.99999699849121
 51
0.0000000000392098
  0
LINE
  8
_0-3_躯体と製品
  6
CONTINUOUS
 62
    4
 10
1347.7592999539256
 20
882.56481587615508
 11
1347.7592999539256
 21
880.87281587616008
  0
LINE
  8
_0-3_躯体と製品
  6
CONTINUOUS
 62
    4
 10
1348.7592999539256
 20
879.87281587615871
 11
1350.4342999539717
 21
879.87281587615871
  0
ARC
  8
_0-3_躯体と製品
  6
CONTINUOUS
 62
    4
 10
1348.7592999539261
 20
880.87281587615917
 40
1.0000000000004561
 50
180.0000059968167
 51
269.99999699842601
  0
LINE
  8
_0-3_躯体と製品
  6
CONTINUOUS
 62
    4
 10
1347.7592999539256
 20
877.87281587615871
 11
1347.7592999539256
 21
876.25681587616464
  0
LINE
  8
_0-3_躯体と製品
  6
CONTINUOUS
 62
    4
 10
1348.7592999539256
 20
878.87281587615871
 11
1350.4342999539717
 21
878.87281587615871
  0
ARC
  8
_0-3_躯体と製品
  6
CONTINUOUS
 62
    4
 10
1320.9093072018504
 20
891.37281396881053
 40
1.0000000149011632
 50
0.0000000000261168
 51
90.000002504494816
  0
ARC
  8
_0-3_躯体と製品
  6
CONTINUOUS
 62
    4
 10
1325.5617215237498
 20
897.87281492248417
 40
2.0000000298021754
 50
177.24089545217348
 51
270.00000068324766
  0
ARC
  8
_0-3_躯体と製品
  6
CONTINUOUS
 62
    4
 10
1327.3100258908153
 20
932.07281568542408
 40
8.2999998331067655
 50
90.000002504469307
 51
177.24089545219553
  0
ARC
  8
_0-3_躯体と製品
  6
CONTINUOUS
 62
    4
 10
1327.2002770504832
 20
931.87281110778804
 40
2.0000000298020066
 50
90.000002504473329
 51
177.24089545219957
  0
ARC
  8
_0-3_躯体と製品
  6
CONTINUOUS
 62
    4
 10
1368.9568783841009
 20
897.87281492248485
 40
2.0000000298028069
 50
269.99999749554667
 51
2.7591076357382893
  0
ARC
  8
_0-3_躯体と製品
  6
CONTINUOUS
 62
    4
 10
1367.208574017036
 20
932.07281568542408
 40
8.2999998331067886
 50
2.7591076357247726
 51
90.000002504470572
  0
ARC
  8
_0-3_躯体と製品
  6
CONTINUOUS
 62
    4
 10
1373.6093022427442
 20
891.37281396881031
 40
1.0000000149013939
 50
90.000002504481373
 51
180.0000050089501
  0
ARC
  8
_0-3_躯体と製品
  6
CONTINUOUS
 62
    4
 10
1367.3183228573685
 20
931.87281110778758
 40
2.0000000298022238
 50
2.7591076357369744
 51
90.000002504482779
  0
ARC
  8
_0-3_躯体と製品
  6
CONTINUOUS
 62
    4
 10
1374.1147210202093
 20
898.87281396881076
 40
3.0000001192097452
 50
272.75910705225863
 51
2.7591076357225646
  0
ARC
  8
_0-3_躯体と製品
  6
CONTINUOUS
 62
    4
 10
1367.208574017036
 20
932.07281568542453
 40
5.2999997138973756
 50
2.7591076357211954
 51
90.000002504466991
  0
ARC
  8
_0-3_躯体と製品
  6
CONTINUOUS
 62
    4
 10
1327.3100258908153
 20
932.07281568542453
 40
5.299999713897436
 50
90.000002504471098
 51
177.24089545219732
  0
ARC
  8
_0-3_躯体と製品
  6
CONTINUOUS
 62
    4
 10
1320.4038788876417
 20
898.87281396881076
 40
3.0000001192091243
 50
177.24089545219849
 51
267.24090478686492
  0
LINE
  8
_0-3_躯体と製品
  6
CONTINUOUS
 62
    4
 10
1374.2592980465779
 20
892.3728177835078
 11
1320.2593018612747
 21
892.3728177835078
  0
LINE
  8
_0-3_躯体と製品
  6
CONTINUOUS
 62
    4
 10
1319.0264489254837
 20
932.61350133911083
 11
1317.4073578915477
 21
899.0172241021728
  0
LINE
  8
_0-3_躯体と製品
  6
CONTINUOUS
 62
    4
 10
1322.0161797604437
 20
932.32794263854976
 11
1320.2593018612747
 21
895.87281682983394
  0
LINE
  8
_0-3_躯体と製品
  6
CONTINUOUS
 62
    4
 10
1333.4013114003087
 20
940.37281492248485
 11
1327.3100258908157
 21
940.37281492248485
  0
LINE
  8
_0-3_躯体と製品
  6
CONTINUOUS
 62
    4
 10
1347.2592999539256
 20
895.87281682983394
 11
1325.5617215237498
 21
895.87281682983394
  0
LINE
  8
_0-3_躯体と製品
  6
CONTINUOUS
 62
    4
 10
1321.9092919430618
 20
891.37281396881099
 11
1321.9092919430618
 21
872.37281539932201
  0
LINE
  8
_0-3_躯体と製品
  6
CONTINUOUS
 62
    4
 10
1320.2593018612747
 20
895.87281682983394
 11
1320.2593018612747
 21
892.3728177835078
  0
LINE
  8
_0-3_躯体と製品
  6
CONTINUOUS
 62
    4
 10
1347.2592999539256
 20
933.87281873718166
 11
1327.2002770504828
 21
933.87281873718166
  0
LINE
  8
_0-3_躯体と製品
  6
CONTINUOUS
 62
    4
 10
1347.2592999539256
 20
937.37281301513576
 11
1327.3100258908157
 21
937.37281301513576
  0
LINE
  8
_0-3_躯体と製品
  6
CONTINUOUS
 62
    4
 10
1372.6092984280467
 20
872.37281539932201
 11
1321.9092919430618
 21
872.37281539932201
  0
LINE
  8
_0-3_躯体と製品
  6
CONTINUOUS
 62
    4
 10
1375.4921509823675
 20
932.61350133911083
 11
1377.1112420163035
 21
899.0172241021728
  0
LINE
  8
_0-3_躯体と製品
  6
CONTINUOUS
 62
    4
 10
1372.5024296841498
 20
932.32794263854976
 11
1374.2592980465779
 21
895.87281682983394
  0
LINE
  8
_0-3_躯体と製品
  6
CONTINUOUS
 62
    4
 10
1361.1141243214288
 20
940.37281492248485
 11
1367.2085740170355
 21
940.37281492248485
  0
LINE
  8
_0-3_躯体と製品
  6
CONTINUOUS
 62
    4
 10
1347.2592999539256
 20
895.87281682983394
 11
1368.9568783841019
 21
895.87281682983394
  0
LINE
  8
_0-3_躯体と製品
  6
CONTINUOUS
 62
    4
 10
1372.6092984280467
 20
891.37281396881099
 11
1372.6092984280467
 21
872.37281539932201
  0
LINE
  8
_0-3_躯体と製品
  6
CONTINUOUS
 62
    4
 10
1374.2592980465779
 20
895.87281682983394
 11
1374.2592980465779
 21
892.3728177835078
  0
LINE
  8
_0-3_躯体と製品
  6
CONTINUOUS
 62
    4
 10
1347.2592999539256
 20
933.87281873718166
 11
1367.3183228573675
 21
933.87281873718166
  0
LINE
  8
_0-3_躯体と製品
  6
CONTINUOUS
 62
    4
 10
1347.2592999539256
 20
937.37281301513576
 11
1367.2085740170355
 21
937.37281301513576
  0
LINE
  8
_0-3_躯体と製品
  6
CONTINUOUS
 62
    4
 10
1369.3160035214305
 20
931.96909406677196
 11
1370.9545590481639
 21
897.96908834472606
  0
LINE
  8
_0-3_躯体と製品
  6
CONTINUOUS
 62
    4
 10
1325.2025963864207
 20
931.96909406677196
 11
1323.5640313229446
 21
897.96908834472606
  0
LINE
  8
_0-3_躯体と製品
  6
CONTINUOUS
 62
    4
 10
2225.9093011173168
 20
872.37281539932292
 11
2225.9093011174887
 21
404.872813015068
  0
LINE
  8
_0-3_躯体と製品
  6
CONTINUOUS
 62
    4
 10
2268.6093011173252
 20
872.37281539932292
 11
2268.6093011174999
 21
404.872813015068
  0
LINE
  8
_0-3_躯体と製品
  6
CONTINUOUS
 62
    4
 10
2322.2593011174658
 20
401.872813015068
 11
2322.2593011174658
 21
397.372813015068
  0
LINE
  8
_0-3_躯体と製品
  6
CONTINUOUS
 62
    4
 10
2225.9093011174887
 20
404.872813015068
 11
2268.6093011174999
 21
404.872813015068
  0
ARC
  8
_0-3_躯体と製品
  6
CONTINUOUS
 62
    4
 10
2225.9093011174882
 20
401.87281301506772
 40
2.9999999999988916
 50
89.999999999995111
 51
179.99999999999511
  0
ARC
  8
_0-3_躯体と製品
  6
CONTINUOUS
 62
    4
 10
2268.6093011174416
 20
401.87281301506772
 40
2.9999999999988916
 50
0.00000000000489
 51
90.000000000004903
  0
LINE
  8
_0-3_躯体と製品
  6
CONTINUOUS
 62
    4
 10
2172.2593011174658
 20
401.872813015068
 11
2172.2593011174658
 21
397.77281301506264
  0
LINE
  8
_0-3_躯体と製品
  6
CONTINUOUS
 62
    4
 10
2172.2593011174658
 20
401.872813015068
 11
2172.2593011174658
 21
397.372813015068
  0
LINE
  8
_0-3_躯体と製品
  6
CONTINUOUS
 62
    4
 10
2322.2593011174658
 20
401.872813015068
 11
2172.2593011174658
 21
401.872813015068
  0
LINE
  8
_0-3_躯体と製品
  6
CONTINUOUS
 62
    4
 10
2172.2593011174658
 20
397.372813015068
 11
2322.2593011174658
 21
397.372813015068
  0
ARC
  8
_0-3_躯体と製品
  6
CONTINUOUS
 62
    3
 10
2283.7843011174591
 20
1148.8728057044918
 40
1.624999999999839
 50
112.61986300848542
 51
247.38013699151458
  0
ARC
  8
_0-3_躯体と製品
  6
CONTINUOUS
 62
    3
 10
2283.7843011174591
 20
1139.8728057044909
 40
1.624999999999839
 50
112.61986300848542
 51
247.38013699151458
  0
ARC
  8
_0-3_躯体と製品
  6
CONTINUOUS
 62
    3
 10
2287.1593011174596
 20
1144.3728057044914
 40
5.0000000000001537
 50
143.13010099879031
 51
216.86989900120969
  0
ARC
  8
_0-3_躯体と製品
  6
CONTINUOUS
 62
    4
 10
2228.7593011174649
 20
1065.1728057045239
 40
1.4999999999999998
 50
180
 51
270
  0
ARC
  8
_0-3_躯体と製品
  6
CONTINUOUS
 62
    4
 10
2265.7593011174654
 20
1065.1728057045234
 40
1.4999999999994884
 50
270.00000000001955
 51
0.000000000019554
  0
LINE
  8
_0-3_躯体と製品
  6
CONTINUOUS
 62
    4
 10
2266.2593011174649
 20
1138.3728057044909
 11
2272.2593011174649
 21
1138.3728057044909
  0
LINE
  8
_0-3_躯体と製品
  6
CONTINUOUS
 62
    4
 10
2222.2593011174649
 20
1138.3728057044909
 11
2228.2593011174658
 21
1138.3728057044909
  0
LINE
  8
_0-3_躯体と製品
  6
CONTINUOUS
 62
    3
 10
2280.9593011174484
 20
1138.3728057044909
 11
2282.1593011174591
 21
1138.3728057044909
  0
ARC
  8
_0-3_躯体と製品
  6
CONTINUOUS
 62
    4
 10
2220.1593011174591
 20
1071.772805704529
 40
6.5999999999992536
 50
180.00000599684478
 51
269.99999699845409
  0
LINE
  8
_0-3_躯体と製品
  6
CONTINUOUS
 62
    4
 10
2220.15930111746
 20
1065.1728057045239
 11
2247.2593011174649
 21
1065.1728057045239
  0
LINE
  8
_0-3_躯体と製品
  6
CONTINUOUS
 62
    4
 10
2274.3593011174416
 20
1065.1728057045239
 11
2247.2593011174649
 21
1065.1728057045239
  0
ARC
  8
_0-3_躯体と製品
  6
CONTINUOUS
 62
    4
 10
2274.3593011174416
 20
1071.7728057045285
 40
6.5999999999988077
 50
269.99999699845381
 51
0.0000000000018065
  0
LINE
  8
_0-3_躯体と製品
  6
CONTINUOUS
 62
    4
 10
2280.9593011174484
 20
1153.3728057044918
 11
2280.9593011174484
 21
1071.7728057045288
  0
LINE
  8
_0-3_躯体と製品
  6
CONTINUOUS
 62
    4
 10
2213.5593011174533
 20
1153.3728057044918
 11
2213.5593011174533
 21
1071.7728057045288
  0
LINE
  8
_0-3_躯体と製品
  6
CONTINUOUS
 62
    4
 10
2213.5593011174533
 20
1153.3728057044918
 11
2216.7593011174649
 21
1153.3728057045209
  0
ARC
  8
_0-3_躯体と製品
  6
CONTINUOUS
 62
    3
 10
2211.0593011174537
 20
1147.8728057044921
 40
2.4999999999997815
 50
90.000003001563499
 51
180.00000599685825
  0
LINE
  8
_0-3_躯体と製品
  6
CONTINUOUS
 62
    3
 10
2208.5593011174542
 20
1147.8728057044918
 11
2208.5593011174542
 21
1140.8728057044918
  0
ARC
  8
_0-3_躯体と製品
  6
CONTINUOUS
 62
    3
 10
2211.0593011174542
 20
1140.8728057044912
 40
2.5000000000002505
 50
180.00000599681647
 51
269.99999699842579
  0
LINE
  8
_0-3_躯体と製品
  6
CONTINUOUS
 62
    3
 10
2213.5593011174533
 20
1138.3728057044909
 11
2211.0593011174533
 21
1138.3728057044909
  0
LINE
  8
_0-3_躯体と製品
  6
CONTINUOUS
 62
    3
 10
2213.5593011174533
 20
1150.3728057044918
 11
2211.0593011174533
 21
1150.3728057044918
  0
LINE
  8
_0-3_躯体と製品
  6
CONTINUOUS
 62
    4
 10
2277.7593011174649
 20
1153.3728057045209
 11
2277.7593011174649
 21
1076.8728057044918
  0
LINE
  8
_0-3_躯体と製品
  6
CONTINUOUS
 62
    4
 10
2266.2593011174649
 20
1135.3728057044918
 11
2272.2593011174649
 21
1135.3728057044918
  0
LINE
  8
_0-3_躯体と製品
  6
CONTINUOUS
 62
    3
 10
2216.7593011174649
 20
1141.3728057044918
 11
2277.7593011174649
 21
1141.3728057044918
  0
LINE
  8
_0-3_躯体と製品
  6
CONTINUOUS
 62
    3
 10
2216.7593011174649
 20
1147.3728057044918
 11
2277.7593011174649
 21
1147.3728057044918
  0
LINE
  8
_0-3_躯体と製品
  6
CONTINUOUS
 62
    4
 10
2222.2593011174649
 20
1135.3728057044918
 11
2228.2593011174658
 21
1135.3728057044918
  0
LINE
  8
_0-3_躯体と製品
  6
CONTINUOUS
 62
    3
 10
2296.5593011174537
 20
1142.3728057045209
 11
2295.5593011174542
 21
1141.37280570452
  0
LINE
  8
_0-3_躯体と製品
  6
CONTINUOUS
 62
    3
 10
2296.5593011174537
 20
1146.3728057045209
 11
2295.5593011174542
 21
1147.3728057045209
  0
LINE
  8
_0-3_躯体と製品
  6
CONTINUOUS
 62
    3
 10
2295.5593011174542
 20
1147.3728057045209
 11
2295.5593011174542
 21
1141.37280570452
  0
LINE
  8
_0-3_躯体と製品
  6
CONTINUOUS
 62
    3
 10
2296.5593011174537
 20
1146.3728057045209
 11
2296.5593011174537
 21
1142.3728057045209
  0
LINE
  8
_0-3_躯体と製品
  6
CONTINUOUS
 62
    4
 10
2280.9593011174484
 20
1153.3728057044918
 11
2277.7593011174649
 21
1153.3728057045209
  0
ARC
  8
_0-3_躯体と製品
  6
CONTINUOUS
 62
    3
 10
2285.5343011174591
 20
1148.8728057044918
 40
1.6249999999998397
 50
292.61986300848548
 51
67.380136991514519
  0
LINE
  8
_0-3_躯体と製品
  6
CONTINUOUS
 62
    3
 10
2282.1593011174591
 20
1150.3728057044918
 11
2282.1593011174591
 21
1138.3728057044909
  0
LINE
  8
_0-3_躯体と製品
  6
CONTINUOUS
 62
    3
 10
2280.9593011174484
 20
1150.3728057044918
 11
2282.1593011174591
 21
1150.3728057044918
  0
LINE
  8
_0-3_躯体と製品
  6
CONTINUOUS
 62
    3
 10
2283.1593011174582
 20
1141.3728057044918
 11
2286.15930111746
 21
1141.3728057044918
  0
LINE
  8
_0-3_躯体と製品
  6
CONTINUOUS
 62
    3
 10
2286.15930111746
 20
1138.3728057044909
 11
2283.1593011174582
 21
1138.3728057044909
  0
ARC
  8
_0-3_躯体と製品
  6
CONTINUOUS
 62
    3
 10
2282.1593011174587
 20
1144.3728057044914
 40
5.0000000000001563
 50
323.13010099879034
 51
36.869899001209667
  0
LINE
  8
_0-3_躯体と製品
  6
CONTINUOUS
 62
    3
 10
2287.1593011174596
 20
1139.8728057044918
 11
2287.1593011174596
 21
1148.8728057044918
  0
ARC
  8
_0-3_躯体と製品
  6
CONTINUOUS
 62
    3
 10
2285.5343011174591
 20
1139.8728057044909
 40
1.6249999999998397
 50
292.61986300848548
 51
67.380136991514519
  0
LINE
  8
_0-3_躯体と製品
  6
CONTINUOUS
 62
    3
 10
2283.1593011174582
 20
1147.3728057044918
 11
2286.15930111746
 21
1147.3728057044918
  0
LINE
  8
_0-3_躯体と製品
  6
CONTINUOUS
 62
    3
 10
2286.15930111746
 20
1150.3728057044918
 11
2283.1593011174582
 21
1150.3728057044918
  0
LINE
  8
_0-3_躯体と製品
  6
CONTINUOUS
 62
    3
 10
2287.1593011174596
 20
1146.3728057044918
 11
2296.5593011174537
 21
1146.3728057045209
  0
LINE
  8
_0-3_躯体と製品
  6
CONTINUOUS
 62
    3
 10
2287.1593011174596
 20
1142.3728057044918
 11
2296.5593011174537
 21
1142.3728057045209
  0
LINE
  8
_0-3_躯体と製品
  6
CONTINUOUS
 62
    3
 10
2287.1593011174596
 20
1147.3728057044918
 11
2295.5593011174542
 21
1147.3728057045209
  0
LINE
  8
_0-3_躯体と製品
  6
CONTINUOUS
 62
    3
 10
2287.1593011174596
 20
1141.3728057044918
 11
2295.5593011174542
 21
1141.37280570452
  0
LINE
  8
_0-5_中心線
  6
CENTER1
 62
    7
 10
2247.2593011174649
 20
379.14003299866272
 11
2247.2593011174649
 21
1156.101805704498
  0
LINE
  8
_0-3_躯体と製品
  6
CONTINUOUS
 62
    4
 10
2239.2593011174658
 20
1033.6728057045239
 11
2239.2593011174658
 21
967.37281298643984
  0
LINE
  8
_0-3_躯体と製品
  6
CONTINUOUS
 62
    3
 10
2240.7593011174658
 20
1033.6728057045239
 11
2240.7593011174658
 21
967.37281298643984
  0
LINE
  8
_0-3_躯体と製品
  6
CONTINUOUS
 62
    3
 10
2253.7593011174649
 20
1033.6728057045239
 11
2253.7593011174158
 21
967.37281298643984
  0
LINE
  8
_0-3_躯体と製品
  6
CONTINUOUS
 62
    4
 10
2255.2593011174649
 20
1033.6728057045239
 11
2255.2593011174649
 21
967.37281298643984
  0
LINE
  8
_0-3_躯体と製品
  6
CONTINUOUS
 62
    4
 10
425.90930111731677
 20
872.37285418389183
 11
425.90930111748781
 21
404.872813015068
  0
LINE
  8
_0-3_躯体と製品
  6
CONTINUOUS
 62
    4
 10
468.60930111732483
 20
872.37285418389183
 11
468.60930111749963
 21
404.872813015068
  0
LINE
  8
_0-3_躯体と製品
  6
CONTINUOUS
 62
    4
 10
522.2593011174647
 20
401.872813015068
 11
522.2593011174647
 21
397.372813015068
  0
LINE
  8
_0-3_躯体と製品
  6
CONTINUOUS
 62
    4
 10
425.90930111748781
 20
404.872813015068
 11
468.60930111749963
 21
404.872813015068
  0
ARC
  8
_0-3_躯体と製品
  6
CONTINUOUS
 62
    4
 10
425.90930111748747
 20
401.87281301506772
 40
2.9999999999988916
 50
89.999999999995111
 51
179.99999999999511
  0
ARC
  8
_0-3_躯体と製品
  6
CONTINUOUS
 62
    4
 10
468.60930111744182
 20
401.87281301506772
 40
2.9999999999988916
 50
0.00000000000489
 51
90.000000000004903
  0
LINE
  8
_0-3_躯体と製品
  6
CONTINUOUS
 62
    4
 10
372.25930111746464
 20
401.872813015068
 11
372.25930111746464
 21
397.77281301506264
  0
LINE
  8
_0-3_躯体と製品
  6
CONTINUOUS
 62
    4
 10
372.25930111746464
 20
401.872813015068
 11
372.25930111746464
 21
397.372813015068
  0
LINE
  8
_0-3_躯体と製品
  6
CONTINUOUS
 62
    4
 10
522.2593011174647
 20
401.872813015068
 11
372.25930111746464
 21
401.872813015068
  0
LINE
  8
_0-3_躯体と製品
  6
CONTINUOUS
 62
    4
 10
372.25930111746464
 20
397.372813015068
 11
522.2593011174647
 21
397.372813015068
  0
ARC
  8
_0-3_躯体と製品
  6
CONTINUOUS
 62
    3
 10
483.78430111745922
 20
1148.8728057044918
 40
1.624999999999839
 50
112.61986300848542
 51
247.38013699151458
  0
ARC
  8
_0-3_躯体と製品
  6
CONTINUOUS
 62
    3
 10
483.78430111745922
 20
1139.8728057044909
 40
1.624999999999839
 50
112.61986300848542
 51
247.38013699151458
  0
ARC
  8
_0-3_躯体と製品
  6
CONTINUOUS
 62
    3
 10
487.15930111745888
 20
1144.3728057044914
 40
5.0000000000001537
 50
143.13010099879031
 51
216.86989900120969
  0
ARC
  8
_0-3_躯体と製品
  6
CONTINUOUS
 62
    4
 10
428.75930111746476
 20
1065.1728057045239
 40
1.4999999999999998
 50
180
 51
270
  0
ARC
  8
_0-3_躯体と製品
  6
CONTINUOUS
 62
    4
 10
465.7593011174647
 20
1065.1728057045239
 40
1.4999999999999998
 50
270
 51
0.0000000000000127
  0
LINE
  8
_0-3_躯体と製品
  6
CONTINUOUS
 62
    4
 10
466.25930111746476
 20
1138.3728057044909
 11
472.25930111746476
 21
1138.3728057044909
  0
LINE
  8
_0-3_躯体と製品
  6
CONTINUOUS
 62
    4
 10
422.2593011174647
 20
1138.3728057044909
 11
428.2593011174647
 21
1138.3728057044909
  0
LINE
  8
_0-3_躯体と製品
  6
CONTINUOUS
 62
    3
 10
480.95930111744764
 20
1138.3728057044909
 11
482.15930111745865
 21
1138.3728057044909
  0
ARC
  8
_0-3_躯体と製品
  6
CONTINUOUS
 62
    4
 10
420.1593011174586
 20
1071.7728057045294
 40
6.5999999999997661
 50
180.00000599684921
 51
269.99999699845853
  0
LINE
  8
_0-3_躯体と製品
  6
CONTINUOUS
 62
    4
 10
420.1593011174586
 20
1065.1728057045239
 11
447.25930111746464
 21
1065.1728057045239
  0
LINE
  8
_0-3_躯体と製品
  6
CONTINUOUS
 62
    4
 10
474.3593011174417
 20
1065.1728057045239
 11
447.25930111746464
 21
1065.1728057045239
  0
ARC
  8
_0-3_躯体と製品
  6
CONTINUOUS
 62
    4
 10
474.35930111744204
 20
1071.7728057045297
 40
6.5999999999998309
 50
269.99999699844494
 51
359.99999999999295
  0
LINE
  8
_0-3_躯体と製品
  6
CONTINUOUS
 62
    4
 10
480.95930111744764
 20
1153.3728057044918
 11
480.95930111744764
 21
1071.7728057045288
  0
LINE
  8
_0-3_躯体と製品
  6
CONTINUOUS
 62
    4
 10
413.55930111745369
 20
1153.3728057044918
 11
413.55930111745369
 21
1071.7728057045288
  0
LINE
  8
_0-3_躯体と製品
  6
CONTINUOUS
 62
    4
 10
413.55930111745369
 20
1153.3728057044918
 11
416.75930111746476
 21
1153.3728057045209
  0
ARC
  8
_0-3_躯体と製品
  6
CONTINUOUS
 62
    3
 10
411.05930111745306
 20
1147.8728057044914
 40
2.5000000000003784
 50
90.0000030015498
 51
180.00000599684455
  0
LINE
  8
_0-3_躯体と製品
  6
CONTINUOUS
 62
    3
 10
408.55930111745278
 20
1147.8728057044918
 11
408.55930111745278
 21
1140.8728057044918
  0
ARC
  8
_0-3_躯体と製品
  6
CONTINUOUS
 62
    3
 10
411.05930111745357
 20
1140.8728057044918
 40
2.5000000000008469
 50
180.00000599683014
 51
269.99999699843943
  0
LINE
  8
_0-3_躯体と製品
  6
CONTINUOUS
 62
    3
 10
413.55930111745369
 20
1138.3728057044909
 11
411.05930111745289
 21
1138.3728057044909
  0
LINE
  8
_0-3_躯体と製品
  6
CONTINUOUS
 62
    3
 10
413.55930111745369
 20
1150.3728057044918
 11
411.05930111745289
 21
1150.3728057044918
  0
LINE
  8
_0-3_躯体と製品
  6
CONTINUOUS
 62
    4
 10
477.7593011174647
 20
1153.3728057045209
 11
477.7593011174647
 21
1076.8728057044918
  0
LINE
  8
_0-3_躯体と製品
  6
CONTINUOUS
 62
    4
 10
466.25930111746476
 20
1135.3728057044918
 11
472.25930111746476
 21
1135.3728057044918
  0
LINE
  8
_0-3_躯体と製品
  6
CONTINUOUS
 62
    3
 10
416.75930111746476
 20
1141.3728057044918
 11
477.7593011174647
 21
1141.3728057044918
  0
LINE
  8
_0-3_躯体と製品
  6
CONTINUOUS
 62
    3
 10
416.75930111746476
 20
1147.3728057044918
 11
477.7593011174647
 21
1147.3728057044918
  0
LINE
  8
_0-3_躯体と製品
  6
CONTINUOUS
 62
    4
 10
422.2593011174647
 20
1135.3728057044918
 11
428.2593011174647
 21
1135.3728057044918
  0
LINE
  8
_0-3_躯体と製品
  6
CONTINUOUS
 62
    3
 10
496.55930111745283
 20
1142.3728057045209
 11
495.55930111745283
 21
1141.37280570452
  0
LINE
  8
_0-3_躯体と製品
  6
CONTINUOUS
 62
    3
 10
496.55930111745283
 20
1146.3728057045209
 11
495.55930111745283
 21
1147.3728057045209
  0
LINE
  8
_0-3_躯体と製品
  6
CONTINUOUS
 62
    3
 10
495.55930111745283
 20
1147.3728057045209
 11
495.55930111745283
 21
1141.37280570452
  0
LINE
  8
_0-3_躯体と製品
  6
CONTINUOUS
 62
    3
 10
496.55930111745283
 20
1146.3728057045209
 11
496.55930111745283
 21
1142.3728057045209
  0
LINE
  8
_0-3_躯体と製品
  6
CONTINUOUS
 62
    4
 10
480.95930111744764
 20
1153.3728057044918
 11
477.7593011174647
 21
1153.3728057045209
  0
ARC
  8
_0-3_躯体と製品
  6
CONTINUOUS
 62
    3
 10
485.53430111745934
 20
1148.8728057044918
 40
1.6249999999998397
 50
292.61986300848548
 51
67.380136991514519
  0
LINE
  8
_0-3_躯体と製品
  6
CONTINUOUS
 62
    3
 10
482.15930111745865
 20
1150.3728057044918
 11
482.15930111745865
 21
1138.3728057044909
  0
LINE
  8
_0-3_躯体と製品
  6
CONTINUOUS
 62
    3
 10
480.95930111744764
 20
1150.3728057044918
 11
482.15930111745865
 21
1150.3728057044918
  0
LINE
  8
_0-3_躯体と製品
  6
CONTINUOUS
 62
    3
 10
483.1593011174586
 20
1141.3728057044918
 11
486.1593011174586
 21
1141.3728057044918
  0
LINE
  8
_0-3_躯体と製品
  6
CONTINUOUS
 62
    3
 10
486.1593011174586
 20
1138.3728057044909
 11
483.1593011174586
 21
1138.3728057044909
  0
ARC
  8
_0-3_躯体と製品
  6
CONTINUOUS
 62
    3
 10
482.15930111745951
 20
1144.3728057044914
 40
5.0000000000001563
 50
323.13010099879034
 51
36.869899001209667
  0
LINE
  8
_0-3_躯体と製品
  6
CONTINUOUS
 62
    3
 10
487.15930111745871
 20
1139.8728057044918
 11
487.15930111745871
 21
1148.8728057044918
  0
ARC
  8
_0-3_躯体と製品
  6
CONTINUOUS
 62
    3
 10
485.53430111745934
 20
1139.8728057044909
 40
1.6249999999998397
 50
292.61986300848548
 51
67.380136991514519
  0
LINE
  8
_0-3_躯体と製品
  6
CONTINUOUS
 62
    3
 10
483.1593011174586
 20
1147.3728057044918
 11
486.1593011174586
 21
1147.3728057044918
  0
LINE
  8
_0-3_躯体と製品
  6
CONTINUOUS
 62
    3
 10
486.1593011174586
 20
1150.3728057044918
 11
483.1593011174586
 21
1150.3728057044918
  0
LINE
  8
_0-3_躯体と製品
  6
CONTINUOUS
 62
    3
 10
487.15930111745871
 20
1146.3728057044918
 11
496.55930111745283
 21
1146.3728057045209
  0
LINE
  8
_0-3_躯体と製品
  6
CONTINUOUS
 62
    3
 10
487.15930111745871
 20
1142.3728057044918
 11
496.55930111745283
 21
1142.3728057045209
  0
LINE
  8
_0-3_躯体と製品
  6
CONTINUOUS
 62
    3
 10
487.15930111745871
 20
1147.3728057044918
 11
495.55930111745283
 21
1147.3728057045209
  0
LINE
  8
_0-3_躯体と製品
  6
CONTINUOUS
 62
    3
 10
487.15930111745871
 20
1141.3728057044918
 11
495.55930111745283
 21
1141.37280570452
  0
LINE
  8
_0-5_中心線
  6
CENTER1
 62
    7
 10
447.25930111746464
 20
379.14003299866272
 11
447.25930111746464
 21
1156.101805704498
  0
LINE
  8
_0-3_躯体と製品
  6
CONTINUOUS
 62
    4
 10
439.25930111746476
 20
1033.6728057045239
 11
439.25930111751387
 21
967.37285177100966
  0
LINE
  8
_0-3_躯体と製品
  6
CONTINUOUS
 62
    3
 10
440.75930111746476
 20
1033.6728057045239
 11
440.75930111746476
 21
967.37285177100966
  0
LINE
  8
_0-3_躯体と製品
  6
CONTINUOUS
 62
    3
 10
453.7593011174647
 20
1033.6728057045239
 11
453.75930111741576
 21
967.37285177100966
  0
LINE
  8
_0-3_躯体と製品
  6
CONTINUOUS
 62
    4
 10
455.2593011174647
 20
1033.6728057045239
 11
455.2593011174647
 21
967.37285177100966
  0
LINE
  8
_0-3_躯体と製品
  6
CONTINUOUS
 62
    4
 10
1325.9093011173177
 20
872.37281539932292
 11
1325.9093011174887
 21
404.872813015068
  0
LINE
  8
_0-3_躯体と製品
  6
CONTINUOUS
 62
    4
 10
1368.6093011172998
 20
872.37281539932201
 11
1368.6093011174999
 21
404.872813015068
  0
LINE
  8
_0-3_躯体と製品
  6
CONTINUOUS
 62
    4
 10
1422.2593011174658
 20
401.872813015068
 11
1422.2593011174658
 21
397.372813015068
  0
LINE
  8
_0-3_躯体と製品
  6
CONTINUOUS
 62
    4
 10
1325.9093011174887
 20
404.872813015068
 11
1368.6093011174999
 21
404.872813015068
  0
ARC
  8
_0-3_躯体と製品
  6
CONTINUOUS
 62
    4
 10
1325.909301117488
 20
401.87281301506732
 40
2.9999999999993179
 50
89.999999999986969
 51
179.99999999998698
  0
ARC
  8
_0-3_躯体と製品
  6
CONTINUOUS
 62
    4
 10
1368.6093011174419
 20
401.87281301506772
 40
2.9999999999988596
 50
0.0000000000042783
 51
90.000000000004292
  0
LINE
  8
_0-3_躯体と製品
  6
CONTINUOUS
 62
    4
 10
1272.2593011174649
 20
401.872813015068
 11
1272.2593011174649
 21
397.77281301506264
  0
LINE
  8
_0-3_躯体と製品
  6
CONTINUOUS
 62
    4
 10
1272.2593011174649
 20
401.872813015068
 11
1272.2593011174649
 21
397.372813015068
  0
LINE
  8
_0-3_躯体と製品
  6
CONTINUOUS
 62
    4
 10
1422.2593011174658
 20
401.872813015068
 11
1272.2593011174649
 21
401.872813015068
  0
LINE
  8
_0-3_躯体と製品
  6
CONTINUOUS
 62
    4
 10
1272.2593011174649
 20
397.372813015068
 11
1422.2593011174658
 21
397.372813015068
  0
ARC
  8
_0-3_躯体と製品
  6
CONTINUOUS
 62
    3
 10
1383.7843011174591
 20
1148.8728057044918
 40
1.624999999999839
 50
112.61986300848542
 51
247.38013699151458
  0
ARC
  8
_0-3_躯体と製品
  6
CONTINUOUS
 62
    3
 10
1383.7843011174591
 20
1139.8728057044909
 40
1.624999999999839
 50
112.61986300848542
 51
247.38013699151458
  0
ARC
  8
_0-3_躯体と製品
  6
CONTINUOUS
 62
    3
 10
1387.1593011174589
 20
1144.3728057044914
 40
5.0000000000001537
 50
143.13010099879031
 51
216.86989900120969
  0
LINE
  8
_0-3_躯体と製品
  6
CONTINUOUS
 62
    4
 10
1366.2593011174649
 20
1138.3728057044909
 11
1372.2593011174649
 21
1138.3728057044909
  0
LINE
  8
_0-3_躯体と製品
  6
CONTINUOUS
 62
    4
 10
1322.2593011174658
 20
1138.3728057044909
 11
1328.2593011174649
 21
1138.3728057044909
  0
LINE
  8
_0-3_躯体と製品
  6
CONTINUOUS
 62
    4
 10
413.55930111745369
 20
1138.37280570452
 11
297.25930111746464
 21
1138.37280570452
  0
LINE
  8
_0-3_躯体と製品
  6
CONTINUOUS
 62
    4
 10
1313.5593011174537
 20
1138.3728057044909
 11
480.95930111744764
 21
1138.3728057044909
  0
LINE
  8
_0-3_躯体と製品
  6
CONTINUOUS
 62
    4
 10
2213.5593011174533
 20
1138.3728057044909
 11
1380.9593011174479
 21
1138.3728057044909
  0
LINE
  8
_0-3_躯体と製品
  6
CONTINUOUS
 62
    4
 10
2497.2593011174649
 20
1138.3728057044909
 11
2280.9593011174766
 21
1138.3728057044909
  0
LINE
  8
_0-3_躯体と製品
  6
CONTINUOUS
 62
    3
 10
1380.9593011174479
 20
1138.3728057044909
 11
1382.1593011174587
 21
1138.3728057044909
  0
ARC
  8
_0-3_躯体と製品
  6
CONTINUOUS
 62
    4
 10
1320.1593011174584
 20
1071.7728057045294
 40
6.5999999999997048
 50
180.0000059968487
 51
269.99999699845802
  0
LINE
  8
_0-3_躯体と製品
  6
CONTINUOUS
 62
    4
 10
1320.1593011174587
 20
1065.1728057045239
 11
1347.2593011174649
 21
1065.1728057045239
  0
LINE
  8
_0-3_躯体と製品
  6
CONTINUOUS
 62
    4
 10
1374.3593011174416
 20
1065.1728057045239
 11
1347.2593011174649
 21
1065.1728057045239
  0
ARC
  8
_0-3_躯体と製品
  6
CONTINUOUS
 62
    4
 10
1374.3593011174419
 20
1071.7728057045294
 40
6.5999999999996923
 50
269.99999699844614
 51
359.99999999999415
  0
LINE
  8
_0-3_躯体と製品
  6
CONTINUOUS
 62
    4
 10
1380.9593011174479
 20
1153.3728057044918
 11
1380.9593011174479
 21
1071.7728057045288
  0
LINE
  8
_0-3_躯体と製品
  6
CONTINUOUS
 62
    4
 10
1313.5593011174537
 20
1153.3728057044918
 11
1313.5593011174537
 21
1071.7728057045288
  0
LINE
  8
_0-3_躯体と製品
  6
CONTINUOUS
 62
    4
 10
297.25930111746464
 20
1179.3728057044918
 11
2497.2593011174649
 21
1179.3728057044918
  0
LINE
  8
_0-3_躯体と製品
  6
CONTINUOUS
 62
    4
 10
297.25930111746464
 20
1197.3728057068929
 11
2497.2593011174649
 21
1197.3728057026237
  0
LINE
  8
_0-3_躯体と製品
  6
CONTINUOUS
 62
    4
 10
297.25930111746464
 20
1164.3728057044918
 11
2497.2593011174649
 21
1164.3728057044918
  0
LINE
  8
_0-3_躯体と製品
  6
CONTINUOUS
 62
    3
 10
297.25930111746464
 20
1169.3728057045651
 11
2497.2593011174649
 21
1169.3728057044577
  0
LINE
  8
_0-3_躯体と製品
  6
CONTINUOUS
 62
    3
 10
297.25930111746464
 20
1174.3728057045637
 11
2497.2593011174649
 21
1174.3728057044577
  0
LINE
  8
_0-3_躯体と製品
  6
CONTINUOUS
 62
    4
 10
2213.5593011174533
 20
1135.3728057044918
 11
1380.9593011174479
 21
1135.3728057044918
  0
LINE
  8
_0-3_躯体と製品
  6
CONTINUOUS
 62
    4
 10
2497.2593011174649
 20
1135.3728057044668
 11
2280.9593011174766
 21
1135.3728057045209
  0
LINE
  8
_0-3_躯体と製品
  6
CONTINUOUS
 62
    4
 10
413.55930111745369
 20
1135.3728057044918
 11
297.25930111746464
 21
1135.3728057044918
  0
LINE
  8
_0-3_躯体と製品
  6
CONTINUOUS
 62
    4
 10
1313.5593011174537
 20
1135.3728057044918
 11
480.95930111744764
 21
1135.3728057044918
  0
LINE
  8
_0-3_躯体と製品
  6
CONTINUOUS
 62
    4
 10
1313.5593011174537
 20
1153.3728057044918
 11
1316.7593011174658
 21
1153.3728057045209
  0
ARC
  8
_0-3_躯体と製品
  6
CONTINUOUS
 62
    3
 10
1311.0593011174535
 20
1147.8728057044921
 40
2.4999999999997842
 50
90.000003001563442
 51
180.00000599685819
  0
LINE
  8
_0-3_躯体と製品
  6
CONTINUOUS
 62
    3
 10
1308.5593011174537
 20
1147.8728057044918
 11
1308.5593011174537
 21
1140.8728057044918
  0
ARC
  8
_0-3_躯体と製品
  6
CONTINUOUS
 62
    3
 10
1311.059301117454
 20
1140.8728057044912
 40
2.5000000000002531
 50
180.00000599681653
 51
269.99999699842579
  0
LINE
  8
_0-3_躯体と製品
  6
CONTINUOUS
 62
    3
 10
1313.5593011174537
 20
1138.3728057044909
 11
1311.0593011174528
 21
1138.3728057044909
  0
LINE
  8
_0-3_躯体と製品
  6
CONTINUOUS
 62
    3
 10
1313.5593011174537
 20
1150.3728057044918
 11
1311.0593011174528
 21
1150.3728057044918
  0
LINE
  8
_0-3_躯体と製品
  6
CONTINUOUS
 62
    4
 10
1377.7593011174649
 20
1153.3728057045209
 11
1377.7593011174649
 21
1076.8728057044918
  0
LINE
  8
_0-3_躯体と製品
  6
CONTINUOUS
 62
    4
 10
1366.2593011174649
 20
1135.3728057044918
 11
1372.2593011174649
 21
1135.3728057044918
  0
LINE
  8
_0-3_躯体と製品
  6
CONTINUOUS
 62
    3
 10
1316.7593011174658
 20
1141.3728057044918
 11
1377.7593011174649
 21
1141.3728057044918
  0
LINE
  8
_0-3_躯体と製品
  6
CONTINUOUS
 62
    3
 10
1316.7593011174658
 20
1147.3728057044918
 11
1377.7593011174649
 21
1147.3728057044918
  0
LINE
  8
_0-3_躯体と製品
  6
CONTINUOUS
 62
    4
 10
1322.2593011174658
 20
1135.3728057044918
 11
1328.2593011174649
 21
1135.3728057044918
  0
LINE
  8
_0-3_躯体と製品
  6
CONTINUOUS
 62
    3
 10
1396.5593011174537
 20
1142.3728057045209
 11
1395.5593011174537
 21
1141.37280570452
  0
LINE
  8
_0-3_躯体と製品
  6
CONTINUOUS
 62
    3
 10
1396.5593011174537
 20
1146.3728057045209
 11
1395.5593011174537
 21
1147.3728057045209
  0
LINE
  8
_0-3_躯体と製品
  6
CONTINUOUS
 62
    3
 10
1395.5593011174537
 20
1147.3728057045209
 11
1395.5593011174537
 21
1141.37280570452
  0
LINE
  8
_0-3_躯体と製品
  6
CONTINUOUS
 62
    3
 10
1396.5593011174537
 20
1146.3728057045209
 11
1396.5593011174537
 21
1142.3728057045209
  0
LINE
  8
_0-3_躯体と製品
  6
CONTINUOUS
 62
    4
 10
1380.9593011174479
 20
1153.3728057044918
 11
1377.7593011174649
 21
1153.3728057045209
  0
ARC
  8
_0-3_躯体と製品
  6
CONTINUOUS
 62
    3
 10
1385.5343011174591
 20
1148.8728057044918
 40
1.6249999999998397
 50
292.61986300848548
 51
67.380136991514519
  0
LINE
  8
_0-3_躯体と製品
  6
CONTINUOUS
 62
    3
 10
1382.1593011174587
 20
1150.3728057044918
 11
1382.1593011174587
 21
1138.3728057044909
  0
LINE
  8
_0-3_躯体と製品
  6
CONTINUOUS
 62
    3
 10
1380.9593011174479
 20
1150.3728057044918
 11
1382.1593011174587
 21
1150.3728057044918
  0
LINE
  8
_0-3_躯体と製品
  6
CONTINUOUS
 62
    3
 10
1383.1593011174596
 20
1141.3728057044918
 11
1386.1593011174587
 21
1141.3728057044918
  0
LINE
  8
_0-3_躯体と製品
  6
CONTINUOUS
 62
    3
 10
1386.1593011174587
 20
1138.3728057044909
 11
1383.1593011174596
 21
1138.3728057044909
  0
ARC
  8
_0-3_躯体と製品
  6
CONTINUOUS
 62
    3
 10
1382.1593011174582
 20
1144.3728057044914
 40
5.0000000000001563
 50
323.13010099879034
 51
36.869899001209667
  0
LINE
  8
_0-3_躯体と製品
  6
CONTINUOUS
 62
    3
 10
1387.1593011174596
 20
1139.8728057044918
 11
1387.1593011174596
 21
1148.8728057044918
  0
ARC
  8
_0-3_躯体と製品
  6
CONTINUOUS
 62
    3
 10
1385.5343011174591
 20
1139.8728057044909
 40
1.6249999999998397
 50
292.61986300848548
 51
67.380136991514519
  0
LINE
  8
_0-3_躯体と製品
  6
CONTINUOUS
 62
    3
 10
1383.1593011174596
 20
1147.3728057044918
 11
1386.1593011174587
 21
1147.3728057044918
  0
LINE
  8
_0-3_躯体と製品
  6
CONTINUOUS
 62
    3
 10
1386.1593011174587
 20
1150.3728057044918
 11
1383.1593011174596
 21
1150.3728057044918
  0
LINE
  8
_0-3_躯体と製品
  6
CONTINUOUS
 62
    3
 10
1387.1593011174596
 20
1146.3728057044918
 11
1396.5593011174537
 21
1146.3728057045209
  0
LINE
  8
_0-3_躯体と製品
  6
CONTINUOUS
 62
    3
 10
1387.1593011174596
 20
1142.3728057044918
 11
1396.5593011174537
 21
1142.3728057045209
  0
LINE
  8
_0-3_躯体と製品
  6
CONTINUOUS
 62
    3
 10
1387.1593011174596
 20
1147.3728057044918
 11
1395.5593011174537
 21
1147.3728057045209
  0
LINE
  8
_0-3_躯体と製品
  6
CONTINUOUS
 62
    3
 10
1387.1593011174596
 20
1141.3728057044918
 11
1395.5593011174537
 21
1141.37280570452
  0
LINE
  8
_0-3_躯体と製品
  6
CONTINUOUS
 62
    4
 10
297.25930111746464
 20
397.37285826381185
 11
2497.2593011174649
 21
397.37276345691998
  0
LINE
  8
_0-3_躯体と製品
  6
CONTINUOUS
 62
    4
 10
1289.8661119768108
 20
397.37280570449184
 11
1231.5687564658188
 21
339.08089127998164
  0
LINE
  8
_0-3_躯体と製品
  6
CONTINUOUS
 62
    4
 10
1272.4954907188257
 20
397.37280570449184
 11
1214.1981352078328
 21
339.08089127998164
  0
LINE
  8
_0-3_躯体と製品
  6
CONTINUOUS
 62
    4
 10
1255.1264290277218
 20
397.37280570449184
 11
1196.8345146032407
 21
339.08089127998164
  0
LINE
  8
_0-3_躯体と製品
  6
CONTINUOUS
 62
    4
 10
759.43098737461764
 20
450.40209479747773
 11
818.62730874630483
 21
509.59740651768783
  0
LINE
  8
_0-3_躯体と製品
  6
HASEN
 62
    4
 10
751.65279106015669
 20
458.18024076175971
 11
750.03749456550963
 21
456.56497090234006
  0
LINE
  8
_0-3_躯体と製品
  6
HASEN
 62
    4
 10
750.03749456550963
 20
456.56497090234006
 11
734.22994892372776
 21
472.37281301506891
  0
LINE
  8
_0-3_躯体と製品
  6
CONTINUOUS
 62
    4
 10
713.51930216741971
 20
472.37281301506891
 11
784.68645784446574
 21
543.53881588561489
  0
LINE
  8
_0-3_躯体と製品
  6
CONTINUOUS
 62
    4
 10
737.98496537886672
 20
468.61772613449284
 11
731.65291265123778
 21
474.94989761994293
  0
LINE
  8
_0-5_中心線
  6
CENTER1
 62
    7
 10
2022.061708575272
 20
397.37278393510587
 11
1354.2429169621259
 21
1065.1728057045239
  0
LINE
  8
_0-3_躯体と製品
  6
HASEN
 62
    4
 10
1417.2583207790335
 20
1059.1728057045229
 11
1392.8874533648045
 21
1059.1728057045229
  0
LINE
  8
_0-3_躯体と製品
  6
HASEN
 62
    4
 10
1355.2583207790335
 20
1033.6728057045239
 11
1355.2583207790335
 21
1005.1728057045239
  0
LINE
  8
_0-3_躯体と製品
  6
HASEN
 62
    4
 10
1339.2583207790335
 20
1033.6728057045239
 11
1339.2583207790549
 21
1005.1728057045239
  0
LINE
  8
_0-3_躯体と製品
  6
HASEN
 62
    4
 10
1340.3301175487759
 20
1052.1728057045239
 11
1340.3301175487759
 21
1059.1728057045229
  0
LINE
  8
_0-3_躯体と製品
  6
HASEN
 62
    4
 10
1354.1865240093207
 20
1035.1728057045239
 11
1354.1865240093207
 21
1046.6728057045239
  0
LINE
  8
_0-3_躯体と製品
  6
HASEN
 62
    4
 10
1354.1865240093207
 20
1052.1728057045239
 11
1354.1865240093207
 21
1059.1728057045229
  0
LINE
  8
_0-3_躯体と製品
  6
HASEN
 62
    4
 10
1340.3301175487759
 20
1035.1728057045239
 11
1340.3301175487759
 21
1046.6728057045239
  0
ARC
  8
_0-3_躯体と製品
  6
HASEN
 62
    4
 10
1336.8660159336323
 20
1055.4228057045298
 40
4.7500000000083027
 50
223.17355110726277
 51
316.82644889273723
  0
ARC
  8
_0-3_躯体と製品
  6
HASEN
 62
    4
 10
1347.2583207790483
 20
1067.4228053840834
 40
16.749999708254343
 50
245.56730186717647
 51
294.43269813282353
  0
ARC
  8
_0-3_躯体と製品
  6
HASEN
 62
    4
 10
1357.6506256244647
 20
1055.4228057045307
 40
4.7500000000093152
 50
223.17355110726777
 51
316.82644889273217
  0
LINE
  8
_0-3_躯体と製品
  6
HASEN
 62
    4
 10
1361.1147272396088
 20
1052.1728057045239
 11
1361.1147272396088
 21
1059.1728057045229
  0
LINE
  8
_0-3_躯体と製品
  6
HASEN
 62
    4
 10
1335.7189923007718
 20
1046.6728057045239
 11
1358.8015706110195
 21
1046.6728057045239
  0
LINE
  8
_0-3_躯体と製品
  6
HASEN
 62
    4
 10
1336.8660159336478
 20
1033.6728057045239
 11
1357.6506256244506
 21
1033.6728057045239
  0
LINE
  8
_0-3_躯体と製品
  6
HASEN
 62
    4
 10
1347.2583207934117
 20
1046.6728057045239
 11
1351.2583207934117
 21
1050.6728057045239
  0
ARC
  8
_0-3_躯体と製品
  6
HASEN
 62
    4
 10
1336.8660159336323
 20
1038.4228057045307
 40
4.7500000000089795
 50
269.72351924776524
 51
316.82644889273001
  0
ARC
  8
_0-3_躯体と製品
  6
HASEN
 62
    4
 10
1347.2583207790483
 20
1050.4228057045184
 40
16.749999999993886
 50
245.56730232054764
 51
294.43269767945236
  0
ARC
  8
_0-3_躯体と製品
  6
HASEN
 62
    4
 10
1357.6506256244645
 20
1038.4228057045298
 40
4.7500000000085176
 50
223.17355110726169
 51
270.32373446859918
  0
LINE
  8
_0-3_躯体と製品
  6
HASEN
 62
    4
 10
1343.2583207460007
 20
1046.6728056758129
 11
1347.2583207460007
 21
1050.6728056758129
  0
LINE
  8
_0-3_躯体と製品
  6
HASEN
 62
    4
 10
1358.8015706110195
 20
1046.6728057045239
 11
1335.7189923007718
 21
1046.6728057045239
  0
LINE
  8
_0-3_躯体と製品
  6
HASEN
 62
    4
 10
1360.7557558259468
 20
1050.6728057045239
 11
1333.7648070858459
 21
1050.6728057045239
  0
LINE
  8
_0-3_躯体と製品
  6
HASEN
 62
    4
 10
1333.4019143184887
 20
1059.1728057045229
 11
1333.4019143184887
 21
1052.1728057045239
  0
LINE
  8
_0-3_躯体と製品
  6
HASEN
 62
    4
 10
1369.6122569293907
 20
1059.1728057045229
 11
1324.9083059824015
 21
1059.1728057045229
  0
LINE
  8
_0-3_躯体と製品
  6
HASEN
 62
    4
 10
1301.6331095469868
 20
1059.1728057045229
 11
1277.2583207790349
 21
1059.1728057045229
  0
LINE
  8
_0-5_中心線
  6
CENTER1
 62
    7
 10
672.45493291672983
 20
397.37278393510587
 11
1340.2737245298767
 21
1065.1728057045239
  0
LINE
  8
_0-3_躯体と製品
  6
HASEN
 62
    4
 10
1981.0012607443718
 20
472.37281301506891
 11
1960.2906139880638
 21
472.37281301506891
  0
LINE
  8
_0-3_躯体と製品
  6
HASEN
 62
    4
 10
1935.0895755371748
 20
450.40209479747682
 11
1942.8677718516378
 21
458.18024076175607
  0
CIRCLE
  8
_0-3_躯体と製品
  6
CONTINUOUS
 62
    4
 10
1972.0602741453517
 20
447.37281301506891
 40
8
  0
CIRCLE
  8
_0-3_躯体と製品
  6
CONTINUOUS
 62
    4
 10
1972.0602741453517
 20
447.37281301506891
 40
6.5
  0
LINE
  8
_0-5_中心線
  6
CENTER1
 62
    7
 10
707.45636734665072
 20
447.37281301506891
 11
737.45636734665072
 21
447.37281301506891
  0
LINE
  8
_0-5_中心線
  6
CENTER1
 62
    7
 10
722.45636734665163
 20
462.37281301506891
 11
722.45636734665072
 21
432.37281301506891
  0
LINE
  8
_0-5_中心線
  6
CENTER1
 62
    7
 10
1957.0602741453517
 20
447.37281301506891
 11
1987.0602741453508
 21
447.37281301506891
  0
LINE
  8
_0-5_中心線
  6
CENTER1
 62
    7
 10
1972.0602741453517
 20
462.37281301506891
 11
1972.0602741453508
 21
432.37281301506891
  0
LINE
  8
_0-5_中心線
  6
CENTER1
 62
    7
 10
1372.2602814558959
 20
1032.1728057045239
 11
1402.2602814558968
 21
1032.1728057045239
  0
LINE
  8
_0-5_中心線
  6
CENTER1
 62
    7
 10
1387.2602814558968
 20
1047.1728057045229
 11
1387.2602814558959
 21
1017.1728057045239
  0
LINE
  8
_0-5_中心線
  6
CENTER1
 62
    7
 10
1292.2747577423729
 20
1032.1728057045239
 11
1322.2747577423729
 21
1032.1728057045239
  0
LINE
  8
_0-5_中心線
  6
CENTER1
 62
    7
 10
1307.2747577423729
 20
1047.1728057045239
 11
1307.2747577423729
 21
1017.1728057045239
  0
LINE
  8
_0-3_躯体と製品
  6
HASEN
 62
    4
 10
1314.2012693118859
 20
1005.1728057045239
 11
1297.4905054470887
 21
1005.1728057045239
  0
LINE
  8
_0-3_躯体と製品
  6
HASEN
 62
    4
 10
1277.2583207790335
 20
1036.1121698525781
 11
1277.2583207790335
 21
1020.5559453620299
  0
LINE
  8
_0-3_躯体と製品
  6
CONTINUOUS
 62
    4
 10
1297.4905054470887
 20
1005.1728057045239
 11
1277.2583207790335
 21
1005.1728057045239
  0
LINE
  8
_0-3_躯体と製品
  6
CONTINUOUS
 62
    4
 10
1277.2583207790335
 20
1020.5559453620299
 11
1277.2583207790335
 21
1005.1728057045239
  0
LINE
  8
_0-3_躯体と製品
  6
HASEN
 62
    4
 10
1380.3173329230449
 20
1005.1728057045239
 11
1397.0280967878407
 21
1005.1728057045239
  0
LINE
  8
_0-3_躯体と製品
  6
HASEN
 62
    4
 10
1417.2602814558959
 20
1036.1121698525781
 11
1417.2602814558959
 21
1020.5559453620299
  0
LINE
  8
_0-3_躯体と製品
  6
CONTINUOUS
 62
    4
 10
1397.0280967878407
 20
1005.1728057045239
 11
1417.2602814558959
 21
1005.1728057045239
  0
LINE
  8
_0-3_躯体と製品
  6
CONTINUOUS
 62
    4
 10
1417.2602814558959
 20
1020.5559453620299
 11
1417.2602814558959
 21
1005.1728057045239
  0
LINE
  8
_0-0_0
  6
CONTINUOUS
 62
    7
 10
762.46028876643982
 20
422.37281301506891
 11
795.88098498148668
 21
455.79350923011589
  0
LINE
  8
_0-0_0
  6
CONTINUOUS
 62
    7
 10
795.88098498148668
 20
455.79350923011589
 11
1097.1805382918537
 21
455.79350923011589
  0
TEXT
  8
_0-4_文字-記号
 62
    7
 10
815.61800999468585
 20
462.32179792130364
 40
30
 41
0.9837445587017261
 50
0
  1
ガゼットアングル
  0
LINE
  8
_0-3_躯体と製品
  6
HASEN
 62
    4
 10
1472.1137462488859
 20
958.63435212687091
 11
1489.4380035435929
 21
941.31040639475577
  0
LINE
  8
_0-3_躯体と製品
  6
HASEN
 62
    4
 10
1460.8001252432909
 20
947.32054841891977
 11
1478.1243825379979
 21
929.99660268680464
  0
LINE
  8
_0-3_躯体と製品
  6
HASEN
 62
    4
 10
1881.1962317638458
 20
549.54895811453798
 11
1898.5204890585537
 21
532.22501238242376
  0
LINE
  8
_0-3_躯体と製品
  6
HASEN
 62
    4
 10
1869.8826107582508
 20
538.23515440658684
 11
1887.2068680529578
 21
520.91120867447307
  0
LINE
  8
_0-3_躯体と製品
  6
HASEN
 62
    4
 10
1222.4048559860448
 20
958.63435212687091
 11
1205.0805986913369
 21
941.31040639475577
  0
LINE
  8
_0-3_躯体と製品
  6
HASEN
 62
    4
 10
1233.7184769916398
 20
947.32054841891977
 11
1216.3942196969319
 21
929.99660268680464
  0
LINE
  8
_0-3_躯体と製品
  6
HASEN
 62
    4
 10
813.3223704710839
 20
549.54895811453798
 11
795.99811317637682
 21
532.22501238242376
  0
LINE
  8
_0-3_躯体と製品
  6
HASEN
 62
    4
 10
824.63599147667867
 20
538.23515440658684
 11
807.31173418197193
 21
520.91120867447307
  0
LINE
  8
_0-3_躯体と製品
  6
CONTINUOUS
 62
    4
 10
555.12642902772063
 20
397.37280570449184
 11
496.83451460324068
 21
339.08089127998164
  0
LINE
  8
_0-3_躯体と製品
  6
CONTINUOUS
 62
    4
 10
572.49549071882575
 20
397.37280570449184
 11
514.19813520783282
 21
339.08089127998164
  0
LINE
  8
_0-3_躯体と製品
  6
CONTINUOUS
 62
    4
 10
589.86611197681077
 20
397.37280570449184
 11
531.56875646581761
 21
339.08089127998164
  0
LINE
  8
_0-3_躯体と製品
  6
CONTINUOUS
 62
    4
 10
1955.1264290277218
 20
397.37280570449184
 11
1896.8345146032407
 21
339.08089127998164
  0
LINE
  8
_0-3_躯体と製品
  6
CONTINUOUS
 62
    4
 10
1972.4954907188257
 20
397.37280570449184
 11
1914.1981352078328
 21
339.08089127998164
  0
LINE
  8
_0-3_躯体と製品
  6
CONTINUOUS
 62
    4
 10
1989.8661119768117
 20
397.37280570449184
 11
1931.5687564658178
 21
339.08089127998164
  0
POINT
  8
_0-0_0
 62
    4
 10
2012.0602741453517
 20
405.37278781363102
  0
POINT
  8
_0-0_0
 62
    4
 10
2012.0602741453517
 20
411.20613131948994
  0
POINT
  8
_0-0_0
 62
    4
 10
2012.0602741453517
 20
411.20613131948994
  0
POINT
  8
_0-0_0
 62
    4
 10
2012.0602741453517
 20
411.20613131948994
  0
POINT
  8
_0-0_0
 62
    4
 10
2012.0602741453517
 20
411.20613131948994
  0
POINT
  8
_0-0_0
 62
    4
 10
2012.0602741453517
 20
403.37278781363102
  0
POINT
  8
_0-0_0
 62
    4
 10
2012.0602741453517
 20
403.37278781363102
  0
POINT
  8
_0-0_0
 62
    4
 10
1952.0602741453517
 20
411.20613131948994
  0
POINT
  8
_0-0_0
 62
    4
 10
1952.0602741453517
 20
403.37278781363102
  0
POINT
  8
_0-0_0
 62
    4
 10
1952.0602741453517
 20
411.20613131948994
  0
POINT
  8
_0-0_0
 62
    4
 10
1952.0602741453517
 20
411.20613131948994
  0
POINT
  8
_0-0_0
 62
    4
 10
1952.0602741453517
 20
411.20613131948994
  0
POINT
  8
_0-0_0
 62
    4
 10
1952.0602741453517
 20
405.37278781363102
  0
LINE
  8
_0-0_0
  6
CONTINUOUS
 62
    4
 10
2017.0602741453517
 20
411.20613131948994
 11
2017.0602741453517
 21
419.20613131948994
  0
LINE
  8
_0-0_0
  6
CONTINUOUS
 62
    4
 10
2004.5602741453517
 20
411.20611606070088
 11
2002.9189167234767
 21
410.25846896597477
  0
LINE
  8
_0-0_0
  6
CONTINUOUS
 62
    4
 10
2019.5602741453517
 20
411.20613131948994
 11
2004.5602741453517
 21
411.20613131948994
  0
LINE
  8
_0-0_0
  6
CONTINUOUS
 62
    4
 10
2024.2016620848049
 20
405.37278781363102
 11
1999.9189167234767
 21
405.37278781363102
  0
LINE
  8
_0-0_0
  6
CONTINUOUS
 62
    4
 10
2002.9189167234767
 20
410.25846896597477
 11
2002.9189167234767
 21
405.37278781363102
  0
LINE
  8
_0-0_0
  6
CONTINUOUS
 62
    4
 10
2007.4895954344138
 20
410.25846896597477
 11
2007.4895954344138
 21
405.37278781363102
  0
LINE
  8
_0-0_0
  6
CONTINUOUS
 62
    4
 10
2021.2016620848049
 20
410.25846896597477
 11
2021.2016620848049
 21
405.37278781363102
  0
LINE
  8
_0-0_0
  6
CONTINUOUS
 62
    4
 10
2019.5602741453517
 20
411.20611606070088
 11
2021.2016620848049
 21
410.25846896597477
  0
LINE
  8
_0-0_0
  6
CONTINUOUS
 62
    4
 10
2016.6309833738678
 20
410.25846896597477
 11
2016.6309833738678
 21
405.37278781363102
  0
LINE
  8
_0-0_0
  6
CONTINUOUS
 62
    4
 10
2007.0602741453517
 20
411.20613131948994
 11
2007.0602741453517
 21
419.20613131948994
  0
LINE
  8
_0-0_0
  6
CONTINUOUS
 62
    4
 10
2017.0602741453517
 20
419.20613131948994
 11
2007.0602741453517
 21
419.20613131948994
  0
LINE
  8
_0-0_0
  6
CONTINUOUS
 62
    4
 10
2024.2016620848049
 20
405.37278781363102
 11
2024.2016620848049
 21
403.37278781363102
  0
LINE
  8
_0-0_0
  6
CONTINUOUS
 62
    4
 10
1999.9189167234767
 20
405.37278781363102
 11
1999.9189167234767
 21
403.37278781363102
  0
LINE
  8
_0-5_中心線
  6
CENTER1
 62
    7
 10
2012.0602741453517
 20
422.72123752066182
 11
2012.0602741453517
 21
382.37278781363102
  0
LINE
  8
_0-0_0
  6
CONTINUOUS
 62
    4
 10
1939.9189167234767
 20
405.37278781363102
 11
1939.9189167234767
 21
403.37278781363102
  0
LINE
  8
_0-0_0
  6
CONTINUOUS
 62
    4
 10
1964.2016620848049
 20
405.37278781363102
 11
1964.2016620848049
 21
403.37278781363102
  0
LINE
  8
_0-0_0
  6
CONTINUOUS
 62
    4
 10
1957.0602741453517
 20
419.20613131948994
 11
1947.0602741453517
 21
419.20613131948994
  0
LINE
  8
_0-0_0
  6
CONTINUOUS
 62
    4
 10
1947.0602741453517
 20
411.20613131948994
 11
1947.0602741453517
 21
419.20613131948994
  0
LINE
  8
_0-0_0
  6
CONTINUOUS
 62
    4
 10
1956.6309833738678
 20
410.25846896597477
 11
1956.6309833738678
 21
405.37278781363102
  0
LINE
  8
_0-5_中心線
  6
CENTER1
 62
    7
 10
1952.0602741453517
 20
422.72123752066182
 11
1952.0602741453517
 21
382.37278781363102
  0
LINE
  8
_0-0_0
  6
CONTINUOUS
 62
    4
 10
1959.5602741453517
 20
411.20611606070088
 11
1961.2016620848049
 21
410.25846896597477
  0
LINE
  8
_0-0_0
  6
CONTINUOUS
 62
    4
 10
1961.2016620848049
 20
410.25846896597477
 11
1961.2016620848049
 21
405.37278781363102
  0
LINE
  8
_0-0_0
  6
CONTINUOUS
 62
    4
 10
1947.4895954344147
 20
410.25846896597477
 11
1947.4895954344147
 21
405.37278781363102
  0
LINE
  8
_0-0_0
  6
CONTINUOUS
 62
    4
 10
1942.9189167234767
 20
410.25846896597477
 11
1942.9189167234767
 21
405.37278781363102
  0
LINE
  8
_0-0_0
  6
CONTINUOUS
 62
    4
 10
1964.2016620848049
 20
405.37278781363102
 11
1939.9189167234767
 21
405.37278781363102
  0
LINE
  8
_0-0_0
  6
CONTINUOUS
 62
    4
 10
1957.0602741453517
 20
411.20613131948994
 11
1957.0602741453517
 21
419.20613131948994
  0
LINE
  8
_0-0_0
  6
CONTINUOUS
 62
    4
 10
1944.5602741453517
 20
411.20611606070088
 11
1942.9189167234767
 21
410.25846896597477
  0
LINE
  8
_0-0_0
  6
CONTINUOUS
 62
    4
 10
1959.5602741453517
 20
411.20613131948994
 11
1944.5602741453517
 21
411.20613131948994
  0
ARC
  8
_0-0_0
  6
CONTINUOUS
 62
    4
 10
2018.7778339598049
 20
408.31063876577991
 40
2.8987941741943368
 50
92.739079116385625
 51
137.78240084343491
  0
ARC
  8
_0-0_0
  6
CONTINUOUS
 62
    4
 10
2005.3427448484767
 20
408.31063876577991
 40
2.898794651031495
 50
42.217464146643117
 51
87.260755137843262
  0
ARC
  8
_0-0_0
  6
CONTINUOUS
 62
    4
 10
2012.0602741453517
 20
399.7096713585529
 40
11.49645519256593
 50
66.573423538203315
 51
113.42655415000161
  0
ARC
  8
_0-0_0
  6
CONTINUOUS
 62
    4
 10
1952.0602741453517
 20
399.7096713585529
 40
11.49645519256593
 50
66.573423538203315
 51
113.42655415000161
  0
ARC
  8
_0-0_0
  6
CONTINUOUS
 62
    4
 10
1945.3427448484767
 20
408.31063876577991
 40
2.898794651031495
 50
42.217464146643117
 51
87.260755137843262
  0
ARC
  8
_0-0_0
  6
CONTINUOUS
 62
    4
 10
1958.7778339598049
 20
408.31063876577991
 40
2.8987941741943368
 50
92.739079116385625
 51
137.78240084343491
  0
POINT
  8
_0-0_0
 62
    4
 10
742.46028876643982
 20
405.372813015068
  0
POINT
  8
_0-0_0
 62
    4
 10
742.46028876643982
 20
411.20615652092783
  0
POINT
  8
_0-0_0
 62
    4
 10
742.46028876643982
 20
411.20615652092783
  0
POINT
  8
_0-0_0
 62
    4
 10
742.46028876643982
 20
411.20615652092783
  0
POINT
  8
_0-0_0
 62
    4
 10
742.46028876643982
 20
411.20615652092783
  0
POINT
  8
_0-0_0
 62
    4
 10
682.46028876643982
 20
411.20615652092783
  0
POINT
  8
_0-0_0
 62
    4
 10
682.46028876643982
 20
411.20615652092783
  0
POINT
  8
_0-0_0
 62
    4
 10
682.46028876643982
 20
411.20615652092783
  0
POINT
  8
_0-0_0
 62
    4
 10
682.46028876643982
 20
411.20615652092783
  0
POINT
  8
_0-0_0
 62
    4
 10
682.46028876643982
 20
405.372813015068
  0
LINE
  8
_0-0_0
  6
HASEN
 62
    4
 10
747.46028876643982
 20
411.20615652092783
 11
747.46028876643982
 21
419.20615652092783
  0
LINE
  8
_0-0_0
  6
HASEN
 62
    4
 10
734.96028876643982
 20
411.20614126213877
 11
733.31893134456482
 21
410.25849416741175
  0
LINE
  8
_0-0_0
  6
HASEN
 62
    4
 10
749.96028876643982
 20
411.20615652092783
 11
734.96028876643982
 21
411.20615652092783
  0
LINE
  8
_0-0_0
  6
HASEN
 62
    4
 10
754.60167670589271
 20
405.372813015068
 11
730.31893134456482
 21
405.372813015068
  0
LINE
  8
_0-0_0
  6
HASEN
 62
    4
 10
733.31893134456482
 20
410.25849416741175
 11
733.31893134456482
 21
405.372813015068
  0
LINE
  8
_0-0_0
  6
HASEN
 62
    4
 10
737.88961005550277
 20
410.25849416741175
 11
737.88961005550277
 21
405.372813015068
  0
LINE
  8
_0-0_0
  6
HASEN
 62
    4
 10
751.60167670589271
 20
410.25849416741175
 11
751.60167670589271
 21
405.372813015068
  0
LINE
  8
_0-0_0
  6
HASEN
 62
    4
 10
749.96028876643982
 20
411.20614126213877
 11
751.60167670589271
 21
410.25849416741175
  0
LINE
  8
_0-0_0
  6
HASEN
 62
    4
 10
747.03099799495567
 20
410.25849416741175
 11
747.03099799495567
 21
405.372813015068
  0
LINE
  8
_0-0_0
  6
HASEN
 62
    4
 10
737.46028876643982
 20
411.20615652092783
 11
737.46028876643982
 21
419.20615652092783
  0
LINE
  8
_0-0_0
  6
HASEN
 62
    4
 10
747.46028876643982
 20
419.20615652092783
 11
737.46028876643982
 21
419.20615652092783
  0
LINE
  8
_0-0_0
  6
HASEN
 62
    4
 10
754.60167670589271
 20
405.372813015068
 11
754.60167670589271
 21
403.372813015068
  0
LINE
  8
_0-0_0
  6
HASEN
 62
    4
 10
730.31893134456482
 20
405.372813015068
 11
730.31893134456482
 21
403.372813015068
  0
LINE
  8
_0-5_中心線
  6
CENTER1
 62
    7
 10
742.46028876643982
 20
422.7212627220988
 11
742.46028876643982
 21
382.372813015068
  0
LINE
  8
_0-0_0
  6
HASEN
 62
    4
 10
670.31893134456482
 20
405.372813015068
 11
670.31893134456482
 21
403.372813015068
  0
LINE
  8
_0-0_0
  6
HASEN
 62
    4
 10
694.60167670589271
 20
405.372813015068
 11
694.60167670589271
 21
403.372813015068
  0
LINE
  8
_0-0_0
  6
HASEN
 62
    4
 10
687.46028876643982
 20
419.20615652092783
 11
677.46028876643982
 21
419.20615652092783
  0
LINE
  8
_0-0_0
  6
HASEN
 62
    4
 10
677.46028876643982
 20
411.20615652092783
 11
677.46028876643982
 21
419.20615652092783
  0
LINE
  8
_0-0_0
  6
HASEN
 62
    4
 10
687.03099799495567
 20
410.25849416741175
 11
687.03099799495567
 21
405.372813015068
  0
LINE
  8
_0-5_中心線
  6
CENTER1
 62
    7
 10
682.46028876643982
 20
422.7212627220988
 11
682.46028876643982
 21
382.372813015068
  0
LINE
  8
_0-0_0
  6
HASEN
 62
    4
 10
689.96028876643982
 20
411.20614126213877
 11
691.60167670589271
 21
410.25849416741175
  0
LINE
  8
_0-0_0
  6
HASEN
 62
    4
 10
691.60167670589271
 20
410.25849416741175
 11
691.60167670589271
 21
405.372813015068
  0
LINE
  8
_0-0_0
  6
HASEN
 62
    4
 10
677.88961005550277
 20
410.25849416741175
 11
677.88961005550277
 21
405.372813015068
  0
LINE
  8
_0-0_0
  6
HASEN
 62
    4
 10
673.31893134456482
 20
410.25849416741175
 11
673.31893134456482
 21
405.372813015068
  0
LINE
  8
_0-0_0
  6
HASEN
 62
    4
 10
694.60167670589271
 20
405.372813015068
 11
670.31893134456482
 21
405.372813015068
  0
LINE
  8
_0-0_0
  6
HASEN
 62
    4
 10
687.46028876643982
 20
411.20615652092783
 11
687.46028876643982
 21
419.20615652092783
  0
LINE
  8
_0-0_0
  6
HASEN
 62
    4
 10
674.96028876643982
 20
411.20614126213877
 11
673.31893134456482
 21
410.25849416741175
  0
LINE
  8
_0-0_0
  6
HASEN
 62
    4
 10
689.96028876643982
 20
411.20615652092783
 11
674.96028876643982
 21
411.20615652092783
  0
ARC
  8
_0-0_0
  6
HASEN
 62
    4
 10
749.17784858089271
 20
408.3106639672169
 40
2.8987941741943368
 50
92.739079116385625
 51
137.78240084343599
  0
ARC
  8
_0-0_0
  6
HASEN
 62
    4
 10
735.74275946956482
 20
408.3106639672169
 40
2.898794651031495
 50
42.2174641466464
 51
87.260755137843262
  0
ARC
  8
_0-0_0
  6
HASEN
 62
    4
 10
742.46028876643982
 20
399.70969655998988
 40
11.49645519256593
 50
66.573423538201823
 51
113.42655414999858
  0
ARC
  8
_0-0_0
  6
HASEN
 62
    4
 10
682.46028876643982
 20
399.70969655998988
 40
11.49645519256593
 50
66.573423538201823
 51
113.42655414999858
  0
ARC
  8
_0-0_0
  6
HASEN
 62
    4
 10
675.74275946956482
 20
408.3106639672169
 40
2.898794651031495
 50
42.2174641466464
 51
87.260755137843262
  0
ARC
  8
_0-0_0
  6
HASEN
 62
    4
 10
689.17784858089271
 20
408.3106639672169
 40
2.8987941741943368
 50
92.739079116385625
 51
137.78240084343599
  0
LINE
  8
_0-4_文字-記号
  6
CONTINUOUS
 62
    7
 10
1380.9593011174479
 20
1109.922097184492
 11
1482.0515593996079
 21
1285.0190247810719
  0
LINE
  8
_0-4_文字-記号
  6
CONTINUOUS
 62
    7
 10
1482.0515593996079
 20
1285.0190247810719
 11
1789.2112701841165
 21
1285.0190247810719
  0
TEXT
  8
_0-4_文字-記号
 62
    7
 10
1507.5286548389277
 20
1294.1704311695148
 40
30
 41
1.007498246740355
 50
0
  1
Ｕ字金具ＭＢ-Ｇ
  0
LINE
  8
_0-2_寸法
  6
CONTINUOUS
 62
    4
 10
447.25930111746464
 20
375.30146307930215
 11
447.25930111746464
 21
276.17061190532502
  0
LINE
  8
_0-2_寸法
  6
CONTINUOUS
 62
    4
 10
1347.2593011174649
 20
375.30146307930215
 11
1347.2593011174649
 21
276.17061190532502
  0
LINE
  8
_0-2_寸法
  6
CONTINUOUS
 62
    4
 10
447.25930111746464
 20
276.17061190532502
 11
1347.2593011174649
 21
276.17061190532502
  0
INSERT
  2
-000-_Small
  8
_0-2_寸法
 10
447.25930111746464
 20
276.17061190532502
 41
10
 42
10
 50
180
  0
INSERT
  2
-000-_Small
  8
_0-2_寸法
 10
1347.2593011174649
 20
276.17061190532502
 41
10
 42
10
 50
0
  0
TEXT
  8
_0-2_寸法
 62
    7
 10
874.75930111746482
 20
291.17061190532502
 40
30
 41
1
 50
0
  1
900
  0
POINT
  8
_0-2_寸法
 62
    7
 10
447.25930111746464
 20
375.30146307930215
  0
POINT
  8
_0-2_寸法
 62
    7
 10
1347.2593011174649
 20
375.30146307930215
  0
POINT
  8
_0-2_寸法
 62
    7
 10
1347.2593011174649
 20
276.17061190532502
  0
LINE
  8
_0-2_寸法
  6
CONTINUOUS
 62
    4
 10
1347.2593011174649
 20
375.30146307930215
 11
1347.2593011174649
 21
276.17061190532502
  0
LINE
  8
_0-2_寸法
  6
CONTINUOUS
 62
    4
 10
2247.2593011174649
 20
375.30146307930215
 11
2247.2593011174649
 21
276.17061190532502
  0
LINE
  8
_0-2_寸法
  6
CONTINUOUS
 62
    4
 10
1347.2593011174649
 20
276.17061190532502
 11
2247.2593011174649
 21
276.17061190532502
  0
INSERT
  2
-000-_Small
  8
_0-2_寸法
 10
1347.2593011174649
 20
276.17061190532502
 41
10
 42
10
 50
180
  0
INSERT
  2
-000-_Small
  8
_0-2_寸法
 10
2247.2593011174649
 20
276.17061190532502
 41
10
 42
10
 50
0
  0
TEXT
  8
_0-2_寸法
 62
    7
 10
1774.7593011174658
 20
291.17061190532502
 40
30
 41
1
 50
0
  1
900
  0
POINT
  8
_0-2_寸法
 62
    7
 10
1347.2593011174649
 20
375.30146307930215
  0
POINT
  8
_0-2_寸法
 62
    7
 10
2247.2593011174649
 20
375.30146307930215
  0
POINT
  8
_0-2_寸法
 62
    7
 10
2247.2593011174649
 20
276.17061190532502
  0
LINE
  8
_0-2_寸法
  6
CONTINUOUS
 62
    4
 10
292.25930111746476
 20
1164.3728057044923
 11
147.69138527164563
 21
1164.3728057044923
  0
LINE
  8
_0-2_寸法
  6
CONTINUOUS
 62
    4
 10
292.25930111746476
 20
397.37285826381208
 11
147.69138527164563
 21
397.37285826381208
  0
LINE
  8
_0-2_寸法
  6
CONTINUOUS
 62
    4
 10
147.69138527164563
 20
1164.3728057044923
 11
147.69138527164563
 21
397.37285826381208
  0
INSERT
  2
-000-_Small
  8
_0-2_寸法
 10
147.69138527164563
 20
1164.3728057044923
 41
10
 42
10
 50
90
  0
INSERT
  2
-000-_Small
  8
_0-2_寸法
 10
147.69138527164563
 20
397.37285826381208
 41
10
 42
10
 50
270
  0
TEXT
  8
_0-2_寸法
 62
    7
 10
129.83424241450274
 20
690.87283198415321
 40
30
 41
1
 50
90
  1
h=500～1,500
  0
POINT
  8
_0-2_寸法
 62
    7
 10
292.25930111746476
 20
1164.3728057044923
  0
POINT
  8
_0-2_寸法
 62
    7
 10
292.25930111746476
 20
397.37285826381208
  0
POINT
  8
_0-2_寸法
 62
    7
 10
147.69138527164563
 20
397.37285826381208
  0
ARC
  8
_0-2_寸法
  6
CONTINUOUS
 62
    4
 10
1347.2445799324619
 20
1072.1720702646198
 40
384.37842442153487
 50
270.00057778350742
 51
315.00000000000011
  0
INSERT
  2
-000-_Small
  8
_0-2_寸法
 10
1347.2484560908119
 20
687.79364586263034
 41
10
 42
10
 50
180.00057778350734
  0
INSERT
  2
-000-_Small
  8
_0-2_寸法
 10
1619.0411703827299
 20
800.37547981435296
 41
10
 42
10
 50
45.000000000000085
  0
POINT
  8
_0-2_寸法
 62
    7
 10
1387.2438444925579
 20
1032.1728057045239
  0
POINT
  8
_0-2_寸法
 62
    7
 10
1347.2515686230836
 20
379.14004030923911
  0
POINT
  8
_0-2_寸法
 62
    7
 10
1347.2438444925579
 20
1145.1018130150612
  0
POINT
  8
_0-2_寸法
 62
    7
 10
2018.1966531984385
 20
401.21999699864398
  0
ARC
  8
_0-2_寸法
  6
CONTINUOUS
 62
    4
 10
1347.2740223024689
 20
1072.1720702646198
 40
384.37842442153448
 50
225
 51
269.99942221649258
  0
INSERT
  2
-000-_Small
  8
_0-2_寸法
 10
1075.4774318522009
 20
800.37547981435296
 41
10
 42
10
 50
135
  0
INSERT
  2
-000-_Small
  8
_0-2_寸法
 10
1347.2701461441188
 20
687.79364586263034
 41
10
 42
10
 50
359.99942221649269
  0
POINT
  8
_0-2_寸法
 62
    7
 10
1307.2747577423729
 20
1032.1728057045239
  0
POINT
  8
_0-2_寸法
 62
    7
 10
1347.2670336118467
 20
379.14004030923911
  0
POINT
  8
_0-2_寸法
 62
    7
 10
1347.2747577423729
 20
1145.1018130150612
  0
POINT
  8
_0-2_寸法
 62
    7
 10
676.32194903649179
 20
401.21999699864398
  0
LINE
  8
_0-2_寸法
  6
CONTINUOUS
 62
    4
 10
292.25930111746476
 20
1197.3728057068934
 11
70.616865699943617
 21
1197.3728057068934
  0
LINE
  8
_0-2_寸法
  6
CONTINUOUS
 62
    4
 10
292.25930964266075
 20
397.37285826381208
 11
70.616865699943617
 21
397.37285826381208
  0
LINE
  8
_0-2_寸法
  6
CONTINUOUS
 62
    4
 10
70.616865699943617
 20
1197.3728057068934
 11
70.616865699943617
 21
397.37285826381208
  0
INSERT
  2
-000-_Small
  8
_0-2_寸法
 10
70.616865699943617
 20
1197.3728057068934
 41
10
 42
10
 50
90
  0
INSERT
  2
-000-_Small
  8
_0-2_寸法
 10
70.616865699943617
 20
397.37285826381208
 41
10
 42
10
 50
270
  0
TEXT
  8
_0-2_寸法
 62
    7
 10
55.616865699942764
 20
789.87283198535306
 40
30
 41
1
 50
90
  1
H
  0
POINT
  8
_0-2_寸法
 62
    7
 10
292.25930111746476
 20
1197.3728057068934
  0
POINT
  8
_0-2_寸法
 62
    7
 10
292.25930964266075
 20
397.37285826381208
  0
POINT
  8
_0-2_寸法
 62
    7
 10
70.616865699943617
 20
397.37285826381208
  0
POINT
  8
_0-2_寸法
 62
    7
 10
1173.7118560471765
 20
729.00891413571867
  0
TEXT
  8
_0-2_寸法
 62
    7
 10
1109.7579038526499
 20
776.6810648496903
 40
30
 41
1
 50
-22.500288889999997
  1
(最良)45°前後
  0
POINT
  8
_0-2_寸法
 62
    7
 10
1469.8220583355885
 20
708.66889943818796
  0
TEXT
  8
_0-2_寸法
 62
    7
 10
1390.8906001149626
 20
697.15513123823848
 40
30
 41
1
 50
22.50028889
  1
(最良)45°前後
  0
ENDSEC
  0
EOF
