  0
SECTION
  2
HEADER
  9
$ACADVER
  1
AC1009
  9
$INSBASE
 10
0
 20
0
 30
0
  9
$EXTMIN
 10
0
 20
0
  9
$EXTMAX
 10
3360
 20
2376
  9
$LIMMIN
 10
0
 20
0
  9
$LIMMAX
 10
3360
 20
2376
  9
$LTSCALE
 40
8
  0
ENDSEC
  0
SECTION
  2
TABLES
  0
TABLE
  2
LTYPE
 70
     9
  0
LTYPE
  2
CONTINUOUS
 70
    64
  3
実線
 72
    65
 73
     0
 40
0.0
  0
LTYPE
  2
DASHED1
 70
    64
  3
--  --  --  --  --  --  --  --  
 72
    65
 73
     2
 40
2.5
 49
1.25
 49
-1.25
  0
LTYPE
  2
DASHED2
 70
    64
  3
----    ----    ----    ----    
 72
    65
 73
     2
 40
5.0
 49
2.5
 49
-2.5
  0
LTYPE
  2
DASHED3
 70
    64
  3
------  ------  ------  ------  
 72
    65
 73
     2
 40
5.0
 49
3.75
 49
-1.25
  0
LTYPE
  2
CENTER1
 70
    64
  3
----- - ----- - ----- - ----- - 
 72
    65
 73
     4
 40
10.0
 49
6.25
 49
-1.25
 49
1.25
 49
-1.25
  0
LTYPE
  2
CENTER2
 70
    64
  3
----------  --  ----------  --  
 72
    65
 73
     4
 40
20.0
 49
12.5
 49
-2.5
 49
2.5
 49
-2.5
  0
LTYPE
  2
PHANTOM1
 70
    64
  3
--- - - --- - - --- - - --- - - 
 72
    65
 73
     6
 40
10.0
 49
3.25
 49
-1.25
 49
1.25
 49
-1.25
 49
1.25
 49
-1.25
  0
LTYPE
  2
PHANTOM2
 70
    64
  3
--------  -  -  --------  -  -  
 72
    65
 73
     6
 40
20.0
 49
10.0
 49
-2.5
 49
1.25
 49
-2.5
 49
1.25
 49
-2.5
  0
LTYPE
  2
DOT
 70
    64
  3
-   -   -   -   -   -   -   -   
 72
    65
 73
     2
 40
2.5
 49
0.625
 49
-1.875
  0
LTYPE
  2
DUMMY
 70
    64
  3
ダミー
 72
    65
 73
     0
 40
0.0
  0
LTYPE
  2
RAND1
 70
    64
  3
ランダム線1
 72
    65
 73
     4
 40
10.0
 49
1.0
 49
-2.0
 49
3.0
 49
-4.0
  0
LTYPE
  2
RAND2
 70
    64
  3
ランダム線2
 72
    65
 73
     4
 40
14.0
 49
2.0
 49
-3.0
 49
4.0
 49
-5.0
  0
LTYPE
  2
RAND3
 70
    64
  3
ランダム線3
 72
    65
 73
     4
 40
18.0
 49
3.0
 49
-4.0
 49
5.0
 49
-6.0
  0
LTYPE
  2
RAND4
 70
    64
  3
ランダム線4
 72
    65
 73
     4
 40
22.0
 49
4.0
 49
-5.0
 49
6.0
 49
-7.0
  0
LTYPE
  2
RAND5
 70
    64
  3
ランダム線5
 72
    65
 73
     4
 40
26.0
 49
5.0
 49
-6.0
 49
7.0
 49
-8.0
  0
LTYPE
  2
LONG1
 70
    64
  3
----------  --  ----------  --  
 72
    65
 73
     4
 40
40.0
 49
32.5
 49
-2.5
 49
2.5
 49
-2.5
  0
LTYPE
  2
LONG2
 70
    64
  3
--------  -  -  --------  -  -  
 72
    65
 73
     6
 40
40.0
 49
30.0
 49
-2.5
 49
1.25
 49
-2.5
 49
1.25
 49
-2.5
  0
LTYPE
  2
LONG3
 70
    64
  3
+++++++++++++++..+++++++++++++++
 72
    65
 73
     2
 40
40.0
 49
37.5
 49
-2.5
  0
LTYPE
  2
LONG4
 70
    64
  3
+++++++++++++++..+++++++++++++++
 72
    65
 73
     2
 40
80.0
 49
75.0
 49
-5.0
  0
LTYPE
  2
LONG5
 70
    64
  3
----------  --  ----------  --  
 72
    65
 73
     4
 40
60.0
 49
37.5
 49
-7.5
 49
7.5
 49
-7.5
  0
LTYPE
  2
dashed
 70
   64
  3
-------   -------------   ------
 72
   65
 73
    2
 40
7.5
 49
6
 49
-1.5
  0
LTYPE
  2
dashed_spaced
 70
   64
  3
----        --------        ----
 72
   65
 73
    2
 40
12
 49
6
 49
-6
  0
LTYPE
  2
long_dashed_dotted
 70
   64
  3
------------- --- --------------
 72
   65
 73
    4
 40
15.25
 49
12
 49
-1.5
 49
0.25
 49
-1.5
  0
LTYPE
  2
long_dashed_double-dotted
 70
   64
  3
----------- --- --- ------------
 72
   65
 73
    6
 40
17
 49
12
 49
-1.5
 49
0.25
 49
-1.5
 49
0.25
 49
-1.5
  0
LTYPE
  2
long_dashed_triplicate-dotted
 70
   64
  3
--------- --- --- --- ----------
 72
   65
 73
    8
 40
18.75
 49
12
 49
-1.5
 49
0.25
 49
-1.5
 49
0.25
 49
-1.5
 49
0.25
 49
-1.5
  0
LTYPE
  2
dotted
 70
   64
  3
   -       -       -       -    
 72
   65
 73
    2
 40
1.75
 49
0.25
 49
-1.5
  0
LTYPE
  2
chain
 70
   64
  3
-------------- -- --------------
 72
   65
 73
    4
 40
18.5
 49
12
 49
-1.5
 49
3.5
 49
-1.5
  0
LTYPE
  2
chain_double_dash
 70
   64
  3
------------ -- -- -------------
 72
   65
 73
    6
 40
23.5
 49
12
 49
-1.5
 49
3.5
 49
-1.5
 49
3.5
 49
-1.5
  0
LTYPE
  2
dashed_dotted
 70
   64
  3
-----------     -     ----------
 72
   65
 73
    4
 40
9.25
 49
6
 49
-1.5
 49
0.25
 49
-1.5
  0
LTYPE
  2
double-dashed_dotted
 70
   64
  3
------   -----------   -   -----
 72
   65
 73
    6
 40
16.75
 49
6
 49
-1.5
 49
6
 49
-1.5
 49
0.25
 49
-1.5
  0
LTYPE
  2
dashed_double-dotted
 70
   64
  3
---------    -    -    ---------
 72
   65
 73
    6
 40
11
 49
6
 49
-1.5
 49
0.25
 49
-1.5
 49
0.25
 49
-1.5
  0
LTYPE
  2
double-dashed_double-dotted
 70
   64
  3
-----   ---------   -   -   ----
 72
   65
 73
    8
 40
18.5
 49
6
 49
-1.5
 49
6
 49
-1.5
 49
0.25
 49
-1.5
 49
0.25
 49
-1.5
  0
LTYPE
  2
dashed_triplicate-dotted
 70
   64
  3
-------    -    -    -    ------
 72
   65
 73
    8
 40
12.75
 49
6
 49
-1.5
 49
0.25
 49
-1.5
 49
0.25
 49
-1.5
 49
0.25
 49
-1.5
  0
LTYPE
  2
double-dashed_triplicate-dotted
 70
   64
  3
-----  ---------  -  -  -  -----
 72
   65
 73
   10
 40
20.25
 49
6
 49
-1.5
 49
6
 49
-1.5
 49
0.25
 49
-1.5
 49
0.25
 49
-1.5
 49
0.25
 49
-1.5
  0
LTYPE
  2
undefined
 70
   64
  3
--------------------------------
 72
   65
 73
    0
 40
0
  0
LTYPE
  2
PLINE2
 70
   64
  3
------     -----------     -----
 72
   65
 73
    0
 40
0
  0
ENDTAB
  0
TABLE
  2
STYLE
  5
3
100
AcDbSymbolTable
 70
     1
  0
STYLE
  5
10
100
AcDbSymbolTableRecord
100
AcDbTextStyleTableRecord
  2
STANDARD
 70
     0
 40
0.0
 41
1.0
 50
0.0
 71
     0
 42
0.2
  3
txt
  4
bigfont.shx
  0
STYLE
  5
26
100
AcDbSymbolTableRecord
100
AcDbTextStyleTableRecord
  2
TATEGAKI
 70
    68
 40
0.0
 41
1.0
 50
0.0
 71
     0
 42
1.0
  3
txt
  4
bigfont.shx
  0
ENDTAB
  0
TABLE
  2
LAYER
 70
    5
  0
LAYER
  2
_0-2_寸法
 70
   64
 62
    7
  6
CONTINUOUS
  0
LAYER
  2
_0-3_躯体と製品
 70
   64
 62
    7
  6
CONTINUOUS
  0
LAYER
  2
_0-4_文字-記号
 70
   64
 62
    7
  6
CONTINUOUS
  0
LAYER
  2
_0-5_中心線
 70
   64
 62
    7
  6
CONTINUOUS
  0
LAYER
  2
ADD_LINE
 70
   64
 62
    7
  6
CONTINUOUS
  0
ENDTAB
  0
ENDSEC
  0
SECTION
  2
BLOCKS
  0
BLOCK
  2
-000-_Small
 70
   64
 10
0
 20
0
 30
0
  0
CIRCLE
  8
_0-0_0
  6
CONTINUOUS
 62
    7
 10
0
 20
0
 40
0.25
  0
ENDBLK
  0
BLOCK
  2
-001-_D2
 70
   64
 10
0
 20
0
 30
0
  0
LINE
  8
_0-2_寸法
  6
CONTINUOUS
 62
    4
 10
-163.24095760369531
 20
876.13341322507927
 11
-163.24095760369531
 21
761.3473732250792
  0
LINE
  8
_0-2_寸法
  6
CONTINUOUS
 62
    4
 10
-13.24095760369528
 20
876.13341322507927
 11
-13.24095760369528
 21
761.3473732250792
  0
LINE
  8
_0-2_寸法
  6
CONTINUOUS
 62
    4
 10
-163.24095760369531
 20
761.3473732250792
 11
-13.24095760369528
 21
761.3473732250792
  0
INSERT
  2
-000-_Small
  8
_0-2_寸法
 10
-163.24095760369531
 20
761.3473732250792
 41
10
 42
10
 50
180
  0
INSERT
  2
-000-_Small
  8
_0-2_寸法
 10
-13.24095760369528
 20
761.3473732250792
 41
10
 42
10
 50
0
  0
TEXT
  8
_0-2_寸法
 62
    7
 10
-125.74095760369528
 20
776.3473732250792
 40
50
 41
1
 50
0
  1
150
  0
POINT
  8
_0-1_Defpoints
 62
    7
 10
-163.24095760369531
 20
876.13341322507927
  0
POINT
  8
_0-1_Defpoints
 62
    7
 10
-13.24095760369528
 20
876.13341322507927
  0
POINT
  8
_0-1_Defpoints
 62
    7
 10
-13.24095760369528
 20
761.3473732250792
  0
ENDBLK
  0
BLOCK
  2
-002-_D3
 70
   64
 10
0
 20
0
 30
0
  0
LINE
  8
_0-2_寸法
  6
CONTINUOUS
 62
    4
 10
-13.24095760369528
 20
876.13341322507927
 11
-13.24095760369528
 21
761.34737322507897
  0
LINE
  8
_0-2_寸法
  6
CONTINUOUS
 62
    4
 10
777.60583996444245
 20
876.13341322507927
 11
777.60583996444245
 21
761.34737322507897
  0
LINE
  8
_0-2_寸法
  6
CONTINUOUS
 62
    4
 10
-13.24095760369528
 20
761.34737322507897
 11
777.60583996444245
 21
761.34737322507897
  0
INSERT
  2
-000-_Small
  8
_0-2_寸法
 10
-13.24095760369528
 20
761.34737322507897
 41
10
 42
10
 50
180
  0
INSERT
  2
-000-_Small
  8
_0-2_寸法
 10
777.60583996444245
 20
761.34737322507897
 41
10
 42
10
 50
0
  0
TEXT
  8
_0-2_寸法
 62
    7
 10
294.68244118037359
 20
776.34737322507897
 40
50
 41
1
 50
0
  1
900以内
  0
POINT
  8
_0-1_Defpoints
 62
    7
 10
-13.24095760369528
 20
876.13341322507927
  0
POINT
  8
_0-1_Defpoints
 62
    7
 10
777.60583996444245
 20
876.13341322507927
  0
POINT
  8
_0-1_Defpoints
 62
    7
 10
777.60583996444245
 20
761.34737322507897
  0
ENDBLK
  0
BLOCK
  2
-003-_D4
 70
   64
 10
0
 20
0
 30
0
  0
LINE
  8
_0-2_寸法
  6
CONTINUOUS
 62
    4
 10
-163.24095760369519
 20
-296.49099197167482
 11
-163.24095760369519
 21
-396.27704197167509
  0
LINE
  8
_0-2_寸法
  6
CONTINUOUS
 62
    4
 10
36.759042396304793
 20
-296.49099197167482
 11
36.759042396304793
 21
-396.27704197167509
  0
LINE
  8
_0-2_寸法
  6
CONTINUOUS
 62
    4
 10
-163.24095760369519
 20
-396.27704197167509
 11
36.759042396304793
 21
-396.27704197167509
  0
INSERT
  2
-000-_Small
  8
_0-2_寸法
 10
-163.24095760369519
 20
-396.27704197167509
 41
10
 42
10
 50
180
  0
INSERT
  2
-000-_Small
  8
_0-2_寸法
 10
36.759042396304793
 20
-396.27704197167509
 41
10
 42
10
 50
0
  0
TEXT
  8
_0-2_寸法
 62
    7
 10
-100.74095760369522
 20
-381.27704197167498
 40
50
 41
1
 50
0
  1
200
  0
POINT
  8
_0-1_Defpoints
 62
    7
 10
-163.24095760369519
 20
-296.49099197167482
  0
POINT
  8
_0-1_Defpoints
 62
    7
 10
36.759042396304793
 20
-296.49099197167482
  0
POINT
  8
_0-1_Defpoints
 62
    7
 10
36.759042396304793
 20
-396.27704197167509
  0
ENDBLK
  0
BLOCK
  2
-004-_D5
 70
   64
 10
0
 20
0
 30
0
  0
LINE
  8
_0-2_寸法
  6
CONTINUOUS
 62
    4
 10
36.759042396304793
 20
-296.49099197167482
 11
36.759042396304793
 21
-396.27704197167498
  0
LINE
  8
_0-2_寸法
  6
CONTINUOUS
 62
    4
 10
777.60583996444257
 20
-296.44526186688381
 11
777.60583996444257
 21
-396.27704197167498
  0
LINE
  8
_0-2_寸法
  6
CONTINUOUS
 62
    4
 10
36.759042396304793
 20
-396.27704197167498
 11
777.60583996444257
 21
-396.27704197167498
  0
INSERT
  2
-000-_Small
  8
_0-2_寸法
 10
36.759042396304793
 20
-396.27704197167498
 41
10
 42
10
 50
180
  0
INSERT
  2
-000-_Small
  8
_0-2_寸法
 10
777.60583996444257
 20
-396.27704197167498
 41
10
 42
10
 50
0
  0
TEXT
  8
_0-2_寸法
 62
    7
 10
319.6824411803737
 20
-381.27704197167498
 40
50
 41
1
 50
0
  1
900以内
  0
POINT
  8
_0-1_Defpoints
 62
    7
 10
36.759042396304793
 20
-296.49099197167482
  0
POINT
  8
_0-1_Defpoints
 62
    7
 10
777.60583996444257
 20
-296.44526186688381
  0
POINT
  8
_0-1_Defpoints
 62
    7
 10
777.60583996444257
 20
-396.27704197167498
  0
ENDBLK
  0
BLOCK
  2
-005-_D6
 70
   64
 10
0
 20
0
 30
0
  0
LINE
  8
_0-2_寸法
  6
CONTINUOUS
 62
    4
 10
1661.883772396304
 20
876.13341322507927
 11
1661.883772396304
 21
761.3473732250792
  0
LINE
  8
_0-2_寸法
  6
CONTINUOUS
 62
    4
 10
1811.8837723963049
 20
876.13341322507927
 11
1811.8837723963049
 21
761.3473732250792
  0
LINE
  8
_0-2_寸法
  6
CONTINUOUS
 62
    4
 10
1661.883772396304
 20
761.3473732250792
 11
1811.8837723963049
 21
761.3473732250792
  0
INSERT
  2
-000-_Small
  8
_0-2_寸法
 10
1661.883772396304
 20
761.3473732250792
 41
10
 42
10
 50
180
  0
INSERT
  2
-000-_Small
  8
_0-2_寸法
 10
1811.8837723963049
 20
761.3473732250792
 41
10
 42
10
 50
0
  0
TEXT
  8
_0-2_寸法
 62
    7
 10
1699.3837723963049
 20
776.3473732250792
 40
50
 41
1
 50
0
  1
150
  0
POINT
  8
_0-1_Defpoints
 62
    7
 10
1661.883772396304
 20
876.13341322507927
  0
POINT
  8
_0-1_Defpoints
 62
    7
 10
1811.8837723963049
 20
876.13341322507927
  0
POINT
  8
_0-1_Defpoints
 62
    7
 10
1811.8837723963049
 20
761.3473732250792
  0
ENDBLK
  0
BLOCK
  2
-006-_D7
 70
   64
 10
0
 20
0
 30
0
  0
LINE
  8
_0-2_寸法
  6
CONTINUOUS
 62
    4
 10
1811.8837723963049
 20
876.13341322507927
 11
1811.8837723963049
 21
761.3473732250792
  0
LINE
  8
_0-2_寸法
  6
CONTINUOUS
 62
    4
 10
2561.8837723963052
 20
876.13341322507927
 11
2561.8837723963052
 21
761.3473732250792
  0
LINE
  8
_0-2_寸法
  6
CONTINUOUS
 62
    4
 10
1811.8837723963049
 20
761.3473732250792
 11
2561.8837723963052
 21
761.3473732250792
  0
INSERT
  2
-000-_Small
  8
_0-2_寸法
 10
1811.8837723963049
 20
761.3473732250792
 41
10
 42
10
 50
180
  0
INSERT
  2
-000-_Small
  8
_0-2_寸法
 10
2561.8837723963052
 20
761.3473732250792
 41
10
 42
10
 50
0
  0
TEXT
  8
_0-2_寸法
 62
    7
 10
2099.3837723963052
 20
776.3473732250792
 40
50
 41
1
 50
0
  1
900以内
  0
POINT
  8
_0-1_Defpoints
 62
    7
 10
1811.8837723963049
 20
876.13341322507927
  0
POINT
  8
_0-1_Defpoints
 62
    7
 10
2561.8837723963052
 20
876.13341322507927
  0
POINT
  8
_0-1_Defpoints
 62
    7
 10
2561.8837723963052
 20
761.3473732250792
  0
ENDBLK
  0
BLOCK
  2
-007-_D8
 70
   64
 10
0
 20
0
 30
0
  0
LINE
  8
_0-2_寸法
  6
CONTINUOUS
 62
    4
 10
1122.826149964442
 20
886.13341322507915
 11
1206.6433499644429
 21
886.13341322507915
  0
LINE
  8
_0-2_寸法
  6
CONTINUOUS
 62
    4
 10
1122.826149964442
 20
1353.1334132250799
 11
1206.6433499644429
 21
1353.1334132250799
  0
LINE
  8
_0-2_寸法
  6
CONTINUOUS
 62
    4
 10
1206.6433499644429
 20
886.13341322507915
 11
1206.6433499644429
 21
1353.1334132250799
  0
INSERT
  2
-000-_Small
  8
_0-2_寸法
 10
1206.6433499644429
 20
886.13341322507915
 41
10
 42
10
 50
270
  0
INSERT
  2
-000-_Small
  8
_0-2_寸法
 10
1206.6433499644429
 20
1353.1334132250799
 41
10
 42
10
 50
90
  0
TEXT
  8
_0-2_寸法
 62
    7
 10
1186.8814452025381
 20
994.63341322507995
 40
50
 41
1
 50
90
  1
194～1,073
  0
POINT
  8
_0-1_Defpoints
 62
    7
 10
1122.826149964442
 20
886.13341322507915
  0
POINT
  8
_0-1_Defpoints
 62
    7
 10
1122.826149964442
 20
1353.1334132250799
  0
POINT
  8
_0-1_Defpoints
 62
    7
 10
1206.6433499644429
 20
1353.1334132250799
  0
ENDBLK
  0
BLOCK
  2
-008-_D9
 70
   64
 10
0
 20
0
 30
0
  0
LINE
  8
_0-2_寸法
  6
CONTINUOUS
 62
    4
 10
1122.826149964442
 20
1386.133413225079
 11
1298.9767227652881
 21
1386.133413225079
  0
LINE
  8
_0-2_寸法
  6
CONTINUOUS
 62
    4
 10
1122.826149964442
 20
886.13341322507915
 11
1298.9767227652881
 21
886.13341322507915
  0
LINE
  8
_0-2_寸法
  6
CONTINUOUS
 62
    4
 10
1298.9767227652881
 20
1386.133413225079
 11
1298.9767227652881
 21
886.13341322507915
  0
INSERT
  2
-000-_Small
  8
_0-2_寸法
 10
1298.9767227652881
 20
1386.133413225079
 41
10
 42
10
 50
90
  0
INSERT
  2
-000-_Small
  8
_0-2_寸法
 10
1298.9767227652881
 20
886.13341322507915
 41
10
 42
10
 50
270
  0
TEXT
  8
_0-2_寸法
 62
    7
 10
1283.9767227652881
 20
1123.633413225079
 40
50
 41
1
 50
90
  1
H
  0
POINT
  8
_0-1_Defpoints
 62
    7
 10
1122.826149964442
 20
1386.133413225079
  0
POINT
  8
_0-1_Defpoints
 62
    7
 10
1122.826149964442
 20
886.13341322507915
  0
POINT
  8
_0-1_Defpoints
 62
    7
 10
1298.9767227652881
 20
886.13341322507915
  0
ENDBLK
  0
BLOCK
  2
-009-_D10
 70
   64
 10
0
 20
0
 30
0
  0
LINE
  8
_0-2_寸法
  6
CONTINUOUS
 62
    4
 10
2964.8074023963059
 20
886.13341322507938
 11
3048.624602396304
 21
886.13341322507938
  0
LINE
  8
_0-2_寸法
  6
CONTINUOUS
 62
    4
 10
2964.8074023963059
 20
1353.1334132250799
 11
3048.624602396304
 21
1353.1334132250799
  0
LINE
  8
_0-2_寸法
  6
CONTINUOUS
 62
    4
 10
3048.624602396304
 20
886.13341322507938
 11
3048.624602396304
 21
1353.1334132250799
  0
INSERT
  2
-000-_Small
  8
_0-2_寸法
 10
3048.624602396304
 20
886.13341322507938
 41
10
 42
10
 50
270
  0
INSERT
  2
-000-_Small
  8
_0-2_寸法
 10
3048.624602396304
 20
1353.1334132250799
 41
10
 42
10
 50
90
  0
TEXT
  8
_0-2_寸法
 62
    7
 10
3028.862697634399
 20
994.63341322507995
 40
50
 41
1
 50
90
  1
194～1,073
  0
POINT
  8
_0-1_Defpoints
 62
    7
 10
2964.8074023963059
 20
886.13341322507938
  0
POINT
  8
_0-1_Defpoints
 62
    7
 10
2964.8074023963059
 20
1353.1334132250799
  0
POINT
  8
_0-1_Defpoints
 62
    7
 10
3048.624602396304
 20
1353.1334132250799
  0
ENDBLK
  0
BLOCK
  2
-010-_D11
 70
   64
 10
0
 20
0
 30
0
  0
LINE
  8
_0-2_寸法
  6
CONTINUOUS
 62
    4
 10
2964.8074023963059
 20
1386.133413225079
 11
3138.3059257262948
 21
1386.133413225079
  0
LINE
  8
_0-2_寸法
  6
CONTINUOUS
 62
    4
 10
2964.8074023963059
 20
886.13341322507938
 11
3138.3059257262948
 21
886.13341322507938
  0
LINE
  8
_0-2_寸法
  6
CONTINUOUS
 62
    4
 10
3138.3059257262948
 20
1386.133413225079
 11
3138.3059257262948
 21
886.13341322507938
  0
INSERT
  2
-000-_Small
  8
_0-2_寸法
 10
3138.3059257262948
 20
1386.133413225079
 41
10
 42
10
 50
90
  0
INSERT
  2
-000-_Small
  8
_0-2_寸法
 10
3138.3059257262948
 20
886.13341322507938
 41
10
 42
10
 50
270
  0
TEXT
  8
_0-2_寸法
 62
    7
 10
3123.3059257262948
 20
1123.6334132250799
 40
50
 41
1
 50
90
  1
H
  0
POINT
  8
_0-1_Defpoints
 62
    7
 10
2964.8074023963059
 20
1386.133413225079
  0
POINT
  8
_0-1_Defpoints
 62
    7
 10
2964.8074023963059
 20
886.13341322507938
  0
POINT
  8
_0-1_Defpoints
 62
    7
 10
3138.3059257262948
 20
886.13341322507938
  0
ENDBLK
  0
BLOCK
  2
-011-_D12
 70
   64
 10
0
 20
0
 30
0
  0
LINE
  8
_0-2_寸法
  6
CONTINUOUS
 62
    4
 10
1192.2640099644429
 20
-283.14162706628582
 11
1276.0812199644431
 21
-283.14162706628582
  0
LINE
  8
_0-2_寸法
  6
CONTINUOUS
 62
    4
 10
1192.2640099644429
 20
183.85837293371401
 11
1276.0812199644431
 21
183.85837293371401
  0
LINE
  8
_0-2_寸法
  6
CONTINUOUS
 62
    4
 10
1276.0812199644431
 20
-283.14162706628582
 11
1276.0812199644431
 21
183.85837293371401
  0
INSERT
  2
-000-_Small
  8
_0-2_寸法
 10
1276.0812199644431
 20
-283.14162706628582
 41
10
 42
10
 50
270
  0
INSERT
  2
-000-_Small
  8
_0-2_寸法
 10
1276.0812199644431
 20
183.85837293371401
 41
10
 42
10
 50
90
  0
TEXT
  8
_0-2_寸法
 62
    7
 10
1256.319315202539
 20
-174.64162706628568
 40
50
 41
1
 50
90
  1
194～1,073
  0
POINT
  8
_0-1_Defpoints
 62
    7
 10
1192.2640099644429
 20
-283.14162706628582
  0
POINT
  8
_0-1_Defpoints
 62
    7
 10
1192.2640099644429
 20
183.85837293371401
  0
POINT
  8
_0-1_Defpoints
 62
    7
 10
1276.0812199644431
 20
183.85837293371401
  0
ENDBLK
  0
BLOCK
  2
-012-_D13
 70
   64
 10
0
 20
0
 30
0
  0
LINE
  8
_0-2_寸法
  6
CONTINUOUS
 62
    4
 10
1192.2640099644429
 20
-283.14162706628582
 11
1380.6902349225891
 21
-283.14162706628582
  0
LINE
  8
_0-2_寸法
  6
CONTINUOUS
 62
    4
 10
1192.2640099644429
 20
216.8583729337137
 11
1380.6902349225891
 21
216.85837293371361
  0
LINE
  8
_0-2_寸法
  6
CONTINUOUS
 62
    4
 10
1380.6902349225891
 20
-283.14162706628582
 11
1380.6902349225891
 21
216.85837293371361
  0
INSERT
  2
-000-_Small
  8
_0-2_寸法
 10
1380.6902349225891
 20
-283.14162706628582
 41
10
 42
10
 50
270
  0
INSERT
  2
-000-_Small
  8
_0-2_寸法
 10
1380.6902349225891
 20
216.85837293371361
 41
10
 42
10
 50
90
  0
TEXT
  8
_0-2_寸法
 62
    7
 10
1365.6902349225891
 20
-45.641627066285857
 40
50
 41
1
 50
90
  1
H
  0
POINT
  8
_0-1_Defpoints
 62
    7
 10
1192.2640099644429
 20
-283.14162706628582
  0
POINT
  8
_0-1_Defpoints
 62
    7
 10
1192.2640099644429
 20
216.8583729337137
  0
POINT
  8
_0-1_Defpoints
 62
    7
 10
1380.6902349225891
 20
216.85837293371361
  0
ENDBLK
  0
BLOCK
  2
-013-_D14
 70
   64
 10
0
 20
0
 30
0
  0
LINE
  8
_0-2_寸法
  6
CONTINUOUS
 62
    4
 10
327.60683996444232
 20
224.7770729337139
 11
327.60683996444232
 21
315.01072293371402
  0
LINE
  8
_0-2_寸法
  6
CONTINUOUS
 62
    4
 10
627.6068399644422
 20
225.7794029337139
 11
627.6068399644422
 21
315.01072293371402
  0
LINE
  8
_0-2_寸法
  6
CONTINUOUS
 62
    4
 10
327.60683996444232
 20
315.01072293371402
 11
627.6068399644422
 21
315.01072293371402
  0
INSERT
  2
-000-_Small
  8
_0-2_寸法
 10
327.60683996444232
 20
315.01072293371402
 41
10
 42
10
 50
180
  0
INSERT
  2
-000-_Small
  8
_0-2_寸法
 10
627.6068399644422
 20
315.01072293371402
 41
10
 42
10
 50
0
  0
TEXT
  8
_0-2_寸法
 62
    7
 10
440.1068399644422
 20
330.01072293371402
 40
50
 41
1
 50
0
  1
300
  0
POINT
  8
_0-1_Defpoints
 62
    7
 10
327.60683996444232
 20
224.7770729337139
  0
POINT
  8
_0-1_Defpoints
 62
    7
 10
627.6068399644422
 20
225.7794029337139
  0
POINT
  8
_0-1_Defpoints
 62
    7
 10
627.6068399644422
 20
315.01072293371402
  0
ENDBLK
  0
BLOCK
  2
-014-_D15
 70
   64
 10
0
 20
0
 30
0
  0
LINE
  8
_0-2_寸法
  6
CONTINUOUS
 62
    4
 10
627.6068399644422
 20
225.7794029337139
 11
627.6068399644422
 21
315.01072293371402
  0
LINE
  8
_0-2_寸法
  6
CONTINUOUS
 62
    4
 10
927.6068399644422
 20
225.7794029337139
 11
927.6068399644422
 21
315.01072293371402
  0
LINE
  8
_0-2_寸法
  6
CONTINUOUS
 62
    4
 10
627.6068399644422
 20
315.01072293371402
 11
927.6068399644422
 21
315.01072293371402
  0
INSERT
  2
-000-_Small
  8
_0-2_寸法
 10
627.6068399644422
 20
315.01072293371402
 41
10
 42
10
 50
180
  0
INSERT
  2
-000-_Small
  8
_0-2_寸法
 10
927.6068399644422
 20
315.01072293371402
 41
10
 42
10
 50
0
  0
TEXT
  8
_0-2_寸法
 62
    7
 10
740.10683996444232
 20
330.01072293371402
 40
50
 41
1
 50
0
  1
300
  0
POINT
  8
_0-1_Defpoints
 62
    7
 10
627.6068399644422
 20
225.7794029337139
  0
POINT
  8
_0-1_Defpoints
 62
    7
 10
927.6068399644422
 20
225.7794029337139
  0
POINT
  8
_0-1_Defpoints
 62
    7
 10
927.6068399644422
 20
315.01072293371402
  0
ENDBLK
  0
BLOCK
  2
-015-_D16
 70
   64
 10
0
 20
0
 30
0
  0
LINE
  8
_0-2_寸法
  6
CONTINUOUS
 62
    4
 10
1861.8837723963049
 20
1396.133413225079
 11
1861.8837723963049
 21
1489.8125999449651
  0
LINE
  8
_0-2_寸法
  6
CONTINUOUS
 62
    4
 10
2061.8837723963052
 20
1396.1067632250781
 11
2061.8837723963052
 21
1489.8125999449651
  0
LINE
  8
_0-2_寸法
  6
CONTINUOUS
 62
    4
 10
1861.8837723963049
 20
1489.8125999449651
 11
2061.8837723963052
 21
1489.8125999449651
  0
INSERT
  2
-000-_Small
  8
_0-2_寸法
 10
1861.8837723963049
 20
1489.8125999449651
 41
10
 42
10
 50
180
  0
INSERT
  2
-000-_Small
  8
_0-2_寸法
 10
2061.8837723963052
 20
1489.8125999449651
 41
10
 42
10
 50
0
  0
TEXT
  8
_0-2_寸法
 62
    7
 10
1924.3837723963049
 20
1504.8125999449651
 40
50
 41
1
 50
0
  1
200
  0
POINT
  8
_0-1_Defpoints
 62
    7
 10
1861.8837723963049
 20
1396.133413225079
  0
POINT
  8
_0-1_Defpoints
 62
    7
 10
2061.8837723963052
 20
1396.1067632250781
  0
POINT
  8
_0-1_Defpoints
 62
    7
 10
2061.8837723963052
 20
1489.8125999449651
  0
ENDBLK
  0
ENDSEC
  0
SECTION
  2
ENTITIES
  0
TEXT
  8
_0-4_文字-記号
 62
    7
 10
765.62539379936584
 20
2367.0394372496658
 40
59.999998499999997
 41
0.8
 50
0
  1
スリーベース１０１型　標準床組（体育館用：標準タイプ）
  0
TEXT
  8
_0-4_文字-記号
 62
    7
 10
493.60566509252089
 20
1091.8261721599706
 40
45
 41
0.8
 50
0
  1
壁廻り納まり（根太方向）
  0
TEXT
  8
_0-4_文字-記号
 62
    7
 10
482.75994509252155
 20
-73.941450306213937
 40
45
 41
0.8
 50
0
  1
壁廻り納まり（大引方向）
  0
TEXT
  8
_0-4_文字-記号
 62
    7
 10
679.49552395178193
 20
1483.0552014710997
 40
45
 41
0.8
 50
0
  1
支持脚１０１
  0
TEXT
  8
_0-4_文字-記号
 62
    7
 10
319.26710446827633
 20
1631.8457294931168
 40
45
 41
0.8
 50
0.0000100000010064
  1
大引鋼
  0
TEXT
  8
_0-4_文字-記号
 62
    7
 10
867.74430815504422
 20
1920.4574502550349
 40
45
 41
0.8
 50
0
  1
捨　板
  0
TEXT
  8
_0-4_文字-記号
 62
    7
 10
745.92529259173602
 20
1631.8626490506908
 40
45
 41
0.8
 50
0
  1
根太鋼
  0
TEXT
  8
_0-4_文字-記号
 62
    7
 10
734.06960880348629
 20
1990.7800389178701
 40
45
 41
0.8
 50
0
  1
フローリング
  0
TEXT
  8
_0-4_文字-記号
 62
    7
 10
2365.3303983350024
 20
1076.6891521599698
 40
45
 41
0.8
 50
0
  1
床上換気口設置例
  0
TEXT
  8
_0-4_文字-記号
 62
    7
 10
2400.399128335006
 20
2014.7416602765161
 40
45
 41
0.8
 50
0
  1
床上換気口（ベースピット）
  0
TEXT
  8
_0-4_文字-記号
 62
    7
 10
2396.0600904297835
 20
1913.4883976146389
 40
45
 41
0.8
 50
0
  1
ＥＸＰゴム
  0
CIRCLE
  8
_0-3_躯体と製品
  6
CONTINUOUS
 62
    3
 10
2112.6519883350047
 20
2055.693820276515
 40
3
  0
CIRCLE
  8
_0-3_躯体と製品
  6
CONTINUOUS
 62
    3
 10
2292.6519883350047
 20
2055.693820276515
 40
3
  0
INSERT
  2
-001-_D2
  8
_0-2_寸法
 10
240.76821593869977
 20
432.50846705143692
 41
1
 42
1
 50
0
  0
INSERT
  2
-002-_D3
  8
_0-2_寸法
 10
240.76821593869977
 20
432.50846705143692
 41
1
 42
1
 50
0
  0
INSERT
  2
-003-_D4
  8
_0-2_寸法
 10
240.76821593869977
 20
432.50846705143692
 41
1
 42
1
 50
0
  0
INSERT
  2
-004-_D5
  8
_0-2_寸法
 10
240.76821593869977
 20
432.50846705143692
 41
1
 42
1
 50
0
  0
INSERT
  2
-005-_D6
  8
_0-2_寸法
 10
240.76821593869977
 20
432.50846705143692
 41
1
 42
1
 50
0
  0
INSERT
  2
-006-_D7
  8
_0-2_寸法
 10
240.76821593869977
 20
432.50846705143692
 41
1
 42
1
 50
0
  0
INSERT
  2
-007-_D8
  8
_0-2_寸法
 10
240.76821593869977
 20
432.50846705143692
 41
1
 42
1
 50
0
  0
INSERT
  2
-008-_D9
  8
_0-2_寸法
 10
240.76821593869977
 20
432.50846705143692
 41
1
 42
1
 50
0
  0
INSERT
  2
-009-_D10
  8
_0-2_寸法
 10
240.76821593869977
 20
432.50846705143692
 41
1
 42
1
 50
0
  0
INSERT
  2
-010-_D11
  8
_0-2_寸法
 10
240.76821593869977
 20
432.50846705143692
 41
1
 42
1
 50
0
  0
INSERT
  2
-011-_D12
  8
_0-2_寸法
 10
240.76821593869977
 20
432.50846705143692
 41
1
 42
1
 50
0
  0
INSERT
  2
-012-_D13
  8
_0-2_寸法
 10
240.76821593869977
 20
432.50846705143692
 41
1
 42
1
 50
0
  0
INSERT
  2
-013-_D14
  8
_0-2_寸法
 10
240.76821593869977
 20
432.50846705143692
 41
1
 42
1
 50
0
  0
INSERT
  2
-014-_D15
  8
_0-2_寸法
 10
240.76821593869977
 20
432.50846705143692
 41
1
 42
1
 50
0
  0
TEXT
  8
_0-2_寸法
 62
    7
 10
1206.2445110503461
 20
765.49568567760605
 40
45
 41
1
 50
0
  1
@300
  0
TEXT
  8
_0-2_寸法
 62
    7
 10
1131.6885741605697
 20
1210.1021774227645
 40
45
 41
1
 50
0
  1
@900
  0
TEXT
  8
_0-2_寸法
 62
    7
 10
2938.5973412877674
 20
1211.3548206891928
 40
45
 41
1
 50
0
  1
@900
  0
TEXT
  8
_0-2_寸法
 62
    7
 10
1141.6781349167097
 20
56.544340718246531
 40
45
 41
1
 50
0
  1
@900
  0
INSERT
  2
-015-_D16
  8
_0-2_寸法
 10
240.76821593869977
 20
432.50846705143692
 41
1
 42
1
 50
0
  0
TEXT
  8
_0-4_文字-記号
 62
    7
 10
1968.5739990663258
 20
1984.474417174426
 40
45
 41
0.8
 50
0
  1
巾木
  0
TEXT
  8
_0-4_文字-記号
 62
    7
 10
2147.6801826997071
 20
1638.3804384389591
 40
45
 41
0.8
 50
0.0000100000010064
  1
大引鋼
  0
TEXT
  8
_0-4_文字-記号
 62
    7
 10
3030.4146870125296
 20
1632.5417884190429
 40
45
 41
0.8
 50
0
  1
根太鋼
  0
TEXT
  8
_0-4_文字-記号
 62
    7
 10
2873.1367961374181
 20
1472.9243636675319
 40
45
 41
0.8
 50
0
  1
支持脚１０１
  0
TEXT
  8
_0-4_文字-記号
 62
    7
 10
683.64341523274629
 20
440.7720712443496
 40
45
 41
0.8
 50
0.0000100000010064
  1
大引鋼
  0
TEXT
  8
_0-4_文字-記号
 62
    7
 10
1235.6878059679534
 20
475.65419111383267
 40
45
 41
0.8
 50
0
  1
根太鋼
  0
TEXT
  8
_0-4_文字-記号
 62
    7
 10
1088.5223725054473
 20
292.95078965136099
 40
45
 41
0.8
 50
0
  1
支持脚１０１
  0
LINE
  8
_0-5_中心線
  6
CENTER1
 62
    7
 10
1018.3740559031422
 20
1308.6418802765161
 11
1018.3740559031422
 21
1780.347814487292
  0
ARC
  8
_0-3_躯体と製品
  6
CONTINUOUS
 62
    4
 10
974.07986761673703
 20
1322.2418802765078
 40
1.5999999999912689
 50
270
 51
89.999999999999972
  0
LINE
  8
_0-3_躯体と製品
  6
CONTINUOUS
 62
    4
 10
974.07986761673703
 20
1323.8418802764991
 11
943.37405590314779
 21
1323.8418802764991
  0
LINE
  8
_0-3_躯体と製品
  6
CONTINUOUS
 62
    4
 10
943.37405590314779
 20
1323.8418802764991
 11
943.37405590314779
 21
1320.6418802765165
  0
LINE
  8
_0-3_躯体と製品
  6
CONTINUOUS
 62
    4
 10
943.37405590314779
 20
1320.6418802765165
 11
974.07986761673703
 21
1320.6418802765165
  0
ARC
  8
_0-3_躯体と製品
  6
CONTINUOUS
 62
    4
 10
974.0798676167542
 20
1327.8418802765102
 40
7.1999999999938558
 50
269.99999999986335
 51
352.31944208863769
  0
LINE
  8
_0-3_躯体と製品
  6
CONTINUOUS
 62
    4
 10
981.21527359425568
 20
1326.879600932376
 11
999.70412975759712
 21
1463.9764799121381
  0
ARC
  8
_0-3_躯体と製品
  6
CONTINUOUS
 62
    4
 10
1003.6682441895459
 20
1463.4418802765044
 40
4.0000000000005249
 50
89.999999999822265
 51
172.31944208859821
  0
LINE
  8
_0-3_躯体と製品
  6
CONTINUOUS
 62
    4
 10
1003.6682441895583
 20
1467.4418802765049
 11
1033.0798676167371
 21
1467.4418802765049
  0
ARC
  8
_0-3_躯体と製品
  6
CONTINUOUS
 62
    4
 10
1033.0798676167497
 20
1463.4418802765044
 40
4.0000000000005249
 50
7.6805579114017926
 51
90.000000000177735
  0
LINE
  8
_0-3_躯体と製品
  6
CONTINUOUS
 62
    4
 10
1037.0439820486984
 20
1463.9764799121381
 11
1055.5328382120399
 21
1326.879600932376
  0
ARC
  8
_0-3_躯体と製品
  6
CONTINUOUS
 62
    4
 10
1062.6682441895414
 20
1327.8418802765102
 40
7.1999999999937279
 50
187.68055791136146
 51
270.00000000013574
  0
LINE
  8
_0-3_躯体と製品
  6
CONTINUOUS
 62
    4
 10
1062.6682441895582
 20
1320.6418802765165
 11
1093.3740559031478
 21
1320.6418802765165
  0
LINE
  8
_0-3_躯体と製品
  6
CONTINUOUS
 62
    4
 10
1093.3740559031478
 20
1320.6418802765165
 11
1093.3740559031478
 21
1323.8418802764991
  0
LINE
  8
_0-3_躯体と製品
  6
CONTINUOUS
 62
    4
 10
1093.3740559031478
 20
1323.8418802764991
 11
1062.6682441895582
 21
1323.8418802764991
  0
ARC
  8
_0-3_躯体と製品
  6
CONTINUOUS
 62
    4
 10
1062.6682441895582
 20
1322.2418802765078
 40
1.5999999999912689
 50
90
 51
270
  0
LINE
  8
_0-3_躯体と製品
  6
CONTINUOUS
 62
    4
 10
971.87405590314779
 20
1323.8418802764991
 11
971.87405590314779
 21
1320.6418802765165
  0
LINE
  8
_0-3_躯体と製品
  6
CONTINUOUS
 62
    4
 10
1064.8740559031476
 20
1323.8418802764991
 11
1064.8740559031476
 21
1320.6418802765165
  0
LINE
  8
_0-3_躯体と製品
  6
CONTINUOUS
 62
    4
 10
1003.6682441895583
 20
1467.4418802765049
 11
1002.3740559031477
 21
1470.5246111537467
  0
LINE
  8
_0-3_躯体と製品
  6
CONTINUOUS
 62
    4
 10
1004.3740563098738
 20
1474.6418809601937
 11
1032.3740563472431
 21
1474.6418809601937
  0
LINE
  8
_0-3_躯体と製品
  6
CONTINUOUS
 62
    4
 10
1032.3740563472431
 20
1474.6418809601937
 11
1032.3740563472431
 21
1470.6418809601937
  0
LINE
  8
_0-3_躯体と製品
  6
CONTINUOUS
 62
    4
 10
1032.3740563472431
 20
1470.6418809601937
 11
1004.3740563098738
 21
1470.6418809601937
  0
LINE
  8
_0-3_躯体と製品
  6
CONTINUOUS
 62
    4
 10
1004.3740563098738
 20
1470.6418809601937
 11
1004.3740563098738
 21
1474.6418809601937
  0
LINE
  8
_0-3_躯体と製品
  6
CONTINUOUS
 62
    4
 10
1018.3740554777371
 20
1474.6418809601937
 11
1014.3740554777371
 21
1470.6418809601937
  0
LINE
  8
_0-3_躯体と製品
  6
CONTINUOUS
 62
    4
 10
1022.3740555251181
 20
1474.641880988891
 11
1018.3740555251181
 21
1470.641880988891
  0
LINE
  8
_0-3_躯体と製品
  6
CONTINUOUS
 62
    4
 10
1033.0798676167371
 20
1467.4418802765049
 11
1034.3740559031478
 21
1470.5246111537467
  0
LINE
  8
_0-3_躯体と製品
  6
CONTINUOUS
 62
    4
 10
943.37405590314779
 20
1318.6418802765163
 11
968.37405590314779
 21
1318.6418802765163
  0
LINE
  8
_0-3_躯体と製品
  6
CONTINUOUS
 62
    4
 10
968.37405590314779
 20
1318.6418802765163
 11
968.37405590314779
 21
1320.6418802765165
  0
LINE
  8
_0-3_躯体と製品
  6
CONTINUOUS
 62
    4
 10
968.37405590314779
 20
1320.6418802765165
 11
943.37405590314779
 21
1320.6418802765165
  0
LINE
  8
_0-3_躯体と製品
  6
CONTINUOUS
 62
    4
 10
943.37405590314779
 20
1320.6418802765165
 11
943.37405590314779
 21
1318.6418802765163
  0
LINE
  8
_0-3_躯体と製品
  6
CONTINUOUS
 62
    4
 10
1093.3740559031478
 20
1318.6418802765163
 11
1068.3740559031478
 21
1318.6418802765163
  0
LINE
  8
_0-3_躯体と製品
  6
CONTINUOUS
 62
    4
 10
1068.3740559031478
 20
1318.6418802765163
 11
1068.3740559031478
 21
1320.6418802765165
  0
LINE
  8
_0-3_躯体と製品
  6
CONTINUOUS
 62
    4
 10
1068.3740559031478
 20
1320.6418802765165
 11
1093.3740559031478
 21
1320.6418802765165
  0
LINE
  8
_0-3_躯体と製品
  6
CONTINUOUS
 62
    4
 10
1093.3740559031478
 20
1320.6418802765165
 11
1093.3740559031478
 21
1318.6418802765163
  0
LINE
  8
_0-3_躯体と製品
  6
CONTINUOUS
 62
    4
 10
1066.2348410901659
 20
1323.8418809632039
 11
1047.9211048844493
 21
1459.6402117039447
  0
ARC
  8
_0-3_躯体と製品
  6
CONTINUOUS
 62
    4
 10
1043.9569904601722
 20
1459.1056120114376
 40
3.9999999999987201
 50
7.680558733437878
 51
82.319442910985771
  0
LINE
  8
_0-3_躯体と製品
  6
CONTINUOUS
 62
    4
 10
1044.4915900389071
 20
1463.0697264510577
 11
1040.3193538396201
 21
1463.6323932833529
  0
LINE
  8
_0-3_躯体と製品
  6
CONTINUOUS
 62
    4
 10
1040.3193538396201
 20
1463.6323932833529
 11
1040.2152735942557
 21
1464.404159620628
  0
ARC
  8
_0-3_躯体と製品
  6
CONTINUOUS
 62
    4
 10
1033.0798676167524
 20
1463.4418802765244
 40
7.1999999999915447
 50
7.6805579111162094
 51
89.999999999890377
  0
LINE
  8
_0-3_躯体と製品
  6
CONTINUOUS
 62
    4
 10
1033.079867616766
 20
1470.6418802765161
 11
1003.6682441895583
 21
1470.6418802765161
  0
ARC
  8
_0-3_躯体と製品
  6
CONTINUOUS
 62
    4
 10
1003.6985196530138
 20
1463.3673567247115
 40
7.2745865524746938
 50
90.238454965639789
 51
177.91206638987759
  0
LINE
  8
_0-3_躯体と製品
  6
CONTINUOUS
 62
    4
 10
996.42876278062352
 20
1463.632393563244
 11
992.25651969519572
 21
1463.0697260763168
  0
ARC
  8
_0-3_躯体と製品
  6
CONTINUOUS
 62
    4
 10
992.79111933081629
 20
1459.1056116443685
 40
3.999999999998388
 50
97.680557911219424
 51
172.31944208876729
  0
LINE
  8
_0-3_躯体と製品
  6
CONTINUOUS
 62
    4
 10
988.82700489886804
 20
1459.6402112799901
 11
970.51327064150712
 21
1323.8418802764991
  0
LINE
  8
_0-3_躯体と製品
  6
CONTINUOUS
 62
    4
 10
1025.302262198883
 20
1486.1418809601937
 11
1025.302262198883
 21
1474.6418809601937
  0
LINE
  8
_0-3_躯体と製品
  6
CONTINUOUS
 62
    4
 10
1011.4458557383088
 20
1486.1418809601937
 11
1011.4458557383088
 21
1474.6418809601937
  0
LINE
  8
_0-3_躯体と製品
  6
CONTINUOUS
 62
    4
 10
1007.9817541231798
 20
1487.6418809601937
 11
1028.7663638140123
 21
1487.6418809601937
  0
ARC
  8
_0-3_躯体と製品
  6
CONTINUOUS
 62
    4
 10
1007.9817541231798
 20
1482.8918809602008
 40
4.7499999999888267
 50
43.173551107269937
 51
136.8264488927301
  0
ARC
  8
_0-3_躯体と製品
  6
CONTINUOUS
 62
    4
 10
1018.3740589685959
 20
1470.8918809601666
 40
16.750000000029619
 50
65.56730232054764
 51
114.43269767945236
  0
ARC
  8
_0-3_躯体と製品
  6
CONTINUOUS
 62
    4
 10
1028.7663638140123
 20
1482.8918809602021
 40
4.7499999999880291
 50
43.173551107257659
 51
136.82644889274232
  0
LINE
  8
_0-3_躯体と製品
  6
CONTINUOUS
 62
    4
 10
1032.2304654291413
 20
1486.1418809601937
 11
1032.2304654291413
 21
1474.6418809601937
  0
LINE
  8
_0-3_躯体と製品
  6
CONTINUOUS
 62
    4
 10
1032.2304654291413
 20
1474.6418809601937
 11
1004.5176525080508
 21
1474.6418809601937
  0
LINE
  8
_0-3_躯体と製品
  6
CONTINUOUS
 62
    4
 10
1004.5176525080508
 20
1474.6418809601937
 11
1004.5176525080508
 21
1486.1418809601937
  0
LINE
  8
_0-3_躯体と製品
  6
CONTINUOUS
 62
    4
 10
1025.302263260591
 20
1455.9418802765049
 11
1025.302263260591
 21
1467.4418802765049
  0
LINE
  8
_0-3_躯体と製品
  6
CONTINUOUS
 62
    4
 10
1011.4458568000457
 20
1455.9418802765049
 11
1011.4458568000457
 21
1467.4418802765049
  0
LINE
  8
_0-3_躯体と製品
  6
CONTINUOUS
 62
    4
 10
1007.9817551849167
 20
1454.4418802765049
 11
1028.7663648757491
 21
1454.4418802765049
  0
ARC
  8
_0-3_躯体と製品
  6
CONTINUOUS
 62
    4
 10
1007.9817551849021
 20
1459.1918802765117
 40
4.7500000000088578
 50
223.1735511072699
 51
316.82644889273007
  0
ARC
  8
_0-3_躯体と製品
  6
CONTINUOUS
 62
    4
 10
1018.3740600303183
 20
1471.1918802765001
 40
16.749999999994436
 50
245.56730232054764
 51
294.43269767945236
  0
ARC
  8
_0-3_躯体と製品
  6
CONTINUOUS
 62
    4
 10
1028.7663648757346
 20
1459.1918802765103
 40
4.7500000000079048
 50
223.17355110725768
 51
316.82644889274235
  0
LINE
  8
_0-3_躯体と製品
  6
CONTINUOUS
 62
    4
 10
1032.2304664908781
 20
1455.9418802765049
 11
1032.2304664908781
 21
1467.4418802765049
  0
LINE
  8
_0-3_躯体と製品
  6
CONTINUOUS
 62
    4
 10
1032.2304664908781
 20
1467.4418802765049
 11
1004.5176535697585
 21
1467.4418802765049
  0
LINE
  8
_0-3_躯体と製品
  6
CONTINUOUS
 62
    4
 10
1004.5176535697585
 20
1467.4418802765049
 11
1004.5176535697585
 21
1455.9418802765049
  0
LINE
  8
_0-5_中心線
  6
CENTER1
 62
    7
 10
227.52725833500449
 20
1308.6418802765161
 11
227.52725833500449
 21
1780.347814487292
  0
ARC
  8
_0-3_躯体と製品
  6
CONTINUOUS
 62
    4
 10
183.2330700485993
 20
1322.2418802765078
 40
1.5999999999912689
 50
270
 51
89.999999999999972
  0
LINE
  8
_0-3_躯体と製品
  6
CONTINUOUS
 62
    4
 10
183.2330700485993
 20
1323.8418802764991
 11
152.52725833500995
 21
1323.8418802764991
  0
LINE
  8
_0-3_躯体と製品
  6
CONTINUOUS
 62
    4
 10
152.52725833500995
 20
1323.8418802764991
 11
152.52725833500995
 21
1320.6418802765165
  0
LINE
  8
_0-3_躯体と製品
  6
CONTINUOUS
 62
    4
 10
152.52725833500995
 20
1320.6418802765165
 11
183.2330700485993
 21
1320.6418802765165
  0
ARC
  8
_0-3_躯体と製品
  6
CONTINUOUS
 62
    4
 10
183.23307004861636
 20
1327.8418802765102
 40
7.1999999999937891
 50
269.9999999998638
 51
352.31944208863814
  0
LINE
  8
_0-3_躯体と製品
  6
CONTINUOUS
 62
    4
 10
190.36847602611783
 20
1326.879600932376
 11
208.85733218945938
 21
1463.9764799121381
  0
ARC
  8
_0-3_躯体と製品
  6
CONTINUOUS
 62
    4
 10
212.82144662140809
 20
1463.4418802765044
 40
4.0000000000005249
 50
89.999999999822265
 51
172.31944208859821
  0
LINE
  8
_0-3_躯体と製品
  6
CONTINUOUS
 62
    4
 10
212.82144662142059
 20
1467.4418802765049
 11
242.2330700485993
 21
1467.4418802765049
  0
ARC
  8
_0-3_躯体と製品
  6
CONTINUOUS
 62
    4
 10
242.23307004861181
 20
1463.4418802765044
 40
4.0000000000005249
 50
7.6805579114017926
 51
90.000000000177735
  0
LINE
  8
_0-3_躯体と製品
  6
CONTINUOUS
 62
    4
 10
246.19718448056051
 20
1463.9764799121381
 11
264.68604064390206
 21
1326.879600932376
  0
ARC
  8
_0-3_躯体と製品
  6
CONTINUOUS
 62
    4
 10
271.82144662140354
 20
1327.8418802765102
 40
7.1999999999937891
 50
187.68055791136192
 51
270.0000000001362
  0
LINE
  8
_0-3_躯体と製品
  6
CONTINUOUS
 62
    4
 10
271.82144662142059
 20
1320.6418802765165
 11
302.52725833500995
 21
1320.6418802765165
  0
LINE
  8
_0-3_躯体と製品
  6
CONTINUOUS
 62
    4
 10
302.52725833500995
 20
1320.6418802765165
 11
302.52725833500995
 21
1323.8418802764991
  0
LINE
  8
_0-3_躯体と製品
  6
CONTINUOUS
 62
    4
 10
302.52725833500995
 20
1323.8418802764991
 11
271.82144662142059
 21
1323.8418802764991
  0
ARC
  8
_0-3_躯体と製品
  6
CONTINUOUS
 62
    4
 10
271.82144662142059
 20
1322.2418802765078
 40
1.5999999999912689
 50
90
 51
270
  0
LINE
  8
_0-3_躯体と製品
  6
CONTINUOUS
 62
    4
 10
181.02725833500995
 20
1323.8418802764991
 11
181.02725833500995
 21
1320.6418802765165
  0
LINE
  8
_0-3_躯体と製品
  6
CONTINUOUS
 62
    4
 10
274.02725833500995
 20
1323.8418802764991
 11
274.02725833500995
 21
1320.6418802765165
  0
LINE
  8
_0-3_躯体と製品
  6
CONTINUOUS
 62
    4
 10
212.82144662142059
 20
1467.4418802765049
 11
211.52725833500995
 21
1470.5246111537467
  0
LINE
  8
_0-3_躯体と製品
  6
CONTINUOUS
 62
    4
 10
213.52725874173598
 20
1474.6418809601937
 11
241.5272587791053
 21
1474.6418809601937
  0
LINE
  8
_0-3_躯体と製品
  6
CONTINUOUS
 62
    4
 10
241.5272587791053
 20
1474.6418809601937
 11
241.5272587791053
 21
1470.6418809601937
  0
LINE
  8
_0-3_躯体と製品
  6
CONTINUOUS
 62
    4
 10
241.5272587791053
 20
1470.6418809601937
 11
213.52725874173598
 21
1470.6418809601937
  0
LINE
  8
_0-3_躯体と製品
  6
CONTINUOUS
 62
    4
 10
213.52725874173598
 20
1470.6418809601937
 11
213.52725874173598
 21
1474.6418809601937
  0
LINE
  8
_0-3_躯体と製品
  6
CONTINUOUS
 62
    4
 10
227.52725790959926
 20
1474.6418809601937
 11
223.52725790959926
 21
1470.6418809601937
  0
LINE
  8
_0-3_躯体と製品
  6
CONTINUOUS
 62
    4
 10
231.52725795698029
 20
1474.641880988891
 11
227.52725795698029
 21
1470.641880988891
  0
LINE
  8
_0-3_躯体と製品
  6
CONTINUOUS
 62
    4
 10
242.2330700485993
 20
1467.4418802765049
 11
243.52725833500995
 21
1470.5246111537467
  0
LINE
  8
_0-3_躯体と製品
  6
CONTINUOUS
 62
    4
 10
152.52725833500995
 20
1318.6418802765163
 11
177.52725833500995
 21
1318.6418802765163
  0
LINE
  8
_0-3_躯体と製品
  6
CONTINUOUS
 62
    4
 10
177.52725833500995
 20
1318.6418802765163
 11
177.52725833500995
 21
1320.6418802765165
  0
LINE
  8
_0-3_躯体と製品
  6
CONTINUOUS
 62
    4
 10
177.52725833500995
 20
1320.6418802765165
 11
152.52725833500995
 21
1320.6418802765165
  0
LINE
  8
_0-3_躯体と製品
  6
CONTINUOUS
 62
    4
 10
152.52725833500995
 20
1320.6418802765165
 11
152.52725833500995
 21
1318.6418802765163
  0
LINE
  8
_0-3_躯体と製品
  6
CONTINUOUS
 62
    4
 10
302.52725833500995
 20
1318.6418802765163
 11
277.52725833500995
 21
1318.6418802765163
  0
LINE
  8
_0-3_躯体と製品
  6
CONTINUOUS
 62
    4
 10
277.52725833500995
 20
1318.6418802765163
 11
277.52725833500995
 21
1320.6418802765165
  0
LINE
  8
_0-3_躯体と製品
  6
CONTINUOUS
 62
    4
 10
277.52725833500995
 20
1320.6418802765165
 11
302.52725833500995
 21
1320.6418802765165
  0
LINE
  8
_0-3_躯体と製品
  6
CONTINUOUS
 62
    4
 10
302.52725833500995
 20
1320.6418802765165
 11
302.52725833500995
 21
1318.6418802765163
  0
LINE
  8
_0-3_躯体と製品
  6
CONTINUOUS
 62
    4
 10
275.38804352202828
 20
1323.8418809632039
 11
257.07430731631143
 21
1459.6402117039447
  0
ARC
  8
_0-3_躯体と製品
  6
CONTINUOUS
 62
    4
 10
253.11019289203455
 20
1459.1056120114376
 40
3.9999999999987201
 50
7.680558733437878
 51
82.319442910985771
  0
LINE
  8
_0-3_躯体と製品
  6
CONTINUOUS
 62
    4
 10
253.64479247076929
 20
1463.0697264510577
 11
249.47255627148229
 21
1463.6323932833529
  0
LINE
  8
_0-3_躯体と製品
  6
CONTINUOUS
 62
    4
 10
249.47255627148229
 20
1463.6323932833529
 11
249.36847602611783
 21
1464.404159620628
  0
ARC
  8
_0-3_躯体と製品
  6
CONTINUOUS
 62
    4
 10
242.23307004861454
 20
1463.4418802765244
 40
7.1999999999914799
 50
7.6805579111157591
 51
89.999999999889923
  0
LINE
  8
_0-3_躯体と製品
  6
CONTINUOUS
 62
    4
 10
242.23307004862841
 20
1470.6418802765161
 11
212.82144662142059
 21
1470.6418802765161
  0
ARC
  8
_0-3_躯体と製品
  6
CONTINUOUS
 62
    4
 10
212.8517220848762
 20
1463.3673567247115
 40
7.2745865524746938
 50
90.238454965639789
 51
177.91206638987759
  0
LINE
  8
_0-3_躯体と製品
  6
CONTINUOUS
 62
    4
 10
205.58196521248578
 20
1463.632393563244
 11
201.40972212705788
 21
1463.0697260763168
  0
ARC
  8
_0-3_躯体と製品
  6
CONTINUOUS
 62
    4
 10
201.94432176267856
 20
1459.1056116443685
 40
3.9999999999983218
 50
97.680557911220333
 51
172.31944208876823
  0
LINE
  8
_0-3_躯体と製品
  6
CONTINUOUS
 62
    4
 10
197.98020733073031
 20
1459.6402112799901
 11
179.66647307336939
 21
1323.8418802764991
  0
LINE
  8
_0-3_躯体と製品
  6
CONTINUOUS
 62
    4
 10
234.45546463074538
 20
1486.1418809601937
 11
234.45546463074538
 21
1474.6418809601937
  0
LINE
  8
_0-3_躯体と製品
  6
CONTINUOUS
 62
    4
 10
220.59905817017102
 20
1486.1418809601937
 11
220.59905817017102
 21
1474.6418809601937
  0
LINE
  8
_0-3_躯体と製品
  6
CONTINUOUS
 62
    4
 10
217.13495655504198
 20
1487.6418809601937
 11
237.91956624587442
 21
1487.6418809601937
  0
ARC
  8
_0-3_躯体と製品
  6
CONTINUOUS
 62
    4
 10
217.13495655504198
 20
1482.8918809602008
 40
4.749999999988904
 50
43.173551107269937
 51
136.8264488927301
  0
ARC
  8
_0-3_躯体と製品
  6
CONTINUOUS
 62
    4
 10
227.5272614004582
 20
1470.8918809601666
 40
16.750000000029619
 50
65.56730232054764
 51
114.43269767945236
  0
ARC
  8
_0-3_躯体と製品
  6
CONTINUOUS
 62
    4
 10
237.91956624587442
 20
1482.8918809602021
 40
4.749999999987951
 50
43.173551107257659
 51
136.82644889274232
  0
LINE
  8
_0-3_躯体と製品
  6
CONTINUOUS
 62
    4
 10
241.38366786100346
 20
1486.1418809601937
 11
241.38366786100346
 21
1474.6418809601937
  0
LINE
  8
_0-3_躯体と製品
  6
CONTINUOUS
 62
    4
 10
241.38366786100346
 20
1474.6418809601937
 11
213.67085493991294
 21
1474.6418809601937
  0
LINE
  8
_0-3_躯体と製品
  6
CONTINUOUS
 62
    4
 10
213.67085493991294
 20
1474.6418809601937
 11
213.67085493991294
 21
1486.1418809601937
  0
LINE
  8
_0-3_躯体と製品
  6
CONTINUOUS
 62
    4
 10
234.45546569245312
 20
1455.9418802765049
 11
234.45546569245312
 21
1467.4418802765049
  0
LINE
  8
_0-3_躯体と製品
  6
CONTINUOUS
 62
    4
 10
220.59905923190786
 20
1455.9418802765049
 11
220.59905923190786
 21
1467.4418802765049
  0
LINE
  8
_0-3_躯体と製品
  6
CONTINUOUS
 62
    4
 10
217.13495761677882
 20
1454.4418802765049
 11
237.91956730761126
 21
1454.4418802765049
  0
ARC
  8
_0-3_躯体と製品
  6
CONTINUOUS
 62
    4
 10
217.13495761676427
 20
1459.1918802765117
 40
4.7500000000088578
 50
223.1735511072699
 51
316.82644889273007
  0
ARC
  8
_0-3_躯体と製品
  6
CONTINUOUS
 62
    4
 10
227.52726246218049
 20
1471.1918802765001
 40
16.749999999994436
 50
245.56730232054764
 51
294.43269767945236
  0
ARC
  8
_0-3_躯体と製品
  6
CONTINUOUS
 62
    4
 10
237.91956730759671
 20
1459.1918802765103
 40
4.7500000000079048
 50
223.17355110725768
 51
316.82644889274235
  0
LINE
  8
_0-3_躯体と製品
  6
CONTINUOUS
 62
    4
 10
241.3836689227403
 20
1455.9418802765049
 11
241.3836689227403
 21
1467.4418802765049
  0
LINE
  8
_0-3_躯体と製品
  6
CONTINUOUS
 62
    4
 10
241.3836689227403
 20
1467.4418802765049
 11
213.67085600162068
 21
1467.4418802765049
  0
LINE
  8
_0-3_躯体と製品
  6
CONTINUOUS
 62
    4
 10
213.67085600162068
 20
1467.4418802765049
 11
213.67085600162068
 21
1455.9418802765049
  0
LINE
  8
_0-5_中心線
  6
CENTER1
 62
    7
 10
2802.6519883350047
 20
1308.6418802765158
 11
2802.6519883350047
 21
1780.3478144872911
  0
ARC
  8
_0-3_躯体と製品
  6
CONTINUOUS
 62
    4
 10
2758.3578000485995
 20
1322.2418802765073
 40
1.5999999999912689
 50
270
 51
89.999999999999972
  0
LINE
  8
_0-3_躯体と製品
  6
CONTINUOUS
 62
    4
 10
2758.3578000485995
 20
1323.8418802764986
 11
2727.6519883350111
 21
1323.8418802764986
  0
LINE
  8
_0-3_躯体と製品
  6
CONTINUOUS
 62
    4
 10
2727.6519883350111
 20
1323.8418802764986
 11
2727.6519883350111
 21
1320.6418802765161
  0
LINE
  8
_0-3_躯体と製品
  6
CONTINUOUS
 62
    4
 10
2727.6519883350111
 20
1320.6418802765161
 11
2758.3578000485995
 21
1320.6418802765161
  0
ARC
  8
_0-3_躯体と製品
  6
CONTINUOUS
 62
    4
 10
2758.3578000486168
 20
1327.8418802765095
 40
7.1999999999934747
 50
269.99999999986511
 51
352.31944208863939
  0
LINE
  8
_0-3_躯体と製品
  6
CONTINUOUS
 62
    4
 10
2765.4932060261181
 20
1326.8796009323753
 11
2783.9820621894596
 21
1463.9764799121381
  0
ARC
  8
_0-3_躯体と製品
  6
CONTINUOUS
 62
    4
 10
2787.9461766214081
 20
1463.4418802765042
 40
3.9999999999996962
 50
89.999999999816211
 51
172.31944208859215
  0
LINE
  8
_0-3_躯体と製品
  6
CONTINUOUS
 62
    4
 10
2787.9461766214208
 20
1467.441880276504
 11
2817.3578000485995
 21
1467.441880276504
  0
ARC
  8
_0-3_躯体と製品
  6
CONTINUOUS
 62
    4
 10
2817.3578000486127
 20
1463.441880276504
 40
3.999999999999956
 50
7.680557911411106
 51
90.000000000187057
  0
LINE
  8
_0-3_躯体と製品
  6
CONTINUOUS
 62
    4
 10
2821.3219144805607
 20
1463.9764799121381
 11
2839.8107706439014
 21
1326.8796009323753
  0
ARC
  8
_0-3_躯体と製品
  6
CONTINUOUS
 62
    4
 10
2846.9461766214031
 20
1327.84188027651
 40
7.1999999999939943
 50
187.68055791136422
 51
270.00000000013853
  0
LINE
  8
_0-3_躯体と製品
  6
CONTINUOUS
 62
    4
 10
2846.9461766214208
 20
1320.6418802765161
 11
2877.6519883350102
 21
1320.6418802765161
  0
LINE
  8
_0-3_躯体と製品
  6
CONTINUOUS
 62
    4
 10
2877.6519883350102
 20
1320.6418802765161
 11
2877.6519883350102
 21
1323.8418802764986
  0
LINE
  8
_0-3_躯体と製品
  6
CONTINUOUS
 62
    4
 10
2877.6519883350102
 20
1323.8418802764986
 11
2846.9461766214208
 21
1323.8418802764986
  0
ARC
  8
_0-3_躯体と製品
  6
CONTINUOUS
 62
    4
 10
2846.9461766214208
 20
1322.2418802765073
 40
1.5999999999912689
 50
90
 51
270
  0
LINE
  8
_0-3_躯体と製品
  6
CONTINUOUS
 62
    4
 10
2756.1519883350102
 20
1323.8418802764986
 11
2756.1519883350102
 21
1320.6418802765161
  0
LINE
  8
_0-3_躯体と製品
  6
CONTINUOUS
 62
    4
 10
2849.1519883350102
 20
1323.8418802764986
 11
2849.1519883350102
 21
1320.6418802765161
  0
LINE
  8
_0-3_躯体と製品
  6
CONTINUOUS
 62
    4
 10
2787.9461766214208
 20
1467.441880276504
 11
2786.6519883350102
 21
1470.5246111537458
  0
LINE
  8
_0-3_躯体と製品
  6
CONTINUOUS
 62
    4
 10
2788.6519887417362
 20
1474.6418809601937
 11
2816.6519887791055
 21
1474.6418809601937
  0
LINE
  8
_0-3_躯体と製品
  6
CONTINUOUS
 62
    4
 10
2816.6519887791055
 20
1474.6418809601937
 11
2816.6519887791055
 21
1470.6418809601937
  0
LINE
  8
_0-3_躯体と製品
  6
CONTINUOUS
 62
    4
 10
2816.6519887791055
 20
1470.6418809601937
 11
2788.6519887417362
 21
1470.6418809601937
  0
LINE
  8
_0-3_躯体と製品
  6
CONTINUOUS
 62
    4
 10
2788.6519887417362
 20
1470.6418809601937
 11
2788.6519887417362
 21
1474.6418809601937
  0
LINE
  8
_0-3_躯体と製品
  6
CONTINUOUS
 62
    4
 10
2802.6519879095995
 20
1474.6418809601937
 11
2798.6519879095995
 21
1470.6418809601937
  0
LINE
  8
_0-3_躯体と製品
  6
CONTINUOUS
 62
    4
 10
2806.6519879569805
 20
1474.6418809888901
 11
2802.6519879569805
 21
1470.6418809888901
  0
LINE
  8
_0-3_躯体と製品
  6
CONTINUOUS
 62
    4
 10
2817.3578000485995
 20
1467.441880276504
 11
2818.6519883350102
 21
1470.5246111537458
  0
LINE
  8
_0-3_躯体と製品
  6
CONTINUOUS
 62
    4
 10
2727.6519883350111
 20
1318.6418802765161
 11
2752.6519883350102
 21
1318.6418802765161
  0
LINE
  8
_0-3_躯体と製品
  6
CONTINUOUS
 62
    4
 10
2752.6519883350102
 20
1318.6418802765161
 11
2752.6519883350102
 21
1320.6418802765161
  0
LINE
  8
_0-3_躯体と製品
  6
CONTINUOUS
 62
    4
 10
2752.6519883350102
 20
1320.6418802765161
 11
2727.6519883350111
 21
1320.6418802765161
  0
LINE
  8
_0-3_躯体と製品
  6
CONTINUOUS
 62
    4
 10
2727.6519883350111
 20
1320.6418802765161
 11
2727.6519883350111
 21
1318.6418802765161
  0
LINE
  8
_0-3_躯体と製品
  6
CONTINUOUS
 62
    4
 10
2877.6519883350102
 20
1318.6418802765161
 11
2852.6519883350111
 21
1318.6418802765161
  0
LINE
  8
_0-3_躯体と製品
  6
CONTINUOUS
 62
    4
 10
2852.6519883350111
 20
1318.6418802765161
 11
2852.6519883350111
 21
1320.6418802765161
  0
LINE
  8
_0-3_躯体と製品
  6
CONTINUOUS
 62
    4
 10
2852.6519883350111
 20
1320.6418802765161
 11
2877.6519883350102
 21
1320.6418802765161
  0
LINE
  8
_0-3_躯体と製品
  6
CONTINUOUS
 62
    4
 10
2877.6519883350102
 20
1320.6418802765161
 11
2877.6519883350102
 21
1318.6418802765161
  0
LINE
  8
_0-3_躯体と製品
  6
CONTINUOUS
 62
    4
 10
2850.5127735220285
 20
1323.8418809632033
 11
2832.1990373163117
 21
1459.6402117039438
  0
ARC
  8
_0-3_躯体と製品
  6
CONTINUOUS
 62
    4
 10
2828.2349228920348
 20
1459.1056120114367
 40
3.9999999999987201
 50
7.680558733437878
 51
82.319442910985771
  0
LINE
  8
_0-3_躯体と製品
  6
CONTINUOUS
 62
    4
 10
2828.7695224707695
 20
1463.0697264510568
 11
2824.5972862714825
 21
1463.632393283352
  0
LINE
  8
_0-3_躯体と製品
  6
CONTINUOUS
 62
    4
 10
2824.5972862714825
 20
1463.632393283352
 11
2824.4932060261181
 21
1464.4041596206271
  0
ARC
  8
_0-3_躯体と製品
  6
CONTINUOUS
 62
    4
 10
2817.3578000486141
 20
1463.4418802765242
 40
7.1999999999916735
 50
7.6805579111098083
 51
89.999999999883968
  0
LINE
  8
_0-3_躯体と製品
  6
CONTINUOUS
 62
    4
 10
2817.3578000486286
 20
1470.6418802765161
 11
2787.9461766214208
 21
1470.6418802765161
  0
ARC
  8
_0-3_躯体と製品
  6
CONTINUOUS
 62
    4
 10
2787.9764520848762
 20
1463.3673567247115
 40
7.2745865524746938
 50
90.238454965639789
 51
177.91206638987759
  0
LINE
  8
_0-3_躯体と製品
  6
CONTINUOUS
 62
    4
 10
2780.706695212486
 20
1463.632393563244
 11
2776.5344521270581
 21
1463.0697260763168
  0
ARC
  8
_0-3_躯体と製品
  6
CONTINUOUS
 62
    4
 10
2777.0690517626795
 20
1459.1056116443683
 40
3.9999999999987197
 50
97.680557911233663
 51
172.31944208878156
  0
LINE
  8
_0-3_躯体と製品
  6
CONTINUOUS
 62
    4
 10
2773.1049373307305
 20
1459.6402112799888
 11
2754.7912030733696
 21
1323.8418802764986
  0
LINE
  8
_0-3_躯体と製品
  6
CONTINUOUS
 62
    4
 10
2809.5801946307456
 20
1486.1418809601937
 11
2809.5801946307456
 21
1474.6418809601937
  0
LINE
  8
_0-3_躯体と製品
  6
CONTINUOUS
 62
    4
 10
2795.7237881701722
 20
1486.1418809601937
 11
2795.7237881701722
 21
1474.6418809601937
  0
LINE
  8
_0-3_躯体と製品
  6
CONTINUOUS
 62
    4
 10
2792.2596865550431
 20
1487.6418809601937
 11
2813.0442962458746
 21
1487.6418809601937
  0
ARC
  8
_0-3_躯体と製品
  6
CONTINUOUS
 62
    4
 10
2792.2596865550422
 20
1482.8918809602003
 40
4.7499999999895284
 50
43.173551107269937
 51
136.8264488927301
  0
ARC
  8
_0-3_躯体と製品
  6
CONTINUOUS
 62
    4
 10
2802.6519914004589
 20
1470.8918809601671
 40
16.750000000029068
 50
65.56730232054764
 51
114.43269767945236
  0
ARC
  8
_0-3_躯体と製品
  6
CONTINUOUS
 62
    4
 10
2813.0442962458746
 20
1482.8918809602021
 40
4.749999999987951
 50
43.173551107257659
 51
136.82644889274232
  0
LINE
  8
_0-3_躯体と製品
  6
CONTINUOUS
 62
    4
 10
2816.5083978610037
 20
1486.1418809601937
 11
2816.5083978610037
 21
1474.6418809601937
  0
LINE
  8
_0-3_躯体と製品
  6
CONTINUOUS
 62
    4
 10
2816.5083978610037
 20
1474.6418809601937
 11
2788.7955849399132
 21
1474.6418809601937
  0
LINE
  8
_0-3_躯体と製品
  6
CONTINUOUS
 62
    4
 10
2788.7955849399132
 20
1474.6418809601937
 11
2788.7955849399132
 21
1486.1418809601937
  0
LINE
  8
_0-3_躯体と製品
  6
CONTINUOUS
 62
    4
 10
2809.5801956924533
 20
1455.941880276504
 11
2809.5801956924533
 21
1467.441880276504
  0
LINE
  8
_0-3_躯体と製品
  6
CONTINUOUS
 62
    4
 10
2795.7237892319081
 20
1455.941880276504
 11
2795.7237892319081
 21
1467.441880276504
  0
LINE
  8
_0-3_躯体と製品
  6
CONTINUOUS
 62
    4
 10
2792.259687616779
 20
1454.441880276504
 11
2813.0442973076115
 21
1454.441880276504
  0
ARC
  8
_0-3_躯体と製品
  6
CONTINUOUS
 62
    4
 10
2792.2596876167645
 20
1459.1918802765108
 40
4.7500000000088578
 50
223.1735511072699
 51
316.82644889273007
  0
ARC
  8
_0-3_躯体と製品
  6
CONTINUOUS
 62
    4
 10
2802.6519924621807
 20
1471.1918802764997
 40
16.749999999994987
 50
245.56730232054764
 51
294.43269767945236
  0
ARC
  8
_0-3_躯体と製品
  6
CONTINUOUS
 62
    4
 10
2813.0442973075969
 20
1459.191880276509
 40
4.7500000000072813
 50
223.17355110725768
 51
316.82644889274235
  0
LINE
  8
_0-3_躯体と製品
  6
CONTINUOUS
 62
    4
 10
2816.5083989227396
 20
1455.941880276504
 11
2816.5083989227396
 21
1467.441880276504
  0
LINE
  8
_0-3_躯体と製品
  6
CONTINUOUS
 62
    4
 10
2816.5083989227396
 20
1467.441880276504
 11
2788.7955860016209
 21
1467.441880276504
  0
LINE
  8
_0-3_躯体と製品
  6
CONTINUOUS
 62
    4
 10
2788.7955860016209
 20
1467.441880276504
 11
2788.7955860016209
 21
1455.941880276504
  0
LINE
  8
_0-5_中心線
  6
CENTER1
 62
    7
 10
2052.6519883350047
 20
1308.6418802765158
 11
2052.6519883350047
 21
1780.3478144872911
  0
ARC
  8
_0-3_躯体と製品
  6
CONTINUOUS
 62
    4
 10
2008.3578000485988
 20
1322.2418802765073
 40
1.5999999999912689
 50
270
 51
89.999999999999972
  0
LINE
  8
_0-3_躯体と製品
  6
CONTINUOUS
 62
    4
 10
2008.3578000485988
 20
1323.8418802764986
 11
1977.6519883350097
 21
1323.8418802764986
  0
LINE
  8
_0-3_躯体と製品
  6
CONTINUOUS
 62
    4
 10
1977.6519883350097
 20
1323.8418802764986
 11
1977.6519883350097
 21
1320.6418802765161
  0
LINE
  8
_0-3_躯体と製品
  6
CONTINUOUS
 62
    4
 10
1977.6519883350097
 20
1320.6418802765161
 11
2008.3578000485988
 21
1320.6418802765161
  0
ARC
  8
_0-3_躯体と製品
  6
CONTINUOUS
 62
    4
 10
2008.3578000486164
 20
1327.84188027651
 40
7.1999999999939943
 50
269.99999999986153
 51
352.31944208863581
  0
LINE
  8
_0-3_躯体と製品
  6
CONTINUOUS
 62
    4
 10
2015.4932060261178
 20
1326.8796009323753
 11
2033.9820621894587
 21
1463.9764799121381
  0
ARC
  8
_0-3_躯体と製品
  6
CONTINUOUS
 62
    4
 10
2037.9461766214072
 20
1463.4418802765035
 40
4.000000000000477
 50
89.999999999806448
 51
172.31944208858241
  0
LINE
  8
_0-3_躯体と製品
  6
CONTINUOUS
 62
    4
 10
2037.9461766214208
 20
1467.441880276504
 11
2067.3578000485986
 21
1467.441880276504
  0
ARC
  8
_0-3_躯体と製品
  6
CONTINUOUS
 62
    4
 10
2067.3578000486123
 20
1463.4418802765035
 40
4.0000000000003464
 50
7.680557911415991
 51
90.000000000191946
  0
LINE
  8
_0-3_躯体と製品
  6
CONTINUOUS
 62
    4
 10
2071.3219144805607
 20
1463.9764799121381
 11
2089.8107706439018
 21
1326.8796009323753
  0
ARC
  8
_0-3_躯体と製品
  6
CONTINUOUS
 62
    4
 10
2096.9461766214035
 20
1327.84188027651
 40
7.1999999999939943
 50
187.68055791136422
 51
270.00000000013853
  0
LINE
  8
_0-3_躯体と製品
  6
CONTINUOUS
 62
    4
 10
2096.9461766214208
 20
1320.6418802765161
 11
2127.6519883350097
 21
1320.6418802765161
  0
LINE
  8
_0-3_躯体と製品
  6
CONTINUOUS
 62
    4
 10
2127.6519883350097
 20
1320.6418802765161
 11
2127.6519883350097
 21
1323.8418802764986
  0
LINE
  8
_0-3_躯体と製品
  6
CONTINUOUS
 62
    4
 10
2127.6519883350097
 20
1323.8418802764986
 11
2096.9461766214208
 21
1323.8418802764986
  0
ARC
  8
_0-3_躯体と製品
  6
CONTINUOUS
 62
    4
 10
2096.9461766214208
 20
1322.2418802765073
 40
1.5999999999912689
 50
90
 51
270
  0
LINE
  8
_0-3_躯体と製品
  6
CONTINUOUS
 62
    4
 10
2006.1519883350097
 20
1323.8418802764986
 11
2006.1519883350097
 21
1320.6418802765161
  0
LINE
  8
_0-3_躯体と製品
  6
CONTINUOUS
 62
    4
 10
2099.1519883350097
 20
1323.8418802764986
 11
2099.1519883350097
 21
1320.6418802765161
  0
LINE
  8
_0-3_躯体と製品
  6
CONTINUOUS
 62
    4
 10
2037.9461766214208
 20
1467.441880276504
 11
2036.6519883350097
 21
1470.5246111537458
  0
LINE
  8
_0-3_躯体と製品
  6
CONTINUOUS
 62
    4
 10
2038.6519887417357
 20
1474.6418809601937
 11
2066.6519887791055
 21
1474.6418809601937
  0
LINE
  8
_0-3_躯体と製品
  6
CONTINUOUS
 62
    4
 10
2066.6519887791055
 20
1474.6418809601937
 11
2066.6519887791055
 21
1470.6418809601937
  0
LINE
  8
_0-3_躯体と製品
  6
CONTINUOUS
 62
    4
 10
2066.6519887791055
 20
1470.6418809601937
 11
2038.6519887417357
 21
1470.6418809601937
  0
LINE
  8
_0-3_躯体と製品
  6
CONTINUOUS
 62
    4
 10
2038.6519887417357
 20
1470.6418809601937
 11
2038.6519887417357
 21
1474.6418809601937
  0
LINE
  8
_0-3_躯体と製品
  6
CONTINUOUS
 62
    4
 10
2052.6519879095986
 20
1474.6418809601937
 11
2048.6519879095986
 21
1470.6418809601937
  0
LINE
  8
_0-3_躯体と製品
  6
CONTINUOUS
 62
    4
 10
2056.6519879569796
 20
1474.6418809888901
 11
2052.6519879569805
 21
1470.6418809888901
  0
LINE
  8
_0-3_躯体と製品
  6
CONTINUOUS
 62
    4
 10
2067.3578000485986
 20
1467.441880276504
 11
2068.6519883350097
 21
1470.5246111537458
  0
LINE
  8
_0-3_躯体と製品
  6
CONTINUOUS
 62
    4
 10
1977.6519883350097
 20
1318.6418802765161
 11
2002.6519883350097
 21
1318.6418802765161
  0
LINE
  8
_0-3_躯体と製品
  6
CONTINUOUS
 62
    4
 10
2002.6519883350097
 20
1318.6418802765161
 11
2002.6519883350097
 21
1320.6418802765161
  0
LINE
  8
_0-3_躯体と製品
  6
CONTINUOUS
 62
    4
 10
2002.6519883350097
 20
1320.6418802765161
 11
1977.6519883350097
 21
1320.6418802765161
  0
LINE
  8
_0-3_躯体と製品
  6
CONTINUOUS
 62
    4
 10
1977.6519883350097
 20
1320.6418802765161
 11
1977.6519883350097
 21
1318.6418802765161
  0
LINE
  8
_0-3_躯体と製品
  6
CONTINUOUS
 62
    4
 10
2127.6519883350097
 20
1318.6418802765161
 11
2102.6519883350097
 21
1318.6418802765161
  0
LINE
  8
_0-3_躯体と製品
  6
CONTINUOUS
 62
    4
 10
2102.6519883350097
 20
1318.6418802765161
 11
2102.6519883350097
 21
1320.6418802765161
  0
LINE
  8
_0-3_躯体と製品
  6
CONTINUOUS
 62
    4
 10
2102.6519883350097
 20
1320.6418802765161
 11
2127.6519883350097
 21
1320.6418802765161
  0
LINE
  8
_0-3_躯体と製品
  6
CONTINUOUS
 62
    4
 10
2127.6519883350097
 20
1320.6418802765161
 11
2127.6519883350097
 21
1318.6418802765161
  0
LINE
  8
_0-3_躯体と製品
  6
CONTINUOUS
 62
    4
 10
2100.5127735220285
 20
1323.8418809632033
 11
2082.1990373163117
 21
1459.6402117039438
  0
ARC
  8
_0-3_躯体と製品
  6
CONTINUOUS
 62
    4
 10
2078.2349228920343
 20
1459.1056120114363
 40
3.999999999999118
 50
7.680558733443573
 51
82.319442910991469
  0
LINE
  8
_0-3_躯体と製品
  6
CONTINUOUS
 62
    4
 10
2078.7695224707686
 20
1463.0697264510568
 11
2074.5972862714816
 21
1463.632393283352
  0
LINE
  8
_0-3_躯体と製品
  6
CONTINUOUS
 62
    4
 10
2074.5972862714816
 20
1463.632393283352
 11
2074.4932060261181
 21
1464.4041596206271
  0
ARC
  8
_0-3_躯体と製品
  6
CONTINUOUS
 62
    4
 10
2067.3578000486136
 20
1463.4418802765235
 40
7.1999999999923228
 50
7.6805579111143292
 51
89.999999999888502
  0
LINE
  8
_0-3_躯体と製品
  6
CONTINUOUS
 62
    4
 10
2067.3578000486277
 20
1470.6418802765161
 11
2037.9461766214208
 21
1470.6418802765161
  0
ARC
  8
_0-3_躯体と製品
  6
CONTINUOUS
 62
    4
 10
2037.9764520848762
 20
1463.3673567247113
 40
7.2745865524748119
 50
90.238454965638923
 51
177.91206638987671
  0
LINE
  8
_0-3_躯体と製品
  6
CONTINUOUS
 62
    4
 10
2030.7066952124858
 20
1463.632393563244
 11
2026.5344521270579
 21
1463.0697260763168
  0
ARC
  8
_0-3_躯体と製品
  6
CONTINUOUS
 62
    4
 10
2027.069051762679
 20
1459.1056116443679
 40
3.9999999999992499
 50
97.680557911226032
 51
172.31944208877391
  0
LINE
  8
_0-3_躯体と製品
  6
CONTINUOUS
 62
    4
 10
2023.1049373307299
 20
1459.6402112799888
 11
2004.7912030733687
 21
1323.8418802764986
  0
LINE
  8
_0-3_躯体と製品
  6
CONTINUOUS
 62
    4
 10
2059.5801946307447
 20
1486.1418809601937
 11
2059.5801946307447
 21
1474.6418809601937
  0
LINE
  8
_0-3_躯体と製品
  6
CONTINUOUS
 62
    4
 10
2045.7237881701708
 20
1486.1418809601937
 11
2045.7237881701708
 21
1474.6418809601937
  0
LINE
  8
_0-3_躯体と製品
  6
CONTINUOUS
 62
    4
 10
2042.2596865550418
 20
1487.6418809601937
 11
2063.0442962458737
 21
1487.6418809601937
  0
ARC
  8
_0-3_躯体と製品
  6
CONTINUOUS
 62
    4
 10
2042.2596865550418
 20
1482.8918809602008
 40
4.749999999988904
 50
43.173551107269937
 51
136.8264488927301
  0
ARC
  8
_0-3_躯体と製品
  6
CONTINUOUS
 62
    4
 10
2052.6519914004575
 20
1470.8918809601671
 40
16.750000000029068
 50
65.56730232054764
 51
114.43269767945236
  0
ARC
  8
_0-3_躯体と製品
  6
CONTINUOUS
 62
    4
 10
2063.0442962458742
 20
1482.8918809602017
 40
4.7499999999885745
 50
43.173551107257659
 51
136.82644889274232
  0
LINE
  8
_0-3_躯体と製品
  6
CONTINUOUS
 62
    4
 10
2066.5083978610037
 20
1486.1418809601937
 11
2066.5083978610037
 21
1474.6418809601937
  0
LINE
  8
_0-3_躯体と製品
  6
CONTINUOUS
 62
    4
 10
2066.5083978610037
 20
1474.6418809601937
 11
2038.7955849399127
 21
1474.6418809601937
  0
LINE
  8
_0-3_躯体と製品
  6
CONTINUOUS
 62
    4
 10
2038.7955849399127
 20
1474.6418809601937
 11
2038.7955849399127
 21
1486.1418809601937
  0
LINE
  8
_0-3_躯体と製品
  6
CONTINUOUS
 62
    4
 10
2059.5801956924524
 20
1455.941880276504
 11
2059.5801956924524
 21
1467.441880276504
  0
LINE
  8
_0-3_躯体と製品
  6
CONTINUOUS
 62
    4
 10
2045.7237892319079
 20
1455.941880276504
 11
2045.7237892319079
 21
1467.441880276504
  0
LINE
  8
_0-3_躯体と製品
  6
CONTINUOUS
 62
    4
 10
2042.2596876167788
 20
1454.441880276504
 11
2063.0442973076115
 21
1454.441880276504
  0
ARC
  8
_0-3_躯体と製品
  6
CONTINUOUS
 62
    4
 10
2042.2596876167643
 20
1459.1918802765108
 40
4.7500000000088578
 50
223.1735511072699
 51
316.82644889273007
  0
ARC
  8
_0-3_躯体と製品
  6
CONTINUOUS
 62
    4
 10
2052.6519924621803
 20
1471.1918802764988
 40
16.749999999993886
 50
245.56730232054764
 51
294.43269767945236
  0
ARC
  8
_0-3_躯体と製品
  6
CONTINUOUS
 62
    4
 10
2063.044297307596
 20
1459.1918802765094
 40
4.7500000000079048
 50
223.17355110725768
 51
316.82644889274235
  0
LINE
  8
_0-3_躯体と製品
  6
CONTINUOUS
 62
    4
 10
2066.5083989227396
 20
1455.941880276504
 11
2066.5083989227396
 21
1467.441880276504
  0
LINE
  8
_0-3_躯体と製品
  6
CONTINUOUS
 62
    4
 10
2066.5083989227396
 20
1467.441880276504
 11
2038.7955860016207
 21
1467.441880276504
  0
LINE
  8
_0-3_躯体と製品
  6
CONTINUOUS
 62
    4
 10
2038.7955860016207
 20
1467.441880276504
 11
2038.7955860016207
 21
1455.941880276504
  0
LINE
  8
_0-5_中心線
  6
CENTER1
 62
    7
 10
1018.3740559031423
 20
136.06320518455323
 11
1018.3740559031422
 21
611.07277419592606
  0
LINE
  8
_0-3_躯体と製品
  6
CONTINUOUS
 62
    4
 10
1004.3740546183865
 20
305.36684126991042
 11
1032.3740546557558
 21
305.36684126991042
  0
LINE
  8
_0-3_躯体と製品
  6
CONTINUOUS
 62
    4
 10
1032.3740546557558
 20
305.36684126991042
 11
1032.3740546557558
 21
301.36684126991042
  0
LINE
  8
_0-3_躯体と製品
  6
CONTINUOUS
 62
    4
 10
1032.3740546557558
 20
301.36684126991042
 11
1004.3740546183865
 21
301.36684126991042
  0
LINE
  8
_0-3_躯体と製品
  6
CONTINUOUS
 62
    4
 10
1004.3740546183865
 20
301.36684126991042
 11
1004.3740546183865
 21
305.36684126991042
  0
LINE
  8
_0-3_躯体と製品
  6
CONTINUOUS
 62
    4
 10
1018.3740546370711
 20
305.36684126991042
 11
1022.374054637071
 21
301.36684126991042
  0
LINE
  8
_0-3_躯体と製品
  6
CONTINUOUS
 62
    4
 10
1014.3740545896901
 20
305.3668412986068
 11
1018.3740545896901
 21
301.3668412986068
  0
LINE
  8
_0-3_躯体と製品
  6
CONTINUOUS
 62
    4
 10
1043.374055903146
 20
154.56683998513358
 11
1043.374055903146
 21
294.35735327187899
  0
LINE
  8
_0-3_躯体と製品
  6
CONTINUOUS
 62
    4
 10
1043.374055903146
 20
294.35735327187899
 11
993.37405590314597
 21
294.35735327187899
  0
LINE
  8
_0-3_躯体と製品
  6
CONTINUOUS
 62
    4
 10
993.37405590314597
 20
294.35735327187899
 11
993.37405590314597
 21
154.56683998513358
  0
LINE
  8
_0-3_躯体と製品
  6
CONTINUOUS
 62
    4
 10
988.37405590314597
 20
151.36683998515082
 11
1048.3740559031462
 21
151.36683998515082
  0
LINE
  8
_0-3_躯体と製品
  6
CONTINUOUS
 62
    4
 10
1048.3740559031462
 20
151.36683998515082
 11
1048.3740559031462
 21
154.56683998513358
  0
LINE
  8
_0-3_躯体と製品
  6
CONTINUOUS
 62
    4
 10
1048.3740559031462
 20
154.56683998513358
 11
988.37405590314597
 21
154.56683998513358
  0
LINE
  8
_0-3_躯体と製品
  6
CONTINUOUS
 62
    4
 10
988.37405590314597
 20
154.56683998513358
 11
988.37405590314597
 21
151.36683998515082
  0
LINE
  8
_0-3_躯体と製品
  6
CONTINUOUS
 62
    4
 10
996.57405590315761
 20
301.36683998515093
 11
996.57405590315761
 21
154.56683998513358
  0
LINE
  8
_0-3_躯体と製品
  6
CONTINUOUS
 62
    4
 10
1040.1740559031341
 20
301.36683998515093
 11
1040.1740559031341
 21
154.56683998513358
  0
LINE
  8
_0-3_躯体と製品
  6
CONTINUOUS
 62
    4
 10
996.57405590315761
 20
298.16683998513929
 11
988.37405590314597
 21
298.16683998513929
  0
LINE
  8
_0-3_躯体と製品
  6
CONTINUOUS
 62
    4
 10
988.37405590314597
 20
298.16683998513929
 11
988.37405590314597
 21
301.36683998515093
  0
LINE
  8
_0-3_躯体と製品
  6
CONTINUOUS
 62
    4
 10
988.37405590314597
 20
301.36683998515093
 11
1048.3740559031462
 21
301.36683998515093
  0
LINE
  8
_0-3_躯体と製品
  6
CONTINUOUS
 62
    4
 10
1048.3740559031462
 20
301.36683998515093
 11
1048.3740559031462
 21
298.16683998513929
  0
LINE
  8
_0-3_躯体と製品
  6
CONTINUOUS
 62
    4
 10
1048.3740559031462
 20
298.16683998513929
 11
1040.1740559031341
 21
298.16683998513929
  0
LINE
  8
_0-3_躯体と製品
  6
CONTINUOUS
 62
    4
 10
1048.3740559031462
 20
149.36683998515082
 11
988.37405590314597
 21
149.36683998515082
  0
LINE
  8
_0-3_躯体と製品
  6
CONTINUOUS
 62
    4
 10
988.37405590314597
 20
149.36683998515082
 11
988.37405590314597
 21
151.36683998515082
  0
LINE
  8
_0-3_躯体と製品
  6
CONTINUOUS
 62
    4
 10
988.37405590314597
 20
151.36683998515082
 11
1048.3740559031462
 21
151.36683998515082
  0
LINE
  8
_0-3_躯体と製品
  6
CONTINUOUS
 62
    4
 10
1048.3740559031462
 20
151.36683998515082
 11
1048.3740559031462
 21
149.36683998515082
  0
LINE
  8
_0-3_躯体と製品
  6
CONTINUOUS
 62
    4
 10
1012.3734882276069
 20
318.36684105887866
 11
1024.3740535317077
 21
318.36684099586887
  0
LINE
  8
_0-3_躯体と製品
  6
CONTINUOUS
 62
    4
 10
1006.3740535688441
 20
305.36684135599967
 11
1006.3740535688441
 21
316.8668410273882
  0
ARC
  8
_0-3_躯体と製品
  6
CONTINUOUS
 62
    4
 10
1012.3740535399004
 20
305.61684151753173
 40
12.749999553899828
 50
61.927512142394527
 51
118.07248785760547
  0
ARC
  8
_0-3_躯体と製品
  6
CONTINUOUS
 62
    4
 10
1024.3740535399004
 20
305.61684064375913
 40
12.750000352116842
 50
61.927513760650953
 51
118.07248623934905
  0
LINE
  8
_0-3_躯体と製品
  6
CONTINUOUS
 62
    4
 10
1030.3740535688441
 20
316.8668410273882
 11
1030.3740535688441
 21
305.36684118382129
  0
LINE
  8
_0-3_躯体と製品
  6
CONTINUOUS
 62
    4
 10
1018.3740535002173
 20
316.8668410273882
 11
1018.3740534210258
 21
305.36684126991042
  0
LINE
  8
_0-5_中心線
  6
CENTER1
 62
    7
 10
277.52725833500472
 20
136.06320518455323
 11
277.52725833500449
 21
611.07277419592629
  0
LINE
  8
_0-3_躯体と製品
  6
CONTINUOUS
 62
    4
 10
263.52725705024886
 20
305.36684126991054
 11
291.52725708761818
 21
305.36684126991054
  0
LINE
  8
_0-3_躯体と製品
  6
CONTINUOUS
 62
    4
 10
291.52725708761818
 20
305.36684126991054
 11
291.52725708761818
 21
301.36684126991054
  0
LINE
  8
_0-3_躯体と製品
  6
CONTINUOUS
 62
    4
 10
291.52725708761818
 20
301.36684126991054
 11
263.52725705024886
 21
301.36684126991054
  0
LINE
  8
_0-3_躯体と製品
  6
CONTINUOUS
 62
    4
 10
263.52725705024886
 20
301.36684126991054
 11
263.52725705024886
 21
305.36684126991054
  0
LINE
  8
_0-3_躯体と製品
  6
CONTINUOUS
 62
    4
 10
277.52725706893352
 20
305.36684126991054
 11
281.52725706893352
 21
301.36684126991054
  0
LINE
  8
_0-3_躯体と製品
  6
CONTINUOUS
 62
    4
 10
273.52725702155226
 20
305.36684129860691
 11
277.52725702155249
 21
301.36684129860691
  0
LINE
  8
_0-3_躯体と製品
  6
CONTINUOUS
 62
    4
 10
302.52725833500836
 20
154.56683998513358
 11
302.52725833500836
 21
294.35735327187899
  0
LINE
  8
_0-3_躯体と製品
  6
CONTINUOUS
 62
    4
 10
302.52725833500836
 20
294.35735327187899
 11
252.52725833500813
 21
294.35735327187899
  0
LINE
  8
_0-3_躯体と製品
  6
CONTINUOUS
 62
    4
 10
252.52725833500813
 20
294.35735327187899
 11
252.52725833500813
 21
154.56683998513358
  0
LINE
  8
_0-3_躯体と製品
  6
CONTINUOUS
 62
    4
 10
247.52725833500836
 20
151.36683998515105
 11
307.52725833500836
 21
151.36683998515105
  0
LINE
  8
_0-3_躯体と製品
  6
CONTINUOUS
 62
    4
 10
307.52725833500836
 20
151.36683998515105
 11
307.52725833500836
 21
154.56683998513358
  0
LINE
  8
_0-3_躯体と製品
  6
CONTINUOUS
 62
    4
 10
307.52725833500836
 20
154.56683998513358
 11
247.52725833500836
 21
154.56683998513358
  0
LINE
  8
_0-3_躯体と製品
  6
CONTINUOUS
 62
    4
 10
247.52725833500836
 20
154.56683998513358
 11
247.52725833500836
 21
151.36683998515105
  0
LINE
  8
_0-3_躯体と製品
  6
CONTINUOUS
 62
    4
 10
255.72725833501977
 20
301.36683998515105
 11
255.72725833501977
 21
154.56683998513358
  0
LINE
  8
_0-3_躯体と製品
  6
CONTINUOUS
 62
    4
 10
299.32725833499671
 20
301.36683998515105
 11
299.32725833499671
 21
154.56683998513358
  0
LINE
  8
_0-3_躯体と製品
  6
CONTINUOUS
 62
    4
 10
255.72725833501977
 20
298.1668399851394
 11
247.52725833500836
 21
298.1668399851394
  0
LINE
  8
_0-3_躯体と製品
  6
CONTINUOUS
 62
    4
 10
247.52725833500836
 20
298.1668399851394
 11
247.52725833500836
 21
301.36683998515105
  0
LINE
  8
_0-3_躯体と製品
  6
CONTINUOUS
 62
    4
 10
247.52725833500836
 20
301.36683998515105
 11
307.52725833500836
 21
301.36683998515105
  0
LINE
  8
_0-3_躯体と製品
  6
CONTINUOUS
 62
    4
 10
307.52725833500836
 20
301.36683998515105
 11
307.52725833500836
 21
298.1668399851394
  0
LINE
  8
_0-3_躯体と製品
  6
CONTINUOUS
 62
    4
 10
307.52725833500836
 20
298.1668399851394
 11
299.32725833499671
 21
298.1668399851394
  0
LINE
  8
_0-3_躯体と製品
  6
CONTINUOUS
 62
    4
 10
307.52725833500836
 20
149.36683998515105
 11
247.52725833500836
 21
149.36683998515105
  0
LINE
  8
_0-3_躯体と製品
  6
CONTINUOUS
 62
    4
 10
247.52725833500836
 20
149.36683998515105
 11
247.52725833500836
 21
151.36683998515105
  0
LINE
  8
_0-3_躯体と製品
  6
CONTINUOUS
 62
    4
 10
247.52725833500836
 20
151.36683998515105
 11
307.52725833500836
 21
151.36683998515105
  0
LINE
  8
_0-3_躯体と製品
  6
CONTINUOUS
 62
    4
 10
307.52725833500836
 20
151.36683998515105
 11
307.52725833500836
 21
149.36683998515105
  0
LINE
  8
_0-3_躯体と製品
  6
CONTINUOUS
 62
    4
 10
271.52669065946907
 20
318.36684105887866
 11
283.52725596357004
 21
318.36684099586887
  0
LINE
  8
_0-3_躯体と製品
  6
CONTINUOUS
 62
    4
 10
265.52725600070653
 20
305.36684135599967
 11
265.52725600070653
 21
316.86684102738832
  0
ARC
  8
_0-3_躯体と製品
  6
CONTINUOUS
 62
    4
 10
271.52725597176277
 20
305.61684151753173
 40
12.749999553899949
 50
61.927512142394527
 51
118.07248785760547
  0
ARC
  8
_0-3_躯体と製品
  6
CONTINUOUS
 62
    4
 10
283.52725597176277
 20
305.61684064375936
 40
12.750000352116722
 50
61.927513760650953
 51
118.07248623934905
  0
LINE
  8
_0-3_躯体と製品
  6
CONTINUOUS
 62
    4
 10
289.52725600070653
 20
316.86684102738832
 11
289.52725600070653
 21
305.36684118382141
  0
LINE
  8
_0-3_躯体と製品
  6
CONTINUOUS
 62
    4
 10
277.5272559320797
 20
316.86684102738832
 11
277.52725585288817
 21
305.36684126991054
  0
LINE
  8
_0-3_躯体と製品
  6
CONTINUOUS
 62
    4
 10
1134.3740559031421
 20
585.36683998515127
 11
1202.3740559031423
 21
585.36683998515127
  0
LINE
  8
_0-3_躯体と製品
  6
CONTINUOUS
 62
    4
 10
1202.3740559031423
 20
585.36683998515127
 11
1202.3740559031423
 21
592.36683998515127
  0
LINE
  8
_0-3_躯体と製品
  6
CONTINUOUS
 62
    4
 10
1202.3740559031423
 20
592.36683998515127
 11
1197.3740559031421
 21
592.36683998515127
  0
LINE
  8
_0-3_躯体と製品
  6
CONTINUOUS
 62
    4
 10
1197.3740559031421
 20
592.36683998515127
 11
1197.3740559031421
 21
590.36683998515127
  0
LINE
  8
_0-3_躯体と製品
  6
CONTINUOUS
 62
    4
 10
1197.3740559031421
 20
590.36683998515127
 11
1200.3740559031421
 21
590.36683998515127
  0
LINE
  8
_0-3_躯体と製品
  6
CONTINUOUS
 62
    4
 10
1200.3740559031421
 20
590.36683998515127
 11
1200.3740559031421
 21
587.36683998515127
  0
LINE
  8
_0-3_躯体と製品
  6
CONTINUOUS
 62
    4
 10
1200.3740559031421
 20
587.36683998515127
 11
1136.3740559031423
 21
587.36683998515127
  0
LINE
  8
_0-3_躯体と製品
  6
CONTINUOUS
 62
    4
 10
1136.3740559031423
 20
587.36683998515127
 11
1136.3740559031423
 21
590.36683998515127
  0
LINE
  8
_0-3_躯体と製品
  6
CONTINUOUS
 62
    4
 10
1136.3740559031423
 20
590.36683998515127
 11
1139.3740559031421
 21
590.36683998515127
  0
LINE
  8
_0-3_躯体と製品
  6
CONTINUOUS
 62
    4
 10
1139.3740559031421
 20
590.36683998515127
 11
1139.3740559031421
 21
592.36683998515127
  0
LINE
  8
_0-3_躯体と製品
  6
CONTINUOUS
 62
    4
 10
1139.3740559031421
 20
592.36683998515127
 11
1134.3740559031421
 21
592.36683998515127
  0
LINE
  8
_0-3_躯体と製品
  6
CONTINUOUS
 62
    4
 10
1134.3740559031421
 20
592.36683998515127
 11
1134.3740559031421
 21
585.36683998515127
  0
ARC
  8
_0-3_躯体と製品
  6
CONTINUOUS
 62
    4
 10
1184.1740559031423
 20
614.66683998515134
 40
1.6999999999999318
 50
359.99999999999613
 51
89.999999999996177
  0
LINE
  8
_0-3_躯体と製品
  6
CONTINUOUS
 62
    4
 10
1185.8740559031421
 20
614.66683998515123
 11
1185.8740559031421
 21
589.06683998515143
  0
ARC
  8
_0-3_躯体と製品
  6
CONTINUOUS
 62
    4
 10
1186.3740559031423
 20
589.06683998515143
 40
0.5000000000000567
 50
180.00000000000651
 51
270.00000000000654
  0
LINE
  8
_0-3_躯体と製品
  6
CONTINUOUS
 62
    4
 10
1186.3740559031423
 20
588.56683998515143
 11
1198.6740559031423
 21
588.56683998515143
  0
ARC
  8
_0-3_躯体と製品
  6
CONTINUOUS
 62
    4
 10
1198.6740559031423
 20
589.06683998515143
 40
0.4999999999999431
 50
270.00000000000648
 51
0.0000000000065264
  0
LINE
  8
_0-3_躯体と製品
  6
CONTINUOUS
 62
    4
 10
1199.1740559031423
 20
589.06683998515143
 11
1199.1740559031423
 21
590.36683998515127
  0
LINE
  8
_0-3_躯体と製品
  6
CONTINUOUS
 62
    4
 10
1199.1740559031423
 20
590.36683998515127
 11
1200.3740559031421
 21
590.36683998515127
  0
LINE
  8
_0-3_躯体と製品
  6
CONTINUOUS
 62
    4
 10
1200.3740559031421
 20
590.36683998515127
 11
1200.3740559031421
 21
589.06683998515143
  0
ARC
  8
_0-3_躯体と製品
  6
CONTINUOUS
 62
    4
 10
1198.6740559031423
 20
589.06683998515132
 40
1.7000000000000455
 50
270.00000000000381
 51
0.000000000003827
  0
LINE
  8
_0-3_躯体と製品
  6
CONTINUOUS
 62
    4
 10
1198.6740559031423
 20
587.36683998515127
 11
1186.3740559031423
 21
587.36683998515127
  0
ARC
  8
_0-3_躯体と製品
  6
CONTINUOUS
 62
    4
 10
1186.3740559031423
 20
589.06683998515132
 40
1.7000000000001023
 50
179.99999999999807
 51
269.99999999999807
  0
LINE
  8
_0-3_躯体と製品
  6
CONTINUOUS
 62
    4
 10
1184.6740559031423
 20
589.06683998515143
 11
1184.6740559031423
 21
614.66683998515123
  0
ARC
  8
_0-3_躯体と製品
  6
CONTINUOUS
 62
    4
 10
1184.1740559031423
 20
614.66683998515134
 40
0.4999999999999431
 50
359.99999999999352
 51
89.999999999993506
  0
LINE
  8
_0-3_躯体と製品
  6
CONTINUOUS
 62
    4
 10
1184.1740559031423
 20
615.16683998515123
 11
1152.5740559031424
 21
615.16683998515123
  0
ARC
  8
_0-3_躯体と製品
  6
CONTINUOUS
 62
    4
 10
1152.5740559031424
 20
614.66683998515123
 40
0.4999999999999431
 50
90.000000000006509
 51
180.00000000000651
  0
LINE
  8
_0-3_躯体と製品
  6
CONTINUOUS
 62
    4
 10
1152.0740559031424
 20
614.66683998515123
 11
1152.0740559031424
 21
589.06683998515143
  0
ARC
  8
_0-3_躯体と製品
  6
CONTINUOUS
 62
    4
 10
1150.3740559031421
 20
589.06683998515143
 40
1.7000000000001592
 50
270
 51
0
  0
LINE
  8
_0-3_躯体と製品
  6
CONTINUOUS
 62
    4
 10
1150.3740559031421
 20
587.36683998515127
 11
1138.0740559031424
 21
587.36683998515127
  0
ARC
  8
_0-3_躯体と製品
  6
CONTINUOUS
 62
    4
 10
1138.0740559031424
 20
589.06683998515132
 40
1.7000000000000455
 50
179.99999999999619
 51
269.99999999999619
  0
LINE
  8
_0-3_躯体と製品
  6
CONTINUOUS
 62
    4
 10
1136.3740559031423
 20
589.06683998515143
 11
1136.3740559031423
 21
590.36683998515127
  0
LINE
  8
_0-3_躯体と製品
  6
CONTINUOUS
 62
    4
 10
1136.3740559031423
 20
590.36683998515127
 11
1137.5740559031424
 21
590.36683998515127
  0
LINE
  8
_0-3_躯体と製品
  6
CONTINUOUS
 62
    4
 10
1137.5740559031424
 20
590.36683998515127
 11
1137.5740559031424
 21
589.06683998515143
  0
ARC
  8
_0-3_躯体と製品
  6
CONTINUOUS
 62
    4
 10
1138.0740559031424
 20
589.06683998515132
 40
0.4999999999999431
 50
179.99999999999349
 51
269.99999999999346
  0
LINE
  8
_0-3_躯体と製品
  6
CONTINUOUS
 62
    4
 10
1138.0740559031424
 20
588.56683998515143
 11
1150.3740559031421
 21
588.56683998515143
  0
ARC
  8
_0-3_躯体と製品
  6
CONTINUOUS
 62
    4
 10
1150.3740559031423
 20
589.06683998515143
 40
0.5000000000000567
 50
269.99999999999352
 51
359.99999999999352
  0
LINE
  8
_0-3_躯体と製品
  6
CONTINUOUS
 62
    4
 10
1150.8740559031423
 20
589.06683998515143
 11
1150.8740559031423
 21
614.66683998515123
  0
ARC
  8
_0-3_躯体と製品
  6
CONTINUOUS
 62
    4
 10
1152.5740559031424
 20
614.66683998515134
 40
1.6999999999999884
 50
90.000000000001876
 51
180.0000000000019
  0
LINE
  8
_0-3_躯体と製品
  6
CONTINUOUS
 62
    4
 10
1152.5740559031424
 20
616.36683998515127
 11
1184.1740559031423
 21
616.36683998515127
  0
LINE
  8
_0-3_躯体と製品
  6
CONTINUOUS
 62
    4
 10
1147.5750559031246
 20
589.21583998515632
 11
1147.5750559031246
 21
588.76683998516296
  0
LINE
  8
_0-3_躯体と製品
  6
CONTINUOUS
 62
    4
 10
1139.5750559031246
 20
589.21583998515632
 11
1139.5750559031246
 21
588.76683998516296
  0
LINE
  8
_0-3_躯体と製品
  6
CONTINUOUS
 62
    4
 10
1147.3750559031421
 20
588.56683998515143
 11
1143.5750559031246
 21
588.56683998515143
  0
ARC
  8
_0-3_躯体と製品
  6
CONTINUOUS
 62
    4
 10
1139.7750559031274
 20
588.76683998515432
 40
0.200000000002911
 50
180.00000600059479
 51
269.99999700095344
  0
LINE
  8
_0-3_躯体と製品
  6
CONTINUOUS
 62
    4
 10
1139.775055903136
 20
588.56683998515143
 11
1143.5750559031246
 21
588.56683998515143
  0
ARC
  8
_0-3_躯体と製品
  6
CONTINUOUS
 62
    4
 10
1147.3750559031391
 20
588.76683998516603
 40
0.200000000014552
 50
269.99999699925326
 51
359.99999999913371
  0
LINE
  8
_0-3_躯体と製品
  6
CONTINUOUS
 62
    4
 10
1147.3400559031388
 20
590.36683998516878
 11
1143.5750559031246
 21
590.36683998516878
  0
ARC
  8
_0-3_躯体と製品
  6
CONTINUOUS
 62
    4
 10
1144.1220559030944
 20
586.77883998515347
 40
4.818999999996727
 50
48.111754999079913
 51
96.517442000062061
  0
LINE
  8
_0-3_躯体と製品
  6
CONTINUOUS
 62
    4
 10
1139.8100559031395
 20
590.36683998516878
 11
1139.5750559031246
 21
589.21583998515632
  0
ARC
  8
_0-3_躯体と製品
  6
CONTINUOUS
 62
    4
 10
1143.0280559031426
 20
586.7788399851479
 40
4.8190000000168087
 50
83.482563001158056
 51
131.88825099942724
  0
LINE
  8
_0-3_躯体と製品
  6
CONTINUOUS
 62
    4
 10
1139.8100559031395
 20
590.36683998516878
 11
1143.5750559031246
 21
590.36683998516878
  0
LINE
  8
_0-3_躯体と製品
  6
CONTINUOUS
 62
    4
 10
1147.3400559031388
 20
590.36683998516878
 11
1147.5750559031246
 21
589.21583998515632
  0
LINE
  8
_0-3_躯体と製品
  6
CONTINUOUS
 62
    4
 10
1197.1750559031304
 20
589.21583998515632
 11
1197.1750559031304
 21
588.76683998516296
  0
LINE
  8
_0-3_躯体と製品
  6
CONTINUOUS
 62
    4
 10
1189.1750559031304
 20
589.21583998515632
 11
1189.1750559031304
 21
588.76683998516296
  0
LINE
  8
_0-3_躯体と製品
  6
CONTINUOUS
 62
    4
 10
1196.9750559031186
 20
588.56683998515143
 11
1193.1750559031302
 21
588.56683998515143
  0
ARC
  8
_0-3_躯体と製品
  6
CONTINUOUS
 62
    4
 10
1189.3750559031332
 20
588.76683998515432
 40
0.2000000000028542
 50
180.00000600057851
 51
269.99999700093719
  0
LINE
  8
_0-3_躯体と製品
  6
CONTINUOUS
 62
    4
 10
1189.3750559031421
 20
588.56683998515143
 11
1193.1750559031302
 21
588.56683998515143
  0
ARC
  8
_0-3_躯体と製品
  6
CONTINUOUS
 62
    4
 10
1196.9750559031158
 20
588.76683998516592
 40
0.2000000000144951
 50
269.99999699926957
 51
359.99999999915002
  0
LINE
  8
_0-3_躯体と製品
  6
CONTINUOUS
 62
    4
 10
1196.9400559031444
 20
590.36683998516878
 11
1193.1750559031302
 21
590.36683998516878
  0
ARC
  8
_0-3_躯体と製品
  6
CONTINUOUS
 62
    4
 10
1193.7220559031002
 20
586.77883998515358
 40
4.8189999999965947
 50
48.111754999079416
 51
96.517442000061564
  0
LINE
  8
_0-3_躯体と製品
  6
CONTINUOUS
 62
    4
 10
1189.4100559031165
 20
590.36683998516878
 11
1189.1750559031304
 21
589.21583998515632
  0
ARC
  8
_0-3_躯体と製品
  6
CONTINUOUS
 62
    4
 10
1192.6280559031193
 20
586.77883998514778
 40
4.8190000000169411
 50
83.482563001157544
 51
131.88825099942673
  0
LINE
  8
_0-3_躯体と製品
  6
CONTINUOUS
 62
    4
 10
1189.4100559031165
 20
590.36683998516878
 11
1193.1750559031302
 21
590.36683998516878
  0
LINE
  8
_0-3_躯体と製品
  6
CONTINUOUS
 62
    4
 10
1196.9400559031444
 20
590.36683998516878
 11
1197.1750559031304
 21
589.21583998515632
  0
LINE
  8
_0-3_躯体と製品
  6
CONTINUOUS
 62
    4
 10
834.37405590314233
 20
585.36683998515127
 11
902.37405590314222
 21
585.36683998515127
  0
LINE
  8
_0-3_躯体と製品
  6
CONTINUOUS
 62
    4
 10
902.37405590314222
 20
585.36683998515127
 11
902.37405590314222
 21
592.36683998515127
  0
LINE
  8
_0-3_躯体と製品
  6
CONTINUOUS
 62
    4
 10
902.37405590314222
 20
592.36683998515127
 11
897.37405590314222
 21
592.36683998515127
  0
LINE
  8
_0-3_躯体と製品
  6
CONTINUOUS
 62
    4
 10
897.37405590314222
 20
592.36683998515127
 11
897.37405590314222
 21
590.36683998515127
  0
LINE
  8
_0-3_躯体と製品
  6
CONTINUOUS
 62
    4
 10
897.37405590314222
 20
590.36683998515127
 11
900.37405590314233
 21
590.36683998515127
  0
LINE
  8
_0-3_躯体と製品
  6
CONTINUOUS
 62
    4
 10
900.37405590314233
 20
590.36683998515127
 11
900.37405590314233
 21
587.36683998515127
  0
LINE
  8
_0-3_躯体と製品
  6
CONTINUOUS
 62
    4
 10
900.37405590314233
 20
587.36683998515127
 11
836.37405590314222
 21
587.36683998515127
  0
LINE
  8
_0-3_躯体と製品
  6
CONTINUOUS
 62
    4
 10
836.37405590314222
 20
587.36683998515127
 11
836.37405590314222
 21
590.36683998515127
  0
LINE
  8
_0-3_躯体と製品
  6
CONTINUOUS
 62
    4
 10
836.37405590314222
 20
590.36683998515127
 11
839.37405590314222
 21
590.36683998515127
  0
LINE
  8
_0-3_躯体と製品
  6
CONTINUOUS
 62
    4
 10
839.37405590314222
 20
590.36683998515127
 11
839.37405590314222
 21
592.36683998515127
  0
LINE
  8
_0-3_躯体と製品
  6
CONTINUOUS
 62
    4
 10
839.37405590314222
 20
592.36683998515127
 11
834.37405590314233
 21
592.36683998515127
  0
LINE
  8
_0-3_躯体と製品
  6
CONTINUOUS
 62
    4
 10
834.37405590314233
 20
592.36683998515127
 11
834.37405590314233
 21
585.36683998515127
  0
ARC
  8
_0-3_躯体と製品
  6
CONTINUOUS
 62
    4
 10
884.17405590314229
 20
614.66683998515134
 40
1.6999999999999884
 50
359.99999999999807
 51
89.999999999998082
  0
LINE
  8
_0-3_躯体と製品
  6
CONTINUOUS
 62
    4
 10
885.87405590314222
 20
614.66683998515123
 11
885.87405590314222
 21
589.06683998515143
  0
ARC
  8
_0-3_躯体と製品
  6
CONTINUOUS
 62
    4
 10
886.37405590314222
 20
589.06683998515143
 40
0.4999999999999999
 50
180
 51
270
  0
LINE
  8
_0-3_躯体と製品
  6
CONTINUOUS
 62
    4
 10
886.37405590314222
 20
588.56683998515143
 11
898.67405590314218
 21
588.56683998515143
  0
ARC
  8
_0-3_躯体と製品
  6
CONTINUOUS
 62
    4
 10
898.67405590314229
 20
589.06683998515143
 40
0.5000000000000567
 50
269.99999999999352
 51
359.99999999999352
  0
LINE
  8
_0-3_躯体と製品
  6
CONTINUOUS
 62
    4
 10
899.17405590314229
 20
589.06683998515143
 11
899.17405590314229
 21
590.36683998515127
  0
LINE
  8
_0-3_躯体と製品
  6
CONTINUOUS
 62
    4
 10
899.17405590314229
 20
590.36683998515127
 11
900.37405590314233
 21
590.36683998515127
  0
LINE
  8
_0-3_躯体と製品
  6
CONTINUOUS
 62
    4
 10
900.37405590314233
 20
590.36683998515127
 11
900.37405590314233
 21
589.06683998515143
  0
ARC
  8
_0-3_躯体と製品
  6
CONTINUOUS
 62
    4
 10
898.67405590314218
 20
589.06683998515143
 40
1.7000000000001592
 50
270
 51
0
  0
LINE
  8
_0-3_躯体と製品
  6
CONTINUOUS
 62
    4
 10
898.67405590314218
 20
587.36683998515127
 11
886.37405590314222
 21
587.36683998515127
  0
ARC
  8
_0-3_躯体と製品
  6
CONTINUOUS
 62
    4
 10
886.37405590314233
 20
589.06683998515132
 40
1.7000000000000455
 50
179.99999999999619
 51
269.99999999999619
  0
LINE
  8
_0-3_躯体と製品
  6
CONTINUOUS
 62
    4
 10
884.67405590314229
 20
589.06683998515143
 11
884.67405590314229
 21
614.66683998515123
  0
ARC
  8
_0-3_躯体と製品
  6
CONTINUOUS
 62
    4
 10
884.17405590314229
 20
614.66683998515123
 40
0.4999999999999999
 50
0.0000000000000052
 51
90.000000000000014
  0
LINE
  8
_0-3_躯体と製品
  6
CONTINUOUS
 62
    4
 10
884.17405590314229
 20
615.16683998515123
 11
852.57405590314238
 21
615.16683998515123
  0
ARC
  8
_0-3_躯体と製品
  6
CONTINUOUS
 62
    4
 10
852.57405590314238
 20
614.66683998515123
 40
0.4999999999999999
 50
90
 51
180
  0
LINE
  8
_0-3_躯体と製品
  6
CONTINUOUS
 62
    4
 10
852.07405590314238
 20
614.66683998515123
 11
852.07405590314238
 21
589.06683998515143
  0
ARC
  8
_0-3_躯体と製品
  6
CONTINUOUS
 62
    4
 10
850.37405590314233
 20
589.06683998515132
 40
1.7000000000001023
 50
270.00000000000188
 51
0.0000000000019108
  0
LINE
  8
_0-3_躯体と製品
  6
CONTINUOUS
 62
    4
 10
850.37405590314233
 20
587.36683998515127
 11
838.07405590314227
 21
587.36683998515127
  0
ARC
  8
_0-3_躯体と製品
  6
CONTINUOUS
 62
    4
 10
838.07405590314227
 20
589.06683998515132
 40
1.7000000000001023
 50
179.99999999999807
 51
269.99999999999807
  0
LINE
  8
_0-3_躯体と製品
  6
CONTINUOUS
 62
    4
 10
836.37405590314222
 20
589.06683998515143
 11
836.37405590314222
 21
590.36683998515127
  0
LINE
  8
_0-3_躯体と製品
  6
CONTINUOUS
 62
    4
 10
836.37405590314222
 20
590.36683998515127
 11
837.57405590314238
 21
590.36683998515127
  0
LINE
  8
_0-3_躯体と製品
  6
CONTINUOUS
 62
    4
 10
837.57405590314238
 20
590.36683998515127
 11
837.57405590314238
 21
589.06683998515143
  0
ARC
  8
_0-3_躯体と製品
  6
CONTINUOUS
 62
    4
 10
838.07405590314238
 20
589.06683998515132
 40
0.4999999999999431
 50
179.99999999999349
 51
269.99999999999346
  0
LINE
  8
_0-3_躯体と製品
  6
CONTINUOUS
 62
    4
 10
838.07405590314227
 20
588.56683998515143
 11
850.37405590314233
 21
588.56683998515143
  0
ARC
  8
_0-3_躯体と製品
  6
CONTINUOUS
 62
    4
 10
850.37405590314233
 20
589.06683998515143
 40
0.4999999999999999
 50
270
 51
0.0000000000000127
  0
LINE
  8
_0-3_躯体と製品
  6
CONTINUOUS
 62
    4
 10
850.87405590314233
 20
589.06683998515143
 11
850.87405590314233
 21
614.66683998515123
  0
ARC
  8
_0-3_躯体と製品
  6
CONTINUOUS
 62
    4
 10
852.57405590314238
 20
614.66683998515123
 40
1.7000000000000453
 50
89.999999999999986
 51
180
  0
LINE
  8
_0-3_躯体と製品
  6
CONTINUOUS
 62
    4
 10
852.57405590314238
 20
616.36683998515127
 11
884.17405590314229
 21
616.36683998515127
  0
LINE
  8
_0-3_躯体と製品
  6
CONTINUOUS
 62
    4
 10
847.57505590312462
 20
589.21583998515632
 11
847.57505590312462
 21
588.76683998516296
  0
LINE
  8
_0-3_躯体と製品
  6
CONTINUOUS
 62
    4
 10
839.57505590312462
 20
589.21583998515632
 11
839.57505590312462
 21
588.76683998516296
  0
LINE
  8
_0-3_躯体と製品
  6
CONTINUOUS
 62
    4
 10
847.37505590314197
 20
588.56683998515143
 11
843.57505590312462
 21
588.56683998515143
  0
ARC
  8
_0-3_躯体と製品
  6
CONTINUOUS
 62
    4
 10
839.77505590312751
 20
588.76683998515432
 40
0.200000000002911
 50
180.00000600059479
 51
269.99999700095344
  0
LINE
  8
_0-3_躯体と製品
  6
CONTINUOUS
 62
    4
 10
839.77505590313615
 20
588.56683998515143
 11
843.57505590312462
 21
588.56683998515143
  0
ARC
  8
_0-3_躯体と製品
  6
CONTINUOUS
 62
    4
 10
847.37505590313924
 20
588.76683998516592
 40
0.2000000000144951
 50
269.99999699926957
 51
359.99999999915002
  0
LINE
  8
_0-3_躯体と製品
  6
CONTINUOUS
 62
    4
 10
847.34005590313859
 20
590.36683998516878
 11
843.57505590312462
 21
590.36683998516878
  0
ARC
  8
_0-3_躯体と製品
  6
CONTINUOUS
 62
    4
 10
844.12205590309441
 20
586.77883998515358
 40
4.8189999999965947
 50
48.111754999079416
 51
96.517442000061564
  0
LINE
  8
_0-3_躯体と製品
  6
CONTINUOUS
 62
    4
 10
839.81005590313976
 20
590.36683998516878
 11
839.57505590312462
 21
589.21583998515632
  0
ARC
  8
_0-3_躯体と製品
  6
CONTINUOUS
 62
    4
 10
843.02805590314267
 20
586.77883998514778
 40
4.8190000000169411
 50
83.482563001157544
 51
131.88825099942673
  0
LINE
  8
_0-3_躯体と製品
  6
CONTINUOUS
 62
    4
 10
839.81005590313976
 20
590.36683998516878
 11
843.57505590312462
 21
590.36683998516878
  0
LINE
  8
_0-3_躯体と製品
  6
CONTINUOUS
 62
    4
 10
847.34005590313859
 20
590.36683998516878
 11
847.57505590312462
 21
589.21583998515632
  0
LINE
  8
_0-3_躯体と製品
  6
CONTINUOUS
 62
    4
 10
897.17505590313033
 20
589.21583998515632
 11
897.17505590313033
 21
588.76683998516296
  0
LINE
  8
_0-3_躯体と製品
  6
CONTINUOUS
 62
    4
 10
889.17505590313033
 20
589.21583998515632
 11
889.17505590313033
 21
588.76683998516296
  0
LINE
  8
_0-3_躯体と製品
  6
CONTINUOUS
 62
    4
 10
896.9750559031188
 20
588.56683998515143
 11
893.17505590313033
 21
588.56683998515143
  0
ARC
  8
_0-3_躯体と製品
  6
CONTINUOUS
 62
    4
 10
889.37505590313333
 20
588.76683998515443
 40
0.2000000000029678
 50
180.00000600061108
 51
269.99999700096976
  0
LINE
  8
_0-3_躯体と製品
  6
CONTINUOUS
 62
    4
 10
889.37505590314208
 20
588.56683998515143
 11
893.17505590313033
 21
588.56683998515143
  0
ARC
  8
_0-3_躯体と製品
  6
CONTINUOUS
 62
    4
 10
896.97505590311584
 20
588.76683998516592
 40
0.2000000000144383
 50
269.99999699928583
 51
359.99999999916628
  0
LINE
  8
_0-3_躯体と製品
  6
CONTINUOUS
 62
    4
 10
896.94005590314441
 20
590.36683998516878
 11
893.17505590313033
 21
590.36683998516878
  0
ARC
  8
_0-3_躯体と製品
  6
CONTINUOUS
 62
    4
 10
893.72205590310023
 20
586.77883998515358
 40
4.8189999999965947
 50
48.111754999079416
 51
96.517442000061564
  0
LINE
  8
_0-3_躯体と製品
  6
CONTINUOUS
 62
    4
 10
889.41005590311647
 20
590.36683998516878
 11
889.17505590313033
 21
589.21583998515632
  0
ARC
  8
_0-3_躯体と製品
  6
CONTINUOUS
 62
    4
 10
892.62805590311939
 20
586.77883998514778
 40
4.8190000000169411
 50
83.482563001157544
 51
131.88825099942673
  0
LINE
  8
_0-3_躯体と製品
  6
CONTINUOUS
 62
    4
 10
889.41005590311647
 20
590.36683998516878
 11
893.17505590313033
 21
590.36683998516878
  0
LINE
  8
_0-3_躯体と製品
  6
CONTINUOUS
 62
    4
 10
896.94005590314441
 20
590.36683998516878
 11
897.17505590313033
 21
589.21583998515632
  0
LINE
  8
_0-3_躯体と製品
  6
CONTINUOUS
 62
    4
 10
534.37405590314233
 20
585.36683998515127
 11
602.37405590314233
 21
585.36683998515127
  0
LINE
  8
_0-3_躯体と製品
  6
CONTINUOUS
 62
    4
 10
602.37405590314233
 20
585.36683998515127
 11
602.37405590314233
 21
592.36683998515127
  0
LINE
  8
_0-3_躯体と製品
  6
CONTINUOUS
 62
    4
 10
602.37405590314233
 20
592.36683998515127
 11
597.37405590314233
 21
592.36683998515127
  0
LINE
  8
_0-3_躯体と製品
  6
CONTINUOUS
 62
    4
 10
597.37405590314233
 20
592.36683998515127
 11
597.37405590314233
 21
590.36683998515127
  0
LINE
  8
_0-3_躯体と製品
  6
CONTINUOUS
 62
    4
 10
597.37405590314233
 20
590.36683998515127
 11
600.37405590314233
 21
590.36683998515127
  0
LINE
  8
_0-3_躯体と製品
  6
CONTINUOUS
 62
    4
 10
600.37405590314233
 20
590.36683998515127
 11
600.37405590314233
 21
587.36683998515127
  0
LINE
  8
_0-3_躯体と製品
  6
CONTINUOUS
 62
    4
 10
600.37405590314233
 20
587.36683998515127
 11
536.37405590314233
 21
587.36683998515127
  0
LINE
  8
_0-3_躯体と製品
  6
CONTINUOUS
 62
    4
 10
536.37405590314233
 20
587.36683998515127
 11
536.37405590314233
 21
590.36683998515127
  0
LINE
  8
_0-3_躯体と製品
  6
CONTINUOUS
 62
    4
 10
536.37405590314233
 20
590.36683998515127
 11
539.37405590314233
 21
590.36683998515127
  0
LINE
  8
_0-3_躯体と製品
  6
CONTINUOUS
 62
    4
 10
539.37405590314233
 20
590.36683998515127
 11
539.37405590314233
 21
592.36683998515127
  0
LINE
  8
_0-3_躯体と製品
  6
CONTINUOUS
 62
    4
 10
539.37405590314233
 20
592.36683998515127
 11
534.37405590314233
 21
592.36683998515127
  0
LINE
  8
_0-3_躯体と製品
  6
CONTINUOUS
 62
    4
 10
534.37405590314233
 20
592.36683998515127
 11
534.37405590314233
 21
585.36683998515127
  0
ARC
  8
_0-3_躯体と製品
  6
CONTINUOUS
 62
    4
 10
584.17405590314229
 20
614.66683998515123
 40
1.7000000000000453
 50
0
 51
90
  0
LINE
  8
_0-3_躯体と製品
  6
CONTINUOUS
 62
    4
 10
585.87405590314233
 20
614.66683998515123
 11
585.87405590314233
 21
589.06683998515143
  0
ARC
  8
_0-3_躯体と製品
  6
CONTINUOUS
 62
    4
 10
586.37405590314233
 20
589.06683998515143
 40
0.4999999999999999
 50
180
 51
270
  0
LINE
  8
_0-3_躯体と製品
  6
CONTINUOUS
 62
    4
 10
586.37405590314233
 20
588.56683998515143
 11
598.67405590314229
 21
588.56683998515143
  0
ARC
  8
_0-3_躯体と製品
  6
CONTINUOUS
 62
    4
 10
598.67405590314229
 20
589.06683998515143
 40
0.4999999999999999
 50
270
 51
0.0000000000000127
  0
LINE
  8
_0-3_躯体と製品
  6
CONTINUOUS
 62
    4
 10
599.17405590314229
 20
589.06683998515143
 11
599.17405590314229
 21
590.36683998515127
  0
LINE
  8
_0-3_躯体と製品
  6
CONTINUOUS
 62
    4
 10
599.17405590314229
 20
590.36683998515127
 11
600.37405590314233
 21
590.36683998515127
  0
LINE
  8
_0-3_躯体と製品
  6
CONTINUOUS
 62
    4
 10
600.37405590314233
 20
590.36683998515127
 11
600.37405590314233
 21
589.06683998515143
  0
ARC
  8
_0-3_躯体と製品
  6
CONTINUOUS
 62
    4
 10
598.67405590314229
 20
589.06683998515132
 40
1.7000000000001023
 50
270.00000000000188
 51
0.0000000000019108
  0
LINE
  8
_0-3_躯体と製品
  6
CONTINUOUS
 62
    4
 10
598.67405590314229
 20
587.36683998515127
 11
586.37405590314233
 21
587.36683998515127
  0
ARC
  8
_0-3_躯体と製品
  6
CONTINUOUS
 62
    4
 10
586.37405590314233
 20
589.06683998515132
 40
1.7000000000001023
 50
179.99999999999807
 51
269.99999999999807
  0
LINE
  8
_0-3_躯体と製品
  6
CONTINUOUS
 62
    4
 10
584.67405590314229
 20
589.06683998515143
 11
584.67405590314229
 21
614.66683998515123
  0
ARC
  8
_0-3_躯体と製品
  6
CONTINUOUS
 62
    4
 10
584.17405590314229
 20
614.66683998515123
 40
0.4999999999999999
 50
0.0000000000000052
 51
90.000000000000014
  0
LINE
  8
_0-3_躯体と製品
  6
CONTINUOUS
 62
    4
 10
584.17405590314229
 20
615.16683998515123
 11
552.57405590314238
 21
615.16683998515123
  0
ARC
  8
_0-3_躯体と製品
  6
CONTINUOUS
 62
    4
 10
552.57405590314238
 20
614.66683998515123
 40
0.4999999999999999
 50
90
 51
180
  0
LINE
  8
_0-3_躯体と製品
  6
CONTINUOUS
 62
    4
 10
552.07405590314238
 20
614.66683998515123
 11
552.07405590314238
 21
589.06683998515143
  0
ARC
  8
_0-3_躯体と製品
  6
CONTINUOUS
 62
    4
 10
550.37405590314233
 20
589.06683998515132
 40
1.7000000000001023
 50
270.00000000000188
 51
0.0000000000019108
  0
LINE
  8
_0-3_躯体と製品
  6
CONTINUOUS
 62
    4
 10
550.37405590314233
 20
587.36683998515127
 11
538.07405590314238
 21
587.36683998515127
  0
ARC
  8
_0-3_躯体と製品
  6
CONTINUOUS
 62
    4
 10
538.07405590314238
 20
589.06683998515132
 40
1.7000000000001023
 50
179.99999999999807
 51
269.99999999999807
  0
LINE
  8
_0-3_躯体と製品
  6
CONTINUOUS
 62
    4
 10
536.37405590314233
 20
589.06683998515143
 11
536.37405590314233
 21
590.36683998515127
  0
LINE
  8
_0-3_躯体と製品
  6
CONTINUOUS
 62
    4
 10
536.37405590314233
 20
590.36683998515127
 11
537.57405590314238
 21
590.36683998515127
  0
LINE
  8
_0-3_躯体と製品
  6
CONTINUOUS
 62
    4
 10
537.57405590314238
 20
590.36683998515127
 11
537.57405590314238
 21
589.06683998515143
  0
ARC
  8
_0-3_躯体と製品
  6
CONTINUOUS
 62
    4
 10
538.07405590314238
 20
589.06683998515143
 40
0.4999999999999999
 50
180
 51
270
  0
LINE
  8
_0-3_躯体と製品
  6
CONTINUOUS
 62
    4
 10
538.07405590314238
 20
588.56683998515143
 11
550.37405590314233
 21
588.56683998515143
  0
ARC
  8
_0-3_躯体と製品
  6
CONTINUOUS
 62
    4
 10
550.37405590314233
 20
589.06683998515143
 40
0.4999999999999999
 50
270
 51
0.0000000000000127
  0
LINE
  8
_0-3_躯体と製品
  6
CONTINUOUS
 62
    4
 10
550.87405590314233
 20
589.06683998515143
 11
550.87405590314233
 21
614.66683998515123
  0
ARC
  8
_0-3_躯体と製品
  6
CONTINUOUS
 62
    4
 10
552.57405590314238
 20
614.66683998515123
 40
1.7000000000000453
 50
89.999999999999986
 51
180
  0
LINE
  8
_0-3_躯体と製品
  6
CONTINUOUS
 62
    4
 10
552.57405590314238
 20
616.36683998515127
 11
584.17405590314229
 21
616.36683998515127
  0
LINE
  8
_0-3_躯体と製品
  6
CONTINUOUS
 62
    4
 10
547.57505590312462
 20
589.21583998515632
 11
547.57505590312462
 21
588.76683998516296
  0
LINE
  8
_0-3_躯体と製品
  6
CONTINUOUS
 62
    4
 10
539.57505590312462
 20
589.21583998515632
 11
539.57505590312462
 21
588.76683998516296
  0
LINE
  8
_0-3_躯体と製品
  6
CONTINUOUS
 62
    4
 10
547.37505590314208
 20
588.56683998515143
 11
543.57505590312462
 21
588.56683998515143
  0
ARC
  8
_0-3_躯体と製品
  6
CONTINUOUS
 62
    4
 10
539.77505590312762
 20
588.76683998515432
 40
0.200000000002911
 50
180.00000600059479
 51
269.99999700095344
  0
LINE
  8
_0-3_躯体と製品
  6
CONTINUOUS
 62
    4
 10
539.77505590313626
 20
588.56683998515143
 11
543.57505590312462
 21
588.56683998515143
  0
ARC
  8
_0-3_躯体と製品
  6
CONTINUOUS
 62
    4
 10
547.37505590313913
 20
588.76683998516592
 40
0.2000000000144951
 50
269.99999699926957
 51
359.99999999915002
  0
LINE
  8
_0-3_躯体と製品
  6
CONTINUOUS
 62
    4
 10
547.34005590313859
 20
590.36683998516878
 11
543.57505590312462
 21
590.36683998516878
  0
ARC
  8
_0-3_躯体と製品
  6
CONTINUOUS
 62
    4
 10
544.12205590309441
 20
586.77883998515358
 40
4.8189999999965947
 50
48.111754999079416
 51
96.517442000061564
  0
LINE
  8
_0-3_躯体と製品
  6
CONTINUOUS
 62
    4
 10
539.81005590313976
 20
590.36683998516878
 11
539.57505590312462
 21
589.21583998515632
  0
ARC
  8
_0-3_躯体と製品
  6
CONTINUOUS
 62
    4
 10
543.02805590314256
 20
586.77883998514778
 40
4.8190000000169411
 50
83.482563001157544
 51
131.88825099942673
  0
LINE
  8
_0-3_躯体と製品
  6
CONTINUOUS
 62
    4
 10
539.81005590313976
 20
590.36683998516878
 11
543.57505590312462
 21
590.36683998516878
  0
LINE
  8
_0-3_躯体と製品
  6
CONTINUOUS
 62
    4
 10
547.34005590313859
 20
590.36683998516878
 11
547.57505590312462
 21
589.21583998515632
  0
LINE
  8
_0-3_躯体と製品
  6
CONTINUOUS
 62
    4
 10
597.17505590313044
 20
589.21583998515632
 11
597.17505590313044
 21
588.76683998516296
  0
LINE
  8
_0-3_躯体と製品
  6
CONTINUOUS
 62
    4
 10
589.17505590313044
 20
589.21583998515632
 11
589.17505590313044
 21
588.76683998516296
  0
LINE
  8
_0-3_躯体と製品
  6
CONTINUOUS
 62
    4
 10
596.9750559031188
 20
588.56683998515143
 11
593.17505590313044
 21
588.56683998515143
  0
ARC
  8
_0-3_躯体と製品
  6
CONTINUOUS
 62
    4
 10
589.37505590313344
 20
588.76683998515432
 40
0.200000000002911
 50
180.00000600059479
 51
269.99999700095344
  0
LINE
  8
_0-3_躯体と製品
  6
CONTINUOUS
 62
    4
 10
589.37505590314208
 20
588.56683998515143
 11
593.17505590313044
 21
588.56683998515143
  0
ARC
  8
_0-3_躯体と製品
  6
CONTINUOUS
 62
    4
 10
596.97505590311584
 20
588.76683998516592
 40
0.2000000000144951
 50
269.99999699926957
 51
359.99999999915002
  0
LINE
  8
_0-3_躯体と製品
  6
CONTINUOUS
 62
    4
 10
596.94005590314441
 20
590.36683998516878
 11
593.17505590313044
 21
590.36683998516878
  0
ARC
  8
_0-3_躯体と製品
  6
CONTINUOUS
 62
    4
 10
593.72205590310023
 20
586.77883998515358
 40
4.8189999999965947
 50
48.111754999079416
 51
96.517442000061564
  0
LINE
  8
_0-3_躯体と製品
  6
CONTINUOUS
 62
    4
 10
589.41005590311647
 20
590.36683998516878
 11
589.17505590313044
 21
589.21583998515632
  0
ARC
  8
_0-3_躯体と製品
  6
CONTINUOUS
 62
    4
 10
592.62805590311928
 20
586.77883998514778
 40
4.8190000000169411
 50
83.482563001157544
 51
131.88825099942673
  0
LINE
  8
_0-3_躯体と製品
  6
CONTINUOUS
 62
    4
 10
589.41005590311647
 20
590.36683998516878
 11
593.17505590313044
 21
590.36683998516878
  0
LINE
  8
_0-3_躯体と製品
  6
CONTINUOUS
 62
    4
 10
596.94005590314441
 20
590.36683998516878
 11
597.17505590313044
 21
589.21583998515632
  0
LINE
  8
_0-3_躯体と製品
  6
CONTINUOUS
 62
    4
 10
318.52725833500449
 20
585.36683998515139
 11
386.52725833500449
 21
585.36683998515139
  0
LINE
  8
_0-3_躯体と製品
  6
CONTINUOUS
 62
    4
 10
386.52725833500449
 20
585.36683998515139
 11
386.52725833500449
 21
592.36683998515139
  0
LINE
  8
_0-3_躯体と製品
  6
CONTINUOUS
 62
    4
 10
386.52725833500449
 20
592.36683998515139
 11
381.52725833500449
 21
592.36683998515139
  0
LINE
  8
_0-3_躯体と製品
  6
CONTINUOUS
 62
    4
 10
381.52725833500449
 20
592.36683998515139
 11
381.52725833500449
 21
590.36683998515139
  0
LINE
  8
_0-3_躯体と製品
  6
CONTINUOUS
 62
    4
 10
381.52725833500449
 20
590.36683998515139
 11
384.52725833500449
 21
590.36683998515139
  0
LINE
  8
_0-3_躯体と製品
  6
CONTINUOUS
 62
    4
 10
384.52725833500449
 20
590.36683998515139
 11
384.52725833500449
 21
587.36683998515139
  0
LINE
  8
_0-3_躯体と製品
  6
CONTINUOUS
 62
    4
 10
384.52725833500449
 20
587.36683998515139
 11
320.52725833500449
 21
587.36683998515139
  0
LINE
  8
_0-3_躯体と製品
  6
CONTINUOUS
 62
    4
 10
320.52725833500449
 20
587.36683998515139
 11
320.52725833500449
 21
590.36683998515139
  0
LINE
  8
_0-3_躯体と製品
  6
CONTINUOUS
 62
    4
 10
320.52725833500449
 20
590.36683998515139
 11
323.52725833500449
 21
590.36683998515139
  0
LINE
  8
_0-3_躯体と製品
  6
CONTINUOUS
 62
    4
 10
323.52725833500449
 20
590.36683998515139
 11
323.52725833500449
 21
592.36683998515139
  0
LINE
  8
_0-3_躯体と製品
  6
CONTINUOUS
 62
    4
 10
323.52725833500449
 20
592.36683998515139
 11
318.52725833500449
 21
592.36683998515139
  0
LINE
  8
_0-3_躯体と製品
  6
CONTINUOUS
 62
    4
 10
318.52725833500449
 20
592.36683998515139
 11
318.52725833500449
 21
585.36683998515139
  0
ARC
  8
_0-3_躯体と製品
  6
CONTINUOUS
 62
    4
 10
368.32725833500444
 20
614.66683998515123
 40
1.7000000000000453
 50
0
 51
90
  0
LINE
  8
_0-3_躯体と製品
  6
CONTINUOUS
 62
    4
 10
370.02725833500449
 20
614.66683998515123
 11
370.02725833500449
 21
589.06683998515143
  0
ARC
  8
_0-3_躯体と製品
  6
CONTINUOUS
 62
    4
 10
370.52725833500449
 20
589.06683998515143
 40
0.4999999999999999
 50
180
 51
270
  0
LINE
  8
_0-3_躯体と製品
  6
CONTINUOUS
 62
    4
 10
370.52725833500449
 20
588.56683998515143
 11
382.82725833500444
 21
588.56683998515143
  0
ARC
  8
_0-3_躯体と製品
  6
CONTINUOUS
 62
    4
 10
382.82725833500444
 20
589.06683998515143
 40
0.4999999999999999
 50
270
 51
0.0000000000000127
  0
LINE
  8
_0-3_躯体と製品
  6
CONTINUOUS
 62
    4
 10
383.32725833500444
 20
589.06683998515143
 11
383.32725833500444
 21
590.36683998515139
  0
LINE
  8
_0-3_躯体と製品
  6
CONTINUOUS
 62
    4
 10
383.32725833500444
 20
590.36683998515139
 11
384.52725833500449
 21
590.36683998515139
  0
LINE
  8
_0-3_躯体と製品
  6
CONTINUOUS
 62
    4
 10
384.52725833500449
 20
590.36683998515139
 11
384.52725833500449
 21
589.06683998515143
  0
ARC
  8
_0-3_躯体と製品
  6
CONTINUOUS
 62
    4
 10
382.82725833500444
 20
589.06683998515143
 40
1.7000000000000453
 50
270
 51
0
  0
LINE
  8
_0-3_躯体と製品
  6
CONTINUOUS
 62
    4
 10
382.82725833500444
 20
587.36683998515139
 11
370.52725833500449
 21
587.36683998515139
  0
ARC
  8
_0-3_躯体と製品
  6
CONTINUOUS
 62
    4
 10
370.52725833500449
 20
589.06683998515143
 40
1.7000000000000453
 50
180
 51
270
  0
LINE
  8
_0-3_躯体と製品
  6
CONTINUOUS
 62
    4
 10
368.82725833500444
 20
589.06683998515143
 11
368.82725833500444
 21
614.66683998515123
  0
ARC
  8
_0-3_躯体と製品
  6
CONTINUOUS
 62
    4
 10
368.32725833500444
 20
614.66683998515123
 40
0.4999999999999999
 50
0.0000000000000052
 51
90.000000000000014
  0
LINE
  8
_0-3_躯体と製品
  6
CONTINUOUS
 62
    4
 10
368.32725833500444
 20
615.16683998515123
 11
336.72725833500454
 21
615.16683998515123
  0
ARC
  8
_0-3_躯体と製品
  6
CONTINUOUS
 62
    4
 10
336.72725833500454
 20
614.66683998515123
 40
0.4999999999999999
 50
90
 51
180
  0
LINE
  8
_0-3_躯体と製品
  6
CONTINUOUS
 62
    4
 10
336.22725833500454
 20
614.66683998515123
 11
336.22725833500454
 21
589.06683998515143
  0
ARC
  8
_0-3_躯体と製品
  6
CONTINUOUS
 62
    4
 10
334.52725833500449
 20
589.06683998515143
 40
1.7000000000000453
 50
270
 51
0
  0
LINE
  8
_0-3_躯体と製品
  6
CONTINUOUS
 62
    4
 10
334.52725833500449
 20
587.36683998515139
 11
322.22725833500454
 21
587.36683998515139
  0
ARC
  8
_0-3_躯体と製品
  6
CONTINUOUS
 62
    4
 10
322.22725833500454
 20
589.06683998515143
 40
1.7000000000000453
 50
180
 51
270
  0
LINE
  8
_0-3_躯体と製品
  6
CONTINUOUS
 62
    4
 10
320.52725833500449
 20
589.06683998515143
 11
320.52725833500449
 21
590.36683998515139
  0
LINE
  8
_0-3_躯体と製品
  6
CONTINUOUS
 62
    4
 10
320.52725833500449
 20
590.36683998515139
 11
321.72725833500454
 21
590.36683998515139
  0
LINE
  8
_0-3_躯体と製品
  6
CONTINUOUS
 62
    4
 10
321.72725833500454
 20
590.36683998515139
 11
321.72725833500454
 21
589.06683998515143
  0
ARC
  8
_0-3_躯体と製品
  6
CONTINUOUS
 62
    4
 10
322.22725833500454
 20
589.06683998515143
 40
0.4999999999999999
 50
180
 51
270
  0
LINE
  8
_0-3_躯体と製品
  6
CONTINUOUS
 62
    4
 10
322.22725833500454
 20
588.56683998515143
 11
334.52725833500449
 21
588.56683998515143
  0
ARC
  8
_0-3_躯体と製品
  6
CONTINUOUS
 62
    4
 10
334.52725833500449
 20
589.06683998515143
 40
0.4999999999999999
 50
270
 51
0.0000000000000127
  0
LINE
  8
_0-3_躯体と製品
  6
CONTINUOUS
 62
    4
 10
335.02725833500449
 20
589.06683998515143
 11
335.02725833500449
 21
614.66683998515123
  0
ARC
  8
_0-3_躯体と製品
  6
CONTINUOUS
 62
    4
 10
336.72725833500454
 20
614.66683998515123
 40
1.7000000000000453
 50
89.999999999999986
 51
180
  0
LINE
  8
_0-3_躯体と製品
  6
CONTINUOUS
 62
    4
 10
336.72725833500454
 20
616.36683998515127
 11
368.32725833500444
 21
616.36683998515127
  0
LINE
  8
_0-3_躯体と製品
  6
CONTINUOUS
 62
    4
 10
331.72825833498678
 20
589.21583998515632
 11
331.72825833498678
 21
588.76683998516296
  0
LINE
  8
_0-3_躯体と製品
  6
CONTINUOUS
 62
    4
 10
323.72825833498678
 20
589.21583998515632
 11
323.72825833498678
 21
588.76683998516296
  0
LINE
  8
_0-3_躯体と製品
  6
CONTINUOUS
 62
    4
 10
331.52825833500424
 20
588.56683998515143
 11
327.72825833498678
 21
588.56683998515143
  0
ARC
  8
_0-3_躯体と製品
  6
CONTINUOUS
 62
    4
 10
323.92825833498978
 20
588.76683998515432
 40
0.200000000002911
 50
180.00000600059479
 51
269.99999700095344
  0
LINE
  8
_0-3_躯体と製品
  6
CONTINUOUS
 62
    4
 10
323.92825833499842
 20
588.56683998515143
 11
327.72825833498678
 21
588.56683998515143
  0
ARC
  8
_0-3_躯体と製品
  6
CONTINUOUS
 62
    4
 10
331.52825833500128
 20
588.76683998516592
 40
0.2000000000144951
 50
269.99999699926957
 51
359.99999999915002
  0
LINE
  8
_0-3_躯体と製品
  6
CONTINUOUS
 62
    4
 10
331.49325833500075
 20
590.36683998516889
 11
327.72825833498678
 21
590.36683998516889
  0
ARC
  8
_0-3_躯体と製品
  6
CONTINUOUS
 62
    4
 10
328.27525833495679
 20
586.7788399851537
 40
4.8189999999965529
 50
48.111754999080979
 51
96.517442000063127
  0
LINE
  8
_0-3_躯体と製品
  6
CONTINUOUS
 62
    4
 10
323.96325833500191
 20
590.36683998516889
 11
323.72825833498678
 21
589.21583998515632
  0
ARC
  8
_0-3_躯体と製品
  6
CONTINUOUS
 62
    4
 10
327.18125833500471
 20
586.77883998514778
 40
4.8190000000169411
 50
83.482563001157544
 51
131.88825099942673
  0
LINE
  8
_0-3_躯体と製品
  6
CONTINUOUS
 62
    4
 10
323.96325833500191
 20
590.36683998516889
 11
327.72825833498678
 21
590.36683998516889
  0
LINE
  8
_0-3_躯体と製品
  6
CONTINUOUS
 62
    4
 10
331.49325833500075
 20
590.36683998516889
 11
331.72825833498678
 21
589.21583998515632
  0
LINE
  8
_0-3_躯体と製品
  6
CONTINUOUS
 62
    4
 10
381.3282583349926
 20
589.21583998515632
 11
381.3282583349926
 21
588.76683998516296
  0
LINE
  8
_0-3_躯体と製品
  6
CONTINUOUS
 62
    4
 10
373.3282583349926
 20
589.21583998515632
 11
373.3282583349926
 21
588.76683998516296
  0
LINE
  8
_0-3_躯体と製品
  6
CONTINUOUS
 62
    4
 10
381.12825833498096
 20
588.56683998515143
 11
377.3282583349926
 21
588.56683998515143
  0
ARC
  8
_0-3_躯体と製品
  6
CONTINUOUS
 62
    4
 10
373.5282583349956
 20
588.76683998515432
 40
0.200000000002911
 50
180.00000600059479
 51
269.99999700095344
  0
LINE
  8
_0-3_躯体と製品
  6
CONTINUOUS
 62
    4
 10
373.52825833500424
 20
588.56683998515143
 11
377.3282583349926
 21
588.56683998515143
  0
ARC
  8
_0-3_躯体と製品
  6
CONTINUOUS
 62
    4
 10
381.128258334978
 20
588.76683998516592
 40
0.2000000000144951
 50
269.99999699926957
 51
359.99999999915002
  0
LINE
  8
_0-3_躯体と製品
  6
CONTINUOUS
 62
    4
 10
381.09325833500657
 20
590.36683998516889
 11
377.3282583349926
 21
590.36683998516889
  0
ARC
  8
_0-3_躯体と製品
  6
CONTINUOUS
 62
    4
 10
377.87525833496261
 20
586.7788399851537
 40
4.8189999999965529
 50
48.111754999080979
 51
96.517442000063127
  0
LINE
  8
_0-3_躯体と製品
  6
CONTINUOUS
 62
    4
 10
373.56325833497863
 20
590.36683998516889
 11
373.3282583349926
 21
589.21583998515632
  0
ARC
  8
_0-3_躯体と製品
  6
CONTINUOUS
 62
    4
 10
376.78125833498143
 20
586.77883998514778
 40
4.8190000000169411
 50
83.482563001157544
 51
131.88825099942673
  0
LINE
  8
_0-3_躯体と製品
  6
CONTINUOUS
 62
    4
 10
373.56325833497863
 20
590.36683998516889
 11
377.3282583349926
 21
590.36683998516889
  0
LINE
  8
_0-3_躯体と製品
  6
CONTINUOUS
 62
    4
 10
381.09325833500657
 20
590.36683998516889
 11
381.3282583349926
 21
589.21583998515632
  0
LINE
  8
_0-3_躯体と製品
  6
CONTINUOUS
 62
    4
 10
118.52725833500449
 20
585.36683998515139
 11
186.52725833500449
 21
585.36683998515139
  0
LINE
  8
_0-3_躯体と製品
  6
CONTINUOUS
 62
    4
 10
186.52725833500449
 20
585.36683998515139
 11
186.52725833500449
 21
592.36683998515139
  0
LINE
  8
_0-3_躯体と製品
  6
CONTINUOUS
 62
    4
 10
186.52725833500449
 20
592.36683998515139
 11
181.52725833500449
 21
592.36683998515139
  0
LINE
  8
_0-3_躯体と製品
  6
CONTINUOUS
 62
    4
 10
181.52725833500449
 20
592.36683998515139
 11
181.52725833500449
 21
590.36683998515139
  0
LINE
  8
_0-3_躯体と製品
  6
CONTINUOUS
 62
    4
 10
181.52725833500449
 20
590.36683998515139
 11
184.52725833500449
 21
590.36683998515139
  0
LINE
  8
_0-3_躯体と製品
  6
CONTINUOUS
 62
    4
 10
184.52725833500449
 20
590.36683998515139
 11
184.52725833500449
 21
587.36683998515139
  0
LINE
  8
_0-3_躯体と製品
  6
CONTINUOUS
 62
    4
 10
184.52725833500449
 20
587.36683998515139
 11
120.52725833500449
 21
587.36683998515139
  0
LINE
  8
_0-3_躯体と製品
  6
CONTINUOUS
 62
    4
 10
120.52725833500449
 20
587.36683998515139
 11
120.52725833500449
 21
590.36683998515139
  0
LINE
  8
_0-3_躯体と製品
  6
CONTINUOUS
 62
    4
 10
120.52725833500449
 20
590.36683998515139
 11
123.52725833500449
 21
590.36683998515139
  0
LINE
  8
_0-3_躯体と製品
  6
CONTINUOUS
 62
    4
 10
123.52725833500449
 20
590.36683998515139
 11
123.52725833500449
 21
592.36683998515139
  0
LINE
  8
_0-3_躯体と製品
  6
CONTINUOUS
 62
    4
 10
123.52725833500449
 20
592.36683998515139
 11
118.52725833500449
 21
592.36683998515139
  0
LINE
  8
_0-3_躯体と製品
  6
CONTINUOUS
 62
    4
 10
118.52725833500449
 20
592.36683998515139
 11
118.52725833500449
 21
585.36683998515139
  0
ARC
  8
_0-3_躯体と製品
  6
CONTINUOUS
 62
    4
 10
168.32725833500444
 20
614.66683998515123
 40
1.7000000000000453
 50
0
 51
90
  0
LINE
  8
_0-3_躯体と製品
  6
CONTINUOUS
 62
    4
 10
170.02725833500449
 20
614.66683998515123
 11
170.02725833500449
 21
589.06683998515143
  0
ARC
  8
_0-3_躯体と製品
  6
CONTINUOUS
 62
    4
 10
170.52725833500449
 20
589.06683998515143
 40
0.4999999999999999
 50
180
 51
270
  0
LINE
  8
_0-3_躯体と製品
  6
CONTINUOUS
 62
    4
 10
170.52725833500449
 20
588.56683998515143
 11
182.82725833500444
 21
588.56683998515143
  0
ARC
  8
_0-3_躯体と製品
  6
CONTINUOUS
 62
    4
 10
182.82725833500444
 20
589.06683998515143
 40
0.4999999999999999
 50
270
 51
0.0000000000000127
  0
LINE
  8
_0-3_躯体と製品
  6
CONTINUOUS
 62
    4
 10
183.32725833500444
 20
589.06683998515143
 11
183.32725833500444
 21
590.36683998515139
  0
LINE
  8
_0-3_躯体と製品
  6
CONTINUOUS
 62
    4
 10
183.32725833500444
 20
590.36683998515139
 11
184.52725833500449
 21
590.36683998515139
  0
LINE
  8
_0-3_躯体と製品
  6
CONTINUOUS
 62
    4
 10
184.52725833500449
 20
590.36683998515139
 11
184.52725833500449
 21
589.06683998515143
  0
ARC
  8
_0-3_躯体と製品
  6
CONTINUOUS
 62
    4
 10
182.82725833500444
 20
589.06683998515143
 40
1.7000000000000453
 50
270
 51
0
  0
LINE
  8
_0-3_躯体と製品
  6
CONTINUOUS
 62
    4
 10
182.82725833500444
 20
587.36683998515139
 11
170.52725833500449
 21
587.36683998515139
  0
ARC
  8
_0-3_躯体と製品
  6
CONTINUOUS
 62
    4
 10
170.52725833500449
 20
589.06683998515143
 40
1.7000000000000453
 50
180
 51
270
  0
LINE
  8
_0-3_躯体と製品
  6
CONTINUOUS
 62
    4
 10
168.82725833500444
 20
589.06683998515143
 11
168.82725833500444
 21
614.66683998515123
  0
ARC
  8
_0-3_躯体と製品
  6
CONTINUOUS
 62
    4
 10
168.32725833500444
 20
614.66683998515123
 40
0.4999999999999999
 50
0.0000000000000052
 51
90.000000000000014
  0
LINE
  8
_0-3_躯体と製品
  6
CONTINUOUS
 62
    4
 10
168.32725833500444
 20
615.16683998515123
 11
136.72725833500454
 21
615.16683998515123
  0
ARC
  8
_0-3_躯体と製品
  6
CONTINUOUS
 62
    4
 10
136.72725833500454
 20
614.66683998515123
 40
0.4999999999999999
 50
90
 51
180
  0
LINE
  8
_0-3_躯体と製品
  6
CONTINUOUS
 62
    4
 10
136.22725833500454
 20
614.66683998515123
 11
136.22725833500454
 21
589.06683998515143
  0
ARC
  8
_0-3_躯体と製品
  6
CONTINUOUS
 62
    4
 10
134.52725833500449
 20
589.06683998515143
 40
1.7000000000000453
 50
270
 51
0
  0
LINE
  8
_0-3_躯体と製品
  6
CONTINUOUS
 62
    4
 10
134.52725833500449
 20
587.36683998515139
 11
122.22725833500454
 21
587.36683998515139
  0
ARC
  8
_0-3_躯体と製品
  6
CONTINUOUS
 62
    4
 10
122.22725833500454
 20
589.06683998515143
 40
1.7000000000000453
 50
180
 51
270
  0
LINE
  8
_0-3_躯体と製品
  6
CONTINUOUS
 62
    4
 10
120.52725833500449
 20
589.06683998515143
 11
120.52725833500449
 21
590.36683998515139
  0
LINE
  8
_0-3_躯体と製品
  6
CONTINUOUS
 62
    4
 10
120.52725833500449
 20
590.36683998515139
 11
121.72725833500454
 21
590.36683998515139
  0
LINE
  8
_0-3_躯体と製品
  6
CONTINUOUS
 62
    4
 10
121.72725833500454
 20
590.36683998515139
 11
121.72725833500454
 21
589.06683998515143
  0
ARC
  8
_0-3_躯体と製品
  6
CONTINUOUS
 62
    4
 10
122.22725833500454
 20
589.06683998515143
 40
0.4999999999999999
 50
180
 51
270
  0
LINE
  8
_0-3_躯体と製品
  6
CONTINUOUS
 62
    4
 10
122.22725833500454
 20
588.56683998515143
 11
134.52725833500449
 21
588.56683998515143
  0
ARC
  8
_0-3_躯体と製品
  6
CONTINUOUS
 62
    4
 10
134.52725833500449
 20
589.06683998515143
 40
0.4999999999999999
 50
270
 51
0.0000000000000127
  0
LINE
  8
_0-3_躯体と製品
  6
CONTINUOUS
 62
    4
 10
135.02725833500449
 20
589.06683998515143
 11
135.02725833500449
 21
614.66683998515123
  0
ARC
  8
_0-3_躯体と製品
  6
CONTINUOUS
 62
    4
 10
136.72725833500454
 20
614.66683998515123
 40
1.7000000000000453
 50
89.999999999999986
 51
180
  0
LINE
  8
_0-3_躯体と製品
  6
CONTINUOUS
 62
    4
 10
136.72725833500454
 20
616.36683998515127
 11
168.32725833500444
 21
616.36683998515127
  0
LINE
  8
_0-3_躯体と製品
  6
CONTINUOUS
 62
    4
 10
131.72825833498678
 20
589.21583998515632
 11
131.72825833498678
 21
588.76683998516319
  0
LINE
  8
_0-3_躯体と製品
  6
CONTINUOUS
 62
    4
 10
123.72825833498678
 20
589.21583998515632
 11
123.72825833498678
 21
588.76683998516319
  0
LINE
  8
_0-3_躯体と製品
  6
CONTINUOUS
 62
    4
 10
131.52825833500424
 20
588.56683998515143
 11
127.72825833498678
 21
588.56683998515143
  0
ARC
  8
_0-3_躯体と製品
  6
CONTINUOUS
 62
    4
 10
123.92825833498978
 20
588.76683998515432
 40
0.200000000002911
 50
180.00000600059479
 51
269.99999700095344
  0
LINE
  8
_0-3_躯体と製品
  6
CONTINUOUS
 62
    4
 10
123.92825833499842
 20
588.56683998515143
 11
127.72825833498678
 21
588.56683998515143
  0
ARC
  8
_0-3_躯体と製品
  6
CONTINUOUS
 62
    4
 10
131.52825833500128
 20
588.76683998516603
 40
0.2000000000146088
 50
269.99999699930208
 51
359.99999999918259
  0
LINE
  8
_0-3_躯体と製品
  6
CONTINUOUS
 62
    4
 10
131.49325833500075
 20
590.36683998516889
 11
127.72825833498678
 21
590.36683998516889
  0
ARC
  8
_0-3_躯体と製品
  6
CONTINUOUS
 62
    4
 10
128.27525833495656
 20
586.7788399851537
 40
4.8189999999965947
 50
48.111754999079416
 51
96.517442000061564
  0
LINE
  8
_0-3_躯体と製品
  6
CONTINUOUS
 62
    4
 10
123.96325833500191
 20
590.36683998516889
 11
123.72825833498678
 21
589.21583998515632
  0
ARC
  8
_0-3_躯体と製品
  6
CONTINUOUS
 62
    4
 10
127.18125833500449
 20
586.7788399851479
 40
4.8190000000168567
 50
83.482563001154389
 51
131.88825099942358
  0
LINE
  8
_0-3_躯体と製品
  6
CONTINUOUS
 62
    4
 10
123.96325833500191
 20
590.36683998516889
 11
127.72825833498678
 21
590.36683998516889
  0
LINE
  8
_0-3_躯体と製品
  6
CONTINUOUS
 62
    4
 10
131.49325833500075
 20
590.36683998516889
 11
131.72825833498678
 21
589.21583998515632
  0
LINE
  8
_0-3_躯体と製品
  6
CONTINUOUS
 62
    4
 10
181.3282583349926
 20
589.21583998515632
 11
181.3282583349926
 21
588.76683998516319
  0
LINE
  8
_0-3_躯体と製品
  6
CONTINUOUS
 62
    4
 10
173.3282583349926
 20
589.21583998515632
 11
173.3282583349926
 21
588.76683998516319
  0
LINE
  8
_0-3_躯体と製品
  6
CONTINUOUS
 62
    4
 10
181.12825833498096
 20
588.56683998515143
 11
177.3282583349926
 21
588.56683998515143
  0
ARC
  8
_0-3_躯体と製品
  6
CONTINUOUS
 62
    4
 10
173.5282583349956
 20
588.76683998515432
 40
0.200000000002911
 50
180.00000600059479
 51
269.99999700095344
  0
LINE
  8
_0-3_躯体と製品
  6
CONTINUOUS
 62
    4
 10
173.52825833500424
 20
588.56683998515143
 11
177.3282583349926
 21
588.56683998515143
  0
ARC
  8
_0-3_躯体と製品
  6
CONTINUOUS
 62
    4
 10
181.128258334978
 20
588.76683998516603
 40
0.2000000000146088
 50
269.99999699930208
 51
359.99999999918259
  0
LINE
  8
_0-3_躯体と製品
  6
CONTINUOUS
 62
    4
 10
181.09325833500657
 20
590.36683998516889
 11
177.3282583349926
 21
590.36683998516889
  0
ARC
  8
_0-3_躯体と製品
  6
CONTINUOUS
 62
    4
 10
177.87525833496238
 20
586.7788399851537
 40
4.8189999999965947
 50
48.111754999079416
 51
96.517442000061564
  0
LINE
  8
_0-3_躯体と製品
  6
CONTINUOUS
 62
    4
 10
173.56325833497863
 20
590.36683998516889
 11
173.3282583349926
 21
589.21583998515632
  0
ARC
  8
_0-3_躯体と製品
  6
CONTINUOUS
 62
    4
 10
176.7812583349812
 20
586.7788399851479
 40
4.8190000000168567
 50
83.482563001154389
 51
131.88825099942358
  0
LINE
  8
_0-3_躯体と製品
  6
CONTINUOUS
 62
    4
 10
173.56325833497863
 20
590.36683998516889
 11
177.3282583349926
 21
590.36683998516889
  0
LINE
  8
_0-3_躯体と製品
  6
CONTINUOUS
 62
    4
 10
181.09325833500657
 20
590.36683998516889
 11
181.3282583349926
 21
589.21583998515632
  0
LINE
  8
_0-4_文字-記号
  6
CONTINUOUS
 62
    7
 10
1011.0436098880598
 20
1582.4073384511157
 11
950.57319593706382
 21
1477.669509133269
  0
LINE
  8
_0-4_文字-記号
  6
CONTINUOUS
 62
    7
 10
950.57319593706382
 20
1477.669509133269
 11
664.34004099222489
 21
1477.669509133269
  0
LINE
  8
_0-4_文字-記号
  6
CONTINUOUS
 62
    7
 10
996.40259377879067
 20
1567.7663222754281
 11
1011.0436098880598
 21
1582.4073384511157
  0
LINE
  8
_0-4_文字-記号
  6
CONTINUOUS
 62
    7
 10
1011.0436098880598
 20
1582.4073384511157
 11
1005.6846259973288
 21
1562.4073384754279
  0
LINE
  8
_0-4_文字-記号
  6
CONTINUOUS
 62
    7
 10
1026.2145351498154
 20
387.28859263803963
 11
1086.6849491008113
 21
282.550763320192
  0
LINE
  8
_0-4_文字-記号
  6
CONTINUOUS
 62
    7
 10
1086.6849491008113
 20
282.550763320192
 11
1347.8976106775017
 21
282.550763320192
  0
LINE
  8
_0-4_文字-記号
  6
CONTINUOUS
 62
    7
 10
1347.8976106775017
 20
282.550763320192
 11
1347.9876106775007
 21
282.550763320192
  0
LINE
  8
_0-4_文字-記号
  6
CONTINUOUS
 62
    7
 10
1031.5735190405462
 20
367.28859266235065
 11
1026.2145351498154
 21
387.2885926380394
  0
LINE
  8
_0-4_文字-記号
  6
CONTINUOUS
 62
    7
 10
1026.2145351498154
 20
387.2885926380394
 11
1040.8555512590842
 21
372.64757646235068
  0
LINE
  8
_0-4_文字-記号
  6
CONTINUOUS
 62
    7
 10
1152.0965203038745
 20
609.15364542262444
 11
1230.9690330361352
 21
472.5424460497245
  0
LINE
  8
_0-4_文字-記号
  6
CONTINUOUS
 62
    7
 10
1230.9690330361352
 20
472.5424460497245
 11
1372.1468472656018
 21
472.5424460497245
  0
LINE
  8
_0-4_文字-記号
  6
CONTINUOUS
 62
    7
 10
1372.1468472656018
 20
472.5424460497245
 11
1372.2368472656017
 21
472.5424460497245
  0
LINE
  8
_0-4_文字-記号
  6
CONTINUOUS
 62
    7
 10
1157.4555041946057
 20
589.15364544693534
 11
1152.0965203038745
 21
609.15364542262409
  0
LINE
  8
_0-4_文字-記号
  6
CONTINUOUS
 62
    7
 10
1152.0965203038745
 20
609.15364542262409
 11
1166.7375364131437
 21
594.51262924693538
  0
LINE
  8
_0-4_文字-記号
  6
CONTINUOUS
 62
    7
 10
616.69069523274516
 20
538.18537124435045
 11
676.69177537260543
 21
434.26045193309949
  0
LINE
  8
_0-4_文字-記号
  6
CONTINUOUS
 62
    7
 10
676.69177537260543
 20
434.26045193309949
 11
836.18046345425284
 21
434.26045193309949
  0
LINE
  8
_0-4_文字-記号
  6
CONTINUOUS
 62
    7
 10
836.18046345425284
 20
434.26045193309949
 11
836.2704634542531
 21
434.26045193309949
  0
LINE
  8
_0-4_文字-記号
  6
CONTINUOUS
 62
    7
 10
622.04967912347615
 20
518.18537126866147
 11
616.69069523274516
 21
538.18537124435022
  0
LINE
  8
_0-4_文字-記号
  6
CONTINUOUS
 62
    7
 10
616.69069523274516
 20
538.18537124435022
 11
631.33171134201416
 21
523.54435506866139
  0
LINE
  8
_0-4_文字-記号
  6
CONTINUOUS
 62
    7
 10
2807.6705829077191
 20
1570.086629638603
 11
2868.140996858715
 21
1465.3488003207558
  0
LINE
  8
_0-4_文字-記号
  6
CONTINUOUS
 62
    7
 10
2868.140996858715
 20
1465.3488003207558
 11
3129.3536584354051
 21
1465.3488003207558
  0
LINE
  8
_0-4_文字-記号
  6
CONTINUOUS
 62
    7
 10
3129.3536584354051
 20
1465.3488003207558
 11
3129.4436584354044
 21
1465.3488003207558
  0
LINE
  8
_0-4_文字-記号
  6
CONTINUOUS
 62
    7
 10
2813.0295667984501
 20
1550.0866296629151
 11
2807.6705829077191
 21
1570.086629638603
  0
LINE
  8
_0-4_文字-記号
  6
CONTINUOUS
 62
    7
 10
2807.6705829077191
 20
1570.086629638603
 11
2822.311599016989
 21
1555.445613462914
  0
LINE
  8
_0-4_文字-記号
  6
CONTINUOUS
 62
    7
 10
2941.3526340231047
 20
1761.1494291768281
 11
3020.225146755366
 21
1624.5382298039281
  0
LINE
  8
_0-4_文字-記号
  6
CONTINUOUS
 62
    7
 10
3020.225146755366
 20
1624.5382298039281
 11
3161.4029609848321
 21
1624.5382298039281
  0
LINE
  8
_0-4_文字-記号
  6
CONTINUOUS
 62
    7
 10
3161.4029609848321
 20
1624.5382298039281
 11
3161.4929609848332
 21
1624.5382298039281
  0
LINE
  8
_0-4_文字-記号
  6
CONTINUOUS
 62
    7
 10
2946.7116179138357
 20
1741.1494292011389
 11
2941.3526340231047
 21
1761.1494291768281
  0
LINE
  8
_0-4_文字-記号
  6
CONTINUOUS
 62
    7
 10
2941.3526340231047
 20
1761.1494291768281
 11
2955.9936501323737
 21
1746.5084130011387
  0
LINE
  8
_0-4_文字-記号
  6
CONTINUOUS
 62
    7
 10
2077.8970172042928
 20
1732.963292943547
 11
2137.8980973441539
 21
1629.038373632297
  0
LINE
  8
_0-4_文字-記号
  6
CONTINUOUS
 62
    7
 10
2137.8980973441539
 20
1629.038373632297
 11
2297.3867854258015
 21
1629.038373632297
  0
LINE
  8
_0-4_文字-記号
  6
CONTINUOUS
 62
    7
 10
2297.3867854258015
 20
1629.038373632297
 11
2297.4767854258016
 21
1629.038373632297
  0
LINE
  8
_0-4_文字-記号
  6
CONTINUOUS
 62
    7
 10
2083.2560010950237
 20
1712.9632929678587
 11
2077.8970172042928
 21
1732.963292943547
  0
LINE
  8
_0-4_文字-記号
  6
CONTINUOUS
 62
    7
 10
2077.8970172042928
 20
1732.963292943547
 11
2092.5380333135618
 21
1718.322276767859
  0
LINE
  8
_0-4_文字-記号
  6
CONTINUOUS
 62
    7
 10
2292.651838335004
 20
1815.6418802765161
 11
2398.2961369724371
 21
1998.6231730465297
  0
LINE
  8
_0-4_文字-記号
  6
CONTINUOUS
 62
    7
 10
2398.2961369724371
 20
1998.6231730465297
 11
3001.950437066911
 21
1998.6231730465297
  0
LINE
  8
_0-4_文字-記号
  6
CONTINUOUS
 62
    7
 10
2307.292854444273
 20
1830.2828964522041
 11
2292.651838335004
 21
1815.6418802765161
  0
LINE
  8
_0-4_文字-記号
  6
CONTINUOUS
 62
    7
 10
2292.651838335004
 20
1815.6418802765161
 11
2298.010822225735
 21
1835.6418802522039
  0
LINE
  8
_0-4_文字-記号
  6
CONTINUOUS
 62
    7
 10
2322.6519883350038
 20
1814.3636702765148
 11
2376.6584587689549
 21
1907.9056210055851
  0
LINE
  8
_0-4_文字-記号
  6
CONTINUOUS
 62
    7
 10
2376.6584587689549
 20
1907.9056210055851
 11
2628.1610735615786
 21
1907.9056210055851
  0
LINE
  8
_0-4_文字-記号
  6
CONTINUOUS
 62
    7
 10
2337.2930044442728
 20
1829.0046864522037
 11
2322.6519883350038
 21
1814.3636702765148
  0
LINE
  8
_0-4_文字-記号
  6
CONTINUOUS
 62
    7
 10
2322.6519883350038
 20
1814.3636702765148
 11
2328.0109722257348
 21
1834.363670252204
  0
LINE
  8
_0-4_文字-記号
  6
CONTINUOUS
 62
    7
 10
1914.4549273072637
 20
1901.0121802765161
 11
1957.9167247464527
 21
1976.2902216294578
  0
LINE
  8
_0-4_文字-記号
  6
CONTINUOUS
 62
    7
 10
1957.9167247464527
 20
1976.2902216294578
 11
2078.8394574068625
 21
1976.2902216294578
  0
LINE
  8
_0-4_文字-記号
  6
CONTINUOUS
 62
    7
 10
1929.0959434165327
 20
1915.6531964522051
 11
1914.4549273072637
 21
1901.0121802765161
  0
LINE
  8
_0-4_文字-記号
  6
CONTINUOUS
 62
    7
 10
1914.4549273072637
 20
1901.0121802765161
 11
1919.8139111979947
 21
1921.0121802522049
  0
LINE
  8
_0-4_文字-記号
  6
CONTINUOUS
 62
    7
 10
639.70340917825956
 20
1817.9477088869271
 11
735.11592501905011
 21
1983.2070340011478
  0
LINE
  8
_0-4_文字-記号
  6
CONTINUOUS
 62
    7
 10
735.11592501905011
 20
1983.2070340011478
 11
1003.7074632362599
 21
1983.2070340011478
  0
LINE
  8
_0-4_文字-記号
  6
CONTINUOUS
 62
    7
 10
654.34442528752834
 20
1832.588725062616
 11
639.70340917825956
 21
1817.9477088869271
  0
LINE
  8
_0-4_文字-記号
  6
CONTINUOUS
 62
    7
 10
639.70340917825956
 20
1817.9477088869271
 11
645.06239306899033
 21
1837.9477088626159
  0
LINE
  8
_0-4_文字-記号
  6
CONTINUOUS
 62
    7
 10
770.21040897234502
 20
1794.6418802765161
 11
838.52617504492412
 21
1912.9682580722138
  0
LINE
  8
_0-4_文字-記号
  6
CONTINUOUS
 62
    7
 10
838.52617504492412
 20
1912.9682580722138
 11
1034.3698343770352
 21
1912.9682580722138
  0
LINE
  8
_0-4_文字-記号
  6
CONTINUOUS
 62
    7
 10
784.85142508161402
 20
1809.282896452205
 11
770.21040897234502
 21
1794.6418802765161
  0
LINE
  8
_0-4_文字-記号
  6
CONTINUOUS
 62
    7
 10
770.21040897234502
 20
1794.6418802765161
 11
775.56939286307602
 21
1814.6418802522048
  0
LINE
  8
_0-4_文字-記号
  6
CONTINUOUS
 62
    7
 10
662.33400692765622
 20
1760.5716498476431
 11
741.2065196599176
 21
1623.9604504747431
  0
LINE
  8
_0-4_文字-記号
  6
CONTINUOUS
 62
    7
 10
741.2065196599176
 20
1623.9604504747431
 11
882.3843338893837
 21
1623.9604504747431
  0
LINE
  8
_0-4_文字-記号
  6
CONTINUOUS
 62
    7
 10
882.3843338893837
 20
1623.9604504747431
 11
882.47433388938373
 21
1623.9604504747431
  0
LINE
  8
_0-4_文字-記号
  6
CONTINUOUS
 62
    7
 10
667.69299081838722
 20
1740.5716498719539
 11
662.33400692765622
 21
1760.5716498476431
  0
LINE
  8
_0-4_文字-記号
  6
CONTINUOUS
 62
    7
 10
662.33400692765622
 20
1760.5716498476431
 11
676.97502303692522
 21
1745.9306336719537
  0
LINE
  8
_0-4_文字-記号
  6
CONTINUOUS
 62
    7
 10
252.31438446827474
 20
1729.2590294931169
 11
312.31546460813547
 21
1625.334110181866
  0
LINE
  8
_0-4_文字-記号
  6
CONTINUOUS
 62
    7
 10
312.31546460813547
 20
1625.334110181866
 11
471.804152689783
 21
1625.334110181866
  0
LINE
  8
_0-4_文字-記号
  6
CONTINUOUS
 62
    7
 10
471.804152689783
 20
1625.334110181866
 11
471.89415268978314
 21
1625.334110181866
  0
LINE
  8
_0-4_文字-記号
  6
CONTINUOUS
 62
    7
 10
257.67336835900528
 20
1709.2590295174291
 11
252.31438446827474
 21
1729.2590294931169
  0
LINE
  8
_0-4_文字-記号
  6
CONTINUOUS
 62
    7
 10
252.31438446827474
 20
1729.2590294931169
 11
266.9554005775442
 21
1714.618013317428
  0
LINE
  8
_0-4_文字-記号
  6
CONTINUOUS
 62
    3
 10
696.97366605801653
 20
2348.738164395988
 11
696.97366605801653
 21
2449.9414503062139
  0
LINE
  8
_0-4_文字-記号
  6
CONTINUOUS
 62
    3
 10
696.97366605801653
 20
2449.9414503062139
 11
2341.2733453221226
 21
2449.9414503062139
  0
LINE
  8
_0-4_文字-記号
  6
CONTINUOUS
 62
    3
 10
2341.2733453221226
 20
2449.9414503062139
 11
2341.2733453221226
 21
2348.738164395988
  0
LINE
  8
_0-4_文字-記号
  6
CONTINUOUS
 62
    3
 10
2341.2733453221226
 20
2348.738164395988
 11
696.97366605801653
 21
2348.738164395988
  0
LINE
  8
_0-3_躯体と製品
  6
CONTINUOUS
 62
    3
 10
3109.3591230140473
 20
1805.6418402765171
 11
3109.3591230140473
 21
1800.641880276517
  0
ARC
  8
_0-3_躯体と製品
  6
CONTINUOUS
 62
    3
 10
3108.3590850140472
 20
1805.6418402765175
 40
1.0000399999994443
 50
359.99999999997397
 51
89.999999999973952
  0
LINE
  8
_0-3_躯体と製品
  6
CONTINUOUS
 62
    3
 10
3108.3590850140481
 20
1806.641880276517
 11
3100.3587690140475
 21
1806.641880276517
  0
LINE
  8
_0-3_躯体と製品
  6
CONTINUOUS
 62
    3
 10
3109.3591230140473
 20
1813.6419182765171
 11
3109.3591230140473
 21
1818.641880276517
  0
ARC
  8
_0-3_躯体と製品
  6
CONTINUOUS
 62
    3
 10
3108.3590850140472
 20
1813.6419182765164
 40
1.0000399999995579
 50
270.00000000003257
 51
0.0000000000325816
  0
LINE
  8
_0-3_躯体と製品
  6
CONTINUOUS
 62
    3
 10
3108.3590850140481
 20
1812.641880276517
 11
3100.3587690140475
 21
1812.641880276517
  0
ARC
  8
_0-3_躯体と製品
  6
CONTINUOUS
 62
    3
 10
3100.3587690140475
 20
1811.6418402765171
 40
1.000039999999899
 50
90
 51
180
  0
LINE
  8
_0-3_躯体と製品
  6
CONTINUOUS
 62
    3
 10
3099.3587310140474
 20
1811.6418402765171
 11
3099.3587310140474
 21
1807.6419202765169
  0
ARC
  8
_0-3_躯体と製品
  6
CONTINUOUS
 62
    3
 10
3100.358769014048
 20
1807.6419202765169
 40
1.0000400000000127
 50
179.99999999999349
 51
269.99999999999346
  0
LINE
  8
_0-3_躯体と製品
  6
CONTINUOUS
 62
    3
 10
2809.3591230140473
 20
1805.6418402765171
 11
2809.3591230140473
 21
1800.641880276517
  0
ARC
  8
_0-3_躯体と製品
  6
CONTINUOUS
 62
    3
 10
2808.3590850140481
 20
1805.6418402765171
 40
1.000039999999899
 50
0.0000000000000052
 51
90.000000000000014
  0
LINE
  8
_0-3_躯体と製品
  6
CONTINUOUS
 62
    3
 10
2808.3590850140481
 20
1806.641880276517
 11
2800.3587690140475
 21
1806.641880276517
  0
LINE
  8
_0-3_躯体と製品
  6
CONTINUOUS
 62
    3
 10
2809.3591230140473
 20
1813.6419182765171
 11
2809.3591230140473
 21
1818.641880276517
  0
ARC
  8
_0-3_躯体と製品
  6
CONTINUOUS
 62
    3
 10
2808.3590850140481
 20
1813.6419182765169
 40
1.0000400000000127
 50
270.00000000000648
 51
0.0000000000065264
  0
LINE
  8
_0-3_躯体と製品
  6
CONTINUOUS
 62
    3
 10
2808.3590850140481
 20
1812.641880276517
 11
2800.3587690140475
 21
1812.641880276517
  0
ARC
  8
_0-3_躯体と製品
  6
CONTINUOUS
 62
    3
 10
2800.3587690140475
 20
1811.6418402765171
 40
1.000039999999899
 50
90
 51
180
  0
LINE
  8
_0-3_躯体と製品
  6
CONTINUOUS
 62
    3
 10
2799.3587310140474
 20
1811.6418402765171
 11
2799.3587310140474
 21
1807.6419202765169
  0
ARC
  8
_0-3_躯体と製品
  6
CONTINUOUS
 62
    3
 10
2800.358769014048
 20
1807.6419202765169
 40
1.0000400000000127
 50
179.99999999999349
 51
269.99999999999346
  0
LINE
  8
_0-3_躯体と製品
  6
CONTINUOUS
 62
    3
 10
2509.3591230140473
 20
1805.6418402765171
 11
2509.3591230140473
 21
1800.641880276517
  0
ARC
  8
_0-3_躯体と製品
  6
CONTINUOUS
 62
    3
 10
2508.3590850140472
 20
1805.6418402765175
 40
1.0000399999994443
 50
359.99999999997397
 51
89.999999999973952
  0
LINE
  8
_0-3_躯体と製品
  6
CONTINUOUS
 62
    3
 10
2508.3590850140481
 20
1806.641880276517
 11
2500.3587690140475
 21
1806.641880276517
  0
LINE
  8
_0-3_躯体と製品
  6
CONTINUOUS
 62
    3
 10
2509.3591230140473
 20
1813.6419182765171
 11
2509.3591230140473
 21
1818.641880276517
  0
ARC
  8
_0-3_躯体と製品
  6
CONTINUOUS
 62
    3
 10
2508.3590850140472
 20
1813.6419182765164
 40
1.0000399999995579
 50
270.00000000003257
 51
0.0000000000325816
  0
LINE
  8
_0-3_躯体と製品
  6
CONTINUOUS
 62
    3
 10
2508.3590850140481
 20
1812.641880276517
 11
2500.3587690140475
 21
1812.641880276517
  0
ARC
  8
_0-3_躯体と製品
  6
CONTINUOUS
 62
    3
 10
2500.3587690140475
 20
1811.6418402765171
 40
1.000039999999899
 50
90
 51
180
  0
LINE
  8
_0-3_躯体と製品
  6
CONTINUOUS
 62
    3
 10
2499.3587310140474
 20
1811.6418402765171
 11
2499.3587310140474
 21
1807.6419202765169
  0
ARC
  8
_0-3_躯体と製品
  6
CONTINUOUS
 62
    3
 10
2500.358769014048
 20
1807.6419202765169
 40
1.0000400000000127
 50
179.99999999999349
 51
269.99999999999346
  0
LINE
  8
_0-3_躯体と製品
  6
CONTINUOUS
 62
    3
 10
641.51246090314203
 20
1805.6418402765171
 11
641.51246090314203
 21
1800.641880276517
  0
ARC
  8
_0-3_躯体と製品
  6
CONTINUOUS
 62
    3
 10
640.5124229031419
 20
1805.6418402765171
 40
1.000039999999899
 50
0.0000000000000052
 51
90.000000000000014
  0
LINE
  8
_0-3_躯体と製品
  6
CONTINUOUS
 62
    3
 10
640.5124229031419
 20
1806.641880276517
 11
632.51210690314224
 21
1806.641880276517
  0
LINE
  8
_0-3_躯体と製品
  6
CONTINUOUS
 62
    3
 10
641.51246090314203
 20
1813.6419182765171
 11
641.51246090314203
 21
1818.641880276517
  0
ARC
  8
_0-3_躯体と製品
  6
CONTINUOUS
 62
    3
 10
640.5124229031419
 20
1813.6419182765169
 40
1.0000400000000127
 50
270.00000000000648
 51
0.0000000000065264
  0
LINE
  8
_0-3_躯体と製品
  6
CONTINUOUS
 62
    3
 10
640.5124229031419
 20
1812.641880276517
 11
632.51210690314224
 21
1812.641880276517
  0
ARC
  8
_0-3_躯体と製品
  6
CONTINUOUS
 62
    3
 10
632.51210690314224
 20
1811.6418402765171
 40
1.000039999999899
 50
90
 51
180
  0
LINE
  8
_0-3_躯体と製品
  6
CONTINUOUS
 62
    3
 10
631.51206890314211
 20
1811.6418402765171
 11
631.51206890314211
 21
1807.6419202765169
  0
ARC
  8
_0-3_躯体と製品
  6
CONTINUOUS
 62
    3
 10
632.51210690314247
 20
1807.6419202765169
 40
1.0000400000000127
 50
179.99999999999349
 51
269.99999999999346
  0
LINE
  8
_0-3_躯体と製品
  6
CONTINUOUS
 62
    3
 10
1241.5124609031418
 20
1805.6418402765171
 11
1241.5124609031418
 21
1800.641880276517
  0
ARC
  8
_0-3_躯体と製品
  6
CONTINUOUS
 62
    3
 10
1240.5124229031419
 20
1805.6418402765171
 40
1.000039999999899
 50
0.0000000000000052
 51
90.000000000000014
  0
LINE
  8
_0-3_躯体と製品
  6
CONTINUOUS
 62
    3
 10
1240.5124229031419
 20
1806.641880276517
 11
1232.512106903142
 21
1806.641880276517
  0
LINE
  8
_0-3_躯体と製品
  6
CONTINUOUS
 62
    3
 10
1241.5124609031418
 20
1813.6419182765171
 11
1241.5124609031418
 21
1818.641880276517
  0
ARC
  8
_0-3_躯体と製品
  6
CONTINUOUS
 62
    3
 10
1240.5124229031417
 20
1813.6419182765169
 40
1.0000400000000127
 50
270.00000000000648
 51
0.0000000000065264
  0
LINE
  8
_0-3_躯体と製品
  6
CONTINUOUS
 62
    3
 10
1240.5124229031419
 20
1812.641880276517
 11
1232.512106903142
 21
1812.641880276517
  0
ARC
  8
_0-3_躯体と製品
  6
CONTINUOUS
 62
    3
 10
1232.512106903142
 20
1811.6418402765171
 40
1.000039999999899
 50
90
 51
180
  0
LINE
  8
_0-3_躯体と製品
  6
CONTINUOUS
 62
    3
 10
1231.5120689031421
 20
1811.6418402765171
 11
1231.5120689031421
 21
1807.6419202765169
  0
ARC
  8
_0-3_躯体と製品
  6
CONTINUOUS
 62
    3
 10
1232.5121069031422
 20
1807.6419202765169
 40
1.0000400000000127
 50
179.99999999999349
 51
269.99999999999346
  0
LINE
  8
_0-3_躯体と製品
  6
CONTINUOUS
 62
    3
 10
359.52725833500494
 20
1805.6418402765171
 11
359.52725833500494
 21
1800.641880276517
  0
ARC
  8
_0-3_躯体と製品
  6
CONTINUOUS
 62
    3
 10
358.52722033500527
 20
1805.6418402765166
 40
1.0000399999994443
 50
0.000000000026062
 51
90.000000000026077
  0
LINE
  8
_0-3_躯体と製品
  6
CONTINUOUS
 62
    3
 10
358.52722033500481
 20
1806.641880276517
 11
350.52690433500516
 21
1806.641880276517
  0
LINE
  8
_0-3_躯体と製品
  6
CONTINUOUS
 62
    3
 10
359.52725833500494
 20
1813.6419182765171
 11
359.52725833500494
 21
1818.641880276517
  0
ARC
  8
_0-3_躯体と製品
  6
CONTINUOUS
 62
    3
 10
358.52722033500481
 20
1813.6419182765169
 40
1.0000400000000127
 50
270.00000000000648
 51
0.0000000000065264
  0
LINE
  8
_0-3_躯体と製品
  6
CONTINUOUS
 62
    3
 10
358.52722033500481
 20
1812.6418802765161
 11
350.52690433500516
 21
1812.6418802765161
  0
ARC
  8
_0-3_躯体と製品
  6
CONTINUOUS
 62
    3
 10
350.5269043350047
 20
1811.6418402765166
 40
1.0000399999994443
 50
89.999999999973952
 51
179.99999999997394
  0
LINE
  8
_0-3_躯体と製品
  6
CONTINUOUS
 62
    3
 10
349.52686633500502
 20
1811.6418402765171
 11
349.52686633500502
 21
1807.6419202765169
  0
ARC
  8
_0-3_躯体と製品
  6
CONTINUOUS
 62
    3
 10
350.52690433500538
 20
1807.6419202765169
 40
1.0000400000000127
 50
179.99999999999349
 51
269.99999999999346
  0
LINE
  8
_0-3_躯体と製品
  6
CONTINUOUS
 62
    3
 10
941.51246090314191
 20
1805.6418402765171
 11
941.51246090314191
 21
1800.641880276517
  0
ARC
  8
_0-3_躯体と製品
  6
CONTINUOUS
 62
    3
 10
940.5124229031419
 20
1805.6418402765171
 40
1.0000399999999559
 50
0.0000000000032618
 51
90.000000000003268
  0
LINE
  8
_0-3_躯体と製品
  6
CONTINUOUS
 62
    3
 10
940.5124229031419
 20
1806.641880276517
 11
932.51210690314213
 21
1806.641880276517
  0
LINE
  8
_0-3_躯体と製品
  6
CONTINUOUS
 62
    3
 10
941.51246090314191
 20
1813.6419182765171
 11
941.51246090314191
 21
1818.641880276517
  0
ARC
  8
_0-3_躯体と製品
  6
CONTINUOUS
 62
    3
 10
940.5124229031419
 20
1813.6419182765169
 40
1.0000400000000695
 50
270.00000000000324
 51
0.0000000000032696
  0
LINE
  8
_0-3_躯体と製品
  6
CONTINUOUS
 62
    3
 10
940.5124229031419
 20
1812.641880276517
 11
932.51210690314213
 21
1812.641880276517
  0
ARC
  8
_0-3_躯体と製品
  6
CONTINUOUS
 62
    3
 10
932.51210690314201
 20
1811.6418402765169
 40
1.0000399999999559
 50
89.999999999996746
 51
179.99999999999673
  0
LINE
  8
_0-3_躯体と製品
  6
CONTINUOUS
 62
    3
 10
931.51206890314211
 20
1811.6418402765171
 11
931.51206890314211
 21
1807.6419202765169
  0
ARC
  8
_0-3_躯体と製品
  6
CONTINUOUS
 62
    3
 10
932.51210690314224
 20
1807.6419202765169
 40
1.0000400000000695
 50
179.99999999999673
 51
269.99999999999676
  0
LINE
  8
_0-3_躯体と製品
  6
CONTINUOUS
 62
    6
 10
84.014769331431125
 20
636.36683998515116
 11
89.527258335004717
 21
641.87931800217768
  0
LINE
  8
_0-3_躯体と製品
  6
CONTINUOUS
 62
    3
 10
77.527258335004717
 20
749.36683998515093
 11
89.527258335004717
 21
749.3668399851515
  0
LINE
  8
_0-3_躯体と製品
  6
CONTINUOUS
 62
    3
 10
65.027258335004717
 20
741.36683998515105
 11
77.527258335004717
 21
741.36683998515105
  0
LINE
  8
_0-3_躯体と製品
  6
CONTINUOUS
 62
    3
 10
65.027258335004717
 20
1031.0561699851503
 11
65.027258335004717
 21
741.36683998515105
  0
LINE
  8
_0-3_躯体と製品
  6
CONTINUOUS
 62
    3
 10
65.027258335004717
 20
739.36683998515105
 11
77.527258335004717
 21
739.36683998515105
  0
LINE
  8
_0-3_躯体と製品
  6
CONTINUOUS
 62
    6
 10
65.027258335004717
 20
719.2371399851512
 11
89.527258335004717
 21
743.73713998515109
  0
LINE
  8
_0-3_躯体と製品
  6
CONTINUOUS
 62
    6
 10
65.027258335004717
 20
736.20769998515084
 11
68.186398335004924
 21
739.36683998515093
  0
LINE
  8
_0-3_躯体と製品
  6
CONTINUOUS
 62
    6
 10
65.027258335004717
 20
685.29600998515059
 11
89.527258335004717
 21
709.79600998515025
  0
LINE
  8
_0-3_躯体と製品
  6
CONTINUOUS
 62
    6
 10
65.027258335004717
 20
668.32544998515084
 11
89.527258335004717
 21
692.82544998515061
  0
LINE
  8
_0-3_躯体と製品
  6
CONTINUOUS
 62
    6
 10
65.027258335004717
 20
702.26656998515034
 11
89.527258335004717
 21
726.76656998515034
  0
LINE
  8
_0-3_躯体と製品
  6
CONTINUOUS
 62
    3
 10
65.027258335004717
 20
636.36683998515116
 11
89.527258335004717
 21
636.36683998515116
  0
LINE
  8
_0-3_躯体と製品
  6
CONTINUOUS
 62
    6
 10
67.009732460421219
 20
636.36683998515093
 11
89.527258335004944
 21
658.88432098166538
  0
LINE
  8
_0-3_躯体と製品
  6
CONTINUOUS
 62
    6
 10
65.027258335004717
 20
651.35489135496334
 11
89.527258335004717
 21
675.85488021254696
  0
LINE
  8
_0-3_躯体と製品
  6
CONTINUOUS
 62
    3
 10
77.527258335004717
 20
1031.0561699851503
 11
77.527258335004717
 21
739.36683998515105
  0
LINE
  8
_0-3_躯体と製品
  6
CONTINUOUS
 62
    3
 10
65.027258335004717
 20
741.36683998515105
 11
65.027258335004717
 21
636.36683998515093
  0
LINE
  8
_0-3_躯体と製品
  6
CONTINUOUS
 62
    3
 10
89.527258335004717
 20
636.36683998515116
 11
89.527258335004717
 21
749.3668399851515
  0
LINE
  8
_0-3_躯体と製品
  6
CONTINUOUS
 62
    4
 10
89.527258334636599
 20
631.36683998516139
 11
89.527258335004717
 21
649.3668399851482
  0
LINE
  8
_0-3_躯体と製品
  6
CONTINUOUS
 62
    4
 10
109.52725833500472
 20
649.3668399851482
 11
109.52725833500517
 21
631.36683998514843
  0
LINE
  8
_0-3_躯体と製品
  6
CONTINUOUS
 62
    4
 10
109.52725833500517
 20
631.36683998514843
 11
89.527258335004717
 21
631.36683998514843
  0
LINE
  8
_0-3_躯体と製品
  6
CONTINUOUS
 62
    6
 10
89.527258335004717
 20
632.15969998514765
 11
106.73439833500515
 21
649.3668399851482
  0
LINE
  8
_0-3_躯体と製品
  6
CONTINUOUS
 62
    6
 10
95.805468335006026
 20
631.36683998514843
 11
109.52725833500472
 21
645.08862998514689
  0
LINE
  8
_0-3_躯体と製品
  6
CONTINUOUS
 62
    6
 10
102.87652964207155
 20
631.36683998514866
 11
109.52725833500472
 21
638.01755998514727
  0
LINE
  8
_0-3_躯体と製品
  6
CONTINUOUS
 62
    6
 10
89.527258335004717
 20
639.23076998514807
 11
99.663328335005644
 21
649.3668399851482
  0
LINE
  8
_0-3_躯体と製品
  6
CONTINUOUS
 62
    6
 10
89.527258335004717
 20
646.30182998514795
 11
92.592258335006136
 21
649.3668399851482
  0
LINE
  8
_0-3_躯体と製品
  6
CONTINUOUS
 62
    3
 10
40.027258335004717
 20
799.3668399851498
 11
65.027258335004717
 21
799.3668399851498
  0
LINE
  8
_0-3_躯体と製品
  6
CONTINUOUS
 62
    3
 10
65.027258335004717
 20
1031.0561699851503
 11
65.027258335004717
 21
772.11840998515015
  0
LINE
  8
_0-3_躯体と製品
  6
CONTINUOUS
 62
    3
 10
40.027258335004717
 20
746.19909998515084
 11
65.027258335004717
 21
746.19909998515084
  0
LINE
  8
_0-3_躯体と製品
  6
CONTINUOUS
 62
    3
 10
40.027258335004717
 20
726.19909998515084
 11
65.027258335004717
 21
726.19909998515084
  0
LINE
  8
_0-3_躯体と製品
  6
CONTINUOUS
 62
    3
 10
40.027258335004717
 20
672.85578998515064
 11
65.027258335004717
 21
672.85578998515064
  0
LINE
  8
_0-3_躯体と製品
  6
CONTINUOUS
 62
    3
 10
40.027258335004717
 20
726.19909998515084
 11
65.027258335004717
 21
672.85578998515064
  0
LINE
  8
_0-3_躯体と製品
  6
CONTINUOUS
 62
    3
 10
65.027258335004717
 20
746.19909998515084
 11
40.027258335004717
 21
799.3668399851498
  0
LINE
  8
_0-3_躯体と製品
  6
CONTINUOUS
 62
    6
 10
84.014769331431353
 20
1805.6418802765161
 11
89.527258335004944
 21
1811.1543582935428
  0
LINE
  8
_0-3_躯体と製品
  6
CONTINUOUS
 62
    3
 10
77.527258335004944
 20
1918.6418802765161
 11
89.527258335004944
 21
1918.641880276517
  0
LINE
  8
_0-3_躯体と製品
  6
CONTINUOUS
 62
    3
 10
65.027258335004944
 20
1910.6418802765161
 11
77.527258335004944
 21
1910.6418802765161
  0
LINE
  8
_0-3_躯体と製品
  6
CONTINUOUS
 62
    3
 10
65.027258335004944
 20
2200.3312102765158
 11
65.027258335004944
 21
1910.6418802765161
  0
LINE
  8
_0-3_躯体と製品
  6
CONTINUOUS
 62
    3
 10
65.027258335004944
 20
1908.6418802765161
 11
77.527258335004944
 21
1908.6418802765161
  0
LINE
  8
_0-3_躯体と製品
  6
CONTINUOUS
 62
    6
 10
65.027258335004944
 20
1888.5121802765161
 11
89.527258335004944
 21
1913.0121802765161
  0
LINE
  8
_0-3_躯体と製品
  6
CONTINUOUS
 62
    6
 10
65.027258335004944
 20
1905.4827402765159
 11
68.186398335005151
 21
1908.6418802765161
  0
LINE
  8
_0-3_躯体と製品
  6
CONTINUOUS
 62
    6
 10
65.027258335004944
 20
1854.571050276516
 11
89.527258335004944
 21
1879.071050276516
  0
LINE
  8
_0-3_躯体と製品
  6
CONTINUOUS
 62
    6
 10
65.027258335004944
 20
1837.6004902765158
 11
89.527258335004944
 21
1862.1004902765158
  0
LINE
  8
_0-3_躯体と製品
  6
CONTINUOUS
 62
    6
 10
65.027258335004944
 20
1871.5416102765157
 11
89.527258335004944
 21
1896.0416102765157
  0
LINE
  8
_0-3_躯体と製品
  6
CONTINUOUS
 62
    3
 10
65.027258335004944
 20
1805.6418802765161
 11
89.527258335004944
 21
1805.6418802765161
  0
LINE
  8
_0-3_躯体と製品
  6
CONTINUOUS
 62
    6
 10
67.009732460421446
 20
1805.6418802765161
 11
89.527258335005172
 21
1828.1593612730298
  0
LINE
  8
_0-3_躯体と製品
  6
CONTINUOUS
 62
    6
 10
65.027258335004944
 20
1820.6299316463287
 11
89.527258335004944
 21
1845.1299205039118
  0
LINE
  8
_0-3_躯体と製品
  6
CONTINUOUS
 62
    3
 10
77.527258335004944
 20
2200.3312102765158
 11
77.527258335004944
 21
1908.6418802765161
  0
LINE
  8
_0-3_躯体と製品
  6
CONTINUOUS
 62
    3
 10
65.027258335004944
 20
1910.6418802765161
 11
65.027258335004944
 21
1805.6418802765161
  0
LINE
  8
_0-3_躯体と製品
  6
CONTINUOUS
 62
    3
 10
89.527258335004944
 20
1805.6418802765161
 11
89.527258335004944
 21
1918.641880276517
  0
LINE
  8
_0-3_躯体と製品
  6
CONTINUOUS
 62
    4
 10
89.527258334636826
 20
1800.641880276527
 11
89.527258335004944
 21
1818.6418802765129
  0
LINE
  8
_0-3_躯体と製品
  6
CONTINUOUS
 62
    4
 10
109.52725833500494
 20
1818.6418802765129
 11
109.5272583350054
 21
1800.6418802765138
  0
LINE
  8
_0-3_躯体と製品
  6
CONTINUOUS
 62
    4
 10
109.5272583350054
 20
1800.6418802765138
 11
89.527258335004944
 21
1800.6418802765138
  0
LINE
  8
_0-3_躯体と製品
  6
CONTINUOUS
 62
    6
 10
89.527258335004944
 20
1801.4347402765129
 11
106.73439833500538
 21
1818.6418802765129
  0
LINE
  8
_0-3_躯体と製品
  6
CONTINUOUS
 62
    6
 10
95.805468335006253
 20
1800.6418802765138
 11
109.52725833500494
 21
1814.363670276512
  0
LINE
  8
_0-3_躯体と製品
  6
CONTINUOUS
 62
    6
 10
102.87652964207177
 20
1800.6418802765138
 11
109.52725833500494
 21
1807.292600276513
  0
LINE
  8
_0-3_躯体と製品
  6
CONTINUOUS
 62
    6
 10
89.527258335004944
 20
1808.5058102765129
 11
99.663328335005872
 21
1818.6418802765129
  0
LINE
  8
_0-3_躯体と製品
  6
CONTINUOUS
 62
    6
 10
89.527258335004944
 20
1815.5768702765131
 11
92.592258335006363
 21
1818.6418802765129
  0
LINE
  8
_0-3_躯体と製品
  6
CONTINUOUS
 62
    3
 10
40.027258335004944
 20
1968.6418802765147
 11
65.027258335004944
 21
1968.6418802765147
  0
LINE
  8
_0-3_躯体と製品
  6
CONTINUOUS
 62
    3
 10
65.027258335004944
 20
2200.3312102765158
 11
65.027258335004944
 21
1941.3934502765151
  0
LINE
  8
_0-3_躯体と製品
  6
CONTINUOUS
 62
    3
 10
40.027258335004944
 20
1915.4741402765158
 11
65.027258335004944
 21
1915.4741402765158
  0
LINE
  8
_0-3_躯体と製品
  6
CONTINUOUS
 62
    3
 10
40.027258335004944
 20
1895.4741402765158
 11
65.027258335004944
 21
1895.4741402765158
  0
LINE
  8
_0-3_躯体と製品
  6
CONTINUOUS
 62
    3
 10
40.027258335004944
 20
1842.130830276516
 11
65.027258335004944
 21
1842.130830276516
  0
LINE
  8
_0-3_躯体と製品
  6
CONTINUOUS
 62
    3
 10
40.027258335004944
 20
1895.4741402765158
 11
65.027258335004944
 21
1842.130830276516
  0
LINE
  8
_0-3_躯体と製品
  6
CONTINUOUS
 62
    4
 10
65.027258335004944
 20
1756.6418802765161
 11
65.027258335004944
 21
1800.6418802765161
  0
LINE
  8
_0-3_躯体と製品
  6
CONTINUOUS
 62
    3
 10
65.027258335004944
 20
1915.4741402765158
 11
40.027258335004944
 21
1968.6418802765147
  0
LINE
  8
_0-3_躯体と製品
  6
CONTINUOUS
 62
    6
 10
1909.1394993314307
 20
1805.6418802765161
 11
1914.6519883350047
 21
1811.1543582935428
  0
LINE
  8
_0-3_躯体と製品
  6
CONTINUOUS
 62
    3
 10
1902.6519883350047
 20
1918.6418802765161
 11
1914.6519883350047
 21
1918.641880276517
  0
LINE
  8
_0-3_躯体と製品
  6
CONTINUOUS
 62
    3
 10
1890.1519883350047
 20
1910.6418802765161
 11
1902.6519883350047
 21
1910.6418802765161
  0
LINE
  8
_0-3_躯体と製品
  6
CONTINUOUS
 62
    3
 10
1890.1519883350047
 20
2200.3312102765158
 11
1890.1519883350047
 21
1910.6418802765161
  0
LINE
  8
_0-3_躯体と製品
  6
CONTINUOUS
 62
    3
 10
1890.1519883350047
 20
1908.6418802765161
 11
1902.6519883350047
 21
1908.6418802765161
  0
LINE
  8
_0-3_躯体と製品
  6
CONTINUOUS
 62
    6
 10
1890.1519883350047
 20
1888.5121802765161
 11
1914.6519883350047
 21
1913.0121802765161
  0
LINE
  8
_0-3_躯体と製品
  6
CONTINUOUS
 62
    6
 10
1890.1519883350047
 20
1905.4827402765159
 11
1893.3111283350047
 21
1908.6418802765161
  0
LINE
  8
_0-3_躯体と製品
  6
CONTINUOUS
 62
    6
 10
1890.1519883350047
 20
1854.571050276516
 11
1914.6519883350047
 21
1879.071050276516
  0
LINE
  8
_0-3_躯体と製品
  6
CONTINUOUS
 62
    6
 10
1890.1519883350047
 20
1837.6004902765158
 11
1914.6519883350047
 21
1862.1004902765158
  0
LINE
  8
_0-3_躯体と製品
  6
CONTINUOUS
 62
    6
 10
1890.1519883350047
 20
1871.5416102765157
 11
1914.6519883350047
 21
1896.0416102765157
  0
LINE
  8
_0-3_躯体と製品
  6
CONTINUOUS
 62
    3
 10
1890.1519883350047
 20
1805.6418802765161
 11
1914.6519883350047
 21
1805.6418802765161
  0
LINE
  8
_0-3_躯体と製品
  6
CONTINUOUS
 62
    6
 10
1892.1344624604208
 20
1805.6418802765161
 11
1914.6519883350047
 21
1828.1593612730298
  0
LINE
  8
_0-3_躯体と製品
  6
CONTINUOUS
 62
    6
 10
1890.1519883350047
 20
1820.6299316463287
 11
1914.6519883350047
 21
1845.1299205039118
  0
LINE
  8
_0-3_躯体と製品
  6
CONTINUOUS
 62
    3
 10
1902.6519883350047
 20
2200.3312102765158
 11
1902.6519883350047
 21
1908.6418802765161
  0
LINE
  8
_0-3_躯体と製品
  6
CONTINUOUS
 62
    3
 10
1890.1519883350047
 20
1910.6418802765161
 11
1890.1519883350047
 21
1805.6418802765161
  0
LINE
  8
_0-3_躯体と製品
  6
CONTINUOUS
 62
    3
 10
1914.6519883350047
 20
1805.6418802765161
 11
1914.6519883350047
 21
1918.641880276517
  0
LINE
  8
_0-3_躯体と製品
  6
CONTINUOUS
 62
    4
 10
1914.6519883346368
 20
1800.641880276527
 11
1914.6519883350047
 21
1818.6418802765129
  0
LINE
  8
_0-3_躯体と製品
  6
CONTINUOUS
 62
    4
 10
1934.6519883350047
 20
1818.6418802765129
 11
1934.6519883350059
 21
1800.6418802765138
  0
LINE
  8
_0-3_躯体と製品
  6
CONTINUOUS
 62
    4
 10
1934.6519883350059
 20
1800.6418802765138
 11
1914.6519883350047
 21
1800.6418802765138
  0
LINE
  8
_0-3_躯体と製品
  6
CONTINUOUS
 62
    6
 10
1914.6519883350047
 20
1801.4347402765129
 11
1931.8591283350047
 21
1818.6418802765129
  0
LINE
  8
_0-3_躯体と製品
  6
CONTINUOUS
 62
    6
 10
1920.9301983350058
 20
1800.6418802765138
 11
1934.6519883350047
 21
1814.363670276512
  0
LINE
  8
_0-3_躯体と製品
  6
CONTINUOUS
 62
    6
 10
1928.0012596420718
 20
1800.6418802765138
 11
1934.6519883350047
 21
1807.292600276513
  0
LINE
  8
_0-3_躯体と製品
  6
CONTINUOUS
 62
    6
 10
1914.6519883350047
 20
1808.5058102765129
 11
1924.7880583350059
 21
1818.6418802765129
  0
LINE
  8
_0-3_躯体と製品
  6
CONTINUOUS
 62
    6
 10
1914.6519883350047
 20
1815.5768702765131
 11
1917.7169883350068
 21
1818.6418802765129
  0
LINE
  8
_0-3_躯体と製品
  6
CONTINUOUS
 62
    3
 10
1128.3750559031419
 20
636.36679998515149
 11
1128.3750559031419
 21
631.36683998515161
  0
ARC
  8
_0-3_躯体と製品
  6
CONTINUOUS
 62
    3
 10
1127.375017903142
 20
636.36679998515149
 40
1.0000400000000695
 50
0.0000000000032618
 51
90.000000000003268
  0
LINE
  8
_0-3_躯体と製品
  6
CONTINUOUS
 62
    3
 10
1127.3750179031417
 20
637.36683998515161
 11
1119.3747019031421
 21
637.36683998515161
  0
LINE
  8
_0-3_躯体と製品
  6
CONTINUOUS
 62
    3
 10
1128.3750559031419
 20
644.36687798515152
 11
1128.3750559031419
 21
649.36683998515139
  0
ARC
  8
_0-3_躯体と製品
  6
CONTINUOUS
 62
    3
 10
1127.375017903142
 20
644.36687798515163
 40
1.0000400000000695
 50
269.99999999999676
 51
359.99999999999676
  0
LINE
  8
_0-3_躯体と製品
  6
CONTINUOUS
 62
    3
 10
1127.3750179031417
 20
643.36683998515139
 11
1119.3747019031421
 21
643.36683998515139
  0
ARC
  8
_0-3_躯体と製品
  6
CONTINUOUS
 62
    3
 10
1119.3747019031421
 20
642.3667999851516
 40
1.0000399999999559
 50
90.000000000003254
 51
180.00000000000327
  0
LINE
  8
_0-3_躯体と製品
  6
CONTINUOUS
 62
    3
 10
1118.3746639031419
 20
642.36679998515149
 11
1118.3746639031419
 21
638.36687998515151
  0
ARC
  8
_0-3_躯体と製品
  6
CONTINUOUS
 62
    3
 10
1119.3747019031423
 20
638.3668799851514
 40
1.0000399999999559
 50
179.99999999999673
 51
269.99999999999676
  0
LINE
  8
_0-3_躯体と製品
  6
CONTINUOUS
 62
    4
 10
2282.6516883350059
 20
1800.6418802765161
 11
3188.7726983350058
 21
1800.641880276517
  0
LINE
  8
_0-3_躯体と製品
  6
CONTINUOUS
 62
    4
 10
1890.1519883350047
 20
1800.6418802765161
 11
2122.6522883350058
 21
1800.6418802765161
  0
LINE
  8
_0-3_躯体と製品
  6
CONTINUOUS
 62
    3
 10
2282.6516883350059
 20
1790.6418802765161
 11
3188.7726983350058
 21
1790.641880276517
  0
LINE
  8
_0-3_躯体と製品
  6
CONTINUOUS
 62
    3
 10
1890.1519883350047
 20
1790.6418802765161
 11
2122.6522883350058
 21
1790.6418802765161
  0
LINE
  8
_0-3_躯体と製品
  6
CONTINUOUS
 62
    3
 10
2282.6516883350059
 20
1795.641880276517
 11
3188.7726983350058
 21
1795.641880276517
  0
LINE
  8
_0-3_躯体と製品
  6
CONTINUOUS
 62
    3
 10
1890.1519883350047
 20
1795.6418802765161
 11
2122.6522883350058
 21
1795.6418802765161
  0
LINE
  8
_0-3_躯体と製品
  6
CONTINUOUS
 62
    4
 10
1914.6519883350047
 20
1818.6418802766079
 11
3188.7726983350058
 21
1818.641880276517
  0
LINE
  8
_0-3_躯体と製品
  6
CONTINUOUS
 62
    4
 10
1890.1519883350047
 20
1785.6418802765161
 11
3188.7726983350058
 21
1785.641880276517
  0
LINE
  8
_0-3_躯体と製品
  6
CONTINUOUS
 62
    4
 10
1043.3740559031421
 20
535.36683998515127
 11
1419.0090859031438
 21
535.36683998515127
  0
LINE
  8
_0-3_躯体と製品
  6
CONTINUOUS
 62
    4
 10
531.23347590314233
 20
616.36683998515116
 11
1419.0090859031438
 21
616.3668399851515
  0
LINE
  8
_0-3_躯体と製品
  6
CONTINUOUS
 62
    4
 10
77.527258335004944
 20
616.36683998515093
 11
471.42001833500376
 21
616.36683998515116
  0
LINE
  8
_0-3_躯体と製品
  6
CONTINUOUS
 62
    4
 10
531.23347590314233
 20
649.3668399851515
 11
1419.0090859031438
 21
649.3668399851515
  0
LINE
  8
_0-3_躯体と製品
  6
CONTINUOUS
 62
    4
 10
89.527258335004717
 20
649.3668399851515
 11
471.42001833500376
 21
649.3668399851515
  0
LINE
  8
_0-3_躯体と製品
  6
CONTINUOUS
 62
    4
 10
531.23347590314233
 20
631.36683998515116
 11
1419.0090859031438
 21
631.36683998515139
  0
LINE
  8
_0-3_躯体と製品
  6
CONTINUOUS
 62
    4
 10
77.527258335004944
 20
631.36683998515093
 11
471.42001833500376
 21
631.36683998515116
  0
LINE
  8
_0-3_躯体と製品
  6
CONTINUOUS
 62
    4
 10
1043.3740559031421
 20
585.36683998515127
 11
1419.0090859031438
 21
585.36683998515127
  0
LINE
  8
_0-3_躯体と製品
  6
CONTINUOUS
 62
    3
 10
531.23347590314233
 20
626.36683998515116
 11
1419.0090859031438
 21
626.36683998515139
  0
LINE
  8
_0-3_躯体と製品
  6
CONTINUOUS
 62
    3
 10
77.527258335004944
 20
626.36683998515093
 11
471.42001833500376
 21
626.36683998515116
  0
LINE
  8
_0-3_躯体と製品
  6
CONTINUOUS
 62
    3
 10
531.23347590314233
 20
621.36683998515116
 11
1419.0090859031438
 21
621.3668399851515
  0
LINE
  8
_0-3_躯体と製品
  6
CONTINUOUS
 62
    3
 10
77.527258335004944
 20
621.36683998515093
 11
471.42001833500376
 21
621.36683998515116
  0
LINE
  8
_0-3_躯体と製品
  6
CONTINUOUS
 62
    4
 10
531.23347590314233
 20
535.36683998515127
 11
993.37405590314222
 21
535.36683998515127
  0
LINE
  8
_0-3_躯体と製品
  6
CONTINUOUS
 62
    4
 10
302.52725833500449
 20
535.36683998515127
 11
471.42001833500353
 21
535.36683998515127
  0
LINE
  8
_0-3_躯体と製品
  6
CONTINUOUS
 62
    4
 10
77.527258335004717
 20
535.36683998515116
 11
252.52725833500449
 21
535.36683998515127
  0
LINE
  8
_0-3_躯体と製品
  6
CONTINUOUS
 62
    4
 10
252.52725833500449
 20
585.36683998515127
 11
77.527258335004717
 21
585.36683998515116
  0
LINE
  8
_0-3_躯体と製品
  6
CONTINUOUS
 62
    4
 10
471.42001833500353
 20
585.36683998515127
 11
302.52725833500449
 21
585.36683998515139
  0
LINE
  8
_0-3_躯体と製品
  6
CONTINUOUS
 62
    4
 10
993.37405590314222
 20
585.36683998515127
 11
531.23347590314233
 21
585.36683998515127
  0
LINE
  8
_0-3_躯体と製品
  6
CONTINUOUS
 62
    4
 10
2018.8519890508458
 20
1756.6418802765161
 11
1890.1519883350047
 21
1756.6418802765161
  0
LINE
  8
_0-3_躯体と製品
  6
CONTINUOUS
 62
    3
 10
2018.8519891341798
 20
1759.641880276517
 11
1890.1519883350047
 21
1759.641880276517
  0
LINE
  8
_0-3_躯体と製品
  6
CONTINUOUS
 62
    4
 10
2836.4519883350049
 20
1756.6418802765161
 11
3188.7726983350058
 21
1756.6418802765161
  0
LINE
  8
_0-3_躯体と製品
  6
CONTINUOUS
 62
    4
 10
2768.8519890508469
 20
1756.6418802765161
 11
2086.4519883350049
 21
1756.6418802765161
  0
LINE
  8
_0-3_躯体と製品
  6
CONTINUOUS
 62
    3
 10
2836.4519883350049
 20
1759.641880276517
 11
3188.7726983350058
 21
1759.641880276517
  0
LINE
  8
_0-3_躯体と製品
  6
CONTINUOUS
 62
    3
 10
2768.8519891341793
 20
1759.641880276517
 11
2086.4519883350049
 21
1759.641880276517
  0
LINE
  8
_0-3_躯体と製品
  6
CONTINUOUS
 62
    4
 10
193.72725905084599
 20
1756.641880276517
 11
65.027258335004944
 21
1756.641880276517
  0
LINE
  8
_0-3_躯体と製品
  6
CONTINUOUS
 62
    3
 10
193.7272591341798
 20
1759.641880276517
 11
65.027258335004944
 21
1759.641880276517
  0
LINE
  8
_0-3_躯体と製品
  6
CONTINUOUS
 62
    4
 10
1052.1740559031425
 20
1756.641880276517
 11
1351.7914459031417
 21
1756.641880276517
  0
LINE
  8
_0-3_躯体と製品
  6
CONTINUOUS
 62
    4
 10
531.23347590314256
 20
1800.6418802765161
 11
1351.7914459031417
 21
1800.641880276517
  0
LINE
  8
_0-3_躯体と製品
  6
CONTINUOUS
 62
    4
 10
65.027258335004944
 20
1800.6418802765161
 11
471.42001833500376
 21
1800.6418802765161
  0
LINE
  8
_0-3_躯体と製品
  6
CONTINUOUS
 62
    3
 10
531.23347590314256
 20
1790.6418802765161
 11
1351.7914459031417
 21
1790.641880276517
  0
LINE
  8
_0-3_躯体と製品
  6
CONTINUOUS
 62
    3
 10
65.027258335004944
 20
1790.6418802765161
 11
471.42001833500376
 21
1790.6418802765161
  0
LINE
  8
_0-3_躯体と製品
  6
CONTINUOUS
 62
    3
 10
531.23347590314256
 20
1795.641880276517
 11
1351.7914459031417
 21
1795.641880276517
  0
LINE
  8
_0-3_躯体と製品
  6
CONTINUOUS
 62
    3
 10
65.027258335004944
 20
1795.6418802765161
 11
471.42001833500376
 21
1795.641880276517
  0
LINE
  8
_0-3_躯体と製品
  6
CONTINUOUS
 62
    4
 10
531.23347590314256
 20
1818.641880276517
 11
1351.7914459031417
 21
1818.641880276517
  0
LINE
  8
_0-3_躯体と製品
  6
CONTINUOUS
 62
    4
 10
89.527258335004944
 20
1818.6418802765161
 11
471.42001833500376
 21
1818.641880276517
  0
LINE
  8
_0-3_躯体と製品
  6
CONTINUOUS
 62
    4
 10
531.23347590314256
 20
1785.641880276517
 11
1351.7914459031417
 21
1785.641880276517
  0
LINE
  8
_0-3_躯体と製品
  6
CONTINUOUS
 62
    4
 10
65.027258335004944
 20
1785.6418802765161
 11
471.42001833500376
 21
1785.641880276517
  0
LINE
  8
_0-3_躯体と製品
  6
CONTINUOUS
 62
    4
 10
471.42001833500376
 20
1756.641880276517
 11
261.32725833500467
 21
1756.641880276517
  0
LINE
  8
_0-3_躯体と製品
  6
CONTINUOUS
 62
    4
 10
984.57405661898383
 20
1756.641880276517
 11
531.23347590314256
 21
1756.641880276517
  0
LINE
  8
_0-3_躯体と製品
  6
CONTINUOUS
 62
    3
 10
1052.1740559031425
 20
1759.641880276517
 11
1351.7914459031417
 21
1759.641880276517
  0
LINE
  8
_0-3_躯体と製品
  6
CONTINUOUS
 62
    3
 10
471.42001833500376
 20
1759.641880276517
 11
261.32725833500467
 21
1759.641880276517
  0
LINE
  8
_0-3_躯体と製品
  6
CONTINUOUS
 62
    3
 10
984.57405670231753
 20
1759.641880276517
 11
531.23347590314256
 21
1759.641880276517
  0
LINE
  8
_0-2_寸法
  6
CONTINUOUS
 62
    4
 10
1018.3740559031422
 20
1193.8558402765159
 11
1365.5329859031428
 21
1193.8558402765161
  0
LINE
  8
_0-2_寸法
  6
CONTINUOUS
 62
    4
 10
2802.9019883350047
 20
1193.8558402765161
 11
3201.2726983350049
 21
1193.8558402765161
  0
LINE
  8
_0-2_寸法
  6
CONTINUOUS
 62
    4
 10
1018.3740559031423
 20
36.231425079761948
 11
1434.9708559031417
 21
36.231425079761948
  0
LINE
  8
_0-2_寸法
  6
CONTINUOUS
 62
    4
 10
1168.3750559031419
 20
747.51918998515089
 11
1419.0090859031438
 21
747.51918998515089
  0
LINE
  8
_0-3_躯体と製品
  6
CONTINUOUS
 62
    3
 10
2928.9107883350061
 20
1271.1826202765158
 11
2976.3700483350058
 21
1318.6418802765163
  0
LINE
  8
_0-3_躯体と製品
  6
CONTINUOUS
 62
    3
 10
2943.0529283350052
 20
1271.1826202765158
 11
2990.5121883350057
 21
1318.6418802765163
  0
LINE
  8
_0-3_躯体と製品
  6
CONTINUOUS
 62
    3
 10
2962.2279183350056
 20
1318.6418802765163
 11
2914.7686483350044
 21
1271.1826202765158
  0
ARC
  8
_0-3_躯体と製品
  6
CONTINUOUS
 62
    3
 10
2271.6519883350056
 20
2181.943820276515
 40
2.4999999999999996
 50
0.0000000000000052
 51
90.000000000000014
  0
LINE
  8
_0-3_躯体と製品
  6
CONTINUOUS
 62
    3
 10
2274.1519883350056
 20
2181.943820276515
 11
2274.1519883350056
 21
2181.4438202765141
  0
ARC
  8
_0-3_躯体と製品
  6
CONTINUOUS
 62
    3
 10
2271.6519883350056
 20
2181.4438202765141
 40
2.4999999999999996
 50
270
 51
0.0000000000000127
  0
ARC
  8
_0-3_躯体と製品
  6
CONTINUOUS
 62
    3
 10
2271.6519883350056
 20
2167.943820276515
 40
2.4999999999999996
 50
0.0000000000000052
 51
90.000000000000014
  0
LINE
  8
_0-3_躯体と製品
  6
CONTINUOUS
 62
    3
 10
2274.1519883350056
 20
2167.943820276515
 11
2274.1519883350056
 21
2167.4438202765159
  0
ARC
  8
_0-3_躯体と製品
  6
CONTINUOUS
 62
    3
 10
2271.6519883350056
 20
2167.4438202765159
 40
2.4999999999999996
 50
270
 51
0.0000000000000127
  0
ARC
  8
_0-3_躯体と製品
  6
CONTINUOUS
 62
    3
 10
2271.6519883350056
 20
2153.9438202765141
 40
2.4999999999999996
 50
0.0000000000000052
 51
90.000000000000014
  0
LINE
  8
_0-3_躯体と製品
  6
CONTINUOUS
 62
    3
 10
2274.1519883350056
 20
2153.9438202765141
 11
2274.1519883350056
 21
2153.443820276515
  0
ARC
  8
_0-3_躯体と製品
  6
CONTINUOUS
 62
    3
 10
2271.6519883350056
 20
2153.443820276515
 40
2.4999999999999996
 50
270
 51
0.0000000000000127
  0
ARC
  8
_0-3_躯体と製品
  6
CONTINUOUS
 62
    3
 10
2271.6519883350056
 20
2139.9438202765159
 40
2.4999999999999996
 50
0.0000000000000052
 51
90.000000000000014
  0
LINE
  8
_0-3_躯体と製品
  6
CONTINUOUS
 62
    3
 10
2274.1519883350056
 20
2139.9438202765159
 11
2274.1519883350056
 21
2139.443820276515
  0
ARC
  8
_0-3_躯体と製品
  6
CONTINUOUS
 62
    3
 10
2271.6519883350056
 20
2139.443820276515
 40
2.4999999999999996
 50
270
 51
0.0000000000000127
  0
ARC
  8
_0-3_躯体と製品
  6
CONTINUOUS
 62
    3
 10
2271.6519883350056
 20
2125.943820276515
 40
2.4999999999999996
 50
0.0000000000000052
 51
90.000000000000014
  0
LINE
  8
_0-3_躯体と製品
  6
CONTINUOUS
 62
    3
 10
2274.1519883350056
 20
2125.943820276515
 11
2274.1519883350056
 21
2125.443820276515
  0
ARC
  8
_0-3_躯体と製品
  6
CONTINUOUS
 62
    3
 10
2271.6519883350056
 20
2125.443820276515
 40
2.4999999999999996
 50
270
 51
0.0000000000000127
  0
ARC
  8
_0-3_躯体と製品
  6
CONTINUOUS
 62
    3
 10
2271.6519883350056
 20
2111.943820276515
 40
2.4999999999999996
 50
0.0000000000000052
 51
90.000000000000014
  0
LINE
  8
_0-3_躯体と製品
  6
CONTINUOUS
 62
    3
 10
2274.1519883350056
 20
2111.943820276515
 11
2274.1519883350056
 21
2111.4438202765141
  0
ARC
  8
_0-3_躯体と製品
  6
CONTINUOUS
 62
    3
 10
2271.6519883350065
 20
2111.4438202765145
 40
2.4999999999995453
 50
269.9999999999896
 51
359.9999999999896
  0
ARC
  8
_0-3_躯体と製品
  6
CONTINUOUS
 62
    3
 10
2271.6519883350056
 20
2097.943820276515
 40
2.4999999999999996
 50
0.0000000000000052
 51
90.000000000000014
  0
LINE
  8
_0-3_躯体と製品
  6
CONTINUOUS
 62
    3
 10
2274.1519883350056
 20
2097.943820276515
 11
2274.1519883350056
 21
2097.4438202765159
  0
ARC
  8
_0-3_躯体と製品
  6
CONTINUOUS
 62
    3
 10
2271.6519883350056
 20
2097.4438202765159
 40
2.4999999999999996
 50
270
 51
0.0000000000000127
  0
ARC
  8
_0-3_躯体と製品
  6
CONTINUOUS
 62
    3
 10
2271.6519883350065
 20
2083.9438202765145
 40
2.4999999999995453
 50
0.0000000000104271
 51
90.000000000010445
  0
LINE
  8
_0-3_躯体と製品
  6
CONTINUOUS
 62
    3
 10
2274.1519883350056
 20
2083.943820276515
 11
2274.1519883350056
 21
2083.443820276515
  0
ARC
  8
_0-3_躯体と製品
  6
CONTINUOUS
 62
    3
 10
2271.6519883350056
 20
2083.443820276515
 40
2.4999999999999996
 50
270
 51
0.0000000000000127
  0
ARC
  8
_0-3_躯体と製品
  6
CONTINUOUS
 62
    3
 10
2271.6519883350056
 20
2069.9438202765159
 40
2.4999999999999996
 50
0.0000000000000052
 51
90.000000000000014
  0
LINE
  8
_0-3_躯体と製品
  6
CONTINUOUS
 62
    3
 10
2274.1519883350056
 20
2069.9438202765159
 11
2274.1519883350056
 21
2069.443820276515
  0
ARC
  8
_0-3_躯体と製品
  6
CONTINUOUS
 62
    3
 10
2271.6519883350056
 20
2069.443820276515
 40
2.4999999999999996
 50
270
 51
0.0000000000000127
  0
ARC
  8
_0-3_躯体と製品
  6
CONTINUOUS
 62
    3
 10
2271.6519883350056
 20
2055.943820276515
 40
2.4999999999999996
 50
0.0000000000000052
 51
90.000000000000014
  0
LINE
  8
_0-3_躯体と製品
  6
CONTINUOUS
 62
    3
 10
2274.1519883350056
 20
2055.943820276515
 11
2274.1519883350056
 21
2055.443820276515
  0
ARC
  8
_0-3_躯体と製品
  6
CONTINUOUS
 62
    3
 10
2271.6519883350056
 20
2055.443820276515
 40
2.4999999999999996
 50
270
 51
0.0000000000000127
  0
ARC
  8
_0-3_躯体と製品
  6
CONTINUOUS
 62
    3
 10
2249.1519883350056
 20
2181.4438202765141
 40
2.4999999999999996
 50
180
 51
270
  0
LINE
  8
_0-3_躯体と製品
  6
CONTINUOUS
 62
    3
 10
2246.6519883350056
 20
2181.4438202765141
 11
2246.6519883350056
 21
2181.943820276515
  0
ARC
  8
_0-3_躯体と製品
  6
CONTINUOUS
 62
    3
 10
2249.1519883350056
 20
2181.943820276515
 40
2.4999999999999996
 50
90
 51
180
  0
ARC
  8
_0-3_躯体と製品
  6
CONTINUOUS
 62
    3
 10
2237.1519883350052
 20
2181.4438202765132
 40
2.4999999999994311
 50
270.00000000001302
 51
0.0000000000130402
  0
LINE
  8
_0-3_躯体と製品
  6
CONTINUOUS
 62
    3
 10
2239.6519883350047
 20
2181.4438202765141
 11
2239.6519883350047
 21
2181.943820276515
  0
ARC
  8
_0-3_躯体と製品
  6
CONTINUOUS
 62
    3
 10
2237.1519883350052
 20
2181.9438202765155
 40
2.4999999999994311
 50
359.99999999998698
 51
89.999999999986997
  0
ARC
  8
_0-3_躯体と製品
  6
CONTINUOUS
 62
    3
 10
2249.1519883350056
 20
2167.4438202765159
 40
2.4999999999999996
 50
180
 51
270
  0
LINE
  8
_0-3_躯体と製品
  6
CONTINUOUS
 62
    3
 10
2246.6519883350056
 20
2167.4438202765159
 11
2246.6519883350056
 21
2167.943820276515
  0
ARC
  8
_0-3_躯体と製品
  6
CONTINUOUS
 62
    3
 10
2249.1519883350056
 20
2167.943820276515
 40
2.4999999999999996
 50
90
 51
180
  0
ARC
  8
_0-3_躯体と製品
  6
CONTINUOUS
 62
    3
 10
2237.1519883350052
 20
2167.4438202765155
 40
2.4999999999994311
 50
270.00000000001302
 51
0.0000000000130402
  0
LINE
  8
_0-3_躯体と製品
  6
CONTINUOUS
 62
    3
 10
2239.6519883350047
 20
2167.4438202765159
 11
2239.6519883350047
 21
2167.943820276515
  0
ARC
  8
_0-3_躯体と製品
  6
CONTINUOUS
 62
    3
 10
2237.1519883350052
 20
2167.9438202765155
 40
2.4999999999994311
 50
359.99999999998698
 51
89.999999999986997
  0
ARC
  8
_0-3_躯体と製品
  6
CONTINUOUS
 62
    3
 10
2249.1519883350056
 20
2153.443820276515
 40
2.4999999999999996
 50
180
 51
270
  0
LINE
  8
_0-3_躯体と製品
  6
CONTINUOUS
 62
    3
 10
2246.6519883350056
 20
2153.443820276515
 11
2246.6519883350056
 21
2153.9438202765141
  0
ARC
  8
_0-3_躯体と製品
  6
CONTINUOUS
 62
    3
 10
2249.1519883350056
 20
2153.9438202765141
 40
2.4999999999999996
 50
90
 51
180
  0
ARC
  8
_0-3_躯体と製品
  6
CONTINUOUS
 62
    3
 10
2237.1519883350052
 20
2153.4438202765141
 40
2.4999999999994311
 50
270.00000000001302
 51
0.0000000000130402
  0
LINE
  8
_0-3_躯体と製品
  6
CONTINUOUS
 62
    3
 10
2239.6519883350047
 20
2153.443820276515
 11
2239.6519883350047
 21
2153.9438202765141
  0
ARC
  8
_0-3_躯体と製品
  6
CONTINUOUS
 62
    3
 10
2237.1519883350052
 20
2153.9438202765145
 40
2.4999999999994311
 50
359.99999999998698
 51
89.999999999986997
  0
ARC
  8
_0-3_躯体と製品
  6
CONTINUOUS
 62
    3
 10
2249.1519883350056
 20
2139.443820276515
 40
2.4999999999999996
 50
180
 51
270
  0
LINE
  8
_0-3_躯体と製品
  6
CONTINUOUS
 62
    3
 10
2246.6519883350056
 20
2139.443820276515
 11
2246.6519883350056
 21
2139.9438202765159
  0
ARC
  8
_0-3_躯体と製品
  6
CONTINUOUS
 62
    3
 10
2249.1519883350056
 20
2139.9438202765159
 40
2.4999999999999996
 50
90
 51
180
  0
ARC
  8
_0-3_躯体と製品
  6
CONTINUOUS
 62
    3
 10
2237.1519883350052
 20
2139.4438202765141
 40
2.4999999999994311
 50
270.00000000001302
 51
0.0000000000130402
  0
LINE
  8
_0-3_躯体と製品
  6
CONTINUOUS
 62
    3
 10
2239.6519883350047
 20
2139.443820276515
 11
2239.6519883350047
 21
2139.9438202765159
  0
ARC
  8
_0-3_躯体と製品
  6
CONTINUOUS
 62
    3
 10
2237.1519883350052
 20
2139.9438202765168
 40
2.4999999999994311
 50
359.99999999998698
 51
89.999999999986997
  0
ARC
  8
_0-3_躯体と製品
  6
CONTINUOUS
 62
    3
 10
2190.6519883350065
 20
2181.943820276515
 40
2.4999999999999996
 50
0.0000000000000052
 51
90.000000000000014
  0
LINE
  8
_0-3_躯体と製品
  6
CONTINUOUS
 62
    3
 10
2193.1519883350065
 20
2181.943820276515
 11
2193.1519883350065
 21
2181.4438202765141
  0
ARC
  8
_0-3_躯体と製品
  6
CONTINUOUS
 62
    3
 10
2190.6519883350065
 20
2181.4438202765141
 40
2.4999999999999996
 50
270
 51
0.0000000000000127
  0
ARC
  8
_0-3_躯体と製品
  6
CONTINUOUS
 62
    3
 10
2190.6519883350065
 20
2167.943820276515
 40
2.4999999999999996
 50
0.0000000000000052
 51
90.000000000000014
  0
LINE
  8
_0-3_躯体と製品
  6
CONTINUOUS
 62
    3
 10
2193.1519883350065
 20
2167.943820276515
 11
2193.1519883350065
 21
2167.4438202765159
  0
ARC
  8
_0-3_躯体と製品
  6
CONTINUOUS
 62
    3
 10
2190.6519883350065
 20
2167.4438202765159
 40
2.4999999999999996
 50
270
 51
0.0000000000000127
  0
ARC
  8
_0-3_躯体と製品
  6
CONTINUOUS
 62
    3
 10
2190.6519883350065
 20
2153.9438202765141
 40
2.4999999999999996
 50
0.0000000000000052
 51
90.000000000000014
  0
LINE
  8
_0-3_躯体と製品
  6
CONTINUOUS
 62
    3
 10
2193.1519883350065
 20
2153.9438202765141
 11
2193.1519883350065
 21
2153.443820276515
  0
ARC
  8
_0-3_躯体と製品
  6
CONTINUOUS
 62
    3
 10
2190.6519883350065
 20
2153.443820276515
 40
2.4999999999999996
 50
270
 51
0.0000000000000127
  0
ARC
  8
_0-3_躯体と製品
  6
CONTINUOUS
 62
    3
 10
2190.6519883350065
 20
2139.9438202765159
 40
2.4999999999999996
 50
0.0000000000000052
 51
90.000000000000014
  0
LINE
  8
_0-3_躯体と製品
  6
CONTINUOUS
 62
    3
 10
2193.1519883350065
 20
2139.9438202765159
 11
2193.1519883350065
 21
2139.443820276515
  0
ARC
  8
_0-3_躯体と製品
  6
CONTINUOUS
 62
    3
 10
2190.6519883350065
 20
2139.443820276515
 40
2.4999999999999996
 50
270
 51
0.0000000000000127
  0
ARC
  8
_0-3_躯体と製品
  6
CONTINUOUS
 62
    3
 10
2214.6519883350052
 20
2181.9438202765155
 40
2.4999999999994311
 50
90.000000000013031
 51
180.00000000001302
  0
LINE
  8
_0-3_躯体と製品
  6
CONTINUOUS
 62
    3
 10
2212.1519883350056
 20
2181.943820276515
 11
2212.1519883350056
 21
2181.4438202765141
  0
ARC
  8
_0-3_躯体と製品
  6
CONTINUOUS
 62
    3
 10
2214.6519883350052
 20
2181.4438202765132
 40
2.4999999999994311
 50
179.99999999998698
 51
269.99999999998698
  0
ARC
  8
_0-3_躯体と製品
  6
CONTINUOUS
 62
    3
 10
2214.6519883350052
 20
2167.9438202765155
 40
2.4999999999994311
 50
90.000000000013031
 51
180.00000000001302
  0
LINE
  8
_0-3_躯体と製品
  6
CONTINUOUS
 62
    3
 10
2212.1519883350056
 20
2167.943820276515
 11
2212.1519883350056
 21
2167.4438202765159
  0
ARC
  8
_0-3_躯体と製品
  6
CONTINUOUS
 62
    3
 10
2214.6519883350052
 20
2167.4438202765155
 40
2.4999999999994311
 50
179.99999999998698
 51
269.99999999998698
  0
ARC
  8
_0-3_躯体と製品
  6
CONTINUOUS
 62
    3
 10
2214.6519883350052
 20
2153.9438202765145
 40
2.4999999999994311
 50
90.000000000013031
 51
180.00000000001302
  0
LINE
  8
_0-3_躯体と製品
  6
CONTINUOUS
 62
    3
 10
2212.1519883350056
 20
2153.9438202765141
 11
2212.1519883350056
 21
2153.443820276515
  0
ARC
  8
_0-3_躯体と製品
  6
CONTINUOUS
 62
    3
 10
2214.6519883350052
 20
2153.4438202765141
 40
2.4999999999994311
 50
179.99999999998698
 51
269.99999999998698
  0
ARC
  8
_0-3_躯体と製品
  6
CONTINUOUS
 62
    3
 10
2214.6519883350052
 20
2139.9438202765168
 40
2.4999999999994311
 50
90.000000000013031
 51
180.00000000001302
  0
LINE
  8
_0-3_躯体と製品
  6
CONTINUOUS
 62
    3
 10
2212.1519883350056
 20
2139.9438202765159
 11
2212.1519883350056
 21
2139.443820276515
  0
ARC
  8
_0-3_躯体と製品
  6
CONTINUOUS
 62
    3
 10
2214.6519883350052
 20
2139.4438202765141
 40
2.4999999999994311
 50
179.99999999998698
 51
269.99999999998698
  0
LINE
  8
_0-3_躯体と製品
  6
CONTINUOUS
 62
    3
 10
2214.6519883350047
 20
2178.9438202765141
 11
2237.1519883350056
 21
2178.9438202765141
  0
LINE
  8
_0-3_躯体と製品
  6
CONTINUOUS
 62
    3
 10
2237.1519883350056
 20
2184.443820276515
 11
2214.6519883350047
 21
2184.443820276515
  0
LINE
  8
_0-3_躯体と製品
  6
CONTINUOUS
 62
    3
 10
2214.6519883350047
 20
2164.9438202765159
 11
2237.1519883350056
 21
2164.9438202765159
  0
LINE
  8
_0-3_躯体と製品
  6
CONTINUOUS
 62
    3
 10
2237.1519883350056
 20
2170.443820276515
 11
2214.6519883350047
 21
2170.443820276515
  0
LINE
  8
_0-3_躯体と製品
  6
CONTINUOUS
 62
    3
 10
2214.6519883350047
 20
2150.943820276515
 11
2237.1519883350056
 21
2150.943820276515
  0
LINE
  8
_0-3_躯体と製品
  6
CONTINUOUS
 62
    3
 10
2237.1519883350056
 20
2156.4438202765141
 11
2214.6519883350047
 21
2156.4438202765141
  0
LINE
  8
_0-3_躯体と製品
  6
CONTINUOUS
 62
    3
 10
2214.6519883350047
 20
2136.943820276515
 11
2237.1519883350056
 21
2136.943820276515
  0
LINE
  8
_0-3_躯体と製品
  6
CONTINUOUS
 62
    3
 10
2237.1519883350056
 20
2142.4438202765159
 11
2214.6519883350047
 21
2142.4438202765159
  0
ARC
  8
_0-3_躯体と製品
  6
CONTINUOUS
 62
    3
 10
2156.1519883350056
 20
2181.4438202765141
 40
2.4999999999999996
 50
270
 51
0.0000000000000127
  0
LINE
  8
_0-3_躯体と製品
  6
CONTINUOUS
 62
    3
 10
2158.6519883350056
 20
2181.4438202765141
 11
2158.6519883350056
 21
2181.943820276515
  0
ARC
  8
_0-3_躯体と製品
  6
CONTINUOUS
 62
    3
 10
2156.1519883350056
 20
2181.943820276515
 40
2.4999999999999996
 50
0.0000000000000052
 51
90.000000000000014
  0
ARC
  8
_0-3_躯体と製品
  6
CONTINUOUS
 62
    3
 10
2168.1519883350065
 20
2181.4438202765141
 40
2.4999999999999996
 50
180
 51
270
  0
LINE
  8
_0-3_躯体と製品
  6
CONTINUOUS
 62
    3
 10
2165.6519883350065
 20
2181.4438202765141
 11
2165.6519883350065
 21
2181.943820276515
  0
ARC
  8
_0-3_躯体と製品
  6
CONTINUOUS
 62
    3
 10
2168.1519883350065
 20
2181.943820276515
 40
2.4999999999999996
 50
90
 51
180
  0
ARC
  8
_0-3_躯体と製品
  6
CONTINUOUS
 62
    3
 10
2156.1519883350056
 20
2167.4438202765159
 40
2.4999999999999996
 50
270
 51
0.0000000000000127
  0
LINE
  8
_0-3_躯体と製品
  6
CONTINUOUS
 62
    3
 10
2158.6519883350056
 20
2167.4438202765159
 11
2158.6519883350056
 21
2167.943820276515
  0
ARC
  8
_0-3_躯体と製品
  6
CONTINUOUS
 62
    3
 10
2156.1519883350056
 20
2167.943820276515
 40
2.4999999999999996
 50
0.0000000000000052
 51
90.000000000000014
  0
ARC
  8
_0-3_躯体と製品
  6
CONTINUOUS
 62
    3
 10
2168.1519883350065
 20
2167.4438202765159
 40
2.4999999999999996
 50
180
 51
270
  0
LINE
  8
_0-3_躯体と製品
  6
CONTINUOUS
 62
    3
 10
2165.6519883350065
 20
2167.4438202765159
 11
2165.6519883350065
 21
2167.943820276515
  0
ARC
  8
_0-3_躯体と製品
  6
CONTINUOUS
 62
    3
 10
2168.1519883350065
 20
2167.943820276515
 40
2.4999999999999996
 50
90
 51
180
  0
ARC
  8
_0-3_躯体と製品
  6
CONTINUOUS
 62
    3
 10
2156.1519883350056
 20
2153.443820276515
 40
2.4999999999999996
 50
270
 51
0.0000000000000127
  0
LINE
  8
_0-3_躯体と製品
  6
CONTINUOUS
 62
    3
 10
2158.6519883350056
 20
2153.443820276515
 11
2158.6519883350056
 21
2153.9438202765141
  0
ARC
  8
_0-3_躯体と製品
  6
CONTINUOUS
 62
    3
 10
2156.1519883350056
 20
2153.9438202765141
 40
2.4999999999999996
 50
0.0000000000000052
 51
90.000000000000014
  0
ARC
  8
_0-3_躯体と製品
  6
CONTINUOUS
 62
    3
 10
2168.1519883350065
 20
2153.443820276515
 40
2.4999999999999996
 50
180
 51
270
  0
LINE
  8
_0-3_躯体と製品
  6
CONTINUOUS
 62
    3
 10
2165.6519883350065
 20
2153.443820276515
 11
2165.6519883350065
 21
2153.9438202765141
  0
ARC
  8
_0-3_躯体と製品
  6
CONTINUOUS
 62
    3
 10
2168.1519883350065
 20
2153.9438202765141
 40
2.4999999999999996
 50
90
 51
180
  0
ARC
  8
_0-3_躯体と製品
  6
CONTINUOUS
 62
    3
 10
2156.1519883350056
 20
2139.443820276515
 40
2.4999999999999996
 50
270
 51
0.0000000000000127
  0
LINE
  8
_0-3_躯体と製品
  6
CONTINUOUS
 62
    3
 10
2158.6519883350056
 20
2139.443820276515
 11
2158.6519883350056
 21
2139.9438202765159
  0
ARC
  8
_0-3_躯体と製品
  6
CONTINUOUS
 62
    3
 10
2156.1519883350056
 20
2139.9438202765159
 40
2.4999999999999996
 50
0.0000000000000052
 51
90.000000000000014
  0
ARC
  8
_0-3_躯体と製品
  6
CONTINUOUS
 62
    3
 10
2168.1519883350065
 20
2139.443820276515
 40
2.4999999999999996
 50
180
 51
270
  0
LINE
  8
_0-3_躯体と製品
  6
CONTINUOUS
 62
    3
 10
2165.6519883350065
 20
2139.443820276515
 11
2165.6519883350065
 21
2139.9438202765159
  0
ARC
  8
_0-3_躯体と製品
  6
CONTINUOUS
 62
    3
 10
2168.1519883350065
 20
2139.9438202765159
 40
2.4999999999999996
 50
90
 51
180
  0
ARC
  8
_0-3_躯体と製品
  6
CONTINUOUS
 62
    3
 10
2133.6519883350065
 20
2181.9438202765145
 40
2.5000000000004547
 50
89.999999999989569
 51
179.99999999998957
  0
LINE
  8
_0-3_躯体と製品
  6
CONTINUOUS
 62
    3
 10
2131.1519883350056
 20
2181.943820276515
 11
2131.1519883350056
 21
2181.4438202765141
  0
ARC
  8
_0-3_躯体と製品
  6
CONTINUOUS
 62
    3
 10
2133.6519883350065
 20
2181.4438202765145
 40
2.5000000000004547
 50
180.00000000001043
 51
270.00000000001046
  0
ARC
  8
_0-3_躯体と製品
  6
CONTINUOUS
 62
    3
 10
2133.6519883350065
 20
2167.9438202765145
 40
2.5000000000004547
 50
89.999999999989569
 51
179.99999999998957
  0
LINE
  8
_0-3_躯体と製品
  6
CONTINUOUS
 62
    3
 10
2131.1519883350056
 20
2167.943820276515
 11
2131.1519883350056
 21
2167.4438202765159
  0
ARC
  8
_0-3_躯体と製品
  6
CONTINUOUS
 62
    3
 10
2133.6519883350065
 20
2167.4438202765164
 40
2.5000000000004547
 50
180.00000000001043
 51
270.00000000001046
  0
ARC
  8
_0-3_躯体と製品
  6
CONTINUOUS
 62
    3
 10
2133.6519883350065
 20
2153.9438202765136
 40
2.5000000000004547
 50
89.999999999989569
 51
179.99999999998957
  0
LINE
  8
_0-3_躯体と製品
  6
CONTINUOUS
 62
    3
 10
2131.1519883350056
 20
2153.9438202765141
 11
2131.1519883350056
 21
2153.443820276515
  0
ARC
  8
_0-3_躯体と製品
  6
CONTINUOUS
 62
    3
 10
2133.6519883350065
 20
2153.4438202765155
 40
2.5000000000004547
 50
180.00000000001043
 51
270.00000000001046
  0
ARC
  8
_0-3_躯体と製品
  6
CONTINUOUS
 62
    3
 10
2133.6519883350065
 20
2139.9438202765155
 40
2.5000000000004547
 50
89.999999999989569
 51
179.99999999998957
  0
LINE
  8
_0-3_躯体と製品
  6
CONTINUOUS
 62
    3
 10
2131.1519883350056
 20
2139.9438202765159
 11
2131.1519883350056
 21
2139.443820276515
  0
ARC
  8
_0-3_躯体と製品
  6
CONTINUOUS
 62
    3
 10
2133.6519883350065
 20
2139.4438202765155
 40
2.5000000000004547
 50
180.00000000001043
 51
270.00000000001046
  0
LINE
  8
_0-3_躯体と製品
  6
CONTINUOUS
 62
    3
 10
2133.6519883350065
 20
2178.9438202765141
 11
2156.1519883350056
 21
2178.9438202765141
  0
LINE
  8
_0-3_躯体と製品
  6
CONTINUOUS
 62
    3
 10
2156.1519883350056
 20
2184.443820276515
 11
2133.6519883350065
 21
2184.443820276515
  0
LINE
  8
_0-3_躯体と製品
  6
CONTINUOUS
 62
    3
 10
2133.6519883350065
 20
2164.9438202765159
 11
2156.1519883350056
 21
2164.9438202765159
  0
LINE
  8
_0-3_躯体と製品
  6
CONTINUOUS
 62
    3
 10
2156.1519883350056
 20
2170.443820276515
 11
2133.6519883350065
 21
2170.443820276515
  0
LINE
  8
_0-3_躯体と製品
  6
CONTINUOUS
 62
    3
 10
2133.6519883350065
 20
2150.943820276515
 11
2156.1519883350056
 21
2150.943820276515
  0
LINE
  8
_0-3_躯体と製品
  6
CONTINUOUS
 62
    3
 10
2156.1519883350056
 20
2156.4438202765141
 11
2133.6519883350065
 21
2156.4438202765141
  0
LINE
  8
_0-3_躯体と製品
  6
CONTINUOUS
 62
    3
 10
2133.6519883350065
 20
2136.943820276515
 11
2156.1519883350056
 21
2136.943820276515
  0
LINE
  8
_0-3_躯体と製品
  6
CONTINUOUS
 62
    3
 10
2156.1519883350056
 20
2142.4438202765159
 11
2133.6519883350065
 21
2142.4438202765159
  0
LINE
  8
_0-3_躯体と製品
  6
CONTINUOUS
 62
    3
 10
2190.6519883350065
 20
2178.9438202765141
 11
2168.1519883350065
 21
2178.9438202765141
  0
LINE
  8
_0-3_躯体と製品
  6
CONTINUOUS
 62
    3
 10
2168.1519883350065
 20
2184.443820276515
 11
2190.6519883350065
 21
2184.443820276515
  0
LINE
  8
_0-3_躯体と製品
  6
CONTINUOUS
 62
    3
 10
2190.6519883350065
 20
2164.9438202765159
 11
2168.1519883350065
 21
2164.9438202765159
  0
LINE
  8
_0-3_躯体と製品
  6
CONTINUOUS
 62
    3
 10
2168.1519883350065
 20
2170.443820276515
 11
2190.6519883350065
 21
2170.443820276515
  0
LINE
  8
_0-3_躯体と製品
  6
CONTINUOUS
 62
    3
 10
2190.6519883350065
 20
2150.943820276515
 11
2168.1519883350065
 21
2150.943820276515
  0
LINE
  8
_0-3_躯体と製品
  6
CONTINUOUS
 62
    3
 10
2168.1519883350065
 20
2156.4438202765141
 11
2190.6519883350065
 21
2156.4438202765141
  0
LINE
  8
_0-3_躯体と製品
  6
CONTINUOUS
 62
    3
 10
2190.6519883350065
 20
2136.943820276515
 11
2168.1519883350065
 21
2136.943820276515
  0
LINE
  8
_0-3_躯体と製品
  6
CONTINUOUS
 62
    3
 10
2168.1519883350065
 20
2142.4438202765159
 11
2190.6519883350065
 21
2142.4438202765159
  0
ARC
  8
_0-3_躯体と製品
  6
CONTINUOUS
 62
    3
 10
2249.1519883350056
 20
2125.443820276515
 40
2.4999999999999996
 50
180
 51
270
  0
LINE
  8
_0-3_躯体と製品
  6
CONTINUOUS
 62
    3
 10
2246.6519883350056
 20
2125.443820276515
 11
2246.6519883350056
 21
2125.943820276515
  0
ARC
  8
_0-3_躯体と製品
  6
CONTINUOUS
 62
    3
 10
2249.1519883350056
 20
2125.943820276515
 40
2.4999999999999996
 50
90
 51
180
  0
ARC
  8
_0-3_躯体と製品
  6
CONTINUOUS
 62
    3
 10
2237.1519883350052
 20
2125.4438202765141
 40
2.4999999999994311
 50
270.00000000001302
 51
0.0000000000130402
  0
LINE
  8
_0-3_躯体と製品
  6
CONTINUOUS
 62
    3
 10
2239.6519883350047
 20
2125.443820276515
 11
2239.6519883350047
 21
2125.943820276515
  0
ARC
  8
_0-3_躯体と製品
  6
CONTINUOUS
 62
    3
 10
2237.1519883350052
 20
2125.9438202765155
 40
2.4999999999994311
 50
359.99999999998698
 51
89.999999999986997
  0
ARC
  8
_0-3_躯体と製品
  6
CONTINUOUS
 62
    3
 10
2249.1519883350056
 20
2111.4438202765145
 40
2.4999999999995453
 50
180.00000000001043
 51
270.00000000001046
  0
LINE
  8
_0-3_躯体と製品
  6
CONTINUOUS
 62
    3
 10
2246.6519883350056
 20
2111.4438202765141
 11
2246.6519883350056
 21
2111.943820276515
  0
ARC
  8
_0-3_躯体と製品
  6
CONTINUOUS
 62
    3
 10
2249.1519883350056
 20
2111.943820276515
 40
2.4999999999999996
 50
90
 51
180
  0
ARC
  8
_0-3_躯体と製品
  6
CONTINUOUS
 62
    3
 10
2237.1519883350056
 20
2111.4438202765141
 40
2.4999999999989764
 50
270.00000000000261
 51
0.0000000000026207
  0
LINE
  8
_0-3_躯体と製品
  6
CONTINUOUS
 62
    3
 10
2239.6519883350047
 20
2111.4438202765141
 11
2239.6519883350047
 21
2111.943820276515
  0
ARC
  8
_0-3_躯体と製品
  6
CONTINUOUS
 62
    3
 10
2237.1519883350052
 20
2111.9438202765155
 40
2.4999999999994311
 50
359.99999999998698
 51
89.999999999986997
  0
ARC
  8
_0-3_躯体と製品
  6
CONTINUOUS
 62
    3
 10
2249.1519883350056
 20
2097.4438202765159
 40
2.4999999999999996
 50
180
 51
270
  0
LINE
  8
_0-3_躯体と製品
  6
CONTINUOUS
 62
    3
 10
2246.6519883350056
 20
2097.4438202765159
 11
2246.6519883350056
 21
2097.943820276515
  0
ARC
  8
_0-3_躯体と製品
  6
CONTINUOUS
 62
    3
 10
2249.1519883350056
 20
2097.943820276515
 40
2.4999999999999996
 50
90
 51
180
  0
ARC
  8
_0-3_躯体と製品
  6
CONTINUOUS
 62
    3
 10
2237.1519883350052
 20
2097.4438202765155
 40
2.4999999999994311
 50
270.00000000001302
 51
0.0000000000130402
  0
LINE
  8
_0-3_躯体と製品
  6
CONTINUOUS
 62
    3
 10
2239.6519883350047
 20
2097.4438202765159
 11
2239.6519883350047
 21
2097.943820276515
  0
ARC
  8
_0-3_躯体と製品
  6
CONTINUOUS
 62
    3
 10
2237.1519883350052
 20
2097.9438202765155
 40
2.4999999999994311
 50
359.99999999998698
 51
89.999999999986997
  0
ARC
  8
_0-3_躯体と製品
  6
CONTINUOUS
 62
    3
 10
2249.1519883350056
 20
2083.443820276515
 40
2.4999999999999996
 50
180
 51
270
  0
LINE
  8
_0-3_躯体と製品
  6
CONTINUOUS
 62
    3
 10
2246.6519883350056
 20
2083.443820276515
 11
2246.6519883350056
 21
2083.943820276515
  0
ARC
  8
_0-3_躯体と製品
  6
CONTINUOUS
 62
    3
 10
2249.1519883350056
 20
2083.9438202765145
 40
2.4999999999995453
 50
89.999999999989569
 51
179.99999999998957
  0
ARC
  8
_0-3_躯体と製品
  6
CONTINUOUS
 62
    3
 10
2237.1519883350052
 20
2083.4438202765141
 40
2.4999999999994311
 50
270.00000000001302
 51
0.0000000000130402
  0
LINE
  8
_0-3_躯体と製品
  6
CONTINUOUS
 62
    3
 10
2239.6519883350047
 20
2083.443820276515
 11
2239.6519883350047
 21
2083.943820276515
  0
ARC
  8
_0-3_躯体と製品
  6
CONTINUOUS
 62
    3
 10
2237.1519883350056
 20
2083.943820276515
 40
2.4999999999989764
 50
359.99999999999739
 51
89.999999999997414
  0
ARC
  8
_0-3_躯体と製品
  6
CONTINUOUS
 62
    3
 10
2190.6519883350065
 20
2125.943820276515
 40
2.4999999999999996
 50
0.0000000000000052
 51
90.000000000000014
  0
LINE
  8
_0-3_躯体と製品
  6
CONTINUOUS
 62
    3
 10
2193.1519883350065
 20
2125.943820276515
 11
2193.1519883350065
 21
2125.443820276515
  0
ARC
  8
_0-3_躯体と製品
  6
CONTINUOUS
 62
    3
 10
2190.6519883350065
 20
2125.443820276515
 40
2.4999999999999996
 50
270
 51
0.0000000000000127
  0
ARC
  8
_0-3_躯体と製品
  6
CONTINUOUS
 62
    3
 10
2190.6519883350065
 20
2111.943820276515
 40
2.4999999999999996
 50
0.0000000000000052
 51
90.000000000000014
  0
LINE
  8
_0-3_躯体と製品
  6
CONTINUOUS
 62
    3
 10
2193.1519883350065
 20
2111.943820276515
 11
2193.1519883350065
 21
2111.4438202765141
  0
ARC
  8
_0-3_躯体と製品
  6
CONTINUOUS
 62
    3
 10
2190.6519883350074
 20
2111.4438202765145
 40
2.4999999999995453
 50
269.9999999999896
 51
359.9999999999896
  0
ARC
  8
_0-3_躯体と製品
  6
CONTINUOUS
 62
    3
 10
2190.6519883350065
 20
2097.943820276515
 40
2.4999999999999996
 50
0.0000000000000052
 51
90.000000000000014
  0
LINE
  8
_0-3_躯体と製品
  6
CONTINUOUS
 62
    3
 10
2193.1519883350065
 20
2097.943820276515
 11
2193.1519883350065
 21
2097.4438202765159
  0
ARC
  8
_0-3_躯体と製品
  6
CONTINUOUS
 62
    3
 10
2190.6519883350065
 20
2097.4438202765159
 40
2.4999999999999996
 50
270
 51
0.0000000000000127
  0
ARC
  8
_0-3_躯体と製品
  6
CONTINUOUS
 62
    3
 10
2190.6519883350074
 20
2083.9438202765145
 40
2.4999999999995453
 50
0.0000000000104271
 51
90.000000000010445
  0
LINE
  8
_0-3_躯体と製品
  6
CONTINUOUS
 62
    3
 10
2193.1519883350065
 20
2083.943820276515
 11
2193.1519883350065
 21
2083.443820276515
  0
ARC
  8
_0-3_躯体と製品
  6
CONTINUOUS
 62
    3
 10
2190.6519883350065
 20
2083.443820276515
 40
2.4999999999999996
 50
270
 51
0.0000000000000127
  0
ARC
  8
_0-3_躯体と製品
  6
CONTINUOUS
 62
    3
 10
2214.6519883350052
 20
2125.9438202765155
 40
2.4999999999994311
 50
90.000000000013031
 51
180.00000000001302
  0
LINE
  8
_0-3_躯体と製品
  6
CONTINUOUS
 62
    3
 10
2212.1519883350056
 20
2125.943820276515
 11
2212.1519883350056
 21
2125.443820276515
  0
ARC
  8
_0-3_躯体と製品
  6
CONTINUOUS
 62
    3
 10
2214.6519883350052
 20
2125.4438202765141
 40
2.4999999999994311
 50
179.99999999998698
 51
269.99999999998698
  0
ARC
  8
_0-3_躯体と製品
  6
CONTINUOUS
 62
    3
 10
2214.6519883350052
 20
2111.9438202765155
 40
2.4999999999994311
 50
90.000000000013031
 51
180.00000000001302
  0
LINE
  8
_0-3_躯体と製品
  6
CONTINUOUS
 62
    3
 10
2212.1519883350056
 20
2111.943820276515
 11
2212.1519883350056
 21
2111.4438202765141
  0
ARC
  8
_0-3_躯体と製品
  6
CONTINUOUS
 62
    3
 10
2214.6519883350047
 20
2111.4438202765141
 40
2.4999999999989764
 50
179.99999999999741
 51
269.99999999999739
  0
ARC
  8
_0-3_躯体と製品
  6
CONTINUOUS
 62
    3
 10
2214.6519883350052
 20
2097.9438202765155
 40
2.4999999999994311
 50
90.000000000013031
 51
180.00000000001302
  0
LINE
  8
_0-3_躯体と製品
  6
CONTINUOUS
 62
    3
 10
2212.1519883350056
 20
2097.943820276515
 11
2212.1519883350056
 21
2097.4438202765159
  0
ARC
  8
_0-3_躯体と製品
  6
CONTINUOUS
 62
    3
 10
2214.6519883350052
 20
2097.4438202765155
 40
2.4999999999994311
 50
179.99999999998698
 51
269.99999999998698
  0
ARC
  8
_0-3_躯体と製品
  6
CONTINUOUS
 62
    3
 10
2214.6519883350047
 20
2083.943820276515
 40
2.4999999999989764
 50
90.000000000002601
 51
180.00000000000259
  0
LINE
  8
_0-3_躯体と製品
  6
CONTINUOUS
 62
    3
 10
2212.1519883350056
 20
2083.943820276515
 11
2212.1519883350056
 21
2083.443820276515
  0
ARC
  8
_0-3_躯体と製品
  6
CONTINUOUS
 62
    3
 10
2214.6519883350052
 20
2083.4438202765141
 40
2.4999999999994311
 50
179.99999999998698
 51
269.99999999998698
  0
LINE
  8
_0-3_躯体と製品
  6
CONTINUOUS
 62
    3
 10
2214.6519883350047
 20
2122.943820276515
 11
2237.1519883350056
 21
2122.943820276515
  0
LINE
  8
_0-3_躯体と製品
  6
CONTINUOUS
 62
    3
 10
2237.1519883350056
 20
2128.443820276515
 11
2214.6519883350047
 21
2128.443820276515
  0
LINE
  8
_0-3_躯体と製品
  6
CONTINUOUS
 62
    3
 10
2214.6519883350047
 20
2108.943820276515
 11
2237.1519883350056
 21
2108.943820276515
  0
LINE
  8
_0-3_躯体と製品
  6
CONTINUOUS
 62
    3
 10
2237.1519883350056
 20
2114.443820276515
 11
2214.6519883350047
 21
2114.443820276515
  0
LINE
  8
_0-3_躯体と製品
  6
CONTINUOUS
 62
    3
 10
2214.6519883350047
 20
2094.9438202765159
 11
2237.1519883350056
 21
2094.9438202765159
  0
LINE
  8
_0-3_躯体と製品
  6
CONTINUOUS
 62
    3
 10
2237.1519883350056
 20
2100.443820276515
 11
2214.6519883350047
 21
2100.443820276515
  0
LINE
  8
_0-3_躯体と製品
  6
CONTINUOUS
 62
    3
 10
2214.6519883350047
 20
2080.943820276515
 11
2237.1519883350056
 21
2080.943820276515
  0
LINE
  8
_0-3_躯体と製品
  6
CONTINUOUS
 62
    3
 10
2237.1519883350056
 20
2086.4438202765141
 11
2214.6519883350047
 21
2086.4438202765141
  0
ARC
  8
_0-3_躯体と製品
  6
CONTINUOUS
 62
    3
 10
2249.1519883350056
 20
2069.443820276515
 40
2.4999999999999996
 50
180
 51
270
  0
LINE
  8
_0-3_躯体と製品
  6
CONTINUOUS
 62
    3
 10
2246.6519883350056
 20
2069.443820276515
 11
2246.6519883350056
 21
2069.9438202765159
  0
ARC
  8
_0-3_躯体と製品
  6
CONTINUOUS
 62
    3
 10
2249.1519883350056
 20
2069.9438202765159
 40
2.4999999999999996
 50
90
 51
180
  0
ARC
  8
_0-3_躯体と製品
  6
CONTINUOUS
 62
    3
 10
2237.1519883350052
 20
2069.4438202765141
 40
2.4999999999994311
 50
270.00000000001302
 51
0.0000000000130402
  0
LINE
  8
_0-3_躯体と製品
  6
CONTINUOUS
 62
    3
 10
2239.6519883350047
 20
2069.443820276515
 11
2239.6519883350047
 21
2069.9438202765159
  0
ARC
  8
_0-3_躯体と製品
  6
CONTINUOUS
 62
    3
 10
2237.1519883350052
 20
2069.9438202765168
 40
2.4999999999994311
 50
359.99999999998698
 51
89.999999999986997
  0
ARC
  8
_0-3_躯体と製品
  6
CONTINUOUS
 62
    3
 10
2249.1519883350056
 20
2055.443820276515
 40
2.4999999999999996
 50
180
 51
270
  0
LINE
  8
_0-3_躯体と製品
  6
CONTINUOUS
 62
    3
 10
2246.6519883350056
 20
2055.443820276515
 11
2246.6519883350056
 21
2055.943820276515
  0
ARC
  8
_0-3_躯体と製品
  6
CONTINUOUS
 62
    3
 10
2249.1519883350056
 20
2055.943820276515
 40
2.4999999999999996
 50
90
 51
180
  0
ARC
  8
_0-3_躯体と製品
  6
CONTINUOUS
 62
    3
 10
2237.1519883350052
 20
2055.4438202765141
 40
2.4999999999994311
 50
270.00000000001302
 51
0.0000000000130402
  0
LINE
  8
_0-3_躯体と製品
  6
CONTINUOUS
 62
    3
 10
2239.6519883350047
 20
2055.443820276515
 11
2239.6519883350047
 21
2055.943820276515
  0
ARC
  8
_0-3_躯体と製品
  6
CONTINUOUS
 62
    3
 10
2237.1519883350052
 20
2055.9438202765155
 40
2.4999999999994311
 50
359.99999999998698
 51
89.999999999986997
  0
ARC
  8
_0-3_躯体と製品
  6
CONTINUOUS
 62
    3
 10
2190.6519883350065
 20
2069.9438202765159
 40
2.4999999999999996
 50
0.0000000000000052
 51
90.000000000000014
  0
LINE
  8
_0-3_躯体と製品
  6
CONTINUOUS
 62
    3
 10
2193.1519883350065
 20
2069.9438202765159
 11
2193.1519883350065
 21
2069.443820276515
  0
ARC
  8
_0-3_躯体と製品
  6
CONTINUOUS
 62
    3
 10
2190.6519883350065
 20
2069.443820276515
 40
2.4999999999999996
 50
270
 51
0.0000000000000127
  0
ARC
  8
_0-3_躯体と製品
  6
CONTINUOUS
 62
    3
 10
2190.6519883350065
 20
2055.943820276515
 40
2.4999999999999996
 50
0.0000000000000052
 51
90.000000000000014
  0
LINE
  8
_0-3_躯体と製品
  6
CONTINUOUS
 62
    3
 10
2193.1519883350065
 20
2055.943820276515
 11
2193.1519883350065
 21
2055.443820276515
  0
ARC
  8
_0-3_躯体と製品
  6
CONTINUOUS
 62
    3
 10
2190.6519883350065
 20
2055.443820276515
 40
2.4999999999999996
 50
270
 51
0.0000000000000127
  0
ARC
  8
_0-3_躯体と製品
  6
CONTINUOUS
 62
    3
 10
2214.6519883350052
 20
2069.9438202765168
 40
2.4999999999994311
 50
90.000000000013031
 51
180.00000000001302
  0
LINE
  8
_0-3_躯体と製品
  6
CONTINUOUS
 62
    3
 10
2212.1519883350056
 20
2069.9438202765159
 11
2212.1519883350056
 21
2069.443820276515
  0
ARC
  8
_0-3_躯体と製品
  6
CONTINUOUS
 62
    3
 10
2214.6519883350052
 20
2069.4438202765141
 40
2.4999999999994311
 50
179.99999999998698
 51
269.99999999998698
  0
ARC
  8
_0-3_躯体と製品
  6
CONTINUOUS
 62
    3
 10
2214.6519883350052
 20
2055.9438202765155
 40
2.4999999999994311
 50
90.000000000013031
 51
180.00000000001302
  0
LINE
  8
_0-3_躯体と製品
  6
CONTINUOUS
 62
    3
 10
2212.1519883350056
 20
2055.943820276515
 11
2212.1519883350056
 21
2055.443820276515
  0
ARC
  8
_0-3_躯体と製品
  6
CONTINUOUS
 62
    3
 10
2214.6519883350052
 20
2055.4438202765141
 40
2.4999999999994311
 50
179.99999999998698
 51
269.99999999998698
  0
LINE
  8
_0-3_躯体と製品
  6
CONTINUOUS
 62
    3
 10
2214.6519883350047
 20
2066.943820276515
 11
2237.1519883350056
 21
2066.943820276515
  0
LINE
  8
_0-3_躯体と製品
  6
CONTINUOUS
 62
    3
 10
2237.1519883350056
 20
2072.4438202765159
 11
2214.6519883350047
 21
2072.4438202765159
  0
LINE
  8
_0-3_躯体と製品
  6
CONTINUOUS
 62
    3
 10
2214.6519883350047
 20
2052.943820276515
 11
2237.1519883350056
 21
2052.943820276515
  0
LINE
  8
_0-3_躯体と製品
  6
CONTINUOUS
 62
    3
 10
2237.1519883350056
 20
2058.443820276515
 11
2214.6519883350047
 21
2058.443820276515
  0
ARC
  8
_0-3_躯体と製品
  6
CONTINUOUS
 62
    3
 10
2156.1519883350056
 20
2125.443820276515
 40
2.4999999999999996
 50
270
 51
0.0000000000000127
  0
LINE
  8
_0-3_躯体と製品
  6
CONTINUOUS
 62
    3
 10
2158.6519883350056
 20
2125.443820276515
 11
2158.6519883350056
 21
2125.943820276515
  0
ARC
  8
_0-3_躯体と製品
  6
CONTINUOUS
 62
    3
 10
2156.1519883350056
 20
2125.943820276515
 40
2.4999999999999996
 50
0.0000000000000052
 51
90.000000000000014
  0
ARC
  8
_0-3_躯体と製品
  6
CONTINUOUS
 62
    3
 10
2168.1519883350065
 20
2125.443820276515
 40
2.4999999999999996
 50
180
 51
270
  0
LINE
  8
_0-3_躯体と製品
  6
CONTINUOUS
 62
    3
 10
2165.6519883350065
 20
2125.443820276515
 11
2165.6519883350065
 21
2125.943820276515
  0
ARC
  8
_0-3_躯体と製品
  6
CONTINUOUS
 62
    3
 10
2168.1519883350065
 20
2125.943820276515
 40
2.4999999999999996
 50
90
 51
180
  0
ARC
  8
_0-3_躯体と製品
  6
CONTINUOUS
 62
    3
 10
2156.1519883350065
 20
2111.4438202765145
 40
2.4999999999995453
 50
269.9999999999896
 51
359.9999999999896
  0
LINE
  8
_0-3_躯体と製品
  6
CONTINUOUS
 62
    3
 10
2158.6519883350056
 20
2111.4438202765141
 11
2158.6519883350056
 21
2111.943820276515
  0
ARC
  8
_0-3_躯体と製品
  6
CONTINUOUS
 62
    3
 10
2156.1519883350056
 20
2111.943820276515
 40
2.4999999999999996
 50
0.0000000000000052
 51
90.000000000000014
  0
ARC
  8
_0-3_躯体と製品
  6
CONTINUOUS
 62
    3
 10
2168.1519883350065
 20
2111.4438202765145
 40
2.4999999999995453
 50
180.00000000001043
 51
270.00000000001046
  0
LINE
  8
_0-3_躯体と製品
  6
CONTINUOUS
 62
    3
 10
2165.6519883350065
 20
2111.4438202765141
 11
2165.6519883350065
 21
2111.943820276515
  0
ARC
  8
_0-3_躯体と製品
  6
CONTINUOUS
 62
    3
 10
2168.1519883350065
 20
2111.943820276515
 40
2.4999999999999996
 50
90
 51
180
  0
ARC
  8
_0-3_躯体と製品
  6
CONTINUOUS
 62
    3
 10
2156.1519883350056
 20
2097.4438202765159
 40
2.4999999999999996
 50
270
 51
0.0000000000000127
  0
LINE
  8
_0-3_躯体と製品
  6
CONTINUOUS
 62
    3
 10
2158.6519883350056
 20
2097.4438202765159
 11
2158.6519883350056
 21
2097.943820276515
  0
ARC
  8
_0-3_躯体と製品
  6
CONTINUOUS
 62
    3
 10
2156.1519883350056
 20
2097.943820276515
 40
2.4999999999999996
 50
0.0000000000000052
 51
90.000000000000014
  0
ARC
  8
_0-3_躯体と製品
  6
CONTINUOUS
 62
    3
 10
2168.1519883350065
 20
2097.4438202765159
 40
2.4999999999999996
 50
180
 51
270
  0
LINE
  8
_0-3_躯体と製品
  6
CONTINUOUS
 62
    3
 10
2165.6519883350065
 20
2097.4438202765159
 11
2165.6519883350065
 21
2097.943820276515
  0
ARC
  8
_0-3_躯体と製品
  6
CONTINUOUS
 62
    3
 10
2168.1519883350065
 20
2097.943820276515
 40
2.4999999999999996
 50
90
 51
180
  0
ARC
  8
_0-3_躯体と製品
  6
CONTINUOUS
 62
    3
 10
2156.1519883350056
 20
2083.443820276515
 40
2.4999999999999996
 50
270
 51
0.0000000000000127
  0
LINE
  8
_0-3_躯体と製品
  6
CONTINUOUS
 62
    3
 10
2158.6519883350056
 20
2083.443820276515
 11
2158.6519883350056
 21
2083.943820276515
  0
ARC
  8
_0-3_躯体と製品
  6
CONTINUOUS
 62
    3
 10
2156.1519883350065
 20
2083.9438202765145
 40
2.4999999999995453
 50
0.0000000000104271
 51
90.000000000010445
  0
ARC
  8
_0-3_躯体と製品
  6
CONTINUOUS
 62
    3
 10
2168.1519883350065
 20
2083.443820276515
 40
2.4999999999999996
 50
180
 51
270
  0
LINE
  8
_0-3_躯体と製品
  6
CONTINUOUS
 62
    3
 10
2165.6519883350065
 20
2083.443820276515
 11
2165.6519883350065
 21
2083.943820276515
  0
ARC
  8
_0-3_躯体と製品
  6
CONTINUOUS
 62
    3
 10
2168.1519883350065
 20
2083.9438202765145
 40
2.4999999999995453
 50
89.999999999989569
 51
179.99999999998957
  0
ARC
  8
_0-3_躯体と製品
  6
CONTINUOUS
 62
    3
 10
2133.6519883350065
 20
2125.9438202765145
 40
2.5000000000004547
 50
89.999999999989569
 51
179.99999999998957
  0
LINE
  8
_0-3_躯体と製品
  6
CONTINUOUS
 62
    3
 10
2131.1519883350056
 20
2125.943820276515
 11
2131.1519883350056
 21
2125.443820276515
  0
ARC
  8
_0-3_躯体と製品
  6
CONTINUOUS
 62
    3
 10
2133.6519883350065
 20
2125.4438202765155
 40
2.5000000000004547
 50
180.00000000001043
 51
270.00000000001046
  0
ARC
  8
_0-3_躯体と製品
  6
CONTINUOUS
 62
    3
 10
2133.6519883350065
 20
2111.9438202765145
 40
2.5000000000004547
 50
89.999999999989569
 51
179.99999999998957
  0
LINE
  8
_0-3_躯体と製品
  6
CONTINUOUS
 62
    3
 10
2131.1519883350056
 20
2111.943820276515
 11
2131.1519883350056
 21
2111.4438202765141
  0
ARC
  8
_0-3_躯体と製品
  6
CONTINUOUS
 62
    3
 10
2133.6519883350056
 20
2111.443820276515
 40
2.4999999999999996
 50
180.00000000002083
 51
270.00000000002086
  0
ARC
  8
_0-3_躯体と製品
  6
CONTINUOUS
 62
    3
 10
2133.6519883350065
 20
2097.9438202765145
 40
2.5000000000004547
 50
89.999999999989569
 51
179.99999999998957
  0
LINE
  8
_0-3_躯体と製品
  6
CONTINUOUS
 62
    3
 10
2131.1519883350056
 20
2097.943820276515
 11
2131.1519883350056
 21
2097.4438202765159
  0
ARC
  8
_0-3_躯体と製品
  6
CONTINUOUS
 62
    3
 10
2133.6519883350065
 20
2097.4438202765164
 40
2.5000000000004547
 50
180.00000000001043
 51
270.00000000001046
  0
ARC
  8
_0-3_躯体と製品
  6
CONTINUOUS
 62
    3
 10
2133.6519883350056
 20
2083.9438202765141
 40
2.4999999999999996
 50
89.999999999979138
 51
179.99999999997914
  0
LINE
  8
_0-3_躯体と製品
  6
CONTINUOUS
 62
    3
 10
2131.1519883350056
 20
2083.943820276515
 11
2131.1519883350056
 21
2083.443820276515
  0
ARC
  8
_0-3_躯体と製品
  6
CONTINUOUS
 62
    3
 10
2133.6519883350065
 20
2083.4438202765155
 40
2.5000000000004547
 50
180.00000000001043
 51
270.00000000001046
  0
LINE
  8
_0-3_躯体と製品
  6
CONTINUOUS
 62
    3
 10
2133.6519883350065
 20
2122.943820276515
 11
2156.1519883350056
 21
2122.943820276515
  0
LINE
  8
_0-3_躯体と製品
  6
CONTINUOUS
 62
    3
 10
2156.1519883350056
 20
2128.443820276515
 11
2133.6519883350065
 21
2128.443820276515
  0
LINE
  8
_0-3_躯体と製品
  6
CONTINUOUS
 62
    3
 10
2133.6519883350065
 20
2108.943820276515
 11
2156.1519883350056
 21
2108.943820276515
  0
LINE
  8
_0-3_躯体と製品
  6
CONTINUOUS
 62
    3
 10
2156.1519883350056
 20
2114.443820276515
 11
2133.6519883350065
 21
2114.443820276515
  0
LINE
  8
_0-3_躯体と製品
  6
CONTINUOUS
 62
    3
 10
2133.6519883350065
 20
2094.9438202765159
 11
2156.1519883350056
 21
2094.9438202765159
  0
LINE
  8
_0-3_躯体と製品
  6
CONTINUOUS
 62
    3
 10
2156.1519883350056
 20
2100.443820276515
 11
2133.6519883350065
 21
2100.443820276515
  0
LINE
  8
_0-3_躯体と製品
  6
CONTINUOUS
 62
    3
 10
2133.6519883350065
 20
2080.943820276515
 11
2156.1519883350056
 21
2080.943820276515
  0
LINE
  8
_0-3_躯体と製品
  6
CONTINUOUS
 62
    3
 10
2156.1519883350056
 20
2086.4438202765141
 11
2133.6519883350065
 21
2086.4438202765141
  0
ARC
  8
_0-3_躯体と製品
  6
CONTINUOUS
 62
    3
 10
2156.1519883350056
 20
2069.443820276515
 40
2.4999999999999996
 50
270
 51
0.0000000000000127
  0
LINE
  8
_0-3_躯体と製品
  6
CONTINUOUS
 62
    3
 10
2158.6519883350056
 20
2069.443820276515
 11
2158.6519883350056
 21
2069.9438202765159
  0
ARC
  8
_0-3_躯体と製品
  6
CONTINUOUS
 62
    3
 10
2156.1519883350056
 20
2069.9438202765159
 40
2.4999999999999996
 50
0.0000000000000052
 51
90.000000000000014
  0
ARC
  8
_0-3_躯体と製品
  6
CONTINUOUS
 62
    3
 10
2168.1519883350065
 20
2069.443820276515
 40
2.4999999999999996
 50
180
 51
270
  0
LINE
  8
_0-3_躯体と製品
  6
CONTINUOUS
 62
    3
 10
2165.6519883350065
 20
2069.443820276515
 11
2165.6519883350065
 21
2069.9438202765159
  0
ARC
  8
_0-3_躯体と製品
  6
CONTINUOUS
 62
    3
 10
2168.1519883350065
 20
2069.9438202765159
 40
2.4999999999999996
 50
90
 51
180
  0
ARC
  8
_0-3_躯体と製品
  6
CONTINUOUS
 62
    3
 10
2156.1519883350056
 20
2055.443820276515
 40
2.4999999999999996
 50
270
 51
0.0000000000000127
  0
LINE
  8
_0-3_躯体と製品
  6
CONTINUOUS
 62
    3
 10
2158.6519883350056
 20
2055.443820276515
 11
2158.6519883350056
 21
2055.943820276515
  0
ARC
  8
_0-3_躯体と製品
  6
CONTINUOUS
 62
    3
 10
2156.1519883350056
 20
2055.943820276515
 40
2.4999999999999996
 50
0.0000000000000052
 51
90.000000000000014
  0
ARC
  8
_0-3_躯体と製品
  6
CONTINUOUS
 62
    3
 10
2168.1519883350065
 20
2055.443820276515
 40
2.4999999999999996
 50
180
 51
270
  0
LINE
  8
_0-3_躯体と製品
  6
CONTINUOUS
 62
    3
 10
2165.6519883350065
 20
2055.443820276515
 11
2165.6519883350065
 21
2055.943820276515
  0
ARC
  8
_0-3_躯体と製品
  6
CONTINUOUS
 62
    3
 10
2168.1519883350065
 20
2055.943820276515
 40
2.4999999999999996
 50
90
 51
180
  0
ARC
  8
_0-3_躯体と製品
  6
CONTINUOUS
 62
    3
 10
2133.6519883350065
 20
2069.9438202765155
 40
2.5000000000004547
 50
89.999999999989569
 51
179.99999999998957
  0
LINE
  8
_0-3_躯体と製品
  6
CONTINUOUS
 62
    3
 10
2131.1519883350056
 20
2069.9438202765159
 11
2131.1519883350056
 21
2069.443820276515
  0
ARC
  8
_0-3_躯体と製品
  6
CONTINUOUS
 62
    3
 10
2133.6519883350065
 20
2069.4438202765155
 40
2.5000000000004547
 50
180.00000000001043
 51
270.00000000001046
  0
ARC
  8
_0-3_躯体と製品
  6
CONTINUOUS
 62
    3
 10
2133.6519883350065
 20
2055.9438202765145
 40
2.5000000000004547
 50
89.999999999989569
 51
179.99999999998957
  0
LINE
  8
_0-3_躯体と製品
  6
CONTINUOUS
 62
    3
 10
2131.1519883350056
 20
2055.943820276515
 11
2131.1519883350056
 21
2055.443820276515
  0
ARC
  8
_0-3_躯体と製品
  6
CONTINUOUS
 62
    3
 10
2133.6519883350065
 20
2055.4438202765155
 40
2.5000000000004547
 50
180.00000000001043
 51
270.00000000001046
  0
LINE
  8
_0-3_躯体と製品
  6
CONTINUOUS
 62
    3
 10
2133.6519883350065
 20
2066.943820276515
 11
2156.1519883350056
 21
2066.943820276515
  0
LINE
  8
_0-3_躯体と製品
  6
CONTINUOUS
 62
    3
 10
2156.1519883350056
 20
2072.4438202765159
 11
2133.6519883350065
 21
2072.4438202765159
  0
LINE
  8
_0-3_躯体と製品
  6
CONTINUOUS
 62
    3
 10
2133.6519883350065
 20
2052.943820276515
 11
2156.1519883350056
 21
2052.943820276515
  0
LINE
  8
_0-3_躯体と製品
  6
CONTINUOUS
 62
    3
 10
2156.1519883350056
 20
2058.443820276515
 11
2133.6519883350065
 21
2058.443820276515
  0
LINE
  8
_0-3_躯体と製品
  6
CONTINUOUS
 62
    3
 10
2190.6519883350065
 20
2122.943820276515
 11
2168.1519883350065
 21
2122.943820276515
  0
LINE
  8
_0-3_躯体と製品
  6
CONTINUOUS
 62
    3
 10
2168.1519883350065
 20
2128.443820276515
 11
2190.6519883350065
 21
2128.443820276515
  0
LINE
  8
_0-3_躯体と製品
  6
CONTINUOUS
 62
    3
 10
2190.6519883350065
 20
2108.943820276515
 11
2168.1519883350065
 21
2108.943820276515
  0
LINE
  8
_0-3_躯体と製品
  6
CONTINUOUS
 62
    3
 10
2168.1519883350065
 20
2114.443820276515
 11
2190.6519883350065
 21
2114.443820276515
  0
LINE
  8
_0-3_躯体と製品
  6
CONTINUOUS
 62
    3
 10
2190.6519883350065
 20
2094.9438202765159
 11
2168.1519883350065
 21
2094.9438202765159
  0
LINE
  8
_0-3_躯体と製品
  6
CONTINUOUS
 62
    3
 10
2168.1519883350065
 20
2100.443820276515
 11
2190.6519883350065
 21
2100.443820276515
  0
LINE
  8
_0-3_躯体と製品
  6
CONTINUOUS
 62
    3
 10
2190.6519883350065
 20
2080.943820276515
 11
2168.1519883350065
 21
2080.943820276515
  0
LINE
  8
_0-3_躯体と製品
  6
CONTINUOUS
 62
    3
 10
2168.1519883350065
 20
2086.4438202765141
 11
2190.6519883350065
 21
2086.4438202765141
  0
LINE
  8
_0-3_躯体と製品
  6
CONTINUOUS
 62
    3
 10
2190.6519883350065
 20
2066.943820276515
 11
2168.1519883350065
 21
2066.943820276515
  0
LINE
  8
_0-3_躯体と製品
  6
CONTINUOUS
 62
    3
 10
2168.1519883350065
 20
2072.4438202765159
 11
2190.6519883350065
 21
2072.4438202765159
  0
LINE
  8
_0-3_躯体と製品
  6
CONTINUOUS
 62
    3
 10
2190.6519883350065
 20
2052.943820276515
 11
2168.1519883350065
 21
2052.943820276515
  0
LINE
  8
_0-3_躯体と製品
  6
CONTINUOUS
 62
    3
 10
2168.1519883350065
 20
2058.443820276515
 11
2190.6519883350065
 21
2058.443820276515
  0
LINE
  8
_0-3_躯体と製品
  6
CONTINUOUS
 62
    3
 10
2271.6519883350056
 20
2178.9438202765141
 11
2249.1519883350056
 21
2178.9438202765141
  0
LINE
  8
_0-3_躯体と製品
  6
CONTINUOUS
 62
    3
 10
2249.1519883350056
 20
2184.443820276515
 11
2271.6519883350056
 21
2184.443820276515
  0
LINE
  8
_0-3_躯体と製品
  6
CONTINUOUS
 62
    3
 10
2271.6519883350056
 20
2164.9438202765159
 11
2249.1519883350056
 21
2164.9438202765159
  0
LINE
  8
_0-3_躯体と製品
  6
CONTINUOUS
 62
    3
 10
2249.1519883350056
 20
2170.443820276515
 11
2271.6519883350056
 21
2170.443820276515
  0
LINE
  8
_0-3_躯体と製品
  6
CONTINUOUS
 62
    3
 10
2271.6519883350056
 20
2150.943820276515
 11
2249.1519883350056
 21
2150.943820276515
  0
LINE
  8
_0-3_躯体と製品
  6
CONTINUOUS
 62
    3
 10
2249.1519883350056
 20
2156.4438202765141
 11
2271.6519883350056
 21
2156.4438202765141
  0
LINE
  8
_0-3_躯体と製品
  6
CONTINUOUS
 62
    3
 10
2271.6519883350056
 20
2136.943820276515
 11
2249.1519883350056
 21
2136.943820276515
  0
LINE
  8
_0-3_躯体と製品
  6
CONTINUOUS
 62
    3
 10
2249.1519883350056
 20
2142.4438202765159
 11
2271.6519883350056
 21
2142.4438202765159
  0
LINE
  8
_0-3_躯体と製品
  6
CONTINUOUS
 62
    3
 10
2271.6519883350056
 20
2122.943820276515
 11
2249.1519883350056
 21
2122.943820276515
  0
LINE
  8
_0-3_躯体と製品
  6
CONTINUOUS
 62
    3
 10
2249.1519883350056
 20
2128.443820276515
 11
2271.6519883350056
 21
2128.443820276515
  0
LINE
  8
_0-3_躯体と製品
  6
CONTINUOUS
 62
    3
 10
2271.6519883350056
 20
2108.943820276515
 11
2249.1519883350056
 21
2108.943820276515
  0
LINE
  8
_0-3_躯体と製品
  6
CONTINUOUS
 62
    3
 10
2249.1519883350056
 20
2114.443820276515
 11
2271.6519883350056
 21
2114.443820276515
  0
LINE
  8
_0-3_躯体と製品
  6
CONTINUOUS
 62
    3
 10
2271.6519883350056
 20
2094.9438202765159
 11
2249.1519883350056
 21
2094.9438202765159
  0
LINE
  8
_0-3_躯体と製品
  6
CONTINUOUS
 62
    3
 10
2249.1519883350056
 20
2100.443820276515
 11
2271.6519883350056
 21
2100.443820276515
  0
LINE
  8
_0-3_躯体と製品
  6
CONTINUOUS
 62
    3
 10
2271.6519883350056
 20
2080.943820276515
 11
2249.1519883350056
 21
2080.943820276515
  0
LINE
  8
_0-3_躯体と製品
  6
CONTINUOUS
 62
    3
 10
2249.1519883350056
 20
2086.4438202765141
 11
2271.6519883350056
 21
2086.4438202765141
  0
LINE
  8
_0-3_躯体と製品
  6
CONTINUOUS
 62
    3
 10
2271.6519883350056
 20
2066.943820276515
 11
2249.1519883350056
 21
2066.943820276515
  0
LINE
  8
_0-3_躯体と製品
  6
CONTINUOUS
 62
    3
 10
2249.1519883350056
 20
2072.4438202765159
 11
2271.6519883350056
 21
2072.4438202765159
  0
LINE
  8
_0-3_躯体と製品
  6
CONTINUOUS
 62
    3
 10
2271.6519883350056
 20
2052.943820276515
 11
2249.1519883350056
 21
2052.943820276515
  0
LINE
  8
_0-3_躯体と製品
  6
CONTINUOUS
 62
    3
 10
2249.1519883350056
 20
2058.443820276515
 11
2271.6519883350056
 21
2058.443820276515
  0
LINE
  8
_0-3_躯体と製品
  6
CONTINUOUS
 62
    3
 10
1865.1519883350047
 20
1968.6418802765147
 11
1890.1519883350047
 21
1968.6418802765147
  0
LINE
  8
_0-3_躯体と製品
  6
CONTINUOUS
 62
    3
 10
1890.1519883350047
 20
2200.3312102765158
 11
1890.1519883350047
 21
1941.3934502765151
  0
LINE
  8
_0-3_躯体と製品
  6
CONTINUOUS
 62
    3
 10
1803.5505883350047
 20
1955.2117002765158
 11
1865.1519883350047
 21
2016.8131002765158
  0
LINE
  8
_0-3_躯体と製品
  6
CONTINUOUS
 62
    3
 10
1803.5505883350047
 20
1941.0695702765161
 11
1865.1519883350047
 21
2002.6709702765161
  0
LINE
  8
_0-3_躯体と製品
  6
CONTINUOUS
 62
    3
 10
1865.1519883350047
 20
2030.9552402765148
 11
1803.5505883350047
 21
1969.3538402765157
  0
LINE
  8
_0-3_躯体と製品
  6
CONTINUOUS
 62
    4
 10
2322.6519883350047
 20
1800.641880276517
 11
2322.6519883350047
 21
1818.641880276517
  0
LINE
  8
_0-3_躯体と製品
  6
CONTINUOUS
 62
    4
 10
2302.6519883350047
 20
1818.641880276517
 11
2302.6519883350056
 21
1800.641880276517
  0
LINE
  8
_0-3_躯体と製品
  6
CONTINUOUS
 62
    4
 10
2302.6519883350056
 20
1800.641880276517
 11
2322.6519883350047
 21
1800.641880276517
  0
LINE
  8
_0-3_躯体と製品
  6
CONTINUOUS
 62
    6
 10
2302.6519883350047
 20
1801.4347402765161
 11
2319.8591283350061
 21
1818.641880276517
  0
LINE
  8
_0-3_躯体と製品
  6
CONTINUOUS
 62
    6
 10
2302.6519883350047
 20
1808.505810276517
 11
2312.7880583350061
 21
1818.641880276517
  0
LINE
  8
_0-3_躯体と製品
  6
CONTINUOUS
 62
    6
 10
2302.6519883350047
 20
1815.5768702765158
 11
2305.716988335007
 21
1818.641880276517
  0
LINE
  8
_0-3_躯体と製品
  6
CONTINUOUS
 62
    6
 10
2308.9301983350069
 20
1800.641880276517
 11
2322.6519883350047
 21
1814.3636702765148
  0
LINE
  8
_0-3_躯体と製品
  6
CONTINUOUS
 62
    6
 10
2316.001259642072
 20
1800.6418802765161
 11
2322.6519883350047
 21
1807.2926002765157
  0
LINE
  8
_0-3_躯体と製品
  6
CONTINUOUS
 62
    4
 10
2282.6516883350059
 20
1785.641880276517
 11
2282.6516883350059
 21
1804.1418802765161
  0
LINE
  8
_0-3_躯体と製品
  6
CONTINUOUS
 62
    4
 10
2282.6516883350059
 20
1804.1418802765161
 11
2282.6516883350059
 21
1810.6418802765161
  0
LINE
  8
_0-3_躯体と製品
  6
CONTINUOUS
 62
    4
 10
2282.6516883350059
 20
1812.141880276517
 11
2282.6516883350059
 21
1815.6418802765161
  0
LINE
  8
_0-3_躯体と製品
  6
CONTINUOUS
 62
    4
 10
2282.6516883350059
 20
1812.141880276517
 11
2279.6516883350068
 21
1812.141880276517
  0
LINE
  8
_0-3_躯体と製品
  6
CONTINUOUS
 62
    4
 10
2279.6516883350068
 20
1812.141880276517
 11
2279.6516883350068
 21
1810.6418802765161
  0
LINE
  8
_0-3_躯体と製品
  6
CONTINUOUS
 62
    4
 10
2279.6516883350068
 20
1810.6418802765161
 11
2282.6516883350059
 21
1810.6418802765161
  0
LINE
  8
_0-3_躯体と製品
  6
CONTINUOUS
 62
    4
 10
2299.6519883350056
 20
1806.141880276517
 11
2285.6516883350059
 21
1806.141880276517
  0
LINE
  8
_0-3_躯体と製品
  6
CONTINUOUS
 62
    4
 10
2285.6516883350059
 20
1806.141880276517
 11
2285.6516883350059
 21
1815.6418802765161
  0
LINE
  8
_0-3_躯体と製品
  6
CONTINUOUS
 62
    4
 10
2285.6516883350059
 20
1815.6418802765161
 11
2299.6519883350056
 21
1815.6418802765161
  0
LINE
  8
_0-3_躯体と製品
  6
CONTINUOUS
 62
    4
 10
2299.6519883350056
 20
1815.6418802765161
 11
2299.6519883350056
 21
1806.141880276517
  0
LINE
  8
_0-3_躯体と製品
  6
CONTINUOUS
 62
    4
 10
2302.6519883350047
 20
1804.1418802765161
 11
2282.6516883350059
 21
1804.1418802765161
  0
LINE
  8
_0-3_躯体と製品
  6
CONTINUOUS
 62
    4
 10
2206.6519883350056
 20
1813.1418802765161
 11
2206.6519883350056
 21
1811.1418802765161
  0
LINE
  8
_0-3_躯体と製品
  6
CONTINUOUS
 62
    4
 10
2198.6519883350056
 20
1813.1418802765161
 11
2198.6519883350056
 21
1811.1418802765161
  0
LINE
  8
_0-3_躯体と製品
  6
CONTINUOUS
 62
    4
 10
2198.6519883350056
 20
1801.6418802765161
 11
2206.6519883350056
 21
1801.6418802765161
  0
LINE
  8
_0-3_躯体と製品
  6
CONTINUOUS
 62
    4
 10
2203.6519883350056
 20
1811.1418802765161
 11
2206.6519883350056
 21
1811.1418802765161
  0
LINE
  8
_0-3_躯体と製品
  6
CONTINUOUS
 62
    4
 10
2203.6519883350056
 20
1803.641880276517
 11
2203.6519883350056
 21
1811.1418802765161
  0
LINE
  8
_0-3_躯体と製品
  6
CONTINUOUS
 62
    4
 10
2201.6519883350056
 20
1811.1418802765161
 11
2201.6519883350056
 21
1803.641880276517
  0
LINE
  8
_0-3_躯体と製品
  6
CONTINUOUS
 62
    4
 10
2198.6519883350056
 20
1811.1418802765161
 11
2201.6519883350056
 21
1811.1418802765161
  0
LINE
  8
_0-3_躯体と製品
  6
CONTINUOUS
 62
    4
 10
2201.6519883350056
 20
1813.1418802765161
 11
2198.6519883350056
 21
1813.1418802765161
  0
LINE
  8
_0-3_躯体と製品
  6
CONTINUOUS
 62
    4
 10
2201.6519883350056
 20
1815.6418802765161
 11
2201.6519883350056
 21
1813.1418802765161
  0
LINE
  8
_0-3_躯体と製品
  6
CONTINUOUS
 62
    4
 10
2203.6519883350056
 20
1813.1418802765161
 11
2206.6519883350056
 21
1813.1418802765161
  0
LINE
  8
_0-3_躯体と製品
  6
CONTINUOUS
 62
    4
 10
2203.6519883350056
 20
1815.6418802765161
 11
2203.6519883350056
 21
1813.1418802765161
  0
LINE
  8
_0-3_躯体と製品
  6
CONTINUOUS
 62
    4
 10
2206.6519883350056
 20
1803.641880276517
 11
2206.6519883350056
 21
1801.6418802765161
  0
LINE
  8
_0-3_躯体と製品
  6
CONTINUOUS
 62
    4
 10
2198.6519883350056
 20
1803.641880276517
 11
2198.6519883350056
 21
1801.6418802765161
  0
LINE
  8
_0-3_躯体と製品
  6
CONTINUOUS
 62
    4
 10
2203.6519883350056
 20
1803.641880276517
 11
2206.6519883350056
 21
1803.641880276517
  0
LINE
  8
_0-3_躯体と製品
  6
CONTINUOUS
 62
    4
 10
2201.6519883350056
 20
1803.641880276517
 11
2198.6519883350056
 21
1803.641880276517
  0
LINE
  8
_0-3_躯体と製品
  6
CONTINUOUS
 62
    4
 10
2122.6522883350067
 20
1785.641880276517
 11
2122.6522883350067
 21
1804.1418802765161
  0
LINE
  8
_0-3_躯体と製品
  6
CONTINUOUS
 62
    4
 10
2122.6522883350067
 20
1812.141880276517
 11
2125.6522883350058
 21
1812.141880276517
  0
LINE
  8
_0-3_躯体と製品
  6
CONTINUOUS
 62
    4
 10
2125.6522883350058
 20
1812.141880276517
 11
2125.6522883350058
 21
1810.6418802765161
  0
LINE
  8
_0-3_躯体と製品
  6
CONTINUOUS
 62
    4
 10
2125.6522883350058
 20
1810.6418802765161
 11
2122.6522883350067
 21
1810.6418802765161
  0
LINE
  8
_0-3_躯体と製品
  6
CONTINUOUS
 62
    4
 10
2119.6522883350067
 20
1806.141880276517
 11
2119.6522883350067
 21
1815.6418802765161
  0
LINE
  8
_0-3_躯体と製品
  6
CONTINUOUS
 62
    4
 10
2122.6522883350067
 20
1804.1418802765161
 11
2122.6522883350067
 21
1810.6418802765161
  0
LINE
  8
_0-3_躯体と製品
  6
CONTINUOUS
 62
    4
 10
2122.6522883350067
 20
1812.141880276517
 11
2122.6522883350067
 21
1815.6418802765161
  0
LINE
  8
_0-3_躯体と製品
  6
CONTINUOUS
 62
    4
 10
2122.6522883350067
 20
1815.6418802765161
 11
2201.6519883350056
 21
1815.6418802765161
  0
LINE
  8
_0-3_躯体と製品
  6
CONTINUOUS
 62
    4
 10
2082.6519883350047
 20
1800.641880276517
 11
2082.6519883350047
 21
1818.641880276517
  0
LINE
  8
_0-3_躯体と製品
  6
CONTINUOUS
 62
    4
 10
2102.6519883350047
 20
1818.641880276517
 11
2102.6519883350047
 21
1800.641880276517
  0
LINE
  8
_0-3_躯体と製品
  6
CONTINUOUS
 62
    4
 10
2102.6519883350047
 20
1800.641880276517
 11
2082.6519883350047
 21
1800.641880276517
  0
LINE
  8
_0-3_躯体と製品
  6
CONTINUOUS
 62
    4
 10
2105.6519883350065
 20
1815.6418802765161
 11
2105.6519883350065
 21
1806.141880276517
  0
LINE
  8
_0-3_躯体と製品
  6
CONTINUOUS
 62
    6
 10
2082.6519883350047
 20
1801.4347402765161
 11
2099.8591283350047
 21
1818.641880276517
  0
LINE
  8
_0-3_躯体と製品
  6
CONTINUOUS
 62
    6
 10
2088.930198335006
 20
1800.641880276517
 11
2102.6519883350047
 21
1814.3636702765148
  0
LINE
  8
_0-3_躯体と製品
  6
CONTINUOUS
 62
    6
 10
2096.001259642072
 20
1800.641880276517
 11
2102.6519883350047
 21
1807.2926002765157
  0
LINE
  8
_0-3_躯体と製品
  6
CONTINUOUS
 62
    6
 10
2082.6519883350047
 20
1808.505810276517
 11
2092.7880583350061
 21
1818.641880276517
  0
LINE
  8
_0-3_躯体と製品
  6
CONTINUOUS
 62
    6
 10
2082.6519883350047
 20
1815.5768702765158
 11
2085.716988335007
 21
1818.641880276517
  0
LINE
  8
_0-3_躯体と製品
  6
CONTINUOUS
 62
    4
 10
2102.6519883350047
 20
1804.1418802765161
 11
2122.6522883350067
 21
1804.1418802765161
  0
LINE
  8
_0-3_躯体と製品
  6
CONTINUOUS
 62
    4
 10
2105.6519883350065
 20
1806.141880276517
 11
2119.6522883350067
 21
1806.141880276517
  0
LINE
  8
_0-3_躯体と製品
  6
CONTINUOUS
 62
    4
 10
2119.6522883350067
 20
1815.6418802765161
 11
2105.6519883350065
 21
1815.6418802765161
  0
LINE
  8
_0-3_躯体と製品
  6
CONTINUOUS
 62
    4
 10
2083.0088783350047
 20
2005.693820276515
 11
2323.0088783350056
 21
2005.693820276515
  0
LINE
  8
_0-3_躯体と製品
  6
CONTINUOUS
 62
    4
 10
2102.6519883350047
 20
2025.693820276515
 11
2302.6519883350047
 21
2025.693820276515
  0
LINE
  8
_0-3_躯体と製品
  6
CONTINUOUS
 62
    4
 10
2282.6519883350047
 20
1815.6418802765161
 11
2203.6519883350056
 21
1815.6418802765161
  0
LINE
  8
_0-3_躯体と製品
  6
CONTINUOUS
 62
    3
 10
2525.105190453286
 20
1271.1826202765158
 11
2572.5644604532854
 21
1318.6418802765163
  0
LINE
  8
_0-3_躯体と製品
  6
CONTINUOUS
 62
    3
 10
2510.9630604532858
 20
1271.1826202765158
 11
2558.4223204532836
 21
1318.6418802765163
  0
LINE
  8
_0-3_躯体と製品
  6
CONTINUOUS
 62
    3
 10
2544.2801804532846
 20
1318.6418802765163
 11
2496.820920453285
 21
1271.1826202765158
  0
LINE
  8
_0-3_躯体と製品
  6
CONTINUOUS
 62
    3
 10
1865.1519883350047
 20
1915.4741402765158
 11
1890.1519883350047
 21
1915.4741402765158
  0
LINE
  8
_0-3_躯体と製品
  6
CONTINUOUS
 62
    3
 10
1865.1519883350047
 20
1895.4741402765158
 11
1890.1519883350047
 21
1895.4741402765158
  0
LINE
  8
_0-3_躯体と製品
  6
CONTINUOUS
 62
    3
 10
1865.1519883350047
 20
1842.130830276516
 11
1890.1519883350047
 21
1842.130830276516
  0
LINE
  8
_0-3_躯体と製品
  6
CONTINUOUS
 62
    3
 10
1865.1519883350047
 20
1895.4741402765158
 11
1890.1519883350047
 21
1842.130830276516
  0
LINE
  8
_0-3_躯体と製品
  6
CONTINUOUS
 62
    4
 10
1890.1519883350047
 20
1756.6418802765161
 11
1890.1519883350047
 21
1800.6418802765161
  0
LINE
  8
_0-3_躯体と製品
  6
CONTINUOUS
 62
    3
 10
1803.5505883350047
 20
1627.3113902765158
 11
1865.1519883350047
 21
1688.9127902765158
  0
LINE
  8
_0-3_躯体と製品
  6
CONTINUOUS
 62
    3
 10
1803.5505883350047
 20
1613.1692602765161
 11
1865.1519883350047
 21
1674.7706602765161
  0
LINE
  8
_0-3_躯体と製品
  6
CONTINUOUS
 62
    3
 10
1865.1519883350047
 20
1703.0549302765157
 11
1803.5505883350047
 21
1641.4535302765157
  0
LINE
  8
_0-3_躯体と製品
  6
CONTINUOUS
 62
    3
 10
2095.6511783350047
 20
1271.1826202765158
 11
2143.1104383350039
 21
1318.6418802765163
  0
LINE
  8
_0-3_躯体と製品
  6
CONTINUOUS
 62
    3
 10
2128.9683083350055
 20
1318.6418802765163
 11
2081.5090383350039
 21
1271.1826202765158
  0
LINE
  8
_0-3_躯体と製品
  6
CONTINUOUS
 62
    3
 10
1803.5505883350047
 20
1356.2832202765153
 11
1865.1519883350047
 21
1417.884620276516
  0
LINE
  8
_0-3_躯体と製品
  6
CONTINUOUS
 62
    3
 10
1803.5505883350047
 20
1342.1410902765165
 11
1865.1519883350047
 21
1403.7424902765156
  0
LINE
  8
_0-3_躯体と製品
  6
CONTINUOUS
 62
    3
 10
1865.1519883350047
 20
1432.0267602765161
 11
1803.5505883350047
 21
1370.4253602765166
  0
LINE
  8
_0-3_躯体と製品
  6
CONTINUOUS
 62
    3
 10
2109.7933083350058
 20
1271.1826202765158
 11
2157.2525783350047
 21
1318.6418802765163
  0
LINE
  8
_0-3_躯体と製品
  6
CONTINUOUS
 62
    4
 10
1865.1519883350047
 20
2200.3312102765158
 11
1865.1519883350047
 21
1318.6418802765163
  0
LINE
  8
_0-3_躯体と製品
  6
CONTINUOUS
 62
    3
 10
1890.1519883350047
 20
1915.4741402765158
 11
1865.1519883350047
 21
1968.6418802765147
  0
LINE
  8
_0-3_躯体と製品
  6
CONTINUOUS
 62
    4
 10
2083.0088783350047
 20
2200.3312102765158
 11
2083.0088783350047
 21
2005.693820276515
  0
LINE
  8
_0-3_躯体と製品
  6
CONTINUOUS
 62
    4
 10
2323.0088783350056
 20
2005.693820276515
 11
2323.0088783350056
 21
2200.3312102765158
  0
LINE
  8
_0-3_躯体と製品
  6
CONTINUOUS
 62
    4
 10
2102.6519883350047
 20
2200.3312102765158
 11
2102.6519883350047
 21
2025.693820276515
  0
LINE
  8
_0-3_躯体と製品
  6
CONTINUOUS
 62
    4
 10
2302.6519883350047
 20
2025.693820276515
 11
2302.6519883350047
 21
2200.3312102765158
  0
LINE
  8
_0-3_躯体と製品
  6
CONTINUOUS
 62
    4
 10
1865.1519883350047
 20
1318.6418802765163
 11
3188.7726983350058
 21
1318.6418802765163
  0
LINE
  8
_0-3_躯体と製品
  6
CONTINUOUS
 62
    3
 10
1041.7298959031418
 20
1271.1826202765158
 11
1089.1891559031424
 21
1318.6418802765163
  0
LINE
  8
_0-3_躯体と製品
  6
CONTINUOUS
 62
    3
 10
1055.872025903142
 20
1271.1826202765158
 11
1103.3312859031428
 21
1318.6418802765163
  0
LINE
  8
_0-3_躯体と製品
  6
CONTINUOUS
 62
    3
 10
1075.0470159031433
 20
1318.6418802765163
 11
1027.587755903143
 21
1271.1826202765158
  0
LINE
  8
_0-3_躯体と製品
  6
CONTINUOUS
 62
    3
 10
651.40410590314264
 20
1271.1826202765158
 11
698.86336590314318
 21
1318.6418802765163
  0
LINE
  8
_0-3_躯体と製品
  6
CONTINUOUS
 62
    3
 10
665.54624590314165
 20
1271.1826202765158
 11
713.00550590314219
 21
1318.6418802765163
  0
LINE
  8
_0-3_躯体と製品
  6
CONTINUOUS
 62
    3
 10
684.721235903143
 20
1318.6418802765163
 11
637.26197590314246
 21
1271.1826202765158
  0
LINE
  8
_0-3_躯体と製品
  6
CONTINUOUS
 62
    4
 10
531.23347590314256
 20
1318.6418802765163
 11
1351.7914459031417
 21
1318.6418802765168
  0
LINE
  8
_0-3_躯体と製品
  6
CONTINUOUS
 62
    3
 10
-21.574141664994613
 20
1955.2117002765158
 11
40.027258335004944
 21
2016.8131002765158
  0
LINE
  8
_0-3_躯体と製品
  6
CONTINUOUS
 62
    3
 10
-21.574141664994613
 20
1941.0695702765161
 11
40.027258335004944
 21
2002.6709702765161
  0
LINE
  8
_0-3_躯体と製品
  6
CONTINUOUS
 62
    3
 10
40.027258335004944
 20
2030.9552402765148
 11
-21.574141664994613
 21
1969.3538402765157
  0
LINE
  8
_0-3_躯体と製品
  6
CONTINUOUS
 62
    4
 10
65.027258335004944
 20
1756.641880276517
 11
65.027258335004944
 21
1800.6418802765161
  0
LINE
  8
_0-3_躯体と製品
  6
CONTINUOUS
 62
    3
 10
-21.574141664994613
 20
1627.3113902765158
 11
40.027258335004944
 21
1688.9127902765158
  0
LINE
  8
_0-3_躯体と製品
  6
CONTINUOUS
 62
    3
 10
-21.574141664994613
 20
1613.1692602765161
 11
40.027258335004944
 21
1674.7706602765161
  0
LINE
  8
_0-3_躯体と製品
  6
CONTINUOUS
 62
    3
 10
40.027258335004944
 20
1703.0549302765157
 11
-21.574141664994613
 21
1641.4535302765157
  0
LINE
  8
_0-3_躯体と製品
  6
CONTINUOUS
 62
    3
 10
270.5264483350054
 20
1271.1826202765158
 11
317.98570833500366
 21
1318.6418802765163
  0
LINE
  8
_0-3_躯体と製品
  6
CONTINUOUS
 62
    3
 10
303.84356833500465
 20
1318.6418802765163
 11
256.38430833500411
 21
1271.1826202765158
  0
LINE
  8
_0-3_躯体と製品
  6
CONTINUOUS
 62
    3
 10
-21.574141664994613
 20
1356.2832202765153
 11
40.027258335004944
 21
1417.884620276516
  0
LINE
  8
_0-3_躯体と製品
  6
CONTINUOUS
 62
    3
 10
-21.574141664994613
 20
1342.1410902765165
 11
40.027258335004944
 21
1403.7424902765156
  0
LINE
  8
_0-3_躯体と製品
  6
CONTINUOUS
 62
    3
 10
40.027258335004944
 20
1432.0267602765161
 11
-21.574141664994613
 21
1370.4253602765166
  0
LINE
  8
_0-3_躯体と製品
  6
CONTINUOUS
 62
    4
 10
40.027258335004944
 20
2200.3312102765158
 11
40.027258335004944
 21
1318.6418802765163
  0
LINE
  8
_0-3_躯体と製品
  6
CONTINUOUS
 62
    4
 10
40.027258335004944
 20
1318.6418802765163
 11
471.42001833500376
 21
1318.6418802765163
  0
LINE
  8
_0-3_躯体と製品
  6
CONTINUOUS
 62
    3
 10
284.66857833500558
 20
1271.1826202765158
 11
332.12784833500496
 21
1318.6418802765163
  0
LINE
  8
_0-3_躯体と製品
  6
CONTINUOUS
 62
    3
 10
1125.0470159031433
 20
149.36683998515105
 11
1077.587755903143
 21
101.90756998515121
  0
LINE
  8
_0-3_躯体と製品
  6
CONTINUOUS
 62
    3
 10
1139.1891559031424
 20
149.36683998515105
 11
1089.828415903143
 21
100.00609998515097
  0
LINE
  8
_0-3_躯体と製品
  6
CONTINUOUS
 62
    3
 10
1105.872025903142
 20
101.90756998515121
 11
1153.3312859031428
 21
149.36683998515105
  0
LINE
  8
_0-3_躯体と製品
  6
CONTINUOUS
 62
    3
 10
746.7257459031423
 20
101.90756998515121
 11
794.18500590314284
 21
149.36683998515105
  0
LINE
  8
_0-3_躯体と製品
  6
CONTINUOUS
 62
    3
 10
760.86787590314248
 20
101.90756998515121
 11
808.32714590314174
 21
149.36683998515105
  0
LINE
  8
_0-3_躯体と製品
  6
CONTINUOUS
 62
    3
 10
780.04287590314266
 20
149.36683998515105
 11
732.58360590314328
 21
101.90756998515121
  0
LINE
  8
_0-3_躯体と製品
  6
CONTINUOUS
 62
    3
 10
334.66857833500558
 20
101.90756998515121
 11
382.12784833500496
 21
149.36683998515105
  0
LINE
  8
_0-3_躯体と製品
  6
CONTINUOUS
 62
    4
 10
471.42001833500353
 20
149.36683998515105
 11
40.027258335004944
 21
149.36683998515105
  0
LINE
  8
_0-3_躯体と製品
  6
CONTINUOUS
 62
    4
 10
1419.0090859031438
 20
149.36683998515105
 11
531.23347590314233
 21
149.36683998515105
  0
LINE
  8
_0-3_躯体と製品
  6
CONTINUOUS
 62
    3
 10
-21.574141664994613
 20
785.93665998515144
 11
40.027258335004944
 21
847.53805998515099
  0
LINE
  8
_0-3_躯体と製品
  6
CONTINUOUS
 62
    3
 10
-21.574141664994613
 20
771.79452998515126
 11
40.027258335004944
 21
833.39591998515084
  0
LINE
  8
_0-3_躯体と製品
  6
CONTINUOUS
 62
    3
 10
40.027258335004944
 20
861.68019998515115
 11
-21.574141664994613
 21
800.07879998515045
  0
LINE
  8
_0-3_躯体と製品
  6
CONTINUOUS
 62
    4
 10
77.527258335004944
 20
631.36683998515093
 11
77.527258335004944
 21
616.36683998515093
  0
LINE
  8
_0-3_躯体と製品
  6
CONTINUOUS
 62
    4
 10
77.527258335004717
 20
585.36683998515116
 11
77.527258335004717
 21
535.36683998515116
  0
LINE
  8
_0-3_躯体と製品
  6
CONTINUOUS
 62
    3
 10
-21.574141664994613
 20
458.03634998515145
 11
40.027258335004944
 21
519.637749985151
  0
LINE
  8
_0-3_躯体と製品
  6
CONTINUOUS
 62
    3
 10
-21.574141664994613
 20
443.89421998515127
 11
40.027258335004944
 21
505.49560998515085
  0
LINE
  8
_0-3_躯体と製品
  6
CONTINUOUS
 62
    3
 10
40.027258335004944
 20
533.77987998515118
 11
-21.574141664994613
 21
472.17848998515046
  0
LINE
  8
_0-3_躯体と製品
  6
CONTINUOUS
 62
    3
 10
-21.574141664994613
 20
187.00817998515072
 11
40.027258335004944
 21
248.60957998515084
  0
LINE
  8
_0-3_躯体と製品
  6
CONTINUOUS
 62
    3
 10
-21.574141664994613
 20
172.86604998515111
 11
40.027258335004944
 21
234.46743998515126
  0
LINE
  8
_0-3_躯体と製品
  6
CONTINUOUS
 62
    3
 10
40.027258335004944
 20
262.75170998515102
 11
-21.574141664994613
 21
201.15031998515087
  0
LINE
  8
_0-3_躯体と製品
  6
CONTINUOUS
 62
    4
 10
40.027258335004944
 20
1031.0561699851503
 11
40.027258335004944
 21
149.36683998515105
  0
LINE
  8
_0-3_躯体と製品
  6
CONTINUOUS
 62
    3
 10
367.98570833500366
 20
149.36683998515105
 11
318.62496833500404
 21
100.00609998515097
  0
LINE
  8
_0-3_躯体と製品
  6
CONTINUOUS
 62
    3
 10
353.84356833500465
 20
149.36683998515105
 11
306.38430833500411
 21
101.90756998515121
  0
ARC
  8
_0-3_躯体と製品
  6
CONTINUOUS
 62
    4
 10
247.02725833500449
 20
1710.141880276517
 40
5.5
 50
270
 51
0.0000000000000127
  0
ARC
  8
_0-3_躯体と製品
  6
CONTINUOUS
 62
    4
 10
247.02725833500472
 20
1710.141880276517
 40
3.8999999999999768
 50
269.99999999999835
 51
359.99999999999835
  0
ARC
  8
_0-3_躯体と製品
  6
CONTINUOUS
 62
    4
 10
208.02725833500449
 20
1710.141880276517
 40
5.5
 50
180
 51
270
  0
ARC
  8
_0-3_躯体と製品
  6
CONTINUOUS
 62
    4
 10
208.02725833500426
 20
1710.141880276517
 40
3.8999999999999768
 50
180.00000000000168
 51
270.00000000000171
  0
ARC
  8
_0-3_躯体と製品
  6
CONTINUOUS
 62
    4
 10
247.02725833500449
 20
1749.141880276517
 40
5.5
 50
0.0000000000000052
 51
90.000000000000014
  0
ARC
  8
_0-3_躯体と製品
  6
CONTINUOUS
 62
    4
 10
247.02725833500449
 20
1749.141880276517
 40
3.9000000000000905
 50
0.0000000000000052
 51
90.000000000000014
  0
LINE
  8
_0-3_躯体と製品
  6
CONTINUOUS
 62
    4
 10
208.02725833500449
 20
1706.2418802765169
 11
217.52725833500449
 21
1706.2418802765169
  0
LINE
  8
_0-3_躯体と製品
  6
CONTINUOUS
 62
    4
 10
204.1272583350044
 20
1710.141880276517
 11
204.1272583350044
 21
1749.141880276517
  0
LINE
  8
_0-3_躯体と製品
  6
CONTINUOUS
 62
    4
 10
252.52725833500449
 20
1760.0474662765168
 11
252.52725833500449
 21
1710.141880276517
  0
LINE
  8
_0-3_躯体と製品
  6
CONTINUOUS
 62
    4
 10
247.02725833500449
 20
1754.641880276517
 11
208.02725833500449
 21
1754.641880276517
  0
ARC
  8
_0-3_躯体と製品
  6
CONTINUOUS
 62
    4
 10
208.02725833500449
 20
1749.141880276517
 40
5.5
 50
90
 51
180
  0
LINE
  8
_0-3_躯体と製品
  6
CONTINUOUS
 62
    4
 10
202.52725833500449
 20
1760.087472276517
 11
202.52725833500449
 21
1710.141880276517
  0
LINE
  8
_0-3_躯体と製品
  6
CONTINUOUS
 62
    4
 10
247.02725833500449
 20
1704.641880276517
 11
208.02725833500449
 21
1704.641880276517
  0
LINE
  8
_0-3_躯体と製品
  6
CONTINUOUS
 62
    4
 10
237.52725833500449
 20
1704.641880276517
 11
237.52725833500449
 21
1706.2418802765169
  0
LINE
  8
_0-3_躯体と製品
  6
CONTINUOUS
 62
    4
 10
217.52725833500449
 20
1706.2418802765169
 11
217.52725833500449
 21
1704.641880276517
  0
LINE
  8
_0-3_躯体と製品
  6
CONTINUOUS
 62
    4
 10
247.02725833500449
 20
1753.0418802765171
 11
208.02725833500449
 21
1753.0418802765171
  0
ARC
  8
_0-3_躯体と製品
  6
CONTINUOUS
 62
    4
 10
208.02725833500449
 20
1749.141880276517
 40
3.9000000000000905
 50
90
 51
180
  0
LINE
  8
_0-3_躯体と製品
  6
CONTINUOUS
 62
    4
 10
247.02725833500449
 20
1706.2418802765169
 11
237.52725833500449
 21
1706.2418802765169
  0
LINE
  8
_0-3_躯体と製品
  6
CONTINUOUS
 62
    4
 10
250.92725833500413
 20
1749.141880276517
 11
250.92725833500413
 21
1710.141880276517
  0
LINE
  8
_0-3_躯体と製品
  6
CONTINUOUS
 62
    4
 10
257.52725833500494
 20
1761.6293606839931
 11
257.52725833500449
 21
1774.641880276517
  0
LINE
  8
_0-3_躯体と製品
  6
CONTINUOUS
 62
    4
 10
197.52725833500449
 20
1761.6293606839931
 11
197.52725833500449
 21
1774.641880276517
  0
LINE
  8
_0-3_躯体と製品
  6
CONTINUOUS
 62
    4
 10
197.52725833500449
 20
1753.6543998690408
 11
197.52725833500449
 21
1691.9418802765167
  0
ARC
  8
_0-3_躯体と製品
  6
CONTINUOUS
 62
    4
 10
199.82725833500467
 20
1691.9418802765169
 40
2.3000000000001135
 50
180.00000000000395
 51
270.00000000000171
  0
LINE
  8
_0-3_躯体と製品
  6
CONTINUOUS
 62
    4
 10
199.82725833500467
 20
1689.641880276517
 11
255.22725833500431
 21
1689.641880276517
  0
ARC
  8
_0-3_躯体と製品
  6
CONTINUOUS
 62
    4
 10
255.22725833500431
 20
1691.9418802765169
 40
2.3000000000001135
 50
269.99999999999829
 51
359.99999999999602
  0
LINE
  8
_0-3_躯体と製品
  6
CONTINUOUS
 62
    4
 10
257.52725833500449
 20
1691.9418802765167
 11
257.52725833500494
 21
1753.6543998690408
  0
LINE
  8
_0-3_躯体と製品
  6
CONTINUOUS
 62
    4
 10
195.22725833500431
 20
1754.641880276517
 11
195.22725833500431
 21
1691.9418802765167
  0
ARC
  8
_0-3_躯体と製品
  6
CONTINUOUS
 62
    4
 10
199.82725833500444
 20
1691.9418802765172
 40
4.6000000000001817
 50
180.00000000000338
 51
269.99999999999659
  0
LINE
  8
_0-3_躯体と製品
  6
CONTINUOUS
 62
    4
 10
199.82725833500422
 20
1687.3418802765168
 11
255.22725833500431
 21
1687.3418802765168
  0
ARC
  8
_0-3_躯体と製品
  6
CONTINUOUS
 62
    4
 10
255.22725833500408
 20
1691.9418802765172
 40
4.6000000000001835
 50
270.00000000000341
 51
359.99999999999659
  0
LINE
  8
_0-3_躯体と製品
  6
CONTINUOUS
 62
    4
 10
259.82725833500422
 20
1691.9418802765167
 11
259.82725833500467
 21
1754.641880276517
  0
LINE
  8
_0-3_躯体と製品
  6
CONTINUOUS
 62
    3
 10
252.52725833500449
 20
1759.641880276517
 11
247.52725833500449
 21
1759.641880276517
  0
LINE
  8
_0-3_躯体と製品
  6
CONTINUOUS
 62
    3
 10
202.52725833500449
 20
1759.641880276517
 11
207.52725833500449
 21
1759.641880276517
  0
LINE
  8
_0-3_躯体と製品
  6
CONTINUOUS
 62
    4
 10
235.52725833500449
 20
1655.8418802765168
 11
235.52725833500449
 21
1487.6418809601937
  0
LINE
  8
_0-3_躯体と製品
  6
CONTINUOUS
 62
    4
 10
219.52725833500449
 20
1655.8418802765168
 11
219.52725833500449
 21
1487.6418809601937
  0
LINE
  8
_0-3_躯体と製品
  6
CONTINUOUS
 62
    3
 10
234.02725833500449
 20
1655.8418802765168
 11
234.02725833500449
 21
1487.6418809601937
  0
LINE
  8
_0-3_躯体と製品
  6
CONTINUOUS
 62
    3
 10
221.02725833500449
 20
1655.8418802765168
 11
221.02725833500449
 21
1487.6418809601937
  0
LINE
  8
_0-3_躯体と製品
  6
CONTINUOUS
 62
    4
 10
207.52725833500449
 20
1761.641880276517
 11
247.52725833500449
 21
1761.641880276517
  0
LINE
  8
_0-3_躯体と製品
  6
CONTINUOUS
 62
    3
 10
252.22725833500431
 20
1762.6414832765167
 11
252.22725833500431
 21
1768.6422772765168
  0
LINE
  8
_0-3_躯体と製品
  6
CONTINUOUS
 62
    3
 10
252.22725833500431
 20
1762.641880276517
 11
251.7271923350047
 21
1763.141946276517
  0
LINE
  8
_0-3_躯体と製品
  6
CONTINUOUS
 62
    3
 10
252.22725833500431
 20
1768.641880276517
 11
251.7271923350047
 21
1768.1418142765169
  0
LINE
  8
_0-3_躯体と製品
  6
CONTINUOUS
 62
    4
 10
247.52725833500449
 20
1761.641880276517
 11
247.52725833500449
 21
1754.641880276517
  0
LINE
  8
_0-3_躯体と製品
  6
CONTINUOUS
 62
    4
 10
252.52725833500449
 20
1756.641880276517
 11
247.52725833500449
 21
1756.641880276517
  0
LINE
  8
_0-3_躯体と製品
  6
CONTINUOUS
 62
    3
 10
193.72725937028667
 20
1768.1416823190757
 11
193.72725737028691
 21
1696.1420782765167
  0
ARC
  8
_0-3_躯体と製品
  6
CONTINUOUS
 62
    3
 10
195.22745737028686
 20
1768.1416822765173
 40
1.5001980000001485
 50
90.007601584388041
 51
180.00000000000651
  0
ARC
  8
_0-3_躯体と製品
  6
CONTINUOUS
 62
    3
 10
195.22745737028663
 20
1696.1420782765167
 40
1.500198000000011
 50
179.99999999999693
 51
269.99239841561717
  0
LINE
  8
_0-3_躯体と製品
  6
CONTINUOUS
 62
    3
 10
191.22725833500476
 20
1767.8914822765169
 11
191.22725833500522
 21
1763.3922782761888
  0
ARC
  8
_0-3_躯体と製品
  6
CONTINUOUS
 62
    3
 10
194.22765633500444
 20
1767.8914822765171
 40
3.000397999999791
 50
90.000000000002188
 51
180.00000000000219
  0
LINE
  8
_0-3_躯体と製品
  6
CONTINUOUS
 62
    3
 10
195.22725833500431
 20
1770.891880276517
 11
194.22765633500444
 21
1770.891880276517
  0
LINE
  8
_0-3_躯体と製品
  6
CONTINUOUS
 62
    4
 10
197.52725833500449
 20
1774.641880276517
 11
195.22725833500431
 21
1774.641880276517
  0
LINE
  8
_0-3_躯体と製品
  6
CONTINUOUS
 62
    4
 10
207.52725833500449
 20
1761.641880276517
 11
207.52725833500449
 21
1754.641880276517
  0
LINE
  8
_0-3_躯体と製品
  6
CONTINUOUS
 62
    4
 10
198.51093521114558
 20
1760.087472276517
 11
202.52725833500449
 21
1760.087472276517
  0
LINE
  8
_0-3_躯体と製品
  6
CONTINUOUS
 62
    4
 10
195.22725833500476
 20
1760.641880276517
 11
195.22725833500431
 21
1774.641880276517
  0
ARC
  8
_0-3_躯体と製品
  6
CONTINUOUS
 62
    4
 10
203.02745632167307
 20
1687.342080276517
 40
1.5001980000000681
 50
180.0076384290208
 51
269.9999999999946
  0
LINE
  8
_0-3_躯体と製品
  6
CONTINUOUS
 62
    4
 10
202.52725833500449
 20
1756.641880276517
 11
207.52725833500449
 21
1756.641880276517
  0
LINE
  8
_0-3_躯体と製品
  6
CONTINUOUS
 62
    3
 10
257.52725833500449
 20
1768.1418142765169
 11
197.52725833500449
 21
1768.1418142765169
  0
LINE
  8
_0-3_躯体と製品
  6
CONTINUOUS
 62
    3
 10
266.35411833500461
 20
1768.1418142765169
 11
275.22725833500431
 21
1768.1418142765169
  0
LINE
  8
_0-3_躯体と製品
  6
CONTINUOUS
 62
    3
 10
257.52725833500449
 20
1763.1415492765168
 11
197.52725833500449
 21
1763.1415492765168
  0
LINE
  8
_0-3_躯体と製品
  6
CONTINUOUS
 62
    3
 10
266.35411833500461
 20
1763.141946276517
 11
275.22725833500431
 21
1763.141946276517
  0
LINE
  8
_0-3_躯体と製品
  6
CONTINUOUS
 62
    4
 10
203.02745632167284
 20
1685.8418802765168
 11
252.02706034833614
 21
1685.8418802765168
  0
LINE
  8
_0-3_躯体と製品
  6
CONTINUOUS
 62
    3
 10
257.52725833500449
 20
1768.641880276517
 11
252.22725833500431
 21
1768.641880276517
  0
LINE
  8
_0-3_躯体と製品
  6
CONTINUOUS
 62
    3
 10
266.35411833500461
 20
1768.641880276517
 11
275.22725833500431
 21
1768.641880276517
  0
LINE
  8
_0-3_躯体と製品
  6
CONTINUOUS
 62
    3
 10
257.52725833500449
 20
1762.641880276517
 11
252.22725833500431
 21
1762.641880276517
  0
LINE
  8
_0-3_躯体と製品
  6
CONTINUOUS
 62
    3
 10
275.22725833500431
 20
1762.641880276517
 11
266.35411833500461
 21
1762.641880276517
  0
LINE
  8
_0-3_躯体と製品
  6
CONTINUOUS
 62
    4
 10
256.52607323661255
 20
1760.0474662765168
 11
252.52725833500449
 21
1760.0474662765168
  0
LINE
  8
_0-3_躯体と製品
  6
CONTINUOUS
 62
    3
 10
261.32725833500467
 20
1696.1420782765167
 11
261.32725833500467
 21
1771.438974276517
  0
ARC
  8
_0-3_躯体と製品
  6
CONTINUOUS
 62
    3
 10
259.82706033500494
 20
1696.1420782765167
 40
1.5001979999998412
 50
270.00000000000432
 51
0.0000000000043637
  0
ARC
  8
_0-3_躯体と製品
  6
CONTINUOUS
 62
    3
 10
259.82706033500472
 20
1768.141682276517
 40
1.5001979999998412
 50
359.99999999999568
 51
89.99999999999568
  0
LINE
  8
_0-3_躯体と製品
  6
CONTINUOUS
 62
    3
 10
275.22725833500431
 20
1768.641880276517
 11
275.22725833500431
 21
1762.641880276517
  0
LINE
  8
_0-3_躯体と製品
  6
CONTINUOUS
 62
    3
 10
261.32725833500467
 20
1769.7137462765168
 11
261.32725833500467
 21
1760.9625882765167
  0
LINE
  8
_0-3_躯体と製品
  6
CONTINUOUS
 62
    3
 10
261.32725833500467
 20
1761.266301276517
 11
261.32725833500467
 21
1766.945395276517
  0
LINE
  8
_0-3_躯体と製品
  6
CONTINUOUS
 62
    3
 10
261.32725833500467
 20
1761.266301276517
 11
261.92733833500483
 21
1760.6412172765167
  0
LINE
  8
_0-3_躯体と製品
  6
CONTINUOUS
 62
    3
 10
261.32725833500467
 20
1770.017459276517
 11
261.92733833500483
 21
1770.642541276517
  0
ARC
  8
_0-3_躯体と製品
  6
CONTINUOUS
 62
    3
 10
262.92955433500538
 20
1761.8913832765172
 40
1.6022960000006095
 50
128.71798800000863
 51
180.00000000001361
  0
ARC
  8
_0-3_躯体と製品
  6
CONTINUOUS
 62
    3
 10
266.83632233500452
 20
1765.6418792765173
 40
5.509061999999715
 50
153.00853300000176
 51
206.99146699999824
  0
ARC
  8
_0-3_躯体と製品
  6
CONTINUOUS
 62
    3
 10
262.92955433500401
 20
1769.3923752765172
 40
1.602295999999426
 50
180.00000000000674
 51
231.28201200001172
  0
LINE
  8
_0-3_躯体と製品
  6
CONTINUOUS
 62
    3
 10
266.32792033500505
 20
1770.017459276517
 11
266.32792033500505
 21
1761.266301276517
  0
LINE
  8
_0-3_躯体と製品
  6
CONTINUOUS
 62
    3
 10
266.32792033500505
 20
1761.266301276517
 11
266.32792033500505
 21
1770.017459276517
  0
LINE
  8
_0-3_躯体と製品
  6
CONTINUOUS
 62
    3
 10
265.72784233500465
 20
1760.6412172765167
 11
261.92733833500483
 21
1760.6412172765167
  0
LINE
  8
_0-3_躯体と製品
  6
CONTINUOUS
 62
    3
 10
265.72784233500465
 20
1763.1415492765168
 11
261.92733833500483
 21
1763.1415492765168
  0
LINE
  8
_0-3_躯体と製品
  6
CONTINUOUS
 62
    3
 10
265.72784233500465
 20
1768.1422112765167
 11
261.92733833500483
 21
1768.1422112765167
  0
LINE
  8
_0-3_躯体と製品
  6
CONTINUOUS
 62
    3
 10
265.72784233500465
 20
1770.642541276517
 11
261.92733833500483
 21
1770.642541276517
  0
LINE
  8
_0-3_躯体と製品
  6
CONTINUOUS
 62
    3
 10
266.32792033500505
 20
1761.266301276517
 11
265.72784233500465
 21
1760.6412172765167
  0
LINE
  8
_0-3_躯体と製品
  6
CONTINUOUS
 62
    3
 10
266.32792033500505
 20
1770.017459276517
 11
265.72784233500465
 21
1770.642541276517
  0
ARC
  8
_0-3_躯体と製品
  6
CONTINUOUS
 62
    3
 10
264.72562633500411
 20
1761.8913832765172
 40
1.6022960000006095
 50
359.99999999998641
 51
51.282011999991411
  0
ARC
  8
_0-3_躯体と製品
  6
CONTINUOUS
 62
    3
 10
260.81885833500496
 20
1765.6418792765173
 40
5.509061999999715
 50
333.00853300000176
 51
26.991466999998252
  0
ARC
  8
_0-3_躯体と製品
  6
CONTINUOUS
 62
    3
 10
264.72562633500547
 20
1769.3923752765172
 40
1.602295999999426
 50
308.71798799998828
 51
359.99999999999324
  0
LINE
  8
_0-3_躯体と製品
  6
CONTINUOUS
 62
    3
 10
261.32725833500467
 20
1771.7426872765168
 11
259.82706033500494
 21
1771.7426872765168
  0
LINE
  8
_0-3_躯体と製品
  6
CONTINUOUS
 62
    4
 10
257.52725833500449
 20
1774.641880276517
 11
259.82725833500467
 21
1774.641880276517
  0
LINE
  8
_0-3_躯体と製品
  6
CONTINUOUS
 62
    4
 10
259.82725833500467
 20
1760.641880276517
 11
259.82725833500467
 21
1774.641880276517
  0
ARC
  8
_0-3_躯体と製品
  6
CONTINUOUS
 62
    4
 10
252.02706034833614
 20
1687.3420802765168
 40
1.5001979999999546
 50
270.00000000000102
 51
359.99236157098352
  0
LINE
  8
_0-3_躯体と製品
  6
CONTINUOUS
 62
    4
 10
217.13495350034214
 20
1672.8418802765168
 11
237.91956319117457
 21
1672.8418802765168
  0
LINE
  8
_0-3_躯体と製品
  6
CONTINUOUS
 62
    4
 10
220.59905511550028
 20
1674.3418802765168
 11
220.59905511550028
 21
1685.8418802765168
  0
LINE
  8
_0-3_躯体と製品
  6
CONTINUOUS
 62
    4
 10
234.45546157604554
 20
1657.3418802765168
 11
234.45546157604554
 21
1668.8418802765168
  0
LINE
  8
_0-3_躯体と製品
  6
CONTINUOUS
 62
    4
 10
234.45546157604554
 20
1674.3418802765168
 11
234.45546157604554
 21
1685.8418802765168
  0
LINE
  8
_0-3_躯体と製品
  6
CONTINUOUS
 62
    4
 10
220.59905511550028
 20
1657.3418802765168
 11
220.59905511550028
 21
1668.8418802765168
  0
ARC
  8
_0-3_躯体と製品
  6
CONTINUOUS
 62
    4
 10
217.13495350035669
 20
1677.5918802765229
 40
4.7500000000083809
 50
223.17355110726379
 51
316.82644889273621
  0
ARC
  8
_0-3_躯体と製品
  6
CONTINUOUS
 62
    4
 10
227.52725834577291
 20
1689.5918799560768
 40
16.74999970825489
 50
245.56730186717647
 51
294.43269813282353
  0
ARC
  8
_0-3_躯体と製品
  6
CONTINUOUS
 62
    4
 10
237.91956319117457
 20
1677.5918802765098
 40
4.7499999999887379
 50
223.17355110726777
 51
316.82644889273217
  0
LINE
  8
_0-3_躯体と製品
  6
CONTINUOUS
 62
    4
 10
241.38366480630361
 20
1674.3418802765168
 11
241.38366480630361
 21
1685.8418802765168
  0
LINE
  8
_0-3_躯体と製品
  6
CONTINUOUS
 62
    4
 10
241.38366480630361
 20
1685.8418802765168
 11
213.6708518852131
 21
1685.8418802765168
  0
LINE
  8
_0-3_躯体と製品
  6
CONTINUOUS
 62
    4
 10
213.6708518852131
 20
1685.8418802765168
 11
213.6708518852131
 21
1674.3418802765168
  0
LINE
  8
_0-3_躯体と製品
  6
CONTINUOUS
 62
    4
 10
213.52725834142188
 20
1668.8418802765168
 11
241.5272583787912
 21
1668.8418802765168
  0
LINE
  8
_0-3_躯体と製品
  6
CONTINUOUS
 62
    4
 10
241.5272583787912
 20
1668.8418802765168
 11
241.5272583787912
 21
1672.8418802765168
  0
LINE
  8
_0-3_躯体と製品
  6
CONTINUOUS
 62
    4
 10
241.5272583787912
 20
1672.8418802765168
 11
213.52725834142188
 21
1672.8418802765168
  0
LINE
  8
_0-3_躯体と製品
  6
CONTINUOUS
 62
    4
 10
213.52725834142188
 20
1672.8418802765168
 11
213.52725834142188
 21
1668.8418802765168
  0
LINE
  8
_0-3_躯体と製品
  6
CONTINUOUS
 62
    4
 10
217.13495350034214
 20
1655.8418802765168
 11
237.91956319117457
 21
1655.8418802765168
  0
LINE
  8
_0-3_躯体と製品
  6
CONTINUOUS
 62
    4
 10
227.52725836010654
 20
1668.8418802765168
 11
231.52725836010654
 21
1672.8418802765168
  0
ARC
  8
_0-3_躯体と製品
  6
CONTINUOUS
 62
    4
 10
217.13495350035669
 20
1660.5918802765236
 40
4.7500000000088578
 50
223.1735511072699
 51
316.82644889273007
  0
ARC
  8
_0-3_躯体と製品
  6
CONTINUOUS
 62
    4
 10
227.52725834577291
 20
1672.5918802765123
 40
16.749999999994436
 50
245.56730232054764
 51
294.43269767945236
  0
ARC
  8
_0-3_躯体と製品
  6
CONTINUOUS
 62
    4
 10
237.91956319117457
 20
1660.5918802765086
 40
4.749999999987951
 50
223.17355110725768
 51
316.82644889274235
  0
LINE
  8
_0-3_躯体と製品
  6
CONTINUOUS
 62
    4
 10
241.38366480630361
 20
1657.3418802765168
 11
241.38366480630361
 21
1668.8418802765168
  0
LINE
  8
_0-3_躯体と製品
  6
CONTINUOUS
 62
    4
 10
241.38366480630361
 20
1668.8418802765168
 11
213.6708518852131
 21
1668.8418802765168
  0
LINE
  8
_0-3_躯体と製品
  6
CONTINUOUS
 62
    4
 10
213.6708518852131
 20
1668.8418802765168
 11
213.6708518852131
 21
1657.3418802765168
  0
LINE
  8
_0-3_躯体と製品
  6
CONTINUOUS
 62
    4
 10
223.52725831272551
 20
1668.8418802478209
 11
227.52725831272551
 21
1672.8418802478209
  0
LINE
  8
_0-3_躯体と製品
  6
CONTINUOUS
 62
    4
 10
235.52725833500449
 20
1454.4418802765049
 11
235.52725833500449
 21
1388.1416802765175
  0
LINE
  8
_0-3_躯体と製品
  6
CONTINUOUS
 62
    4
 10
219.52725833500449
 20
1454.4418802765049
 11
219.52725833500449
 21
1388.1416802765175
  0
LINE
  8
_0-3_躯体と製品
  6
CONTINUOUS
 62
    3
 10
234.02725833500449
 20
1454.4418802765049
 11
234.02725833500449
 21
1386.6416802765175
  0
LINE
  8
_0-3_躯体と製品
  6
CONTINUOUS
 62
    3
 10
221.02725833500449
 20
1454.4418802765049
 11
221.02725833500449
 21
1386.6416802765175
  0
LINE
  8
_0-3_躯体と製品
  6
CONTINUOUS
 62
    4
 10
234.02811833500459
 20
1386.6416802765175
 11
221.02725833500449
 21
1386.6416802765175
  0
LINE
  8
_0-3_躯体と製品
  6
CONTINUOUS
 62
    3
 10
235.52725833500449
 20
1388.1416802765175
 11
219.52725833500449
 21
1388.1416802765175
  0
LINE
  8
_0-3_躯体と製品
  6
CONTINUOUS
 62
    4
 10
219.52725833500449
 20
1388.1416802765175
 11
221.02725833500449
 21
1386.6416802765175
  0
LINE
  8
_0-3_躯体と製品
  6
CONTINUOUS
 62
    4
 10
235.52725833500449
 20
1388.1416802765175
 11
234.02725833500449
 21
1386.6416802765175
  0
LINE
  8
_0-3_躯体と製品
  6
CONTINUOUS
 62
    4
 10
207.52725833500449
 20
1754.641880276517
 11
247.52725833500449
 21
1754.641880276517
  0
ARC
  8
_0-3_躯体と製品
  6
CONTINUOUS
 62
    4
 10
192.97725833500431
 20
1757.641880276517
 40
3.7500000000001359
 50
306.86989764583751
 51
53.130102354160542
  0
ARC
  8
_0-3_躯体と製品
  6
CONTINUOUS
 62
    4
 10
192.97725833500431
 20
1757.641880276517
 40
6.0500000000001348
 50
318.76966956404101
 51
41.23033043595904
  0
ARC
  8
_0-3_躯体と製品
  6
CONTINUOUS
 62
    4
 10
262.07725833500467
 20
1757.641880276517
 40
3.7500000000001359
 50
126.8698976458375
 51
233.13010235416249
  0
ARC
  8
_0-3_躯体と製品
  6
CONTINUOUS
 62
    4
 10
262.07725833500467
 20
1757.641880276517
 40
6.0500000000001348
 50
138.76966956403851
 51
221.23033043596149
  0
ARC
  8
_0-3_躯体と製品
  6
CONTINUOUS
 62
    3
 10
194.22765633500467
 20
1763.3922782765167
 40
3.0003979999999717
 50
179.99999999999653
 51
260.39952424800055
  0
ARC
  8
_0-3_躯体と製品
  6
CONTINUOUS
 62
    4
 10
1037.8740559031423
 20
1710.1418802765168
 40
5.4999999999999423
 50
270.00000000000057
 51
0.0000000000005979
  0
ARC
  8
_0-3_躯体と製品
  6
CONTINUOUS
 62
    4
 10
1037.8740559031426
 20
1710.141880276517
 40
3.89999999999992
 50
269.99999999999915
 51
359.99999999999915
  0
ARC
  8
_0-3_躯体と製品
  6
CONTINUOUS
 62
    4
 10
998.87405590314222
 20
1710.141880276517
 40
5.5
 50
180
 51
270
  0
ARC
  8
_0-3_躯体と製品
  6
CONTINUOUS
 62
    4
 10
998.87405590314211
 20
1710.141880276517
 40
3.89999999999992
 50
180.00000000000085
 51
270.00000000000085
  0
ARC
  8
_0-3_躯体と製品
  6
CONTINUOUS
 62
    4
 10
1037.8740559031423
 20
1749.141880276517
 40
5.4999999999999423
 50
359.99999999999943
 51
89.999999999999432
  0
ARC
  8
_0-3_躯体と製品
  6
CONTINUOUS
 62
    4
 10
1037.8740559031423
 20
1749.141880276517
 40
3.9000000000000337
 50
359.99999999999915
 51
89.99999999999919
  0
LINE
  8
_0-3_躯体と製品
  6
CONTINUOUS
 62
    4
 10
998.87405590314222
 20
1706.2418802765169
 11
1008.3740559031422
 21
1706.2418802765169
  0
LINE
  8
_0-3_躯体と製品
  6
CONTINUOUS
 62
    4
 10
994.97405590314224
 20
1710.141880276517
 11
994.97405590314224
 21
1749.141880276517
  0
LINE
  8
_0-3_躯体と製品
  6
CONTINUOUS
 62
    4
 10
1043.3740559031421
 20
1760.0474662765168
 11
1043.3740559031421
 21
1710.141880276517
  0
LINE
  8
_0-3_躯体と製品
  6
CONTINUOUS
 62
    4
 10
1037.8740559031423
 20
1754.641880276517
 11
998.87405590314222
 21
1754.641880276517
  0
ARC
  8
_0-3_躯体と製品
  6
CONTINUOUS
 62
    4
 10
998.87405590314222
 20
1749.141880276517
 40
5.5
 50
90
 51
180
  0
LINE
  8
_0-3_躯体と製品
  6
CONTINUOUS
 62
    4
 10
993.37405590314222
 20
1760.087472276517
 11
993.37405590314222
 21
1710.141880276517
  0
LINE
  8
_0-3_躯体と製品
  6
CONTINUOUS
 62
    4
 10
1037.8740559031423
 20
1704.641880276517
 11
998.87405590314222
 21
1704.641880276517
  0
LINE
  8
_0-3_躯体と製品
  6
CONTINUOUS
 62
    4
 10
1028.3740559031421
 20
1704.641880276517
 11
1028.3740559031421
 21
1706.2418802765169
  0
LINE
  8
_0-3_躯体と製品
  6
CONTINUOUS
 62
    4
 10
1008.3740559031422
 20
1706.2418802765169
 11
1008.3740559031422
 21
1704.641880276517
  0
LINE
  8
_0-3_躯体と製品
  6
CONTINUOUS
 62
    4
 10
1037.8740559031423
 20
1753.0418802765171
 11
998.87405590314222
 21
1753.0418802765171
  0
ARC
  8
_0-3_躯体と製品
  6
CONTINUOUS
 62
    4
 10
998.87405590314222
 20
1749.141880276517
 40
3.9000000000000337
 50
90.00000000000081
 51
180.00000000000082
  0
LINE
  8
_0-3_躯体と製品
  6
CONTINUOUS
 62
    4
 10
1037.8740559031423
 20
1706.2418802765169
 11
1028.3740559031421
 21
1706.2418802765169
  0
LINE
  8
_0-3_躯体と製品
  6
CONTINUOUS
 62
    4
 10
1041.7740559031417
 20
1749.141880276517
 11
1041.7740559031417
 21
1710.141880276517
  0
LINE
  8
_0-3_躯体と製品
  6
CONTINUOUS
 62
    4
 10
1048.374055903143
 20
1761.6293606839931
 11
1048.3740559031421
 21
1774.641880276517
  0
LINE
  8
_0-3_躯体と製品
  6
CONTINUOUS
 62
    4
 10
988.37405590314233
 20
1761.6293606839931
 11
988.37405590314233
 21
1774.641880276517
  0
LINE
  8
_0-3_躯体と製品
  6
CONTINUOUS
 62
    4
 10
988.37405590314233
 20
1753.6543998690408
 11
988.37405590314233
 21
1691.9418802765167
  0
ARC
  8
_0-3_躯体と製品
  6
CONTINUOUS
 62
    4
 10
990.6740559031424
 20
1691.9418802765169
 40
2.3000000000001135
 50
180.00000000000395
 51
270.00000000000171
  0
LINE
  8
_0-3_躯体と製品
  6
CONTINUOUS
 62
    4
 10
990.67405590314252
 20
1689.641880276517
 11
1046.0740559031422
 21
1689.641880276517
  0
ARC
  8
_0-3_躯体と製品
  6
CONTINUOUS
 62
    4
 10
1046.0740559031422
 20
1691.9418802765169
 40
2.3000000000000567
 50
269.99999999999972
 51
359.99999999999744
  0
LINE
  8
_0-3_躯体と製品
  6
CONTINUOUS
 62
    4
 10
1048.3740559031421
 20
1691.9418802765167
 11
1048.374055903143
 21
1753.6543998690408
  0
LINE
  8
_0-3_躯体と製品
  6
CONTINUOUS
 62
    4
 10
986.07405590314204
 20
1754.641880276517
 11
986.07405590314204
 21
1691.9418802765167
  0
ARC
  8
_0-3_躯体と製品
  6
CONTINUOUS
 62
    4
 10
990.67405590314229
 20
1691.9418802765172
 40
4.6000000000002386
 50
180.00000000000409
 51
269.99999999999733
  0
LINE
  8
_0-3_躯体と製品
  6
CONTINUOUS
 62
    4
 10
990.67405590314206
 20
1687.3418802765168
 11
1046.0740559031422
 21
1687.3418802765168
  0
ARC
  8
_0-3_躯体と製品
  6
CONTINUOUS
 62
    4
 10
1046.0740559031419
 20
1691.9418802765172
 40
4.6000000000001835
 50
270.00000000000341
 51
359.99999999999659
  0
LINE
  8
_0-3_躯体と製品
  6
CONTINUOUS
 62
    4
 10
1050.6740559031421
 20
1691.9418802765167
 11
1050.6740559031425
 21
1754.641880276517
  0
LINE
  8
_0-3_躯体と製品
  6
CONTINUOUS
 62
    3
 10
1043.3740559031421
 20
1759.641880276517
 11
1038.3740559031423
 21
1759.641880276517
  0
LINE
  8
_0-3_躯体と製品
  6
CONTINUOUS
 62
    3
 10
993.37405590314222
 20
1759.641880276517
 11
998.37405590314222
 21
1759.641880276517
  0
LINE
  8
_0-3_躯体と製品
  6
CONTINUOUS
 62
    4
 10
1026.3740559031421
 20
1655.8418802765168
 11
1026.3740559031421
 21
1487.6418809601937
  0
LINE
  8
_0-3_躯体と製品
  6
CONTINUOUS
 62
    4
 10
1010.3740559031422
 20
1655.8418802765168
 11
1010.3740559031422
 21
1487.6418809601937
  0
LINE
  8
_0-3_躯体と製品
  6
CONTINUOUS
 62
    3
 10
1024.8740559031421
 20
1655.8418802765168
 11
1024.8740559031421
 21
1487.6418809601937
  0
LINE
  8
_0-3_躯体と製品
  6
CONTINUOUS
 62
    3
 10
1011.8740559031422
 20
1655.8418802765168
 11
1011.8740559031422
 21
1487.6418809601937
  0
LINE
  8
_0-3_躯体と製品
  6
CONTINUOUS
 62
    4
 10
998.37405590314222
 20
1761.641880276517
 11
1038.3740559031423
 21
1761.641880276517
  0
LINE
  8
_0-3_躯体と製品
  6
CONTINUOUS
 62
    3
 10
1043.0740559031419
 20
1762.6414832765167
 11
1043.0740559031419
 21
1768.6422772765168
  0
LINE
  8
_0-3_躯体と製品
  6
CONTINUOUS
 62
    3
 10
1043.0740559031419
 20
1762.641880276517
 11
1042.5739899031425
 21
1763.141946276517
  0
LINE
  8
_0-3_躯体と製品
  6
CONTINUOUS
 62
    3
 10
1043.0740559031419
 20
1768.641880276517
 11
1042.5739899031425
 21
1768.1418142765169
  0
LINE
  8
_0-3_躯体と製品
  6
CONTINUOUS
 62
    4
 10
1038.3740559031423
 20
1761.641880276517
 11
1038.3740559031423
 21
1754.641880276517
  0
LINE
  8
_0-3_躯体と製品
  6
CONTINUOUS
 62
    4
 10
1043.3740559031421
 20
1756.641880276517
 11
1038.3740559031423
 21
1756.641880276517
  0
LINE
  8
_0-3_躯体と製品
  6
CONTINUOUS
 62
    3
 10
984.57405693842452
 20
1768.1416823190757
 11
984.57405493842475
 21
1696.1420782765167
  0
ARC
  8
_0-3_躯体と製品
  6
CONTINUOUS
 62
    3
 10
986.07425493842459
 20
1768.1416822765173
 40
1.5001980000000921
 50
90.00760158439023
 51
180.0000000000087
  0
ARC
  8
_0-3_躯体と製品
  6
CONTINUOUS
 62
    3
 10
986.07425493842447
 20
1696.1420782765167
 40
1.5001979999999542
 50
179.99999999999474
 51
269.99239841561501
  0
LINE
  8
_0-3_躯体と製品
  6
CONTINUOUS
 62
    3
 10
982.07405590314261
 20
1767.8914822765169
 11
982.07405590314306
 21
1763.3922782761888
  0
ARC
  8
_0-3_躯体と製品
  6
CONTINUOUS
 62
    3
 10
985.0744539031424
 20
1767.8914822765171
 40
3.000397999999791
 50
90.000000000002188
 51
180.00000000000219
  0
LINE
  8
_0-3_躯体と製品
  6
CONTINUOUS
 62
    3
 10
986.07405590314204
 20
1770.891880276517
 11
985.07445390314228
 21
1770.891880276517
  0
LINE
  8
_0-3_躯体と製品
  6
CONTINUOUS
 62
    4
 10
988.37405590314233
 20
1774.641880276517
 11
986.07405590314204
 21
1774.641880276517
  0
LINE
  8
_0-3_躯体と製品
  6
CONTINUOUS
 62
    4
 10
998.37405590314222
 20
1761.641880276517
 11
998.37405590314222
 21
1754.641880276517
  0
LINE
  8
_0-3_躯体と製品
  6
CONTINUOUS
 62
    4
 10
989.35773277928342
 20
1760.087472276517
 11
993.37405590314222
 21
1760.087472276517
  0
LINE
  8
_0-3_躯体と製品
  6
CONTINUOUS
 62
    4
 10
986.07405590314261
 20
1760.641880276517
 11
986.07405590314204
 21
1774.641880276517
  0
ARC
  8
_0-3_躯体と製品
  6
CONTINUOUS
 62
    4
 10
993.8742538898108
 20
1687.342080276517
 40
1.5001980000000681
 50
180.0076384290208
 51
269.9999999999946
  0
LINE
  8
_0-3_躯体と製品
  6
CONTINUOUS
 62
    4
 10
993.37405590314222
 20
1756.641880276517
 11
998.37405590314222
 21
1756.641880276517
  0
LINE
  8
_0-3_躯体と製品
  6
CONTINUOUS
 62
    3
 10
1048.3740559031421
 20
1768.1418142765169
 11
988.37405590314233
 21
1768.1418142765169
  0
LINE
  8
_0-3_躯体と製品
  6
CONTINUOUS
 62
    3
 10
1057.2009159031422
 20
1768.1418142765169
 11
1066.0740559031419
 21
1768.1418142765169
  0
LINE
  8
_0-3_躯体と製品
  6
CONTINUOUS
 62
    3
 10
1048.3740559031421
 20
1763.1415492765168
 11
988.37405590314233
 21
1763.1415492765168
  0
LINE
  8
_0-3_躯体と製品
  6
CONTINUOUS
 62
    3
 10
1057.2009159031422
 20
1763.141946276517
 11
1066.0740559031419
 21
1763.141946276517
  0
LINE
  8
_0-3_躯体と製品
  6
CONTINUOUS
 62
    4
 10
993.87425388981069
 20
1685.8418802765168
 11
1042.873857916474
 21
1685.8418802765168
  0
LINE
  8
_0-3_躯体と製品
  6
CONTINUOUS
 62
    3
 10
1048.3740559031421
 20
1768.641880276517
 11
1043.0740559031419
 21
1768.641880276517
  0
LINE
  8
_0-3_躯体と製品
  6
CONTINUOUS
 62
    3
 10
1057.2009159031422
 20
1768.641880276517
 11
1066.0740559031419
 21
1768.641880276517
  0
LINE
  8
_0-3_躯体と製品
  6
CONTINUOUS
 62
    3
 10
1048.3740559031421
 20
1762.641880276517
 11
1043.0740559031419
 21
1762.641880276517
  0
LINE
  8
_0-3_躯体と製品
  6
CONTINUOUS
 62
    3
 10
1066.0740559031419
 20
1762.641880276517
 11
1057.2009159031422
 21
1762.641880276517
  0
LINE
  8
_0-3_躯体と製品
  6
CONTINUOUS
 62
    4
 10
1047.3728708047502
 20
1760.0474662765168
 11
1043.3740559031421
 21
1760.0474662765168
  0
LINE
  8
_0-3_躯体と製品
  6
CONTINUOUS
 62
    3
 10
1052.1740559031425
 20
1696.1420782765167
 11
1052.1740559031425
 21
1771.438974276517
  0
ARC
  8
_0-3_躯体と製品
  6
CONTINUOUS
 62
    3
 10
1050.6738579031426
 20
1696.1420782765167
 40
1.5001979999998412
 50
270.00000000000432
 51
0.0000000000043637
  0
ARC
  8
_0-3_躯体と製品
  6
CONTINUOUS
 62
    3
 10
1050.6738579031426
 20
1768.141682276517
 40
1.5001979999998412
 50
359.99999999999568
 51
89.99999999999568
  0
LINE
  8
_0-3_躯体と製品
  6
CONTINUOUS
 62
    3
 10
1066.0740559031419
 20
1768.641880276517
 11
1066.0740559031419
 21
1762.641880276517
  0
LINE
  8
_0-3_躯体と製品
  6
CONTINUOUS
 62
    3
 10
1052.1740559031425
 20
1769.7137462765168
 11
1052.1740559031425
 21
1760.9625882765167
  0
LINE
  8
_0-3_躯体と製品
  6
CONTINUOUS
 62
    3
 10
1052.1740559031425
 20
1761.266301276517
 11
1052.1740559031425
 21
1766.945395276517
  0
LINE
  8
_0-3_躯体と製品
  6
CONTINUOUS
 62
    3
 10
1052.1740559031425
 20
1761.266301276517
 11
1052.7741359031425
 21
1760.6412172765167
  0
LINE
  8
_0-3_躯体と製品
  6
CONTINUOUS
 62
    3
 10
1052.1740559031425
 20
1770.017459276517
 11
1052.7741359031425
 21
1770.642541276517
  0
ARC
  8
_0-3_躯体と製品
  6
CONTINUOUS
 62
    3
 10
1053.7763519031432
 20
1761.891383276517
 40
1.6022960000006663
 50
128.7179880000044
 51
180.00000000000938
  0
ARC
  8
_0-3_躯体と製品
  6
CONTINUOUS
 62
    3
 10
1057.6831199031424
 20
1765.6418792765173
 40
5.509061999999715
 50
153.00853300000176
 51
206.99146699999824
  0
ARC
  8
_0-3_躯体と製品
  6
CONTINUOUS
 62
    3
 10
1053.7763519031419
 20
1769.3923752765172
 40
1.6022959999994824
 50
180.000000000011
 51
231.28201200001595
  0
LINE
  8
_0-3_躯体と製品
  6
CONTINUOUS
 62
    3
 10
1057.1747179031427
 20
1770.017459276517
 11
1057.1747179031427
 21
1761.266301276517
  0
LINE
  8
_0-3_躯体と製品
  6
CONTINUOUS
 62
    3
 10
1057.1747179031427
 20
1761.266301276517
 11
1057.1747179031427
 21
1770.017459276517
  0
LINE
  8
_0-3_躯体と製品
  6
CONTINUOUS
 62
    3
 10
1056.5746399031427
 20
1760.6412172765167
 11
1052.7741359031425
 21
1760.6412172765167
  0
LINE
  8
_0-3_躯体と製品
  6
CONTINUOUS
 62
    3
 10
1056.5746399031427
 20
1763.1415492765168
 11
1052.7741359031425
 21
1763.1415492765168
  0
LINE
  8
_0-3_躯体と製品
  6
CONTINUOUS
 62
    3
 10
1056.5746399031427
 20
1768.1422112765167
 11
1052.7741359031425
 21
1768.1422112765167
  0
LINE
  8
_0-3_躯体と製品
  6
CONTINUOUS
 62
    3
 10
1056.5746399031427
 20
1770.642541276517
 11
1052.7741359031425
 21
1770.642541276517
  0
LINE
  8
_0-3_躯体と製品
  6
CONTINUOUS
 62
    3
 10
1057.1747179031427
 20
1761.266301276517
 11
1056.5746399031427
 21
1760.6412172765167
  0
LINE
  8
_0-3_躯体と製品
  6
CONTINUOUS
 62
    3
 10
1057.1747179031427
 20
1770.017459276517
 11
1056.5746399031427
 21
1770.642541276517
  0
ARC
  8
_0-3_躯体と製品
  6
CONTINUOUS
 62
    3
 10
1055.572423903142
 20
1761.8913832765172
 40
1.6022960000006095
 50
359.99999999998641
 51
51.282011999991411
  0
ARC
  8
_0-3_躯体と製品
  6
CONTINUOUS
 62
    3
 10
1051.6656559031428
 20
1765.6418792765173
 40
5.509061999999715
 50
333.00853300000176
 51
26.991466999998252
  0
ARC
  8
_0-3_躯体と製品
  6
CONTINUOUS
 62
    3
 10
1055.5724239031431
 20
1769.3923752765172
 40
1.602295999999426
 50
308.71798799998828
 51
359.99999999999324
  0
LINE
  8
_0-3_躯体と製品
  6
CONTINUOUS
 62
    3
 10
1052.1740559031425
 20
1771.7426872765168
 11
1050.6738579031428
 21
1771.7426872765168
  0
LINE
  8
_0-3_躯体と製品
  6
CONTINUOUS
 62
    4
 10
1048.3740559031421
 20
1774.641880276517
 11
1050.6740559031425
 21
1774.641880276517
  0
LINE
  8
_0-3_躯体と製品
  6
CONTINUOUS
 62
    4
 10
1050.6740559031425
 20
1760.641880276517
 11
1050.6740559031425
 21
1774.641880276517
  0
ARC
  8
_0-3_躯体と製品
  6
CONTINUOUS
 62
    4
 10
1042.873857916474
 20
1687.3420802765168
 40
1.5001979999999546
 50
270.00000000000102
 51
359.99236157098352
  0
LINE
  8
_0-3_躯体と製品
  6
CONTINUOUS
 62
    4
 10
1007.98175106848
 20
1672.8418802765168
 11
1028.7663607593124
 21
1672.8418802765168
  0
LINE
  8
_0-3_躯体と製品
  6
CONTINUOUS
 62
    4
 10
1011.4458526836381
 20
1674.3418802765168
 11
1011.4458526836381
 21
1685.8418802765168
  0
LINE
  8
_0-3_躯体と製品
  6
CONTINUOUS
 62
    4
 10
1025.3022591441834
 20
1657.3418802765168
 11
1025.3022591441834
 21
1668.8418802765168
  0
LINE
  8
_0-3_躯体と製品
  6
CONTINUOUS
 62
    4
 10
1025.3022591441834
 20
1674.3418802765168
 11
1025.3022591441834
 21
1685.8418802765168
  0
LINE
  8
_0-3_躯体と製品
  6
CONTINUOUS
 62
    4
 10
1011.4458526836381
 20
1657.3418802765168
 11
1011.4458526836381
 21
1668.8418802765168
  0
ARC
  8
_0-3_躯体と製品
  6
CONTINUOUS
 62
    4
 10
1007.9817510684945
 20
1677.5918802765229
 40
4.750000000008459
 50
223.17355110726379
 51
316.82644889273621
  0
ARC
  8
_0-3_躯体と製品
  6
CONTINUOUS
 62
    4
 10
1018.3740559139108
 20
1689.5918799560768
 40
16.74999970825489
 50
245.56730186717647
 51
294.43269813282353
  0
ARC
  8
_0-3_躯体と製品
  6
CONTINUOUS
 62
    4
 10
1028.7663607593124
 20
1677.5918802765098
 40
4.7499999999887379
 50
223.17355110726777
 51
316.82644889273217
  0
LINE
  8
_0-3_躯体と製品
  6
CONTINUOUS
 62
    4
 10
1032.2304623744415
 20
1674.3418802765168
 11
1032.2304623744415
 21
1685.8418802765168
  0
LINE
  8
_0-3_躯体と製品
  6
CONTINUOUS
 62
    4
 10
1032.2304623744415
 20
1685.8418802765168
 11
1004.5176494533508
 21
1685.8418802765168
  0
LINE
  8
_0-3_躯体と製品
  6
CONTINUOUS
 62
    4
 10
1004.5176494533508
 20
1685.8418802765168
 11
1004.5176494533508
 21
1674.3418802765168
  0
LINE
  8
_0-3_躯体と製品
  6
CONTINUOUS
 62
    4
 10
1004.3740559095596
 20
1668.8418802765168
 11
1032.374055946929
 21
1668.8418802765168
  0
LINE
  8
_0-3_躯体と製品
  6
CONTINUOUS
 62
    4
 10
1032.374055946929
 20
1668.8418802765168
 11
1032.374055946929
 21
1672.8418802765168
  0
LINE
  8
_0-3_躯体と製品
  6
CONTINUOUS
 62
    4
 10
1032.374055946929
 20
1672.8418802765168
 11
1004.3740559095596
 21
1672.8418802765168
  0
LINE
  8
_0-3_躯体と製品
  6
CONTINUOUS
 62
    4
 10
1004.3740559095596
 20
1672.8418802765168
 11
1004.3740559095596
 21
1668.8418802765168
  0
LINE
  8
_0-3_躯体と製品
  6
CONTINUOUS
 62
    4
 10
1007.98175106848
 20
1655.8418802765168
 11
1028.7663607593124
 21
1655.8418802765168
  0
LINE
  8
_0-3_躯体と製品
  6
CONTINUOUS
 62
    4
 10
1018.3740559282444
 20
1668.8418802765168
 11
1022.3740559282444
 21
1672.8418802765168
  0
ARC
  8
_0-3_躯体と製品
  6
CONTINUOUS
 62
    4
 10
1007.9817510684945
 20
1660.5918802765236
 40
4.750000000008936
 50
223.1735511072699
 51
316.82644889273007
  0
ARC
  8
_0-3_躯体と製品
  6
CONTINUOUS
 62
    4
 10
1018.3740559139108
 20
1672.5918802765123
 40
16.749999999994436
 50
245.56730232054764
 51
294.43269767945236
  0
ARC
  8
_0-3_躯体と製品
  6
CONTINUOUS
 62
    4
 10
1028.7663607593124
 20
1660.5918802765086
 40
4.749999999987951
 50
223.17355110725768
 51
316.82644889274235
  0
LINE
  8
_0-3_躯体と製品
  6
CONTINUOUS
 62
    4
 10
1032.2304623744415
 20
1657.3418802765168
 11
1032.2304623744415
 21
1668.8418802765168
  0
LINE
  8
_0-3_躯体と製品
  6
CONTINUOUS
 62
    4
 10
1032.2304623744415
 20
1668.8418802765168
 11
1004.5176494533508
 21
1668.8418802765168
  0
LINE
  8
_0-3_躯体と製品
  6
CONTINUOUS
 62
    4
 10
1004.5176494533508
 20
1668.8418802765168
 11
1004.5176494533508
 21
1657.3418802765168
  0
LINE
  8
_0-3_躯体と製品
  6
CONTINUOUS
 62
    4
 10
1014.3740558808634
 20
1668.8418802478209
 11
1018.3740558808634
 21
1672.8418802478209
  0
LINE
  8
_0-3_躯体と製品
  6
CONTINUOUS
 62
    4
 10
1026.3740559031421
 20
1454.4418802765049
 11
1026.3740559031421
 21
1388.1416802765175
  0
LINE
  8
_0-3_躯体と製品
  6
CONTINUOUS
 62
    4
 10
1010.3740559031422
 20
1454.4418802765049
 11
1010.3740559031422
 21
1388.1416802765175
  0
LINE
  8
_0-3_躯体と製品
  6
CONTINUOUS
 62
    3
 10
1024.8740559031421
 20
1454.4418802765049
 11
1024.8740559031421
 21
1386.6416802765175
  0
LINE
  8
_0-3_躯体と製品
  6
CONTINUOUS
 62
    3
 10
1011.8740559031422
 20
1454.4418802765049
 11
1011.8740559031422
 21
1386.6416802765175
  0
LINE
  8
_0-3_躯体と製品
  6
CONTINUOUS
 62
    4
 10
1024.8749159031422
 20
1386.6416802765175
 11
1011.8740559031422
 21
1386.6416802765175
  0
LINE
  8
_0-3_躯体と製品
  6
CONTINUOUS
 62
    3
 10
1026.3740559031421
 20
1388.1416802765175
 11
1010.3740559031422
 21
1388.1416802765175
  0
LINE
  8
_0-3_躯体と製品
  6
CONTINUOUS
 62
    4
 10
1010.3740559031422
 20
1388.1416802765175
 11
1011.8740559031422
 21
1386.6416802765175
  0
LINE
  8
_0-3_躯体と製品
  6
CONTINUOUS
 62
    4
 10
1026.3740559031421
 20
1388.1416802765175
 11
1024.8740559031421
 21
1386.6416802765175
  0
LINE
  8
_0-3_躯体と製品
  6
CONTINUOUS
 62
    4
 10
998.37405590314222
 20
1754.641880276517
 11
1038.3740559031423
 21
1754.641880276517
  0
ARC
  8
_0-3_躯体と製品
  6
CONTINUOUS
 62
    4
 10
983.82405590314204
 20
1757.641880276517
 40
3.7500000000001359
 50
306.86989764583751
 51
53.130102354161721
  0
ARC
  8
_0-3_躯体と製品
  6
CONTINUOUS
 62
    4
 10
983.82405590314204
 20
1757.641880276517
 40
6.0500000000001348
 50
318.76966956403879
 51
41.230330435956915
  0
ARC
  8
_0-3_躯体と製品
  6
CONTINUOUS
 62
    4
 10
1052.9240559031425
 20
1757.641880276517
 40
3.7500000000001359
 50
126.8698976458375
 51
233.13010235416249
  0
ARC
  8
_0-3_躯体と製品
  6
CONTINUOUS
 62
    4
 10
1052.9240559031425
 20
1757.641880276517
 40
6.0500000000001348
 50
138.7696695640374
 51
221.2303304359626
  0
ARC
  8
_0-3_躯体と製品
  6
CONTINUOUS
 62
    3
 10
985.07445390314251
 20
1763.3922782765167
 40
3.0003979999999153
 50
179.99999999999523
 51
260.39952424799924
  0
ARC
  8
_0-3_躯体と製品
  6
CONTINUOUS
 62
    4
 10
2072.1519883350047
 20
1710.141880276517
 40
5.5
 50
270
 51
0.0000000000000127
  0
ARC
  8
_0-3_躯体と製品
  6
CONTINUOUS
 62
    4
 10
2072.1519883350047
 20
1710.141880276517
 40
3.8999999999999768
 50
269.99999999999835
 51
359.99999999999835
  0
ARC
  8
_0-3_躯体と製品
  6
CONTINUOUS
 62
    4
 10
2033.1519883350043
 20
1710.1418802765174
 40
5.5000000000004539
 50
180.00000000000475
 51
270.00000000000477
  0
ARC
  8
_0-3_躯体と製品
  6
CONTINUOUS
 62
    4
 10
2033.1519883350043
 20
1710.1418802765174
 40
3.9000000000004316
 50
180.00000000000836
 51
270.00000000000836
  0
ARC
  8
_0-3_躯体と製品
  6
CONTINUOUS
 62
    4
 10
2072.1519883350047
 20
1749.141880276517
 40
5.5
 50
0.0000000000000052
 51
90.000000000000014
  0
ARC
  8
_0-3_躯体と製品
  6
CONTINUOUS
 62
    4
 10
2072.1519883350047
 20
1749.141880276517
 40
3.9000000000000905
 50
0.0000000000000052
 51
90.000000000000014
  0
LINE
  8
_0-3_躯体と製品
  6
CONTINUOUS
 62
    4
 10
2033.1519883350047
 20
1706.2418802765169
 11
2042.6519883350047
 21
1706.2418802765169
  0
LINE
  8
_0-3_躯体と製品
  6
CONTINUOUS
 62
    4
 10
2029.2519883350037
 20
1710.141880276517
 11
2029.2519883350037
 21
1749.141880276517
  0
LINE
  8
_0-3_躯体と製品
  6
CONTINUOUS
 62
    4
 10
2077.6519883350047
 20
1760.0474662765168
 11
2077.6519883350047
 21
1710.141880276517
  0
LINE
  8
_0-3_躯体と製品
  6
CONTINUOUS
 62
    4
 10
2072.1519883350047
 20
1754.641880276517
 11
2033.1519883350047
 21
1754.641880276517
  0
ARC
  8
_0-3_躯体と製品
  6
CONTINUOUS
 62
    4
 10
2033.1519883350043
 20
1749.1418802765165
 40
5.5000000000004539
 50
89.999999999995268
 51
179.99999999999525
  0
LINE
  8
_0-3_躯体と製品
  6
CONTINUOUS
 62
    4
 10
2027.6519883350038
 20
1760.087472276517
 11
2027.6519883350038
 21
1710.141880276517
  0
LINE
  8
_0-3_躯体と製品
  6
CONTINUOUS
 62
    4
 10
2072.1519883350047
 20
1704.641880276517
 11
2033.1519883350047
 21
1704.641880276517
  0
LINE
  8
_0-3_躯体と製品
  6
CONTINUOUS
 62
    4
 10
2062.6519883350047
 20
1704.641880276517
 11
2062.6519883350047
 21
1706.2418802765169
  0
LINE
  8
_0-3_躯体と製品
  6
CONTINUOUS
 62
    4
 10
2042.6519883350047
 20
1706.2418802765169
 11
2042.6519883350047
 21
1704.641880276517
  0
LINE
  8
_0-3_躯体と製品
  6
CONTINUOUS
 62
    4
 10
2072.1519883350047
 20
1753.0418802765171
 11
2033.1519883350047
 21
1753.0418802765171
  0
ARC
  8
_0-3_躯体と製品
  6
CONTINUOUS
 62
    4
 10
2033.1519883350043
 20
1749.1418802765165
 40
3.9000000000005453
 50
89.999999999993335
 51
179.99999999999332
  0
LINE
  8
_0-3_躯体と製品
  6
CONTINUOUS
 62
    4
 10
2072.1519883350047
 20
1706.2418802765169
 11
2062.6519883350047
 21
1706.2418802765169
  0
LINE
  8
_0-3_躯体と製品
  6
CONTINUOUS
 62
    4
 10
2076.0519883350034
 20
1749.141880276517
 11
2076.0519883350034
 21
1710.141880276517
  0
LINE
  8
_0-3_躯体と製品
  6
CONTINUOUS
 62
    4
 10
2082.6519883350047
 20
1761.6293606839931
 11
2082.6519883350047
 21
1774.641880276517
  0
LINE
  8
_0-3_躯体と製品
  6
CONTINUOUS
 62
    4
 10
2022.6519883350038
 20
1761.6293606839931
 11
2022.6519883350038
 21
1774.641880276517
  0
LINE
  8
_0-3_躯体と製品
  6
CONTINUOUS
 62
    4
 10
2022.6519883350038
 20
1753.6543998690408
 11
2022.6519883350038
 21
1691.9418802765167
  0
ARC
  8
_0-3_躯体と製品
  6
CONTINUOUS
 62
    4
 10
2024.9519883350042
 20
1691.9418802765174
 40
2.3000000000004546
 50
180.00000000001245
 51
270.00000000001017
  0
LINE
  8
_0-3_躯体と製品
  6
CONTINUOUS
 62
    4
 10
2024.9519883350047
 20
1689.641880276517
 11
2080.3519883350036
 21
1689.641880276517
  0
ARC
  8
_0-3_躯体と製品
  6
CONTINUOUS
 62
    4
 10
2080.3519883350041
 20
1691.9418802765174
 40
2.3000000000004546
 50
269.99999999998977
 51
359.99999999998755
  0
LINE
  8
_0-3_躯体と製品
  6
CONTINUOUS
 62
    4
 10
2082.6519883350047
 20
1691.9418802765167
 11
2082.6519883350047
 21
1753.6543998690408
  0
LINE
  8
_0-3_躯体と製品
  6
CONTINUOUS
 62
    4
 10
2020.3519883350048
 20
1754.641880276517
 11
2020.3519883350048
 21
1691.9418802765167
  0
ARC
  8
_0-3_躯体と製品
  6
CONTINUOUS
 62
    4
 10
2024.9519883350044
 20
1691.9418802765167
 40
4.599999999999727
 50
179.9999999999977
 51
269.99999999999096
  0
LINE
  8
_0-3_躯体と製品
  6
CONTINUOUS
 62
    4
 10
2024.9519883350038
 20
1687.3418802765168
 11
2080.3519883350036
 21
1687.3418802765168
  0
ARC
  8
_0-3_躯体と製品
  6
CONTINUOUS
 62
    4
 10
2080.3519883350036
 20
1691.9418802765172
 40
4.6000000000001835
 50
270.00000000000341
 51
359.99999999999659
  0
LINE
  8
_0-3_躯体と製品
  6
CONTINUOUS
 62
    4
 10
2084.951988335004
 20
1691.9418802765167
 11
2084.9519883350049
 21
1754.641880276517
  0
LINE
  8
_0-3_躯体と製品
  6
CONTINUOUS
 62
    3
 10
2077.6519883350047
 20
1759.641880276517
 11
2072.6519883350038
 21
1759.641880276517
  0
LINE
  8
_0-3_躯体と製品
  6
CONTINUOUS
 62
    3
 10
2027.6519883350038
 20
1759.641880276517
 11
2032.6519883350047
 21
1759.641880276517
  0
LINE
  8
_0-3_躯体と製品
  6
CONTINUOUS
 62
    4
 10
2060.6519883350047
 20
1655.8418802765168
 11
2060.6519883350047
 21
1487.6418809601937
  0
LINE
  8
_0-3_躯体と製品
  6
CONTINUOUS
 62
    4
 10
2044.6519883350047
 20
1655.8418802765168
 11
2044.6519883350047
 21
1487.6418809601937
  0
LINE
  8
_0-3_躯体と製品
  6
CONTINUOUS
 62
    3
 10
2059.1519883350047
 20
1655.8418802765168
 11
2059.1519883350047
 21
1487.6418809601937
  0
LINE
  8
_0-3_躯体と製品
  6
CONTINUOUS
 62
    3
 10
2046.1519883350047
 20
1655.8418802765168
 11
2046.1519883350047
 21
1487.6418809601937
  0
LINE
  8
_0-3_躯体と製品
  6
CONTINUOUS
 62
    4
 10
2032.6519883350047
 20
1761.641880276517
 11
2072.6519883350038
 21
1761.641880276517
  0
LINE
  8
_0-3_躯体と製品
  6
CONTINUOUS
 62
    3
 10
2077.3519883350045
 20
1762.6414832765167
 11
2077.3519883350045
 21
1768.6422772765168
  0
LINE
  8
_0-3_躯体と製品
  6
CONTINUOUS
 62
    3
 10
2077.3519883350045
 20
1762.641880276517
 11
2076.8519223350049
 21
1763.141946276517
  0
LINE
  8
_0-3_躯体と製品
  6
CONTINUOUS
 62
    3
 10
2077.3519883350045
 20
1768.641880276517
 11
2076.8519223350049
 21
1768.1418142765169
  0
LINE
  8
_0-3_躯体と製品
  6
CONTINUOUS
 62
    4
 10
2072.6519883350038
 20
1761.641880276517
 11
2072.6519883350038
 21
1754.641880276517
  0
LINE
  8
_0-3_躯体と製品
  6
CONTINUOUS
 62
    4
 10
2077.6519883350047
 20
1756.641880276517
 11
2072.6519883350038
 21
1756.641880276517
  0
LINE
  8
_0-3_躯体と製品
  6
CONTINUOUS
 62
    3
 10
2018.8519893702867
 20
1768.1416823190757
 11
2018.8519873702867
 21
1696.1420782765167
  0
ARC
  8
_0-3_躯体と製品
  6
CONTINUOUS
 62
    3
 10
2020.3521873702871
 20
1768.1416822765168
 40
1.5001980000003758
 50
90.007601584379344
 51
179.99999999999781
  0
ARC
  8
_0-3_躯体と製品
  6
CONTINUOUS
 62
    3
 10
2020.3521873702869
 20
1696.1420782765169
 40
1.5001980000002384
 50
180.0000000000056
 51
269.99239841562587
  0
LINE
  8
_0-3_躯体と製品
  6
CONTINUOUS
 62
    3
 10
2016.3519883350048
 20
1767.8914822765169
 11
2016.3519883350048
 21
1763.3922782761888
  0
ARC
  8
_0-3_躯体と製品
  6
CONTINUOUS
 62
    3
 10
2019.3523863350047
 20
1767.8914822765169
 40
3.0003979999999038
 50
90
 51
180
  0
LINE
  8
_0-3_躯体と製品
  6
CONTINUOUS
 62
    3
 10
2020.3519883350048
 20
1770.891880276517
 11
2019.3523863350047
 21
1770.891880276517
  0
LINE
  8
_0-3_躯体と製品
  6
CONTINUOUS
 62
    4
 10
2022.6519883350038
 20
1774.641880276517
 11
2020.3519883350048
 21
1774.641880276517
  0
LINE
  8
_0-3_躯体と製品
  6
CONTINUOUS
 62
    4
 10
2032.6519883350047
 20
1761.641880276517
 11
2032.6519883350047
 21
1754.641880276517
  0
LINE
  8
_0-3_躯体と製品
  6
CONTINUOUS
 62
    4
 10
2023.6356652111458
 20
1760.087472276517
 11
2027.6519883350038
 21
1760.087472276517
  0
LINE
  8
_0-3_躯体と製品
  6
CONTINUOUS
 62
    4
 10
2020.3519883350048
 20
1760.641880276517
 11
2020.3519883350048
 21
1774.641880276517
  0
ARC
  8
_0-3_躯体と製品
  6
CONTINUOUS
 62
    4
 10
2028.1521863216731
 20
1687.3420802765168
 40
1.5001979999999544
 50
180.00763842901648
 51
269.99999999999028
  0
LINE
  8
_0-3_躯体と製品
  6
CONTINUOUS
 62
    4
 10
2027.6519883350038
 20
1756.641880276517
 11
2032.6519883350047
 21
1756.641880276517
  0
LINE
  8
_0-3_躯体と製品
  6
CONTINUOUS
 62
    3
 10
2082.6519883350047
 20
1768.1418142765169
 11
2022.6519883350038
 21
1768.1418142765169
  0
LINE
  8
_0-3_躯体と製品
  6
CONTINUOUS
 62
    3
 10
2091.4788483350048
 20
1768.1418142765169
 11
2100.3519883350045
 21
1768.1418142765169
  0
LINE
  8
_0-3_躯体と製品
  6
CONTINUOUS
 62
    3
 10
2082.6519883350047
 20
1763.1415492765168
 11
2022.6519883350038
 21
1763.1415492765168
  0
LINE
  8
_0-3_躯体と製品
  6
CONTINUOUS
 62
    3
 10
2091.4788483350048
 20
1763.141946276517
 11
2100.3519883350045
 21
1763.141946276517
  0
LINE
  8
_0-3_躯体と製品
  6
CONTINUOUS
 62
    4
 10
2028.1521863216728
 20
1685.8418802765168
 11
2077.1517903483355
 21
1685.8418802765168
  0
LINE
  8
_0-3_躯体と製品
  6
CONTINUOUS
 62
    3
 10
2082.6519883350047
 20
1768.641880276517
 11
2077.3519883350045
 21
1768.641880276517
  0
LINE
  8
_0-3_躯体と製品
  6
CONTINUOUS
 62
    3
 10
2091.4788483350048
 20
1768.641880276517
 11
2100.3519883350045
 21
1768.641880276517
  0
LINE
  8
_0-3_躯体と製品
  6
CONTINUOUS
 62
    3
 10
2082.6519883350047
 20
1762.641880276517
 11
2077.3519883350045
 21
1762.641880276517
  0
LINE
  8
_0-3_躯体と製品
  6
CONTINUOUS
 62
    3
 10
2100.3519883350045
 20
1762.641880276517
 11
2091.4788483350048
 21
1762.641880276517
  0
LINE
  8
_0-3_躯体と製品
  6
CONTINUOUS
 62
    4
 10
2081.6508032366128
 20
1760.0474662765168
 11
2077.6519883350047
 21
1760.0474662765168
  0
LINE
  8
_0-3_躯体と製品
  6
CONTINUOUS
 62
    3
 10
2086.4519883350049
 20
1696.1420782765167
 11
2086.4519883350049
 21
1771.438974276517
  0
ARC
  8
_0-3_躯体と製品
  6
CONTINUOUS
 62
    3
 10
2084.9517903350047
 20
1696.1420782765167
 40
1.5001979999999546
 50
270
 51
0.0000000000000127
  0
ARC
  8
_0-3_躯体と製品
  6
CONTINUOUS
 62
    3
 10
2084.9517903350047
 20
1768.1416822765168
 40
1.5001979999999546
 50
0.0000000000000052
 51
90.000000000000014
  0
LINE
  8
_0-3_躯体と製品
  6
CONTINUOUS
 62
    3
 10
2100.3519883350045
 20
1768.641880276517
 11
2100.3519883350045
 21
1762.641880276517
  0
LINE
  8
_0-3_躯体と製品
  6
CONTINUOUS
 62
    3
 10
2086.4519883350049
 20
1769.7137462765168
 11
2086.4519883350049
 21
1760.9625882765167
  0
LINE
  8
_0-3_躯体と製品
  6
CONTINUOUS
 62
    3
 10
2086.4519883350049
 20
1761.266301276517
 11
2086.4519883350049
 21
1766.945395276517
  0
LINE
  8
_0-3_躯体と製品
  6
CONTINUOUS
 62
    3
 10
2086.4519883350049
 20
1761.266301276517
 11
2087.0520683350051
 21
1760.6412172765167
  0
LINE
  8
_0-3_躯体と製品
  6
CONTINUOUS
 62
    3
 10
2086.4519883350049
 20
1770.017459276517
 11
2087.0520683350051
 21
1770.642541276517
  0
ARC
  8
_0-3_躯体と製品
  6
CONTINUOUS
 62
    3
 10
2088.0542843350054
 20
1761.8913832765172
 40
1.6022960000006095
 50
128.71798800000863
 51
180.00000000001361
  0
ARC
  8
_0-3_躯体と製品
  6
CONTINUOUS
 62
    3
 10
2091.9610523350043
 20
1765.6418792765173
 40
5.509061999999715
 50
153.00853300000176
 51
206.99146699999824
  0
ARC
  8
_0-3_躯体と製品
  6
CONTINUOUS
 62
    3
 10
2088.054284335004
 20
1769.3923752765172
 40
1.602295999999426
 50
180.00000000000674
 51
231.28201200001172
  0
LINE
  8
_0-3_躯体と製品
  6
CONTINUOUS
 62
    3
 10
2091.4526503350048
 20
1770.017459276517
 11
2091.4526503350048
 21
1761.266301276517
  0
LINE
  8
_0-3_躯体と製品
  6
CONTINUOUS
 62
    3
 10
2091.4526503350048
 20
1761.266301276517
 11
2091.4526503350048
 21
1770.017459276517
  0
LINE
  8
_0-3_躯体と製品
  6
CONTINUOUS
 62
    3
 10
2090.8525723350049
 20
1760.6412172765167
 11
2087.0520683350051
 21
1760.6412172765167
  0
LINE
  8
_0-3_躯体と製品
  6
CONTINUOUS
 62
    3
 10
2090.8525723350049
 20
1763.1415492765168
 11
2087.0520683350051
 21
1763.1415492765168
  0
LINE
  8
_0-3_躯体と製品
  6
CONTINUOUS
 62
    3
 10
2090.8525723350049
 20
1768.1422112765167
 11
2087.0520683350051
 21
1768.1422112765167
  0
LINE
  8
_0-3_躯体と製品
  6
CONTINUOUS
 62
    3
 10
2090.8525723350049
 20
1770.642541276517
 11
2087.0520683350051
 21
1770.642541276517
  0
LINE
  8
_0-3_躯体と製品
  6
CONTINUOUS
 62
    3
 10
2091.4526503350048
 20
1761.266301276517
 11
2090.8525723350049
 21
1760.6412172765167
  0
LINE
  8
_0-3_躯体と製品
  6
CONTINUOUS
 62
    3
 10
2091.4526503350048
 20
1770.017459276517
 11
2090.8525723350049
 21
1770.642541276517
  0
ARC
  8
_0-3_躯体と製品
  6
CONTINUOUS
 62
    3
 10
2089.8503563350041
 20
1761.8913832765172
 40
1.6022960000006095
 50
359.99999999998641
 51
51.282011999991411
  0
ARC
  8
_0-3_躯体と製品
  6
CONTINUOUS
 62
    3
 10
2085.9435883350052
 20
1765.6418792765173
 40
5.509061999999715
 50
333.00853300000176
 51
26.991466999998252
  0
ARC
  8
_0-3_躯体と製品
  6
CONTINUOUS
 62
    3
 10
2089.8503563350055
 20
1769.3923752765172
 40
1.602295999999426
 50
308.71798799998828
 51
359.99999999999324
  0
LINE
  8
_0-3_躯体と製品
  6
CONTINUOUS
 62
    3
 10
2086.4519883350049
 20
1771.7426872765168
 11
2084.9517903350047
 21
1771.7426872765168
  0
LINE
  8
_0-3_躯体と製品
  6
CONTINUOUS
 62
    4
 10
2082.6519883350047
 20
1774.641880276517
 11
2084.9519883350049
 21
1774.641880276517
  0
LINE
  8
_0-3_躯体と製品
  6
CONTINUOUS
 62
    4
 10
2084.9519883350049
 20
1760.641880276517
 11
2084.9519883350049
 21
1774.641880276517
  0
ARC
  8
_0-3_躯体と製品
  6
CONTINUOUS
 62
    4
 10
2077.1517903483359
 20
1687.3420802765172
 40
1.5001980000002955
 50
269.99999999998801
 51
359.9923615709705
  0
LINE
  8
_0-3_躯体と製品
  6
CONTINUOUS
 62
    4
 10
2042.2596835003417
 20
1672.8418802765168
 11
2063.0442931911748
 21
1672.8418802765168
  0
LINE
  8
_0-3_躯体と製品
  6
CONTINUOUS
 62
    4
 10
2045.7237851154998
 20
1674.3418802765168
 11
2045.7237851154998
 21
1685.8418802765168
  0
LINE
  8
_0-3_躯体と製品
  6
CONTINUOUS
 62
    4
 10
2059.5801915760458
 20
1657.3418802765168
 11
2059.5801915760458
 21
1668.8418802765168
  0
LINE
  8
_0-3_躯体と製品
  6
CONTINUOUS
 62
    4
 10
2059.5801915760458
 20
1674.3418802765168
 11
2059.5801915760458
 21
1685.8418802765168
  0
LINE
  8
_0-3_躯体と製品
  6
CONTINUOUS
 62
    4
 10
2045.7237851154998
 20
1657.3418802765168
 11
2045.7237851154998
 21
1668.8418802765168
  0
ARC
  8
_0-3_躯体と製品
  6
CONTINUOUS
 62
    4
 10
2042.2596835003565
 20
1677.5918802765227
 40
4.7500000000082245
 50
223.17355110726379
 51
316.82644889273621
  0
ARC
  8
_0-3_躯体と製品
  6
CONTINUOUS
 62
    4
 10
2052.6519883457727
 20
1689.5918799560777
 40
16.749999708255714
 50
245.56730186717647
 51
294.43269813282353
  0
ARC
  8
_0-3_躯体と製品
  6
CONTINUOUS
 62
    4
 10
2063.0442931911748
 20
1677.5918802765098
 40
4.7499999999887379
 50
223.17355110726777
 51
316.82644889273217
  0
LINE
  8
_0-3_躯体と製品
  6
CONTINUOUS
 62
    4
 10
2066.5083948063038
 20
1674.3418802765168
 11
2066.5083948063038
 21
1685.8418802765168
  0
LINE
  8
_0-3_躯体と製品
  6
CONTINUOUS
 62
    4
 10
2066.5083948063038
 20
1685.8418802765168
 11
2038.7955818852129
 21
1685.8418802765168
  0
LINE
  8
_0-3_躯体と製品
  6
CONTINUOUS
 62
    4
 10
2038.7955818852129
 20
1685.8418802765168
 11
2038.7955818852129
 21
1674.3418802765168
  0
LINE
  8
_0-3_躯体と製品
  6
CONTINUOUS
 62
    4
 10
2038.6519883414217
 20
1668.8418802765168
 11
2066.6519883787905
 21
1668.8418802765168
  0
LINE
  8
_0-3_躯体と製品
  6
CONTINUOUS
 62
    4
 10
2066.6519883787905
 20
1668.8418802765168
 11
2066.6519883787905
 21
1672.8418802765168
  0
LINE
  8
_0-3_躯体と製品
  6
CONTINUOUS
 62
    4
 10
2066.6519883787905
 20
1672.8418802765168
 11
2038.6519883414217
 21
1672.8418802765168
  0
LINE
  8
_0-3_躯体と製品
  6
CONTINUOUS
 62
    4
 10
2038.6519883414217
 20
1672.8418802765168
 11
2038.6519883414217
 21
1668.8418802765168
  0
LINE
  8
_0-3_躯体と製品
  6
CONTINUOUS
 62
    4
 10
2042.2596835003417
 20
1655.8418802765168
 11
2063.0442931911748
 21
1655.8418802765168
  0
LINE
  8
_0-3_躯体と製品
  6
CONTINUOUS
 62
    4
 10
2052.6519883601059
 20
1668.8418802765168
 11
2056.6519883601068
 21
1672.8418802765168
  0
ARC
  8
_0-3_躯体と製品
  6
CONTINUOUS
 62
    4
 10
2042.2596835003565
 20
1660.5918802765236
 40
4.7500000000087024
 50
223.1735511072699
 51
316.82644889273007
  0
ARC
  8
_0-3_躯体と製品
  6
CONTINUOUS
 62
    4
 10
2052.6519883457727
 20
1672.5918802765129
 40
16.749999999995261
 50
245.56730232054764
 51
294.43269767945236
  0
ARC
  8
_0-3_躯体と製品
  6
CONTINUOUS
 62
    4
 10
2063.0442931911748
 20
1660.5918802765086
 40
4.749999999987951
 50
223.17355110725768
 51
316.82644889274235
  0
LINE
  8
_0-3_躯体と製品
  6
CONTINUOUS
 62
    4
 10
2066.5083948063038
 20
1657.3418802765168
 11
2066.5083948063038
 21
1668.8418802765168
  0
LINE
  8
_0-3_躯体と製品
  6
CONTINUOUS
 62
    4
 10
2066.5083948063038
 20
1668.8418802765168
 11
2038.7955818852129
 21
1668.8418802765168
  0
LINE
  8
_0-3_躯体と製品
  6
CONTINUOUS
 62
    4
 10
2038.7955818852129
 20
1668.8418802765168
 11
2038.7955818852129
 21
1657.3418802765168
  0
LINE
  8
_0-3_躯体と製品
  6
CONTINUOUS
 62
    4
 10
2048.6519883127257
 20
1668.8418802478209
 11
2052.6519883127248
 21
1672.8418802478209
  0
LINE
  8
_0-3_躯体と製品
  6
CONTINUOUS
 62
    4
 10
2060.6519883350047
 20
1454.4418802765049
 11
2060.6519883350047
 21
1388.1416802765175
  0
LINE
  8
_0-3_躯体と製品
  6
CONTINUOUS
 62
    4
 10
2044.6519883350047
 20
1454.4418802765049
 11
2044.6519883350047
 21
1388.1416802765175
  0
LINE
  8
_0-3_躯体と製品
  6
CONTINUOUS
 62
    3
 10
2059.1519883350047
 20
1454.4418802765049
 11
2059.1519883350047
 21
1386.6416802765175
  0
LINE
  8
_0-3_躯体と製品
  6
CONTINUOUS
 62
    3
 10
2046.1519883350047
 20
1454.4418802765049
 11
2046.1519883350047
 21
1386.6416802765175
  0
LINE
  8
_0-3_躯体と製品
  6
CONTINUOUS
 62
    4
 10
2059.1528483350048
 20
1386.6416802765175
 11
2046.1519883350047
 21
1386.6416802765175
  0
LINE
  8
_0-3_躯体と製品
  6
CONTINUOUS
 62
    3
 10
2060.6519883350047
 20
1388.1416802765175
 11
2044.6519883350047
 21
1388.1416802765175
  0
LINE
  8
_0-3_躯体と製品
  6
CONTINUOUS
 62
    4
 10
2044.6519883350047
 20
1388.1416802765175
 11
2046.1519883350047
 21
1386.6416802765175
  0
LINE
  8
_0-3_躯体と製品
  6
CONTINUOUS
 62
    4
 10
2060.6519883350047
 20
1388.1416802765175
 11
2059.1519883350047
 21
1386.6416802765175
  0
LINE
  8
_0-3_躯体と製品
  6
CONTINUOUS
 62
    4
 10
2032.6519883350047
 20
1754.641880276517
 11
2072.6519883350038
 21
1754.641880276517
  0
ARC
  8
_0-3_躯体と製品
  6
CONTINUOUS
 62
    4
 10
2018.1019883350039
 20
1757.641880276517
 40
3.7500000000001359
 50
306.86989764583751
 51
53.130102354161799
  0
ARC
  8
_0-3_躯体と製品
  6
CONTINUOUS
 62
    4
 10
2018.1019883350039
 20
1757.641880276517
 40
6.0500000000001348
 50
318.76966956403879
 51
41.230330435961228
  0
ARC
  8
_0-3_躯体と製品
  6
CONTINUOUS
 62
    4
 10
2087.2019883350049
 20
1757.641880276517
 40
3.7500000000001359
 50
126.8698976458375
 51
233.13010235416249
  0
ARC
  8
_0-3_躯体と製品
  6
CONTINUOUS
 62
    4
 10
2087.2019883350049
 20
1757.641880276517
 40
6.0500000000001348
 50
138.7696695640374
 51
221.2303304359626
  0
ARC
  8
_0-3_躯体と製品
  6
CONTINUOUS
 62
    3
 10
2019.3523863350047
 20
1763.3922782765167
 40
3.0003979999999717
 50
179.99999999999653
 51
260.39952424800055
  0
ARC
  8
_0-3_躯体と製品
  6
CONTINUOUS
 62
    4
 10
2822.1519883350047
 20
1710.141880276517
 40
5.5
 50
270
 51
0.0000000000000127
  0
ARC
  8
_0-3_躯体と製品
  6
CONTINUOUS
 62
    4
 10
2822.1519883350047
 20
1710.1418802765168
 40
3.8999999999997494
 50
270.00000000000165
 51
0.0000000000016793
  0
ARC
  8
_0-3_躯体と製品
  6
CONTINUOUS
 62
    4
 10
2783.1519883350047
 20
1710.141880276517
 40
5.5
 50
180
 51
270
  0
ARC
  8
_0-3_躯体と製品
  6
CONTINUOUS
 62
    4
 10
2783.1519883350043
 20
1710.1418802765174
 40
3.9000000000004316
 50
180.00000000000836
 51
270.00000000000836
  0
ARC
  8
_0-3_躯体と製品
  6
CONTINUOUS
 62
    4
 10
2822.1519883350047
 20
1749.141880276517
 40
5.5
 50
0.0000000000000052
 51
90.000000000000014
  0
ARC
  8
_0-3_躯体と製品
  6
CONTINUOUS
 62
    4
 10
2822.1519883350047
 20
1749.141880276517
 40
3.8999999999998631
 50
359.99999999999665
 51
89.999999999996675
  0
LINE
  8
_0-3_躯体と製品
  6
CONTINUOUS
 62
    4
 10
2783.1519883350047
 20
1706.2418802765169
 11
2792.6519883350047
 21
1706.2418802765169
  0
LINE
  8
_0-3_躯体と製品
  6
CONTINUOUS
 62
    4
 10
2779.2519883350042
 20
1710.141880276517
 11
2779.2519883350042
 21
1749.141880276517
  0
LINE
  8
_0-3_躯体と製品
  6
CONTINUOUS
 62
    4
 10
2827.6519883350047
 20
1760.0474662765168
 11
2827.6519883350047
 21
1710.141880276517
  0
LINE
  8
_0-3_躯体と製品
  6
CONTINUOUS
 62
    4
 10
2822.1519883350047
 20
1754.641880276517
 11
2783.1519883350047
 21
1754.641880276517
  0
ARC
  8
_0-3_躯体と製品
  6
CONTINUOUS
 62
    4
 10
2783.1519883350047
 20
1749.141880276517
 40
5.5
 50
90
 51
180
  0
LINE
  8
_0-3_躯体と製品
  6
CONTINUOUS
 62
    4
 10
2777.6519883350047
 20
1760.087472276517
 11
2777.6519883350047
 21
1710.141880276517
  0
LINE
  8
_0-3_躯体と製品
  6
CONTINUOUS
 62
    4
 10
2822.1519883350047
 20
1704.641880276517
 11
2783.1519883350047
 21
1704.641880276517
  0
LINE
  8
_0-3_躯体と製品
  6
CONTINUOUS
 62
    4
 10
2812.6519883350047
 20
1704.641880276517
 11
2812.6519883350047
 21
1706.2418802765169
  0
LINE
  8
_0-3_躯体と製品
  6
CONTINUOUS
 62
    4
 10
2792.6519883350047
 20
1706.2418802765169
 11
2792.6519883350047
 21
1704.641880276517
  0
LINE
  8
_0-3_躯体と製品
  6
CONTINUOUS
 62
    4
 10
2822.1519883350047
 20
1753.0418802765171
 11
2783.1519883350047
 21
1753.0418802765171
  0
ARC
  8
_0-3_躯体と製品
  6
CONTINUOUS
 62
    4
 10
2783.1519883350047
 20
1749.1418802765165
 40
3.9000000000005453
 50
89.999999999993335
 51
179.99999999999332
  0
LINE
  8
_0-3_躯体と製品
  6
CONTINUOUS
 62
    4
 10
2822.1519883350047
 20
1706.2418802765169
 11
2812.6519883350047
 21
1706.2418802765169
  0
LINE
  8
_0-3_躯体と製品
  6
CONTINUOUS
 62
    4
 10
2826.0519883350044
 20
1749.141880276517
 11
2826.0519883350044
 21
1710.141880276517
  0
LINE
  8
_0-3_躯体と製品
  6
CONTINUOUS
 62
    4
 10
2832.6519883350047
 20
1761.6293606839931
 11
2832.6519883350047
 21
1774.641880276517
  0
LINE
  8
_0-3_躯体と製品
  6
CONTINUOUS
 62
    4
 10
2772.6519883350047
 20
1761.6293606839931
 11
2772.6519883350047
 21
1774.641880276517
  0
LINE
  8
_0-3_躯体と製品
  6
CONTINUOUS
 62
    4
 10
2772.6519883350047
 20
1753.6543998690408
 11
2772.6519883350047
 21
1691.9418802765167
  0
ARC
  8
_0-3_躯体と製品
  6
CONTINUOUS
 62
    4
 10
2774.9519883350049
 20
1691.9418802765167
 40
2.2999999999998861
 50
179.99999999999829
 51
269.99999999999602
  0
LINE
  8
_0-3_躯体と製品
  6
CONTINUOUS
 62
    4
 10
2774.9519883350049
 20
1689.641880276517
 11
2830.3519883350036
 21
1689.641880276517
  0
ARC
  8
_0-3_躯体と製品
  6
CONTINUOUS
 62
    4
 10
2830.3519883350045
 20
1691.9418802765174
 40
2.3000000000005683
 50
269.99999999998693
 51
359.99999999998471
  0
LINE
  8
_0-3_躯体と製品
  6
CONTINUOUS
 62
    4
 10
2832.6519883350047
 20
1691.9418802765167
 11
2832.6519883350047
 21
1753.6543998690408
  0
LINE
  8
_0-3_躯体と製品
  6
CONTINUOUS
 62
    4
 10
2770.3519883350045
 20
1754.641880276517
 11
2770.3519883350045
 21
1691.9418802765167
  0
ARC
  8
_0-3_躯体と製品
  6
CONTINUOUS
 62
    4
 10
2774.9519883350049
 20
1691.9418802765172
 40
4.6000000000001817
 50
180.00000000000338
 51
269.99999999999659
  0
LINE
  8
_0-3_躯体と製品
  6
CONTINUOUS
 62
    4
 10
2774.9519883350049
 20
1687.3418802765168
 11
2830.3519883350036
 21
1687.3418802765168
  0
ARC
  8
_0-3_躯体と製品
  6
CONTINUOUS
 62
    4
 10
2830.3519883350036
 20
1691.9418802765172
 40
4.6000000000001835
 50
270.00000000000341
 51
359.99999999999659
  0
LINE
  8
_0-3_躯体と製品
  6
CONTINUOUS
 62
    4
 10
2834.951988335004
 20
1691.9418802765167
 11
2834.9519883350049
 21
1754.641880276517
  0
LINE
  8
_0-3_躯体と製品
  6
CONTINUOUS
 62
    3
 10
2827.6519883350047
 20
1759.641880276517
 11
2822.6519883350047
 21
1759.641880276517
  0
LINE
  8
_0-3_躯体と製品
  6
CONTINUOUS
 62
    3
 10
2777.6519883350047
 20
1759.641880276517
 11
2782.6519883350047
 21
1759.641880276517
  0
LINE
  8
_0-3_躯体と製品
  6
CONTINUOUS
 62
    4
 10
2810.6519883350047
 20
1655.8418802765168
 11
2810.6519883350047
 21
1487.6418809601937
  0
LINE
  8
_0-3_躯体と製品
  6
CONTINUOUS
 62
    4
 10
2794.6519883350047
 20
1655.8418802765168
 11
2794.6519883350047
 21
1487.6418809601937
  0
LINE
  8
_0-3_躯体と製品
  6
CONTINUOUS
 62
    3
 10
2809.1519883350047
 20
1655.8418802765168
 11
2809.1519883350047
 21
1487.6418809601937
  0
LINE
  8
_0-3_躯体と製品
  6
CONTINUOUS
 62
    3
 10
2796.1519883350047
 20
1655.8418802765168
 11
2796.1519883350047
 21
1487.6418809601937
  0
LINE
  8
_0-3_躯体と製品
  6
CONTINUOUS
 62
    4
 10
2782.6519883350047
 20
1761.641880276517
 11
2822.6519883350047
 21
1761.641880276517
  0
LINE
  8
_0-3_躯体と製品
  6
CONTINUOUS
 62
    3
 10
2827.3519883350045
 20
1762.6414832765167
 11
2827.3519883350045
 21
1768.6422772765168
  0
LINE
  8
_0-3_躯体と製品
  6
CONTINUOUS
 62
    3
 10
2827.3519883350045
 20
1762.641880276517
 11
2826.8519223350049
 21
1763.141946276517
  0
LINE
  8
_0-3_躯体と製品
  6
CONTINUOUS
 62
    3
 10
2827.3519883350045
 20
1768.641880276517
 11
2826.8519223350049
 21
1768.1418142765169
  0
LINE
  8
_0-3_躯体と製品
  6
CONTINUOUS
 62
    4
 10
2822.6519883350047
 20
1761.641880276517
 11
2822.6519883350047
 21
1754.641880276517
  0
LINE
  8
_0-3_躯体と製品
  6
CONTINUOUS
 62
    4
 10
2827.6519883350047
 20
1756.641880276517
 11
2822.6519883350047
 21
1756.641880276517
  0
LINE
  8
_0-3_躯体と製品
  6
CONTINUOUS
 62
    3
 10
2768.8519893702869
 20
1768.1416823190757
 11
2768.851987370288
 21
1696.1420782765167
  0
ARC
  8
_0-3_躯体と製品
  6
CONTINUOUS
 62
    3
 10
2770.3521873702871
 20
1768.1416822765168
 40
1.5001980000003758
 50
90.007601584379344
 51
179.99999999999781
  0
ARC
  8
_0-3_躯体と製品
  6
CONTINUOUS
 62
    3
 10
2770.3521873702866
 20
1696.1420782765169
 40
1.5001980000002384
 50
180.0000000000056
 51
269.99239841562587
  0
LINE
  8
_0-3_躯体と製品
  6
CONTINUOUS
 62
    3
 10
2766.3519883350045
 20
1767.8914822765169
 11
2766.3519883350054
 21
1763.3922782761888
  0
ARC
  8
_0-3_躯体と製品
  6
CONTINUOUS
 62
    3
 10
2769.3523863350047
 20
1767.8914822765169
 40
3.0003980000000183
 50
89.999999999997812
 51
179.99999999999781
  0
LINE
  8
_0-3_躯体と製品
  6
CONTINUOUS
 62
    3
 10
2770.3519883350045
 20
1770.891880276517
 11
2769.3523863350047
 21
1770.891880276517
  0
LINE
  8
_0-3_躯体と製品
  6
CONTINUOUS
 62
    4
 10
2772.6519883350047
 20
1774.641880276517
 11
2770.3519883350045
 21
1774.641880276517
  0
LINE
  8
_0-3_躯体と製品
  6
CONTINUOUS
 62
    4
 10
2782.6519883350047
 20
1761.641880276517
 11
2782.6519883350047
 21
1754.641880276517
  0
LINE
  8
_0-3_躯体と製品
  6
CONTINUOUS
 62
    4
 10
2773.6356652111454
 20
1760.087472276517
 11
2777.6519883350047
 21
1760.087472276517
  0
LINE
  8
_0-3_躯体と製品
  6
CONTINUOUS
 62
    4
 10
2770.3519883350045
 20
1760.641880276517
 11
2770.3519883350045
 21
1774.641880276517
  0
ARC
  8
_0-3_躯体と製品
  6
CONTINUOUS
 62
    4
 10
2778.1521863216731
 20
1687.3420802765168
 40
1.5001979999998407
 50
180.00763842901213
 51
269.99999999998596
  0
LINE
  8
_0-3_躯体と製品
  6
CONTINUOUS
 62
    4
 10
2777.6519883350047
 20
1756.641880276517
 11
2782.6519883350047
 21
1756.641880276517
  0
LINE
  8
_0-3_躯体と製品
  6
CONTINUOUS
 62
    3
 10
2832.6519883350047
 20
1768.1418142765169
 11
2772.6519883350047
 21
1768.1418142765169
  0
LINE
  8
_0-3_躯体と製品
  6
CONTINUOUS
 62
    3
 10
2841.4788483350048
 20
1768.1418142765169
 11
2850.3519883350045
 21
1768.1418142765169
  0
LINE
  8
_0-3_躯体と製品
  6
CONTINUOUS
 62
    3
 10
2832.6519883350047
 20
1763.1415492765168
 11
2772.6519883350047
 21
1763.1415492765168
  0
LINE
  8
_0-3_躯体と製品
  6
CONTINUOUS
 62
    3
 10
2841.4788483350048
 20
1763.141946276517
 11
2850.3519883350045
 21
1763.141946276517
  0
LINE
  8
_0-3_躯体と製品
  6
CONTINUOUS
 62
    4
 10
2778.1521863216731
 20
1685.8418802765168
 11
2827.1517903483355
 21
1685.8418802765168
  0
LINE
  8
_0-3_躯体と製品
  6
CONTINUOUS
 62
    3
 10
2832.6519883350047
 20
1768.641880276517
 11
2827.3519883350045
 21
1768.641880276517
  0
LINE
  8
_0-3_躯体と製品
  6
CONTINUOUS
 62
    3
 10
2841.4788483350048
 20
1768.641880276517
 11
2850.3519883350045
 21
1768.641880276517
  0
LINE
  8
_0-3_躯体と製品
  6
CONTINUOUS
 62
    3
 10
2832.6519883350047
 20
1762.641880276517
 11
2827.3519883350045
 21
1762.641880276517
  0
LINE
  8
_0-3_躯体と製品
  6
CONTINUOUS
 62
    3
 10
2850.3519883350045
 20
1762.641880276517
 11
2841.4788483350048
 21
1762.641880276517
  0
LINE
  8
_0-3_躯体と製品
  6
CONTINUOUS
 62
    4
 10
2831.6508032366128
 20
1760.0474662765168
 11
2827.6519883350047
 21
1760.0474662765168
  0
LINE
  8
_0-3_躯体と製品
  6
CONTINUOUS
 62
    3
 10
2836.4519883350049
 20
1696.1420782765167
 11
2836.4519883350049
 21
1771.438974276517
  0
ARC
  8
_0-3_躯体と製品
  6
CONTINUOUS
 62
    3
 10
2834.9517903350052
 20
1696.1420782765163
 40
1.5001979999993862
 50
270.00000000002171
 51
0.0000000000217168
  0
ARC
  8
_0-3_躯体と製品
  6
CONTINUOUS
 62
    3
 10
2834.9517903350052
 20
1768.1416822765175
 40
1.5001979999993862
 50
359.99999999997829
 51
89.999999999978314
  0
LINE
  8
_0-3_躯体と製品
  6
CONTINUOUS
 62
    3
 10
2850.3519883350045
 20
1768.641880276517
 11
2850.3519883350045
 21
1762.641880276517
  0
LINE
  8
_0-3_躯体と製品
  6
CONTINUOUS
 62
    3
 10
2836.4519883350049
 20
1769.7137462765168
 11
2836.4519883350049
 21
1760.9625882765167
  0
LINE
  8
_0-3_躯体と製品
  6
CONTINUOUS
 62
    3
 10
2836.4519883350049
 20
1761.266301276517
 11
2836.4519883350049
 21
1766.945395276517
  0
LINE
  8
_0-3_躯体と製品
  6
CONTINUOUS
 62
    3
 10
2836.4519883350049
 20
1761.266301276517
 11
2837.0520683350051
 21
1760.6412172765167
  0
LINE
  8
_0-3_躯体と製品
  6
CONTINUOUS
 62
    3
 10
2836.4519883350049
 20
1770.017459276517
 11
2837.0520683350051
 21
1770.642541276517
  0
ARC
  8
_0-3_躯体と製品
  6
CONTINUOUS
 62
    3
 10
2838.0542843350054
 20
1761.8913832765172
 40
1.6022960000006095
 50
128.71798800000863
 51
180.00000000001361
  0
ARC
  8
_0-3_躯体と製品
  6
CONTINUOUS
 62
    3
 10
2841.9610523350048
 20
1765.6418792765173
 40
5.509061999999715
 50
153.00853300000176
 51
206.99146699999824
  0
ARC
  8
_0-3_躯体と製品
  6
CONTINUOUS
 62
    3
 10
2838.054284335004
 20
1769.3923752765172
 40
1.602295999999426
 50
180.00000000000674
 51
231.28201200001172
  0
LINE
  8
_0-3_躯体と製品
  6
CONTINUOUS
 62
    3
 10
2841.4526503350044
 20
1770.017459276517
 11
2841.4526503350044
 21
1761.266301276517
  0
LINE
  8
_0-3_躯体と製品
  6
CONTINUOUS
 62
    3
 10
2841.4526503350044
 20
1761.266301276517
 11
2841.4526503350044
 21
1770.017459276517
  0
LINE
  8
_0-3_躯体と製品
  6
CONTINUOUS
 62
    3
 10
2840.8525723350049
 20
1760.6412172765167
 11
2837.0520683350051
 21
1760.6412172765167
  0
LINE
  8
_0-3_躯体と製品
  6
CONTINUOUS
 62
    3
 10
2840.8525723350049
 20
1763.1415492765168
 11
2837.0520683350051
 21
1763.1415492765168
  0
LINE
  8
_0-3_躯体と製品
  6
CONTINUOUS
 62
    3
 10
2840.8525723350049
 20
1768.1422112765167
 11
2837.0520683350051
 21
1768.1422112765167
  0
LINE
  8
_0-3_躯体と製品
  6
CONTINUOUS
 62
    3
 10
2840.8525723350049
 20
1770.642541276517
 11
2837.0520683350051
 21
1770.642541276517
  0
LINE
  8
_0-3_躯体と製品
  6
CONTINUOUS
 62
    3
 10
2841.4526503350044
 20
1761.266301276517
 11
2840.8525723350049
 21
1760.6412172765167
  0
LINE
  8
_0-3_躯体と製品
  6
CONTINUOUS
 62
    3
 10
2841.4526503350044
 20
1770.017459276517
 11
2840.8525723350049
 21
1770.642541276517
  0
ARC
  8
_0-3_躯体と製品
  6
CONTINUOUS
 62
    3
 10
2839.8503563350041
 20
1761.8913832765172
 40
1.6022960000006095
 50
359.99999999998641
 51
51.282011999991411
  0
ARC
  8
_0-3_躯体と製品
  6
CONTINUOUS
 62
    3
 10
2835.9435883350052
 20
1765.6418792765173
 40
5.509061999999715
 50
333.00853300000176
 51
26.991466999998252
  0
ARC
  8
_0-3_躯体と製品
  6
CONTINUOUS
 62
    3
 10
2839.8503563350055
 20
1769.3923752765172
 40
1.602295999999426
 50
308.71798799998828
 51
359.99999999999324
  0
LINE
  8
_0-3_躯体と製品
  6
CONTINUOUS
 62
    3
 10
2836.4519883350049
 20
1771.7426872765168
 11
2834.9517903350061
 21
1771.7426872765168
  0
LINE
  8
_0-3_躯体と製品
  6
CONTINUOUS
 62
    4
 10
2832.6519883350047
 20
1774.641880276517
 11
2834.9519883350049
 21
1774.641880276517
  0
LINE
  8
_0-3_躯体と製品
  6
CONTINUOUS
 62
    4
 10
2834.9519883350049
 20
1760.641880276517
 11
2834.9519883350049
 21
1774.641880276517
  0
ARC
  8
_0-3_躯体と製品
  6
CONTINUOUS
 62
    4
 10
2827.1517903483364
 20
1687.3420802765172
 40
1.5001980000004096
 50
269.99999999998369
 51
359.99236157096612
  0
LINE
  8
_0-3_躯体と製品
  6
CONTINUOUS
 62
    4
 10
2792.2596835003424
 20
1672.8418802765168
 11
2813.0442931911748
 21
1672.8418802765168
  0
LINE
  8
_0-3_躯体と製品
  6
CONTINUOUS
 62
    4
 10
2795.7237851155005
 20
1674.3418802765168
 11
2795.7237851155005
 21
1685.8418802765168
  0
LINE
  8
_0-3_躯体と製品
  6
CONTINUOUS
 62
    4
 10
2809.5801915760458
 20
1657.3418802765168
 11
2809.5801915760458
 21
1668.8418802765168
  0
LINE
  8
_0-3_躯体と製品
  6
CONTINUOUS
 62
    4
 10
2809.5801915760458
 20
1674.3418802765168
 11
2809.5801915760458
 21
1685.8418802765168
  0
LINE
  8
_0-3_躯体と製品
  6
CONTINUOUS
 62
    4
 10
2795.7237851155005
 20
1657.3418802765168
 11
2795.7237851155005
 21
1668.8418802765168
  0
ARC
  8
_0-3_躯体と製品
  6
CONTINUOUS
 62
    4
 10
2792.2596835003569
 20
1677.5918802765234
 40
4.7500000000090044
 50
223.17355110726379
 51
316.82644889273621
  0
ARC
  8
_0-3_躯体と製品
  6
CONTINUOUS
 62
    4
 10
2802.6519883457731
 20
1689.5918799560768
 40
16.74999970825489
 50
245.56730186717647
 51
294.43269813282353
  0
ARC
  8
_0-3_躯体と製品
  6
CONTINUOUS
 62
    4
 10
2813.0442931911748
 20
1677.5918802765095
 40
4.7499999999884261
 50
223.17355110726777
 51
316.82644889273217
  0
LINE
  8
_0-3_躯体と製品
  6
CONTINUOUS
 62
    4
 10
2816.5083948063038
 20
1674.3418802765168
 11
2816.5083948063038
 21
1685.8418802765168
  0
LINE
  8
_0-3_躯体と製品
  6
CONTINUOUS
 62
    4
 10
2816.5083948063038
 20
1685.8418802765168
 11
2788.7955818852124
 21
1685.8418802765168
  0
LINE
  8
_0-3_躯体と製品
  6
CONTINUOUS
 62
    4
 10
2788.7955818852124
 20
1685.8418802765168
 11
2788.7955818852124
 21
1674.3418802765168
  0
LINE
  8
_0-3_躯体と製品
  6
CONTINUOUS
 62
    4
 10
2788.6519883414221
 20
1668.8418802765168
 11
2816.6519883787914
 21
1668.8418802765168
  0
LINE
  8
_0-3_躯体と製品
  6
CONTINUOUS
 62
    4
 10
2816.6519883787914
 20
1668.8418802765168
 11
2816.6519883787914
 21
1672.8418802765168
  0
LINE
  8
_0-3_躯体と製品
  6
CONTINUOUS
 62
    4
 10
2816.6519883787914
 20
1672.8418802765168
 11
2788.6519883414221
 21
1672.8418802765168
  0
LINE
  8
_0-3_躯体と製品
  6
CONTINUOUS
 62
    4
 10
2788.6519883414221
 20
1672.8418802765168
 11
2788.6519883414221
 21
1668.8418802765168
  0
LINE
  8
_0-3_躯体と製品
  6
CONTINUOUS
 62
    4
 10
2792.2596835003424
 20
1655.8418802765168
 11
2813.0442931911748
 21
1655.8418802765168
  0
LINE
  8
_0-3_躯体と製品
  6
CONTINUOUS
 62
    4
 10
2802.6519883601068
 20
1668.8418802765168
 11
2806.6519883601068
 21
1672.8418802765168
  0
ARC
  8
_0-3_躯体と製品
  6
CONTINUOUS
 62
    4
 10
2792.2596835003569
 20
1660.5918802765241
 40
4.7500000000094813
 50
223.1735511072699
 51
316.82644889273007
  0
ARC
  8
_0-3_躯体と製品
  6
CONTINUOUS
 62
    4
 10
2802.6519883457731
 20
1672.5918802765123
 40
16.749999999994436
 50
245.56730232054764
 51
294.43269767945236
  0
ARC
  8
_0-3_躯体と製品
  6
CONTINUOUS
 62
    4
 10
2813.0442931911748
 20
1660.5918802765084
 40
4.7499999999876392
 50
223.17355110725768
 51
316.82644889274235
  0
LINE
  8
_0-3_躯体と製品
  6
CONTINUOUS
 62
    4
 10
2816.5083948063038
 20
1657.3418802765168
 11
2816.5083948063038
 21
1668.8418802765168
  0
LINE
  8
_0-3_躯体と製品
  6
CONTINUOUS
 62
    4
 10
2816.5083948063038
 20
1668.8418802765168
 11
2788.7955818852124
 21
1668.8418802765168
  0
LINE
  8
_0-3_躯体と製品
  6
CONTINUOUS
 62
    4
 10
2788.7955818852124
 20
1668.8418802765168
 11
2788.7955818852124
 21
1657.3418802765168
  0
LINE
  8
_0-3_躯体と製品
  6
CONTINUOUS
 62
    4
 10
2798.6519883127257
 20
1668.8418802478209
 11
2802.6519883127257
 21
1672.8418802478209
  0
LINE
  8
_0-3_躯体と製品
  6
CONTINUOUS
 62
    4
 10
2810.6519883350047
 20
1454.4418802765049
 11
2810.6519883350047
 21
1388.1416802765175
  0
LINE
  8
_0-3_躯体と製品
  6
CONTINUOUS
 62
    4
 10
2794.6519883350047
 20
1454.4418802765049
 11
2794.6519883350047
 21
1388.1416802765175
  0
LINE
  8
_0-3_躯体と製品
  6
CONTINUOUS
 62
    3
 10
2809.1519883350047
 20
1454.4418802765049
 11
2809.1519883350047
 21
1386.6416802765175
  0
LINE
  8
_0-3_躯体と製品
  6
CONTINUOUS
 62
    3
 10
2796.1519883350047
 20
1454.4418802765049
 11
2796.1519883350047
 21
1386.6416802765175
  0
LINE
  8
_0-3_躯体と製品
  6
CONTINUOUS
 62
    4
 10
2809.1528483350048
 20
1386.6416802765175
 11
2796.1519883350047
 21
1386.6416802765175
  0
LINE
  8
_0-3_躯体と製品
  6
CONTINUOUS
 62
    3
 10
2810.6519883350047
 20
1388.1416802765175
 11
2794.6519883350047
 21
1388.1416802765175
  0
LINE
  8
_0-3_躯体と製品
  6
CONTINUOUS
 62
    4
 10
2794.6519883350047
 20
1388.1416802765175
 11
2796.1519883350047
 21
1386.6416802765175
  0
LINE
  8
_0-3_躯体と製品
  6
CONTINUOUS
 62
    4
 10
2810.6519883350047
 20
1388.1416802765175
 11
2809.1519883350047
 21
1386.6416802765175
  0
LINE
  8
_0-3_躯体と製品
  6
CONTINUOUS
 62
    4
 10
2782.6519883350047
 20
1754.641880276517
 11
2822.6519883350047
 21
1754.641880276517
  0
ARC
  8
_0-3_躯体と製品
  6
CONTINUOUS
 62
    4
 10
2768.1019883350045
 20
1757.641880276517
 40
3.7500000000001359
 50
306.86989764583751
 51
53.130102354161799
  0
ARC
  8
_0-3_躯体と製品
  6
CONTINUOUS
 62
    4
 10
2768.1019883350045
 20
1757.641880276517
 40
6.0500000000001348
 50
318.76966956403879
 51
41.230330435961228
  0
ARC
  8
_0-3_躯体と製品
  6
CONTINUOUS
 62
    4
 10
2837.2019883350049
 20
1757.641880276517
 40
3.7500000000001359
 50
126.8698976458375
 51
233.13010235416249
  0
ARC
  8
_0-3_躯体と製品
  6
CONTINUOUS
 62
    4
 10
2837.2019883350049
 20
1757.641880276517
 40
6.0500000000001348
 50
138.7696695640374
 51
221.2303304359626
  0
ARC
  8
_0-3_躯体と製品
  6
CONTINUOUS
 62
    3
 10
2769.3523863350047
 20
1763.3922782765167
 40
3.0003979999999717
 50
179.99999999999653
 51
260.39952424800055
  0
LINE
  8
_0-3_躯体と製品
  6
CONTINUOUS
 62
    3
 10
282.52723433500455
 20
593.480103985151
 11
277.52725833500449
 21
590.59336598515097
  0
LINE
  8
_0-3_躯体と製品
  6
CONTINUOUS
 62
    3
 10
282.52723433500455
 20
599.25357598515097
 11
282.52723433500455
 21
593.480103985151
  0
LINE
  8
_0-3_躯体と製品
  6
CONTINUOUS
 62
    3
 10
277.52725833500449
 20
602.14031398515124
 11
282.52723433500455
 21
599.25357598515097
  0
LINE
  8
_0-3_躯体と製品
  6
CONTINUOUS
 62
    3
 10
272.5272843350042
 20
599.25357598515097
 11
277.52725833500449
 21
602.14031398515124
  0
LINE
  8
_0-3_躯体と製品
  6
CONTINUOUS
 62
    3
 10
272.5272843350042
 20
593.480103985151
 11
272.5272843350042
 21
599.25357598515097
  0
LINE
  8
_0-3_躯体と製品
  6
CONTINUOUS
 62
    3
 10
277.52725833500449
 20
590.59336598515097
 11
272.5272843350042
 21
593.480103985151
  0
CIRCLE
  8
_0-3_躯体と製品
  6
CONTINUOUS
 62
    3
 10
277.52725833500449
 20
596.36683998515116
 40
2.4999880000000001
  0
CIRCLE
  8
_0-3_躯体と製品
  6
CONTINUOUS
 62
    3
 10
277.52725833500449
 20
596.36683998515116
 40
2.9999839999999991
  0
CIRCLE
  8
_0-3_躯体と製品
  6
CONTINUOUS
 62
    3
 10
277.52725833500449
 20
596.36683998515116
 40
4.999973999999999
  0
LINE
  8
_0-3_躯体と製品
  6
CONTINUOUS
 62
    4
 10
272.02728633500396
 20
595.11684598515114
 11
272.42826633500431
 21
595.11684598515114
  0
ARC
  8
_0-3_躯体と製品
  6
CONTINUOUS
 62
    4
 10
272.02728633500374
 20
595.61684398515126
 40
0.4999980000001186
 50
180.00000000001302
 51
270.00000000001307
  0
LINE
  8
_0-3_躯体と製品
  6
CONTINUOUS
 62
    4
 10
271.52729033500441
 20
597.11683598515106
 11
271.52729033500441
 21
595.61684398515115
  0
ARC
  8
_0-3_躯体と製品
  6
CONTINUOUS
 62
    4
 10
272.02728633500374
 20
597.11683598515094
 40
0.4999980000001186
 50
89.999999999986969
 51
179.99999999998698
  0
LINE
  8
_0-3_躯体と製品
  6
CONTINUOUS
 62
    4
 10
272.42826633500431
 20
597.61683398515106
 11
272.02728633500396
 21
597.61683398515106
  0
LINE
  8
_0-3_躯体と製品
  6
CONTINUOUS
 62
    4
 10
283.02723033500411
 20
595.11684598515114
 11
282.62625233500444
 21
595.11684598515114
  0
ARC
  8
_0-3_躯体と製品
  6
CONTINUOUS
 62
    4
 10
283.02723033500411
 20
595.61684398515104
 40
0.4999979999998912
 50
270.00000000001302
 51
0.0000000000130402
  0
LINE
  8
_0-3_躯体と製品
  6
CONTINUOUS
 62
    4
 10
283.52722833500434
 20
597.11683598515106
 11
283.52722833500434
 21
595.61684398515115
  0
ARC
  8
_0-3_躯体と製品
  6
CONTINUOUS
 62
    4
 10
283.02723033500411
 20
597.11683598515117
 40
0.4999979999998912
 50
359.99999999998698
 51
89.999999999986997
  0
LINE
  8
_0-3_躯体と製品
  6
CONTINUOUS
 62
    4
 10
282.62625233500444
 20
597.61683398515106
 11
283.02723033500411
 21
597.61683398515106
  0
ARC
  8
_0-3_躯体と製品
  6
CONTINUOUS
 62
    3
 10
292.52723233500456
 20
595.36686598515098
 40
4.9999740000000656
 50
0.000000000000007
 51
179.99999999999997
  0
LINE
  8
_0-3_躯体と製品
  6
CONTINUOUS
 62
    3
 10
297.52720633500508
 20
585.36683998515127
 11
302.52725833500449
 21
585.36683998515127
  0
LINE
  8
_0-3_躯体と製品
  6
CONTINUOUS
 62
    3
 10
297.52720633500508
 20
591.36683998515127
 11
302.52725833500449
 21
591.36683998515127
  0
LINE
  8
_0-3_躯体と製品
  6
CONTINUOUS
 62
    3
 10
267.52725833500449
 20
585.36683998515127
 11
287.52725833500449
 21
585.36683998515127
  0
LINE
  8
_0-3_躯体と製品
  6
CONTINUOUS
 62
    3
 10
252.52725833500449
 20
585.36683998515127
 11
257.52730833500414
 21
585.36683998515127
  0
LINE
  8
_0-3_躯体と製品
  6
CONTINUOUS
 62
    3
 10
276.18756284144843
 20
591.36683998515127
 11
267.52725833500449
 21
591.36683998515127
  0
LINE
  8
_0-3_躯体と製品
  6
CONTINUOUS
 62
    3
 10
278.8669543644412
 20
591.36683998515127
 11
287.52725833500449
 21
591.36683998515127
  0
LINE
  8
_0-3_躯体と製品
  6
CONTINUOUS
 62
    3
 10
252.52725833500449
 20
591.36683998515127
 11
257.52730833500414
 21
591.36683998515127
  0
ARC
  8
_0-3_躯体と製品
  6
CONTINUOUS
 62
    3
 10
262.52728433500397
 20
595.36686598515098
 40
4.9999740000000656
 50
0.000000000000007
 51
179.99999999999997
  0
LINE
  8
_0-3_躯体と製品
  6
CONTINUOUS
 62
    4
 10
298.52725833500449
 20
605.36683998515105
 11
256.52725833500449
 21
605.36683998515105
  0
ARC
  8
_0-3_躯体と製品
  6
CONTINUOUS
 62
    4
 10
256.52725833500449
 20
601.36683998515105
 40
3.9999999999999996
 50
90
 51
180
  0
LINE
  8
_0-3_躯体と製品
  6
CONTINUOUS
 62
    3
 10
287.52725833500449
 20
595.36686598515098
 11
287.52725833500449
 21
530.36681398515111
  0
LINE
  8
_0-3_躯体と製品
  6
CONTINUOUS
 62
    3
 10
267.52725833500449
 20
595.36686598515098
 11
267.52725833500449
 21
530.36681398515111
  0
LINE
  8
_0-3_躯体と製品
  6
CONTINUOUS
 62
    3
 10
257.52730833500414
 20
595.36686598515098
 11
257.52730833500414
 21
530.36681398515111
  0
LINE
  8
_0-3_躯体と製品
  6
CONTINUOUS
 62
    3
 10
297.52720633500508
 20
595.36686598515098
 11
297.52720633500508
 21
530.36681398515111
  0
LINE
  8
_0-3_躯体と製品
  6
CONTINUOUS
 62
    4
 10
302.52725833500449
 20
518.06683998515109
 11
302.52725833500449
 21
601.36683998515105
  0
ARC
  8
_0-3_躯体と製品
  6
CONTINUOUS
 62
    4
 10
298.52725833500449
 20
601.36683998515105
 40
3.9999999999999996
 50
0.0000000000000052
 51
90.000000000000014
  0
LINE
  8
_0-3_躯体と製品
  6
CONTINUOUS
 62
    4
 10
252.52725833500449
 20
518.06683998515109
 11
252.52725833500449
 21
601.36683998515105
  0
ARC
  8
_0-3_躯体と製品
  6
CONTINUOUS
 62
    4
 10
296.02725950655918
 20
518.06683881358094
 40
1.4999988284452399
 50
270.00026082758075
 51
0.0000447507197901
  0
ARC
  8
_0-3_躯体と製品
  6
CONTINUOUS
 62
    3
 10
292.52723233500456
 20
530.36681398515111
 40
4.9999740000000656
 50
180
 51
0
  0
LINE
  8
_0-3_躯体と製品
  6
CONTINUOUS
 62
    4
 10
259.02725033500451
 20
516.5668399851512
 11
296.02726633500401
 21
516.5668399851512
  0
ARC
  8
_0-3_躯体と製品
  6
CONTINUOUS
 62
    3
 10
262.52728433500397
 20
530.36681398515111
 40
4.9999740000000656
 50
180
 51
0
  0
ARC
  8
_0-3_躯体と製品
  6
CONTINUOUS
 62
    4
 10
259.02725716344935
 20
518.06683881358094
 40
1.4999988284452399
 50
179.99995524928022
 51
269.99973917241925
  0
LINE
  8
_0-3_躯体と製品
  6
CONTINUOUS
 62
    4
 10
252.52725833500449
 20
518.06683998515109
 11
302.52725833500449
 21
518.06683998515109
  0
LINE
  8
_0-3_躯体と製品
  6
CONTINUOUS
 62
    4
 10
271.52669295318742
 20
503.56684778745864
 11
283.52725825731727
 21
503.56684785049754
  0
LINE
  8
_0-3_躯体と製品
  6
CONTINUOUS
 62
    4
 10
263.52725829008818
 20
499.56684776440841
 11
291.52725832748661
 21
499.56684776440841
  0
LINE
  8
_0-3_躯体と製品
  6
CONTINUOUS
 62
    4
 10
291.52725832748661
 20
499.56684776440841
 11
291.52725832748661
 21
503.56684776440841
  0
LINE
  8
_0-3_躯体と製品
  6
CONTINUOUS
 62
    4
 10
291.52725832748661
 20
503.56684776440841
 11
263.52725829008818
 21
503.56684776440841
  0
LINE
  8
_0-3_躯体と製品
  6
CONTINUOUS
 62
    4
 10
263.52725829008818
 20
503.56684776440841
 11
263.52725829008818
 21
499.56684776440841
  0
LINE
  8
_0-3_躯体と製品
  6
CONTINUOUS
 62
    4
 10
265.52725829445376
 20
516.56684753535421
 11
265.52725829445376
 21
505.06684776440841
  0
ARC
  8
_0-3_躯体と製品
  6
CONTINUOUS
 62
    4
 10
271.52725827255313
 20
516.3168478791132
 40
12.750000090903935
 50
241.92751339355425
 51
298.07248660644575
  0
ARC
  8
_0-3_躯体と製品
  6
CONTINUOUS
 62
    4
 10
283.52725827255313
 20
516.31684858374422
 40
12.750000733249538
 50
241.927514709977
 51
298.072485290023
  0
LINE
  8
_0-3_躯体と製品
  6
CONTINUOUS
 62
    4
 10
289.52725829445376
 20
505.06684776440841
 11
289.52725829445376
 21
516.56684770753247
  0
LINE
  8
_0-3_躯体と製品
  6
CONTINUOUS
 62
    4
 10
271.52669310461465
 20
486.56684797541118
 11
283.5272584087154
 21
486.56684803845008
  0
LINE
  8
_0-3_躯体と製品
  6
CONTINUOUS
 62
    4
 10
265.52725844585188
 20
499.56684767831928
 11
265.52725844585188
 21
488.06684800693063
  0
ARC
  8
_0-3_躯体と製品
  6
CONTINUOUS
 62
    4
 10
271.52725841690813
 20
499.31684751678722
 40
12.749999553899949
 50
241.92751214239453
 51
298.07248785760549
  0
ARC
  8
_0-3_躯体と製品
  6
CONTINUOUS
 62
    4
 10
283.52725841690813
 20
499.31684839055958
 40
12.750000352116722
 50
241.92751376065095
 51
298.07248623934902
  0
LINE
  8
_0-3_躯体と製品
  6
CONTINUOUS
 62
    4
 10
289.52725844585188
 20
488.06684800693063
 11
289.52725844585188
 21
499.56684785049754
  0
LINE
  8
_0-3_躯体と製品
  6
CONTINUOUS
 62
    4
 10
277.52725825065249
 20
505.06684776440841
 11
277.52725815737472
 21
516.56684762144334
  0
LINE
  8
_0-3_躯体と製品
  6
CONTINUOUS
 62
    4
 10
277.52725837719595
 20
488.06684800693063
 11
277.52725829803353
 21
499.56684776440841
  0
LINE
  8
_0-3_躯体と製品
  6
CONTINUOUS
 62
    4
 10
285.52725833500449
 20
486.72468776155733
 11
285.52725833500449
 21
318.20900088440135
  0
LINE
  8
_0-3_躯体と製品
  6
CONTINUOUS
 62
    4
 10
269.52725833500449
 20
486.72468772202478
 11
269.52725833500449
 21
318.20900170065397
  0
LINE
  8
_0-3_躯体と製品
  6
CONTINUOUS
 62
    3
 10
284.02725833500449
 20
486.57665572871645
 11
284.02725833500449
 21
318.35703320964035
  0
LINE
  8
_0-3_躯体と製品
  6
CONTINUOUS
 62
    3
 10
271.02725833500449
 20
486.57665566020421
 11
271.02725833500449
 21
318.35703347007643
  0
LINE
  8
_0-3_躯体と製品
  6
CONTINUOUS
 62
    3
 10
1023.3740319031424
 20
593.480103985151
 11
1018.3740559031422
 21
590.59336598515097
  0
LINE
  8
_0-3_躯体と製品
  6
CONTINUOUS
 62
    3
 10
1023.3740319031424
 20
599.25357598515097
 11
1023.3740319031424
 21
593.480103985151
  0
LINE
  8
_0-3_躯体と製品
  6
CONTINUOUS
 62
    3
 10
1018.3740559031422
 20
602.14031398515124
 11
1023.3740319031424
 21
599.25357598515097
  0
LINE
  8
_0-3_躯体と製品
  6
CONTINUOUS
 62
    3
 10
1013.3740819031419
 20
599.25357598515097
 11
1018.3740559031422
 21
602.14031398515124
  0
LINE
  8
_0-3_躯体と製品
  6
CONTINUOUS
 62
    3
 10
1013.3740819031419
 20
593.480103985151
 11
1013.3740819031419
 21
599.25357598515097
  0
LINE
  8
_0-3_躯体と製品
  6
CONTINUOUS
 62
    3
 10
1018.3740559031422
 20
590.59336598515097
 11
1013.3740819031419
 21
593.480103985151
  0
CIRCLE
  8
_0-3_躯体と製品
  6
CONTINUOUS
 62
    3
 10
1018.3740559031422
 20
596.36683998515116
 40
2.4999880000000001
  0
CIRCLE
  8
_0-3_躯体と製品
  6
CONTINUOUS
 62
    3
 10
1018.3740559031422
 20
596.36683998515116
 40
2.9999839999999991
  0
CIRCLE
  8
_0-3_躯体と製品
  6
CONTINUOUS
 62
    3
 10
1018.3740559031422
 20
596.36683998515116
 40
4.999973999999999
  0
LINE
  8
_0-3_躯体と製品
  6
CONTINUOUS
 62
    4
 10
1012.8740839031418
 20
595.11684598515114
 11
1013.2750639031422
 21
595.11684598515114
  0
ARC
  8
_0-3_躯体と製品
  6
CONTINUOUS
 62
    4
 10
1012.8740839031417
 20
595.61684398515126
 40
0.4999980000001186
 50
180.00000000001302
 51
270.00000000001307
  0
LINE
  8
_0-3_躯体と製品
  6
CONTINUOUS
 62
    4
 10
1012.3740879031423
 20
597.11683598515106
 11
1012.3740879031423
 21
595.61684398515115
  0
ARC
  8
_0-3_躯体と製品
  6
CONTINUOUS
 62
    4
 10
1012.8740839031417
 20
597.11683598515094
 40
0.4999980000001186
 50
89.999999999986969
 51
179.99999999998698
  0
LINE
  8
_0-3_躯体と製品
  6
CONTINUOUS
 62
    4
 10
1013.2750639031422
 20
597.61683398515106
 11
1012.8740839031418
 21
597.61683398515106
  0
LINE
  8
_0-3_躯体と製品
  6
CONTINUOUS
 62
    4
 10
1023.8740279031418
 20
595.11684598515114
 11
1023.4730499031423
 21
595.11684598515114
  0
ARC
  8
_0-3_躯体と製品
  6
CONTINUOUS
 62
    4
 10
1023.8740279031417
 20
595.61684398515104
 40
0.4999979999998912
 50
270.00000000001302
 51
0.0000000000130402
  0
LINE
  8
_0-3_躯体と製品
  6
CONTINUOUS
 62
    4
 10
1024.3740259031422
 20
597.11683598515106
 11
1024.3740259031422
 21
595.61684398515115
  0
ARC
  8
_0-3_躯体と製品
  6
CONTINUOUS
 62
    4
 10
1023.8740279031417
 20
597.11683598515117
 40
0.4999979999998912
 50
359.99999999998698
 51
89.999999999986997
  0
LINE
  8
_0-3_躯体と製品
  6
CONTINUOUS
 62
    4
 10
1023.4730499031423
 20
597.61683398515106
 11
1023.8740279031418
 21
597.61683398515106
  0
ARC
  8
_0-3_躯体と製品
  6
CONTINUOUS
 62
    3
 10
1033.3740299031424
 20
595.36686598515098
 40
4.9999740000001225
 50
0.000000000000007
 51
179.99999999999997
  0
LINE
  8
_0-3_躯体と製品
  6
CONTINUOUS
 62
    3
 10
1038.3740039031429
 20
585.36683998515127
 11
1043.3740559031421
 21
585.36683998515127
  0
LINE
  8
_0-3_躯体と製品
  6
CONTINUOUS
 62
    3
 10
1038.3740039031429
 20
591.36683998515127
 11
1043.3740559031421
 21
591.36683998515127
  0
LINE
  8
_0-3_躯体と製品
  6
CONTINUOUS
 62
    3
 10
1008.3740559031422
 20
585.36683998515127
 11
1028.3740559031421
 21
585.36683998515127
  0
LINE
  8
_0-3_躯体と製品
  6
CONTINUOUS
 62
    3
 10
993.37405590314222
 20
585.36683998515127
 11
998.37410590314198
 21
585.36683998515127
  0
LINE
  8
_0-3_躯体と製品
  6
CONTINUOUS
 62
    3
 10
1017.0343604095862
 20
591.36683998515127
 11
1008.3740559031422
 21
591.36683998515127
  0
LINE
  8
_0-3_躯体と製品
  6
CONTINUOUS
 62
    3
 10
1019.7137519325789
 20
591.36683998515127
 11
1028.3740559031421
 21
591.36683998515127
  0
LINE
  8
_0-3_躯体と製品
  6
CONTINUOUS
 62
    3
 10
993.37405590314222
 20
591.36683998515127
 11
998.37410590314198
 21
591.36683998515127
  0
ARC
  8
_0-3_躯体と製品
  6
CONTINUOUS
 62
    3
 10
1003.3740819031417
 20
595.36686598515098
 40
4.9999740000000656
 50
0.000000000000007
 51
179.99999999999997
  0
LINE
  8
_0-3_躯体と製品
  6
CONTINUOUS
 62
    4
 10
1039.3740559031421
 20
605.36683998515105
 11
997.37405590314222
 21
605.36683998515105
  0
ARC
  8
_0-3_躯体と製品
  6
CONTINUOUS
 62
    4
 10
997.37405590314222
 20
601.36683998515105
 40
3.9999999999999996
 50
90
 51
180
  0
LINE
  8
_0-3_躯体と製品
  6
CONTINUOUS
 62
    3
 10
1028.3740559031421
 20
595.36686598515098
 11
1028.3740559031421
 21
530.36681398515111
  0
LINE
  8
_0-3_躯体と製品
  6
CONTINUOUS
 62
    3
 10
1008.3740559031422
 20
595.36686598515098
 11
1008.3740559031422
 21
530.36681398515111
  0
LINE
  8
_0-3_躯体と製品
  6
CONTINUOUS
 62
    3
 10
998.37410590314198
 20
595.36686598515098
 11
998.37410590314198
 21
530.36681398515111
  0
LINE
  8
_0-3_躯体と製品
  6
CONTINUOUS
 62
    3
 10
1038.3740039031429
 20
595.36686598515098
 11
1038.3740039031429
 21
530.36681398515111
  0
LINE
  8
_0-3_躯体と製品
  6
CONTINUOUS
 62
    4
 10
1043.3740559031421
 20
518.06683998515109
 11
1043.3740559031421
 21
601.36683998515105
  0
ARC
  8
_0-3_躯体と製品
  6
CONTINUOUS
 62
    4
 10
1039.3740559031421
 20
601.36683998515105
 40
3.9999999999999996
 50
0.0000000000000052
 51
90.000000000000014
  0
LINE
  8
_0-3_躯体と製品
  6
CONTINUOUS
 62
    4
 10
993.37405590314222
 20
518.06683998515109
 11
993.37405590314222
 21
601.36683998515105
  0
ARC
  8
_0-3_躯体と製品
  6
CONTINUOUS
 62
    4
 10
1036.8740570746972
 20
518.06683881358094
 40
1.4999988284452399
 50
270.00026082758075
 51
0.0000447507197901
  0
ARC
  8
_0-3_躯体と製品
  6
CONTINUOUS
 62
    3
 10
1033.3740299031424
 20
530.36681398515111
 40
4.9999740000001225
 50
180
 51
0
  0
LINE
  8
_0-3_躯体と製品
  6
CONTINUOUS
 62
    4
 10
999.87404790314224
 20
516.5668399851512
 11
1036.8740639031419
 21
516.5668399851512
  0
ARC
  8
_0-3_躯体と製品
  6
CONTINUOUS
 62
    3
 10
1003.3740819031417
 20
530.36681398515111
 40
4.9999740000000656
 50
180
 51
0
  0
ARC
  8
_0-3_躯体と製品
  6
CONTINUOUS
 62
    4
 10
999.87405473158697
 20
518.06683881358094
 40
1.4999988284452399
 50
179.99995524928022
 51
269.99973917241925
  0
LINE
  8
_0-3_躯体と製品
  6
CONTINUOUS
 62
    4
 10
993.37405590314222
 20
518.06683998515109
 11
1043.3740559031421
 21
518.06683998515109
  0
LINE
  8
_0-3_躯体と製品
  6
CONTINUOUS
 62
    4
 10
1012.3734905213253
 20
503.56684778745864
 11
1024.3740558254551
 21
503.56684785049754
  0
LINE
  8
_0-3_躯体と製品
  6
CONTINUOUS
 62
    4
 10
1004.3740558582259
 20
499.56684776440841
 11
1032.3740558956242
 21
499.56684776440841
  0
LINE
  8
_0-3_躯体と製品
  6
CONTINUOUS
 62
    4
 10
1032.3740558956242
 20
499.56684776440841
 11
1032.3740558956242
 21
503.56684776440841
  0
LINE
  8
_0-3_躯体と製品
  6
CONTINUOUS
 62
    4
 10
1032.3740558956242
 20
503.56684776440841
 11
1004.3740558582259
 21
503.56684776440841
  0
LINE
  8
_0-3_躯体と製品
  6
CONTINUOUS
 62
    4
 10
1004.3740558582259
 20
503.56684776440841
 11
1004.3740558582259
 21
499.56684776440841
  0
LINE
  8
_0-3_躯体と製品
  6
CONTINUOUS
 62
    4
 10
1006.3740558625916
 20
516.56684753535421
 11
1006.3740558625916
 21
505.06684776440841
  0
ARC
  8
_0-3_躯体と製品
  6
CONTINUOUS
 62
    4
 10
1012.374055840691
 20
516.31684787911308
 40
12.750000090903814
 50
241.92751339355425
 51
298.07248660644575
  0
ARC
  8
_0-3_躯体と製品
  6
CONTINUOUS
 62
    4
 10
1024.374055840691
 20
516.31684858374433
 40
12.750000733249658
 50
241.927514709977
 51
298.072485290023
  0
LINE
  8
_0-3_躯体と製品
  6
CONTINUOUS
 62
    4
 10
1030.3740558625916
 20
505.06684776440841
 11
1030.3740558625916
 21
516.56684770753247
  0
LINE
  8
_0-3_躯体と製品
  6
CONTINUOUS
 62
    4
 10
1012.3734906727525
 20
486.56684797541118
 11
1024.374055976853
 21
486.56684803845008
  0
LINE
  8
_0-3_躯体と製品
  6
CONTINUOUS
 62
    4
 10
1006.3740560139897
 20
499.56684767831928
 11
1006.3740560139897
 21
488.06684800693063
  0
ARC
  8
_0-3_躯体と製品
  6
CONTINUOUS
 62
    4
 10
1012.374055985046
 20
499.31684751678722
 40
12.749999553899949
 50
241.92751214239453
 51
298.07248785760549
  0
ARC
  8
_0-3_躯体と製品
  6
CONTINUOUS
 62
    4
 10
1024.374055985046
 20
499.31684839055958
 40
12.750000352116722
 50
241.92751376065095
 51
298.07248623934902
  0
LINE
  8
_0-3_躯体と製品
  6
CONTINUOUS
 62
    4
 10
1030.3740560139897
 20
488.06684800693063
 11
1030.3740560139897
 21
499.56684785049754
  0
LINE
  8
_0-3_躯体と製品
  6
CONTINUOUS
 62
    4
 10
1018.3740558187902
 20
505.06684776440841
 11
1018.3740557255124
 21
516.56684762144334
  0
LINE
  8
_0-3_躯体と製品
  6
CONTINUOUS
 62
    4
 10
1018.3740559453338
 20
488.06684800693063
 11
1018.3740558661714
 21
499.56684776440841
  0
LINE
  8
_0-3_躯体と製品
  6
CONTINUOUS
 62
    4
 10
1026.3740559031421
 20
486.72468776155733
 11
1026.3740559031421
 21
318.20900088440123
  0
LINE
  8
_0-3_躯体と製品
  6
CONTINUOUS
 62
    4
 10
1010.3740559031422
 20
486.72468772202478
 11
1010.3740559031422
 21
318.20900170065397
  0
LINE
  8
_0-3_躯体と製品
  6
CONTINUOUS
 62
    3
 10
1024.8740559031421
 20
486.57665572871645
 11
1024.8740559031421
 21
318.35703320964024
  0
LINE
  8
_0-3_躯体と製品
  6
CONTINUOUS
 62
    3
 10
1011.8740559031422
 20
486.57665566020421
 11
1011.8740559031422
 21
318.35703347007632
  0
TEXT
  8
_0-4_文字-記号
 62
    7
 10
181.96328826149693
 20
2026.8950490052298
 40
45
 41
0.8
 50
0
  1
巾木
  0
LINE
  8
_0-4_文字-記号
  6
CONTINUOUS
 62
    7
 10
89.527258335007218
 20
1898.9493629955659
 11
159.81980338778658
 21
2020.6996224203072
  0
LINE
  8
_0-4_文字-記号
  6
CONTINUOUS
 62
    7
 10
159.81980338778658
 20
2020.6996224203072
 11
280.74253604819705
 21
2020.6996224203072
  0
LINE
  8
_0-4_文字-記号
  6
CONTINUOUS
 62
    7
 10
104.16827444427463
 20
1913.590379171254
 11
89.527258335005627
 21
1898.949362995565
  0
LINE
  8
_0-4_文字-記号
  6
CONTINUOUS
 62
    7
 10
89.527258335005627
 20
1898.949362995565
 11
94.886242225736169
 21
1918.9493629712529
  0
TEXT
  8
_0-4_文字-記号
 62
    7
 10
157.73866909388835
 20
1908.8445477503501
 40
45
 41
0.8
 50
0
  1
または巾木のみ込み
  0
LINE
  8
_0-4_文字-記号
  6
CONTINUOUS
 62
    7
 10
106.92385902517435
 20
1833.282896452205
 11
92.282842915904894
 21
1818.6418802765161
  0
LINE
  8
_0-4_文字-記号
  6
CONTINUOUS
 62
    7
 10
92.282842915904894
 20
1818.6418802765161
 11
97.641826806635436
 21
1838.6418802522048
  0
LINE
  8
_0-4_文字-記号
  6
CONTINUOUS
 62
    7
 10
92.282842915904894
 20
1818.6418802765161
 11
102.28284291590489
 21
1835.9623883522049
  0
LINE
  8
_0-4_文字-記号
  6
CONTINUOUS
 62
    7
 10
102.28284291590489
 20
1835.9623883522049
 11
139.98910083630062
 21
1901.2715428336269
  0
LINE
  8
_0-4_文字-記号
  6
CONTINUOUS
 62
    7
 10
139.98910083630062
 20
1901.2715428336269
 11
532.46607744362041
 21
1901.2715428336269
  0
TEXT
  8
_0-4_文字-記号
 62
    7
 10
165.22844748669831
 20
1962.4569495480928
 40
45
 41
0.8
 50
0
  1
ｴｷｽﾊﾟﾝｼｮﾝｺﾞﾑ取付
  0
TEXT
  8
_0-4_文字-記号
 62
    7
 10
181.96328826149647
 20
857.6200087138651
 40
45
 41
0.8
 50
0
  1
巾木
  0
LINE
  8
_0-4_文字-記号
  6
CONTINUOUS
 62
    7
 10
89.527258335006991
 20
729.67432270420124
 11
159.81980338778612
 21
851.42458212894132
  0
LINE
  8
_0-4_文字-記号
  6
CONTINUOUS
 62
    7
 10
159.81980338778612
 20
851.42458212894132
 11
280.7425360481966
 21
851.42458212894132
  0
LINE
  8
_0-4_文字-記号
  6
CONTINUOUS
 62
    7
 10
104.16827444427418
 20
744.3153388798886
 11
89.527258335005172
 21
729.67432270419954
  0
LINE
  8
_0-4_文字-記号
  6
CONTINUOUS
 62
    7
 10
89.527258335005172
 20
729.67432270419954
 11
94.886242225735941
 21
749.67432267988841
  0
TEXT
  8
_0-4_文字-記号
 62
    7
 10
157.73866909388789
 20
739.56950745898439
 40
45
 41
0.8
 50
0
  1
または巾木のみ込み
  0
LINE
  8
_0-4_文字-記号
  6
CONTINUOUS
 62
    7
 10
106.92385902517412
 20
664.00785616084011
 11
92.282842915904666
 21
649.36683998515127
  0
LINE
  8
_0-4_文字-記号
  6
CONTINUOUS
 62
    7
 10
92.282842915904666
 20
649.36683998515127
 11
97.641826806634981
 21
669.36683996083991
  0
LINE
  8
_0-4_文字-記号
  6
CONTINUOUS
 62
    7
 10
92.282842915904666
 20
649.36683998515127
 11
102.28284291590467
 21
666.68734806084001
  0
LINE
  8
_0-4_文字-記号
  6
CONTINUOUS
 62
    7
 10
102.28284291590467
 20
666.68734806084001
 11
139.98910083630017
 21
731.99650254226151
  0
LINE
  8
_0-4_文字-記号
  6
CONTINUOUS
 62
    7
 10
139.98910083630017
 20
731.99650254226151
 11
532.46607744362018
 21
731.99650254226151
  0
TEXT
  8
_0-4_文字-記号
 62
    7
 10
165.22844748669786
 20
793.18190925672775
 40
45
 41
0.8
 50
0
  1
ｴｷｽﾊﾟﾝｼｮﾝｺﾞﾑ取付
  0
TEXT
  8
_0-4_文字-記号
 62
    7
 10
2636.003517260584
 20
1941.2954380635128
 40
45
 41
0.8
 50
0
  1
２００×１０００
  0
ENDSEC
  0
EOF
