  0
SECTION
  2
HEADER
  9
$ACADVER
  1
AC1009
  9
$INSBASE
 10
0
 20
0
 30
0
  9
$EXTMIN
 10
0
 20
0
  9
$EXTMAX
 10
840
 20
594
  9
$LIMMIN
 10
0
 20
0
  9
$LIMMAX
 10
840
 20
594
  9
$LTSCALE
 40
2
  0
ENDSEC
  0
SECTION
  2
TABLES
  0
TABLE
  2
LTYPE
 70
     9
  0
LTYPE
  2
CONTINUOUS
 70
    64
  3
実線
 72
    65
 73
     0
 40
0.0
  0
LTYPE
  2
DASHED1
 70
    64
  3
--  --  --  --  --  --  --  --  
 72
    65
 73
     2
 40
2.5
 49
1.25
 49
-1.25
  0
LTYPE
  2
DASHED2
 70
    64
  3
----    ----    ----    ----    
 72
    65
 73
     2
 40
5.0
 49
2.5
 49
-2.5
  0
LTYPE
  2
DASHED3
 70
    64
  3
------  ------  ------  ------  
 72
    65
 73
     2
 40
5.0
 49
3.75
 49
-1.25
  0
LTYPE
  2
CENTER1
 70
    64
  3
----- - ----- - ----- - ----- - 
 72
    65
 73
     4
 40
10.0
 49
6.25
 49
-1.25
 49
1.25
 49
-1.25
  0
LTYPE
  2
CENTER2
 70
    64
  3
----------  --  ----------  --  
 72
    65
 73
     4
 40
20.0
 49
12.5
 49
-2.5
 49
2.5
 49
-2.5
  0
LTYPE
  2
PHANTOM1
 70
    64
  3
--- - - --- - - --- - - --- - - 
 72
    65
 73
     6
 40
10.0
 49
3.25
 49
-1.25
 49
1.25
 49
-1.25
 49
1.25
 49
-1.25
  0
LTYPE
  2
PHANTOM2
 70
    64
  3
--------  -  -  --------  -  -  
 72
    65
 73
     6
 40
20.0
 49
10.0
 49
-2.5
 49
1.25
 49
-2.5
 49
1.25
 49
-2.5
  0
LTYPE
  2
DOT
 70
    64
  3
-   -   -   -   -   -   -   -   
 72
    65
 73
     2
 40
2.5
 49
0.625
 49
-1.875
  0
LTYPE
  2
DUMMY
 70
    64
  3
ダミー
 72
    65
 73
     0
 40
0.0
  0
LTYPE
  2
RAND1
 70
    64
  3
ランダム線1
 72
    65
 73
     4
 40
10.0
 49
1.0
 49
-2.0
 49
3.0
 49
-4.0
  0
LTYPE
  2
RAND2
 70
    64
  3
ランダム線2
 72
    65
 73
     4
 40
14.0
 49
2.0
 49
-3.0
 49
4.0
 49
-5.0
  0
LTYPE
  2
RAND3
 70
    64
  3
ランダム線3
 72
    65
 73
     4
 40
18.0
 49
3.0
 49
-4.0
 49
5.0
 49
-6.0
  0
LTYPE
  2
RAND4
 70
    64
  3
ランダム線4
 72
    65
 73
     4
 40
22.0
 49
4.0
 49
-5.0
 49
6.0
 49
-7.0
  0
LTYPE
  2
RAND5
 70
    64
  3
ランダム線5
 72
    65
 73
     4
 40
26.0
 49
5.0
 49
-6.0
 49
7.0
 49
-8.0
  0
LTYPE
  2
LONG1
 70
    64
  3
----------  --  ----------  --  
 72
    65
 73
     4
 40
40.0
 49
32.5
 49
-2.5
 49
2.5
 49
-2.5
  0
LTYPE
  2
LONG2
 70
    64
  3
--------  -  -  --------  -  -  
 72
    65
 73
     6
 40
40.0
 49
30.0
 49
-2.5
 49
1.25
 49
-2.5
 49
1.25
 49
-2.5
  0
LTYPE
  2
LONG3
 70
    64
  3
+++++++++++++++..+++++++++++++++
 72
    65
 73
     2
 40
40.0
 49
37.5
 49
-2.5
  0
LTYPE
  2
LONG4
 70
    64
  3
+++++++++++++++..+++++++++++++++
 72
    65
 73
     2
 40
80.0
 49
75.0
 49
-5.0
  0
LTYPE
  2
LONG5
 70
    64
  3
----------  --  ----------  --  
 72
    65
 73
     4
 40
60.0
 49
37.5
 49
-7.5
 49
7.5
 49
-7.5
  0
LTYPE
  2
dashed
 70
   64
  3
-------   -------------   ------
 72
   65
 73
    2
 40
7.5
 49
6
 49
-1.5
  0
LTYPE
  2
dashed_spaced
 70
   64
  3
----        --------        ----
 72
   65
 73
    2
 40
12
 49
6
 49
-6
  0
LTYPE
  2
long_dashed_dotted
 70
   64
  3
------------- --- --------------
 72
   65
 73
    4
 40
15.25
 49
12
 49
-1.5
 49
0.25
 49
-1.5
  0
LTYPE
  2
long_dashed_double-dotted
 70
   64
  3
----------- --- --- ------------
 72
   65
 73
    6
 40
17
 49
12
 49
-1.5
 49
0.25
 49
-1.5
 49
0.25
 49
-1.5
  0
LTYPE
  2
long_dashed_triplicate-dotted
 70
   64
  3
--------- --- --- --- ----------
 72
   65
 73
    8
 40
18.75
 49
12
 49
-1.5
 49
0.25
 49
-1.5
 49
0.25
 49
-1.5
 49
0.25
 49
-1.5
  0
LTYPE
  2
dotted
 70
   64
  3
   -       -       -       -    
 72
   65
 73
    2
 40
1.75
 49
0.25
 49
-1.5
  0
LTYPE
  2
chain
 70
   64
  3
-------------- -- --------------
 72
   65
 73
    4
 40
18.5
 49
12
 49
-1.5
 49
3.5
 49
-1.5
  0
LTYPE
  2
chain_double_dash
 70
   64
  3
------------ -- -- -------------
 72
   65
 73
    6
 40
23.5
 49
12
 49
-1.5
 49
3.5
 49
-1.5
 49
3.5
 49
-1.5
  0
LTYPE
  2
dashed_dotted
 70
   64
  3
-----------     -     ----------
 72
   65
 73
    4
 40
9.25
 49
6
 49
-1.5
 49
0.25
 49
-1.5
  0
LTYPE
  2
double-dashed_dotted
 70
   64
  3
------   -----------   -   -----
 72
   65
 73
    6
 40
16.75
 49
6
 49
-1.5
 49
6
 49
-1.5
 49
0.25
 49
-1.5
  0
LTYPE
  2
dashed_double-dotted
 70
   64
  3
---------    -    -    ---------
 72
   65
 73
    6
 40
11
 49
6
 49
-1.5
 49
0.25
 49
-1.5
 49
0.25
 49
-1.5
  0
LTYPE
  2
double-dashed_double-dotted
 70
   64
  3
-----   ---------   -   -   ----
 72
   65
 73
    8
 40
18.5
 49
6
 49
-1.5
 49
6
 49
-1.5
 49
0.25
 49
-1.5
 49
0.25
 49
-1.5
  0
LTYPE
  2
dashed_triplicate-dotted
 70
   64
  3
-------    -    -    -    ------
 72
   65
 73
    8
 40
12.75
 49
6
 49
-1.5
 49
0.25
 49
-1.5
 49
0.25
 49
-1.5
 49
0.25
 49
-1.5
  0
LTYPE
  2
double-dashed_triplicate-dotted
 70
   64
  3
-----  ---------  -  -  -  -----
 72
   65
 73
   10
 40
20.25
 49
6
 49
-1.5
 49
6
 49
-1.5
 49
0.25
 49
-1.5
 49
0.25
 49
-1.5
 49
0.25
 49
-1.5
  0
LTYPE
  2
undefined
 70
   64
  3
--------------------------------
 72
   65
 73
    0
 40
0
  0
LTYPE
  2
PLINE2
 70
   64
  3
------     -----------     -----
 72
   65
 73
    2
 40
3
 49
2.1000000000000001
 49
-0.9
  0
ENDTAB
  0
TABLE
  2
STYLE
  5
3
100
AcDbSymbolTable
 70
     1
  0
STYLE
  5
10
100
AcDbSymbolTableRecord
100
AcDbTextStyleTableRecord
  2
STANDARD
 70
     0
 40
0.0
 41
1.0
 50
0.0
 71
     0
 42
0.2
  3
txt
  4
bigfont.shx
  0
STYLE
  5
26
100
AcDbSymbolTableRecord
100
AcDbTextStyleTableRecord
  2
TATEGAKI
 70
    68
 40
0.0
 41
1.0
 50
0.0
 71
     0
 42
1.0
  3
txt
  4
bigfont.shx
  0
ENDTAB
  0
TABLE
  2
LAYER
 70
    6
  0
LAYER
  2
_0-0_0
 70
   64
 62
    7
  6
CONTINUOUS
  0
LAYER
  2
_0-2_寸法
 70
   64
 62
    7
  6
CONTINUOUS
  0
LAYER
  2
_0-3_躯体と製品
 70
   64
 62
    7
  6
CONTINUOUS
  0
LAYER
  2
_0-4_文字-記号
 70
   64
 62
    7
  6
CONTINUOUS
  0
LAYER
  2
_0-5_中心線
 70
   64
 62
    7
  6
CONTINUOUS
  0
LAYER
  2
ADD_LINE
 70
   64
 62
    7
  6
CONTINUOUS
  0
ENDTAB
  0
ENDSEC
  0
SECTION
  2
BLOCKS
  0
BLOCK
  2
-000-_Small
 70
   64
 10
0
 20
0
 30
0
  0
CIRCLE
  8
_0-0_0
  6
CONTINUOUS
 62
    7
 10
0
 20
0
 40
0.25
  0
ENDBLK
  0
ENDSEC
  0
SECTION
  2
ENTITIES
  0
LINE
  8
_0-0_0
  6
CONTINUOUS
 62
    9
 10
10
 20
11
 11
830
 21
11
  0
LINE
  8
_0-0_0
  6
CONTINUOUS
 62
    9
 10
830
 20
11
 11
830
 21
583
  0
LINE
  8
_0-0_0
  6
CONTINUOUS
 62
    9
 10
830
 20
583
 11
10
 21
583
  0
LINE
  8
_0-0_0
  6
CONTINUOUS
 62
    9
 10
10
 20
583
 11
10
 21
11
  0
LINE
  8
_0-5_中心線
  6
CENTER1
 62
    7
 10
181.3218026847876
 20
102.72637301530074
 11
181.3218026847876
 21
352.66255749899346
  0
LINE
  8
_0-3_躯体と製品
  6
CONTINUOUS
 62
    7
 10
167.32180418191774
 20
190.12624369897878
 11
195.32180421928751
 21
190.12624369897878
  0
LINE
  8
_0-3_躯体と製品
  6
CONTINUOUS
 62
    7
 10
195.32180421928751
 20
190.12624369897878
 11
195.32180421928751
 21
186.1262436989789
  0
LINE
  8
_0-3_躯体と製品
  6
CONTINUOUS
 62
    7
 10
195.32180421928751
 20
186.1262436989789
 11
167.32180418191774
 21
186.1262436989789
  0
LINE
  8
_0-3_躯体と製品
  6
CONTINUOUS
 62
    7
 10
167.32180418191774
 20
186.1262436989789
 11
167.32180418191774
 21
190.12624369897878
  0
LINE
  8
_0-3_躯体と製品
  6
CONTINUOUS
 62
    7
 10
181.32180334975237
 20
190.12624369897878
 11
177.32180334975146
 21
186.1262436989789
  0
LINE
  8
_0-3_躯体と製品
  6
CONTINUOUS
 62
    7
 10
185.32180339716251
 20
190.12624372767527
 11
181.32180339716251
 21
186.12624372767527
  0
LINE
  8
_0-3_躯体と製品
  6
CONTINUOUS
 62
    7
 10
188.25000855505459
 20
201.6262430153007
 11
188.25000855505459
 21
190.12624301530082
  0
LINE
  8
_0-3_躯体と製品
  6
CONTINUOUS
 62
    7
 10
174.39360209450842
 20
201.6262430153007
 11
174.39360209450842
 21
190.12624301530082
  0
LINE
  8
_0-3_躯体と製品
  6
CONTINUOUS
 62
    7
 10
170.92950047937939
 20
203.12624301530082
 11
191.71411017021273
 21
203.12624301530082
  0
ARC
  8
_0-3_躯体と製品
  6
CONTINUOUS
 62
    7
 10
170.92950047937939
 20
198.37624301530764
 40
4.749999999988904
 50
43.17355110726993
 51
136.8264488927301
  0
ARC
  8
_0-3_躯体と製品
  6
CONTINUOUS
 62
    7
 10
181.32180532478151
 20
186.37624301530451
 40
16.749999999995538
 50
65.567302320547654
 51
114.43269767945236
  0
ARC
  8
_0-3_躯体と製品
  6
CONTINUOUS
 62
    7
 10
191.71411017019818
 20
198.37624301529536
 40
4.7500000000079048
 50
43.173551107257659
 51
136.82644889274232
  0
LINE
  8
_0-3_躯体と製品
  6
CONTINUOUS
 62
    7
 10
195.17821178534177
 20
201.6262430153007
 11
195.17821178534177
 21
190.12624301530082
  0
LINE
  8
_0-3_躯体と製品
  6
CONTINUOUS
 62
    7
 10
195.17821178534177
 20
190.12624301530082
 11
167.46539886425035
 21
190.12624301530082
  0
LINE
  8
_0-3_躯体と製品
  6
CONTINUOUS
 62
    7
 10
167.46539886425035
 20
190.12624301530082
 11
167.46539886425035
 21
201.6262430153007
  0
TEXT
  8
_0-4_文字-記号
 62
    7
 10
98.880343051193449
 20
231.00804737387432
 40
8
 41
1
 50
0
  1
調整ボルト Ｍ１６
  0
LINE
  8
_0-4_文字-記号
  6
CONTINUOUS
 62
    7
 10
97.735630051193766
 20
228.45397737387418
 11
163.85371578171953
 21
228.45397737387418
  0
LINE
  8
_0-4_文字-記号
  6
CONTINUOUS
 62
    7
 10
163.85371578171953
 20
228.45397737387418
 11
173.32180271864763
 21
212.05476974863382
  0
LINE
  8
_0-4_文字-記号
  6
CONTINUOUS
 62
    7
 10
156.85899181738841
 20
299.46484564177217
 11
141.76632263300371
 21
273.32357579258849
  0
LINE
  8
_0-4_文字-記号
  6
CONTINUOUS
 62
    7
 10
141.76632263300371
 20
273.32357579258849
 11
109.68795116118235
 21
273.32357579258849
  0
TEXT
  8
_0-4_文字-記号
 62
    7
 10
113.86835359964653
 20
275.71300979258842
 40
8
 41
1
 50
0
  1
大引鋼
  0
LINE
  8
_0-4_文字-記号
  6
CONTINUOUS
 62
    7
 10
109.05421083360443
 20
328.7263730153004
 11
98.210861675970591
 21
309.94514135006898
  0
LINE
  8
_0-4_文字-記号
  6
CONTINUOUS
 62
    7
 10
98.210861675970591
 20
309.94514135006898
 11
66.13249020414969
 21
309.94514135006898
  0
TEXT
  8
_0-4_文字-記号
 62
    7
 10
70.31289264261477
 20
312.33457535006892
 40
8
 41
1
 50
0
  1
根太鋼
  0
LINE
  8
_0-4_文字-記号
  6
CONTINUOUS
 62
    7
 10
199.20116902545851
 20
267.92964754196794
 11
216.70293976773746
 21
237.61569139391838
  0
LINE
  8
_0-4_文字-記号
  6
CONTINUOUS
 62
    7
 10
216.70293976773746
 20
237.61569139391838
 11
294.79683715014471
 21
237.61569139391838
  0
TEXT
  8
_0-4_文字-記号
 62
    7
 10
219.16387739145739
 20
240.18272169387728
 40
8
 41
1
 50
0
  1
メインクッションゴム
  0
LINE
  8
_0-3_躯体と製品
  6
CONTINUOUS
 62
    7
 10
215.12180268478733
 20
331.72637301530085
 11
336.21827068478751
 21
331.72637301530085
  0
LINE
  8
_0-3_躯体と製品
  6
CONTINUOUS
 62
    7
 10
215.12180268478733
 20
328.72637301530085
 11
336.21827068478751
 21
328.72637301530085
  0
LINE
  8
_0-3_躯体と製品
  6
CONTINUOUS
 62
    7
 10
56.410792684787339
 20
331.72637301530085
 11
147.52180348396359
 21
331.72637301530085
  0
LINE
  8
_0-3_躯体と製品
  6
CONTINUOUS
 62
    7
 10
56.410792684787339
 20
328.72637301530085
 11
147.52180340062932
 21
328.72637301530085
  0
LINE
  8
_0-3_躯体と製品
  6
CONTINUOUS
 62
    7
 10
56.410792684787339
 20
112.72637301530074
 11
336.21827068478751
 21
112.72637301530074
  0
LINE
  8
_0-3_躯体と製品
  6
CONTINUOUS
 62
    7
 10
210.61893033758452
 20
172.72082359287958
 11
153.14386268478756
 21
166.43663101530058
  0
LINE
  8
_0-3_躯体と製品
  6
CONTINUOUS
 62
    7
 10
209.48572068478734
 20
182.57233501530061
 11
152.06605868478755
 21
176.2942010153007
  0
LINE
  8
_0-3_躯体と製品
  6
CONTINUOUS
 62
    7
 10
216.3218026847876
 20
182.92629101530088
 11
146.3218026847876
 21
182.92629101530088
  0
LINE
  8
_0-3_躯体と製品
  6
CONTINUOUS
 62
    7
 10
121.32180268478669
 20
117.92637301530073
 11
121.32180268478669
 21
112.72637301530074
  0
LINE
  8
_0-3_躯体と製品
  6
CONTINUOUS
 62
    7
 10
241.3218026847876
 20
112.72637301530074
 11
241.3218026847876
 21
117.92637301530073
  0
LINE
  8
_0-3_躯体と製品
  6
CONTINUOUS
 62
    7
 10
176.01462833010555
 20
112.72637301530074
 11
160.96319833010557
 21
97.674941015300647
  0
LINE
  8
_0-3_躯体と製品
  6
CONTINUOUS
 62
    7
 10
166.11528633010676
 20
112.72637301530074
 11
151.06385633010541
 21
97.674941015300647
  0
LINE
  8
_0-3_躯体と製品
  6
CONTINUOUS
 62
    7
 10
156.21594433010569
 20
112.72637301530074
 11
141.16451233010639
 21
97.674941015300647
  0
LINE
  8
_0-3_躯体と製品
  6
CONTINUOUS
 62
    7
 10
121.32180268478669
 20
117.92637301530073
 11
241.3218026847876
 21
117.92637301530073
  0
LINE
  8
_0-3_躯体と製品
  6
CONTINUOUS
 62
    7
 10
174.82202668478749
 20
168.80687301530088
 11
174.82202668478749
 21
163.38228701530079
  0
LINE
  8
_0-3_躯体と製品
  6
CONTINUOUS
 62
    7
 10
174.82202668478749
 20
147.92637301530067
 11
174.82202668478749
 21
153.40687213366289
  0
LINE
  8
_0-3_躯体と製品
  6
CONTINUOUS
 62
    7
 10
187.82182668478754
 20
170.22824101530068
 11
187.82182668478754
 21
164.80365501530071
  0
LINE
  8
_0-3_躯体と製品
  6
CONTINUOUS
 62
    7
 10
187.82182668478754
 20
147.92637301530067
 11
187.82182668478754
 21
154.82824056359698
  0
LINE
  8
_0-3_躯体と製品
  6
CONTINUOUS
 62
    7
 10
216.3218026847876
 20
186.12624301530082
 11
146.3218026847876
 21
186.12624301530082
  0
LINE
  8
_0-3_躯体と製品
  6
CONTINUOUS
 62
    7
 10
174.82202668478749
 20
147.92637301530067
 11
187.82182668478754
 21
147.92637301530067
  0
LINE
  8
_0-3_躯体と製品
  6
CONTINUOUS
 62
    7
 10
173.32205068478743
 20
149.42634901530062
 11
189.3218026847876
 21
149.42634901530062
  0
LINE
  8
_0-3_躯体と製品
  6
CONTINUOUS
 62
    7
 10
173.32205068478743
 20
168.64286901530068
 11
173.32205068478743
 21
163.2182830153007
  0
LINE
  8
_0-3_躯体と製品
  6
CONTINUOUS
 62
    7
 10
173.32205068478743
 20
149.42634901530062
 11
173.32205068478743
 21
153.24286818498217
  0
LINE
  8
_0-3_躯体と製品
  6
CONTINUOUS
 62
    7
 10
174.82202668478749
 20
147.92637301530067
 11
173.32205068478743
 21
149.42634901530062
  0
LINE
  8
_0-3_躯体と製品
  6
CONTINUOUS
 62
    7
 10
189.3218026847876
 20
149.42634901530062
 11
187.82182668478754
 21
147.92637301530067
  0
LINE
  8
_0-3_躯体と製品
  6
CONTINUOUS
 62
    7
 10
189.3218026847876
 20
170.39224501530089
 11
189.3218026847876
 21
164.96765901530068
  0
LINE
  8
_0-3_躯体と製品
  6
CONTINUOUS
 62
    7
 10
189.3218026847876
 20
149.42634901530062
 11
189.3218026847876
 21
154.99224451227758
  0
LINE
  8
_0-3_躯体と製品
  6
CONTINUOUS
 62
    7
 10
121.32180268478669
 20
114.72637301530074
 11
241.3218026847876
 21
114.72637301530074
  0
LINE
  8
_0-3_躯体と製品
  6
CONTINUOUS
 62
    7
 10
173.63605865464842
 20
117.92637301530073
 11
211.41004668478763
 21
122.05649501530075
  0
LINE
  8
_0-3_躯体と製品
  6
CONTINUOUS
 62
    7
 10
209.58776083188059
 20
131.83266385068646
 11
152.06605868478755
 21
125.54337301530063
  0
LINE
  8
_0-3_躯体と製品
  6
CONTINUOUS
 62
    7
 10
152.35664645080351
 20
133.27514586359314
 11
211.73088874482755
 21
139.76698858451454
  0
LINE
  8
_0-3_躯体と製品
  6
CONTINUOUS
 62
    7
 10
209.28851198466873
 20
149.47535866884687
 11
152.06605868478755
 21
143.21878701530068
  0
LINE
  8
_0-3_躯体と製品
  6
CONTINUOUS
 62
    7
 10
211.89039668478745
 20
157.45984301530075
 11
152.42437193624437
 21
150.95796373783048
  0
LINE
  8
_0-3_躯体と製品
  6
CONTINUOUS
 62
    7
 10
209.64522468478754
 20
167.1897750153006
 11
152.22556268478866
 21
160.91164101530069
  0
LINE
  8
_0-3_躯体と製品
  6
CONTINUOUS
 62
    7
 10
336.21827068478751
 20
357.72637301530085
 11
56.410792684787339
 21
357.72637301530085
  0
LINE
  8
_0-3_躯体と製品
  6
CONTINUOUS
 62
    7
 10
336.21827068478751
 20
367.72637301530085
 11
56.410792684787339
 21
367.72637301530085
  0
LINE
  8
_0-3_躯体と製品
  6
CONTINUOUS
 62
    7
 10
56.410792684787339
 20
362.72637301530085
 11
336.21827068478751
 21
362.72637301530085
  0
LINE
  8
_0-3_躯体と製品
  6
CONTINUOUS
 62
    7
 10
56.410792684787339
 20
372.72637301530074
 11
336.21827068478751
 21
372.72637301530074
  0
LINE
  8
_0-3_躯体と製品
  6
CONTINUOUS
 62
    7
 10
173.07375268478836
 20
163.19113301530058
 11
151.96542868478764
 21
166.44103847953659
  0
LINE
  8
_0-3_躯体と製品
  6
CONTINUOUS
 62
    7
 10
189.56263668478778
 20
170.41857701530068
 11
209.64522468478754
 21
167.1897750153006
  0
LINE
  8
_0-3_躯体と製品
  6
CONTINUOUS
 62
    7
 10
146.3218026847876
 20
186.12629101530069
 11
146.3218026847876
 21
182.92629101530088
  0
LINE
  8
_0-3_躯体と製品
  6
CONTINUOUS
 62
    7
 10
216.3218026847876
 20
186.12629101530069
 11
216.3218026847876
 21
182.92629101530088
  0
LINE
  8
_0-3_躯体と製品
  6
CONTINUOUS
 62
    7
 10
174.82200268478755
 20
203.12682101530061
 11
174.82200268478755
 21
227.92637301530067
  0
LINE
  8
_0-3_躯体と製品
  6
CONTINUOUS
 62
    7
 10
187.82160268478765
 20
203.12682101530061
 11
187.82160268478765
 21
227.92637301530067
  0
LINE
  8
_0-3_躯体と製品
  6
CONTINUOUS
 62
    7
 10
173.3218026847876
 20
203.12682101530061
 11
173.3218026847876
 21
227.92637301530067
  0
LINE
  8
_0-3_躯体と製品
  6
CONTINUOUS
 62
    7
 10
189.3218026847876
 20
203.12682101530061
 11
189.32180268478851
 21
227.92637301530067
  0
ARC
  8
_0-3_躯体と製品
  6
CONTINUOUS
 62
    7
 10
152.57305865699982
 20
171.36195982868526
 40
4.9582941731644876
 50
95.769173373694727
 51
276.61059793931258
  0
ARC
  8
_0-3_躯体と製品
  6
CONTINUOUS
 62
    7
 10
210.04803207269435
 20
177.64610986919288
 40
4.9582627736431162
 50
275.86786132127713
 51
96.611744664312781
  0
ARC
  8
_0-3_躯体と製品
  6
CONTINUOUS
 62
    7
 10
152.71495244240771
 20
120.50907538185956
 40
5.0759448155736271
 50
97.344620917054982
 51
210.58473962586055
  0
ARC
  8
_0-3_躯体と製品
  6
CONTINUOUS
 62
    7
 10
209.99729619334119
 20
126.85108007318578
 40
4.9983893550369167
 50
286.41790198143303
 51
94.699710071454916
  0
ARC
  8
_0-3_躯体と製品
  6
CONTINUOUS
 62
    7
 10
152.60839668478866
 20
138.25856901530051
 40
4.9897780000001362
 50
96.239803000006077
 51
267.10801713894602
  0
ARC
  8
_0-3_躯体と製品
  6
CONTINUOUS
 62
    7
 10
209.97417053802917
 20
144.48644806597838
 40
5.0358074481864286
 50
290.41671018798502
 51
97.825507299938565
  0
ARC
  8
_0-3_躯体と製品
  6
CONTINUOUS
 62
    7
 10
152.78078288877703
 20
155.94390617948696
 40
4.9986657115320252
 50
96.377222711105262
 51
265.91125733951679
  0
ARC
  8
_0-3_躯体と製品
  6
CONTINUOUS
 62
    7
 10
210.13973209024516
 20
162.17988051279244
 40
5.0342408067464914
 50
290.34984593791694
 51
95.637185692818775
  0
ARC
  8
_0-3_躯体と製品
  6
CONTINUOUS
 62
    7
 10
210.00727668478817
 20
116.88862701529987
 40
4.9897780000008662
 50
12.003672259775065
 51
93.67640203888368
  0
ARC
  8
_0-3_躯体と製品
  6
CONTINUOUS
 62
    7
 10
152.61698468478744
 20
181.34586101530087
 40
4.9897780000002037
 50
161.53450281597691
 51
270.17520980629251
  0
LINE
  8
_0-3_躯体と製品
  6
CONTINUOUS
 62
    7
 10
182.38685884345068
 20
146.53399368411237
 11
152.42437068478739
 21
150.95796301530061
  0
LINE
  8
_0-3_躯体と製品
  6
CONTINUOUS
 62
    7
 10
189.3218026847876
 20
152.68552901530074
 11
209.28851198466964
 21
149.47535866884698
  0
LINE
  8
_0-3_躯体と製品
  6
CONTINUOUS
 62
    7
 10
182.37831268478749
 20
128.85764501530076
 11
152.35664645080442
 21
133.27514586359302
  0
LINE
  8
_0-3_躯体と製品
  6
CONTINUOUS
 62
    7
 10
181.08126391297174
 20
136.41582929092175
 11
209.58776083187968
 21
131.83266385068652
  0
LINE
  8
_0-3_躯体と製品
  6
CONTINUOUS
 62
    7
 10
168.40878668478763
 20
414.72651701530083
 11
168.40878668478763
 21
380.72623101530098
  0
LINE
  8
_0-3_躯体と製品
  6
CONTINUOUS
 62
    7
 10
184.40849868478745
 20
414.72651701530083
 11
184.40849868478745
 21
380.72623101530098
  0
ARC
  8
_0-3_躯体と製品
  6
CONTINUOUS
 62
    7
 10
64.410648684787589
 20
414.72651701530071
 40
7.999856000000249
 50
89.99999999999919
 51
179.99999999999918
  0
ARC
  8
_0-3_躯体と製品
  6
CONTINUOUS
 62
    7
 10
64.410648684787589
 20
414.72651701530094
 40
7.9998560000000216
 50
359.9999999999992
 51
89.99999999999919
  0
ARC
  8
_0-3_躯体と製品
  6
CONTINUOUS
 62
    7
 10
96.410076684787441
 20
414.72651701530094
 40
7.9998560000000216
 50
90.00000000000081
 51
180.00000000000085
  0
ARC
  8
_0-3_躯体と製品
  6
CONTINUOUS
 62
    7
 10
96.410076684787441
 20
414.72651701530071
 40
7.999856000000249
 50
0.0000000000008194
 51
90.00000000000081
  0
ARC
  8
_0-3_躯体と製品
  6
CONTINUOUS
 62
    7
 10
128.40950268478775
 20
414.72651701530094
 40
7.9998560000000216
 50
90.00000000000081
 51
180.00000000000085
  0
ARC
  8
_0-3_躯体と製品
  6
CONTINUOUS
 62
    7
 10
128.40950268478753
 20
414.72651701530094
 40
7.9998560000000216
 50
359.9999999999992
 51
89.99999999999919
  0
LINE
  8
_0-3_躯体と製品
  6
CONTINUOUS
 62
    7
 10
72.410506684787379
 20
414.72651701530083
 11
72.410506684787379
 21
380.72623101530098
  0
LINE
  8
_0-3_躯体と製品
  6
CONTINUOUS
 62
    7
 10
88.410218684787651
 20
414.72651701530083
 11
88.410218684787651
 21
380.72623101530098
  0
LINE
  8
_0-3_躯体と製品
  6
CONTINUOUS
 62
    7
 10
104.40993268478769
 20
414.72651701530083
 11
104.40993268478769
 21
380.72623101530098
  0
LINE
  8
_0-3_躯体と製品
  6
CONTINUOUS
 62
    7
 10
120.40964668478773
 20
414.72651701530083
 11
120.40964668478773
 21
380.72623101530098
  0
LINE
  8
_0-3_躯体と製品
  6
CONTINUOUS
 62
    7
 10
136.40935868478755
 20
414.72651701530083
 11
136.40935868478755
 21
380.72623101530098
  0
LINE
  8
_0-3_躯体と製品
  6
CONTINUOUS
 62
    7
 10
152.40907268478759
 20
414.72651701530083
 11
152.40907268478759
 21
380.72623101530098
  0
ARC
  8
_0-3_躯体と製品
  6
CONTINUOUS
 62
    7
 10
80.410362684787572
 20
380.72623101530115
 40
7.9998560000001913
 50
180.00000000000125
 51
270.00000000000125
  0
ARC
  8
_0-3_躯体と製品
  6
CONTINUOUS
 62
    7
 10
80.410362684787685
 20
380.72623101530093
 40
7.9998559999999657
 50
270.0000000000004
 51
0.0000000000004071
  0
ARC
  8
_0-3_躯体と製品
  6
CONTINUOUS
 62
    7
 10
112.40978868478766
 20
380.72623101530093
 40
7.9998559999999657
 50
179.9999999999996
 51
269.9999999999996
  0
ARC
  8
_0-3_躯体と製品
  6
CONTINUOUS
 62
    7
 10
112.40978868478754
 20
380.72623101530093
 40
7.9998559999999657
 50
270.0000000000004
 51
0.0000000000004071
  0
ARC
  8
_0-3_躯体と製品
  6
CONTINUOUS
 62
    7
 10
144.40921668478774
 20
380.72623101530093
 40
7.9998559999999657
 50
179.9999999999996
 51
269.9999999999996
  0
ARC
  8
_0-3_躯体と製品
  6
CONTINUOUS
 62
    7
 10
144.40921668478762
 20
380.72623101530093
 40
7.9998559999999657
 50
270.0000000000004
 51
0.0000000000004071
  0
ARC
  8
_0-3_躯体と製品
  6
CONTINUOUS
 62
    7
 10
160.40892868478761
 20
414.72651701530094
 40
7.9998560000000216
 50
90.00000000000081
 51
180.00000000000085
  0
ARC
  8
_0-3_躯体と製品
  6
CONTINUOUS
 62
    7
 10
160.40892868478738
 20
414.72651701530094
 40
7.9998560000000216
 50
359.9999999999992
 51
89.99999999999919
  0
ARC
  8
_0-3_躯体と製品
  6
CONTINUOUS
 62
    7
 10
192.40835668478769
 20
414.72651701530094
 40
7.9998560000000216
 50
90.00000000000081
 51
180.00000000000085
  0
ARC
  8
_0-3_躯体と製品
  6
CONTINUOUS
 62
    7
 10
176.40864268478759
 20
380.72623101530093
 40
7.9998559999999657
 50
179.9999999999996
 51
269.9999999999996
  0
ARC
  8
_0-3_躯体と製品
  6
CONTINUOUS
 62
    7
 10
176.40864268478748
 20
380.72623101530093
 40
7.9998559999999657
 50
270.0000000000004
 51
0.0000000000004071
  0
LINE
  8
_0-3_躯体と製品
  6
CONTINUOUS
 62
    7
 10
248.40735268478738
 20
414.72651701530083
 11
248.40735268478738
 21
380.72623101530098
  0
LINE
  8
_0-3_躯体と製品
  6
CONTINUOUS
 62
    7
 10
264.40706468478766
 20
414.72651701530083
 11
264.40706468478766
 21
380.72623101530098
  0
LINE
  8
_0-3_躯体と製品
  6
CONTINUOUS
 62
    7
 10
280.4067786847877
 20
414.72651701530083
 11
280.4067786847877
 21
380.72623101530098
  0
LINE
  8
_0-3_躯体と製品
  6
CONTINUOUS
 62
    7
 10
296.40649268478774
 20
414.72651701530083
 11
296.40649268478774
 21
380.72623101530098
  0
LINE
  8
_0-3_躯体と製品
  6
CONTINUOUS
 62
    7
 10
312.40620468478755
 20
414.72651701530083
 11
312.40620468478755
 21
380.72623101530098
  0
LINE
  8
_0-3_躯体と製品
  6
CONTINUOUS
 62
    7
 10
200.40821268478749
 20
414.72651701530083
 11
200.40821268478749
 21
380.72623101530098
  0
LINE
  8
_0-3_躯体と製品
  6
CONTINUOUS
 62
    7
 10
216.40792668478753
 20
414.72651701530083
 11
216.40792668478753
 21
380.72623101530098
  0
LINE
  8
_0-3_躯体と製品
  6
CONTINUOUS
 62
    7
 10
232.40763868478734
 20
414.72651701530083
 11
232.40763868478734
 21
380.72623101530098
  0
ARC
  8
_0-3_躯体と製品
  6
CONTINUOUS
 62
    7
 10
256.40720868478763
 20
414.72651701530071
 40
7.999856000000249
 50
89.99999999999919
 51
179.99999999999918
  0
ARC
  8
_0-3_躯体と製品
  6
CONTINUOUS
 62
    7
 10
256.40720868478763
 20
414.72651701530094
 40
7.9998560000000216
 50
359.9999999999992
 51
89.99999999999919
  0
ARC
  8
_0-3_躯体と製品
  6
CONTINUOUS
 62
    7
 10
288.40663468478772
 20
414.72651701530094
 40
7.9998560000000216
 50
90.00000000000081
 51
180.00000000000085
  0
ARC
  8
_0-3_躯体と製品
  6
CONTINUOUS
 62
    7
 10
288.40663468478749
 20
414.72651701530094
 40
7.9998560000000216
 50
359.9999999999992
 51
89.99999999999919
  0
ARC
  8
_0-3_躯体と製品
  6
CONTINUOUS
 62
    7
 10
320.4060626847878
 20
414.72651701530094
 40
7.9998560000000216
 50
90.00000000000081
 51
180.00000000000085
  0
ARC
  8
_0-3_躯体と製品
  6
CONTINUOUS
 62
    7
 10
224.40778268478755
 20
414.72651701530094
 40
7.9998560000000216
 50
90.00000000000081
 51
180.00000000000085
  0
ARC
  8
_0-3_躯体と製品
  6
CONTINUOUS
 62
    7
 10
224.40778268478732
 20
414.72651701530094
 40
7.9998560000000216
 50
359.9999999999992
 51
89.99999999999919
  0
ARC
  8
_0-3_躯体と製品
  6
CONTINUOUS
 62
    7
 10
240.40749668478753
 20
380.72623101530093
 40
7.9998559999999657
 50
179.9999999999996
 51
269.9999999999996
  0
ARC
  8
_0-3_躯体と製品
  6
CONTINUOUS
 62
    7
 10
240.40749668478742
 20
380.72623101530093
 40
7.9998559999999657
 50
270.0000000000004
 51
0.0000000000004071
  0
ARC
  8
_0-3_躯体と製品
  6
CONTINUOUS
 62
    7
 10
272.40692268478739
 20
380.72623101530093
 40
7.9998559999999657
 50
179.9999999999996
 51
269.9999999999996
  0
ARC
  8
_0-3_躯体と製品
  6
CONTINUOUS
 62
    7
 10
272.4069226847875
 20
380.72623101530115
 40
7.9998560000001913
 50
269.99999999999875
 51
359.99999999999886
  0
ARC
  8
_0-3_躯体と製品
  6
CONTINUOUS
 62
    7
 10
304.40634868478725
 20
380.72623101530047
 40
7.9998559999995109
 50
179.99999999999633
 51
269.99999999999636
  0
ARC
  8
_0-3_躯体と製品
  6
CONTINUOUS
 62
    7
 10
304.40634868478668
 20
380.72623101530093
 40
7.9998559999999657
 50
270.0000000000004
 51
0.0000000000004071
  0
ARC
  8
_0-3_躯体と製品
  6
CONTINUOUS
 62
    7
 10
208.40806868478745
 20
380.72623101530093
 40
7.9998559999999657
 50
179.9999999999996
 51
269.9999999999996
  0
ARC
  8
_0-3_躯体と製品
  6
CONTINUOUS
 62
    7
 10
208.40806868478757
 20
380.72623101530115
 40
7.9998560000001913
 50
269.99999999999875
 51
359.99999999999886
  0
ARC
  8
_0-3_躯体と製品
  6
CONTINUOUS
 62
    7
 10
192.40835668478746
 20
414.72651701530094
 40
7.9998560000000216
 50
359.9999999999992
 51
89.99999999999919
  0
LINE
  8
_0-3_躯体と製品
  6
CONTINUOUS
 62
    7
 10
656.28738481831033
 20
414.72651701530083
 11
656.28738481831033
 21
380.72623101530098
  0
LINE
  8
_0-3_躯体と製品
  6
CONTINUOUS
 62
    7
 10
672.28709881831037
 20
414.72651701530083
 11
672.28709881831037
 21
380.72623101530098
  0
LINE
  8
_0-3_躯体と製品
  6
CONTINUOUS
 62
    7
 10
688.28681081831064
 20
414.72651701530083
 11
688.28681081831064
 21
380.72623101530098
  0
LINE
  8
_0-3_躯体と製品
  6
CONTINUOUS
 62
    7
 10
704.28652481831068
 20
414.72651701530083
 11
704.28652481831068
 21
380.72623101530098
  0
ARC
  8
_0-3_躯体と製品
  6
CONTINUOUS
 62
    7
 10
712.28638081831002
 20
414.7265170153014
 40
7.9998559999995669
 50
359.99999999999591
 51
89.999999999995921
  0
ARC
  8
_0-3_躯体と製品
  6
CONTINUOUS
 62
    7
 10
648.28752881831031
 20
414.72651701530094
 40
7.9998560000000216
 50
359.9999999999992
 51
89.99999999999919
  0
ARC
  8
_0-3_躯体と製品
  6
CONTINUOUS
 62
    7
 10
680.28695481831062
 20
414.72651701530071
 40
7.999856000000249
 50
89.99999999999919
 51
179.99999999999918
  0
ARC
  8
_0-3_躯体と製品
  6
CONTINUOUS
 62
    7
 10
680.28695481831062
 20
414.72651701530094
 40
7.9998560000000216
 50
359.9999999999992
 51
89.99999999999919
  0
ARC
  8
_0-3_躯体と製品
  6
CONTINUOUS
 62
    7
 10
712.2863808183107
 20
414.72651701530094
 40
7.9998560000000216
 50
90.00000000000081
 51
180.00000000000085
  0
ARC
  8
_0-3_躯体と製品
  6
CONTINUOUS
 62
    7
 10
664.28724081831047
 20
380.72623101530115
 40
7.9998560000001913
 50
180.00000000000125
 51
270.00000000000125
  0
ARC
  8
_0-3_躯体と製品
  6
CONTINUOUS
 62
    7
 10
664.28724081831024
 20
380.72623101530047
 40
7.9998559999995109
 50
270.00000000000364
 51
0.0000000000036767
  0
ARC
  8
_0-3_躯体と製品
  6
CONTINUOUS
 62
    7
 10
696.28666681831055
 20
380.72623101530093
 40
7.9998559999999657
 50
179.9999999999996
 51
269.9999999999996
  0
ARC
  8
_0-3_躯体と製品
  6
CONTINUOUS
 62
    7
 10
696.28666681831055
 20
380.72623101530093
 40
7.9998559999999657
 50
270.0000000000004
 51
0.0000000000004071
  0
ARC
  8
_0-3_躯体と製品
  6
CONTINUOUS
 62
    7
 10
648.28752881831053
 20
414.72651701530094
 40
7.9998560000000216
 50
90.00000000000081
 51
180.00000000000085
  0
LINE
  8
_0-3_躯体と製品
  6
CONTINUOUS
 62
    7
 10
720.2862368183105
 20
422.72637301530074
 11
360.29269081831171
 21
422.72637301530074
  0
LINE
  8
_0-3_躯体と製品
  6
CONTINUOUS
 62
    7
 10
720.2862368183105
 20
372.72637301530074
 11
360.29269081831171
 21
372.72637301530074
  0
LINE
  8
_0-3_躯体と製品
  6
CONTINUOUS
 62
    7
 10
720.2862368183105
 20
362.72637301530085
 11
360.29269081831171
 21
362.72637301530085
  0
LINE
  8
_0-3_躯体と製品
  6
CONTINUOUS
 62
    7
 10
720.01278481831059
 20
367.72637301530085
 11
360.29269081831171
 21
367.72637301530085
  0
LINE
  8
_0-3_躯体と製品
  6
CONTINUOUS
 62
    7
 10
720.2862368183105
 20
357.72637301530085
 11
360.29269081831171
 21
357.72637301530085
  0
LINE
  8
_0-3_躯体と製品
  6
PLINE2
 62
    7
 10
720.2862368183105
 20
278.32637301530087
 11
599.09132881831056
 21
278.32637301530087
  0
LINE
  8
_0-3_躯体と製品
  6
PLINE2
 62
    7
 10
720.2862368183105
 20
325.12637301530083
 11
599.09132881831056
 21
325.12637301530083
  0
LINE
  8
_0-3_躯体と製品
  6
CONTINUOUS
 62
    7
 10
720.2862368183105
 20
276.72637301530085
 11
599.09132881831056
 21
276.72637301530085
  0
LINE
  8
_0-3_躯体と製品
  6
CONTINUOUS
 62
    7
 10
720.2862368183105
 20
326.72637301530085
 11
599.09132881831056
 21
326.72637301530085
  0
LINE
  8
_0-3_躯体と製品
  6
CONTINUOUS
 62
    7
 10
560.28910481831053
 20
414.72651701530083
 11
560.28910481831053
 21
380.72623101530098
  0
LINE
  8
_0-3_躯体と製品
  6
CONTINUOUS
 62
    7
 10
576.28881881831057
 20
414.72651701530083
 11
576.28881881831057
 21
380.72623101530098
  0
ARC
  8
_0-3_躯体と製品
  6
CONTINUOUS
 62
    7
 10
456.29096881831049
 20
414.72651701530071
 40
7.999856000000249
 50
0.0000000000008194
 51
90.00000000000081
  0
ARC
  8
_0-3_躯体と製品
  6
CONTINUOUS
 62
    7
 10
488.29039481831057
 20
414.72651701530071
 40
7.999856000000249
 50
89.99999999999919
 51
179.99999999999918
  0
ARC
  8
_0-3_躯体と製品
  6
CONTINUOUS
 62
    7
 10
488.29039481831057
 20
414.72651701530094
 40
7.9998560000000216
 50
359.9999999999992
 51
89.99999999999919
  0
ARC
  8
_0-3_躯体と製品
  6
CONTINUOUS
 62
    7
 10
520.28982081831066
 20
414.72651701530094
 40
7.9998560000000216
 50
90.00000000000081
 51
180.00000000000085
  0
ARC
  8
_0-3_躯体と製品
  6
CONTINUOUS
 62
    7
 10
520.28982081831043
 20
414.72651701530094
 40
7.9998560000000216
 50
359.9999999999992
 51
89.99999999999919
  0
LINE
  8
_0-3_躯体と製品
  6
CONTINUOUS
 62
    7
 10
464.29082481831074
 20
414.72651701530083
 11
464.29082481831074
 21
380.72623101530098
  0
LINE
  8
_0-3_躯体と製品
  6
CONTINUOUS
 62
    7
 10
480.29053881831032
 20
414.72651701530083
 11
480.29053881831032
 21
380.72623101530098
  0
LINE
  8
_0-3_躯体と製品
  6
CONTINUOUS
 62
    7
 10
496.2902508183106
 20
414.72651701530083
 11
496.2902508183106
 21
380.72623101530098
  0
LINE
  8
_0-3_躯体と製品
  6
CONTINUOUS
 62
    7
 10
512.28996481831064
 20
414.72651701530083
 11
512.28996481831064
 21
380.72623101530098
  0
LINE
  8
_0-3_躯体と製品
  6
CONTINUOUS
 62
    7
 10
528.28967881831068
 20
414.72651701530083
 11
528.28967881831068
 21
380.72623101530098
  0
LINE
  8
_0-3_躯体と製品
  6
CONTINUOUS
 62
    7
 10
544.28939081831049
 20
414.72651701530083
 11
544.28939081831049
 21
380.72623101530098
  0
ARC
  8
_0-3_躯体と製品
  6
CONTINUOUS
 62
    7
 10
472.29068281831047
 20
380.72623101530093
 40
7.9998559999999657
 50
179.9999999999996
 51
269.9999999999996
  0
ARC
  8
_0-3_躯体と製品
  6
CONTINUOUS
 62
    7
 10
472.29068281831036
 20
380.72623101530093
 40
7.9998559999999657
 50
270.0000000000004
 51
0.0000000000004071
  0
ARC
  8
_0-3_躯体と製品
  6
CONTINUOUS
 62
    7
 10
504.29010881831056
 20
380.72623101530115
 40
7.9998560000001913
 50
180.00000000000125
 51
270.00000000000125
  0
ARC
  8
_0-3_躯体と製品
  6
CONTINUOUS
 62
    7
 10
504.29010881831067
 20
380.72623101530093
 40
7.9998559999999657
 50
270.0000000000004
 51
0.0000000000004071
  0
ARC
  8
_0-3_躯体と製品
  6
CONTINUOUS
 62
    7
 10
536.28953481831013
 20
380.72623101530047
 40
7.9998559999995109
 50
179.99999999999633
 51
269.99999999999636
  0
ARC
  8
_0-3_躯体と製品
  6
CONTINUOUS
 62
    7
 10
536.28953481831013
 20
380.72623101530138
 40
7.9998560000004204
 50
269.99999999999716
 51
359.99999999999716
  0
ARC
  8
_0-3_躯体と製品
  6
CONTINUOUS
 62
    7
 10
552.28924881831074
 20
414.72651701530094
 40
7.9998560000000216
 50
90.00000000000081
 51
180.00000000000085
  0
ARC
  8
_0-3_躯体と製品
  6
CONTINUOUS
 62
    7
 10
552.28924881831051
 20
414.72651701530094
 40
7.9998560000000216
 50
359.9999999999992
 51
89.99999999999919
  0
ARC
  8
_0-3_躯体と製品
  6
CONTINUOUS
 62
    7
 10
584.28867481831014
 20
414.7265170153014
 40
7.9998559999995669
 50
90.000000000004064
 51
180.00000000000406
  0
ARC
  8
_0-3_躯体と製品
  6
CONTINUOUS
 62
    7
 10
568.28896081831044
 20
380.72623101530093
 40
7.9998559999999657
 50
179.9999999999996
 51
269.9999999999996
  0
ARC
  8
_0-3_躯体と製品
  6
CONTINUOUS
 62
    7
 10
568.28896081831044
 20
380.72623101530093
 40
7.9998559999999657
 50
270.0000000000004
 51
0.0000000000004071
  0
LINE
  8
_0-3_躯体と製品
  6
CONTINUOUS
 62
    7
 10
640.28767081831074
 20
414.72651701530083
 11
640.28767081831074
 21
380.72623101530098
  0
LINE
  8
_0-3_躯体と製品
  6
CONTINUOUS
 62
    7
 10
592.28853081831039
 20
414.72651701530083
 11
592.28853081831039
 21
380.72623101530098
  0
LINE
  8
_0-3_躯体と製品
  6
CONTINUOUS
 62
    7
 10
608.28824481831043
 20
414.72651701530083
 11
608.28824481831043
 21
380.72623101530098
  0
LINE
  8
_0-3_躯体と製品
  6
CONTINUOUS
 62
    7
 10
624.28795881831047
 20
414.72651701530083
 11
624.28795881831047
 21
380.72623101530098
  0
ARC
  8
_0-3_躯体と製品
  6
CONTINUOUS
 62
    7
 10
616.28810081831045
 20
414.72651701530094
 40
7.9998560000000216
 50
90.00000000000081
 51
180.00000000000085
  0
ARC
  8
_0-3_躯体と製品
  6
CONTINUOUS
 62
    7
 10
616.28810081831045
 20
414.72651701530071
 40
7.999856000000249
 50
0.0000000000008194
 51
90.00000000000081
  0
ARC
  8
_0-3_躯体と製品
  6
CONTINUOUS
 62
    7
 10
632.28781481831038
 20
380.72623101530093
 40
7.9998559999999657
 50
179.9999999999996
 51
269.9999999999996
  0
ARC
  8
_0-3_躯体と製品
  6
CONTINUOUS
 62
    7
 10
632.28781481831061
 20
380.72623101530115
 40
7.9998560000001913
 50
269.99999999999875
 51
359.99999999999886
  0
ARC
  8
_0-3_躯体と製品
  6
CONTINUOUS
 62
    7
 10
600.28838881831052
 20
380.72623101530093
 40
7.9998559999999657
 50
179.9999999999996
 51
269.9999999999996
  0
ARC
  8
_0-3_躯体と製品
  6
CONTINUOUS
 62
    7
 10
600.28838881831052
 20
380.72623101530093
 40
7.9998559999999657
 50
270.0000000000004
 51
0.0000000000004071
  0
ARC
  8
_0-3_躯体と製品
  6
CONTINUOUS
 62
    7
 10
584.28867481830991
 20
414.72651701530049
 40
7.9998560000004764
 50
0.0000000000024476
 51
90.000000000002473
  0
LINE
  8
_0-3_躯体と製品
  6
PLINE2
 62
    7
 10
360.29269081831171
 20
278.32637301530087
 11
549.09209881831066
 21
278.32637301530087
  0
LINE
  8
_0-3_躯体と製品
  6
PLINE2
 62
    7
 10
360.29269081831171
 20
325.12637301530083
 11
549.09209881831066
 21
325.12637301530083
  0
LINE
  8
_0-3_躯体と製品
  6
CONTINUOUS
 62
    7
 10
360.29269081831171
 20
276.72637301530085
 11
549.09209881831066
 21
276.72637301530085
  0
LINE
  8
_0-3_躯体と製品
  6
CONTINUOUS
 62
    7
 10
360.29269081831171
 20
326.72637301530085
 11
549.09209881831066
 21
326.72637301530085
  0
LINE
  8
_0-3_躯体と製品
  6
CONTINUOUS
 62
    7
 10
328.40591868478759
 20
414.72651701530083
 11
328.40591868478759
 21
380.72623101530098
  0
ARC
  8
_0-3_躯体と製品
  6
CONTINUOUS
 62
    7
 10
336.40577468478762
 20
380.72623101530087
 40
7.9998560000000261
 50
179.99999999999901
 51
268.65695435884408
  0
LINE
  8
_0-3_躯体と製品
  6
CONTINUOUS
 62
    7
 10
664.50990881831058
 20
112.72637301530074
 11
649.45847681831037
 21
97.674941015300647
  0
LINE
  8
_0-3_躯体と製品
  6
CONTINUOUS
 62
    7
 10
674.40925081831074
 20
112.72637301530074
 11
659.35782081831076
 21
97.674941015300647
  0
LINE
  8
_0-3_躯体と製品
  6
CONTINUOUS
 62
    7
 10
684.30859281831044
 20
112.72637301530074
 11
669.25716281831046
 21
97.674941015300647
  0
LINE
  8
_0-3_躯体と製品
  6
CONTINUOUS
 62
    7
 10
720.2862368183105
 20
112.72637301530074
 11
360.29269081831171
 21
112.72637301530074
  0
LINE
  8
_0-3_躯体と製品
  6
CONTINUOUS
 62
    7
 10
475.74409081831072
 20
112.72637301530074
 11
460.69266081831074
 21
97.674941015300647
  0
LINE
  8
_0-3_躯体と製品
  6
CONTINUOUS
 62
    7
 10
485.64343281831043
 20
112.72637301530074
 11
470.59200281831045
 21
97.674941015300647
  0
LINE
  8
_0-3_躯体と製品
  6
CONTINUOUS
 62
    7
 10
495.54277481831059
 20
112.72637301530074
 11
480.49134481831061
 21
97.674941015300647
  0
LINE
  8
_0-3_躯体と製品
  6
CONTINUOUS
 62
    7
 10
580.59207324272165
 20
227.93619273975935
 11
580.59188524811634
 21
203.11643929240506
  0
LINE
  8
_0-3_躯体と製品
  6
CONTINUOUS
 62
    7
 10
582.09205039107565
 20
228.08423327158948
 11
582.09186097399242
 21
202.96842121762609
  0
LINE
  8
_0-3_躯体と製品
  6
CONTINUOUS
 62
    7
 10
567.59202728051741
 20
227.93618651381121
 11
567.59184009621777
 21
203.11643095723377
  0
LINE
  8
_0-3_躯体と製品
  6
CONTINUOUS
 62
    7
 10
566.09205039685958
 20
228.08420827187365
 11
566.09186097970542
 21
202.96838671026148
  0
ARC
  8
_0-3_躯体と製品
  6
CONTINUOUS
 62
    7
 10
320.40606268478757
 20
414.72651701530094
 40
7.9998560000000216
 50
359.9999999999992
 51
89.99999999999919
  0
LINE
  8
_0-3_躯体と製品
  6
CONTINUOUS
 62
    7
 10
56.410792684787339
 20
422.72637301530074
 11
336.21827068478751
 21
422.72637301530074
  0
LINE
  8
_0-5_中心線
  6
CENTER1
 62
    7
 10
574.0919718183095
 20
102.72637301530085
 11
574.0919718183095
 21
352.42004722607555
  0
ARC
  8
_0-3_躯体と製品
  6
CONTINUOUS
 62
    7
 10
424.2915428183104
 20
414.72651701530094
 40
7.9998560000000216
 50
359.9999999999992
 51
89.99999999999919
  0
ARC
  8
_0-3_躯体と製品
  6
CONTINUOUS
 62
    7
 10
456.29096881831049
 20
414.72651701530094
 40
7.9998560000000216
 50
90.00000000000081
 51
180.00000000000085
  0
LINE
  8
_0-3_躯体と製品
  6
CONTINUOUS
 62
    7
 10
432.29139881831043
 20
414.72651701530083
 11
432.29139881831043
 21
380.72623101530098
  0
LINE
  8
_0-3_躯体と製品
  6
CONTINUOUS
 62
    7
 10
448.29111281831047
 20
414.72651701530083
 11
448.29111281831047
 21
380.72623101530098
  0
ARC
  8
_0-3_躯体と製品
  6
CONTINUOUS
 62
    7
 10
440.29125681831061
 20
380.72623101530093
 40
7.9998559999999657
 50
179.9999999999996
 51
269.9999999999996
  0
ARC
  8
_0-3_躯体と製品
  6
CONTINUOUS
 62
    7
 10
440.2912568183105
 20
380.72623101530093
 40
7.9998559999999657
 50
270.0000000000004
 51
0.0000000000004071
  0
ARC
  8
_0-3_躯体と製品
  6
CONTINUOUS
 62
    7
 10
424.29154281831063
 20
414.72651701530094
 40
7.9998560000000216
 50
90.00000000000081
 51
180.00000000000085
  0
LINE
  8
_0-3_躯体と製品
  6
CONTINUOUS
 62
    7
 10
400.29197281831057
 20
414.72651701530083
 11
400.29197281831057
 21
380.72623101530098
  0
LINE
  8
_0-3_躯体と製品
  6
CONTINUOUS
 62
    7
 10
416.29168681831061
 20
414.72651701530083
 11
416.29168681831061
 21
380.72623101530098
  0
ARC
  8
_0-3_躯体と製品
  6
CONTINUOUS
 62
    7
 10
408.29183081831121
 20
380.72623101530047
 40
7.9998559999995109
 50
179.99999999999633
 51
269.99999999999636
  0
ARC
  8
_0-3_躯体と製品
  6
CONTINUOUS
 62
    7
 10
408.29183081831064
 20
380.72623101530093
 40
7.9998559999999657
 50
270.0000000000004
 51
0.0000000000004071
  0
TEXT
  8
_0-4_文字-記号
 62
    7
 10
491.65084549797075
 20
234.87956237538845
 40
8
 41
1
 50
0
  1
調整ボルト Ｍ１６
  0
LINE
  8
_0-4_文字-記号
  6
CONTINUOUS
 62
    7
 10
490.50613249797061
 20
232.32549237538819
 11
556.62421822849547
 21
232.32549237538819
  0
LINE
  8
_0-4_文字-記号
  6
CONTINUOUS
 62
    7
 10
556.62421822849547
 20
232.32549237538819
 11
566.09230516542448
 21
215.92628475014794
  0
LINE
  8
_0-4_文字-記号
  6
CONTINUOUS
 62
    7
 10
460.55673033270978
 20
276.72637301530085
 11
445.46406114832462
 21
250.58510316611716
  0
LINE
  8
_0-4_文字-記号
  6
CONTINUOUS
 62
    7
 10
445.46406114832462
 20
250.58510316611716
 11
413.38568967650372
 21
250.58510316611716
  0
TEXT
  8
_0-4_文字-記号
 62
    7
 10
417.56609211496834
 20
252.9745371661171
 40
8
 41
1
 50
0
  1
大引鋼
  0
ARC
  8
_0-3_躯体と製品
  6
CONTINUOUS
 62
    7
 10
392.29211681831055
 20
414.72651701530094
 40
7.9998560000000216
 50
359.9999999999992
 51
89.99999999999919
  0
ARC
  8
_0-3_躯体と製品
  6
CONTINUOUS
 62
    7
 10
392.29211681831077
 20
414.72651701530094
 40
7.9998560000000216
 50
90.00000000000081
 51
180.00000000000085
  0
LINE
  8
_0-3_躯体と製品
  6
CONTINUOUS
 62
    7
 10
368.29254681831071
 20
414.72651701530083
 11
368.29254681831071
 21
380.72623101530098
  0
LINE
  8
_0-3_躯体と製品
  6
CONTINUOUS
 62
    7
 10
384.29226081831075
 20
414.72651701530083
 11
384.29226081831075
 21
380.72623101530098
  0
ARC
  8
_0-3_躯体と製品
  6
CONTINUOUS
 62
    7
 10
376.29240481831158
 20
380.72623101530115
 40
7.9998560000001913
 50
180.00000000000125
 51
270.00000000000125
  0
ARC
  8
_0-3_躯体と製品
  6
CONTINUOUS
 62
    7
 10
376.29240481831124
 20
380.72623101530047
 40
7.9998559999995109
 50
270.00000000000364
 51
0.0000000000036767
  0
ARC
  8
_0-3_躯体と製品
  6
CONTINUOUS
 62
    7
 10
360.29269081831114
 20
414.7265170153014
 40
7.9998559999995669
 50
359.99999999999591
 51
89.999999999995921
  0
LINE
  8
_0-3_躯体と製品
  6
CONTINUOUS
 62
    7
 10
390.09197181831041
 20
326.72637301530085
 11
458.09197181831041
 21
326.72637301530085
  0
LINE
  8
_0-3_躯体と製品
  6
CONTINUOUS
 62
    7
 10
458.09197181831041
 20
326.72637301530085
 11
458.09197181831041
 21
333.72637301530085
  0
LINE
  8
_0-3_躯体と製品
  6
CONTINUOUS
 62
    7
 10
458.09197181831041
 20
333.72637301530085
 11
453.0919718183095
 21
333.72637301530085
  0
LINE
  8
_0-3_躯体と製品
  6
CONTINUOUS
 62
    7
 10
453.0919718183095
 20
333.72637301530085
 11
453.0919718183095
 21
331.72637301530085
  0
LINE
  8
_0-3_躯体と製品
  6
CONTINUOUS
 62
    7
 10
453.0919718183095
 20
331.72637301530085
 11
456.0919718183095
 21
331.72637301530085
  0
LINE
  8
_0-3_躯体と製品
  6
CONTINUOUS
 62
    7
 10
456.0919718183095
 20
331.72637301530085
 11
456.0919718183095
 21
328.72637301530085
  0
LINE
  8
_0-3_躯体と製品
  6
CONTINUOUS
 62
    7
 10
456.0919718183095
 20
328.72637301530085
 11
392.0919718183095
 21
328.72637301530085
  0
LINE
  8
_0-3_躯体と製品
  6
CONTINUOUS
 62
    7
 10
392.0919718183095
 20
328.72637301530085
 11
392.0919718183095
 21
331.72637301530085
  0
LINE
  8
_0-3_躯体と製品
  6
CONTINUOUS
 62
    7
 10
392.0919718183095
 20
331.72637301530085
 11
395.09197181831041
 21
331.72637301530085
  0
LINE
  8
_0-3_躯体と製品
  6
CONTINUOUS
 62
    7
 10
395.09197181831041
 20
331.72637301530085
 11
395.09197181831041
 21
333.72637301530085
  0
LINE
  8
_0-3_躯体と製品
  6
CONTINUOUS
 62
    7
 10
395.09197181831041
 20
333.72637301530085
 11
390.09197181831041
 21
333.72637301530085
  0
LINE
  8
_0-3_躯体と製品
  6
CONTINUOUS
 62
    7
 10
390.09197181831041
 20
333.72637301530085
 11
390.09197181831041
 21
326.72637301530085
  0
ARC
  8
_0-3_躯体と製品
  6
CONTINUOUS
 62
    7
 10
439.89197181830957
 20
356.02637301530069
 40
1.6999999999999318
 50
359.99999999999613
 51
89.999999999996191
  0
LINE
  8
_0-3_躯体と製品
  6
CONTINUOUS
 62
    7
 10
441.5919718183095
 20
356.02637301530058
 11
441.5919718183095
 21
330.42637301530078
  0
ARC
  8
_0-3_躯体と製品
  6
CONTINUOUS
 62
    7
 10
442.09197181830996
 20
330.42637301530124
 40
0.5000000000004547
 50
180.0000000000521
 51
270.00000000005213
  0
LINE
  8
_0-3_躯体と製品
  6
CONTINUOUS
 62
    7
 10
442.09197181831041
 20
329.92637301530078
 11
454.39197181830968
 21
329.92637301530078
  0
ARC
  8
_0-3_躯体と製品
  6
CONTINUOUS
 62
    7
 10
454.39197181830968
 20
330.42637301530078
 40
0.4999999999999998
 50
270
 51
0
  0
LINE
  8
_0-3_躯体と製品
  6
CONTINUOUS
 62
    7
 10
454.89197181830968
 20
330.42637301530078
 11
454.89197181830968
 21
331.72637301530085
  0
LINE
  8
_0-3_躯体と製品
  6
CONTINUOUS
 62
    7
 10
454.89197181830968
 20
331.72637301530085
 11
456.0919718183095
 21
331.72637301530085
  0
LINE
  8
_0-3_躯体と製品
  6
CONTINUOUS
 62
    7
 10
456.0919718183095
 20
331.72637301530085
 11
456.0919718183095
 21
330.42637301530078
  0
ARC
  8
_0-3_躯体と製品
  6
CONTINUOUS
 62
    7
 10
454.39197181830963
 20
330.42637301530073
 40
1.6999999999998749
 50
270.00000000000188
 51
0.0000000000019464
  0
LINE
  8
_0-3_躯体と製品
  6
CONTINUOUS
 62
    7
 10
454.39197181830968
 20
328.72637301530085
 11
442.09197181831041
 21
328.72637301530085
  0
ARC
  8
_0-3_躯体と製品
  6
CONTINUOUS
 62
    7
 10
442.09197181831001
 20
330.42637301530118
 40
1.7000000000003297
 50
180.00000000001344
 51
270.00000000001342
  0
LINE
  8
_0-3_躯体と製品
  6
CONTINUOUS
 62
    7
 10
440.39197181830968
 20
330.42637301530078
 11
440.39197181830968
 21
356.02637301530058
  0
ARC
  8
_0-3_躯体と製品
  6
CONTINUOUS
 62
    7
 10
439.89197181830968
 20
356.02637301530058
 40
0.4999999999999998
 50
0.0000000000000052
 51
90.000000000000028
  0
LINE
  8
_0-3_躯体と製品
  6
CONTINUOUS
 62
    7
 10
439.89197181830968
 20
356.52637301530058
 11
408.29197181831069
 21
356.52637301530058
  0
ARC
  8
_0-3_躯体と製品
  6
CONTINUOUS
 62
    7
 10
408.29197181831069
 20
356.02637301530058
 40
0.4999999999999998
 50
90
 51
180
  0
LINE
  8
_0-3_躯体と製品
  6
CONTINUOUS
 62
    7
 10
407.79197181831069
 20
356.02637301530058
 11
407.79197181831069
 21
330.42637301530078
  0
ARC
  8
_0-3_躯体と製品
  6
CONTINUOUS
 62
    7
 10
406.09197181831058
 20
330.42637301530095
 40
1.7000000000001023
 50
269.9999999999942
 51
359.99999999999426
  0
LINE
  8
_0-3_躯体と製品
  6
CONTINUOUS
 62
    7
 10
406.09197181831041
 20
328.72637301530085
 11
393.79197181831069
 21
328.72637301530085
  0
ARC
  8
_0-3_躯体と製品
  6
CONTINUOUS
 62
    7
 10
393.79197181831006
 20
330.42637301530141
 40
1.7000000000005568
 50
180.00000000002106
 51
270.00000000002109
  0
LINE
  8
_0-3_躯体と製品
  6
CONTINUOUS
 62
    7
 10
392.0919718183095
 20
330.42637301530078
 11
392.0919718183095
 21
331.72637301530085
  0
LINE
  8
_0-3_躯体と製品
  6
CONTINUOUS
 62
    7
 10
392.0919718183095
 20
331.72637301530085
 11
393.29197181831069
 21
331.72637301530085
  0
LINE
  8
_0-3_躯体と製品
  6
CONTINUOUS
 62
    7
 10
393.29197181831069
 20
331.72637301530085
 11
393.29197181831069
 21
330.42637301530078
  0
ARC
  8
_0-3_躯体と製品
  6
CONTINUOUS
 62
    7
 10
393.79197181831069
 20
330.42637301530078
 40
0.4999999999999998
 50
180
 51
270
  0
LINE
  8
_0-3_躯体と製品
  6
CONTINUOUS
 62
    7
 10
393.79197181831069
 20
329.92637301530078
 11
406.09197181831041
 21
329.92637301530078
  0
ARC
  8
_0-3_躯体と製品
  6
CONTINUOUS
 62
    7
 10
406.09197181830996
 20
330.42637301530033
 40
0.4999999999995452
 50
270.00000000005213
 51
0.0000000000521102
  0
LINE
  8
_0-3_躯体と製品
  6
CONTINUOUS
 62
    7
 10
406.5919718183095
 20
330.42637301530078
 11
406.5919718183095
 21
356.02637301530058
  0
ARC
  8
_0-3_躯体と製品
  6
CONTINUOUS
 62
    7
 10
408.29197181831012
 20
356.02637301530001
 40
1.7000000000006139
 50
89.99999999998083
 51
179.99999999998087
  0
LINE
  8
_0-3_躯体と製品
  6
CONTINUOUS
 62
    7
 10
408.29197181831069
 20
357.72637301530062
 11
439.89197181830968
 21
357.72637301530062
  0
TEXT
  8
_0-4_文字-記号
 62
    7
 10
378.9527148183106
 20
348.57946101530058
 40
8
 41
1
 50
0
  1
根太鋼
  0
LINE
  8
_0-3_躯体と製品
  6
CONTINUOUS
 62
    7
 10
403.2929718182927
 20
330.57537301530579
 11
403.2929718182927
 21
330.12637301531254
  0
LINE
  8
_0-3_躯体と製品
  6
CONTINUOUS
 62
    7
 10
395.2929718182927
 20
330.57537301530579
 11
395.2929718182927
 21
330.12637301531254
  0
LINE
  8
_0-3_躯体と製品
  6
CONTINUOUS
 62
    7
 10
403.09297181830971
 20
329.92637301530078
 11
399.2929718182927
 21
329.92637301530078
  0
ARC
  8
_0-3_躯体と製品
  6
CONTINUOUS
 62
    7
 10
395.49297181829542
 20
330.1263730153035
 40
0.2000000000027405
 50
180.00000600051337
 51
269.99999700087204
  0
LINE
  8
_0-3_躯体と製品
  6
CONTINUOUS
 62
    7
 10
395.49297181830434
 20
329.92637301530078
 11
399.2929718182927
 21
329.92637301530078
  0
ARC
  8
_0-3_躯体と製品
  6
CONTINUOUS
 62
    7
 10
403.09297181830675
 20
330.12637301531538
 40
0.2000000000146088
 50
269.99999699930208
 51
359.99999999918259
  0
LINE
  8
_0-3_躯体と製品
  6
CONTINUOUS
 62
    7
 10
403.05797181830667
 20
331.72637301531836
 11
399.2929718182927
 21
331.72637301531836
  0
ARC
  8
_0-3_躯体と製品
  6
CONTINUOUS
 62
    7
 10
399.83997181826265
 20
328.1383730153031
 40
4.8189999999965529
 50
48.111754999080979
 51
96.517442000063127
  0
LINE
  8
_0-3_躯体と製品
  6
CONTINUOUS
 62
    7
 10
395.52797181830738
 20
331.72637301531836
 11
395.2929718182927
 21
330.57537301530579
  0
ARC
  8
_0-3_躯体と製品
  6
CONTINUOUS
 62
    7
 10
398.74597181831041
 20
328.13837301529685
 40
4.8190000000174269
 50
83.482563001153991
 51
131.88825099942318
  0
LINE
  8
_0-3_躯体と製品
  6
CONTINUOUS
 62
    7
 10
395.52797181830738
 20
331.72637301531836
 11
399.2929718182927
 21
331.72637301531836
  0
LINE
  8
_0-3_躯体と製品
  6
CONTINUOUS
 62
    7
 10
403.05797181830667
 20
331.72637301531836
 11
403.2929718182927
 21
330.57537301530579
  0
LINE
  8
_0-3_躯体と製品
  6
CONTINUOUS
 62
    7
 10
452.89297181829852
 20
330.57537301530579
 11
452.89297181829852
 21
330.12637301531254
  0
LINE
  8
_0-3_躯体と製品
  6
CONTINUOUS
 62
    7
 10
444.89297181829852
 20
330.57537301530579
 11
444.89297181829852
 21
330.12637301531254
  0
LINE
  8
_0-3_躯体と製品
  6
CONTINUOUS
 62
    7
 10
452.69297181828642
 20
329.92637301530078
 11
448.89297181829852
 21
329.92637301530078
  0
ARC
  8
_0-3_躯体と製品
  6
CONTINUOUS
 62
    7
 10
445.09297181830124
 20
330.1263730153035
 40
0.2000000000027405
 50
180.00000600051337
 51
269.99999700087204
  0
LINE
  8
_0-3_躯体と製品
  6
CONTINUOUS
 62
    7
 10
445.09297181830971
 20
329.92637301530078
 11
448.89297181829852
 21
329.92637301530078
  0
ARC
  8
_0-3_躯体と製品
  6
CONTINUOUS
 62
    7
 10
452.69297181828392
 20
330.12637301531538
 40
0.2000000000146088
 50
269.99999699930208
 51
359.99999999918259
  0
LINE
  8
_0-3_躯体と製品
  6
CONTINUOUS
 62
    7
 10
452.65797181831249
 20
331.72637301531836
 11
448.89297181829852
 21
331.72637301531836
  0
ARC
  8
_0-3_躯体と製品
  6
CONTINUOUS
 62
    7
 10
449.43997181826848
 20
328.1383730153031
 40
4.8189999999965529
 50
48.111754999080979
 51
96.517442000063127
  0
LINE
  8
_0-3_躯体と製品
  6
CONTINUOUS
 62
    7
 10
445.12797181828455
 20
331.72637301531836
 11
444.89297181829852
 21
330.57537301530579
  0
ARC
  8
_0-3_躯体と製品
  6
CONTINUOUS
 62
    7
 10
448.34597181828735
 20
328.1383730152973
 40
4.8190000000168984
 50
83.482563001155967
 51
131.88825099942517
  0
LINE
  8
_0-3_躯体と製品
  6
CONTINUOUS
 62
    7
 10
445.12797181828455
 20
331.72637301531836
 11
448.89297181829852
 21
331.72637301531836
  0
LINE
  8
_0-3_躯体と製品
  6
CONTINUOUS
 62
    7
 10
452.65797181831249
 20
331.72637301531836
 11
452.89297181829852
 21
330.57537301530579
  0
LINE
  8
_0-4_文字-記号
  6
CONTINUOUS
 62
    7
 10
376.13864781831035
 20
346.19002701530076
 11
401.3716628183106
 21
346.19002701530076
  0
LINE
  8
_0-4_文字-記号
  6
CONTINUOUS
 62
    7
 10
401.3716628183106
 20
346.19002701530076
 11
406.5919718183095
 21
338.41509873869688
  0
LINE
  8
_0-4_文字-記号
  6
CONTINUOUS
 62
    7
 10
209.47816259039973
 20
422.72637301530074
 11
228.24724486427158
 21
455.23537712508903
  0
LINE
  8
_0-4_文字-記号
  6
CONTINUOUS
 62
    7
 10
228.24724486427158
 20
455.23537712508903
 11
277.80264144597868
 21
455.23537712508903
  0
TEXT
  8
_0-4_文字-記号
 62
    7
 10
234.9675643026635
 20
457.06565840277779
 40
8
 41
1
 50
0
  1
畳敷き込み
  0
LINE
  8
_0-4_文字-記号
  6
CONTINUOUS
 62
    7
 10
203.08231018330434
 20
367.72637301530085
 11
244.95708862421361
 21
440.25561683064484
  0
LINE
  8
_0-4_文字-記号
  6
CONTINUOUS
 62
    7
 10
244.95708862421361
 20
440.25561683064484
 11
290.00004055024556
 21
440.25561683064484
  0
TEXT
  8
_0-4_文字-記号
 62
    7
 10
253.34351314697369
 20
442.08589810833359
 40
8
 41
1
 50
0
  1
捨板貼り
  0
ARC
  8
_0-3_躯体と製品
  6
CONTINUOUS
 62
    7
 10
200.82180268478766
 20
282.22637301530057
 40
5.4999999999999423
 50
269.99999999999943
 51
359.99999999999943
  0
ARC
  8
_0-3_躯体と製品
  6
CONTINUOUS
 62
    7
 10
200.82180268478817
 20
282.22637301530108
 40
3.9000000000004316
 50
269.99999999999164
 51
359.99999999999164
  0
ARC
  8
_0-3_躯体と製品
  6
CONTINUOUS
 62
    7
 10
161.82180268478754
 20
282.22637301530057
 40
5.4999999999999423
 50
180.00000000000063
 51
270.00000000000057
  0
ARC
  8
_0-3_躯体と製品
  6
CONTINUOUS
 62
    7
 10
161.82180268478749
 20
282.22637301530062
 40
3.8999999999999768
 50
180.00000000000168
 51
270.00000000000171
  0
ARC
  8
_0-3_躯体と製品
  6
CONTINUOUS
 62
    7
 10
200.82180268478754
 20
321.22637301530057
 40
5.5000000000000568
 50
359.99999999999943
 51
89.999999999999446
  0
ARC
  8
_0-3_躯体と製品
  6
CONTINUOUS
 62
    7
 10
200.82180268478805
 20
321.22637301530006
 40
3.9000000000005453
 50
0.0000000000066847
 51
90.000000000006708
  0
LINE
  8
_0-3_躯体と製品
  6
CONTINUOUS
 62
    7
 10
161.8218026847876
 20
278.32637301530076
 11
171.3218026847876
 21
278.32637301530076
  0
LINE
  8
_0-3_躯体と製品
  6
CONTINUOUS
 62
    7
 10
157.92180268478751
 20
282.22637301530051
 11
157.92180268478751
 21
321.22637301530051
  0
LINE
  8
_0-3_躯体と製品
  6
CONTINUOUS
 62
    7
 10
206.3218026847876
 20
332.13195901530071
 11
206.3218026847876
 21
282.22637301530051
  0
LINE
  8
_0-3_躯体と製品
  6
CONTINUOUS
 62
    7
 10
200.8218026847876
 20
326.72637301530062
 11
161.8218026847876
 21
326.72637301530062
  0
ARC
  8
_0-3_躯体と製品
  6
CONTINUOUS
 62
    7
 10
161.82180268478766
 20
321.22637301530057
 40
5.5000000000000568
 50
90.000000000000554
 51
180.0000000000006
  0
LINE
  8
_0-3_躯体と製品
  6
CONTINUOUS
 62
    7
 10
156.3218026847876
 20
332.17196501530066
 11
156.3218026847876
 21
282.22637301530051
  0
LINE
  8
_0-3_躯体と製品
  6
CONTINUOUS
 62
    7
 10
200.8218026847876
 20
276.72637301530062
 11
161.8218026847876
 21
276.72637301530062
  0
LINE
  8
_0-3_躯体と製品
  6
CONTINUOUS
 62
    7
 10
191.3218026847876
 20
276.72637301530062
 11
191.3218026847876
 21
278.32637301530076
  0
LINE
  8
_0-3_躯体と製品
  6
CONTINUOUS
 62
    7
 10
171.3218026847876
 20
278.32637301530076
 11
171.3218026847876
 21
276.72637301530062
  0
LINE
  8
_0-3_躯体と製品
  6
CONTINUOUS
 62
    7
 10
200.8218026847876
 20
325.12637301530071
 11
161.8218026847876
 21
325.12637301530071
  0
ARC
  8
_0-3_躯体と製品
  6
CONTINUOUS
 62
    7
 10
161.8218026847876
 20
321.22637301530051
 40
3.9000000000000905
 50
90
 51
180
  0
LINE
  8
_0-3_躯体と製品
  6
CONTINUOUS
 62
    7
 10
200.8218026847876
 20
278.32637301530076
 11
191.3218026847876
 21
278.32637301530076
  0
LINE
  8
_0-3_躯体と製品
  6
CONTINUOUS
 62
    7
 10
204.72180268478769
 20
321.22637301530051
 11
204.72180268478769
 21
282.22637301530051
  0
LINE
  8
_0-3_躯体と製品
  6
CONTINUOUS
 62
    7
 10
211.32180268478851
 20
333.71385342277677
 11
211.3218026847876
 21
346.72637301530062
  0
LINE
  8
_0-3_躯体と製品
  6
CONTINUOUS
 62
    7
 10
151.3218026847876
 20
333.7138534227762
 11
151.3218026847876
 21
346.72637301530062
  0
LINE
  8
_0-3_躯体と製品
  6
CONTINUOUS
 62
    7
 10
151.3218026847876
 20
325.73889260782494
 11
151.3218026847876
 21
264.02637301530058
  0
ARC
  8
_0-3_躯体と製品
  6
CONTINUOUS
 62
    7
 10
153.62180268478755
 20
264.02637301530046
 40
2.299999999999943
 50
179.99999999999687
 51
269.9999999999946
  0
LINE
  8
_0-3_躯体と製品
  6
CONTINUOUS
 62
    7
 10
153.62180268478733
 20
261.72637301530051
 11
209.02180268478742
 21
261.72637301530051
  0
ARC
  8
_0-3_躯体と製品
  6
CONTINUOUS
 62
    7
 10
209.02180268478742
 20
264.02637301530069
 40
2.3000000000001708
 50
269.99999999999977
 51
359.99999999999744
  0
LINE
  8
_0-3_躯体と製品
  6
CONTINUOUS
 62
    7
 10
211.3218026847876
 20
264.02637301530058
 11
211.32180268478851
 21
325.73889260782448
  0
LINE
  8
_0-3_躯体と製品
  6
CONTINUOUS
 62
    7
 10
149.02180268478833
 20
326.7263730153004
 11
149.02180268478833
 21
264.02637301530058
  0
ARC
  8
_0-3_躯体と製品
  6
CONTINUOUS
 62
    7
 10
153.62180268478818
 20
264.02637301530029
 40
4.5999999999998407
 50
179.99999999999631
 51
269.99999999998954
  0
LINE
  8
_0-3_躯体と製品
  6
CONTINUOUS
 62
    7
 10
153.62180268478733
 20
259.42637301530044
 11
209.02180268478742
 21
259.42637301530067
  0
ARC
  8
_0-3_躯体と製品
  6
CONTINUOUS
 62
    7
 10
209.02180268478713
 20
264.02637301530086
 40
4.6000000000001835
 50
270.00000000000341
 51
359.99999999999659
  0
LINE
  8
_0-3_躯体と製品
  6
CONTINUOUS
 62
    7
 10
213.62180268478733
 20
264.02637301530058
 11
213.62180268478733
 21
326.72637301530028
  0
LINE
  8
_0-3_躯体と製品
  6
CONTINUOUS
 62
    7
 10
206.3218026847876
 20
331.72637301530062
 11
201.3218026847876
 21
331.72637301530062
  0
LINE
  8
_0-3_躯体と製品
  6
CONTINUOUS
 62
    7
 10
156.3218026847876
 20
331.72637301530062
 11
161.3218026847876
 21
331.72637301530062
  0
LINE
  8
_0-3_躯体と製品
  6
CONTINUOUS
 62
    7
 10
161.3218026847876
 20
333.72637301530051
 11
201.3218026847876
 21
333.72637301530051
  0
LINE
  8
_0-3_躯体と製品
  6
CONTINUOUS
 62
    7
 10
206.02180268478833
 20
334.72597601530049
 11
206.02180268478833
 21
340.72677001530064
  0
LINE
  8
_0-3_躯体と製品
  6
CONTINUOUS
 62
    7
 10
206.02180268478833
 20
334.72637301530062
 11
205.52173668478736
 21
335.22643901530068
  0
LINE
  8
_0-3_躯体と製品
  6
CONTINUOUS
 62
    7
 10
206.02180268478833
 20
340.72637301530051
 11
205.52173668478736
 21
340.22630701530079
  0
LINE
  8
_0-3_躯体と製品
  6
CONTINUOUS
 62
    7
 10
201.3218026847876
 20
333.72637301530051
 11
201.3218026847876
 21
326.72637301530062
  0
LINE
  8
_0-3_躯体と製品
  6
CONTINUOUS
 62
    7
 10
206.3218026847876
 20
328.72637301530051
 11
201.3218026847876
 21
328.72637301530051
  0
LINE
  8
_0-3_躯体と製品
  6
CONTINUOUS
 62
    7
 10
147.52180372007069
 20
340.22617505785968
 11
147.52180172007047
 21
268.22657101530069
  0
ARC
  8
_0-3_躯体と製品
  6
CONTINUOUS
 62
    7
 10
149.02200172007048
 20
340.2261750153005
 40
1.5001979999998076
 50
90.007601584375024
 51
179.99999999999349
  0
ARC
  8
_0-3_躯体と製品
  6
CONTINUOUS
 62
    7
 10
149.02200172007065
 20
268.22657101530069
 40
1.5001979999999546
 50
179.99999999999909
 51
269.99239841561939
  0
LINE
  8
_0-3_躯体と製品
  6
CONTINUOUS
 62
    7
 10
145.02180268478833
 20
339.97597501530038
 11
145.02180268478833
 21
335.47677101497231
  0
ARC
  8
_0-3_躯体と製品
  6
CONTINUOUS
 62
    7
 10
148.02220068478795
 20
339.97597501530078
 40
3.0003979999996204
 50
90.000000000007589
 51
180.00000000000759
  0
LINE
  8
_0-3_躯体と製品
  6
CONTINUOUS
 62
    7
 10
149.02180268478833
 20
342.97637301530051
 11
148.02220068478755
 21
342.97637301530051
  0
LINE
  8
_0-3_躯体と製品
  6
CONTINUOUS
 62
    7
 10
151.3218026847876
 20
346.72637301530062
 11
149.02180268478833
 21
346.72637301530062
  0
LINE
  8
_0-3_躯体と製品
  6
CONTINUOUS
 62
    7
 10
161.3218026847876
 20
333.72637301530051
 11
161.3218026847876
 21
326.72637301530062
  0
LINE
  8
_0-3_躯体と製品
  6
CONTINUOUS
 62
    7
 10
152.30547956092869
 20
332.17196501530066
 11
156.3218026847876
 21
332.17196501530066
  0
LINE
  8
_0-3_躯体と製品
  6
CONTINUOUS
 62
    7
 10
149.02180268478833
 20
332.72637301530051
 11
149.02180268478833
 21
346.72637301530062
  0
ARC
  8
_0-3_躯体と製品
  6
CONTINUOUS
 62
    7
 10
156.82200067145618
 20
259.42657301530085
 40
1.5001980000001818
 50
180.00763842903379
 51
270.00000000000762
  0
LINE
  8
_0-3_躯体と製品
  6
CONTINUOUS
 62
    7
 10
156.3218026847876
 20
328.72637301530051
 11
161.3218026847876
 21
328.72637301530051
  0
LINE
  8
_0-3_躯体と製品
  6
CONTINUOUS
 62
    7
 10
211.3218026847876
 20
340.22630701530079
 11
151.3218026847876
 21
340.22630701530079
  0
LINE
  8
_0-3_躯体と製品
  6
CONTINUOUS
 62
    7
 10
220.14866268478772
 20
340.22630701530079
 11
229.02180268478833
 21
340.22630701530068
  0
LINE
  8
_0-3_躯体と製品
  6
CONTINUOUS
 62
    7
 10
211.3218026847876
 20
335.22604201530066
 11
151.3218026847876
 21
335.22604201530055
  0
LINE
  8
_0-3_躯体と製品
  6
CONTINUOUS
 62
    7
 10
220.14866268478772
 20
335.22643901530068
 11
229.02180268478833
 21
335.22643901530057
  0
LINE
  8
_0-3_躯体と製品
  6
CONTINUOUS
 62
    7
 10
156.82200067145641
 20
257.92637301530067
 11
205.82160469811834
 21
257.92637301530067
  0
LINE
  8
_0-3_躯体と製品
  6
CONTINUOUS
 62
    7
 10
211.3218026847876
 20
340.72637301530051
 11
206.02180268478833
 21
340.72637301530051
  0
LINE
  8
_0-3_躯体と製品
  6
CONTINUOUS
 62
    7
 10
220.14866268478772
 20
340.72637301530051
 11
229.02180268478833
 21
340.72637301530051
  0
LINE
  8
_0-3_躯体と製品
  6
CONTINUOUS
 62
    7
 10
211.3218026847876
 20
334.72637301530062
 11
206.02180268478833
 21
334.72637301530062
  0
LINE
  8
_0-3_躯体と製品
  6
CONTINUOUS
 62
    7
 10
229.02180268478833
 20
334.7263730153004
 11
220.14866268478772
 21
334.72637301530062
  0
LINE
  8
_0-3_躯体と製品
  6
CONTINUOUS
 62
    7
 10
210.32061758639657
 20
332.13195901530082
 11
206.3218026847876
 21
332.13195901530082
  0
LINE
  8
_0-3_躯体と製品
  6
CONTINUOUS
 62
    7
 10
215.12180268478733
 20
268.22657101530058
 11
215.12180268478733
 21
343.52346701530064
  0
ARC
  8
_0-3_躯体と製品
  6
CONTINUOUS
 62
    7
 10
213.62160468478743
 20
268.22657101530041
 40
1.5001979999998978
 50
270.00000000000648
 51
0.0000000000065264
  0
ARC
  8
_0-3_躯体と製品
  6
CONTINUOUS
 62
    7
 10
213.62160468478754
 20
340.22617501530073
 40
1.5001979999997841
 50
359.99999999999784
 51
89.999999999997868
  0
LINE
  8
_0-3_躯体と製品
  6
CONTINUOUS
 62
    7
 10
229.02180268478833
 20
340.72637301530051
 11
229.02180268478833
 21
334.7263730153004
  0
LINE
  8
_0-3_躯体と製品
  6
CONTINUOUS
 62
    7
 10
215.12180268478733
 20
341.79823901530074
 11
215.12180268478733
 21
333.04708101530071
  0
LINE
  8
_0-3_躯体と製品
  6
CONTINUOUS
 62
    7
 10
215.12180268478733
 20
333.35079401530072
 11
215.12180268478733
 21
339.0298880153008
  0
LINE
  8
_0-3_躯体と製品
  6
CONTINUOUS
 62
    7
 10
215.12180268478733
 20
333.35079401530072
 11
215.72188268478749
 21
332.72571001530048
  0
LINE
  8
_0-3_躯体と製品
  6
CONTINUOUS
 62
    7
 10
215.12180268478733
 20
342.10195201530087
 11
215.72188268478749
 21
342.72703401530066
  0
ARC
  8
_0-3_躯体と製品
  6
CONTINUOUS
 62
    7
 10
216.72409868478735
 20
333.97587601530097
 40
1.6022960000000168
 50
128.71798799999843
 51
180.00000000000341
  0
ARC
  8
_0-3_躯体と製品
  6
CONTINUOUS
 62
    7
 10
220.63086668478834
 20
337.72637201530068
 40
5.5090620000000907
 50
153.00853300000176
 51
206.99146699999824
  0
ARC
  8
_0-3_躯体と製品
  6
CONTINUOUS
 62
    7
 10
216.72409868478735
 20
341.47686801530051
 40
1.6022960000000175
 50
179.99999999999659
 51
231.28201200000157
  0
LINE
  8
_0-3_躯体と製品
  6
CONTINUOUS
 62
    7
 10
220.1224646847877
 20
342.10195201530087
 11
220.1224646847877
 21
333.35079401530072
  0
LINE
  8
_0-3_躯体と製品
  6
CONTINUOUS
 62
    7
 10
220.1224646847877
 20
333.35079401530072
 11
220.1224646847877
 21
342.10195201530087
  0
LINE
  8
_0-3_躯体と製品
  6
CONTINUOUS
 62
    7
 10
219.52238668478776
 20
332.72571001530048
 11
215.72188268478749
 21
332.72571001530048
  0
LINE
  8
_0-3_躯体と製品
  6
CONTINUOUS
 62
    7
 10
219.52238668478776
 20
335.22604201530066
 11
215.72188268478749
 21
335.22604201530066
  0
LINE
  8
_0-3_躯体と製品
  6
CONTINUOUS
 62
    7
 10
219.52238668478776
 20
340.22670401530081
 11
215.72188268478749
 21
340.22670401530081
  0
LINE
  8
_0-3_躯体と製品
  6
CONTINUOUS
 62
    7
 10
219.52238668478776
 20
342.72703401530066
 11
215.72188268478749
 21
342.72703401530066
  0
LINE
  8
_0-3_躯体と製品
  6
CONTINUOUS
 62
    7
 10
220.1224646847877
 20
333.35079401530072
 11
219.52238668478776
 21
332.72571001530048
  0
LINE
  8
_0-3_躯体と製品
  6
CONTINUOUS
 62
    7
 10
220.1224646847877
 20
342.10195201530087
 11
219.52238668478776
 21
342.72703401530066
  0
ARC
  8
_0-3_躯体と製品
  6
CONTINUOUS
 62
    7
 10
218.52017068478744
 20
333.97587601530097
 40
1.6022960000000168
 50
359.99999999999659
 51
51.2820120000016
  0
ARC
  8
_0-3_躯体と製品
  6
CONTINUOUS
 62
    7
 10
214.61340268478781
 20
337.72637201530068
 40
5.5090620000000907
 50
333.00853300000176
 51
26.991466999998231
  0
ARC
  8
_0-3_躯体と製品
  6
CONTINUOUS
 62
    7
 10
218.52017068478744
 20
341.47686801530051
 40
1.6022960000000175
 50
308.71798799999846
 51
0.0000000000033968
  0
LINE
  8
_0-3_躯体と製品
  6
CONTINUOUS
 62
    7
 10
215.12180268478733
 20
343.82718001530066
 11
213.6216046847876
 21
343.82718001530066
  0
LINE
  8
_0-3_躯体と製品
  6
CONTINUOUS
 62
    7
 10
211.3218026847876
 20
346.72637301530062
 11
213.62180268478733
 21
346.72637301530062
  0
LINE
  8
_0-3_躯体と製品
  6
CONTINUOUS
 62
    7
 10
213.62180268478733
 20
332.72637301530062
 11
213.62180268478733
 21
346.72637301530062
  0
ARC
  8
_0-3_躯体と製品
  6
CONTINUOUS
 62
    7
 10
205.82160469811876
 20
259.42657301530107
 40
1.5001980000004096
 50
269.99999999998374
 51
359.99236157096612
  0
LINE
  8
_0-3_躯体と製品
  6
CONTINUOUS
 62
    7
 10
170.9294978501257
 20
244.92637301530067
 11
191.71410754095768
 21
244.92637301530067
  0
LINE
  8
_0-3_躯体と製品
  6
CONTINUOUS
 62
    7
 10
174.39359946528339
 20
246.42637301530067
 11
174.39359946528339
 21
257.92637301530067
  0
LINE
  8
_0-3_躯体と製品
  6
CONTINUOUS
 62
    7
 10
188.25000592582865
 20
229.42637301530067
 11
188.25000592582865
 21
240.92637301530067
  0
LINE
  8
_0-3_躯体と製品
  6
CONTINUOUS
 62
    7
 10
188.25000592582865
 20
246.42637301530067
 11
188.25000592582865
 21
257.92637301530067
  0
LINE
  8
_0-3_躯体と製品
  6
CONTINUOUS
 62
    7
 10
174.39359946528339
 20
229.42637301530067
 11
174.39359946528339
 21
240.92637301530067
  0
ARC
  8
_0-3_躯体と製品
  6
CONTINUOUS
 62
    7
 10
170.92949785014002
 20
249.67637301530647
 40
4.7500000000080691
 50
223.17355110726382
 51
316.82644889273621
  0
ARC
  8
_0-3_躯体と製品
  6
CONTINUOUS
 62
    7
 10
181.32180269555602
 20
261.67637269486062
 40
16.74999970825489
 50
245.56730186717647
 51
294.43269813282353
  0
ARC
  8
_0-3_躯体と製品
  6
CONTINUOUS
 62
    7
 10
191.71410754095768
 20
249.67637301529351
 40
4.7499999999887379
 50
223.17355110726774
 51
316.82644889273217
  0
LINE
  8
_0-3_躯体と製品
  6
CONTINUOUS
 62
    7
 10
195.17820915608672
 20
246.42637301530067
 11
195.17820915608672
 21
257.92637301530067
  0
LINE
  8
_0-3_躯体と製品
  6
CONTINUOUS
 62
    7
 10
195.17820915608672
 20
257.92637301530067
 11
167.46539623499666
 21
257.92637301530067
  0
LINE
  8
_0-3_躯体と製品
  6
CONTINUOUS
 62
    7
 10
167.46539623499666
 20
257.92637301530067
 11
167.46539623499666
 21
246.42637301530067
  0
LINE
  8
_0-3_躯体と製品
  6
CONTINUOUS
 62
    7
 10
167.32180269120454
 20
240.92637301530067
 11
195.32180272857477
 21
240.92637301530067
  0
LINE
  8
_0-3_躯体と製品
  6
CONTINUOUS
 62
    7
 10
195.32180272857477
 20
240.92637301530067
 11
195.32180272857477
 21
244.92637301530067
  0
LINE
  8
_0-3_躯体と製品
  6
CONTINUOUS
 62
    7
 10
195.32180272857477
 20
244.92637301530067
 11
167.32180269120454
 21
244.92637301530067
  0
LINE
  8
_0-3_躯体と製品
  6
CONTINUOUS
 62
    7
 10
167.32180269120454
 20
244.92637301530067
 11
167.32180269120454
 21
240.92637301530067
  0
LINE
  8
_0-3_躯体と製品
  6
CONTINUOUS
 62
    7
 10
170.9294978501257
 20
227.92637301530067
 11
191.71410754095768
 21
227.92637301530067
  0
LINE
  8
_0-3_躯体と製品
  6
CONTINUOUS
 62
    7
 10
181.32180270988965
 20
240.92637301530067
 11
185.32180270988965
 21
244.92637301530067
  0
ARC
  8
_0-3_躯体と製品
  6
CONTINUOUS
 62
    7
 10
170.92949785014002
 20
232.67637301530718
 40
4.7500000000085461
 50
223.1735511072699
 51
316.82644889273007
  0
ARC
  8
_0-3_躯体と製品
  6
CONTINUOUS
 62
    7
 10
181.32180269555602
 20
244.67637301529587
 40
16.749999999994436
 50
245.56730232054767
 51
294.43269767945242
  0
ARC
  8
_0-3_躯体と製品
  6
CONTINUOUS
 62
    7
 10
191.71410754095768
 20
232.67637301529237
 40
4.749999999987951
 50
223.17355110725771
 51
316.82644889274235
  0
LINE
  8
_0-3_躯体と製品
  6
CONTINUOUS
 62
    7
 10
195.17820915608672
 20
229.42637301530067
 11
195.17820915608672
 21
240.92637301530067
  0
LINE
  8
_0-3_躯体と製品
  6
CONTINUOUS
 62
    7
 10
195.17820915608672
 20
240.92637301530067
 11
167.46539623499666
 21
240.92637301530067
  0
LINE
  8
_0-3_躯体と製品
  6
CONTINUOUS
 62
    7
 10
167.46539623499666
 20
240.92637301530067
 11
167.46539623499666
 21
229.42637301530067
  0
LINE
  8
_0-3_躯体と製品
  6
CONTINUOUS
 62
    7
 10
177.32180266250862
 20
240.92637298660418
 11
181.32180266250862
 21
244.92637298660418
  0
LINE
  8
_0-3_躯体と製品
  6
CONTINUOUS
 62
    7
 10
161.3218026847876
 20
326.72637301530062
 11
201.3218026847876
 21
326.72637301530062
  0
ARC
  8
_0-3_躯体と製品
  6
CONTINUOUS
 62
    7
 10
146.77180268478833
 20
329.72637301530051
 40
3.7500000000001359
 50
306.86989764583751
 51
53.130102354161224
  0
ARC
  8
_0-3_躯体と製品
  6
CONTINUOUS
 62
    7
 10
146.77180268478833
 20
329.72637301530051
 40
6.0500000000001348
 50
318.76966956404505
 51
41.23033043595504
  0
ARC
  8
_0-3_躯体と製品
  6
CONTINUOUS
 62
    7
 10
215.87180268478733
 20
329.72637301530051
 40
3.7500000000001359
 50
126.8698976458375
 51
233.13010235416249
  0
ARC
  8
_0-3_躯体と製品
  6
CONTINUOUS
 62
    7
 10
215.87180268478733
 20
329.72637301530051
 40
6.0500000000001348
 50
138.7696695640438
 51
221.23033043595609
  0
ARC
  8
_0-3_躯体と製品
  6
CONTINUOUS
 62
    7
 10
148.02220068478852
 20
335.47677101530076
 40
3.0003980000001995
 50
180.00000000000168
 51
260.39952424800572
  0
LINE
  8
_0-3_躯体と製品
  6
CONTINUOUS
 62
    7
 10
579.09194781831047
 20
334.83963701530047
 11
574.0919718183095
 21
331.95289901530043
  0
LINE
  8
_0-3_躯体と製品
  6
CONTINUOUS
 62
    7
 10
579.09194781831047
 20
340.61310901530055
 11
579.09194781831047
 21
334.83963701530047
  0
LINE
  8
_0-3_躯体と製品
  6
CONTINUOUS
 62
    7
 10
574.0919718183095
 20
343.49984701530059
 11
579.09194781831047
 21
340.61310901530055
  0
LINE
  8
_0-3_躯体と製品
  6
CONTINUOUS
 62
    7
 10
569.09199781830966
 20
340.61310901530055
 11
574.0919718183095
 21
343.49984701530059
  0
LINE
  8
_0-3_躯体と製品
  6
CONTINUOUS
 62
    7
 10
569.09199781830966
 20
334.83963701530047
 11
569.09199781830966
 21
340.61310901530055
  0
LINE
  8
_0-3_躯体と製品
  6
CONTINUOUS
 62
    7
 10
574.0919718183095
 20
331.95289901530043
 11
569.09199781830966
 21
334.83963701530047
  0
CIRCLE
  8
_0-3_躯体と製品
  6
CONTINUOUS
 62
    7
 10
574.0919718183095
 20
337.72637301530051
 40
2.4999880000000001
  0
CIRCLE
  8
_0-3_躯体と製品
  6
CONTINUOUS
 62
    7
 10
574.0919718183095
 20
337.72637301530051
 40
2.9999839999999991
  0
CIRCLE
  8
_0-3_躯体と製品
  6
CONTINUOUS
 62
    7
 10
574.0919718183095
 20
337.72637301530051
 40
4.999973999999999
  0
LINE
  8
_0-3_躯体と製品
  6
CONTINUOUS
 62
    7
 10
568.59199981830943
 20
336.47637901530061
 11
568.99297981830978
 21
336.47637901530061
  0
ARC
  8
_0-3_躯体と製品
  6
CONTINUOUS
 62
    7
 10
568.59199981830955
 20
336.9763770153005
 40
0.4999979999998912
 50
179.99999999998701
 51
269.99999999998698
  0
LINE
  8
_0-3_躯体と製品
  6
CONTINUOUS
 62
    7
 10
568.09200381831033
 20
338.47636901530063
 11
568.09200381831033
 21
336.97637701530061
  0
ARC
  8
_0-3_躯体と製品
  6
CONTINUOUS
 62
    7
 10
568.59199981830955
 20
338.47636901530075
 40
0.4999979999998912
 50
90.000000000013031
 51
180.00000000001302
  0
LINE
  8
_0-3_躯体と製品
  6
CONTINUOUS
 62
    7
 10
568.99297981830978
 20
338.97636701530064
 11
568.59199981830943
 21
338.97636701530064
  0
LINE
  8
_0-3_躯体と製品
  6
CONTINUOUS
 62
    7
 10
579.59194381830957
 20
336.47637901530061
 11
579.19096581831036
 21
336.47637901530061
  0
ARC
  8
_0-3_躯体と製品
  6
CONTINUOUS
 62
    7
 10
579.59194381830946
 20
336.9763770153005
 40
0.4999979999998912
 50
270.00000000001302
 51
0.0000000000130275
  0
LINE
  8
_0-3_躯体と製品
  6
CONTINUOUS
 62
    7
 10
580.09194181830935
 20
338.47636901530063
 11
580.09194181830935
 21
336.97637701530061
  0
ARC
  8
_0-3_躯体と製品
  6
CONTINUOUS
 62
    7
 10
579.59194381830946
 20
338.47636901530075
 40
0.4999979999998912
 50
359.99999999998698
 51
89.999999999986969
  0
LINE
  8
_0-3_躯体と製品
  6
CONTINUOUS
 62
    7
 10
579.19096581831036
 20
338.97636701530064
 11
579.59194381830957
 21
338.97636701530064
  0
ARC
  8
_0-3_躯体と製品
  6
CONTINUOUS
 62
    7
 10
589.09194581831048
 20
336.72639901530056
 40
4.9999740000000656
 50
0.000000000000007
 51
179.99999999999997
  0
LINE
  8
_0-3_躯体と製品
  6
CONTINUOUS
 62
    7
 10
594.09191981831054
 20
326.72637301530085
 11
599.09197181831041
 21
326.72637301530085
  0
LINE
  8
_0-3_躯体と製品
  6
CONTINUOUS
 62
    7
 10
594.09191981831054
 20
332.72637301530085
 11
599.09197181831041
 21
332.72637301530085
  0
LINE
  8
_0-3_躯体と製品
  6
CONTINUOUS
 62
    7
 10
564.09197181831041
 20
326.72637301530085
 11
584.09197181831041
 21
326.72637301530085
  0
LINE
  8
_0-3_躯体と製品
  6
CONTINUOUS
 62
    7
 10
549.0919718183095
 20
326.72637301530085
 11
554.09202181831051
 21
326.72637301530085
  0
LINE
  8
_0-3_躯体と製品
  6
CONTINUOUS
 62
    7
 10
572.75227632475435
 20
332.72637301530085
 11
564.09197181831041
 21
332.72637301530085
  0
LINE
  8
_0-3_躯体と製品
  6
CONTINUOUS
 62
    7
 10
575.43166784774758
 20
332.72637301530085
 11
584.09197181831041
 21
332.72637301530085
  0
LINE
  8
_0-3_躯体と製品
  6
CONTINUOUS
 62
    7
 10
549.0919718183095
 20
332.72637301530085
 11
554.09202181831051
 21
332.72637301530085
  0
ARC
  8
_0-3_躯体と製品
  6
CONTINUOUS
 62
    7
 10
559.09199781831057
 20
336.72639901530056
 40
4.9999739999998383
 50
0.000000000000007
 51
179.99999999999997
  0
LINE
  8
_0-3_躯体と製品
  6
CONTINUOUS
 62
    7
 10
595.09197181831041
 20
346.72637301530062
 11
553.0919718183095
 21
346.72637301530062
  0
ARC
  8
_0-3_躯体と製品
  6
CONTINUOUS
 62
    7
 10
553.0919718183095
 20
342.72637301530062
 40
3.9999999999999996
 50
90
 51
180
  0
LINE
  8
_0-3_躯体と製品
  6
CONTINUOUS
 62
    7
 10
584.09197181831041
 20
336.72639901530056
 11
584.09197181831041
 21
271.72634701530069
  0
LINE
  8
_0-3_躯体と製品
  6
CONTINUOUS
 62
    7
 10
564.09197181831041
 20
336.72639901530056
 11
564.09197181831041
 21
271.72634701530069
  0
LINE
  8
_0-3_躯体と製品
  6
CONTINUOUS
 62
    7
 10
554.09202181831051
 20
336.72639901530056
 11
554.09202181831051
 21
271.72634701530069
  0
LINE
  8
_0-3_躯体と製品
  6
CONTINUOUS
 62
    7
 10
594.09191981831054
 20
336.72639901530056
 11
594.09191981831054
 21
271.72634701530069
  0
LINE
  8
_0-3_躯体と製品
  6
CONTINUOUS
 62
    7
 10
599.09197181831041
 20
259.42637301530067
 11
599.09197181831041
 21
342.72637301530062
  0
ARC
  8
_0-3_躯体と製品
  6
CONTINUOUS
 62
    7
 10
595.09197181831041
 20
342.72637301530062
 40
3.9999999999999996
 50
0.0000000000000052
 51
90.000000000000028
  0
LINE
  8
_0-3_躯体と製品
  6
CONTINUOUS
 62
    7
 10
549.0919718183095
 20
259.42637301530067
 11
549.0919718183095
 21
342.72637301530062
  0
ARC
  8
_0-3_躯体と製品
  6
CONTINUOUS
 62
    7
 10
592.5919729898651
 20
259.42637184372995
 40
1.4999988284448418
 50
270.00026082760036
 51
0.0000447507393696
  0
ARC
  8
_0-3_躯体と製品
  6
CONTINUOUS
 62
    7
 10
589.09194581831048
 20
271.72634701530069
 40
4.9999740000000656
 50
180
 51
0
  0
LINE
  8
_0-3_躯体と製品
  6
CONTINUOUS
 62
    7
 10
555.59196381831043
 20
257.92637301530067
 11
592.59197981831039
 21
257.92637301530067
  0
ARC
  8
_0-3_躯体と製品
  6
CONTINUOUS
 62
    7
 10
559.09199781831057
 20
271.72634701530069
 40
4.9999739999998383
 50
180
 51
0
  0
ARC
  8
_0-3_躯体と製品
  6
CONTINUOUS
 62
    7
 10
555.59197064675595
 20
259.42637184372973
 40
1.4999988284446144
 50
179.999955249252
 51
269.99973917239106
  0
LINE
  8
_0-3_躯体と製品
  6
CONTINUOUS
 62
    7
 10
549.0919718183095
 20
259.42637301530067
 11
599.09197181831041
 21
259.42637301530067
  0
LINE
  8
_0-3_躯体と製品
  6
CONTINUOUS
 62
    7
 10
568.09140643649334
 20
244.92638081760799
 11
580.09197174062365
 21
244.92638088064689
  0
LINE
  8
_0-3_躯体と製品
  6
CONTINUOUS
 62
    7
 10
560.09197177339456
 20
240.92638079455787
 11
588.09197181079344
 21
240.92638079455787
  0
LINE
  8
_0-3_躯体と製品
  6
CONTINUOUS
 62
    7
 10
588.09197181079344
 20
240.92638079455787
 11
588.09197181079344
 21
244.92638079455787
  0
LINE
  8
_0-3_躯体と製品
  6
CONTINUOUS
 62
    7
 10
588.09197181079344
 20
244.92638079455787
 11
560.09197177339456
 21
244.92638079455787
  0
LINE
  8
_0-3_躯体と製品
  6
CONTINUOUS
 62
    7
 10
560.09197177339456
 20
244.92638079455787
 11
560.09197177339456
 21
240.92638079455787
  0
LINE
  8
_0-3_躯体と製品
  6
CONTINUOUS
 62
    7
 10
562.09197177776059
 20
257.92638056550368
 11
562.09197177776059
 21
246.42638079455787
  0
ARC
  8
_0-3_躯体と製品
  6
CONTINUOUS
 62
    7
 10
568.09197175585996
 20
257.67638090926266
 40
12.750000090903935
 50
241.92751339355425
 51
298.07248660644575
  0
ARC
  8
_0-3_躯体と製品
  6
CONTINUOUS
 62
    7
 10
580.09197175585996
 20
257.67638161389368
 40
12.750000733249538
 50
241.927514709977
 51
298.072485290023
  0
LINE
  8
_0-3_躯体と製品
  6
CONTINUOUS
 62
    7
 10
586.09197177776059
 20
246.42638079455787
 11
586.09197177776059
 21
257.92638073768182
  0
LINE
  8
_0-3_躯体と製品
  6
CONTINUOUS
 62
    7
 10
568.09140658792057
 20
227.92638100556053
 11
580.09197189202177
 21
227.92638106859943
  0
LINE
  8
_0-3_躯体と製品
  6
CONTINUOUS
 62
    7
 10
562.09197192915872
 20
240.92638070846874
 11
562.09197192915872
 21
229.42638103707998
  0
ARC
  8
_0-3_躯体と製品
  6
CONTINUOUS
 62
    7
 10
568.09197190021519
 20
240.67638054693703
 40
12.749999553900432
 50
241.92751214239451
 51
298.07248785760544
  0
ARC
  8
_0-3_躯体と製品
  6
CONTINUOUS
 62
    7
 10
580.09197190021519
 20
240.67638142070848
 40
12.750000352116238
 50
241.92751376065095
 51
298.07248623934902
  0
LINE
  8
_0-3_躯体と製品
  6
CONTINUOUS
 62
    7
 10
586.09197192915872
 20
229.42638103707998
 11
586.09197192915872
 21
240.92638088064689
  0
LINE
  8
_0-3_躯体と製品
  6
CONTINUOUS
 62
    7
 10
574.09197173395933
 20
246.42638079455787
 11
574.09197164068155
 21
257.92638065159269
  0
LINE
  8
_0-3_躯体と製品
  6
CONTINUOUS
 62
    7
 10
574.09197186050233
 20
229.42638103707998
 11
574.09197178134036
 21
240.92638079455787
  0
LINE
  8
_0-3_躯体と製品
  6
CONTINUOUS
 62
    7
 10
609.0919718183095
 20
117.92637301530073
 11
609.0919718183095
 21
112.72637301530074
  0
LINE
  8
_0-3_躯体と製品
  6
CONTINUOUS
 62
    7
 10
539.09197181831041
 20
117.92637301530073
 11
539.09197181831041
 21
112.72637301530074
  0
LINE
  8
_0-3_躯体と製品
  6
CONTINUOUS
 62
    7
 10
539.09197181831041
 20
114.72637301530074
 11
609.0919718183095
 21
114.72637301530074
  0
LINE
  8
_0-3_躯体と製品
  6
CONTINUOUS
 62
    7
 10
539.09197181831041
 20
117.92637301530073
 11
609.0919718183095
 21
117.92637301530073
  0
LINE
  8
_0-3_躯体と製品
  6
CONTINUOUS
 62
    7
 10
609.0919718183095
 20
186.12629101530069
 11
609.0919718183095
 21
182.92629101530088
  0
LINE
  8
_0-3_躯体と製品
  6
CONTINUOUS
 62
    7
 10
539.09197181831041
 20
186.12629101530069
 11
539.09197181831041
 21
182.92629101530088
  0
LINE
  8
_0-3_躯体と製品
  6
CONTINUOUS
 62
    7
 10
582.09197181831041
 20
172.96820817765217
 11
582.09197181831041
 21
158.46477291054271
  0
LINE
  8
_0-3_躯体と製品
  6
CONTINUOUS
 62
    7
 10
581.01132237392358
 20
148.34569957091469
 11
580.59199581830944
 21
147.92637301530067
  0
LINE
  8
_0-3_躯体と製品
  6
CONTINUOUS
 62
    7
 10
566.09221981830933
 20
182.92629101530088
 11
566.09221981830933
 21
181.13885288292863
  0
LINE
  8
_0-3_躯体と製品
  6
CONTINUOUS
 62
    7
 10
577.21388220003655
 20
147.92637301530067
 11
580.59199581830944
 21
147.92637301530067
  0
LINE
  8
_0-3_躯体と製品
  6
CONTINUOUS
 62
    7
 10
609.0919718183095
 20
186.12624301530082
 11
539.09197181831041
 21
186.12624301530082
  0
LINE
  8
_0-3_躯体と製品
  6
CONTINUOUS
 62
    7
 10
580.59199581830944
 20
147.92637301530067
 11
580.59199581830944
 21
148.29939607377128
  0
LINE
  8
_0-3_躯体と製品
  6
CONTINUOUS
 62
    7
 10
580.59199581830944
 20
172.80788596892125
 11
580.59199581830944
 21
158.30076897884442
  0
LINE
  8
_0-3_躯体と製品
  6
CONTINUOUS
 62
    7
 10
567.59219581830939
 20
182.92629101530088
 11
567.59219581830939
 21
181.3028568089145
  0
LINE
  8
_0-3_躯体と製品
  6
CONTINUOUS
 62
    7
 10
609.0919718183095
 20
182.92629101530088
 11
539.09197181831041
 21
182.92629101530088
  0
LINE
  8
_0-3_躯体と製品
  6
CONTINUOUS
 62
    7
 10
566.09221981830933
 20
162.69890388714998
 11
543.65902081830973
 21
169.24977501530088
  0
LINE
  8
_0-3_躯体と製品
  6
CONTINUOUS
 62
    7
 10
582.09197181831041
 20
167.60357560148657
 11
603.6785094607726
 21
160.60582838246364
  0
ARC
  8
_0-3_躯体と製品
  6
CONTINUOUS
 62
    7
 10
545.32571977596251
 20
115.00084342351988
 40
4.9123449559637242
 50
92.330400580596688
 51
143.44959359574281
  0
ARC
  8
_0-3_躯体と製品
  6
CONTINUOUS
 62
    7
 10
602.77660081831027
 20
116.44352301530054
 40
4.9897780000001255
 50
17.287172705293187
 51
91.897495696368836
  0
ARC
  8
_0-3_躯体と製品
  6
CONTINUOUS
 62
    7
 10
545.37772081831008
 20
124.89254901530074
 40
4.9897779999999896
 50
96.239803000000606
 51
267.10805931588436
  0
LINE
  8
_0-3_躯体と製品
  6
CONTINUOUS
 62
    7
 10
580.67738361780857
 20
133.77164908477982
 11
544.23097028734446
 21
144.57478758719742
  0
LINE
  8
_0-3_躯体と製品
  6
CONTINUOUS
 62
    7
 10
543.69287064616947
 20
144.73428654527083
 11
543.69284881831072
 21
144.73429301530064
  0
LINE
  8
_0-3_躯体と製品
  6
CONTINUOUS
 62
    7
 10
569.26397535465458
 20
147.04851664303976
 11
603.27777636891733
 21
136.13116786129405
  0
ARC
  8
_0-3_躯体と製品
  6
CONTINUOUS
 62
    7
 10
602.91328031784838
 20
180.10556329928437
 40
5.0294781307122491
 50
289.90686282023893
 51
34.113843233829769
  0
ARC
  8
_0-3_躯体と製品
  6
CONTINUOUS
 62
    7
 10
545.53852481831041
 20
173.87204301530068
 40
4.9897779999999674
 50
96.239803000003292
 51
247.87252319259906
  0
ARC
  8
_0-3_躯体と製品
  6
CONTINUOUS
 62
    7
 10
602.74455376421031
 20
155.65830963308332
 40
5.0348997029345481
 50
290.40775287450759
 51
95.579276876699765
  0
ARC
  8
_0-3_躯体と製品
  6
CONTINUOUS
 62
    7
 10
545.37772081831054
 20
149.4310050153008
 40
4.9897780000000314
 50
96.23980300000629
 51
276.2398030000063
  0
ARC
  8
_0-3_躯体と製品
  6
CONTINUOUS
 62
    7
 10
602.7677076591051
 20
131.15981570764245
 40
4.9974505824817186
 50
286.4080774399398
 51
95.888038593539889
  0
LINE
  8
_0-3_躯体と製品
  6
CONTINUOUS
 62
    7
 10
545.12597425275362
 20
119.90912567827462
 11
602.61138181378647
 21
121.43056494111482
  0
LINE
  8
_0-3_躯体と製品
  6
CONTINUOUS
 62
    7
 10
582.44008639484264
 20
182.92629101530088
 11
544.99488681831053
 21
178.83211901530069
  0
LINE
  8
_0-3_躯体と製品
  6
CONTINUOUS
 62
    7
 10
604.65972081831069
 20
175.38032101530075
 11
544.63521276794472
 21
168.964710559786
  0
LINE
  8
_0-3_躯体と製品
  6
CONTINUOUS
 62
    7
 10
602.25504481831058
 20
160.66935701530087
 11
544.83538281831034
 21
154.39122301530074
  0
LINE
  8
_0-3_躯体と製品
  6
CONTINUOUS
 62
    7
 10
604.50021681831049
 20
150.93942501530069
 11
545.91318681831035
 21
144.47004133350185
  0
LINE
  8
_0-3_躯体と製品
  6
CONTINUOUS
 62
    7
 10
602.25504481831058
 20
136.13090101530065
 11
544.83538281831034
 21
129.85276701530063
  0
LINE
  8
_0-3_躯体と製品
  6
CONTINUOUS
 62
    7
 10
545.12597425275771
 20
119.90912567827485
 11
604.17937081831042
 21
126.36588901530075
  0
LINE
  8
_0-3_躯体と製品
  6
CONTINUOUS
 62
    7
 10
569.26397535465367
 20
122.51006064303965
 11
574.91132611305648
 21
120.69744058636081
  0
LINE
  8
_0-3_躯体と製品
  6
CONTINUOUS
 62
    7
 10
560.09197053355047
 20
190.12624430006031
 11
588.09197057094934
 21
190.12624430006031
  0
LINE
  8
_0-3_躯体と製品
  6
CONTINUOUS
 62
    7
 10
588.09197057094934
 20
190.12624430006031
 11
588.09197057094934
 21
186.12624430006031
  0
LINE
  8
_0-3_躯体と製品
  6
CONTINUOUS
 62
    7
 10
588.09197057094934
 20
186.12624430006031
 11
560.09197053355047
 21
186.12624430006031
  0
LINE
  8
_0-3_躯体と製品
  6
CONTINUOUS
 62
    7
 10
560.09197053355047
 20
186.12624430006031
 11
560.09197053355047
 21
190.12624430006031
  0
LINE
  8
_0-3_躯体と製品
  6
CONTINUOUS
 62
    7
 10
568.09140450147561
 20
203.12624373035283
 11
580.09196980557635
 21
203.12624366731393
  0
LINE
  8
_0-3_躯体と製品
  6
CONTINUOUS
 62
    7
 10
562.09196984271239
 20
190.12624402744473
 11
562.09196984271239
 21
201.62624369883338
  0
ARC
  8
_0-3_躯体と製品
  6
CONTINUOUS
 62
    7
 10
568.09196981376886
 20
190.37624418897633
 40
12.749999553900432
 50
61.927512142394527
 51
118.07248785760547
  0
ARC
  8
_0-3_躯体と製品
  6
CONTINUOUS
 62
    7
 10
580.09196981376886
 20
190.37624331520487
 40
12.750000352116238
 50
61.927513760650953
 51
118.07248623934905
  0
LINE
  8
_0-3_躯体と製品
  6
CONTINUOUS
 62
    7
 10
586.09196984271239
 20
201.62624369883338
 11
586.09196984271239
 21
190.12624385526647
  0
LINE
  8
_0-3_躯体と製品
  6
CONTINUOUS
 62
    7
 10
574.09196977408556
 20
201.62624369883338
 11
574.09196969489449
 21
190.1262439413556
  0
LINE
  8
_0-3_躯体と製品
  6
CONTINUOUS
 62
    7
 10
567.59219581830939
 20
171.41842597152117
 11
567.59219581830939
 21
156.87940069609135
  0
LINE
  8
_0-3_躯体と製品
  6
CONTINUOUS
 62
    7
 10
566.09221981830933
 20
171.25810376279026
 11
566.09221981830933
 21
156.71539676439318
  0
LINE
  8
_0-2_寸法
  6
CONTINUOUS
 62
    7
 10
725.2862368183105
 20
112.72637301530074
 11
782.33920731521266
 21
112.72637301530074
  0
LINE
  8
_0-2_寸法
  6
CONTINUOUS
 62
    7
 10
725.2862368183105
 20
357.72637301530085
 11
782.33920731521266
 21
357.72637301530062
  0
LINE
  8
_0-2_寸法
  6
CONTINUOUS
 62
    7
 10
782.33920731521266
 20
112.72637301530074
 11
782.33920731521266
 21
357.72637301530062
  0
INSERT
  2
-000-_Small
  8
_0-2_寸法
 10
782.33920731521266
 20
112.72637301530074
 41
5
 42
5
 50
270
  0
INSERT
  2
-000-_Small
  8
_0-2_寸法
 10
782.33920731521266
 20
357.72637301530062
 41
5
 42
5
 50
90
  0
POINT
  8
_0-2_寸法
 62
    7
 10
782.33920731521266
 20
357.72637301530062
  0
LINE
  8
_0-2_寸法
  6
CONTINUOUS
 62
    7
 10
692.57602501720066
 20
276.72637301530074
 11
692.57602501720066
 21
326.72560301530052
  0
INSERT
  2
-000-_Small
  8
_0-2_寸法
 10
692.57602501720066
 20
276.72637301530074
 41
5
 42
5
 50
270
  0
INSERT
  2
-000-_Small
  8
_0-2_寸法
 10
692.57602501720066
 20
326.72560301530052
 41
5
 42
5
 50
90
  0
TEXT
  8
_0-2_寸法
 62
    7
 10
689.57602501720066
 20
298.47598801530114
 40
8
 41
1
 50
90
  1
50
  0
POINT
  8
_0-2_寸法
 62
    7
 10
692.57602501720066
 20
276.72637301530074
  0
POINT
  8
_0-2_寸法
 62
    7
 10
692.57602501720066
 20
326.72560301530052
  0
POINT
  8
_0-2_寸法
 62
    7
 10
692.57602501720066
 20
326.72560301530052
  0
LINE
  8
_0-2_寸法
  6
CONTINUOUS
 62
    7
 10
539.09125081831053
 20
107.57450901530075
 11
539.09125081831053
 21
82.75767501530072
  0
LINE
  8
_0-2_寸法
  6
CONTINUOUS
 62
    7
 10
609.09125081831053
 20
107.57450901530075
 11
609.09125081831053
 21
82.75767501530072
  0
LINE
  8
_0-2_寸法
  6
CONTINUOUS
 62
    7
 10
539.09125081831053
 20
82.75767501530072
 11
609.09125081831053
 21
82.75767501530072
  0
INSERT
  2
-000-_Small
  8
_0-2_寸法
 10
539.09125081831053
 20
82.75767501530072
 41
5
 42
5
 50
180
  0
INSERT
  2
-000-_Small
  8
_0-2_寸法
 10
609.09125081831053
 20
82.75767501530072
 41
5
 42
5
 50
0
  0
TEXT
  8
_0-2_寸法
 62
    7
 10
570.84125081831053
 20
85.75767501530072
 40
8
 41
1
 50
0
  1
70
  0
POINT
  8
_0-2_寸法
 62
    7
 10
609.09125081831053
 20
82.75767501530072
  0
LINE
  8
_0-2_寸法
  6
CONTINUOUS
 62
    7
 10
121.32180268478669
 20
109.46054901530061
 11
121.32180268478669
 21
82.771156710192429
  0
LINE
  8
_0-2_寸法
  6
CONTINUOUS
 62
    7
 10
241.3218026847876
 20
109.46054901530061
 11
241.3218026847876
 21
82.771156710192429
  0
LINE
  8
_0-2_寸法
  6
CONTINUOUS
 62
    7
 10
121.32180268478669
 20
82.771156710192429
 11
241.3218026847876
 21
82.771156710192429
  0
INSERT
  2
-000-_Small
  8
_0-2_寸法
 10
121.32180268478669
 20
82.771156710192429
 41
5
 42
5
 50
180
  0
INSERT
  2
-000-_Small
  8
_0-2_寸法
 10
241.3218026847876
 20
82.771156710192429
 41
5
 42
5
 50
0
  0
TEXT
  8
_0-2_寸法
 62
    7
 10
176.4468026847876
 20
85.771156710192429
 40
8
 41
1
 50
0
  1
120
  0
POINT
  8
_0-2_寸法
 62
    7
 10
241.3218026847876
 20
82.771156710192429
  0
TEXT
  8
_0-2_寸法
 62
    7
 10
779.33920731521266
 20
222.22637301530108
 40
8
 41
1
 50
90
  1
h=213～351
  0
TEXT
  8
_0-4_文字-記号
 62
    7
 10
10
 20
570
 40
13
 41
1.1538461538461537
 50
0
  1
■スリーベース２０５型（柔道場用：低床タイプ）
  0
ENDSEC
  0
EOF
