  0
SECTION
  2
HEADER
  9
$ACADVER
  1
AC1009
  9
$INSBASE
 10
0
 20
0
 30
0
  9
$EXTMIN
 10
0
 20
0
  9
$EXTMAX
 10
841
 20
594
  9
$LIMMIN
 10
0
 20
0
  9
$LIMMAX
 10
841
 20
594
  9
$LTSCALE
 40
1
  0
ENDSEC
  0
SECTION
  2
TABLES
  0
TABLE
  2
LTYPE
 70
     9
  0
LTYPE
  2
CONTINUOUS
 70
    64
  3
実線
 72
    65
 73
     0
 40
0.0
  0
LTYPE
  2
DASHED1
 70
    64
  3
--  --  --  --  --  --  --  --  
 72
    65
 73
     2
 40
2.5
 49
1.25
 49
-1.25
  0
LTYPE
  2
DASHED2
 70
    64
  3
----    ----    ----    ----    
 72
    65
 73
     2
 40
5.0
 49
2.5
 49
-2.5
  0
LTYPE
  2
DASHED3
 70
    64
  3
------  ------  ------  ------  
 72
    65
 73
     2
 40
5.0
 49
3.75
 49
-1.25
  0
LTYPE
  2
CENTER1
 70
    64
  3
----- - ----- - ----- - ----- - 
 72
    65
 73
     4
 40
10.0
 49
6.25
 49
-1.25
 49
1.25
 49
-1.25
  0
LTYPE
  2
CENTER2
 70
    64
  3
----------  --  ----------  --  
 72
    65
 73
     4
 40
20.0
 49
12.5
 49
-2.5
 49
2.5
 49
-2.5
  0
LTYPE
  2
PHANTOM1
 70
    64
  3
--- - - --- - - --- - - --- - - 
 72
    65
 73
     6
 40
10.0
 49
3.25
 49
-1.25
 49
1.25
 49
-1.25
 49
1.25
 49
-1.25
  0
LTYPE
  2
PHANTOM2
 70
    64
  3
--------  -  -  --------  -  -  
 72
    65
 73
     6
 40
20.0
 49
10.0
 49
-2.5
 49
1.25
 49
-2.5
 49
1.25
 49
-2.5
  0
LTYPE
  2
DOT
 70
    64
  3
-   -   -   -   -   -   -   -   
 72
    65
 73
     2
 40
2.5
 49
0.625
 49
-1.875
  0
LTYPE
  2
DUMMY
 70
    64
  3
ダミー
 72
    65
 73
     0
 40
0.0
  0
LTYPE
  2
RAND1
 70
    64
  3
ランダム線1
 72
    65
 73
     4
 40
10.0
 49
1.0
 49
-2.0
 49
3.0
 49
-4.0
  0
LTYPE
  2
RAND2
 70
    64
  3
ランダム線2
 72
    65
 73
     4
 40
14.0
 49
2.0
 49
-3.0
 49
4.0
 49
-5.0
  0
LTYPE
  2
RAND3
 70
    64
  3
ランダム線3
 72
    65
 73
     4
 40
18.0
 49
3.0
 49
-4.0
 49
5.0
 49
-6.0
  0
LTYPE
  2
RAND4
 70
    64
  3
ランダム線4
 72
    65
 73
     4
 40
22.0
 49
4.0
 49
-5.0
 49
6.0
 49
-7.0
  0
LTYPE
  2
RAND5
 70
    64
  3
ランダム線5
 72
    65
 73
     4
 40
26.0
 49
5.0
 49
-6.0
 49
7.0
 49
-8.0
  0
LTYPE
  2
LONG1
 70
    64
  3
----------  --  ----------  --  
 72
    65
 73
     4
 40
40.0
 49
32.5
 49
-2.5
 49
2.5
 49
-2.5
  0
LTYPE
  2
LONG2
 70
    64
  3
--------  -  -  --------  -  -  
 72
    65
 73
     6
 40
40.0
 49
30.0
 49
-2.5
 49
1.25
 49
-2.5
 49
1.25
 49
-2.5
  0
LTYPE
  2
LONG3
 70
    64
  3
+++++++++++++++..+++++++++++++++
 72
    65
 73
     2
 40
40.0
 49
37.5
 49
-2.5
  0
LTYPE
  2
LONG4
 70
    64
  3
+++++++++++++++..+++++++++++++++
 72
    65
 73
     2
 40
80.0
 49
75.0
 49
-5.0
  0
LTYPE
  2
LONG5
 70
    64
  3
----------  --  ----------  --  
 72
    65
 73
     4
 40
60.0
 49
37.5
 49
-7.5
 49
7.5
 49
-7.5
  0
LTYPE
  2
dashed
 70
   64
  3
-------   -------------   ------
 72
   65
 73
    2
 40
7.5
 49
6
 49
-1.5
  0
LTYPE
  2
dashed_spaced
 70
   64
  3
----        --------        ----
 72
   65
 73
    2
 40
12
 49
6
 49
-6
  0
LTYPE
  2
long_dashed_dotted
 70
   64
  3
------------- --- --------------
 72
   65
 73
    4
 40
15.25
 49
12
 49
-1.5
 49
0.25
 49
-1.5
  0
LTYPE
  2
long_dashed_double-dotted
 70
   64
  3
----------- --- --- ------------
 72
   65
 73
    6
 40
17
 49
12
 49
-1.5
 49
0.25
 49
-1.5
 49
0.25
 49
-1.5
  0
LTYPE
  2
long_dashed_triplicate-dotted
 70
   64
  3
--------- --- --- --- ----------
 72
   65
 73
    8
 40
18.75
 49
12
 49
-1.5
 49
0.25
 49
-1.5
 49
0.25
 49
-1.5
 49
0.25
 49
-1.5
  0
LTYPE
  2
dotted
 70
   64
  3
   -       -       -       -    
 72
   65
 73
    2
 40
1.75
 49
0.25
 49
-1.5
  0
LTYPE
  2
chain
 70
   64
  3
-------------- -- --------------
 72
   65
 73
    4
 40
18.5
 49
12
 49
-1.5
 49
3.5
 49
-1.5
  0
LTYPE
  2
chain_double_dash
 70
   64
  3
------------ -- -- -------------
 72
   65
 73
    6
 40
23.5
 49
12
 49
-1.5
 49
3.5
 49
-1.5
 49
3.5
 49
-1.5
  0
LTYPE
  2
dashed_dotted
 70
   64
  3
-----------     -     ----------
 72
   65
 73
    4
 40
9.25
 49
6
 49
-1.5
 49
0.25
 49
-1.5
  0
LTYPE
  2
double-dashed_dotted
 70
   64
  3
------   -----------   -   -----
 72
   65
 73
    6
 40
16.75
 49
6
 49
-1.5
 49
6
 49
-1.5
 49
0.25
 49
-1.5
  0
LTYPE
  2
dashed_double-dotted
 70
   64
  3
---------    -    -    ---------
 72
   65
 73
    6
 40
11
 49
6
 49
-1.5
 49
0.25
 49
-1.5
 49
0.25
 49
-1.5
  0
LTYPE
  2
double-dashed_double-dotted
 70
   64
  3
-----   ---------   -   -   ----
 72
   65
 73
    8
 40
18.5
 49
6
 49
-1.5
 49
6
 49
-1.5
 49
0.25
 49
-1.5
 49
0.25
 49
-1.5
  0
LTYPE
  2
dashed_triplicate-dotted
 70
   64
  3
-------    -    -    -    ------
 72
   65
 73
    8
 40
12.75
 49
6
 49
-1.5
 49
0.25
 49
-1.5
 49
0.25
 49
-1.5
 49
0.25
 49
-1.5
  0
LTYPE
  2
double-dashed_triplicate-dotted
 70
   64
  3
-----  ---------  -  -  -  -----
 72
   65
 73
   10
 40
20.25
 49
6
 49
-1.5
 49
6
 49
-1.5
 49
0.25
 49
-1.5
 49
0.25
 49
-1.5
 49
0.25
 49
-1.5
  0
LTYPE
  2
undefined
 70
   64
  3
--------------------------------
 72
   65
 73
    0
 40
0
  0
LTYPE
  2
_
 70
   64
  3
                                
 72
   65
 73
    0
 40
0
  0
LTYPE
  2
__18
 70
   64
  3
                                
 72
   65
 73
    0
 40
0
  0
LTYPE
  2
__19
 70
   64
  3
                                
 72
   65
 73
    0
 40
0
  0
LTYPE
  2
__20
 70
   64
  3
                                
 72
   65
 73
    0
 40
0
  0
LTYPE
  2
__21
 70
   64
  3
                                
 72
   65
 73
    0
 40
0
  0
LTYPE
  2
__22
 70
   64
  3
                                
 72
   65
 73
    0
 40
0
  0
LTYPE
  2
__23
 70
   64
  3
                                
 72
   65
 73
    0
 40
0
  0
LTYPE
  2
__24
 70
   64
  3
                                
 72
   65
 73
    0
 40
0
  0
LTYPE
  2
__25
 70
   64
  3
                                
 72
   65
 73
    0
 40
0
  0
LTYPE
  2
__26
 70
   64
  3
                                
 72
   65
 73
    0
 40
0
  0
LTYPE
  2
__27
 70
   64
  3
                                
 72
   65
 73
    0
 40
0
  0
LTYPE
  2
__28
 70
   64
  3
                                
 72
   65
 73
    0
 40
0
  0
LTYPE
  2
__29
 70
   64
  3
                                
 72
   65
 73
    0
 40
0
  0
LTYPE
  2
__30
 70
   64
  3
                                
 72
   65
 73
    0
 40
0
  0
LTYPE
  2
__31
 70
   64
  3
                                
 72
   65
 73
    0
 40
0
  0
LTYPE
  2
__32
 70
   64
  3
                                
 72
   65
 73
    0
 40
0
  0
ENDTAB
  0
TABLE
  2
STYLE
  5
3
100
AcDbSymbolTable
 70
     1
  0
STYLE
  5
10
100
AcDbSymbolTableRecord
100
AcDbTextStyleTableRecord
  2
STANDARD
 70
     0
 40
0.0
 41
1.0
 50
0.0
 71
     0
 42
0.2
  3
txt
  4
bigfont.shx
  0
STYLE
  5
26
100
AcDbSymbolTableRecord
100
AcDbTextStyleTableRecord
  2
TATEGAKI
 70
    68
 40
0.0
 41
1.0
 50
0.0
 71
     0
 42
1.0
  3
txt
  4
bigfont.shx
  0
ENDTAB
  0
TABLE
  2
LAYER
 70
    5
  0
LAYER
  2
_0-2_寸法
 70
   64
 62
    7
  6
CONTINUOUS
  0
LAYER
  2
_0-3_躯体と製品
 70
   64
 62
    7
  6
CONTINUOUS
  0
LAYER
  2
_0-4_文字-記号
 70
   64
 62
    7
  6
CONTINUOUS
  0
LAYER
  2
_0-5_中心線
 70
   64
 62
    7
  6
CONTINUOUS
  0
LAYER
  2
ADD_LINE
 70
   64
 62
    7
  6
CONTINUOUS
  0
ENDTAB
  0
ENDSEC
  0
SECTION
  2
BLOCKS
  0
BLOCK
  2
-000-_Small
 70
   64
 10
0
 20
0
 30
0
  0
CIRCLE
  8
_0-0_0
  6
CONTINUOUS
 62
    7
 10
0
 20
0
 40
1
  0
ENDBLK
  0
BLOCK
  2
-002-_D2
 70
   64
 10
0
 20
0
 30
0
  0
LINE
  8
_0-2_寸法
  6
CONTINUOUS
 62
    4
 10
-4180.3536157740718
 20
11837.269491590803
 11
-4144.5109737391476
 21
11837.269491590803
  0
LINE
  8
_0-2_寸法
  6
CONTINUOUS
 62
    4
 10
-4180.3536157740718
 20
11917.269491590803
 11
-4144.5109737391476
 21
11917.269491590803
  0
LINE
  8
_0-2_寸法
  6
CONTINUOUS
 62
    4
 10
-4144.5109737391476
 20
11837.269491590803
 11
-4144.5109737391476
 21
11917.269491590803
  0
INSERT
  2
-000-_Small
  8
_0-2_寸法
 10
-4144.5109737391476
 20
11837.269491590803
 41
5
 42
5
 50
270
  0
INSERT
  2
-000-_Small
  8
_0-2_寸法
 10
-4144.5109737391476
 20
11917.269491590803
 41
5
 42
5
 50
90
  0
TEXT
  8
_0-2_寸法
 62
    7
 10
-4156.5109737391522
 20
11864.2694915908
 40
26
 41
1
 50
90
  1
20
  0
POINT
  8
_0-1_Defpoints
 62
    7
 10
-4180.3536157740718
 20
11837.269491590803
  0
POINT
  8
_0-1_Defpoints
 62
    7
 10
-4180.3536157740718
 20
11917.269491590803
  0
POINT
  8
_0-1_Defpoints
 62
    7
 10
-4144.5109737391476
 20
11917.269491590803
  0
ENDBLK
  0
ENDSEC
  0
SECTION
  2
ENTITIES
  0
LINE
  8
_0-3_躯体と製品
  6
CONTINUOUS
 62
    4
 10
407.59303554297958
 20
300.31055981651753
 11
407.59303554297958
 21
320.31055981651753
  0
LINE
  8
_0-3_躯体と製品
  6
CONTINUOUS
 62
    4
 10
388.59303554297958
 20
300.31055981651753
 11
388.59303554297958
 21
320.31055981651753
  0
LINE
  8
_0-3_躯体と製品
  6
CONTINUOUS
 62
    4
 10
425.59303554297958
 20
203.31055981651753
 11
425.59303554297958
 21
204.31055981651753
  0
ARC
  8
_0-3_躯体と製品
  6
CONTINUOUS
 62
    4
 10
427.90091330807542
 20
222.63156719010638
 40
18.465795703454567
 50
236.0675811035243
 51
262.82032845730885
  0
LINE
  8
_0-3_躯体と製品
  6
CONTINUOUS
 62
    4
 10
378.59303554297958
 20
207.31055981651753
 11
392.09303554297958
 21
207.31055981651753
  0
ARC
  8
_0-3_躯体と製品
  6
CONTINUOUS
 62
    4
 10
392.09303554297958
 20
206.31055981651753
 40
0.9999999999999998
 50
0
 51
90
  0
LINE
  8
_0-3_躯体と製品
  6
CONTINUOUS
 62
    4
 10
393.09303554297958
 20
206.31055981651753
 11
393.09303554297958
 21
203.31055981651753
  0
LINE
  8
_0-3_躯体と製品
  6
CONTINUOUS
 62
    4
 10
370.59303554297958
 20
203.31055981651753
 11
370.59303554297958
 21
204.31055981651753
  0
ARC
  8
_0-3_躯体と製品
  6
CONTINUOUS
 62
    4
 10
368.28515777788374
 20
222.63156719010638
 40
18.465795703454567
 50
277.17967154269121
 51
303.93241889647572
  0
LINE
  8
_0-3_躯体と製品
  6
CONTINUOUS
 62
    4
 10
393.09303554297958
 20
204.31055981651753
 11
403.09303554297958
 21
204.31055981651753
  0
LINE
  8
_0-3_躯体と製品
  6
CONTINUOUS
 62
    4
 10
393.09303554297958
 20
203.31055981651753
 11
370.59303554297958
 21
203.31055981651753
  0
LINE
  8
_0-3_躯体と製品
  6
CONTINUOUS
 62
    4
 10
370.59303554297958
 20
203.31055981651753
 11
370.59303554297958
 21
200.31055981651753
  0
LINE
  8
_0-3_躯体と製品
  6
CONTINUOUS
 62
    4
 10
370.59303554297958
 20
200.31055981651753
 11
425.59303554297958
 21
200.31055981651753
  0
LINE
  8
_0-3_躯体と製品
  6
CONTINUOUS
 62
    4
 10
425.59303554297958
 20
200.31055981651753
 11
425.59303554297958
 21
203.31055981651753
  0
LINE
  8
_0-3_躯体と製品
  6
CONTINUOUS
 62
    4
 10
425.59303554297958
 20
203.31055981651753
 11
403.09303554297958
 21
203.31055981651753
  0
LINE
  8
_0-3_躯体と製品
  6
CONTINUOUS
 62
    4
 10
417.59303554297958
 20
203.31055981651753
 11
417.59303554297958
 21
207.31055981651753
  0
LINE
  8
_0-3_躯体と製品
  6
CONTINUOUS
 62
    4
 10
417.59303554297958
 20
207.31055981651753
 11
412.59303554297958
 21
216.11055981650588
  0
LINE
  8
_0-3_躯体と製品
  6
CONTINUOUS
 62
    4
 10
412.59303554297958
 20
216.11055981650588
 11
383.59303554297958
 21
216.11055981653453
  0
LINE
  8
_0-3_躯体と製品
  6
CONTINUOUS
 62
    4
 10
383.59303554297958
 20
216.11055981653453
 11
378.59303554297958
 21
207.31055981651753
  0
LINE
  8
_0-3_躯体と製品
  6
CONTINUOUS
 62
    4
 10
378.59303554297958
 20
207.31055981651753
 11
378.59303554297958
 21
203.31055981651753
  0
LINE
  8
_0-3_躯体と製品
  6
CONTINUOUS
 62
    4
 10
403.09303554297958
 20
203.31055981651753
 11
403.09303554297958
 21
206.31055981651753
  0
ARC
  8
_0-3_躯体と製品
  6
CONTINUOUS
 62
    4
 10
404.09303554297958
 20
206.31055981651753
 40
0.9999999999999998
 50
89.999999999999986
 51
180
  0
LINE
  8
_0-3_躯体と製品
  6
CONTINUOUS
 62
    4
 10
404.09303554297958
 20
207.31055981651753
 11
417.59303554297958
 21
207.31055981651753
  0
LINE
  8
_0-3_躯体と製品
  6
CONTINUOUS
 62
    3
 10
506.36724164295356
 20
320.31055981651753
 11
486.36724164295356
 21
300.31055981651753
  0
LINE
  8
_0-3_躯体と製品
  6
CONTINUOUS
 62
    3
 10
392.84303554297958
 20
216.11055981653453
 11
392.84303554297958
 21
255.31055981651753
  0
LINE
  8
_0-3_躯体と製品
  6
CONTINUOUS
 62
    3
 10
403.34303554297958
 20
216.11055981650588
 11
403.34303554297958
 21
255.31055981651753
  0
LINE
  8
_0-3_躯体と製品
  6
CONTINUOUS
 62
    4
 10
404.09303554297958
 20
216.11055981650588
 11
404.09303554297958
 21
255.31055981651753
  0
LINE
  8
_0-3_躯体と製品
  6
CONTINUOUS
 62
    4
 10
392.09303554297958
 20
216.11055981653453
 11
392.09303554300868
 21
255.31055981651753
  0
LINE
  8
_0-3_躯体と製品
  6
CONTINUOUS
 62
    3
 10
511.36724164298221
 20
320.31055981651753
 11
491.36724164298266
 21
300.31055981651753
  0
LINE
  8
_0-5_中心線
  6
CENTER1
 62
    7
 10
398.09303554297958
 20
190.47855981652265
 11
398.09303554297958
 21
323.10311858769774
  0
LINE
  8
_0-3_躯体と製品
  6
CONTINUOUS
 62
    3
 10
315.07255046362752
 20
320.31055981651753
 11
295.07255046365663
 21
300.31055981651753
  0
LINE
  8
_0-3_躯体と製品
  6
CONTINUOUS
 62
    3
 10
320.07255046365663
 20
320.31055981651753
 11
300.07255046365663
 21
300.31055981651753
  0
LINE
  8
_0-3_躯体と製品
  6
CONTINUOUS
 62
    4
 10
253.09303554297958
 20
200.31055981651753
 11
543.09303554297969
 21
200.31055981651753
  0
LINE
  8
_0-3_躯体と製品
  6
CONTINUOUS
 62
    4
 10
253.09303554297958
 20
350.31055981651753
 11
543.09303554297969
 21
350.31055981651753
  0
LINE
  8
_0-3_躯体と製品
  6
CONTINUOUS
 62
    4
 10
253.09303554297958
 20
300.31055981651753
 11
543.09303554297969
 21
300.31055981651753
  0
LINE
  8
_0-3_躯体と製品
  6
CONTINUOUS
 62
    3
 10
253.09303554297958
 20
324.31055981651753
 11
543.09303554297969
 21
324.31055981651753
  0
LINE
  8
_0-3_躯体と製品
  6
CONTINUOUS
 62
    3
 10
253.09303554297958
 20
328.31055981651753
 11
543.09303554297969
 21
328.31055981651753
  0
LINE
  8
_0-3_躯体と製品
  6
CONTINUOUS
 62
    4
 10
253.09303554297958
 20
320.31055981651753
 11
543.09303554297969
 21
320.31055981651753
  0
LINE
  8
_0-3_躯体と製品
  6
CONTINUOUS
 62
    4
 10
253.09303554297958
 20
332.31055981651753
 11
543.09303554297969
 21
332.31055981651753
  0
LINE
  8
_0-3_躯体と製品
  6
CONTINUOUS
 62
    4
 10
406.09303554297958
 20
300.31055981651753
 11
406.09303554297958
 21
318.31055981651753
  0
LINE
  8
_0-3_躯体と製品
  6
CONTINUOUS
 62
    4
 10
405.09303554297958
 20
275.31055981651753
 11
406.09303554297958
 21
278.31055981651753
  0
LINE
  8
_0-3_躯体と製品
  6
CONTINUOUS
 62
    4
 10
391.09303554297958
 20
275.31055981651753
 11
405.09303554297958
 21
275.31055981651753
  0
LINE
  8
_0-3_躯体と製品
  6
CONTINUOUS
 62
    4
 10
391.09303554297958
 20
255.31055981651753
 11
405.09303554297958
 21
255.31055981651753
  0
LINE
  8
_0-3_躯体と製品
  6
CONTINUOUS
 62
    4
 10
391.09303554297958
 20
255.31055981651753
 11
391.09303554297958
 21
275.31055981651753
  0
LINE
  8
_0-3_躯体と製品
  6
CONTINUOUS
 62
    4
 10
405.09303554297958
 20
255.31055981651753
 11
405.09303554297958
 21
275.31055981651753
  0
LINE
  8
_0-3_躯体と製品
  6
CONTINUOUS
 62
    4
 10
406.09303554297958
 20
278.31055981651753
 11
406.09303554297958
 21
295.61055981650588
  0
LINE
  8
_0-3_躯体と製品
  6
CONTINUOUS
 62
    4
 10
427.09303554297958
 20
299.11055981650588
 11
415.09303554297958
 21
297.11055981650679
  0
ARC
  8
_0-3_躯体と製品
  6
CONTINUOUS
 62
    4
 10
407.59303554298685
 20
296.36055981650634
 40
0.7500000000004557
 50
269.99999700011955
 51
90.000002999880422
  0
LINE
  8
_0-3_躯体と製品
  6
CONTINUOUS
 62
    4
 10
431.09303554297958
 20
299.11055981650588
 11
431.09303554297958
 21
300.31055981651753
  0
LINE
  8
_0-3_躯体と製品
  6
CONTINUOUS
 62
    4
 10
390.09303554297958
 20
300.31055981651753
 11
390.09303554297958
 21
318.31055981651753
  0
LINE
  8
_0-3_躯体と製品
  6
CONTINUOUS
 62
    4
 10
369.09303554297958
 20
299.11055981650588
 11
381.09303554297958
 21
297.11055981650679
  0
LINE
  8
_0-3_躯体と製品
  6
CONTINUOUS
 62
    4
 10
365.09303554297958
 20
299.11055981650588
 11
365.09303554297958
 21
300.31055981651753
  0
LINE
  8
_0-3_躯体と製品
  6
CONTINUOUS
 62
    4
 10
365.09303554297958
 20
299.11055981650588
 11
369.09303554297958
 21
299.11055981650588
  0
LINE
  8
_0-3_躯体と製品
  6
CONTINUOUS
 62
    4
 10
390.09303554297958
 20
278.31055981651753
 11
390.09303554297958
 21
295.61055981650588
  0
ARC
  8
_0-3_躯体と製品
  6
CONTINUOUS
 62
    4
 10
388.59303554298685
 20
296.36055981650634
 40
0.7500000000004557
 50
90.000002999880451
 51
269.99999700011955
  0
LINE
  8
_0-3_躯体と製品
  6
CONTINUOUS
 62
    4
 10
365.09303554297958
 20
300.31055981651753
 11
431.09303554297958
 21
300.31055981651753
  0
LINE
  8
_0-3_躯体と製品
  6
CONTINUOUS
 62
    4
 10
365.09303554297958
 20
299.11055981650588
 11
431.09303554297958
 21
299.11055981650588
  0
LINE
  8
_0-3_躯体と製品
  6
CONTINUOUS
 62
    4
 10
390.09303554297958
 20
278.31055981651753
 11
391.09303554297958
 21
275.31055981651753
  0
LINE
  8
_0-3_躯体と製品
  6
CONTINUOUS
 62
    4
 10
388.59303554297958
 20
295.61055981650588
 11
407.59303554297958
 21
295.61055981650588
  0
LINE
  8
_0-3_躯体と製品
  6
CONTINUOUS
 62
    4
 10
381.09303554297958
 20
297.11055981650679
 11
415.09303554297958
 21
297.11055981650679
  0
LINE
  8
_0-3_躯体と製品
  6
CONTINUOUS
 62
    4
 10
390.09303554297958
 20
278.31055981651753
 11
406.09303554297958
 21
278.31055981651753
  0
LINE
  8
_0-3_躯体と製品
  6
CONTINUOUS
 62
    4
 10
390.09303554297958
 20
318.31055981651753
 11
406.09303554297958
 21
318.31055981651753
  0
TEXT
  8
_0-4_文字-記号
 62
    7
 10
346.34359908663168
 20
251.88317881651756
 40
6.5
 41
1
 50
0
  1
調整ボルト
  0
TEXT
  8
_0-4_文字-記号
 62
    7
 10
431.9712854533916
 20
173.63681452410083
 40
6.5
 41
1
 50
0
  1
クッションゴムＫＧ
  0
LINE
  8
_0-4_文字-記号
  6
CONTINUOUS
 62
    7
 10
332.39432233791558
 20
300.31055981651753
 11
317.25737387653066
 21
274.0925960098466
  0
LINE
  8
_0-4_文字-記号
  6
CONTINUOUS
 62
    7
 10
317.25737387653066
 20
274.0925960098466
 11
268.61873220996267
 21
274.0925960098466
  0
TEXT
  8
_0-4_文字-記号
 62
    7
 10
269.21793613251953
 20
276.90446660775751
 40
6.5
 41
1
 50
0
  1
シートパネル
  0
TEXT
  8
_0-4_文字-記号
 62
    7
 10
429.96098737393959
 20
276.30506636266091
 40
6.5
 41
1
 50
0
  1
調整ナット
  0
INSERT
  2
-002-_D2
  8
_0-2_寸法
 10
1508.8779724668916
 20
-2659.0068130811833
 41
0.25
 42
0.25
 50
0
  0
TEXT
  8
_0-4_文字-記号
 62
    7
 10
251.72696445701968
 20
409.75262047589558
 40
13
 41
0.9000000000000001
 50
0
  1
■メタルベース：KGタイプ（オフィス・複合施設用）
  0
LINE
  8
_0-4_文字-記号
  6
CONTINUOUS
 62
    7
 10
398.09303554297958
 20
350.31055981651753
 11
416.8621178168537
 21
382.81956392630582
  0
LINE
  8
_0-4_文字-記号
  6
CONTINUOUS
 62
    7
 10
416.8621178168537
 20
382.81956392630582
 11
490.92639337287164
 21
382.81956392630582
  0
TEXT
  8
_0-4_文字-記号
 62
    7
 10
423.58243725524471
 20
384.64984520399457
 40
6.5
 41
1
 50
0
  1
フローリング貼り
  0
LINE
  8
_0-4_文字-記号
  6
CONTINUOUS
 62
    7
 10
410.7497420191437
 20
328.31055981651753
 11
433.57196157679459
 21
367.83980363186174
  0
LINE
  8
_0-4_文字-記号
  6
CONTINUOUS
 62
    7
 10
433.57196157679459
 20
367.83980363186174
 11
478.61491350282768
 21
367.83980363186174
  0
TEXT
  8
_0-4_文字-記号
 62
    7
 10
441.95838609955467
 20
369.67008490954959
 40
6.5
 41
1
 50
0
  1
捨板貼り
  0
LINE
  8
_0-4_文字-記号
  6
CONTINUOUS
 62
    7
 10
392.09303554299458
 20
242.56055981651753
 11
388.09015954299571
 21
249.49374381651751
  0
LINE
  8
_0-4_文字-記号
  6
CONTINUOUS
 62
    7
 10
388.09015954299571
 20
249.49374381651751
 11
343.97755305538658
 21
249.49374381651751
  0
LINE
  8
_0-4_文字-記号
  6
CONTINUOUS
 62
    7
 10
414.29559506341866
 20
297.11055981650679
 11
427.6871933739385
 21
273.9156313626595
  0
LINE
  8
_0-4_文字-記号
  6
CONTINUOUS
 62
    7
 10
427.6871933739385
 20
273.9156313626595
 11
466.04391748242051
 21
273.9156313626595
  0
LINE
  8
_0-4_文字-記号
  6
CONTINUOUS
 62
    7
 10
408.31938882307759
 20
208.27533910675493
 11
429.69749145339051
 21
171.24737952410078
  0
LINE
  8
_0-4_文字-記号
  6
CONTINUOUS
 62
    7
 10
429.69749145339051
 20
171.24737952410078
 11
502.86367982528657
 21
171.24737952410078
  0
LINE
  8
_0-3_躯体と製品
  6
CONTINUOUS
 62
    4
 10
468.09303745032867
 20
200.31055981651753
 11
453.09303745032867
 21
185.31055981651753
  0
LINE
  8
_0-3_躯体と製品
  6
CONTINUOUS
 62
    4
 10
473.09303745032867
 20
200.31055981651753
 11
458.09303745032867
 21
185.31055981651753
  0
LINE
  8
_0-3_躯体と製品
  6
CONTINUOUS
 62
    4
 10
478.09303745032867
 20
200.31055981651753
 11
463.09303745032867
 21
185.31055981651753
  0
LINE
  8
_0-3_躯体と製品
  6
CONTINUOUS
 62
    4
 10
318.09303745032867
 20
200.31055981651753
 11
303.09303745032867
 21
185.31055981651753
  0
LINE
  8
_0-3_躯体と製品
  6
CONTINUOUS
 62
    4
 10
323.09303745032867
 20
200.31055981651753
 11
308.09303745032867
 21
185.31055981651753
  0
LINE
  8
_0-3_躯体と製品
  6
CONTINUOUS
 62
    4
 10
328.09303745032867
 20
200.31055981651753
 11
313.09303745032867
 21
185.31055981651753
  0
LINE
  8
_0-2_寸法
  6
CONTINUOUS
 62
    4
 10
545.09303554297958
 20
200.31055981651753
 11
569.68209566968801
 21
200.31055981651753
  0
LINE
  8
_0-2_寸法
  6
CONTINUOUS
 62
    4
 10
545.09303554297958
 20
320.31055981651753
 11
569.68209566968801
 21
320.31055981651753
  0
LINE
  8
_0-2_寸法
  6
CONTINUOUS
 62
    4
 10
569.68209566968801
 20
200.31055981651753
 11
569.68209566968801
 21
320.31055981651753
  0
INSERT
  2
-000-_Small
  8
_0-2_寸法
 10
569.68209566968801
 20
200.31055981651753
 41
1.25
 42
1.25
 50
270
  0
INSERT
  2
-000-_Small
  8
_0-2_寸法
 10
569.68209566968801
 20
320.31055981651753
 41
1.25
 42
1.25
 50
90
  0
POINT
  8
_0-2_寸法
 62
    7
 10
545.09303554297958
 20
200.31055981651753
  0
POINT
  8
_0-2_寸法
 62
    7
 10
545.09303554297958
 20
320.31055981651753
  0
POINT
  8
_0-2_寸法
 62
    7
 10
569.68209566968801
 20
320.31055981651753
  0
TEXT
  8
_0-2_寸法
 62
    7
 10
565.91099773242627
 20
257.90589569161
 40
6.5
 41
1
 50
90
  1
h
  0
ENDSEC
  0
EOF
