  0
SECTION
  2
HEADER
  9
$ACADVER
  1
AC1009
  9
$INSBASE
 10
0
 20
0
 30
0
  9
$EXTMIN
 10
0
 20
0
  9
$EXTMAX
 10
841
 20
594
  9
$LIMMIN
 10
0
 20
0
  9
$LIMMAX
 10
841
 20
594
  9
$LTSCALE
 40
1
  0
ENDSEC
  0
SECTION
  2
TABLES
  0
TABLE
  2
LTYPE
 70
     9
  0
LTYPE
  2
CONTINUOUS
 70
    64
  3
実線
 72
    65
 73
     0
 40
0.0
  0
LTYPE
  2
DASHED1
 70
    64
  3
--  --  --  --  --  --  --  --  
 72
    65
 73
     2
 40
2.5
 49
1.25
 49
-1.25
  0
LTYPE
  2
DASHED2
 70
    64
  3
----    ----    ----    ----    
 72
    65
 73
     2
 40
5.0
 49
2.5
 49
-2.5
  0
LTYPE
  2
DASHED3
 70
    64
  3
------  ------  ------  ------  
 72
    65
 73
     2
 40
5.0
 49
3.75
 49
-1.25
  0
LTYPE
  2
CENTER1
 70
    64
  3
----- - ----- - ----- - ----- - 
 72
    65
 73
     4
 40
10.0
 49
6.25
 49
-1.25
 49
1.25
 49
-1.25
  0
LTYPE
  2
CENTER2
 70
    64
  3
----------  --  ----------  --  
 72
    65
 73
     4
 40
20.0
 49
12.5
 49
-2.5
 49
2.5
 49
-2.5
  0
LTYPE
  2
PHANTOM1
 70
    64
  3
--- - - --- - - --- - - --- - - 
 72
    65
 73
     6
 40
10.0
 49
3.25
 49
-1.25
 49
1.25
 49
-1.25
 49
1.25
 49
-1.25
  0
LTYPE
  2
PHANTOM2
 70
    64
  3
--------  -  -  --------  -  -  
 72
    65
 73
     6
 40
20.0
 49
10.0
 49
-2.5
 49
1.25
 49
-2.5
 49
1.25
 49
-2.5
  0
LTYPE
  2
DOT
 70
    64
  3
-   -   -   -   -   -   -   -   
 72
    65
 73
     2
 40
2.5
 49
0.625
 49
-1.875
  0
LTYPE
  2
DUMMY
 70
    64
  3
ダミー
 72
    65
 73
     0
 40
0.0
  0
LTYPE
  2
RAND1
 70
    64
  3
ランダム線1
 72
    65
 73
     4
 40
10.0
 49
1.0
 49
-2.0
 49
3.0
 49
-4.0
  0
LTYPE
  2
RAND2
 70
    64
  3
ランダム線2
 72
    65
 73
     4
 40
14.0
 49
2.0
 49
-3.0
 49
4.0
 49
-5.0
  0
LTYPE
  2
RAND3
 70
    64
  3
ランダム線3
 72
    65
 73
     4
 40
18.0
 49
3.0
 49
-4.0
 49
5.0
 49
-6.0
  0
LTYPE
  2
RAND4
 70
    64
  3
ランダム線4
 72
    65
 73
     4
 40
22.0
 49
4.0
 49
-5.0
 49
6.0
 49
-7.0
  0
LTYPE
  2
RAND5
 70
    64
  3
ランダム線5
 72
    65
 73
     4
 40
26.0
 49
5.0
 49
-6.0
 49
7.0
 49
-8.0
  0
LTYPE
  2
LONG1
 70
    64
  3
----------  --  ----------  --  
 72
    65
 73
     4
 40
40.0
 49
32.5
 49
-2.5
 49
2.5
 49
-2.5
  0
LTYPE
  2
LONG2
 70
    64
  3
--------  -  -  --------  -  -  
 72
    65
 73
     6
 40
40.0
 49
30.0
 49
-2.5
 49
1.25
 49
-2.5
 49
1.25
 49
-2.5
  0
LTYPE
  2
LONG3
 70
    64
  3
+++++++++++++++..+++++++++++++++
 72
    65
 73
     2
 40
40.0
 49
37.5
 49
-2.5
  0
LTYPE
  2
LONG4
 70
    64
  3
+++++++++++++++..+++++++++++++++
 72
    65
 73
     2
 40
80.0
 49
75.0
 49
-5.0
  0
LTYPE
  2
LONG5
 70
    64
  3
----------  --  ----------  --  
 72
    65
 73
     4
 40
60.0
 49
37.5
 49
-7.5
 49
7.5
 49
-7.5
  0
LTYPE
  2
dashed
 70
   64
  3
-------   -------------   ------
 72
   65
 73
    2
 40
7.5
 49
6
 49
-1.5
  0
LTYPE
  2
dashed_spaced
 70
   64
  3
----        --------        ----
 72
   65
 73
    2
 40
12
 49
6
 49
-6
  0
LTYPE
  2
long_dashed_dotted
 70
   64
  3
------------- --- --------------
 72
   65
 73
    4
 40
15.25
 49
12
 49
-1.5
 49
0.25
 49
-1.5
  0
LTYPE
  2
long_dashed_double-dotted
 70
   64
  3
----------- --- --- ------------
 72
   65
 73
    6
 40
17
 49
12
 49
-1.5
 49
0.25
 49
-1.5
 49
0.25
 49
-1.5
  0
LTYPE
  2
long_dashed_triplicate-dotted
 70
   64
  3
--------- --- --- --- ----------
 72
   65
 73
    8
 40
18.75
 49
12
 49
-1.5
 49
0.25
 49
-1.5
 49
0.25
 49
-1.5
 49
0.25
 49
-1.5
  0
LTYPE
  2
dotted
 70
   64
  3
   -       -       -       -    
 72
   65
 73
    2
 40
1.75
 49
0.25
 49
-1.5
  0
LTYPE
  2
chain
 70
   64
  3
-------------- -- --------------
 72
   65
 73
    4
 40
18.5
 49
12
 49
-1.5
 49
3.5
 49
-1.5
  0
LTYPE
  2
chain_double_dash
 70
   64
  3
------------ -- -- -------------
 72
   65
 73
    6
 40
23.5
 49
12
 49
-1.5
 49
3.5
 49
-1.5
 49
3.5
 49
-1.5
  0
LTYPE
  2
dashed_dotted
 70
   64
  3
-----------     -     ----------
 72
   65
 73
    4
 40
9.25
 49
6
 49
-1.5
 49
0.25
 49
-1.5
  0
LTYPE
  2
double-dashed_dotted
 70
   64
  3
------   -----------   -   -----
 72
   65
 73
    6
 40
16.75
 49
6
 49
-1.5
 49
6
 49
-1.5
 49
0.25
 49
-1.5
  0
LTYPE
  2
dashed_double-dotted
 70
   64
  3
---------    -    -    ---------
 72
   65
 73
    6
 40
11
 49
6
 49
-1.5
 49
0.25
 49
-1.5
 49
0.25
 49
-1.5
  0
LTYPE
  2
double-dashed_double-dotted
 70
   64
  3
-----   ---------   -   -   ----
 72
   65
 73
    8
 40
18.5
 49
6
 49
-1.5
 49
6
 49
-1.5
 49
0.25
 49
-1.5
 49
0.25
 49
-1.5
  0
LTYPE
  2
dashed_triplicate-dotted
 70
   64
  3
-------    -    -    -    ------
 72
   65
 73
    8
 40
12.75
 49
6
 49
-1.5
 49
0.25
 49
-1.5
 49
0.25
 49
-1.5
 49
0.25
 49
-1.5
  0
LTYPE
  2
double-dashed_triplicate-dotted
 70
   64
  3
-----  ---------  -  -  -  -----
 72
   65
 73
   10
 40
20.25
 49
6
 49
-1.5
 49
6
 49
-1.5
 49
0.25
 49
-1.5
 49
0.25
 49
-1.5
 49
0.25
 49
-1.5
  0
LTYPE
  2
undefined
 70
   64
  3
--------------------------------
 72
   65
 73
    0
 40
0
  0
LTYPE
  2
_
 70
   64
  3
                                
 72
   65
 73
    0
 40
0
  0
LTYPE
  2
__18
 70
   64
  3
                                
 72
   65
 73
    0
 40
0
  0
LTYPE
  2
__19
 70
   64
  3
                                
 72
   65
 73
    0
 40
0
  0
LTYPE
  2
__20
 70
   64
  3
                                
 72
   65
 73
    0
 40
0
  0
LTYPE
  2
__21
 70
   64
  3
                                
 72
   65
 73
    0
 40
0
  0
LTYPE
  2
__22
 70
   64
  3
                                
 72
   65
 73
    0
 40
0
  0
LTYPE
  2
__23
 70
   64
  3
                                
 72
   65
 73
    0
 40
0
  0
LTYPE
  2
__24
 70
   64
  3
                                
 72
   65
 73
    0
 40
0
  0
LTYPE
  2
__25
 70
   64
  3
                                
 72
   65
 73
    0
 40
0
  0
LTYPE
  2
__26
 70
   64
  3
                                
 72
   65
 73
    0
 40
0
  0
LTYPE
  2
__27
 70
   64
  3
                                
 72
   65
 73
    0
 40
0
  0
LTYPE
  2
__28
 70
   64
  3
                                
 72
   65
 73
    0
 40
0
  0
LTYPE
  2
__29
 70
   64
  3
                                
 72
   65
 73
    0
 40
0
  0
LTYPE
  2
__30
 70
   64
  3
                                
 72
   65
 73
    0
 40
0
  0
LTYPE
  2
__31
 70
   64
  3
                                
 72
   65
 73
    0
 40
0
  0
LTYPE
  2
__32
 70
   64
  3
                                
 72
   65
 73
    0
 40
0
  0
ENDTAB
  0
TABLE
  2
STYLE
  5
3
100
AcDbSymbolTable
 70
     1
  0
STYLE
  5
10
100
AcDbSymbolTableRecord
100
AcDbTextStyleTableRecord
  2
STANDARD
 70
     0
 40
0.0
 41
1.0
 50
0.0
 71
     0
 42
0.2
  3
txt
  4
bigfont.shx
  0
STYLE
  5
26
100
AcDbSymbolTableRecord
100
AcDbTextStyleTableRecord
  2
TATEGAKI
 70
    68
 40
0.0
 41
1.0
 50
0.0
 71
     0
 42
1.0
  3
txt
  4
bigfont.shx
  0
ENDTAB
  0
TABLE
  2
LAYER
 70
    5
  0
LAYER
  2
_0-2_寸法
 70
   64
 62
    7
  6
CONTINUOUS
  0
LAYER
  2
_0-3_躯体と製品
 70
   64
 62
    7
  6
CONTINUOUS
  0
LAYER
  2
_0-4_文字-記号
 70
   64
 62
    7
  6
CONTINUOUS
  0
LAYER
  2
_0-5_中心線
 70
   64
 62
    7
  6
CONTINUOUS
  0
LAYER
  2
ADD_LINE
 70
   64
 62
    7
  6
CONTINUOUS
  0
ENDTAB
  0
ENDSEC
  0
SECTION
  2
BLOCKS
  0
BLOCK
  2
-000-_Small
 70
   64
 10
0
 20
0
 30
0
  0
CIRCLE
  8
_0-0_0
  6
CONTINUOUS
 62
    7
 10
0
 20
0
 40
1
  0
ENDBLK
  0
BLOCK
  2
-001-_D1
 70
   64
 10
0
 20
0
 30
0
  0
LINE
  8
_0-2_寸法
  6
CONTINUOUS
 62
    4
 10
-5630.75033267654
 20
13177.663716552064
 11
-5594.9076906416158
 21
13177.663716552064
  0
LINE
  8
_0-2_寸法
  6
CONTINUOUS
 62
    4
 10
-5630.75033267654
 20
13257.663716552064
 11
-5594.9076906416158
 21
13257.663716552064
  0
LINE
  8
_0-2_寸法
  6
CONTINUOUS
 62
    4
 10
-5594.9076906416158
 20
13177.663716552064
 11
-5594.9076906416158
 21
13257.663716552064
  0
INSERT
  2
-000-_Small
  8
_0-2_寸法
 10
-5594.9076906416158
 20
13177.663716552064
 41
5
 42
5
 50
270
  0
INSERT
  2
-000-_Small
  8
_0-2_寸法
 10
-5594.9076906416158
 20
13257.663716552064
 41
5
 42
5
 50
90
  0
TEXT
  8
_0-2_寸法
 62
    7
 10
-5606.9076906416158
 20
13204.663716552061
 40
26
 41
1
 50
90
  1
20
  0
POINT
  8
_0-1_Defpoints
 62
    7
 10
-5630.75033267654
 20
13177.663716552064
  0
POINT
  8
_0-1_Defpoints
 62
    7
 10
-5630.75033267654
 20
13257.663716552064
  0
POINT
  8
_0-1_Defpoints
 62
    7
 10
-5594.9076906416158
 20
13257.663716552064
  0
ENDBLK
  0
ENDSEC
  0
SECTION
  2
ENTITIES
  0
LINE
  8
_0-3_躯体と製品
  6
CONTINUOUS
 62
    4
 10
417.69805506563262
 20
301.69722313014063
 11
417.69805506563262
 21
321.69722313014063
  0
LINE
  8
_0-3_躯体と製品
  6
CONTINUOUS
 62
    4
 10
398.69805506563262
 20
301.69722313014063
 11
398.69805506563262
 21
321.69722313014063
  0
INSERT
  2
-001-_D1
  8
_0-2_寸法
 10
1881.5821712151605
 20
-2992.7187060078754
 41
0.25
 42
0.25
 50
0
  0
LINE
  8
_0-3_躯体と製品
  6
CONTINUOUS
 62
    3
 10
516.47226116560546
 20
321.69722313014063
 11
496.47226116560546
 21
301.69722313014063
  0
LINE
  8
_0-3_躯体と製品
  6
CONTINUOUS
 62
    3
 10
402.94805506563262
 20
234.19722313014063
 11
402.94805506563262
 21
256.69722313014063
  0
LINE
  8
_0-3_躯体と製品
  6
CONTINUOUS
 62
    3
 10
413.44805506563262
 20
234.19722313014063
 11
413.44805506563262
 21
256.69722313014063
  0
LINE
  8
_0-3_躯体と製品
  6
CONTINUOUS
 62
    4
 10
414.19805506563262
 20
234.19722313014063
 11
414.19805506563262
 21
256.69722313014063
  0
LINE
  8
_0-3_躯体と製品
  6
CONTINUOUS
 62
    4
 10
402.19805506563262
 20
234.19722313014063
 11
402.19805506566149
 21
256.69722313014063
  0
LINE
  8
_0-3_躯体と製品
  6
CONTINUOUS
 62
    3
 10
521.47226116563456
 20
321.69722313014063
 11
501.47226116563547
 21
301.69722313014063
  0
LINE
  8
_0-5_中心線
  6
CENTER1
 62
    7
 10
408.19805506563262
 20
191.86522313014575
 11
408.19805506563262
 21
324.48978190132038
  0
LINE
  8
_0-3_躯体と製品
  6
CONTINUOUS
 62
    3
 10
325.17756998627965
 20
321.69722313014063
 11
305.17756998630853
 21
301.69722313014063
  0
LINE
  8
_0-3_躯体と製品
  6
CONTINUOUS
 62
    3
 10
330.17756998630853
 20
321.69722313014063
 11
310.17756998630853
 21
301.69722313014063
  0
LINE
  8
_0-3_躯体と製品
  6
CONTINUOUS
 62
    4
 10
263.19805506563262
 20
201.69722313014063
 11
553.19805506563262
 21
201.69722313014063
  0
LINE
  8
_0-3_躯体と製品
  6
CONTINUOUS
 62
    4
 10
263.19805506563262
 20
351.69722313014063
 11
553.19805506563262
 21
351.69722313014063
  0
LINE
  8
_0-3_躯体と製品
  6
CONTINUOUS
 62
    4
 10
263.19805506563262
 20
301.69722313014063
 11
553.19805506563262
 21
301.69722313014063
  0
LINE
  8
_0-3_躯体と製品
  6
CONTINUOUS
 62
    3
 10
263.19805506563262
 20
325.69722313014063
 11
553.19805506563262
 21
325.69722313014063
  0
LINE
  8
_0-3_躯体と製品
  6
CONTINUOUS
 62
    3
 10
263.19805506563262
 20
329.69722313014063
 11
553.19805506563262
 21
329.69722313014063
  0
LINE
  8
_0-3_躯体と製品
  6
CONTINUOUS
 62
    4
 10
263.19805506563262
 20
321.69722313014063
 11
553.19805506563262
 21
321.69722313014063
  0
LINE
  8
_0-3_躯体と製品
  6
CONTINUOUS
 62
    4
 10
263.19805506563262
 20
333.69722313013972
 11
553.19805506563262
 21
333.69722313013972
  0
LINE
  8
_0-3_躯体と製品
  6
CONTINUOUS
 62
    4
 10
416.19805506563262
 20
301.69722313014063
 11
416.19805506563262
 21
319.69722313014063
  0
LINE
  8
_0-3_躯体と製品
  6
CONTINUOUS
 62
    4
 10
415.19805506563262
 20
276.69722313014063
 11
416.19805506563262
 21
279.69722313013972
  0
LINE
  8
_0-3_躯体と製品
  6
CONTINUOUS
 62
    4
 10
401.19805506563262
 20
276.69722313014063
 11
415.19805506563262
 21
276.69722313014063
  0
LINE
  8
_0-3_躯体と製品
  6
CONTINUOUS
 62
    4
 10
401.19805506563262
 20
256.69722313014063
 11
415.19805506563262
 21
256.69722313014063
  0
LINE
  8
_0-3_躯体と製品
  6
CONTINUOUS
 62
    4
 10
401.19805506563262
 20
256.69722313014063
 11
401.19805506563262
 21
276.69722313014063
  0
LINE
  8
_0-3_躯体と製品
  6
CONTINUOUS
 62
    4
 10
415.19805506563262
 20
256.69722313014063
 11
415.19805506563262
 21
276.69722313014063
  0
LINE
  8
_0-3_躯体と製品
  6
CONTINUOUS
 62
    4
 10
416.19805506563262
 20
279.69722313013972
 11
416.19805506563262
 21
296.99722313012853
  0
LINE
  8
_0-3_躯体と製品
  6
CONTINUOUS
 62
    4
 10
437.19805506563262
 20
300.49722313012853
 11
425.19805506563262
 21
298.49722313012853
  0
ARC
  8
_0-3_躯体と製品
  6
CONTINUOUS
 62
    4
 10
417.69805506563989
 20
297.74722313012853
 40
0.750000000000001
 50
269.99999700011955
 51
90.000002999880422
  0
LINE
  8
_0-3_躯体と製品
  6
CONTINUOUS
 62
    4
 10
441.19805506563262
 20
300.49722313012853
 11
441.19805506563262
 21
301.69722313014063
  0
LINE
  8
_0-3_躯体と製品
  6
CONTINUOUS
 62
    4
 10
400.19805506563262
 20
301.69722313014063
 11
400.19805506563262
 21
319.69722313014063
  0
LINE
  8
_0-3_躯体と製品
  6
CONTINUOUS
 62
    4
 10
379.19805506563262
 20
300.49722313012853
 11
391.19805506563262
 21
298.49722313012853
  0
LINE
  8
_0-3_躯体と製品
  6
CONTINUOUS
 62
    4
 10
375.19805506563262
 20
300.49722313012853
 11
375.19805506563262
 21
301.69722313014063
  0
LINE
  8
_0-3_躯体と製品
  6
CONTINUOUS
 62
    4
 10
375.19805506563262
 20
300.49722313012853
 11
379.19805506563262
 21
300.49722313012853
  0
LINE
  8
_0-3_躯体と製品
  6
CONTINUOUS
 62
    4
 10
400.19805506563262
 20
279.69722313013972
 11
400.19805506563262
 21
296.99722313012853
  0
ARC
  8
_0-3_躯体と製品
  6
CONTINUOUS
 62
    4
 10
398.69805506563989
 20
297.74722313012853
 40
0.750000000000001
 50
90.000002999880451
 51
269.99999700011955
  0
LINE
  8
_0-3_躯体と製品
  6
CONTINUOUS
 62
    4
 10
375.19805506563262
 20
301.69722313014063
 11
441.19805506563262
 21
301.69722313014063
  0
LINE
  8
_0-3_躯体と製品
  6
CONTINUOUS
 62
    4
 10
375.19805506563262
 20
300.49722313012853
 11
441.19805506563262
 21
300.49722313012853
  0
LINE
  8
_0-3_躯体と製品
  6
CONTINUOUS
 62
    4
 10
400.19805506563262
 20
279.69722313013972
 11
401.19805506563262
 21
276.69722313014063
  0
LINE
  8
_0-3_躯体と製品
  6
CONTINUOUS
 62
    4
 10
398.69805506563262
 20
296.99722313012853
 11
417.69805506563262
 21
296.99722313012853
  0
LINE
  8
_0-3_躯体と製品
  6
CONTINUOUS
 62
    4
 10
391.19805506563262
 20
298.49722313012853
 11
425.19805506563262
 21
298.49722313012853
  0
LINE
  8
_0-3_躯体と製品
  6
CONTINUOUS
 62
    4
 10
400.19805506563262
 20
279.69722313013972
 11
416.19805506563262
 21
279.69722313013972
  0
LINE
  8
_0-3_躯体と製品
  6
CONTINUOUS
 62
    4
 10
400.19805506563262
 20
319.69722313014063
 11
416.19805506563262
 21
319.69722313014063
  0
LINE
  8
_0-3_躯体と製品
  6
CONTINUOUS
 62
    4
 10
430.57305506563262
 20
202.69722313014063
 11
428.19805506563262
 21
221.69722313014063
  0
LINE
  8
_0-3_躯体と製品
  6
CONTINUOUS
 62
    4
 10
430.57305506563262
 20
202.69722313014063
 11
429.99505506565265
 21
201.69722313014063
  0
LINE
  8
_0-3_躯体と製品
  6
CONTINUOUS
 62
    4
 10
428.19805506563262
 20
234.19722313014063
 11
428.19805506563262
 21
221.69722313014063
  0
LINE
  8
_0-3_躯体と製品
  6
CONTINUOUS
 62
    4
 10
388.19805506563262
 20
221.69722313014063
 11
428.19805506563262
 21
221.69722313014063
  0
LINE
  8
_0-3_躯体と製品
  6
CONTINUOUS
 62
    4
 10
385.82305506563262
 20
202.69722313014063
 11
388.19805506563262
 21
221.69722313014063
  0
LINE
  8
_0-3_躯体と製品
  6
CONTINUOUS
 62
    4
 10
385.82305506563262
 20
202.69722313014063
 11
386.40005506565149
 21
201.69722313014063
  0
LINE
  8
_0-3_躯体と製品
  6
CONTINUOUS
 62
    4
 10
388.19805506563262
 20
221.69722313014063
 11
388.19805506563262
 21
234.19722313014063
  0
LINE
  8
_0-3_躯体と製品
  6
CONTINUOUS
 62
    4
 10
386.40005506565149
 20
201.69722313014063
 11
429.99505506565265
 21
201.69722313014063
  0
LINE
  8
_0-3_躯体と製品
  6
CONTINUOUS
 62
    4
 10
385.82305506563262
 20
202.69722313014063
 11
430.57205506564355
 21
202.69722313014063
  0
LINE
  8
_0-3_躯体と製品
  6
CONTINUOUS
 62
    4
 10
428.19805506563262
 20
234.19722313014063
 11
388.19805506563262
 21
234.19722313014063
  0
LINE
  8
_0-3_躯体と製品
  6
CONTINUOUS
 62
    4
 10
338.19755697300047
 20
201.69722313014063
 11
323.19755697300047
 21
186.69722313014063
  0
LINE
  8
_0-3_躯体と製品
  6
CONTINUOUS
 62
    4
 10
333.19755697300047
 20
201.69722313014063
 11
318.19755697300047
 21
186.69722313014063
  0
LINE
  8
_0-3_躯体と製品
  6
CONTINUOUS
 62
    4
 10
328.19755697300047
 20
201.69722313014063
 11
313.19755697300047
 21
186.69722313014063
  0
LINE
  8
_0-3_躯体と製品
  6
CONTINUOUS
 62
    4
 10
488.19755697300047
 20
201.69722313014063
 11
473.19755697300047
 21
186.69722313014063
  0
LINE
  8
_0-3_躯体と製品
  6
CONTINUOUS
 62
    4
 10
483.19755697300047
 20
201.69722313014063
 11
468.19755697300047
 21
186.69722313014063
  0
LINE
  8
_0-3_躯体と製品
  6
CONTINUOUS
 62
    4
 10
478.19755697300047
 20
201.69722313014063
 11
463.19755697300047
 21
186.69722313014063
  0
LINE
  8
_0-4_文字-記号
  6
CONTINUOUS
 62
    7
 10
402.19805506564762
 20
243.94722313014063
 11
398.19517906564852
 21
250.88040713014061
  0
LINE
  8
_0-4_文字-記号
  6
CONTINUOUS
 62
    7
 10
398.19517906564852
 20
250.88040713014061
 11
354.08257257803962
 21
250.88040713014061
  0
TEXT
  8
_0-4_文字-記号
 62
    7
 10
356.44861860928449
 20
253.26984213013975
 40
6.5
 41
1
 50
0
  1
調整ボルト
  0
LINE
  8
_0-4_文字-記号
  6
CONTINUOUS
 62
    7
 10
418.42440834573063
 20
209.66200242037758
 11
439.80251097604355
 21
172.63404283772343
  0
LINE
  8
_0-4_文字-記号
  6
CONTINUOUS
 62
    7
 10
439.80251097604355
 20
172.63404283772343
 11
505.7718474084636
 21
172.63404283772343
  0
TEXT
  8
_0-4_文字-記号
 62
    7
 10
442.07630497604464
 20
175.02347783772348
 40
6.5
 41
1
 50
0
  1
クッションゴムＧ
  0
LINE
  8
_0-4_文字-記号
  6
CONTINUOUS
 62
    7
 10
342.49934186056862
 20
301.69722313014063
 11
327.36239339918257
 21
275.47925932346971
  0
LINE
  8
_0-4_文字-記号
  6
CONTINUOUS
 62
    7
 10
327.36239339918257
 20
275.47925932346971
 11
278.72375173261548
 21
275.47925932346971
  0
TEXT
  8
_0-4_文字-記号
 62
    7
 10
279.32295565517256
 20
278.29112992137971
 40
6.5
 41
1
 50
0
  1
シートパネル
  0
LINE
  8
_0-4_文字-記号
  6
CONTINUOUS
 62
    7
 10
424.40061458607147
 20
298.49722313012853
 11
437.79221289659154
 21
275.30229467628351
  0
LINE
  8
_0-4_文字-記号
  6
CONTINUOUS
 62
    7
 10
437.79221289659154
 20
275.30229467628351
 11
476.14893700507355
 21
275.30229467628351
  0
TEXT
  8
_0-4_文字-記号
 62
    7
 10
440.06600689659149
 20
277.69172967628356
 40
6.5
 41
1
 50
0
  1
調整ナット
  0
TEXT
  8
_0-4_文字-記号
 62
    7
 10
258.40288480766048
 20
408.36595716227339
 40
13
 41
0.9000000000000001
 50
0
  1
■メタルベース：Gタイプ（一般体育館用）
  0
LINE
  8
_0-4_文字-記号
  6
CONTINUOUS
 62
    7
 10
408.19805506563262
 20
351.69722313014063
 11
426.9671373395056
 21
384.20622723992847
  0
LINE
  8
_0-4_文字-記号
  6
CONTINUOUS
 62
    7
 10
426.9671373395056
 20
384.20622723992847
 11
501.03141289552354
 21
384.20622723992847
  0
TEXT
  8
_0-4_文字-記号
 62
    7
 10
433.68745677789661
 20
386.03650851761768
 40
6.5
 41
1
 50
0
  1
フローリング貼り
  0
LINE
  8
_0-4_文字-記号
  6
CONTINUOUS
 62
    7
 10
420.8547615417956
 20
329.69722313014063
 11
443.67698109944763
 21
369.22646694548439
  0
LINE
  8
_0-4_文字-記号
  6
CONTINUOUS
 62
    7
 10
443.67698109944763
 20
369.22646694548439
 11
488.71993302547958
 21
369.22646694548439
  0
TEXT
  8
_0-4_文字-記号
 62
    7
 10
452.06340562220657
 20
371.05674822317269
 40
6.5
 41
1
 50
0
  1
捨板貼り
  0
LINE
  8
_0-2_寸法
  6
CONTINUOUS
 62
    4
 10
555.19805506563262
 20
201.69722313014063
 11
579.78711519234048
 21
201.69722313014063
  0
LINE
  8
_0-2_寸法
  6
CONTINUOUS
 62
    4
 10
555.19805506563262
 20
321.69722313014063
 11
579.78711519234048
 21
321.69722313014063
  0
LINE
  8
_0-2_寸法
  6
CONTINUOUS
 62
    4
 10
579.78711519234048
 20
201.69722313014063
 11
579.78711519234048
 21
321.69722313014063
  0
INSERT
  2
-000-_Small
  8
_0-2_寸法
 10
579.78711519234048
 20
201.69722313014063
 41
1.25
 42
1.25
 50
270
  0
INSERT
  2
-000-_Small
  8
_0-2_寸法
 10
579.78711519234048
 20
321.69722313014063
 41
1.25
 42
1.25
 50
90
  0
POINT
  8
_0-2_寸法
 62
    7
 10
555.19805506563262
 20
201.69722313014063
  0
POINT
  8
_0-2_寸法
 62
    7
 10
555.19805506563262
 20
321.69722313014063
  0
POINT
  8
_0-2_寸法
 62
    7
 10
579.78711519234048
 20
321.69722313014063
  0
TEXT
  8
_0-2_寸法
 62
    7
 10
577.6266089769241
 20
259.23801187141521
 40
6.5
 41
1
 50
90
  1
h
  0
ENDSEC
  0
EOF
