  0
SECTION
  2
HEADER
  9
$ACADVER
  1
AC1009
  9
$INSBASE
 10
0
 20
0
 30
0
  9
$EXTMIN
 10
0
 20
0
  9
$EXTMAX
 10
1189
 20
841
  9
$LIMMIN
 10
0
 20
0
  9
$LIMMAX
 10
1189
 20
841
  9
$LTSCALE
 40
0.5
  0
ENDSEC
  0
SECTION
  2
TABLES
  0
TABLE
  2
LTYPE
 70
     9
  0
LTYPE
  2
CONTINUOUS
 70
    64
  3
実線
 72
    65
 73
     0
 40
0.0
  0
LTYPE
  2
DASHED1
 70
    64
  3
--  --  --  --  --  --  --  --  
 72
    65
 73
     2
 40
2.5
 49
1.25
 49
-1.25
  0
LTYPE
  2
DASHED2
 70
    64
  3
----    ----    ----    ----    
 72
    65
 73
     2
 40
5.0
 49
2.5
 49
-2.5
  0
LTYPE
  2
DASHED3
 70
    64
  3
------  ------  ------  ------  
 72
    65
 73
     2
 40
5.0
 49
3.75
 49
-1.25
  0
LTYPE
  2
CENTER1
 70
    64
  3
----- - ----- - ----- - ----- - 
 72
    65
 73
     4
 40
10.0
 49
6.25
 49
-1.25
 49
1.25
 49
-1.25
  0
LTYPE
  2
CENTER2
 70
    64
  3
----------  --  ----------  --  
 72
    65
 73
     4
 40
20.0
 49
12.5
 49
-2.5
 49
2.5
 49
-2.5
  0
LTYPE
  2
PHANTOM1
 70
    64
  3
--- - - --- - - --- - - --- - - 
 72
    65
 73
     6
 40
10.0
 49
3.25
 49
-1.25
 49
1.25
 49
-1.25
 49
1.25
 49
-1.25
  0
LTYPE
  2
PHANTOM2
 70
    64
  3
--------  -  -  --------  -  -  
 72
    65
 73
     6
 40
20.0
 49
10.0
 49
-2.5
 49
1.25
 49
-2.5
 49
1.25
 49
-2.5
  0
LTYPE
  2
DOT
 70
    64
  3
-   -   -   -   -   -   -   -   
 72
    65
 73
     2
 40
2.5
 49
0.625
 49
-1.875
  0
LTYPE
  2
DUMMY
 70
    64
  3
ダミー
 72
    65
 73
     0
 40
0.0
  0
LTYPE
  2
RAND1
 70
    64
  3
ランダム線1
 72
    65
 73
     4
 40
10.0
 49
1.0
 49
-2.0
 49
3.0
 49
-4.0
  0
LTYPE
  2
RAND2
 70
    64
  3
ランダム線2
 72
    65
 73
     4
 40
14.0
 49
2.0
 49
-3.0
 49
4.0
 49
-5.0
  0
LTYPE
  2
RAND3
 70
    64
  3
ランダム線3
 72
    65
 73
     4
 40
18.0
 49
3.0
 49
-4.0
 49
5.0
 49
-6.0
  0
LTYPE
  2
RAND4
 70
    64
  3
ランダム線4
 72
    65
 73
     4
 40
22.0
 49
4.0
 49
-5.0
 49
6.0
 49
-7.0
  0
LTYPE
  2
RAND5
 70
    64
  3
ランダム線5
 72
    65
 73
     4
 40
26.0
 49
5.0
 49
-6.0
 49
7.0
 49
-8.0
  0
LTYPE
  2
LONG1
 70
    64
  3
----------  --  ----------  --  
 72
    65
 73
     4
 40
40.0
 49
32.5
 49
-2.5
 49
2.5
 49
-2.5
  0
LTYPE
  2
LONG2
 70
    64
  3
--------  -  -  --------  -  -  
 72
    65
 73
     6
 40
40.0
 49
30.0
 49
-2.5
 49
1.25
 49
-2.5
 49
1.25
 49
-2.5
  0
LTYPE
  2
LONG3
 70
    64
  3
+++++++++++++++..+++++++++++++++
 72
    65
 73
     2
 40
40.0
 49
37.5
 49
-2.5
  0
LTYPE
  2
LONG4
 70
    64
  3
+++++++++++++++..+++++++++++++++
 72
    65
 73
     2
 40
80.0
 49
75.0
 49
-5.0
  0
LTYPE
  2
LONG5
 70
    64
  3
----------  --  ----------  --  
 72
    65
 73
     4
 40
60.0
 49
37.5
 49
-7.5
 49
7.5
 49
-7.5
  0
LTYPE
  2
dashed
 70
   64
  3
-------   -------------   ------
 72
   65
 73
    2
 40
7.5
 49
6
 49
-1.5
  0
LTYPE
  2
dashed_spaced
 70
   64
  3
----        --------        ----
 72
   65
 73
    2
 40
12
 49
6
 49
-6
  0
LTYPE
  2
long_dashed_dotted
 70
   64
  3
------------- --- --------------
 72
   65
 73
    4
 40
15.25
 49
12
 49
-1.5
 49
0.25
 49
-1.5
  0
LTYPE
  2
long_dashed_double-dotted
 70
   64
  3
----------- --- --- ------------
 72
   65
 73
    6
 40
17
 49
12
 49
-1.5
 49
0.25
 49
-1.5
 49
0.25
 49
-1.5
  0
LTYPE
  2
long_dashed_triplicate-dotted
 70
   64
  3
--------- --- --- --- ----------
 72
   65
 73
    8
 40
18.75
 49
12
 49
-1.5
 49
0.25
 49
-1.5
 49
0.25
 49
-1.5
 49
0.25
 49
-1.5
  0
LTYPE
  2
dotted
 70
   64
  3
   -       -       -       -    
 72
   65
 73
    2
 40
1.75
 49
0.25
 49
-1.5
  0
LTYPE
  2
chain
 70
   64
  3
-------------- -- --------------
 72
   65
 73
    4
 40
18.5
 49
12
 49
-1.5
 49
3.5
 49
-1.5
  0
LTYPE
  2
chain_double_dash
 70
   64
  3
------------ -- -- -------------
 72
   65
 73
    6
 40
23.5
 49
12
 49
-1.5
 49
3.5
 49
-1.5
 49
3.5
 49
-1.5
  0
LTYPE
  2
dashed_dotted
 70
   64
  3
-----------     -     ----------
 72
   65
 73
    4
 40
9.25
 49
6
 49
-1.5
 49
0.25
 49
-1.5
  0
LTYPE
  2
double-dashed_dotted
 70
   64
  3
------   -----------   -   -----
 72
   65
 73
    6
 40
16.75
 49
6
 49
-1.5
 49
6
 49
-1.5
 49
0.25
 49
-1.5
  0
LTYPE
  2
dashed_double-dotted
 70
   64
  3
---------    -    -    ---------
 72
   65
 73
    6
 40
11
 49
6
 49
-1.5
 49
0.25
 49
-1.5
 49
0.25
 49
-1.5
  0
LTYPE
  2
double-dashed_double-dotted
 70
   64
  3
-----   ---------   -   -   ----
 72
   65
 73
    8
 40
18.5
 49
6
 49
-1.5
 49
6
 49
-1.5
 49
0.25
 49
-1.5
 49
0.25
 49
-1.5
  0
LTYPE
  2
dashed_triplicate-dotted
 70
   64
  3
-------    -    -    -    ------
 72
   65
 73
    8
 40
12.75
 49
6
 49
-1.5
 49
0.25
 49
-1.5
 49
0.25
 49
-1.5
 49
0.25
 49
-1.5
  0
LTYPE
  2
double-dashed_triplicate-dotted
 70
   64
  3
-----  ---------  -  -  -  -----
 72
   65
 73
   10
 40
20.25
 49
6
 49
-1.5
 49
6
 49
-1.5
 49
0.25
 49
-1.5
 49
0.25
 49
-1.5
 49
0.25
 49
-1.5
  0
LTYPE
  2
undefined
 70
   64
  3
--------------------------------
 72
   65
 73
    0
 40
0
  0
LTYPE
  2
PLINE2
 70
   64
  3
------     -----------     -----
 72
   65
 73
    2
 40
3
 49
2.1000000000000001
 49
-0.9
  0
LTYPE
  2
PHANTOM2_18
 70
   64
  3
---------   ---   ---   --------
 72
   65
 73
    6
 40
1.25
 49
0.625
 49
-0.125
 49
0.125
 49
-0.125
 49
0.125
 49
-0.125
  0
ENDTAB
  0
TABLE
  2
STYLE
  5
3
100
AcDbSymbolTable
 70
     1
  0
STYLE
  5
10
100
AcDbSymbolTableRecord
100
AcDbTextStyleTableRecord
  2
STANDARD
 70
     0
 40
0.0
 41
1.0
 50
0.0
 71
     0
 42
0.2
  3
txt
  4
bigfont.shx
  0
STYLE
  5
26
100
AcDbSymbolTableRecord
100
AcDbTextStyleTableRecord
  2
TATEGAKI
 70
    68
 40
0.0
 41
1.0
 50
0.0
 71
     0
 42
1.0
  3
txt
  4
bigfont.shx
  0
ENDTAB
  0
TABLE
  2
LAYER
 70
    5
  0
LAYER
  2
_0-2_寸法
 70
   64
 62
    7
  6
CONTINUOUS
  0
LAYER
  2
_0-3_躯体と製品
 70
   64
 62
    7
  6
CONTINUOUS
  0
LAYER
  2
_0-4_文字-記号
 70
   64
 62
    7
  6
CONTINUOUS
  0
LAYER
  2
_0-5_中心線
 70
   64
 62
    7
  6
CONTINUOUS
  0
LAYER
  2
ADD_LINE
 70
   64
 62
    7
  6
CONTINUOUS
  0
ENDTAB
  0
ENDSEC
  0
SECTION
  2
BLOCKS
  0
BLOCK
  2
-000-_Dot
 70
   64
 10
0
 20
0
 30
0
  0
CIRCLE
  8
_0-0_0
  6
CONTINUOUS
 62
    7
 10
0
 20
0
 40
0.25
  0
LINE
  8
_0-0_0
  6
CONTINUOUS
 62
    7
 10
0.25
 20
0
 11
-0.25
 21
0
  0
LINE
  8
_0-0_0
  6
CONTINUOUS
 62
    7
 10
-0.5
 20
0
 11
-1
 21
0
  0
ENDBLK
  0
BLOCK
  2
-001-_D2
 70
   64
 10
0
 20
0
 30
0
  0
LINE
  8
_0-2_寸法
  6
CONTINUOUS
 62
    4
 10
8566.4554297079176
 20
8348.1148162650534
 11
8611.5586066151063
 21
8348.1148162650534
  0
LINE
  8
_0-2_寸法
  6
CONTINUOUS
 62
    4
 10
8566.4554297079176
 20
8372.2833162650513
 11
8611.5586066151063
 21
8372.2833162650513
  0
LINE
  8
_0-2_寸法
  6
CONTINUOUS
 62
    4
 10
8611.5586066151063
 20
8343.1148162650534
 11
8611.5586066151063
 21
8338.1148162650516
  0
LINE
  8
_0-2_寸法
  6
CONTINUOUS
 62
    4
 10
8611.5586066151063
 20
8377.2833162650513
 11
8611.5586066151063
 21
8382.2833162650495
  0
LINE
  8
_0-2_寸法
  6
CONTINUOUS
 62
    4
 10
8611.5586066151063
 20
8360.1990662650514
 11
8637.8086066151081
 21
8368.0740662650514
  0
LINE
  8
_0-2_寸法
  6
CONTINUOUS
 62
    4
 10
8637.8086066151081
 20
8368.0740662650514
 11
8637.8086066151081
 21
8412.1216853126698
  0
TEXT
  8
_0-2_寸法
 62
    7
 10
8630.3086066151045
 20
8380.0978757888624
 40
10
 41
1
 50
90
  1
14.5
  0
LINE
  8
_0-2_寸法
  6
CONTINUOUS
 62
    4
 10
8611.5586066151063
 20
8348.1148162650534
 11
8611.5586066151063
 21
8372.2833162650513
  0
INSERT
  2
-000-_Dot
  8
_0-2_寸法
 10
8611.5586066151063
 20
8348.1148162650534
 41
5
 42
5
 50
90
  0
INSERT
  2
-000-_Dot
  8
_0-2_寸法
 10
8611.5586066151063
 20
8372.2833162650513
 41
5
 42
5
 50
270
  0
POINT
  8
_0-1_Defpoints
 62
    7
 10
8561.4554297079176
 20
8348.1148162650534
  0
POINT
  8
_0-1_Defpoints
 62
    7
 10
8561.4554297079176
 20
8372.2833162650513
  0
POINT
  8
_0-1_Defpoints
 62
    7
 10
8611.5586066151063
 20
8372.2833162650513
  0
ENDBLK
  0
BLOCK
  2
-002-_D3
 70
   64
 10
0
 20
0
 30
0
  0
LINE
  8
_0-2_寸法
  6
CONTINUOUS
 62
    4
 10
7548.7232710121416
 20
8287.3940285526241
 11
7548.7232710121416
 21
8241.1002729796564
  0
LINE
  8
_0-2_寸法
  6
CONTINUOUS
 62
    4
 10
8048.7232710121434
 20
8287.3940285526241
 11
8048.7232710121434
 21
8241.1002729796564
  0
LINE
  8
_0-2_寸法
  6
CONTINUOUS
 62
    4
 10
7553.7232710121416
 20
8241.1002729796564
 11
8043.7232710121416
 21
8241.1002729796564
  0
INSERT
  2
-000-_Dot
  8
_0-2_寸法
 10
7548.7232710121416
 20
8241.1002729796564
 41
5
 42
5
 50
180
  0
INSERT
  2
-000-_Dot
  8
_0-2_寸法
 10
8048.7232710121434
 20
8241.1002729796564
 41
5
 42
5
 50
0
  0
TEXT
  8
_0-2_寸法
 62
    7
 10
7791.2232710121434
 20
8248.6002729796546
 40
10
 41
1
 50
0
  1
500
  0
POINT
  8
_0-1_Defpoints
 62
    7
 10
7548.7232710121416
 20
8292.394028552626
  0
POINT
  8
_0-1_Defpoints
 62
    7
 10
8048.7232710121434
 20
8292.394028552626
  0
POINT
  8
_0-1_Defpoints
 62
    7
 10
8048.7232710121434
 20
8241.1002729796564
  0
ENDBLK
  0
BLOCK
  2
-003-_D4
 70
   64
 10
0
 20
0
 30
0
  0
LINE
  8
_0-2_寸法
  6
CONTINUOUS
 62
    4
 10
8053.7232710121443
 20
8492.394028552626
 11
8092.9336778012621
 21
8492.394028552626
  0
LINE
  8
_0-2_寸法
  6
CONTINUOUS
 62
    4
 10
8053.7232710121443
 20
8292.394028552626
 11
8092.9336778012621
 21
8292.394028552626
  0
LINE
  8
_0-2_寸法
  6
CONTINUOUS
 62
    4
 10
8092.9336778012621
 20
8487.3940285526278
 11
8092.9336778012621
 21
8297.3940285526278
  0
INSERT
  2
-000-_Dot
  8
_0-2_寸法
 10
8092.9336778012621
 20
8492.394028552626
 41
5
 42
5
 50
90
  0
INSERT
  2
-000-_Dot
  8
_0-2_寸法
 10
8092.9336778012621
 20
8292.394028552626
 41
5
 42
5
 50
270
  0
TEXT
  8
_0-2_寸法
 62
    7
 10
8085.4336778012612
 20
8384.8940285526278
 40
10
 41
1
 50
90
  1
200
  0
POINT
  8
_0-1_Defpoints
 62
    7
 10
8048.7232710121434
 20
8492.394028552626
  0
POINT
  8
_0-1_Defpoints
 62
    7
 10
8048.7232710121434
 20
8292.394028552626
  0
POINT
  8
_0-1_Defpoints
 62
    7
 10
8092.9336778012621
 20
8292.394028552626
  0
ENDBLK
  0
BLOCK
  2
-004-_D5
 70
   64
 10
0
 20
0
 30
0
  0
LINE
  8
_0-2_寸法
  6
CONTINUOUS
 62
    4
 10
7408.9902906304151
 20
8492.3939285526249
 11
7346.5586852047518
 21
8492.3939285526249
  0
LINE
  8
_0-2_寸法
  6
CONTINUOUS
 62
    4
 10
7408.9902906304151
 20
8292.3941285526271
 11
7346.5586852047518
 21
8292.3941285526271
  0
LINE
  8
_0-2_寸法
  6
CONTINUOUS
 62
    4
 10
7346.5586852047518
 20
8487.3939285526249
 11
7346.5586852047518
 21
8297.3941285526253
  0
INSERT
  2
-000-_Dot
  8
_0-2_寸法
 10
7346.5586852047518
 20
8492.3939285526249
 41
5
 42
5
 50
90
  0
INSERT
  2
-000-_Dot
  8
_0-2_寸法
 10
7346.5586852047518
 20
8292.3941285526271
 41
5
 42
5
 50
270
  0
TEXT
  8
_0-2_寸法
 62
    7
 10
7339.0586852047509
 20
8384.8940285526278
 40
10
 41
1
 50
90
  1
200
  0
POINT
  8
_0-1_Defpoints
 62
    7
 10
7413.9902906304151
 20
8492.3939285526249
  0
POINT
  8
_0-1_Defpoints
 62
    7
 10
7413.9902906304151
 20
8292.3941285526271
  0
POINT
  8
_0-1_Defpoints
 62
    7
 10
7346.5586852047518
 20
8292.3941285526271
  0
ENDBLK
  0
BLOCK
  2
-005-_D6
 70
   64
 10
0
 20
0
 30
0
  0
LINE
  8
_0-2_寸法
  6
CONTINUOUS
 62
    4
 10
7413.9902906304151
 20
8287.3941285526271
 11
7413.9902906304151
 21
8241.1002729796564
  0
LINE
  8
_0-2_寸法
  6
CONTINUOUS
 62
    4
 10
7428.4913906304091
 20
8287.3941285526271
 11
7428.4913906304091
 21
8241.1002729796564
  0
LINE
  8
_0-2_寸法
  6
CONTINUOUS
 62
    4
 10
7408.9902906304151
 20
8241.1002729796564
 11
7403.9902906304151
 21
8241.1002729796564
  0
LINE
  8
_0-2_寸法
  6
CONTINUOUS
 62
    4
 10
7433.4913906304091
 20
8241.1002729796564
 11
7438.4913906304091
 21
8241.1002729796564
  0
LINE
  8
_0-2_寸法
  6
CONTINUOUS
 62
    4
 10
7421.2408406304121
 20
8241.1002729796564
 11
7427.860978394815
 21
8216.6434769618245
  0
LINE
  8
_0-2_寸法
  6
CONTINUOUS
 62
    4
 10
7427.860978394815
 20
8216.6434769618245
 11
7471.9085974424352
 21
8216.6434769618245
  0
TEXT
  8
_0-2_寸法
 62
    7
 10
7439.8847879186242
 20
8224.1434769618245
 40
10
 41
1
 50
0
  1
14.5
  0
LINE
  8
_0-2_寸法
  6
CONTINUOUS
 62
    4
 10
7413.9902906304151
 20
8241.1002729796564
 11
7428.4913906304091
 21
8241.1002729796564
  0
INSERT
  2
-000-_Dot
  8
_0-2_寸法
 10
7413.9902906304151
 20
8241.1002729796564
 41
5
 42
5
 50
0
  0
INSERT
  2
-000-_Dot
  8
_0-2_寸法
 10
7428.4913906304091
 20
8241.1002729796564
 41
5
 42
5
 50
180
  0
POINT
  8
_0-1_Defpoints
 62
    7
 10
7413.9902906304151
 20
8292.3941285526271
  0
POINT
  8
_0-1_Defpoints
 62
    7
 10
7428.4913906304091
 20
8292.3941285526271
  0
POINT
  8
_0-1_Defpoints
 62
    7
 10
7428.4913906304091
 20
8241.1002729796564
  0
ENDBLK
  0
BLOCK
  2
-006-_D7
 70
   64
 10
0
 20
0
 30
0
  0
LINE
  8
_0-2_寸法
  6
CONTINUOUS
 62
    4
 10
7548.7232710121416
 20
8625.79375641976
 11
7548.7232710121416
 21
8579.5000008467905
  0
LINE
  8
_0-2_寸法
  6
CONTINUOUS
 62
    4
 10
8548.7232710121425
 20
8625.79375641976
 11
8548.7232710121425
 21
8579.5000008467905
  0
LINE
  8
_0-2_寸法
  6
CONTINUOUS
 62
    4
 10
7553.7232710121416
 20
8579.5000008467905
 11
8543.7232710121425
 21
8579.5000008467905
  0
INSERT
  2
-000-_Dot
  8
_0-2_寸法
 10
7548.7232710121416
 20
8579.5000008467905
 41
5
 42
5
 50
180
  0
INSERT
  2
-000-_Dot
  8
_0-2_寸法
 10
8548.7232710121425
 20
8579.5000008467905
 41
5
 42
5
 50
0
  0
TEXT
  8
_0-2_寸法
 62
    7
 10
8038.7232710121434
 20
8587.0000008467887
 40
10
 41
1
 50
0
  1
1000
  0
POINT
  8
_0-1_Defpoints
 62
    7
 10
7548.7232710121416
 20
8630.7937564197618
  0
POINT
  8
_0-1_Defpoints
 62
    7
 10
8548.7232710121425
 20
8630.7937564197618
  0
POINT
  8
_0-1_Defpoints
 62
    7
 10
8548.7232710121425
 20
8579.5000008467905
  0
ENDBLK
  0
BLOCK
  2
-007-_D8
 70
   64
 10
0
 20
0
 30
0
  0
LINE
  8
_0-2_寸法
  6
CONTINUOUS
 62
    4
 10
7408.9902906304151
 20
8830.7936564197589
 11
7346.5586852047518
 21
8830.7936564197589
  0
LINE
  8
_0-2_寸法
  6
CONTINUOUS
 62
    4
 10
7408.9902906304151
 20
8630.7938564197611
 11
7346.5586852047518
 21
8630.7938564197611
  0
LINE
  8
_0-2_寸法
  6
CONTINUOUS
 62
    4
 10
7346.5586852047518
 20
8825.7936564197607
 11
7346.5586852047518
 21
8635.7938564197611
  0
INSERT
  2
-000-_Dot
  8
_0-2_寸法
 10
7346.5586852047518
 20
8830.7936564197589
 41
5
 42
5
 50
90
  0
INSERT
  2
-000-_Dot
  8
_0-2_寸法
 10
7346.5586852047518
 20
8630.7938564197611
 41
5
 42
5
 50
270
  0
TEXT
  8
_0-2_寸法
 62
    7
 10
7339.0586852047509
 20
8723.2937564197618
 40
10
 41
1
 50
90
  1
200
  0
POINT
  8
_0-1_Defpoints
 62
    7
 10
7413.9902906304151
 20
8830.7936564197589
  0
POINT
  8
_0-1_Defpoints
 62
    7
 10
7413.9902906304151
 20
8630.7938564197611
  0
POINT
  8
_0-1_Defpoints
 62
    7
 10
7346.5586852047518
 20
8630.7938564197611
  0
ENDBLK
  0
BLOCK
  2
-008-_D9
 70
   64
 10
0
 20
0
 30
0
  0
LINE
  8
_0-2_寸法
  6
CONTINUOUS
 62
    4
 10
7413.9902906304151
 20
8625.7938564197611
 11
7413.9902906304151
 21
8579.5000008467905
  0
LINE
  8
_0-2_寸法
  6
CONTINUOUS
 62
    4
 10
7428.4913906304091
 20
8625.7938564197611
 11
7428.4913906304091
 21
8579.5000008467905
  0
LINE
  8
_0-2_寸法
  6
CONTINUOUS
 62
    4
 10
7408.9902906304151
 20
8579.5000008467905
 11
7403.9902906304151
 21
8579.5000008467905
  0
LINE
  8
_0-2_寸法
  6
CONTINUOUS
 62
    4
 10
7433.4913906304091
 20
8579.5000008467905
 11
7438.4913906304091
 21
8579.5000008467905
  0
LINE
  8
_0-2_寸法
  6
CONTINUOUS
 62
    4
 10
7421.2408406304121
 20
8579.5000008467905
 11
7427.860978394815
 21
8555.0432048289604
  0
LINE
  8
_0-2_寸法
  6
CONTINUOUS
 62
    4
 10
7427.860978394815
 20
8555.0432048289604
 11
7471.9085974424352
 21
8555.0432048289604
  0
TEXT
  8
_0-2_寸法
 62
    7
 10
7439.8847879186242
 20
8562.5432048289586
 40
10
 41
1
 50
0
  1
14.5
  0
LINE
  8
_0-2_寸法
  6
CONTINUOUS
 62
    4
 10
7413.9902906304151
 20
8579.5000008467905
 11
7428.4913906304091
 21
8579.5000008467905
  0
INSERT
  2
-000-_Dot
  8
_0-2_寸法
 10
7413.9902906304151
 20
8579.5000008467905
 41
5
 42
5
 50
0
  0
INSERT
  2
-000-_Dot
  8
_0-2_寸法
 10
7428.4913906304091
 20
8579.5000008467905
 41
5
 42
5
 50
180
  0
POINT
  8
_0-1_Defpoints
 62
    7
 10
7413.9902906304151
 20
8630.7938564197611
  0
POINT
  8
_0-1_Defpoints
 62
    7
 10
7428.4913906304091
 20
8630.7938564197611
  0
POINT
  8
_0-1_Defpoints
 62
    7
 10
7428.4913906304091
 20
8579.5000008467905
  0
ENDBLK
  0
BLOCK
  2
-009-_D10
 70
   64
 10
0
 20
0
 30
0
  0
LINE
  8
_0-2_寸法
  6
CONTINUOUS
 62
    4
 10
8553.7232710121443
 20
8830.79375641976
 11
8592.9336778012621
 21
8830.79375641976
  0
LINE
  8
_0-2_寸法
  6
CONTINUOUS
 62
    4
 10
8553.7232710121443
 20
8630.7937564197618
 11
8592.9336778012621
 21
8630.7937564197618
  0
LINE
  8
_0-2_寸法
  6
CONTINUOUS
 62
    4
 10
8592.9336778012621
 20
8825.7937564197618
 11
8592.9336778012621
 21
8635.79375641976
  0
INSERT
  2
-000-_Dot
  8
_0-2_寸法
 10
8592.9336778012621
 20
8830.79375641976
 41
5
 42
5
 50
90
  0
INSERT
  2
-000-_Dot
  8
_0-2_寸法
 10
8592.9336778012621
 20
8630.7937564197618
 41
5
 42
5
 50
270
  0
TEXT
  8
_0-2_寸法
 62
    7
 10
8585.4336778012585
 20
8723.2937564197618
 40
10
 41
1
 50
90
  1
200
  0
POINT
  8
_0-1_Defpoints
 62
    7
 10
8548.7232710121425
 20
8830.79375641976
  0
POINT
  8
_0-1_Defpoints
 62
    7
 10
8548.7232710121425
 20
8630.7937564197618
  0
POINT
  8
_0-1_Defpoints
 62
    7
 10
8592.9336778012621
 20
8630.7937564197618
  0
ENDBLK
  0
ENDSEC
  0
SECTION
  2
ENTITIES
  0
CIRCLE
  8
_0-3_躯体と製品
  6
CONTINUOUS
 62
    4
 10
189.64812869311118
 20
288.21467510153889
 40
2.1000000000000001
  0
CIRCLE
  8
_0-3_躯体と製品
  6
CONTINUOUS
 62
    4
 10
189.64812869311118
 20
288.21467510153889
 40
4.5
  0
CIRCLE
  8
_0-3_躯体と製品
  6
CONTINUOUS
 62
    4
 10
189.64812869311118
 20
468.21467510153889
 40
4.5
  0
CIRCLE
  8
_0-3_躯体と製品
  6
CONTINUOUS
 62
    4
 10
189.64812869311118
 20
468.21467510153889
 40
2.1000000000000001
  0
CIRCLE
  8
_0-3_躯体と製品
  6
CONTINUOUS
 62
    4
 10
629.64812869311208
 20
288.21467510153889
 40
2.1000000000000001
  0
CIRCLE
  8
_0-3_躯体と製品
  6
CONTINUOUS
 62
    4
 10
629.64812869311208
 20
288.21467510153889
 40
4.5
  0
CIRCLE
  8
_0-3_躯体と製品
  6
CONTINUOUS
 62
    4
 10
646.6481286931139
 20
337.71467510153889
 40
2.5
  0
CIRCLE
  8
_0-3_躯体と製品
  6
CONTINUOUS
 62
    4
 10
646.6481286931139
 20
418.71467510153889
 40
2.5
  0
CIRCLE
  8
_0-3_躯体と製品
  6
CONTINUOUS
 62
    4
 10
629.64812869311208
 20
468.21467510153889
 40
2.1000000000000001
  0
CIRCLE
  8
_0-3_躯体と製品
  6
CONTINUOUS
 62
    4
 10
629.64812869311208
 20
468.21467510153889
 40
4.5
  0
LINE
  8
_0-3_躯体と製品
  6
CONTINUOUS
 62
    3
 10
999.36028738888035
 20
320.60362948063266
 11
775.35828738889177
 21
320.60362948063266
  0
LINE
  8
_0-3_躯体と製品
  6
CONTINUOUS
 62
    3
 10
999.36028738888035
 20
312.271962813973
 11
775.35828738889177
 21
312.271962813973
  0
LINE
  8
_0-3_躯体と製品
  6
CONTINUOUS
 62
    4
 10
1172.3802873888881
 20
260.10379614729754
 11
775.35828738889177
 21
260.10379614729754
  0
LINE
  8
_0-3_躯体と製品
  6
CONTINUOUS
 62
    4
 10
1172.3802873888881
 20
255.60529614730331
 11
775.35828738889177
 21
255.60529614730331
  0
TEXT
  8
_0-4_文字-記号
 62
    7
 10
789.20937224818863
 20
418.73103486868422
 40
10
 41
1
 50
0
  1
仕上材
  0
LINE
  8
_0-4_文字-記号
  6
CONTINUOUS
 62
    7
 10
885.86606740246771
 20
358.93729614729818
 11
849.48535303946574
 21
421.9505418397257
  0
LINE
  8
_0-4_文字-記号
  6
CONTINUOUS
 62
    7
 10
849.48535303946574
 20
421.9505418397257
 11
828.29609188088671
 21
421.9505418397257
  0
LINE
  8
_0-3_躯体と製品
  6
CONTINUOUS
 62
    4
 10
932.40345405554126
 20
358.9372961473
 11
775.35828738889177
 21
358.9372961473
  0
LINE
  8
_0-3_躯体と製品
  6
PLINE2
 62
    4
 10
868.09695405554248
 20
300.27029614729872
 11
868.09695405554248
 21
259.26879614730024
  0
LINE
  8
_0-3_躯体と製品
  6
PLINE2
 62
    4
 10
866.09695405552247
 20
300.27029614729872
 11
866.09695405552247
 21
259.26879614730024
  0
ARC
  8
_0-3_躯体と製品
  6
PLINE2
 62
    4
 10
864.42845405555227
 20
259.26879614728887
 40
3.6664999999916086
 50
269.99999700029792
 51
0.0000000001780601
  0
ARC
  8
_0-3_躯体と製品
  6
PLINE2
 62
    4
 10
845.59695405552952
 20
259.26879614729643
 40
3.6664999999992074
 50
180.00000599969954
 51
269.99999700002377
  0
LINE
  8
_0-3_躯体と製品
  6
PLINE2
 62
    4
 10
864.4284540555318
 20
257.60379614729754
 11
845.26195405554336
 21
257.60379614729754
  0
LINE
  8
_0-3_躯体と製品
  6
PLINE2
 62
    4
 10
864.4284540555318
 20
255.60379614729936
 11
845.5969540555443
 21
255.60379614729936
  0
ARC
  8
_0-3_躯体と製品
  6
PLINE2
 62
    4
 10
845.26195405554074
 20
259.26879614729035
 40
1.6664999999895054
 50
180.00000599948004
 51
269.99999699980424
  0
LINE
  8
_0-3_躯体と製品
  6
PLINE2
 62
    4
 10
841.92845405553362
 20
259.26879614730024
 11
841.92845405553362
 21
260.10379614729754
  0
LINE
  8
_0-3_躯体と製品
  6
PLINE2
 62
    4
 10
841.92845405553362
 20
260.10379614729754
 11
843.59695405552065
 21
260.10379614729754
  0
LINE
  8
_0-3_躯体と製品
  6
PLINE2
 62
    4
 10
843.59695405552065
 20
260.10379614729754
 11
843.59695405552065
 21
259.26879614730024
  0
ARC
  8
_0-3_躯体と製品
  6
PLINE2
 62
    4
 10
864.42845405552589
 20
259.26879614730069
 40
1.6664999999997876
 50
269.99999700010522
 51
359.99999999998539
  0
ARC
  8
_0-3_躯体と製品
  6
PLINE2
 62
    4
 10
926.09695405555863
 20
259.26879614729643
 40
3.6664999999992074
 50
180.00000599969954
 51
269.99999700002377
  0
ARC
  8
_0-3_躯体と製品
  6
PLINE2
 62
    4
 10
944.92845405553317
 20
259.26879614728978
 40
3.6664999999925185
 50
269.99999700028371
 51
0.0000000001638367
  0
ARC
  8
_0-3_躯体と製品
  6
PLINE2
 62
    4
 10
926.09695405554623
 20
259.26879614731672
 40
1.6665000000158807
 50
180.00000600038683
 51
269.99999700071106
  0
LINE
  8
_0-3_躯体と製品
  6
PLINE2
 62
    4
 10
945.26195405554154
 20
257.60379614729754
 11
926.09695405552065
 21
257.60379614729754
  0
LINE
  8
_0-3_躯体と製品
  6
PLINE2
 62
    4
 10
944.92845405556091
 20
255.60379614729936
 11
926.09695405552065
 21
255.60379614729936
  0
ARC
  8
_0-3_躯体と製品
  6
PLINE2
 62
    4
 10
945.2619540555329
 20
259.2687961473016
 40
1.6665000000006964
 50
269.99999700007396
 51
359.99999999995413
  0
LINE
  8
_0-3_躯体と製品
  6
PLINE2
 62
    4
 10
946.92845405553362
 20
259.26879614730024
 11
946.92845405553362
 21
260.10379614729754
  0
LINE
  8
_0-3_躯体と製品
  6
PLINE2
 62
    4
 10
946.92845405553362
 20
260.10379614729754
 11
948.59695405552247
 21
260.10379614729754
  0
LINE
  8
_0-3_躯体と製品
  6
PLINE2
 62
    4
 10
948.59695405552247
 20
260.10379614729754
 11
948.59695405552247
 21
259.26879614730024
  0
ARC
  8
_0-3_躯体と製品
  6
PLINE2
 62
    4
 10
869.76195405554631
 20
300.27029614730122
 40
3.6664999999968551
 50
90.000002999939426
 51
180.00000599985489
  0
LINE
  8
_0-3_躯体と製品
  6
PLINE2
 62
    4
 10
869.76195405555973
 20
303.93879614729667
 11
920.76195405552335
 21
303.93879614729667
  0
LINE
  8
_0-3_躯体と製品
  6
PLINE2
 62
    4
 10
869.76195405555973
 20
301.93879614729849
 11
920.76195405552335
 21
301.93879614729849
  0
ARC
  8
_0-3_躯体と製品
  6
PLINE2
 62
    4
 10
869.76195405553506
 20
300.27029614728156
 40
1.6665000000147394
 50
90.000002999249674
 51
180.00000599916515
  0
LINE
  8
_0-3_躯体と製品
  6
PLINE2
 62
    4
 10
922.42845405556272
 20
259.26879614730024
 11
922.42845405556272
 21
300.27029614729872
  0
ARC
  8
_0-3_躯体と製品
  6
PLINE2
 62
    4
 10
920.76195405556382
 20
300.27029614729736
 40
1.6664999999988774
 50
0.0000000000458712
 51
90.000002999926068
  0
LINE
  8
_0-3_躯体と製品
  6
PLINE2
 62
    4
 10
924.42845405553362
 20
259.26879614730024
 11
924.42845405553362
 21
300.27029614729872
  0
ARC
  8
_0-3_躯体と製品
  6
PLINE2
 62
    4
 10
920.76195405554381
 20
300.27029614730827
 40
3.6664999999897887
 50
359.99999999985033
 51
90.00000299973054
  0
TEXT
  8
_0-4_文字-記号
 62
    7
 10
743.02862894923055
 20
390.37020270158064
 40
10
 41
1
 50
0
  1
捨貼材
  0
INSERT
  2
-001-_D2
  8
_0-2_寸法
 10
-7389.0751423190295
 20
-8014.1793534510871
 41
1
 42
1
 50
0
  0
LINE
  8
_0-3_躯体と製品
  6
CONTINUOUS
 62
    3
 10
999.90328738886365
 20
348.93546281396812
 11
1129.9032873888618
 21
348.93546281396812
  0
LINE
  8
_0-3_躯体と製品
  6
CONTINUOUS
 62
    3
 10
1129.9032873888618
 20
348.93546281396812
 11
1129.9032873888618
 21
351.43546281396812
  0
LINE
  8
_0-3_躯体と製品
  6
CONTINUOUS
 62
    3
 10
1129.9032873888618
 20
351.43546281396812
 11
999.90328738886365
 21
351.43546281396812
  0
LINE
  8
_0-3_躯体と製品
  6
CONTINUOUS
 62
    3
 10
999.90328738886365
 20
351.43546281396812
 11
999.90328738886365
 21
348.93546281396812
  0
LINE
  8
_0-3_躯体と製品
  6
CENTER1
 62
    7
 10
981.79828738889319
 20
366.83196281396704
 11
981.79828738889319
 21
283.39896281396432
  0
LINE
  8
_0-3_躯体と製品
  6
CONTINUOUS
 62
    4
 10
997.42178738886923
 20
333.9354628139663
 11
967.07678738887898
 21
328.9372961473
  0
LINE
  8
_0-3_躯体と製品
  6
CONTINUOUS
 62
    4
 10
967.07678738887898
 20
328.9372961473
 11
967.07678738887898
 21
333.9354628139663
  0
LINE
  8
_0-3_躯体と製品
  6
CONTINUOUS
 62
    4
 10
967.07678738887898
 20
333.9354628139663
 11
997.42178738886923
 21
333.9354628139663
  0
LINE
  8
_0-3_躯体と製品
  6
CONTINUOUS
 62
    4
 10
997.42178738886923
 20
333.9354628139663
 11
997.42178738886923
 21
328.9372961473
  0
LINE
  8
_0-3_躯体と製品
  6
CONTINUOUS
 62
    4
 10
997.42178738886923
 20
328.9372961473
 11
967.07678738887898
 21
328.9372961473
  0
LINE
  8
_0-3_躯体と製品
  6
CONTINUOUS
 62
    4
 10
995.73678738886974
 20
353.9354628139663
 11
995.73678738886974
 21
337.26896281396512
  0
LINE
  8
_0-3_躯体と製品
  6
CONTINUOUS
 62
    4
 10
995.73678738886974
 20
337.26896281396512
 11
969.07028738887766
 21
337.26896281396512
  0
LINE
  8
_0-3_躯体と製品
  6
CONTINUOUS
 62
    4
 10
969.07028738887766
 20
337.26896281396512
 11
969.07028738887766
 21
353.9354628139663
  0
LINE
  8
_0-3_躯体と製品
  6
CONTINUOUS
 62
    4
 10
969.07028738887766
 20
353.9354628139663
 11
995.73678738886974
 21
353.9354628139663
  0
LINE
  8
_0-3_躯体と製品
  6
CONTINUOUS
 62
    3
 10
1134.9032873888636
 20
348.93546281396812
 11
1172.3802873888881
 21
348.93546281396812
  0
LINE
  8
_0-3_躯体と製品
  6
CONTINUOUS
 62
    3
 10
1172.3802873888881
 20
348.93546281396812
 11
1172.3802873888881
 21
351.43546281396812
  0
LINE
  8
_0-3_躯体と製品
  6
CONTINUOUS
 62
    3
 10
1172.3802873888881
 20
351.43546281396812
 11
1134.9032873888636
 21
351.43546281396812
  0
LINE
  8
_0-3_躯体と製品
  6
CONTINUOUS
 62
    3
 10
1134.9032873888636
 20
351.43546281396812
 11
1134.9032873888636
 21
348.93546281396812
  0
LINE
  8
_0-3_躯体と製品
  6
CONTINUOUS
 62
    3
 10
1129.9032873888618
 20
351.4354628139663
 11
1129.9032873888618
 21
348.9354628139663
  0
LINE
  8
_0-3_躯体と製品
  6
CONTINUOUS
 62
    3
 10
1129.9032873888618
 20
348.9354628139663
 11
999.90328738886365
 21
348.9354628139663
  0
LINE
  8
_0-3_躯体と製品
  6
CONTINUOUS
 62
    3
 10
999.90328738886365
 20
348.9354628139663
 11
999.90328738886365
 21
351.4354628139663
  0
LINE
  8
_0-3_躯体と製品
  6
CONTINUOUS
 62
    3
 10
999.90328738886365
 20
351.4354628139663
 11
1129.9032873888618
 21
351.4354628139663
  0
LINE
  8
_0-3_躯体と製品
  6
CONTINUOUS
 62
    3
 10
1172.3802873888881
 20
348.9354628139663
 11
1134.9032873888636
 21
348.9354628139663
  0
LINE
  8
_0-3_躯体と製品
  6
CONTINUOUS
 62
    3
 10
1134.9032873888636
 20
348.9354628139663
 11
1134.9032873888636
 21
351.4354628139663
  0
LINE
  8
_0-3_躯体と製品
  6
CONTINUOUS
 62
    3
 10
1134.9032873888636
 20
351.4354628139663
 11
1172.3802873888881
 21
351.4354628139663
  0
LINE
  8
_0-3_躯体と製品
  6
CONTINUOUS
 62
    4
 10
1172.3802873888881
 20
358.10396281396424
 11
1132.4032873888636
 21
358.10396281396424
  0
LINE
  8
_0-3_躯体と製品
  6
CONTINUOUS
 62
    4
 10
1132.4032873888636
 20
358.10396281396424
 11
965.73678738887156
 21
358.10396281396424
  0
LINE
  8
_0-3_躯体と製品
  6
CONTINUOUS
 62
    4
 10
965.73678738887156
 20
358.10396281396424
 11
965.73678738887156
 21
333.9354628139663
  0
LINE
  8
_0-3_躯体と製品
  6
CONTINUOUS
 62
    4
 10
965.73678738887156
 20
333.9354628139663
 11
999.07028738887948
 21
333.9354628139663
  0
LINE
  8
_0-3_躯体と製品
  6
CONTINUOUS
 62
    4
 10
999.07028738887948
 20
333.9354628139663
 11
999.07028738887948
 21
345.60396281396788
  0
LINE
  8
_0-3_躯体と製品
  6
CONTINUOUS
 62
    4
 10
999.07028738887948
 20
345.60396281396788
 11
1004.0702873888777
 21
345.60396281396788
  0
LINE
  8
_0-3_躯体と製品
  6
CONTINUOUS
 62
    4
 10
1004.0702873888777
 20
345.60396281396788
 11
1004.0702873888777
 21
348.10396281396606
  0
LINE
  8
_0-3_躯体と製品
  6
CONTINUOUS
 62
    4
 10
1004.0702873888777
 20
348.10396281396606
 11
999.07028738887948
 21
348.10396281396606
  0
LINE
  8
_0-3_躯体と製品
  6
CONTINUOUS
 62
    4
 10
999.07028738887948
 20
348.10396281396606
 11
999.07028738887948
 21
352.26896281396512
  0
LINE
  8
_0-3_躯体と製品
  6
CONTINUOUS
 62
    4
 10
999.07028738887948
 20
352.26896281396512
 11
1004.0702873888777
 21
352.26896281396512
  0
LINE
  8
_0-3_躯体と製品
  6
CONTINUOUS
 62
    4
 10
1004.0702873888777
 20
352.26896281396512
 11
1004.9032873888618
 21
353.10396281396606
  0
LINE
  8
_0-3_躯体と製品
  6
CONTINUOUS
 62
    4
 10
1004.9032873888618
 20
353.10396281396606
 11
1124.9032873888636
 21
353.10396281396606
  0
LINE
  8
_0-3_躯体と製品
  6
CONTINUOUS
 62
    4
 10
1124.9032873888636
 20
353.10396281396606
 11
1125.7367873888716
 21
352.26896281396512
  0
LINE
  8
_0-3_躯体と製品
  6
CONTINUOUS
 62
    4
 10
1125.7367873888716
 20
352.26896281396512
 11
1130.7367873888734
 21
352.26896281396512
  0
LINE
  8
_0-3_躯体と製品
  6
CONTINUOUS
 62
    4
 10
1130.7367873888734
 20
352.26896281396512
 11
1130.7367873888734
 21
348.10396281396606
  0
LINE
  8
_0-3_躯体と製品
  6
CONTINUOUS
 62
    4
 10
1130.7367873888734
 20
348.10396281396606
 11
1125.7367873888716
 21
348.10396281396606
  0
LINE
  8
_0-3_躯体と製品
  6
CONTINUOUS
 62
    4
 10
1125.7367873888716
 20
348.10396281396606
 11
1125.7367873888716
 21
345.60396281396788
  0
LINE
  8
_0-3_躯体と製品
  6
CONTINUOUS
 62
    4
 10
1125.7367873888716
 20
345.60396281396788
 11
1130.7367873888734
 21
345.60396281396788
  0
LINE
  8
_0-3_躯体と製品
  6
CONTINUOUS
 62
    4
 10
1130.7367873888734
 20
345.60396281396788
 11
1130.7367873888734
 21
337.26896281396512
  0
LINE
  8
_0-3_躯体と製品
  6
CONTINUOUS
 62
    4
 10
1130.7367873888734
 20
337.26896281396512
 11
1125.7367873888716
 21
337.26896281396512
  0
LINE
  8
_0-3_躯体と製品
  6
CONTINUOUS
 62
    4
 10
1125.7367873888716
 20
337.26896281396512
 11
1125.7367873888716
 21
333.9354628139663
  0
LINE
  8
_0-3_躯体と製品
  6
CONTINUOUS
 62
    4
 10
1125.7367873888716
 20
333.9354628139663
 11
1132.4032873888636
 21
333.9354628139663
  0
LINE
  8
_0-3_躯体と製品
  6
CONTINUOUS
 62
    4
 10
1132.4032873888636
 20
333.9354628139663
 11
1139.0702873888813
 21
333.9354628139663
  0
LINE
  8
_0-3_躯体と製品
  6
CONTINUOUS
 62
    4
 10
1139.0702873888813
 20
333.9354628139663
 11
1139.0702873888813
 21
337.26896281396512
  0
LINE
  8
_0-3_躯体と製品
  6
CONTINUOUS
 62
    4
 10
1139.0702873888813
 20
337.26896281396512
 11
1134.0702873888795
 21
337.26896281396512
  0
LINE
  8
_0-3_躯体と製品
  6
CONTINUOUS
 62
    4
 10
1134.0702873888795
 20
337.26896281396512
 11
1134.0702873888795
 21
345.60396281396788
  0
LINE
  8
_0-3_躯体と製品
  6
CONTINUOUS
 62
    4
 10
1134.0702873888795
 20
345.60396281396788
 11
1139.0702873888813
 21
345.60396281396788
  0
LINE
  8
_0-3_躯体と製品
  6
CONTINUOUS
 62
    4
 10
1139.0702873888813
 20
345.60396281396788
 11
1139.0702873888813
 21
348.10396281396606
  0
LINE
  8
_0-3_躯体と製品
  6
CONTINUOUS
 62
    4
 10
1139.0702873888813
 20
348.10396281396606
 11
1134.0702873888795
 21
348.10396281396606
  0
LINE
  8
_0-3_躯体と製品
  6
CONTINUOUS
 62
    4
 10
1134.0702873888795
 20
348.10396281396606
 11
1134.0702873888795
 21
352.26896281396512
  0
LINE
  8
_0-3_躯体と製品
  6
CONTINUOUS
 62
    4
 10
1134.0702873888795
 20
352.26896281396512
 11
1139.0702873888813
 21
352.26896281396512
  0
LINE
  8
_0-3_躯体と製品
  6
CONTINUOUS
 62
    4
 10
1139.0702873888813
 20
352.26896281396512
 11
1139.9032873888636
 21
353.10396281396606
  0
LINE
  8
_0-3_躯体と製品
  6
CONTINUOUS
 62
    4
 10
1139.9032873888636
 20
353.10396281396606
 11
1172.3802873888881
 21
353.10396281396606
  0
LINE
  8
_0-3_躯体と製品
  6
CONTINUOUS
 62
    4
 10
935.73678738887338
 20
328.93696281397024
 11
962.40345405553944
 21
328.93696281397024
  0
ARC
  8
_0-3_躯体と製品
  6
CONTINUOUS
 62
    4
 10
962.40345405553671
 20
332.27029614730509
 40
3.3333333333348492
 50
270.0000000000469
 51
0.0000000000469068
  0
LINE
  8
_0-3_躯体と製品
  6
CONTINUOUS
 62
    4
 10
965.73678738887156
 20
332.27029614730782
 11
965.73678738887156
 21
355.60362948063812
  0
ARC
  8
_0-3_躯体と製品
  6
CONTINUOUS
 62
    4
 10
962.40345405553853
 20
355.60362948063903
 40
3.3333333333330297
 50
359.99999999998437
 51
89.999999999984396
  0
LINE
  8
_0-3_躯体と製品
  6
CONTINUOUS
 62
    4
 10
962.40345405553944
 20
358.93696281397206
 11
935.73678738887338
 21
358.93696281397206
  0
ARC
  8
_0-3_躯体と製品
  6
CONTINUOUS
 62
    4
 10
935.73678738887429
 20
355.60362948063903
 40
3.3333333333330297
 50
90.000000000015618
 51
180.00000000001563
  0
LINE
  8
_0-3_躯体と製品
  6
CONTINUOUS
 62
    4
 10
932.40345405554126
 20
355.60362948063812
 11
932.40345405554126
 21
332.27029614730236
  0
LINE
  8
_0-3_躯体と製品
  6
CONTINUOUS
 62
    4
 10
932.40345405554126
 20
332.27029614730236
 11
935.73678738887338
 21
328.93696281397024
  0
LINE
  8
_0-3_躯体と製品
  6
CONTINUOUS
 62
    4
 10
932.40345405554126
 20
358.93696281397206
 11
932.40345405554126
 21
328.93696281397024
  0
TEXT
  8
_0-4_文字-記号
 62
    7
 10
812.20713743093711
 20
443.76873451024949
 40
10
 41
1
 50
0
  1
ＥＸＰゴム
  0
LINE
  8
_0-4_文字-記号
  6
CONTINUOUS
 62
    7
 10
949.07012072220732
 20
358.93696281397206
 11
897.64255932129799
 21
448.77807378463149
  0
LINE
  8
_0-4_文字-記号
  6
CONTINUOUS
 62
    7
 10
897.64255932129799
 20
448.77807378463149
 11
875.49443755289303
 21
448.77807378463149
  0
LINE
  8
_0-3_躯体と製品
  6
CONTINUOUS
 62
    4
 10
1172.3802873888881
 20
303.93879614729667
 11
775.35828738889177
 21
303.93879614730031
  0
LINE
  8
_0-3_躯体と製品
  6
CONTINUOUS
 62
    4
 10
999.36028738888035
 20
303.93879614730031
 11
999.36028738888035
 21
328.9372961473
  0
LINE
  8
_0-3_躯体と製品
  6
CONTINUOUS
 62
    4
 10
999.36028738888035
 20
328.9372961473
 11
775.35828738889177
 21
328.9372961473
  0
LINE
  8
_0-3_躯体と製品
  6
CONTINUOUS
 62
    4
 10
36.915148311385565
 20
460.21457510153778
 11
26.915248311389405
 21
460.21457510153778
  0
LINE
  8
_0-3_躯体と製品
  6
CONTINUOUS
 62
    3
 10
33.915148311385565
 20
457.71467510153707
 11
33.915148311385565
 21
379.71467510153889
  0
LINE
  8
_0-3_躯体と製品
  6
CONTINUOUS
 62
    3
 10
33.915148311385565
 20
379.71467510153889
 11
35.415148311385565
 21
379.71467510153889
  0
LINE
  8
_0-3_躯体と製品
  6
CONTINUOUS
 62
    3
 10
35.415148311385565
 20
379.71467510153889
 11
35.415148311385565
 21
457.71467510153707
  0
LINE
  8
_0-3_躯体と製品
  6
CONTINUOUS
 62
    3
 10
35.415148311385565
 20
457.71467510153707
 11
33.915148311385565
 21
457.71467510153707
  0
LINE
  8
_0-3_躯体と製品
  6
CONTINUOUS
 62
    3
 10
33.915148311385565
 20
379.71467510153889
 11
33.915148311385565
 21
457.71467510153707
  0
LINE
  8
_0-3_躯体と製品
  6
CONTINUOUS
 62
    3
 10
35.415148311385565
 20
457.71467510153707
 11
35.415148311385565
 21
379.71467510153889
  0
LINE
  8
_0-3_躯体と製品
  6
CONTINUOUS
 62
    4
 10
39.416248311379604
 20
478.21457510153778
 11
39.416248311379604
 21
378.21467510153889
  0
LINE
  8
_0-3_躯体と製品
  6
CONTINUOUS
 62
    4
 10
36.416248311379604
 20
382.71467510153889
 11
36.416248311379604
 21
454.71467510153707
  0
LINE
  8
_0-3_躯体と製品
  6
CONTINUOUS
 62
    4
 10
35.415148311385565
 20
379.71467510153889
 11
33.915148311385565
 21
379.71467510153889
  0
LINE
  8
_0-3_躯体と製品
  6
CONTINUOUS
 62
    4
 10
35.915248311389405
 20
379.21457510153778
 11
35.915248311389405
 21
382.21457510153778
  0
LINE
  8
_0-3_躯体と製品
  6
CONTINUOUS
 62
    4
 10
35.915248311389405
 20
382.21457510153778
 11
36.416248311379604
 21
382.71467510153889
  0
LINE
  8
_0-3_躯体と製品
  6
CONTINUOUS
 62
    4
 10
39.416248311379604
 20
278.21477510154
 11
39.416248311379604
 21
378.21467510153889
  0
LINE
  8
_0-3_躯体と製品
  6
CONTINUOUS
 62
    4
 10
24.915148311385565
 20
378.21467510153889
 11
24.915148311385565
 21
382.21457510153778
  0
LINE
  8
_0-3_躯体と製品
  6
CONTINUOUS
 62
    4
 10
31.916248311379604
 20
382.21457510153778
 11
33.416248311379604
 21
382.21457510153778
  0
LINE
  8
_0-3_躯体と製品
  6
CONTINUOUS
 62
    4
 10
24.915148311385565
 20
382.21457510153778
 11
26.915248311389405
 21
382.21457510153778
  0
LINE
  8
_0-3_躯体と製品
  6
CONTINUOUS
 62
    4
 10
26.915248311389405
 20
382.21457510153778
 11
26.915248311389405
 21
379.21457510153778
  0
LINE
  8
_0-3_躯体と製品
  6
CONTINUOUS
 62
    4
 10
26.915248311389405
 20
379.21457510153778
 11
31.916248311379604
 21
379.21457510153778
  0
LINE
  8
_0-3_躯体と製品
  6
CONTINUOUS
 62
    4
 10
31.916248311379604
 20
379.21457510153778
 11
31.916248311379604
 21
382.21457510153778
  0
LINE
  8
_0-3_躯体と製品
  6
CONTINUOUS
 62
    4
 10
33.416248311379604
 20
382.21457510153778
 11
33.416248311379604
 21
379.21457510153778
  0
LINE
  8
_0-3_躯体と製品
  6
CONTINUOUS
 62
    4
 10
31.916248311379604
 20
374.21447510153848
 11
33.416248311379604
 21
374.21447510153848
  0
LINE
  8
_0-3_躯体と製品
  6
CONTINUOUS
 62
    4
 10
24.915148311385565
 20
378.21467510153889
 11
24.915148311385565
 21
374.21447510153848
  0
LINE
  8
_0-3_躯体と製品
  6
CONTINUOUS
 62
    4
 10
24.915148311385565
 20
374.21447510153848
 11
26.915248311389405
 21
374.21447510153848
  0
LINE
  8
_0-3_躯体と製品
  6
CONTINUOUS
 62
    4
 10
26.915248311389405
 20
374.21447510153848
 11
26.915248311389405
 21
377.21447510153848
  0
LINE
  8
_0-3_躯体と製品
  6
CONTINUOUS
 62
    4
 10
26.915248311389405
 20
377.21447510153848
 11
31.916248311379604
 21
377.21447510153848
  0
LINE
  8
_0-3_躯体と製品
  6
CONTINUOUS
 62
    4
 10
31.916248311379604
 20
377.21447510153848
 11
31.916248311379604
 21
374.21447510153848
  0
LINE
  8
_0-3_躯体と製品
  6
CONTINUOUS
 62
    4
 10
33.416248311379604
 20
374.21447510153848
 11
33.416248311379604
 21
377.21447510153848
  0
LINE
  8
_0-3_躯体と製品
  6
CONTINUOUS
 62
    4
 10
33.416248311379604
 20
379.21457510153778
 11
35.915248311389405
 21
379.21457510153778
  0
LINE
  8
_0-3_躯体と製品
  6
CONTINUOUS
 62
    4
 10
33.416248311379604
 20
377.21447510153848
 11
35.915248311389405
 21
377.21447510153848
  0
LINE
  8
_0-3_躯体と製品
  6
CONTINUOUS
 62
    4
 10
24.915148311385565
 20
477.41057510153951
 11
24.915148311385565
 21
459.20357510153917
  0
LINE
  8
_0-3_躯体と製品
  6
CONTINUOUS
 62
    4
 10
33.915148311385565
 20
457.71467510153707
 11
35.415148311385565
 21
457.71467510153707
  0
LINE
  8
_0-3_躯体と製品
  6
CONTINUOUS
 62
    4
 10
36.416248311379604
 20
454.71467510153707
 11
35.915248311389405
 21
455.21447510153848
  0
LINE
  8
_0-3_躯体と製品
  6
CONTINUOUS
 62
    4
 10
35.915248311389405
 20
455.21447510153848
 11
35.915248311389405
 21
458.21447510153848
  0
LINE
  8
_0-3_躯体と製品
  6
CONTINUOUS
 62
    4
 10
33.416248311379604
 20
455.21447510153848
 11
31.916248311379604
 21
455.21447510153848
  0
LINE
  8
_0-3_躯体と製品
  6
CONTINUOUS
 62
    4
 10
31.916248311379604
 20
455.21447510153848
 11
31.916248311379604
 21
458.21447510153848
  0
LINE
  8
_0-3_躯体と製品
  6
CONTINUOUS
 62
    4
 10
31.916248311379604
 20
458.21447510153848
 11
24.915148311385565
 21
458.21447510153848
  0
LINE
  8
_0-3_躯体と製品
  6
CONTINUOUS
 62
    4
 10
33.416248311379604
 20
458.21447510153848
 11
33.416248311379604
 21
455.21447510153848
  0
LINE
  8
_0-3_躯体と製品
  6
CONTINUOUS
 62
    4
 10
35.915248311389405
 20
458.21447510153848
 11
33.416248311379604
 21
458.21447510153848
  0
LINE
  8
_0-3_躯体と製品
  6
CONTINUOUS
 62
    4
 10
36.915148311385565
 20
476.21447510153666
 11
36.915148311385565
 21
460.21457510153778
  0
LINE
  8
_0-3_躯体と製品
  6
CONTINUOUS
 62
    4
 10
26.915248311389405
 20
460.21457510153778
 11
26.915248311389405
 21
476.21447510153666
  0
LINE
  8
_0-3_躯体と製品
  6
CONTINUOUS
 62
    4
 10
26.915248311389405
 20
476.21447510153666
 11
36.915148311385565
 21
476.21447510153666
  0
LINE
  8
_0-3_躯体と製品
  6
CONTINUOUS
 62
    4
 10
24.915148311385565
 20
478.21457510153778
 11
39.416248311379604
 21
478.21457510153778
  0
LINE
  8
_0-3_躯体と製品
  6
CONTINUOUS
 62
    4
 10
24.915148311385565
 20
458.21447510153848
 11
24.915148311385565
 21
478.21457510153778
  0
LINE
  8
_0-3_躯体と製品
  6
CONTINUOUS
 62
    4
 10
36.915148311385565
 20
296.21477510154182
 11
26.915248311389405
 21
296.21477510154182
  0
LINE
  8
_0-3_躯体と製品
  6
CONTINUOUS
 62
    4
 10
33.915148311385565
 20
298.71467510153707
 11
35.415148311385565
 21
298.71467510153707
  0
LINE
  8
_0-3_躯体と製品
  6
CONTINUOUS
 62
    4
 10
36.416248311379604
 20
301.71467510153707
 11
35.915248311389405
 21
301.21487510153929
  0
LINE
  8
_0-3_躯体と製品
  6
CONTINUOUS
 62
    4
 10
35.915248311389405
 20
301.21487510153929
 11
35.915248311389405
 21
298.21487510153929
  0
LINE
  8
_0-3_躯体と製品
  6
CONTINUOUS
 62
    4
 10
33.416248311379604
 20
301.21487510153929
 11
31.916248311379604
 21
301.21487510153929
  0
LINE
  8
_0-3_躯体と製品
  6
CONTINUOUS
 62
    4
 10
31.916248311379604
 20
301.21487510153929
 11
31.916248311379604
 21
298.21487510153929
  0
LINE
  8
_0-3_躯体と製品
  6
CONTINUOUS
 62
    4
 10
31.916248311379604
 20
298.21487510153929
 11
24.915148311385565
 21
298.21487510153929
  0
LINE
  8
_0-3_躯体と製品
  6
CONTINUOUS
 62
    4
 10
33.416248311379604
 20
298.21487510153929
 11
33.416248311379604
 21
301.21487510153929
  0
LINE
  8
_0-3_躯体と製品
  6
CONTINUOUS
 62
    4
 10
35.915248311389405
 20
298.21487510153929
 11
33.416248311379604
 21
298.21487510153929
  0
LINE
  8
_0-3_躯体と製品
  6
CONTINUOUS
 62
    4
 10
26.915248311389405
 20
280.21487510153929
 11
36.915148311385565
 21
280.21487510153929
  0
LINE
  8
_0-3_躯体と製品
  6
CONTINUOUS
 62
    4
 10
24.915148311385565
 20
279.01877510154372
 11
24.915148311385565
 21
297.2257751015386
  0
LINE
  8
_0-3_躯体と製品
  6
CONTINUOUS
 62
    4
 10
36.915148311385565
 20
280.21487510153929
 11
36.915148311385565
 21
296.21477510154182
  0
LINE
  8
_0-3_躯体と製品
  6
CONTINUOUS
 62
    4
 10
26.915248311389405
 20
296.21477510154182
 11
26.915248311389405
 21
280.21487510153929
  0
LINE
  8
_0-3_躯体と製品
  6
CONTINUOUS
 62
    4
 10
24.915148311385565
 20
298.21487510153929
 11
24.915148311385565
 21
278.21477510154
  0
LINE
  8
_0-3_躯体と製品
  6
CONTINUOUS
 62
    4
 10
24.915148311385565
 20
278.21477510154
 11
39.416248311379604
 21
278.21477510154
  0
LINE
  8
_0-3_躯体と製品
  6
CONTINUOUS
 62
    3
 10
33.915148311385565
 20
298.71467510153707
 11
33.915148311385565
 21
376.71467510153889
  0
LINE
  8
_0-3_躯体と製品
  6
CONTINUOUS
 62
    3
 10
33.915148311385565
 20
376.71467510153889
 11
35.415148311385565
 21
376.71467510153889
  0
LINE
  8
_0-3_躯体と製品
  6
CONTINUOUS
 62
    3
 10
35.415148311385565
 20
376.71467510153889
 11
35.415148311385565
 21
298.71467510153707
  0
LINE
  8
_0-3_躯体と製品
  6
CONTINUOUS
 62
    3
 10
35.415148311385565
 20
298.71467510153707
 11
33.915148311385565
 21
298.71467510153707
  0
LINE
  8
_0-3_躯体と製品
  6
CONTINUOUS
 62
    3
 10
35.415148311385565
 20
298.71467510153707
 11
35.415148311385565
 21
376.71467510153889
  0
LINE
  8
_0-3_躯体と製品
  6
CONTINUOUS
 62
    4
 10
36.416248311379604
 20
373.71467510153889
 11
36.416248311379604
 21
301.71467510153707
  0
LINE
  8
_0-3_躯体と製品
  6
CONTINUOUS
 62
    4
 10
35.915248311389405
 20
377.21477510154182
 11
35.915248311389405
 21
374.21477510154182
  0
LINE
  8
_0-3_躯体と製品
  6
CONTINUOUS
 62
    4
 10
35.915248311389405
 20
374.21477510154182
 11
36.416248311379604
 21
373.71467510153889
  0
LINE
  8
_0-3_躯体と製品
  6
CONTINUOUS
 62
    3
 10
33.915148311385565
 20
376.71467510153889
 11
33.915148311385565
 21
298.71467510153707
  0
LINE
  8
_0-5_中心線
  6
CENTER1
 62
    7
 10
674.88202998371435
 20
378.21467510153889
 11
-11.678450894567504
 21
378.21467510153889
  0
INSERT
  2
-002-_D3
  8
_0-2_寸法
 10
-7389.0751423190295
 20
-8014.1793534510871
 41
1
 42
1
 50
0
  0
INSERT
  2
-003-_D4
  8
_0-2_寸法
 10
-7389.0751423190295
 20
-8014.1793534510871
 41
1
 42
1
 50
0
  0
INSERT
  2
-004-_D5
  8
_0-2_寸法
 10
-7389.0751423190295
 20
-8014.1793534510871
 41
1
 42
1
 50
0
  0
INSERT
  2
-005-_D6
  8
_0-2_寸法
 10
-7389.0751423190295
 20
-8014.1793534510871
 41
1
 42
1
 50
0
  0
TEXT
  8
_0-4_文字-記号
 62
    7
 10
214.53883990383747
 20
136.45110442656551
 40
12
 41
1
 50
0
  1
品　　　　名
  0
TEXT
  8
_0-4_文字-記号
 62
    7
 10
176.63625058843536
 20
100.53960755078788
 40
12
 41
1
 50
0
  1
床換気口：ベースピット
  0
TEXT
  8
_0-4_文字-記号
 62
    7
 10
399.68499306752619
 20
136.45110442656551
 40
12
 41
1
 50
0
  1
規　　　　格
  0
TEXT
  8
_0-4_文字-記号
 62
    7
 10
537.04885368911073
 20
100.08380727514759
 40
12
 41
1
 50
0
  1
アルミニウム合金（JIS A6063 S-T5)
  0
TEXT
  8
_0-4_文字-記号
 62
    7
 10
617.17380430855428
 20
136.45110442656551
 40
12
 41
1
 50
0
  1
材　　　　質
  0
LINE
  8
_0-4_文字-記号
  6
CONTINUOUS
 62
    7
 10
159.64812869311208
 20
153.51730878023136
 11
159.64812869311208
 21
66.696719259462952
  0
LINE
  8
_0-4_文字-記号
  6
CONTINUOUS
 62
    7
 10
159.64812869311208
 20
153.51730878023136
 11
836.28914220084607
 21
153.51730878023136
  0
LINE
  8
_0-4_文字-記号
  6
CONTINUOUS
 62
    7
 10
159.64812869311208
 20
130.11730878022991
 11
836.28914220084607
 21
130.11730878022991
  0
LINE
  8
_0-4_文字-記号
  6
CONTINUOUS
 62
    7
 10
159.64812869311208
 20
66.696719259462952
 11
836.28914220084607
 21
66.696719259462952
  0
LINE
  8
_0-4_文字-記号
  6
CONTINUOUS
 62
    7
 10
364.01171488213367
 20
153.51730878023136
 11
364.01171488213367
 21
66.696719259462952
  0
LINE
  8
_0-4_文字-記号
  6
CONTINUOUS
 62
    7
 10
524.56171488215205
 20
153.51730878023136
 11
524.56171488215205
 21
66.696719259462952
  0
LINE
  8
_0-4_文字-記号
  6
CONTINUOUS
 62
    7
 10
836.28914220084607
 20
153.51730878023136
 11
836.28914220084607
 21
66.696719259462952
  0
LINE
  8
_0-4_文字-記号
  6
CONTINUOUS
 62
    7
 10
159.64812869311208
 20
128.94730878022983
 11
836.28914220084607
 21
128.94730878022983
  0
TEXT
  8
_0-4_文字-記号
 62
    7
 10
176.63625058843536
 20
79.697081269618138
 40
12
 41
1
 50
0
  1
（シルバー色・ベージュ色）
  0
TEXT
  8
_0-4_文字-記号
 62
    7
 10
673.36487665176355
 20
80.386825456873339
 40
12
 41
1
 50
0
  1
アルマイト処理
  0
LINE
  8
_0-4_文字-記号
  6
CONTINUOUS
 62
    7
 10
500.54919785593393
 20
442.78131059040606
 11
539.8286106527421
 21
510.81524924592304
  0
LINE
  8
_0-4_文字-記号
  6
CONTINUOUS
 62
    7
 10
539.8286106527421
 20
510.81524924592304
 11
561.16925911989983
 21
510.81524924592304
  0
LINE
  8
_0-4_文字-記号
  6
CONTINUOUS
 62
    7
 10
33.915148311385565
 20
418.71467510153889
 11
22.49920508318246
 21
438.48766878909191
  0
LINE
  8
_0-4_文字-記号
  6
CONTINUOUS
 62
    7
 10
22.49920508318246
 20
438.48766878909191
 11
11.052761740812457
 21
438.48766878909191
  0
TEXT
  8
_0-4_文字-記号
 62
    7
 10
-25.84228010332663
 20
434.38590492167168
 40
10
 41
1
 50
0
  1
開閉板
  0
TEXT
  8
_0-4_文字-記号
 62
    7
 10
968.91181536899512
 20
222.48354239458604
 40
10
 41
1
 50
0
  1
根太鋼
  0
LINE
  8
_0-4_文字-記号
  6
CONTINUOUS
 62
    7
 10
848.89896229587157
 20
320.60362948063266
 11
806.19591448682604
 21
394.5674779239871
  0
LINE
  8
_0-4_文字-記号
  6
CONTINUOUS
 62
    7
 10
806.19591448682604
 20
394.5674779239871
 11
780.4545507410603
 21
394.5674779239871
  0
LINE
  8
_0-4_文字-記号
  6
CONTINUOUS
 62
    7
 10
1045.1908363007378
 20
255.60529614730331
 11
1028.8834594448826
 21
227.36009089479012
  0
LINE
  8
_0-4_文字-記号
  6
CONTINUOUS
 62
    7
 10
1028.8834594448826
 20
227.36009089479012
 11
1007.4582403829509
 21
227.36009089479012
  0
LINE
  8
_0-4_文字-記号
  6
CONTINUOUS
 62
    7
 10
1049.0700373888676
 20
358.10396281396424
 11
1077.4991090011072
 21
407.34455925841212
  0
LINE
  8
_0-4_文字-記号
  6
CONTINUOUS
 62
    7
 10
1077.4991090011072
 20
407.34455925841212
 11
1099.3594938581
 21
407.34455925841212
  0
TEXT
  8
_0-4_文字-記号
 62
    7
 10
1102.482897629171
 20
403.33414593241469
 40
10
 41
1
 50
0
  1
床換気口
  0
LINE
  8
_0-4_文字-記号
  6
CONTINUOUS
 62
    7
 10
1046.4768903922659
 20
348.9354628139663
 11
1061.0999547456968
 21
323.6075723914546
  0
LINE
  8
_0-4_文字-記号
  6
CONTINUOUS
 62
    7
 10
1061.0999547456968
 20
323.6075723914546
 11
1074.0255721220337
 21
323.6075723914546
  0
TEXT
  8
_0-4_文字-記号
 62
    7
 10
1075.859235033643
 20
318.20665418956378
 40
10
 41
1
 50
0
  1
開閉板
  0
LINE
  8
_0-4_文字-記号
  6
CONTINUOUS
 62
    7
 10
332.53231953238992
 20
478.21467510153889
 11
349.5897624997333
 21
507.75903296820616
  0
LINE
  8
_0-4_文字-記号
  6
CONTINUOUS
 62
    7
 10
349.5897624997333
 20
507.75903296820616
 11
365.06660631855266
 21
507.75903296820616
  0
TEXT
  8
_0-4_文字-記号
 62
    7
 10
1103.7978562154049
 20
117.90578876074778
 40
10
 41
1
 50
0
  1
開閉板
  0
LINE
  8
_0-3_躯体と製品
  6
CONTINUOUS
 62
    7
 10
954.11526568116369
 20
150.01630496877533
 11
954.11526568116369
 21
147.51730224816947
  0
LINE
  8
_0-3_躯体と製品
  6
CONTINUOUS
 62
    7
 10
954.11526568116369
 20
147.51730224816947
 11
957.11526894723193
 21
147.51730224816947
  0
LINE
  8
_0-3_躯体と製品
  6
CONTINUOUS
 62
    7
 10
957.11526894723193
 20
147.51730224816947
 11
957.11526894723193
 21
146.01730061515264
  0
LINE
  8
_0-3_躯体と製品
  6
CONTINUOUS
 62
    7
 10
957.11526894723193
 20
146.01730061515264
 11
954.11526568116369
 21
146.01730061515264
  0
LINE
  8
_0-3_躯体と製品
  6
CONTINUOUS
 62
    7
 10
954.11526568116369
 20
146.01730061515264
 11
954.11526568116369
 21
139.01529299224421
  0
LINE
  8
_0-3_躯体と製品
  6
CONTINUOUS
 62
    7
 10
954.11526568116369
 20
139.01529299224421
 11
934.1154439078482
 21
139.01529299224421
  0
LINE
  8
_0-3_躯体と製品
  6
CONTINUOUS
 62
    7
 10
934.1154439078482
 20
139.01529299224421
 11
934.1154439078482
 21
153.51730878023136
  0
LINE
  8
_0-3_躯体と製品
  6
CONTINUOUS
 62
    7
 10
934.1154439078482
 20
153.51730878023136
 11
1034.1154527754907
 21
153.51730878023136
  0
LINE
  8
_0-3_躯体と製品
  6
CONTINUOUS
 62
    7
 10
1034.1154527754907
 20
139.01529299224421
 11
1030.1155484208821
 21
139.01529299224421
  0
LINE
  8
_0-3_躯体と製品
  6
CONTINUOUS
 62
    7
 10
1030.1155484208821
 20
139.01529299224421
 11
1030.1155484208821
 21
141.01629517068068
  0
LINE
  8
_0-3_躯体と製品
  6
CONTINUOUS
 62
    7
 10
1030.1155484208821
 20
141.01629517068068
 11
1033.1155516869212
 21
141.01629517068068
  0
LINE
  8
_0-3_躯体と製品
  6
CONTINUOUS
 62
    7
 10
1033.1155516869212
 20
141.01629517068068
 11
1033.1155516869212
 21
146.01730061515264
  0
LINE
  8
_0-3_躯体と製品
  6
CONTINUOUS
 62
    7
 10
1033.1155516869212
 20
146.01730061515264
 11
1030.1155484208821
 21
146.01730061515264
  0
LINE
  8
_0-3_躯体と製品
  6
CONTINUOUS
 62
    7
 10
1030.1155484208821
 20
146.01730061515264
 11
1030.1155484208821
 21
147.51730224816947
  0
LINE
  8
_0-3_躯体と製品
  6
CONTINUOUS
 62
    7
 10
1030.1155484208821
 20
147.51730224816947
 11
1033.1155516869212
 21
147.51730224816947
  0
LINE
  8
_0-3_躯体と製品
  6
CONTINUOUS
 62
    7
 10
1033.1155516869212
 20
147.51730224816947
 11
1033.1155516869212
 21
150.01630496877533
  0
LINE
  8
_0-3_躯体と製品
  6
CONTINUOUS
 62
    7
 10
1033.1155516869212
 20
150.01630496877533
 11
1030.1155484208821
 21
150.01630496877533
  0
LINE
  8
_0-3_躯体と製品
  6
CONTINUOUS
 62
    7
 10
1030.1155484208821
 20
150.01630496877533
 11
1029.6154478764302
 21
150.51730551420314
  0
LINE
  8
_0-3_躯体と製品
  6
CONTINUOUS
 62
    7
 10
1029.6154478764302
 20
150.51730551420314
 11
957.61536949165657
 21
150.51730551420314
  0
LINE
  8
_0-3_躯体と製品
  6
CONTINUOUS
 62
    7
 10
954.61536622563017
 20
148.01530279033614
 11
954.61536622563017
 21
149.51530442336025
  0
LINE
  8
_0-3_躯体と製品
  6
CONTINUOUS
 62
    7
 10
954.61536622563017
 20
149.51530442336025
 11
1032.6154511424857
 21
149.51530442336025
  0
LINE
  8
_0-3_躯体と製品
  6
CONTINUOUS
 62
    7
 10
1032.6154511424857
 20
149.51530442336025
 11
1032.6154511424857
 21
148.01530279033614
  0
LINE
  8
_0-3_躯体と製品
  6
CONTINUOUS
 62
    7
 10
1032.6154511424857
 20
148.01530279033614
 11
954.61536622563017
 21
148.01530279033614
  0
LINE
  8
_0-3_躯体と製品
  6
CONTINUOUS
 62
    7
 10
936.11524608498348
 20
141.01629517068068
 11
936.11524608498348
 21
151.0153060563689
  0
LINE
  8
_0-3_躯体と製品
  6
CONTINUOUS
 62
    7
 10
936.11524608498348
 20
151.0153060563689
 11
952.11546350401204
 21
151.0153060563689
  0
LINE
  8
_0-3_躯体と製品
  6
CONTINUOUS
 62
    7
 10
952.11546350401204
 20
151.0153060563689
 11
952.11546350401204
 21
141.01629517068068
  0
LINE
  8
_0-3_躯体と製品
  6
CONTINUOUS
 62
    7
 10
952.11546350401204
 20
141.01629517068068
 11
936.11524608498348
 21
141.01629517068068
  0
LINE
  8
_0-3_躯体と製品
  6
CONTINUOUS
 62
    7
 10
957.61536949165657
 20
150.51730551420314
 11
957.11526894723193
 21
150.01630496877533
  0
LINE
  8
_0-3_躯体と製品
  6
CONTINUOUS
 62
    7
 10
957.11526894723193
 20
150.01630496877533
 11
954.11526568116369
 21
150.01630496877533
  0
LINE
  8
_0-4_文字-記号
  6
CONTINUOUS
 62
    7
 10
1023.5595755543336
 20
183.72212660502737
 11
1005.7830652320617
 21
183.72212660502737
  0
LINE
  8
_0-4_文字-記号
  6
CONTINUOUS
 62
    7
 10
1005.7830652320617
 20
183.72212660502737
 11
988.34430553011498
 21
153.51730878023136
  0
LINE
  8
_0-3_躯体と製品
  6
CONTINUOUS
 62
    7
 10
1114.1156398698158
 20
150.01630496877533
 11
1114.1156398698158
 21
147.51730224816947
  0
LINE
  8
_0-3_躯体と製品
  6
CONTINUOUS
 62
    7
 10
1114.1156398698158
 20
147.51730224816947
 11
1111.1156366037767
 21
147.51730224816947
  0
LINE
  8
_0-3_躯体と製品
  6
CONTINUOUS
 62
    7
 10
1111.1156366037767
 20
147.51730224816947
 11
1111.1156366037767
 21
146.01730061515264
  0
LINE
  8
_0-3_躯体と製品
  6
CONTINUOUS
 62
    7
 10
1111.1156366037767
 20
146.01730061515264
 11
1114.1156398698158
 21
146.01730061515264
  0
LINE
  8
_0-3_躯体と製品
  6
CONTINUOUS
 62
    7
 10
1114.1156398698158
 20
146.01730061515264
 11
1114.1156398698158
 21
139.01529299224421
  0
LINE
  8
_0-3_躯体と製品
  6
CONTINUOUS
 62
    7
 10
1114.1156398698158
 20
139.01529299224421
 11
1134.1154616431313
 21
139.01529299224421
  0
LINE
  8
_0-3_躯体と製品
  6
CONTINUOUS
 62
    7
 10
1134.1154616431313
 20
139.01529299224421
 11
1134.1154616431313
 21
153.51730878023136
  0
LINE
  8
_0-3_躯体と製品
  6
CONTINUOUS
 62
    7
 10
1134.1154616431313
 20
153.51730878023136
 11
1034.1154527754907
 21
153.51730878023136
  0
LINE
  8
_0-3_躯体と製品
  6
CONTINUOUS
 62
    7
 10
1113.6155393253639
 20
148.01530279033614
 11
1113.6155393253639
 21
149.51530442336025
  0
LINE
  8
_0-3_躯体と製品
  6
CONTINUOUS
 62
    7
 10
1113.6155393253639
 20
149.51530442336025
 11
1035.6154544084957
 21
149.51530442336025
  0
LINE
  8
_0-3_躯体と製品
  6
CONTINUOUS
 62
    7
 10
1035.6154544084957
 20
149.51530442336025
 11
1035.6154544084957
 21
148.01530279033614
  0
LINE
  8
_0-3_躯体と製品
  6
CONTINUOUS
 62
    7
 10
1035.6154544084957
 20
148.01530279033614
 11
1113.6155393253639
 21
148.01530279033614
  0
LINE
  8
_0-3_躯体と製品
  6
CONTINUOUS
 62
    7
 10
1132.1156594660233
 20
141.01629517068068
 11
1132.1156594660233
 21
151.0153060563689
  0
LINE
  8
_0-3_躯体と製品
  6
CONTINUOUS
 62
    7
 10
1132.1156594660233
 20
151.0153060563689
 11
1116.1154420469657
 21
151.0153060563689
  0
LINE
  8
_0-3_躯体と製品
  6
CONTINUOUS
 62
    7
 10
1116.1154420469657
 20
151.0153060563689
 11
1116.1154420469657
 21
141.01629517068068
  0
LINE
  8
_0-3_躯体と製品
  6
CONTINUOUS
 62
    7
 10
1116.1154420469657
 20
141.01629517068068
 11
1132.1156594660233
 21
141.01629517068068
  0
LINE
  8
_0-3_躯体と製品
  6
CONTINUOUS
 62
    7
 10
1034.1154527754907
 20
139.01529299224421
 11
1038.1153571300956
 21
139.01529299224421
  0
LINE
  8
_0-3_躯体と製品
  6
CONTINUOUS
 62
    7
 10
1038.1153571300956
 20
139.01529299224421
 11
1038.1153571300956
 21
141.01629517068068
  0
LINE
  8
_0-3_躯体と製品
  6
CONTINUOUS
 62
    7
 10
1038.1153571300956
 20
141.01629517068068
 11
1035.115353864071
 21
141.01629517068068
  0
LINE
  8
_0-3_躯体と製品
  6
CONTINUOUS
 62
    7
 10
1035.115353864071
 20
141.01629517068068
 11
1035.115353864071
 21
146.01730061515264
  0
LINE
  8
_0-3_躯体と製品
  6
CONTINUOUS
 62
    7
 10
1035.115353864071
 20
146.01730061515264
 11
1038.1153571300956
 21
146.01730061515264
  0
LINE
  8
_0-3_躯体と製品
  6
CONTINUOUS
 62
    7
 10
1038.1153571300956
 20
146.01730061515264
 11
1038.1153571300956
 21
147.51730224816947
  0
LINE
  8
_0-3_躯体と製品
  6
CONTINUOUS
 62
    7
 10
1038.1153571300956
 20
147.51730224816947
 11
1035.115353864071
 21
147.51730224816947
  0
LINE
  8
_0-3_躯体と製品
  6
CONTINUOUS
 62
    7
 10
1035.115353864071
 20
147.51730224816947
 11
1035.115353864071
 21
150.01630496877533
  0
LINE
  8
_0-3_躯体と製品
  6
CONTINUOUS
 62
    7
 10
1035.115353864071
 20
150.01630496877533
 11
1038.1153571300956
 21
150.01630496877533
  0
LINE
  8
_0-3_躯体と製品
  6
CONTINUOUS
 62
    7
 10
1038.1153571300956
 20
150.01630496877533
 11
1038.6154576745639
 21
150.51730551420314
  0
LINE
  8
_0-3_躯体と製品
  6
CONTINUOUS
 62
    7
 10
1038.6154576745639
 20
150.51730551420314
 11
1110.6155360593248
 21
150.51730551420314
  0
LINE
  8
_0-3_躯体と製品
  6
CONTINUOUS
 62
    7
 10
1110.6155360593248
 20
150.51730551420314
 11
1111.1156366037767
 21
150.01630496877533
  0
LINE
  8
_0-3_躯体と製品
  6
CONTINUOUS
 62
    7
 10
1111.1156366037767
 20
150.01630496877533
 11
1114.1156398698158
 21
150.01630496877533
  0
TEXT
  8
_0-4_文字-記号
 62
    7
 10
1028.8845351345071
 20
179.06091207693862
 40
10
 41
1
 50
0
  1
床上換気口
  0
TEXT
  8
_0-4_文字-記号
 62
    7
 10
1065.0544694062673
 20
80.842997351840495
 40
10
 41
1
 50
0
  1
自動開閉装置
  0
LINE
  8
_0-3_躯体と製品
  6
CONTINUOUS
 62
    7
 10
1047.1152668381574
 20
130.01638328524314
 11
1047.1152668381574
 21
143.71639806325766
  0
LINE
  8
_0-3_躯体と製品
  6
CONTINUOUS
 62
    7
 10
1038.3152573457419
 20
138.51639245408387
 11
1038.3152573457419
 21
145.21639968128966
  0
LINE
  8
_0-3_躯体と製品
  6
CONTINUOUS
 62
    7
 10
1040.6152598267136
 20
145.21639968128966
 11
1040.9889122297618
 21
134.51638813933369
  0
LINE
  8
_0-3_躯体と製品
  6
CONTINUOUS
 62
    7
 10
1038.3152573457419
 20
138.51639245408387
 11
1038.3152573457419
 21
145.21639968128966
  0
LINE
  8
_0-3_躯体と製品
  6
CONTINUOUS
 62
    7
 10
1036.1152549726203
 20
142.71639698457329
 11
1036.1152549726203
 21
141.01639515080115
  0
LINE
  8
_0-3_躯体と製品
  6
CONTINUOUS
 62
    7
 10
1036.1152549726203
 20
142.71639698457329
 11
1036.1152549726203
 21
141.01639515080115
  0
LINE
  8
_0-3_躯体と製品
  6
CONTINUOUS
 62
    7
 10
1047.2152669460438
 20
134.51638813933369
 11
1047.2152669460438
 21
145.71640022063457
  0
LINE
  8
_0-3_躯体と製品
  6
CONTINUOUS
 62
    7
 10
1021.115238792293
 20
130.01638328524314
 11
1021.115238792293
 21
143.71639806325766
  0
LINE
  8
_0-3_躯体と製品
  6
CONTINUOUS
 62
    7
 10
1021.0152386844375
 20
134.51638813933369
 11
1021.0152386844375
 21
145.71640022063457
  0
LINE
  8
_0-3_躯体と製品
  6
CONTINUOUS
 62
    7
 10
1029.9152482847703
 20
138.51639245408387
 11
1029.9152482847703
 21
145.21639968128966
  0
LINE
  8
_0-3_躯体と製品
  6
CONTINUOUS
 62
    7
 10
1027.6152458037513
 20
145.21639968128966
 11
1027.2415934007031
 21
134.51638813933369
  0
LINE
  8
_0-3_躯体と製品
  6
CONTINUOUS
 62
    7
 10
1029.9152482847703
 20
138.51639245408387
 11
1029.9152482847703
 21
145.21639968128966
  0
LINE
  8
_0-3_躯体と製品
  6
CONTINUOUS
 62
    7
 10
1032.1152506578464
 20
142.71639698457329
 11
1032.1152506578464
 21
141.01639515080115
  0
LINE
  8
_0-3_躯体と製品
  6
CONTINUOUS
 62
    7
 10
1032.1152506578464
 20
142.71639698457329
 11
1032.1152506578464
 21
141.01639515080115
  0
LINE
  8
_0-3_躯体と製品
  6
CONTINUOUS
 62
    7
 10
1011.0152278975647
 20
142.71639698457329
 11
1013.4269944990892
 21
134.51638813933369
  0
LINE
  8
_0-3_躯体と製品
  6
CONTINUOUS
 62
    7
 10
1047.1152668381574
 20
112.71636462394872
 11
1047.1152668381574
 21
143.71639806325766
  0
LINE
  8
_0-3_躯体と製品
  6
CONTINUOUS
 62
    7
 10
1021.115238792293
 20
112.71636462394872
 11
1021.115238792293
 21
143.71639806325766
  0
LINE
  8
_0-3_躯体と製品
  6
CONTINUOUS
 62
    7
 10
1057.2152777329129
 20
142.71639698457329
 11
1054.8035091313732
 21
134.51638813933369
  0
LINE
  8
_0-3_躯体と製品
  6
CONTINUOUS
 62
    7
 10
1057.1152776250283
 20
132.01638544261732
 11
1057.1152776250283
 21
134.51638813933369
  0
LINE
  8
_0-3_躯体と製品
  6
CONTINUOUS
 62
    7
 10
1019.1152366349443
 20
131.71638511901074
 11
1021.115238792293
 21
131.71638511901074
  0
LINE
  8
_0-3_躯体と製品
  6
CONTINUOUS
 62
    7
 10
1019.1152366349443
 20
131.71638511901074
 11
1019.1152366349443
 21
132.01638544261732
  0
LINE
  8
_0-3_躯体と製品
  6
CONTINUOUS
 62
    7
 10
1032.1152506578464
 20
141.01639515080115
 11
1030.6746131038699
 21
141.01639515080115
  0
LINE
  8
_0-3_躯体と製品
  6
CONTINUOUS
 62
    7
 10
1032.1152506578464
 20
141.01639515080115
 11
1029.9152482847703
 21
141.01639515080115
  0
LINE
  8
_0-3_躯体と製品
  6
CONTINUOUS
 62
    7
 10
1039.615258748031
 20
132.01638544261732
 11
1028.6152468824794
 21
132.01638544261732
  0
LINE
  8
_0-3_躯体と製品
  6
CONTINUOUS
 62
    7
 10
1029.9152482847703
 20
138.51639245408387
 11
1038.3152573457419
 21
138.51639245408387
  0
LINE
  8
_0-3_躯体と製品
  6
CONTINUOUS
 62
    7
 10
1029.1152474218261
 20
132.01638544261732
 11
1039.115258208697
 21
132.01638544261732
  0
LINE
  8
_0-3_躯体と製品
  6
CONTINUOUS
 62
    7
 10
1029.1152474218261
 20
131.01638436393023
 11
1039.115258208697
 21
131.01638436393023
  0
ARC
  8
_0-3_躯体と製品
  6
CONTINUOUS
 62
    7
 10
1034.1152528152552
 20
134.61638824720376
 40
6.1000065799935168
 50
219.60192699840061
 51
320.3980730015993
  0
LINE
  8
_0-3_躯体と製品
  6
CONTINUOUS
 62
    7
 10
1029.4152477453927
 20
131.01638436393023
 11
1038.8152578850722
 21
131.01638436393023
  0
LINE
  8
_0-3_躯体と製品
  6
CONTINUOUS
 62
    7
 10
1029.4152477453927
 20
130.72794005278411
 11
1038.8152578850722
 21
130.72794005278411
  0
LINE
  8
_0-3_躯体と製品
  6
CONTINUOUS
 62
    7
 10
1039.615258748031
 20
132.01638544261732
 11
1028.6152468824794
 21
132.01638544261732
  0
LINE
  8
_0-3_躯体と製品
  6
CONTINUOUS
 62
    7
 10
1040.865260096366
 20
131.01638436393023
 11
1027.365245534068
 21
131.01638436393023
  0
LINE
  8
_0-3_躯体と製品
  6
CONTINUOUS
 62
    7
 10
1028.6152468824794
 20
132.01638544261732
 11
1039.615258748031
 21
132.01638544261732
  0
LINE
  8
_0-3_躯体と製品
  6
CONTINUOUS
 62
    7
 10
1027.365245534068
 20
131.01638436393023
 11
1040.865260096366
 21
131.01638436393023
  0
LINE
  8
_0-3_躯体と製品
  6
CONTINUOUS
 62
    7
 10
1030.1152485005086
 20
126.01637897049204
 11
1038.1152571299999
 21
126.01637897049204
  0
LINE
  8
_0-3_躯体と製品
  6
CONTINUOUS
 62
    7
 10
1038.1152571299999
 20
126.01637897049204
 11
1030.1152485005086
 21
126.01637897049204
  0
LINE
  8
_0-3_躯体と製品
  6
CONTINUOUS
 62
    7
 10
1043.6946271483948
 20
128.01638112786804
 11
1024.5358764821094
 21
128.01638112786804
  0
LINE
  8
_0-3_躯体と製品
  6
CONTINUOUS
 62
    7
 10
1024.5358764821094
 20
128.01638112786804
 11
1043.6946271483948
 21
128.01638112786804
  0
ARC
  8
_0-3_躯体と製品
  6
CONTINUOUS
 62
    7
 10
1027.7152459116651
 20
122.31637497934935
 40
0.500000539343731
 50
90
 51
180
  0
ARC
  8
_0-3_躯体と製品
  6
CONTINUOUS
 62
    7
 10
1027.947654162338
 20
122.31637497934935
 40
0.500000539343731
 50
33.690067999279172
 51
90
  0
LINE
  8
_0-3_躯体と製品
  6
CONTINUOUS
 62
    7
 10
1029.2887536089556
 20
121.20611378172271
 11
1028.363678611101
 21
122.59372527852156
  0
LINE
  8
_0-3_躯体と製品
  6
CONTINUOUS
 62
    7
 10
1027.7152459116651
 20
122.81637551868971
 11
1027.947654162338
 21
122.81637551868971
  0
LINE
  8
_0-3_躯体と製品
  6
CONTINUOUS
 62
    7
 10
1026.1152441857348
 20
130.01638328524314
 11
1021.115238792293
 21
130.01638328524314
  0
LINE
  8
_0-3_躯体と製品
  6
CONTINUOUS
 62
    7
 10
1024.5358764821094
 20
128.01638112786804
 11
1021.115238792293
 21
128.01638112786804
  0
LINE
  8
_0-3_躯体と製品
  6
CONTINUOUS
 62
    7
 10
1023.1152409496726
 20
129.51638274589823
 11
1021.115238792293
 21
129.51638274589823
  0
LINE
  8
_0-3_躯体と製品
  6
CONTINUOUS
 62
    7
 10
1023.1152409496726
 20
129.51638274589823
 11
1021.115238792293
 21
129.51638274589823
  0
LINE
  8
_0-3_躯体と製品
  6
CONTINUOUS
 62
    7
 10
1021.115238792293
 20
128.01638112786804
 11
1024.5358764821094
 21
128.01638112786804
  0
LINE
  8
_0-3_躯体と製品
  6
CONTINUOUS
 62
    7
 10
1022.1152398709755
 20
130.01638328524314
 11
1022.1152398709755
 21
134.51638813933369
  0
LINE
  8
_0-3_躯体と製品
  6
CONTINUOUS
 62
    7
 10
1021.115238792293
 20
131.71638511901074
 11
1021.0152386844375
 21
131.71638511901074
  0
LINE
  8
_0-3_躯体と製品
  6
CONTINUOUS
 62
    7
 10
1021.0152386844375
 20
131.71638511901074
 11
1021.0152386844375
 21
132.01638544261732
  0
LINE
  8
_0-3_躯体と製品
  6
CONTINUOUS
 62
    7
 10
1029.1152474218261
 20
131.01638436393023
 11
1029.1152474218261
 21
132.01638544261732
  0
LINE
  8
_0-3_躯体と製品
  6
CONTINUOUS
 62
    7
 10
1029.4152477453927
 20
130.72794005278411
 11
1029.4152477453927
 21
131.01638436393023
  0
LINE
  8
_0-3_躯体と製品
  6
CONTINUOUS
 62
    7
 10
1030.1152485005086
 20
126.01637897049204
 11
1029.5793499224283
 21
128.01638112786804
  0
LINE
  8
_0-3_躯体と製品
  6
CONTINUOUS
 62
    7
 10
1030.1152485005086
 20
126.01637897049204
 11
1029.5793499224283
 21
128.01638112786804
  0
LINE
  8
_0-3_躯体と製品
  6
CONTINUOUS
 62
    7
 10
1027.1152452644174
 20
126.01637897049204
 11
1030.1152485005086
 21
126.01637897049204
  0
LINE
  8
_0-3_躯体と製品
  6
CONTINUOUS
 62
    7
 10
1030.1152485005086
 20
126.01637897049204
 11
1027.1152452644174
 21
126.01637897049204
  0
ARC
  8
_0-3_躯体と製品
  6
CONTINUOUS
 62
    7
 10
1024.5358764821094
 20
127.01638004917913
 40
1.0000010786874609
 50
90
 51
176.99999999978888
  0
ARC
  8
_0-3_躯体と製品
  6
CONTINUOUS
 62
    7
 10
1024.5358764821094
 20
127.01638004917913
 40
1.0000010786874609
 50
90
 51
176.99999999978888
  0
LINE
  8
_0-3_躯体と製品
  6
CONTINUOUS
 62
    7
 10
1023.1152409496726
 20
130.01638328524314
 11
1023.1152409496726
 21
129.51638274589823
  0
LINE
  8
_0-3_躯体と製品
  6
CONTINUOUS
 62
    7
 10
1023.1152409496726
 20
130.01638328524314
 11
1023.1152409496726
 21
129.51638274589823
  0
LINE
  8
_0-3_躯体と製品
  6
CONTINUOUS
 62
    7
 10
1026.1152441857348
 20
130.01638328524314
 11
1028.6152468824794
 21
132.01638544261732
  0
LINE
  8
_0-3_躯体と製品
  6
CONTINUOUS
 62
    7
 10
1049.1152689955843
 20
131.71638511901074
 11
1047.1152668381574
 21
131.71638511901074
  0
LINE
  8
_0-3_躯体と製品
  6
CONTINUOUS
 62
    7
 10
1047.2152669460438
 20
131.71638511901074
 11
1047.1152668381574
 21
131.71638511901074
  0
LINE
  8
_0-3_躯体と製品
  6
CONTINUOUS
 62
    7
 10
1052.2152723394711
 20
125.71637864688728
 11
1047.1152668381574
 21
125.71637864688728
  0
ARC
  8
_0-3_躯体と製品
  6
CONTINUOUS
 62
    7
 10
1040.2828514681578
 20
122.31637497934935
 40
0.500000539343731
 50
90
 51
146.30993200072081
  0
LINE
  8
_0-3_躯体と製品
  6
CONTINUOUS
 62
    7
 10
1038.941750021505
 20
121.20611378172271
 11
1039.8668250194032
 21
122.59372527852156
  0
ARC
  8
_0-3_躯体と製品
  6
CONTINUOUS
 62
    7
 10
1040.5152597188471
 20
122.31637497934935
 40
0.500000539343731
 50
0
 51
90
  0
LINE
  8
_0-3_躯体と製品
  6
CONTINUOUS
 62
    7
 10
1040.5152597188471
 20
122.81637551868971
 11
1040.2828514681578
 21
122.81637551868971
  0
LINE
  8
_0-3_躯体と製品
  6
CONTINUOUS
 62
    7
 10
1039.115258208697
 20
131.01638436393023
 11
1039.115258208697
 21
132.01638544261732
  0
LINE
  8
_0-3_躯体と製品
  6
CONTINUOUS
 62
    7
 10
1034.6152533546019
 20
138.61639256195213
 11
1036.1152549726203
 21
138.61639256195213
  0
LINE
  8
_0-3_躯体と製品
  6
CONTINUOUS
 62
    7
 10
1036.1152549726203
 20
138.51639245408387
 11
1036.1152549726203
 21
138.61639256195213
  0
LINE
  8
_0-3_躯体と製品
  6
CONTINUOUS
 62
    7
 10
1038.8152578850722
 20
130.72794005278411
 11
1038.8152578850722
 21
131.01638436393023
  0
LINE
  8
_0-3_躯体と製品
  6
CONTINUOUS
 62
    7
 10
1046.1152657594894
 20
130.01638328524314
 11
1046.1152657594894
 21
134.51638813933369
  0
LINE
  8
_0-3_躯体と製品
  6
CONTINUOUS
 62
    7
 10
1045.1152646808068
 20
129.51638274589823
 11
1047.1152668381574
 21
129.51638274589823
  0
LINE
  8
_0-3_躯体と製品
  6
CONTINUOUS
 62
    7
 10
1045.1152646808068
 20
130.01638328524314
 11
1045.1152646808068
 21
129.51638274589823
  0
LINE
  8
_0-3_躯体と製品
  6
CONTINUOUS
 62
    7
 10
1047.1152668381574
 20
128.01638112786804
 11
1043.6946271483948
 21
128.01638112786804
  0
LINE
  8
_0-3_躯体と製品
  6
CONTINUOUS
 62
    7
 10
1043.6946271483948
 20
128.01638112786804
 11
1047.1152668381574
 21
128.01638112786804
  0
LINE
  8
_0-3_躯体と製品
  6
CONTINUOUS
 62
    7
 10
1045.1152646808068
 20
130.01638328524314
 11
1045.1152646808068
 21
129.51638274589823
  0
LINE
  8
_0-3_躯体と製品
  6
CONTINUOUS
 62
    7
 10
1045.1152646808068
 20
129.51638274589823
 11
1047.1152668381574
 21
129.51638274589823
  0
LINE
  8
_0-3_躯体と製品
  6
CONTINUOUS
 62
    7
 10
1038.1152571299999
 20
126.01637897049204
 11
1038.6511557080676
 21
128.01638112786804
  0
LINE
  8
_0-3_躯体と製品
  6
CONTINUOUS
 62
    7
 10
1038.1152571299999
 20
126.01637897049204
 11
1038.6511557080676
 21
128.01638112786804
  0
ARC
  8
_0-3_躯体と製品
  6
CONTINUOUS
 62
    7
 10
1043.6946271483948
 20
127.01638004917913
 40
1.0000010786874609
 50
3.0000000002110641
 51
90
  0
ARC
  8
_0-3_躯体と製品
  6
CONTINUOUS
 62
    7
 10
1043.6946271483948
 20
127.01638004917913
 40
1.0000010786874609
 50
3.0000000002110641
 51
90
  0
LINE
  8
_0-3_躯体と製品
  6
CONTINUOUS
 62
    7
 10
1038.1152571299999
 20
126.01637897049204
 11
1041.1152603660494
 21
126.01637897049204
  0
LINE
  8
_0-3_躯体と製品
  6
CONTINUOUS
 62
    7
 10
1035.06525383998
 20
124.21637702885528
 11
1035.06525383998
 21
124.71637756819837
  0
LINE
  8
_0-3_躯体と製品
  6
CONTINUOUS
 62
    7
 10
1035.06525383998
 20
124.21637702885528
 11
1035.06525383998
 21
124.71637756819837
  0
LINE
  8
_0-3_躯体と製品
  6
CONTINUOUS
 62
    7
 10
1041.1152603660494
 20
126.01637897049204
 11
1038.1152571299999
 21
126.01637897049204
  0
LINE
  8
_0-3_躯体と製品
  6
CONTINUOUS
 62
    7
 10
1047.1152668381574
 20
130.01638328524314
 11
1042.1152614447319
 21
130.01638328524314
  0
LINE
  8
_0-3_躯体と製品
  6
CONTINUOUS
 62
    7
 10
1034.6152533546019
 20
138.51639245408387
 11
1034.6152533546019
 21
138.81639277768954
  0
LINE
  8
_0-3_躯体と製品
  6
CONTINUOUS
 62
    7
 10
1035.7152545411273
 20
138.51639245408387
 11
1035.7152545411273
 21
139.01639299342787
  0
LINE
  8
_0-3_躯体と製品
  6
CONTINUOUS
 62
    7
 10
1035.7152545411273
 20
139.01639299342787
 11
1036.1152549726203
 21
138.61639256195213
  0
LINE
  8
_0-3_躯体と製品
  6
CONTINUOUS
 62
    7
 10
1036.1152549726203
 20
141.01639515080115
 11
1037.5558905266362
 21
141.01639515080115
  0
LINE
  8
_0-3_躯体と製品
  6
CONTINUOUS
 62
    7
 10
1036.1152549726203
 20
141.01639515080115
 11
1038.3152573457419
 21
141.01639515080115
  0
LINE
  8
_0-3_躯体と製品
  6
CONTINUOUS
 62
    7
 10
1042.1152614447319
 20
130.01638328524314
 11
1039.615258748031
 21
132.01638544261732
  0
LINE
  8
_0-3_躯体と製品
  6
CONTINUOUS
 62
    7
 10
1049.1152689955843
 20
131.71638511901074
 11
1049.1152689955843
 21
132.01638544261732
  0
LINE
  8
_0-3_躯体と製品
  6
CONTINUOUS
 62
    7
 10
1047.2152669460438
 20
131.71638511901074
 11
1047.2152669460438
 21
132.01638544261732
  0
LINE
  8
_0-3_躯体と製品
  6
CONTINUOUS
 62
    7
 10
1054.0682143382301
 20
132.01638544261732
 11
1052.2152723394711
 21
125.71637864688728
  0
LINE
  8
_0-3_躯体と製品
  6
CONTINUOUS
 62
    7
 10
1033.6152522758775
 20
138.51639245408387
 11
1033.6152522758775
 21
138.81639277768954
  0
LINE
  8
_0-3_躯体と製品
  6
CONTINUOUS
 62
    7
 10
1032.1152506578464
 20
138.51639245408387
 11
1032.1152506578464
 21
138.61639256195213
  0
LINE
  8
_0-3_躯体と製品
  6
CONTINUOUS
 62
    7
 10
1033.1652517904849
 20
124.21637702885528
 11
1033.1652517904849
 21
124.71637756819837
  0
LINE
  8
_0-3_躯体と製品
  6
CONTINUOUS
 62
    7
 10
1033.1652517904849
 20
124.21637702885528
 11
1033.1652517904849
 21
124.71637756819837
  0
LINE
  8
_0-3_躯体と製品
  6
CONTINUOUS
 62
    7
 10
1032.5152510893249
 20
138.51639245408387
 11
1032.5152510893249
 21
139.01639299342787
  0
LINE
  8
_0-3_躯体と製品
  6
CONTINUOUS
 62
    7
 10
1032.5152510893249
 20
139.01639299342787
 11
1032.1152506578464
 21
138.61639256195213
  0
LINE
  8
_0-3_躯体と製品
  6
CONTINUOUS
 62
    7
 10
1032.1152506578464
 20
138.61639256195213
 11
1033.6152522758775
 21
138.61639256195213
  0
LINE
  8
_0-3_躯体と製品
  6
CONTINUOUS
 62
    7
 10
1033.6152522758775
 20
138.81639277768954
 11
1034.6152533546019
 21
138.81639277768954
  0
LINE
  8
_0-3_躯体と製品
  6
CONTINUOUS
 62
    7
 10
1033.090555709924
 20
124.21637702885528
 11
1035.1399479205511
 21
124.21637702885528
  0
LINE
  8
_0-3_躯体と製品
  6
CONTINUOUS
 62
    7
 10
1033.1652517904849
 20
124.71637756819837
 11
1035.06525383998
 21
124.71637756819837
  0
LINE
  8
_0-3_躯体と製品
  6
CONTINUOUS
 62
    7
 10
1035.1399479205511
 20
124.21637702885528
 11
1033.090555709924
 21
124.21637702885528
  0
LINE
  8
_0-3_躯体と製品
  6
CONTINUOUS
 62
    7
 10
1035.06525383998
 20
124.71637756819837
 11
1033.1652517904849
 21
124.71637756819837
  0
LINE
  8
_0-3_躯体と製品
  6
CONTINUOUS
 62
    7
 10
1032.5152510893249
 20
139.01639299342787
 11
1035.7152545411273
 21
139.01639299342787
  0
LINE
  8
_0-3_躯体と製品
  6
CONTINUOUS
 62
    7
 10
1014.1622892922724
 20
132.01638544261732
 11
1016.0152332910102
 21
125.71637864688728
  0
LINE
  8
_0-3_躯体と製品
  6
CONTINUOUS
 62
    7
 10
1021.115238792293
 20
125.71637864688728
 11
1016.0152332910102
 21
125.71637864688728
  0
LINE
  8
_0-3_躯体と製品
  6
CONTINUOUS
 62
    7
 10
1011.1152280054366
 20
132.01638544261732
 11
1011.1152280054366
 21
134.51638813933369
  0
LINE
  8
_0-3_躯体と製品
  6
CONTINUOUS
 62
    7
 10
1027.2415934007031
 20
134.51638813933369
 11
1011.1152280054366
 21
134.51638813933369
  0
LINE
  8
_0-3_躯体と製品
  6
CONTINUOUS
 62
    7
 10
1021.115238792293
 20
132.01638544261732
 11
1011.1152280054366
 21
132.01638544261732
  0
LINE
  8
_0-3_躯体と製品
  6
CONTINUOUS
 62
    7
 10
1027.1152452644174
 20
119.01637141967694
 11
1023.1152409496726
 21
119.01637141967694
  0
LINE
  8
_0-3_躯体と製品
  6
CONTINUOUS
 62
    7
 10
1027.1152452644174
 20
119.01637141967694
 11
1023.1152409496726
 21
119.01637141967694
  0
LINE
  8
_0-3_躯体と製品
  6
CONTINUOUS
 62
    7
 10
1028.9152472060441
 20
120.04106852500718
 11
1028.9152472060441
 21
117.99167631435375
  0
LINE
  8
_0-3_躯体と製品
  6
CONTINUOUS
 62
    7
 10
1028.9152472060441
 20
120.04106852500718
 11
1028.9152472060441
 21
117.99167631435375
  0
LINE
  8
_0-3_躯体と製品
  6
CONTINUOUS
 62
    7
 10
1041.1152603660494
 20
119.01637141967694
 11
1045.1152646808068
 21
119.01637141967694
  0
LINE
  8
_0-3_躯体と製品
  6
CONTINUOUS
 62
    7
 10
1041.1152603660494
 20
119.01637141967694
 11
1045.1152646808068
 21
119.01637141967694
  0
LINE
  8
_0-3_躯体と製品
  6
CONTINUOUS
 62
    7
 10
1039.3152584244062
 20
120.04106852500718
 11
1039.3152584244062
 21
117.99167631435375
  0
LINE
  8
_0-3_躯体と製品
  6
CONTINUOUS
 62
    7
 10
1039.3152584244062
 20
120.04106852500718
 11
1039.3152584244062
 21
117.99167631435375
  0
LINE
  8
_0-3_躯体と製品
  6
CONTINUOUS
 62
    7
 10
1046.1152657594894
 20
107.51635901477221
 11
1022.1152398709755
 21
107.51635901477221
  0
LINE
  8
_0-3_躯体と製品
  6
CONTINUOUS
 62
    7
 10
1047.1152668381574
 20
108.51636009346112
 11
1021.115238792293
 21
108.51636009346112
  0
LINE
  8
_0-3_躯体と製品
  6
CONTINUOUS
 62
    7
 10
1022.1152398709755
 20
107.51635901477221
 11
1046.1152657594894
 21
107.51635901477221
  0
LINE
  8
_0-3_躯体と製品
  6
CONTINUOUS
 62
    7
 10
1021.115238792293
 20
108.51636009346112
 11
1047.1152668381574
 21
108.51636009346112
  0
LINE
  8
_0-3_躯体と製品
  6
CONTINUOUS
 62
    7
 10
1039.7152588558865
 20
111.01636279017748
 11
1028.5152467746093
 21
111.01636279017748
  0
ARC
  8
_0-3_躯体と製品
  6
CONTINUOUS
 62
    7
 10
1030.6152490398281
 20
113.81636581050407
 40
1.0000010786874609
 50
270
 51
0
  0
ARC
  8
_0-3_躯体と製品
  6
CONTINUOUS
 62
    7
 10
1028.2152464509991
 20
117.61636990951592
 40
1.0000010786874609
 50
180
 51
270
  0
LINE
  8
_0-3_躯体と製品
  6
CONTINUOUS
 62
    7
 10
1028.4152466667083
 20
116.61636883082883
 11
1028.4152466667083
 21
113.61251359061225
  0
LINE
  8
_0-3_躯体と製品
  6
CONTINUOUS
 62
    7
 10
1028.5652468285216
 20
113.61540359372793
 11
1028.5652468285216
 21
116.61636883082883
  0
LINE
  8
_0-3_躯体と製品
  6
CONTINUOUS
 62
    7
 10
1028.4152466667083
 20
116.61636883082883
 11
1028.4152466667083
 21
113.61251359061225
  0
LINE
  8
_0-3_躯体と製品
  6
CONTINUOUS
 62
    7
 10
1028.5652468285216
 20
113.61540359372793
 11
1028.5652468285216
 21
116.61636883082883
  0
LINE
  8
_0-3_躯体と製品
  6
CONTINUOUS
 62
    7
 10
1028.2152464509991
 20
116.61636883082883
 11
1029.3897837179438
 21
116.61636883082883
  0
ARC
  8
_0-3_躯体と製品
  6
CONTINUOUS
 62
    7
 10
1030.2588086553342
 20
113.81636581050407
 40
1.0000010786874609
 50
220.70570699882347
 51
270
  0
LINE
  8
_0-3_躯体と製品
  6
CONTINUOUS
 62
    7
 10
1030.6152490398281
 20
112.81636473181516
 11
1030.2588086553342
 21
112.81636473181516
  0
LINE
  8
_0-3_躯体と製品
  6
CONTINUOUS
 62
    7
 10
1028.4152466667083
 20
110.01636171149312
 11
1021.115238792293
 21
110.01636171149312
  0
LINE
  8
_0-3_躯体と製品
  6
CONTINUOUS
 62
    7
 10
1028.5652468285216
 20
110.01636171149312
 11
1021.115238792293
 21
110.01636171149312
  0
LINE
  8
_0-3_躯体と製品
  6
CONTINUOUS
 62
    7
 10
1021.115238792293
 20
110.01636171149312
 11
1028.4152466667083
 21
110.01636171149312
  0
LINE
  8
_0-3_躯体と製品
  6
CONTINUOUS
 62
    7
 10
1028.5652468285216
 20
110.01636171149312
 11
1021.115238792293
 21
110.01636171149312
  0
LINE
  8
_0-3_躯体と製品
  6
CONTINUOUS
 62
    7
 10
1021.115238792293
 20
107.51635901477221
 11
1022.1152398709755
 21
107.51635901477221
  0
LINE
  8
_0-3_躯体と製品
  6
CONTINUOUS
 62
    7
 10
1021.115238792293
 20
110.01636171149312
 11
1021.115238792293
 21
108.51636009346112
  0
LINE
  8
_0-3_躯体と製品
  6
CONTINUOUS
 62
    7
 10
1021.115238792293
 20
108.51636009346112
 11
1022.1152398709755
 21
107.51635901477221
  0
LINE
  8
_0-3_躯体と製品
  6
CONTINUOUS
 62
    7
 10
1021.115238792293
 20
107.51635901477221
 11
1022.1152398709755
 21
107.51635901477221
  0
LINE
  8
_0-3_躯体と製品
  6
CONTINUOUS
 62
    7
 10
1021.115238792293
 20
110.01636171149312
 11
1021.115238792293
 21
108.51636009346112
  0
LINE
  8
_0-3_躯体と製品
  6
CONTINUOUS
 62
    7
 10
1021.115238792293
 20
108.51636009346112
 11
1022.1152398709755
 21
107.51635901477221
  0
LINE
  8
_0-3_躯体と製品
  6
CONTINUOUS
 62
    7
 10
1028.4152466667083
 20
111.02021479433279
 11
1028.4152466667083
 21
110.01636171149312
  0
LINE
  8
_0-3_躯体と製品
  6
CONTINUOUS
 62
    7
 10
1028.5652468285216
 20
110.01636171149312
 11
1028.5652468285216
 21
111.01636279017748
  0
LINE
  8
_0-3_躯体と製品
  6
CONTINUOUS
 62
    7
 10
1028.4152466667083
 20
111.02021479433279
 11
1028.4152466667083
 21
110.01636171149312
  0
LINE
  8
_0-3_躯体と製品
  6
CONTINUOUS
 62
    7
 10
1028.5652468285216
 20
110.01636171149312
 11
1028.5652468285216
 21
111.01636279017748
  0
ARC
  8
_0-3_躯体と製品
  6
CONTINUOUS
 62
    7
 10
1028.5152467746093
 20
112.31636419247207
 40
1.3000014022937001
 50
40.70570699882348
 51
269.99999999999994
  0
LINE
  8
_0-3_躯体と製品
  6
CONTINUOUS
 62
    7
 10
1039.8152589637548
 20
116.61636883082883
 11
1039.8152589637548
 21
113.61251359061225
  0
LINE
  8
_0-3_躯体と製品
  6
CONTINUOUS
 62
    7
 10
1039.6652588019288
 20
113.61540359372793
 11
1039.6652588019288
 21
116.61636883082883
  0
LINE
  8
_0-3_躯体と製品
  6
CONTINUOUS
 62
    7
 10
1039.8152589637548
 20
116.61636883082883
 11
1039.8152589637548
 21
113.61251359061225
  0
LINE
  8
_0-3_躯体と製品
  6
CONTINUOUS
 62
    7
 10
1039.6652588019288
 20
113.61540359372793
 11
1039.6652588019288
 21
116.61636883082883
  0
ARC
  8
_0-3_躯体と製品
  6
CONTINUOUS
 62
    7
 10
1040.0152591795095
 20
117.61636990951592
 40
1.0000010786874609
 50
270
 51
0
  0
LINE
  8
_0-3_躯体と製品
  6
CONTINUOUS
 62
    7
 10
1040.0152591795095
 20
116.61636883082883
 11
1038.8407199125477
 21
116.61636883082883
  0
ARC
  8
_0-3_躯体と製品
  6
CONTINUOUS
 62
    7
 10
1037.9716969751307
 20
113.81636581050407
 40
1.0000010786874609
 50
270
 51
319.29429300117653
  0
LINE
  8
_0-3_躯体と製品
  6
CONTINUOUS
 62
    7
 10
1037.6152565906514
 20
112.81636473181516
 11
1037.9716969751307
 21
112.81636473181516
  0
LINE
  8
_0-3_躯体と製品
  6
CONTINUOUS
 62
    7
 10
1036.6152555119397
 20
113.81636581050407
 11
1036.6152555119397
 21
114.34303837861717
  0
LINE
  8
_0-3_躯体と製品
  6
CONTINUOUS
 62
    7
 10
1035.0152537860822
 20
113.51636548689567
 11
1035.0152537860822
 21
113.81636581050407
  0
LINE
  8
_0-3_躯体と製品
  6
CONTINUOUS
 62
    7
 10
1031.6152501185106
 20
113.81636581050407
 11
1031.6152501185106
 21
114.34303837861717
  0
LINE
  8
_0-3_躯体と製品
  6
CONTINUOUS
 62
    7
 10
1033.2152518444427
 20
113.51636548689567
 11
1033.2152518444427
 21
113.81636581050407
  0
LINE
  8
_0-3_躯体と製品
  6
CONTINUOUS
 62
    7
 10
1033.090555709924
 20
113.81636581050407
 11
1035.1399479205511
 21
113.81636581050407
  0
LINE
  8
_0-3_躯体と製品
  6
CONTINUOUS
 62
    7
 10
1035.1399479205511
 20
113.81636581050407
 11
1033.090555709924
 21
113.81636581050407
  0
LINE
  8
_0-3_躯体と製品
  6
CONTINUOUS
 62
    7
 10
1047.1152668381574
 20
110.01636171149312
 11
1039.8152589637548
 21
110.01636171149312
  0
LINE
  8
_0-3_躯体と製品
  6
CONTINUOUS
 62
    7
 10
1039.6652588019288
 20
110.01636171149312
 11
1047.1152668381574
 21
110.01636171149312
  0
LINE
  8
_0-3_躯体と製品
  6
CONTINUOUS
 62
    7
 10
1039.8152589637548
 20
110.01636171149312
 11
1047.1152668381574
 21
110.01636171149312
  0
LINE
  8
_0-3_躯体と製品
  6
CONTINUOUS
 62
    7
 10
1039.6652588019288
 20
110.01636171149312
 11
1047.1152668381574
 21
110.01636171149312
  0
LINE
  8
_0-3_躯体と製品
  6
CONTINUOUS
 62
    7
 10
1039.8152589637548
 20
111.02021479433279
 11
1039.8152589637548
 21
110.01636171149312
  0
LINE
  8
_0-3_躯体と製品
  6
CONTINUOUS
 62
    7
 10
1039.6652588019288
 20
110.01636171149312
 11
1039.6652588019288
 21
111.01636279017748
  0
LINE
  8
_0-3_躯体と製品
  6
CONTINUOUS
 62
    7
 10
1039.8152589637548
 20
111.02021479433279
 11
1039.8152589637548
 21
110.01636171149312
  0
LINE
  8
_0-3_躯体と製品
  6
CONTINUOUS
 62
    7
 10
1039.6652588019288
 20
110.01636171149312
 11
1039.6652588019288
 21
111.01636279017748
  0
LINE
  8
_0-3_躯体と製品
  6
CONTINUOUS
 62
    7
 10
1047.1152668381574
 20
107.51635901477221
 11
1046.1152657594894
 21
107.51635901477221
  0
LINE
  8
_0-3_躯体と製品
  6
CONTINUOUS
 62
    7
 10
1047.1152668381574
 20
110.01636171149312
 11
1047.1152668381574
 21
108.51636009346112
  0
LINE
  8
_0-3_躯体と製品
  6
CONTINUOUS
 62
    7
 10
1047.1152668381574
 20
108.51636009346112
 11
1046.1152657594894
 21
107.51635901477221
  0
LINE
  8
_0-3_躯体と製品
  6
CONTINUOUS
 62
    7
 10
1047.1152668381574
 20
107.51635901477221
 11
1046.1152657594894
 21
107.51635901477221
  0
LINE
  8
_0-3_躯体と製品
  6
CONTINUOUS
 62
    7
 10
1047.1152668381574
 20
110.01636171149312
 11
1047.1152668381574
 21
108.51636009346112
  0
LINE
  8
_0-3_躯体と製品
  6
CONTINUOUS
 62
    7
 10
1047.1152668381574
 20
108.51636009346112
 11
1046.1152657594894
 21
107.51635901477221
  0
ARC
  8
_0-3_躯体と製品
  6
CONTINUOUS
 62
    7
 10
1037.6152565906514
 20
113.81636581050407
 40
1.0000010786874609
 50
180
 51
270
  0
ARC
  8
_0-3_躯体と製品
  6
CONTINUOUS
 62
    7
 10
1039.7152588558865
 20
112.31636419247207
 40
1.3000014022937001
 50
270
 51
139.2942930011765
  0
ARC
  8
_0-3_躯体と製品
  6
CONTINUOUS
 62
    7
 10
1034.1152528152552
 20
113.51636548689567
 40
0.9000009708187156
 50
180
 51
0
  0
ARC
  8
_0-3_躯体と製品
  6
CONTINUOUS
 62
    7
 10
1034.1152528152552
 20
119.01637141967694
 40
5.3000057170435459
 50
191.1476909995788
 51
258.8523089991499
  0
ARC
  8
_0-3_躯体と製品
  6
CONTINUOUS
 62
    7
 10
1034.1152528152552
 20
119.01637141967694
 40
5.3000057170435459
 50
191.1476909995788
 51
258.8523089991499
  0
LINE
  8
_0-3_躯体と製品
  6
CONTINUOUS
 62
    7
 10
1023.1152409496726
 20
110.01636171149312
 11
1023.1152409496726
 21
119.01637141967694
  0
LINE
  8
_0-3_躯体と製品
  6
CONTINUOUS
 62
    7
 10
1023.1152409496726
 20
110.01636171149312
 11
1023.1152409496726
 21
119.01637141967694
  0
ARC
  8
_0-3_躯体と製品
  6
CONTINUOUS
 62
    7
 10
1034.1152528152552
 20
119.01637141967694
 40
5.3000057170435459
 50
281.14769100256319
 51
348.85230900042109
  0
ARC
  8
_0-3_躯体と製品
  6
CONTINUOUS
 62
    7
 10
1034.1152528152552
 20
119.01637141967694
 40
5.3000057170435459
 50
281.14769100256319
 51
348.85230900042109
  0
LINE
  8
_0-3_躯体と製品
  6
CONTINUOUS
 62
    7
 10
1045.1152646808068
 20
110.01636171149312
 11
1045.1152646808068
 21
119.01637141967694
  0
LINE
  8
_0-3_躯体と製品
  6
CONTINUOUS
 62
    7
 10
1045.1152646808068
 20
110.01636171149312
 11
1045.1152646808068
 21
119.01637141967694
  0
ARC
  8
_0-3_躯体と製品
  6
CONTINUOUS
 62
    7
 10
1034.1152528152552
 20
119.01637141967694
 40
5.3000057170435459
 50
101.1476910008501
 51
168.85230900042109
  0
ARC
  8
_0-3_躯体と製品
  6
CONTINUOUS
 62
    7
 10
1034.1152528152552
 20
119.01637141967694
 40
5.3000057170435459
 50
101.1476910008501
 51
168.85230900042109
  0
LINE
  8
_0-3_躯体と製品
  6
CONTINUOUS
 62
    7
 10
1027.1152452644174
 20
119.01637141967694
 11
1027.1152452644174
 21
126.01637897049204
  0
LINE
  8
_0-3_躯体と製品
  6
CONTINUOUS
 62
    7
 10
1027.1152452644174
 20
119.01637141967694
 11
1027.1152452644174
 21
126.01637897049204
  0
LINE
  8
_0-3_躯体と製品
  6
CONTINUOUS
 62
    7
 10
1023.1152409496726
 20
119.01637141967694
 11
1023.5372454048729
 21
127.06871610563303
  0
LINE
  8
_0-3_躯体と製品
  6
CONTINUOUS
 62
    7
 10
1023.1152409496726
 20
119.01637141967694
 11
1023.5372454048729
 21
127.06871610563303
  0
ARC
  8
_0-3_躯体と製品
  6
CONTINUOUS
 62
    7
 10
1034.1152528152552
 20
119.01637141967694
 40
5.3000057170435459
 50
11.14769099957886
 51
78.852308997436808
  0
LINE
  8
_0-3_躯体と製品
  6
CONTINUOUS
 62
    7
 10
1041.1152603660494
 20
119.01637141967694
 11
1041.1152603660494
 21
126.01637897049204
  0
ARC
  8
_0-3_躯体と製品
  6
CONTINUOUS
 62
    7
 10
1034.1152528152552
 20
119.01637141967694
 40
5.3000057170435459
 50
11.14769099957886
 51
78.852308997436808
  0
LINE
  8
_0-3_躯体と製品
  6
CONTINUOUS
 62
    7
 10
1041.1152603660494
 20
119.01637141967694
 11
1041.1152603660494
 21
126.01637897049204
  0
LINE
  8
_0-3_躯体と製品
  6
CONTINUOUS
 62
    7
 10
1045.1152646808068
 20
119.01637141967694
 11
1044.693258225584
 21
127.06871610563303
  0
LINE
  8
_0-3_躯体と製品
  6
CONTINUOUS
 62
    7
 10
1045.1152646808068
 20
119.01637141967694
 11
1044.693258225584
 21
127.06871610563303
  0
LINE
  8
_0-3_躯体と製品
  6
CONTINUOUS
 62
    7
 10
1027.2152453722874
 20
122.31637497934935
 11
1027.2152453722874
 21
117.61636990951592
  0
LINE
  8
_0-3_躯体と製品
  6
CONTINUOUS
 62
    7
 10
1021.115238792293
 20
129.51638274589823
 11
1021.115238792293
 21
107.51635901477221
  0
LINE
  8
_0-3_躯体と製品
  6
CONTINUOUS
 62
    7
 10
1021.115238792293
 20
129.51638274589823
 11
1021.115238792293
 21
107.51635901477221
  0
LINE
  8
_0-3_躯体と製品
  6
CONTINUOUS
 62
    7
 10
1041.015260258192
 20
122.31637497934935
 11
1041.015260258192
 21
117.61636990951592
  0
LINE
  8
_0-3_躯体と製品
  6
CONTINUOUS
 62
    7
 10
1047.1152668381574
 20
129.51638274589823
 11
1047.1152668381574
 21
107.51635901477221
  0
LINE
  8
_0-3_躯体と製品
  6
CONTINUOUS
 62
    7
 10
1047.1152668381574
 20
129.51638274589823
 11
1047.1152668381574
 21
107.51635901477221
  0
LINE
  8
_0-3_躯体と製品
  6
CONTINUOUS
 62
    7
 10
1040.9889122297618
 20
134.51638813933369
 11
1057.1152776250283
 21
134.51638813933369
  0
LINE
  8
_0-3_躯体と製品
  6
CONTINUOUS
 62
    7
 10
1047.1152668381574
 20
132.01638544261732
 11
1057.1152776250283
 21
132.01638544261732
  0
LINE
  8
_0-3_躯体と製品
  6
CONTINUOUS
 62
    7
 10
1057.2152777329129
 20
142.71639698457329
 11
1057.2152777329129
 21
146.71640129932166
  0
LINE
  8
_0-3_躯体と製品
  6
CONTINUOUS
 62
    7
 10
1054.4652747665341
 20
149.51640431964825
 11
1049.965269912439
 21
149.51640431964825
  0
LINE
  8
_0-3_躯体と製品
  6
CONTINUOUS
 62
    7
 10
1013.7652308639472
 20
149.51640431964825
 11
1018.2652357180277
 21
149.51640431964825
  0
LINE
  8
_0-3_躯体と製品
  6
CONTINUOUS
 62
    7
 10
1032.8652514668747
 20
142.71639698457329
 11
1029.9152482847703
 21
142.71639698457329
  0
LINE
  8
_0-3_躯体と製品
  6
CONTINUOUS
 62
    7
 10
1029.9152482847703
 20
142.71639698457329
 11
1032.8652514668747
 21
142.71639698457329
  0
LINE
  8
_0-3_躯体と製品
  6
CONTINUOUS
 62
    7
 10
1032.8652514668747
 20
145.21639968128966
 11
1022.6152404103386
 21
145.21639968128966
  0
LINE
  8
_0-3_躯体と製品
  6
CONTINUOUS
 62
    7
 10
1022.6152404103386
 20
145.21639968128966
 11
1032.8652514668747
 21
145.21639968128966
  0
LINE
  8
_0-3_躯体と製品
  6
CONTINUOUS
 62
    7
 10
1022.6152404103386
 20
145.21639968128966
 11
1021.115238792293
 21
143.71639806325766
  0
LINE
  8
_0-3_躯体と製品
  6
CONTINUOUS
 62
    7
 10
1022.6152404103386
 20
145.21639968128966
 11
1021.115238792293
 21
143.71639806325766
  0
LINE
  8
_0-3_躯体と製品
  6
CONTINUOUS
 62
    7
 10
1020.0152376057713
 20
146.71640129932166
 11
1021.0152386844375
 21
145.71640022063457
  0
LINE
  8
_0-3_躯体と製品
  6
CONTINUOUS
 62
    7
 10
1031.3652498488436
 20
145.21639968128966
 11
1031.3652498488436
 21
142.71639698457329
  0
LINE
  8
_0-3_躯体と製品
  6
CONTINUOUS
 62
    7
 10
1027.5803237661066
 20
144.21639860260257
 11
1029.9152482847703
 21
144.21639860260257
  0
LINE
  8
_0-3_躯体と製品
  6
CONTINUOUS
 62
    7
 10
1031.3652498488436
 20
145.21639968128966
 11
1031.3652498488436
 21
142.71639698457329
  0
LINE
  8
_0-3_躯体と製品
  6
CONTINUOUS
 62
    7
 10
1045.6152652201408
 20
145.21639968128966
 11
1047.1152668381574
 21
143.71639806325766
  0
LINE
  8
_0-3_躯体と製品
  6
CONTINUOUS
 62
    7
 10
1045.6152652201408
 20
145.21639968128966
 11
1047.1152668381574
 21
143.71639806325766
  0
LINE
  8
_0-3_躯体と製品
  6
CONTINUOUS
 62
    7
 10
1045.6152652201408
 20
145.21639968128966
 11
1035.3652541636047
 21
145.21639968128966
  0
LINE
  8
_0-3_躯体と製品
  6
CONTINUOUS
 62
    7
 10
1035.3652541636047
 20
145.21639968128966
 11
1045.6152652201408
 21
145.21639968128966
  0
LINE
  8
_0-3_躯体と製品
  6
CONTINUOUS
 62
    7
 10
1036.8652557816213
 20
145.21639968128966
 11
1036.8652557816213
 21
142.71639698457329
  0
LINE
  8
_0-3_躯体と製品
  6
CONTINUOUS
 62
    7
 10
1035.3652541636047
 20
142.71639698457329
 11
1035.3652541636047
 21
145.21639968128966
  0
LINE
  8
_0-3_躯体と製品
  6
CONTINUOUS
 62
    7
 10
1038.3152573457419
 20
142.71639698457329
 11
1035.3652541636047
 21
142.71639698457329
  0
LINE
  8
_0-3_躯体と製品
  6
CONTINUOUS
 62
    7
 10
1040.6501798643703
 20
144.21639860260257
 11
1038.3152573457419
 21
144.21639860260257
  0
LINE
  8
_0-3_躯体と製品
  6
CONTINUOUS
 62
    7
 10
1035.3652541636047
 20
142.71639698457329
 11
1038.3152573457419
 21
142.71639698457329
  0
LINE
  8
_0-3_躯体と製品
  6
CONTINUOUS
 62
    7
 10
1035.3652541636047
 20
142.71639698457329
 11
1035.3652541636047
 21
145.21639968128966
  0
LINE
  8
_0-3_躯体と製品
  6
CONTINUOUS
 62
    7
 10
1036.8652557816213
 20
145.21639968128966
 11
1036.8652557816213
 21
142.71639698457329
  0
LINE
  8
_0-3_躯体と製品
  6
CONTINUOUS
 62
    7
 10
1048.2152680247518
 20
146.71640129932166
 11
1047.2152669460438
 21
145.71640022063457
  0
LINE
  8
_0-3_躯体と製品
  6
CONTINUOUS
 62
    7
 10
1032.8652514668747
 20
142.71639698457329
 11
1032.8652514668747
 21
145.21639968128966
  0
LINE
  8
_0-3_躯体と製品
  6
CONTINUOUS
 62
    7
 10
1032.8652514668747
 20
142.71639698457329
 11
1032.8652514668747
 21
145.21639968128966
  0
LINE
  8
_0-3_躯体と製品
  6
CONTINUOUS
 62
    7
 10
1019.2652367967394
 20
146.71640129932166
 11
1019.2652367967394
 21
147.51640216227133
  0
LINE
  8
_0-3_躯体と製品
  6
CONTINUOUS
 62
    7
 10
1048.9652688337583
 20
146.71640129932166
 11
1048.9652688337583
 21
147.51640216227133
  0
LINE
  8
_0-3_躯体と製品
  6
CONTINUOUS
 62
    7
 10
1055.4652758452148
 20
146.71640129932166
 11
1055.4652758452148
 21
147.51640216227133
  0
LINE
  8
_0-3_躯体と製品
  6
CONTINUOUS
 62
    7
 10
1011.0152278975647
 20
142.71639698457329
 11
1011.0152278975647
 21
146.71640129932166
  0
LINE
  8
_0-3_躯体と製品
  6
CONTINUOUS
 62
    7
 10
1012.7652297852501
 20
146.71640129932166
 11
1012.7652297852501
 21
147.51640216227133
  0
LINE
  8
_0-3_躯体と製品
  6
CONTINUOUS
 62
    7
 10
1011.0152278975647
 20
146.71640129932166
 11
1020.0152376057713
 21
146.71640129932166
  0
LINE
  8
_0-3_躯体と製品
  6
CONTINUOUS
 62
    7
 10
1057.2152777329129
 20
146.71640129932166
 11
1048.2152680247518
 21
146.71640129932166
  0
LINE
  8
_0-3_躯体と製品
  6
CONTINUOUS
 62
    7
 10
1055.4652758452148
 20
147.51640216227133
 11
1055.4652758452148
 21
148.51640324095752
  0
ARC
  8
_0-3_躯体と製品
  6
CONTINUOUS
 62
    7
 10
1054.4652747665341
 20
148.51640324095752
 40
1.0000010786874609
 50
0
 51
90
  0
ARC
  8
_0-3_躯体と製品
  6
CONTINUOUS
 62
    7
 10
1049.965269912439
 20
148.51640324095752
 40
1.0000010786874609
 50
90
 51
180
  0
LINE
  8
_0-3_躯体と製品
  6
CONTINUOUS
 62
    7
 10
1048.9652688337583
 20
147.51640216227133
 11
1048.9652688337583
 21
148.51640324095752
  0
ARC
  8
_0-3_躯体と製品
  6
CONTINUOUS
 62
    7
 10
1018.2652357180277
 20
148.51640324095752
 40
1.0000010786874609
 50
0
 51
90
  0
LINE
  8
_0-3_躯体と製品
  6
CONTINUOUS
 62
    7
 10
1019.2652367967394
 20
147.51640216227133
 11
1019.2652367967394
 21
148.51640324095752
  0
LINE
  8
_0-3_躯体と製品
  6
CONTINUOUS
 62
    7
 10
1012.7652297852501
 20
147.51640216227133
 11
1012.7652297852501
 21
148.51640324095752
  0
ARC
  8
_0-3_躯体と製品
  6
CONTINUOUS
 62
    7
 10
1013.7652308639472
 20
148.51640324095752
 40
1.0000010786874609
 50
90
 51
180
  0
LINE
  8
_0-3_躯体と製品
  6
CONTINUOUS
 62
    4
 10
159.64812869311208
 20
816.61440296867295
 11
1159.648128693113
 21
816.61440296867295
  0
LINE
  8
_0-3_躯体と製品
  6
CONTINUOUS
 62
    4
 10
1159.648128693113
 20
616.61440296867477
 11
159.64812869311208
 21
616.61440296867477
  0
ARC
  8
_0-3_躯体と製品
  6
CONTINUOUS
 62
    4
 10
862.64812869311481
 20
647.86440296867477
 40
2.75
 50
180
 51
0
  0
ARC
  8
_0-3_躯体と製品
  6
CONTINUOUS
 62
    4
 10
862.64812869311481
 20
728.86440296867295
 40
2.75
 50
180
 51
0
  0
ARC
  8
_0-3_躯体と製品
  6
CONTINUOUS
 62
    4
 10
862.64812869311481
 20
669.86440296867113
 40
2.75
 50
0
 51
180
  0
ARC
  8
_0-3_躯体と製品
  6
CONTINUOUS
 62
    4
 10
862.64812869311481
 20
682.36440296867295
 40
2.75
 50
180
 51
0
  0
ARC
  8
_0-3_躯体と製品
  6
CONTINUOUS
 62
    4
 10
862.64812869311481
 20
704.36440296867113
 40
2.75
 50
0
 51
180
  0
ARC
  8
_0-3_躯体と製品
  6
CONTINUOUS
 62
    4
 10
862.64812869311481
 20
750.86440296867113
 40
2.75
 50
0
 51
180
  0
ARC
  8
_0-3_躯体と製品
  6
CONTINUOUS
 62
    4
 10
862.64812869311481
 20
763.36440296867295
 40
2.75
 50
180
 51
0
  0
ARC
  8
_0-3_躯体と製品
  6
CONTINUOUS
 62
    4
 10
862.64812869311481
 20
785.36440296867113
 40
2.75
 50
0
 51
180
  0
LINE
  8
_0-3_躯体と製品
  6
CONTINUOUS
 62
    4
 10
159.64812869311208
 20
816.61440296867295
 11
159.64812869311208
 21
616.61440296867477
  0
LINE
  8
_0-3_躯体と製品
  6
CONTINUOUS
 62
    4
 10
207.39812869311208
 20
669.86440296867113
 11
207.39812869311208
 21
647.86440296867477
  0
LINE
  8
_0-3_躯体と製品
  6
CONTINUOUS
 62
    4
 10
201.89812869311208
 20
647.86440296867477
 11
201.89812869311208
 21
669.86440296867113
  0
LINE
  8
_0-3_躯体と製品
  6
CONTINUOUS
 62
    4
 10
193.39812869311208
 20
669.86440296867113
 11
193.39812869311208
 21
647.86440296867477
  0
LINE
  8
_0-3_躯体と製品
  6
CONTINUOUS
 62
    4
 10
187.89812869311208
 20
647.86440296867477
 11
187.89812869311208
 21
669.86440296867113
  0
ARC
  8
_0-3_躯体と製品
  6
CONTINUOUS
 62
    4
 10
204.64812869311208
 20
647.86440296867477
 40
2.75
 50
180
 51
0
  0
ARC
  8
_0-3_躯体と製品
  6
CONTINUOUS
 62
    4
 10
190.64812869311208
 20
647.86440296867477
 40
2.75
 50
180
 51
0
  0
ARC
  8
_0-3_躯体と製品
  6
CONTINUOUS
 62
    4
 10
204.64812869311208
 20
669.86440296867113
 40
2.75
 50
0
 51
180
  0
ARC
  8
_0-3_躯体と製品
  6
CONTINUOUS
 62
    4
 10
190.64812869311208
 20
669.86440296867113
 40
2.75
 50
0
 51
180
  0
LINE
  8
_0-3_躯体と製品
  6
CONTINUOUS
 62
    4
 10
207.39812869311208
 20
728.86440296867295
 11
207.39812869311208
 21
750.86440296867113
  0
LINE
  8
_0-3_躯体と製品
  6
CONTINUOUS
 62
    4
 10
201.89812869311208
 20
750.86440296867113
 11
201.89812869311208
 21
728.86440296867295
  0
LINE
  8
_0-3_躯体と製品
  6
CONTINUOUS
 62
    4
 10
193.39812869311208
 20
728.86440296867295
 11
193.39812869311208
 21
750.86440296867113
  0
LINE
  8
_0-3_躯体と製品
  6
CONTINUOUS
 62
    4
 10
187.89812869311208
 20
750.86440296867113
 11
187.89812869311208
 21
728.86440296867295
  0
ARC
  8
_0-3_躯体と製品
  6
CONTINUOUS
 62
    4
 10
204.64812869311208
 20
728.86440296867295
 40
2.75
 50
180
 51
0
  0
ARC
  8
_0-3_躯体と製品
  6
CONTINUOUS
 62
    4
 10
190.64812869311208
 20
728.86440296867295
 40
2.75
 50
180
 51
0
  0
LINE
  8
_0-3_躯体と製品
  6
CONTINUOUS
 62
    4
 10
201.89812869311208
 20
682.36440296867295
 11
201.89812869311208
 21
704.36440296867113
  0
LINE
  8
_0-3_躯体と製品
  6
CONTINUOUS
 62
    4
 10
207.39812869311208
 20
704.36440296867295
 11
207.39812869311208
 21
682.36440296867295
  0
ARC
  8
_0-3_躯体と製品
  6
CONTINUOUS
 62
    4
 10
204.64812869311208
 20
682.36440296867295
 40
2.75
 50
180
 51
0
  0
ARC
  8
_0-3_躯体と製品
  6
CONTINUOUS
 62
    4
 10
204.64812869311208
 20
704.36440296867113
 40
2.75
 50
0
 51
180
  0
LINE
  8
_0-3_躯体と製品
  6
CONTINUOUS
 62
    4
 10
187.89812869311208
 20
682.36440296867295
 11
187.89812869311208
 21
704.36440296867113
  0
LINE
  8
_0-3_躯体と製品
  6
CONTINUOUS
 62
    4
 10
193.39812869311208
 20
704.36440296867295
 11
193.39812869311208
 21
682.36440296867295
  0
ARC
  8
_0-3_躯体と製品
  6
CONTINUOUS
 62
    4
 10
190.64812869311208
 20
682.36440296867295
 40
2.75
 50
180
 51
0
  0
ARC
  8
_0-3_躯体と製品
  6
CONTINUOUS
 62
    4
 10
190.64812869311208
 20
704.36440296867113
 40
2.75
 50
0
 51
180
  0
LINE
  8
_0-3_躯体と製品
  6
CONTINUOUS
 62
    4
 10
201.89812869311208
 20
785.36440296867113
 11
201.89812869311208
 21
763.36440296867295
  0
LINE
  8
_0-3_躯体と製品
  6
CONTINUOUS
 62
    4
 10
207.39812869311208
 20
763.36440296867295
 11
207.39812869311208
 21
785.36440296867113
  0
LINE
  8
_0-3_躯体と製品
  6
CONTINUOUS
 62
    4
 10
187.89812869311208
 20
785.36440296867113
 11
187.89812869311208
 21
763.36440296867295
  0
LINE
  8
_0-3_躯体と製品
  6
CONTINUOUS
 62
    4
 10
193.39812869311208
 20
763.36440296867295
 11
193.39812869311208
 21
785.36440296867113
  0
ARC
  8
_0-3_躯体と製品
  6
CONTINUOUS
 62
    4
 10
204.64812869311208
 20
750.86440296867113
 40
2.75
 50
0
 51
180
  0
ARC
  8
_0-3_躯体と製品
  6
CONTINUOUS
 62
    4
 10
204.64812869311208
 20
763.36440296867295
 40
2.75
 50
180
 51
0
  0
ARC
  8
_0-3_躯体と製品
  6
CONTINUOUS
 62
    4
 10
190.64812869311208
 20
750.86440296867113
 40
2.75
 50
0
 51
180
  0
ARC
  8
_0-3_躯体と製品
  6
CONTINUOUS
 62
    4
 10
190.64812869311208
 20
763.36440296867295
 40
2.75
 50
180
 51
0
  0
ARC
  8
_0-3_躯体と製品
  6
CONTINUOUS
 62
    4
 10
204.64812869311208
 20
785.36440296867113
 40
2.75
 50
0
 51
180
  0
ARC
  8
_0-3_躯体と製品
  6
CONTINUOUS
 62
    4
 10
190.64812869311208
 20
785.36440296867113
 40
2.75
 50
0
 51
180
  0
ARC
  8
_0-3_躯体と製品
  6
CONTINUOUS
 62
    4
 10
372.64812869311118
 20
647.86440296867477
 40
2.75
 50
180
 51
0
  0
ARC
  8
_0-3_躯体と製品
  6
CONTINUOUS
 62
    4
 10
372.64812869311118
 20
728.86440296867295
 40
2.75
 50
180
 51
0
  0
ARC
  8
_0-3_躯体と製品
  6
CONTINUOUS
 62
    4
 10
372.64812869311118
 20
669.86440296867113
 40
2.75
 50
0
 51
180
  0
ARC
  8
_0-3_躯体と製品
  6
CONTINUOUS
 62
    4
 10
372.64812869311118
 20
682.36440296867295
 40
2.75
 50
180
 51
0
  0
ARC
  8
_0-3_躯体と製品
  6
CONTINUOUS
 62
    4
 10
372.64812869311118
 20
704.36440296867113
 40
2.75
 50
0
 51
180
  0
ARC
  8
_0-3_躯体と製品
  6
CONTINUOUS
 62
    4
 10
372.64812869311118
 20
750.86440296867113
 40
2.75
 50
0
 51
180
  0
ARC
  8
_0-3_躯体と製品
  6
CONTINUOUS
 62
    4
 10
372.64812869311118
 20
763.36440296867295
 40
2.75
 50
180
 51
0
  0
ARC
  8
_0-3_躯体と製品
  6
CONTINUOUS
 62
    4
 10
372.64812869311118
 20
785.36440296867113
 40
2.75
 50
0
 51
180
  0
ARC
  8
_0-3_躯体と製品
  6
CONTINUOUS
 62
    4
 10
288.64812869311208
 20
647.86440296867477
 40
2.75
 50
180
 51
0
  0
ARC
  8
_0-3_躯体と製品
  6
CONTINUOUS
 62
    4
 10
288.64812869311208
 20
669.86440296867113
 40
2.75
 50
0
 51
180
  0
LINE
  8
_0-3_躯体と製品
  6
CONTINUOUS
 62
    4
 10
235.39812869311118
 20
669.86440296867113
 11
235.39812869311118
 21
647.86440296867477
  0
LINE
  8
_0-3_躯体と製品
  6
CONTINUOUS
 62
    4
 10
249.39812869311118
 20
669.86440296867113
 11
249.39812869311118
 21
647.86440296867477
  0
LINE
  8
_0-3_躯体と製品
  6
CONTINUOUS
 62
    4
 10
243.89812869311208
 20
647.86440296867477
 11
243.89812869311208
 21
669.86440296867113
  0
ARC
  8
_0-3_躯体と製品
  6
CONTINUOUS
 62
    4
 10
246.64812869311208
 20
647.86440296867477
 40
2.75
 50
180
 51
0
  0
ARC
  8
_0-3_躯体と製品
  6
CONTINUOUS
 62
    4
 10
246.64812869311208
 20
669.86440296867113
 40
2.75
 50
0
 51
180
  0
LINE
  8
_0-3_躯体と製品
  6
CONTINUOUS
 62
    4
 10
229.89812869311208
 20
647.86440296867477
 11
229.89812869311208
 21
669.86440296867113
  0
LINE
  8
_0-3_躯体と製品
  6
CONTINUOUS
 62
    4
 10
221.39812869311118
 20
669.86440296867113
 11
221.39812869311118
 21
647.86440296867477
  0
LINE
  8
_0-3_躯体と製品
  6
CONTINUOUS
 62
    4
 10
215.89812869311118
 20
647.86440296867477
 11
215.89812869311118
 21
669.86440296867113
  0
ARC
  8
_0-3_躯体と製品
  6
CONTINUOUS
 62
    4
 10
218.64812869311208
 20
647.86440296867477
 40
2.75
 50
180
 51
0
  0
ARC
  8
_0-3_躯体と製品
  6
CONTINUOUS
 62
    4
 10
218.64812869311208
 20
669.86440296867113
 40
2.75
 50
0
 51
180
  0
ARC
  8
_0-3_躯体と製品
  6
CONTINUOUS
 62
    4
 10
232.64812869311208
 20
647.86440296867477
 40
2.75
 50
180
 51
0
  0
ARC
  8
_0-3_躯体と製品
  6
CONTINUOUS
 62
    4
 10
232.64812869311208
 20
669.86440296867113
 40
2.75
 50
0
 51
180
  0
LINE
  8
_0-3_躯体と製品
  6
CONTINUOUS
 62
    4
 10
285.89812869311208
 20
647.86440296867477
 11
285.89812869311208
 21
669.86440296867113
  0
LINE
  8
_0-3_躯体と製品
  6
CONTINUOUS
 62
    4
 10
277.39812869311118
 20
669.86440296867113
 11
277.39812869311118
 21
647.86440296867477
  0
LINE
  8
_0-3_躯体と製品
  6
CONTINUOUS
 62
    4
 10
271.89812869311208
 20
647.86440296867477
 11
271.89812869311208
 21
669.86440296867113
  0
LINE
  8
_0-3_躯体と製品
  6
CONTINUOUS
 62
    4
 10
263.39812869311118
 20
669.86440296867113
 11
263.39812869311118
 21
647.86440296867477
  0
LINE
  8
_0-3_躯体と製品
  6
CONTINUOUS
 62
    4
 10
257.89812869311208
 20
647.86440296867477
 11
257.89812869311208
 21
669.86440296867113
  0
ARC
  8
_0-3_躯体と製品
  6
CONTINUOUS
 62
    4
 10
260.64812869311208
 20
647.86440296867477
 40
2.75
 50
180
 51
0
  0
ARC
  8
_0-3_躯体と製品
  6
CONTINUOUS
 62
    4
 10
274.64812869311208
 20
647.86440296867477
 40
2.75
 50
180
 51
0
  0
ARC
  8
_0-3_躯体と製品
  6
CONTINUOUS
 62
    4
 10
260.64812869311208
 20
669.86440296867113
 40
2.75
 50
0
 51
180
  0
ARC
  8
_0-3_躯体と製品
  6
CONTINUOUS
 62
    4
 10
274.64812869311208
 20
669.86440296867113
 40
2.75
 50
0
 51
180
  0
ARC
  8
_0-3_躯体と製品
  6
CONTINUOUS
 62
    4
 10
358.64812869311118
 20
647.86440296867477
 40
2.75
 50
180
 51
0
  0
ARC
  8
_0-3_躯体と製品
  6
CONTINUOUS
 62
    4
 10
358.64812869311118
 20
669.86440296867113
 40
2.75
 50
0
 51
180
  0
LINE
  8
_0-3_躯体と製品
  6
CONTINUOUS
 62
    4
 10
355.89812869311208
 20
647.86440296867477
 11
355.89812869311208
 21
669.86440296867113
  0
LINE
  8
_0-3_躯体と製品
  6
CONTINUOUS
 62
    4
 10
347.39812869311118
 20
669.86440296867113
 11
347.39812869311118
 21
647.86440296867477
  0
LINE
  8
_0-3_躯体と製品
  6
CONTINUOUS
 62
    4
 10
341.8981286931139
 20
647.86440296867477
 11
341.8981286931139
 21
669.86440296867113
  0
LINE
  8
_0-3_躯体と製品
  6
CONTINUOUS
 62
    4
 10
333.39812869311118
 20
669.86440296867113
 11
333.39812869311118
 21
647.86440296867477
  0
LINE
  8
_0-3_躯体と製品
  6
CONTINUOUS
 62
    4
 10
327.89812869311208
 20
647.86440296867477
 11
327.89812869311208
 21
669.86440296867113
  0
LINE
  8
_0-3_躯体と製品
  6
CONTINUOUS
 62
    4
 10
319.39812869311208
 20
669.86440296867113
 11
319.39812869311208
 21
647.86440296867477
  0
ARC
  8
_0-3_躯体と製品
  6
CONTINUOUS
 62
    4
 10
344.64812869311118
 20
647.86440296867477
 40
2.75
 50
180
 51
0
  0
ARC
  8
_0-3_躯体と製品
  6
CONTINUOUS
 62
    4
 10
330.64812869311118
 20
647.86440296867477
 40
2.75
 50
180
 51
0
  0
ARC
  8
_0-3_躯体と製品
  6
CONTINUOUS
 62
    4
 10
344.64812869311118
 20
669.86440296867113
 40
2.75
 50
0
 51
180
  0
ARC
  8
_0-3_躯体と製品
  6
CONTINUOUS
 62
    4
 10
330.64812869311118
 20
669.86440296867113
 40
2.75
 50
0
 51
180
  0
LINE
  8
_0-3_躯体と製品
  6
CONTINUOUS
 62
    4
 10
313.89812869311208
 20
647.86440296867477
 11
313.89812869311208
 21
669.86440296867113
  0
LINE
  8
_0-3_躯体と製品
  6
CONTINUOUS
 62
    4
 10
305.39812869311118
 20
669.86440296867113
 11
305.39812869311118
 21
647.86440296867477
  0
LINE
  8
_0-3_躯体と製品
  6
CONTINUOUS
 62
    4
 10
299.89812869311208
 20
647.86440296867477
 11
299.89812869311208
 21
669.86440296867113
  0
LINE
  8
_0-3_躯体と製品
  6
CONTINUOUS
 62
    4
 10
291.39812869311118
 20
669.86440296867113
 11
291.39812869311118
 21
647.86440296867477
  0
ARC
  8
_0-3_躯体と製品
  6
CONTINUOUS
 62
    4
 10
302.64812869311118
 20
647.86440296867477
 40
2.75
 50
180
 51
0
  0
ARC
  8
_0-3_躯体と製品
  6
CONTINUOUS
 62
    4
 10
302.64812869311118
 20
669.86440296867113
 40
2.75
 50
0
 51
180
  0
ARC
  8
_0-3_躯体と製品
  6
CONTINUOUS
 62
    4
 10
316.64812869311118
 20
647.86440296867477
 40
2.75
 50
180
 51
0
  0
ARC
  8
_0-3_躯体と製品
  6
CONTINUOUS
 62
    4
 10
316.64812869311118
 20
669.86440296867113
 40
2.75
 50
0
 51
180
  0
LINE
  8
_0-3_躯体と製品
  6
CONTINUOUS
 62
    4
 10
369.89812869311208
 20
647.86440296867477
 11
369.89812869311208
 21
669.86440296867113
  0
LINE
  8
_0-3_躯体と製品
  6
CONTINUOUS
 62
    4
 10
361.39812869311208
 20
669.86440296867113
 11
361.39812869311208
 21
647.86440296867477
  0
ARC
  8
_0-3_躯体と製品
  6
CONTINUOUS
 62
    4
 10
288.64812869311208
 20
728.86440296867295
 40
2.75
 50
180
 51
0
  0
ARC
  8
_0-3_躯体と製品
  6
CONTINUOUS
 62
    4
 10
288.64812869311208
 20
682.36440296867295
 40
2.75
 50
180
 51
0
  0
ARC
  8
_0-3_躯体と製品
  6
CONTINUOUS
 62
    4
 10
288.64812869311208
 20
704.36440296867113
 40
2.75
 50
0
 51
180
  0
ARC
  8
_0-3_躯体と製品
  6
CONTINUOUS
 62
    4
 10
288.64812869311208
 20
750.86440296867113
 40
2.75
 50
0
 51
180
  0
ARC
  8
_0-3_躯体と製品
  6
CONTINUOUS
 62
    4
 10
288.64812869311208
 20
763.36440296867295
 40
2.75
 50
180
 51
0
  0
ARC
  8
_0-3_躯体と製品
  6
CONTINUOUS
 62
    4
 10
288.64812869311208
 20
785.36440296867113
 40
2.75
 50
0
 51
180
  0
LINE
  8
_0-3_躯体と製品
  6
CONTINUOUS
 62
    4
 10
263.39812869311118
 20
728.86440296867295
 11
263.39812869311118
 21
750.86440296867113
  0
LINE
  8
_0-3_躯体と製品
  6
CONTINUOUS
 62
    4
 10
257.89812869311208
 20
750.86440296867113
 11
257.89812869311208
 21
728.86440296867295
  0
LINE
  8
_0-3_躯体と製品
  6
CONTINUOUS
 62
    4
 10
249.39812869311118
 20
728.86440296867295
 11
249.39812869311118
 21
750.86440296867113
  0
LINE
  8
_0-3_躯体と製品
  6
CONTINUOUS
 62
    4
 10
243.89812869311208
 20
750.86440296867113
 11
243.89812869311208
 21
728.86440296867295
  0
LINE
  8
_0-3_躯体と製品
  6
CONTINUOUS
 62
    4
 10
235.39812869311118
 20
728.86440296867295
 11
235.39812869311118
 21
750.86440296867113
  0
LINE
  8
_0-3_躯体と製品
  6
CONTINUOUS
 62
    4
 10
229.89812869311208
 20
750.86440296867113
 11
229.89812869311208
 21
728.86440296867295
  0
LINE
  8
_0-3_躯体と製品
  6
CONTINUOUS
 62
    4
 10
221.39812869311118
 20
728.86440296867295
 11
221.39812869311118
 21
750.86440296867113
  0
LINE
  8
_0-3_躯体と製品
  6
CONTINUOUS
 62
    4
 10
215.89812869311118
 20
750.86440296867113
 11
215.89812869311118
 21
728.86440296867295
  0
LINE
  8
_0-3_躯体と製品
  6
CONTINUOUS
 62
    4
 10
285.89812869311208
 20
750.86440296867113
 11
285.89812869311208
 21
728.86440296867295
  0
LINE
  8
_0-3_躯体と製品
  6
CONTINUOUS
 62
    4
 10
277.39812869311118
 20
728.86440296867295
 11
277.39812869311118
 21
750.86440296867113
  0
LINE
  8
_0-3_躯体と製品
  6
CONTINUOUS
 62
    4
 10
271.89812869311208
 20
750.86440296867113
 11
271.89812869311208
 21
728.86440296867295
  0
LINE
  8
_0-3_躯体と製品
  6
CONTINUOUS
 62
    4
 10
235.39812869311118
 20
704.36440296867295
 11
235.39812869311118
 21
682.36440296867295
  0
ARC
  8
_0-3_躯体と製品
  6
CONTINUOUS
 62
    4
 10
246.64812869311208
 20
728.86440296867295
 40
2.75
 50
180
 51
0
  0
LINE
  8
_0-3_躯体と製品
  6
CONTINUOUS
 62
    4
 10
243.89812869311208
 20
682.36440296867295
 11
243.89812869311208
 21
704.36440296867113
  0
LINE
  8
_0-3_躯体と製品
  6
CONTINUOUS
 62
    4
 10
249.39812869311118
 20
704.36440296867295
 11
249.39812869311118
 21
682.36440296867295
  0
ARC
  8
_0-3_躯体と製品
  6
CONTINUOUS
 62
    4
 10
246.64812869311208
 20
682.36440296867295
 40
2.75
 50
180
 51
0
  0
ARC
  8
_0-3_躯体と製品
  6
CONTINUOUS
 62
    4
 10
246.64812869311208
 20
704.36440296867113
 40
2.75
 50
0
 51
180
  0
ARC
  8
_0-3_躯体と製品
  6
CONTINUOUS
 62
    4
 10
218.64812869311208
 20
728.86440296867295
 40
2.75
 50
180
 51
0
  0
LINE
  8
_0-3_躯体と製品
  6
CONTINUOUS
 62
    4
 10
229.89812869311208
 20
682.36440296867295
 11
229.89812869311208
 21
704.36440296867113
  0
LINE
  8
_0-3_躯体と製品
  6
CONTINUOUS
 62
    4
 10
215.89812869311118
 20
682.36440296867295
 11
215.89812869311118
 21
704.36440296867113
  0
LINE
  8
_0-3_躯体と製品
  6
CONTINUOUS
 62
    4
 10
221.39812869311118
 20
704.36440296867295
 11
221.39812869311118
 21
682.36440296867295
  0
ARC
  8
_0-3_躯体と製品
  6
CONTINUOUS
 62
    4
 10
218.64812869311208
 20
682.36440296867295
 40
2.75
 50
180
 51
0
  0
ARC
  8
_0-3_躯体と製品
  6
CONTINUOUS
 62
    4
 10
218.64812869311208
 20
704.36440296867113
 40
2.75
 50
0
 51
180
  0
ARC
  8
_0-3_躯体と製品
  6
CONTINUOUS
 62
    4
 10
232.64812869311208
 20
728.86440296867295
 40
2.75
 50
180
 51
0
  0
ARC
  8
_0-3_躯体と製品
  6
CONTINUOUS
 62
    4
 10
232.64812869311208
 20
682.36440296867295
 40
2.75
 50
180
 51
0
  0
ARC
  8
_0-3_躯体と製品
  6
CONTINUOUS
 62
    4
 10
232.64812869311208
 20
704.36440296867113
 40
2.75
 50
0
 51
180
  0
ARC
  8
_0-3_躯体と製品
  6
CONTINUOUS
 62
    4
 10
260.64812869311208
 20
728.86440296867295
 40
2.75
 50
180
 51
0
  0
LINE
  8
_0-3_躯体と製品
  6
CONTINUOUS
 62
    4
 10
257.89812869311208
 20
682.36440296867295
 11
257.89812869311208
 21
704.36440296867113
  0
LINE
  8
_0-3_躯体と製品
  6
CONTINUOUS
 62
    4
 10
263.39812869311118
 20
704.36440296867295
 11
263.39812869311118
 21
682.36440296867295
  0
ARC
  8
_0-3_躯体と製品
  6
CONTINUOUS
 62
    4
 10
260.64812869311208
 20
682.36440296867295
 40
2.75
 50
180
 51
0
  0
ARC
  8
_0-3_躯体と製品
  6
CONTINUOUS
 62
    4
 10
260.64812869311208
 20
704.36440296867113
 40
2.75
 50
0
 51
180
  0
ARC
  8
_0-3_躯体と製品
  6
CONTINUOUS
 62
    4
 10
274.64812869311208
 20
728.86440296867295
 40
2.75
 50
180
 51
0
  0
LINE
  8
_0-3_躯体と製品
  6
CONTINUOUS
 62
    4
 10
285.89812869311208
 20
682.36440296867295
 11
285.89812869311208
 21
704.36440296867113
  0
LINE
  8
_0-3_躯体と製品
  6
CONTINUOUS
 62
    4
 10
271.89812869311208
 20
682.36440296867295
 11
271.89812869311208
 21
704.36440296867113
  0
LINE
  8
_0-3_躯体と製品
  6
CONTINUOUS
 62
    4
 10
277.39812869311118
 20
704.36440296867295
 11
277.39812869311118
 21
682.36440296867295
  0
ARC
  8
_0-3_躯体と製品
  6
CONTINUOUS
 62
    4
 10
274.64812869311208
 20
682.36440296867295
 40
2.75
 50
180
 51
0
  0
ARC
  8
_0-3_躯体と製品
  6
CONTINUOUS
 62
    4
 10
274.64812869311208
 20
704.36440296867113
 40
2.75
 50
0
 51
180
  0
LINE
  8
_0-3_躯体と製品
  6
CONTINUOUS
 62
    4
 10
235.39812869311118
 20
763.36440296867295
 11
235.39812869311118
 21
785.36440296867113
  0
LINE
  8
_0-3_躯体と製品
  6
CONTINUOUS
 62
    4
 10
243.89812869311208
 20
785.36440296867113
 11
243.89812869311208
 21
763.36440296867295
  0
LINE
  8
_0-3_躯体と製品
  6
CONTINUOUS
 62
    4
 10
249.39812869311118
 20
763.36440296867295
 11
249.39812869311118
 21
785.36440296867113
  0
ARC
  8
_0-3_躯体と製品
  6
CONTINUOUS
 62
    4
 10
246.64812869311208
 20
750.86440296867113
 40
2.75
 50
0
 51
180
  0
ARC
  8
_0-3_躯体と製品
  6
CONTINUOUS
 62
    4
 10
246.64812869311208
 20
763.36440296867295
 40
2.75
 50
180
 51
0
  0
ARC
  8
_0-3_躯体と製品
  6
CONTINUOUS
 62
    4
 10
246.64812869311208
 20
785.36440296867113
 40
2.75
 50
0
 51
180
  0
LINE
  8
_0-3_躯体と製品
  6
CONTINUOUS
 62
    4
 10
229.89812869311208
 20
785.36440296867113
 11
229.89812869311208
 21
763.36440296867295
  0
LINE
  8
_0-3_躯体と製品
  6
CONTINUOUS
 62
    4
 10
215.89812869311118
 20
785.36440296867113
 11
215.89812869311118
 21
763.36440296867295
  0
LINE
  8
_0-3_躯体と製品
  6
CONTINUOUS
 62
    4
 10
221.39812869311118
 20
763.36440296867295
 11
221.39812869311118
 21
785.36440296867113
  0
ARC
  8
_0-3_躯体と製品
  6
CONTINUOUS
 62
    4
 10
218.64812869311208
 20
750.86440296867113
 40
2.75
 50
0
 51
180
  0
ARC
  8
_0-3_躯体と製品
  6
CONTINUOUS
 62
    4
 10
218.64812869311208
 20
763.36440296867295
 40
2.75
 50
180
 51
0
  0
ARC
  8
_0-3_躯体と製品
  6
CONTINUOUS
 62
    4
 10
218.64812869311208
 20
785.36440296867113
 40
2.75
 50
0
 51
180
  0
ARC
  8
_0-3_躯体と製品
  6
CONTINUOUS
 62
    4
 10
232.64812869311208
 20
750.86440296867113
 40
2.75
 50
0
 51
180
  0
ARC
  8
_0-3_躯体と製品
  6
CONTINUOUS
 62
    4
 10
232.64812869311208
 20
763.36440296867295
 40
2.75
 50
180
 51
0
  0
ARC
  8
_0-3_躯体と製品
  6
CONTINUOUS
 62
    4
 10
232.64812869311208
 20
785.36440296867113
 40
2.75
 50
0
 51
180
  0
LINE
  8
_0-3_躯体と製品
  6
CONTINUOUS
 62
    4
 10
257.89812869311208
 20
785.36440296867113
 11
257.89812869311208
 21
763.36440296867295
  0
LINE
  8
_0-3_躯体と製品
  6
CONTINUOUS
 62
    4
 10
263.39812869311118
 20
763.36440296867295
 11
263.39812869311118
 21
785.36440296867113
  0
ARC
  8
_0-3_躯体と製品
  6
CONTINUOUS
 62
    4
 10
260.64812869311208
 20
750.86440296867113
 40
2.75
 50
0
 51
180
  0
ARC
  8
_0-3_躯体と製品
  6
CONTINUOUS
 62
    4
 10
260.64812869311208
 20
763.36440296867295
 40
2.75
 50
180
 51
0
  0
ARC
  8
_0-3_躯体と製品
  6
CONTINUOUS
 62
    4
 10
260.64812869311208
 20
785.36440296867113
 40
2.75
 50
0
 51
180
  0
LINE
  8
_0-3_躯体と製品
  6
CONTINUOUS
 62
    4
 10
285.89812869311208
 20
785.36440296867113
 11
285.89812869311208
 21
763.36440296867295
  0
LINE
  8
_0-3_躯体と製品
  6
CONTINUOUS
 62
    4
 10
271.89812869311208
 20
785.36440296867113
 11
271.89812869311208
 21
763.36440296867295
  0
LINE
  8
_0-3_躯体と製品
  6
CONTINUOUS
 62
    4
 10
277.39812869311118
 20
763.36440296867295
 11
277.39812869311118
 21
785.36440296867113
  0
ARC
  8
_0-3_躯体と製品
  6
CONTINUOUS
 62
    4
 10
274.64812869311208
 20
750.86440296867113
 40
2.75
 50
0
 51
180
  0
ARC
  8
_0-3_躯体と製品
  6
CONTINUOUS
 62
    4
 10
274.64812869311208
 20
763.36440296867295
 40
2.75
 50
180
 51
0
  0
ARC
  8
_0-3_躯体と製品
  6
CONTINUOUS
 62
    4
 10
274.64812869311208
 20
785.36440296867113
 40
2.75
 50
0
 51
180
  0
ARC
  8
_0-3_躯体と製品
  6
CONTINUOUS
 62
    4
 10
358.64812869311118
 20
750.86440296867113
 40
2.75
 50
0
 51
180
  0
ARC
  8
_0-3_躯体と製品
  6
CONTINUOUS
 62
    4
 10
358.64812869311118
 20
763.36440296867295
 40
2.75
 50
180
 51
0
  0
ARC
  8
_0-3_躯体と製品
  6
CONTINUOUS
 62
    4
 10
358.64812869311118
 20
785.36440296867113
 40
2.75
 50
0
 51
180
  0
ARC
  8
_0-3_躯体と製品
  6
CONTINUOUS
 62
    4
 10
358.64812869311118
 20
728.86440296867295
 40
2.75
 50
180
 51
0
  0
ARC
  8
_0-3_躯体と製品
  6
CONTINUOUS
 62
    4
 10
358.64812869311118
 20
682.36440296867295
 40
2.75
 50
180
 51
0
  0
ARC
  8
_0-3_躯体と製品
  6
CONTINUOUS
 62
    4
 10
358.64812869311118
 20
704.36440296867113
 40
2.75
 50
0
 51
180
  0
LINE
  8
_0-3_躯体と製品
  6
CONTINUOUS
 62
    4
 10
341.8981286931139
 20
750.86440296867113
 11
341.8981286931139
 21
728.86440296867295
  0
LINE
  8
_0-3_躯体と製品
  6
CONTINUOUS
 62
    4
 10
333.39812869311118
 20
728.86440296867295
 11
333.39812869311118
 21
750.86440296867113
  0
LINE
  8
_0-3_躯体と製品
  6
CONTINUOUS
 62
    4
 10
327.89812869311208
 20
750.86440296867113
 11
327.89812869311208
 21
728.86440296867295
  0
LINE
  8
_0-3_躯体と製品
  6
CONTINUOUS
 62
    4
 10
319.39812869311208
 20
728.86440296867295
 11
319.39812869311208
 21
750.86440296867113
  0
LINE
  8
_0-3_躯体と製品
  6
CONTINUOUS
 62
    4
 10
355.89812869311208
 20
750.86440296867113
 11
355.89812869311208
 21
728.86440296867295
  0
LINE
  8
_0-3_躯体と製品
  6
CONTINUOUS
 62
    4
 10
347.39812869311118
 20
728.86440296867295
 11
347.39812869311118
 21
750.86440296867113
  0
LINE
  8
_0-3_躯体と製品
  6
CONTINUOUS
 62
    4
 10
313.89812869311208
 20
750.86440296867113
 11
313.89812869311208
 21
728.86440296867295
  0
LINE
  8
_0-3_躯体と製品
  6
CONTINUOUS
 62
    4
 10
305.39812869311118
 20
728.86440296867295
 11
305.39812869311118
 21
750.86440296867113
  0
LINE
  8
_0-3_躯体と製品
  6
CONTINUOUS
 62
    4
 10
299.89812869311208
 20
750.86440296867113
 11
299.89812869311208
 21
728.86440296867295
  0
LINE
  8
_0-3_躯体と製品
  6
CONTINUOUS
 62
    4
 10
291.39812869311118
 20
728.86440296867295
 11
291.39812869311118
 21
750.86440296867113
  0
ARC
  8
_0-3_躯体と製品
  6
CONTINUOUS
 62
    4
 10
344.64812869311118
 20
728.86440296867295
 40
2.75
 50
180
 51
0
  0
ARC
  8
_0-3_躯体と製品
  6
CONTINUOUS
 62
    4
 10
344.64812869311118
 20
682.36440296867295
 40
2.75
 50
180
 51
0
  0
ARC
  8
_0-3_躯体と製品
  6
CONTINUOUS
 62
    4
 10
344.64812869311118
 20
704.36440296867113
 40
2.75
 50
0
 51
180
  0
ARC
  8
_0-3_躯体と製品
  6
CONTINUOUS
 62
    4
 10
330.64812869311118
 20
728.86440296867295
 40
2.75
 50
180
 51
0
  0
LINE
  8
_0-3_躯体と製品
  6
CONTINUOUS
 62
    4
 10
341.8981286931139
 20
682.36440296867295
 11
341.8981286931139
 21
704.36440296867113
  0
LINE
  8
_0-3_躯体と製品
  6
CONTINUOUS
 62
    4
 10
327.89812869311208
 20
682.36440296867295
 11
327.89812869311208
 21
704.36440296867113
  0
LINE
  8
_0-3_躯体と製品
  6
CONTINUOUS
 62
    4
 10
333.39812869311118
 20
704.36440296867295
 11
333.39812869311118
 21
682.36440296867295
  0
ARC
  8
_0-3_躯体と製品
  6
CONTINUOUS
 62
    4
 10
330.64812869311118
 20
682.36440296867295
 40
2.75
 50
180
 51
0
  0
ARC
  8
_0-3_躯体と製品
  6
CONTINUOUS
 62
    4
 10
330.64812869311118
 20
704.36440296867113
 40
2.75
 50
0
 51
180
  0
LINE
  8
_0-3_躯体と製品
  6
CONTINUOUS
 62
    4
 10
319.39812869311208
 20
704.36440296867295
 11
319.39812869311208
 21
682.36440296867295
  0
LINE
  8
_0-3_躯体と製品
  6
CONTINUOUS
 62
    4
 10
355.89812869311208
 20
682.36440296867295
 11
355.89812869311208
 21
704.36440296867113
  0
LINE
  8
_0-3_躯体と製品
  6
CONTINUOUS
 62
    4
 10
347.39812869311118
 20
704.36440296867295
 11
347.39812869311118
 21
682.36440296867295
  0
ARC
  8
_0-3_躯体と製品
  6
CONTINUOUS
 62
    4
 10
302.64812869311118
 20
728.86440296867295
 40
2.75
 50
180
 51
0
  0
LINE
  8
_0-3_躯体と製品
  6
CONTINUOUS
 62
    4
 10
313.89812869311208
 20
682.36440296867295
 11
313.89812869311208
 21
704.36440296867113
  0
LINE
  8
_0-3_躯体と製品
  6
CONTINUOUS
 62
    4
 10
299.89812869311208
 20
682.36440296867295
 11
299.89812869311208
 21
704.36440296867113
  0
LINE
  8
_0-3_躯体と製品
  6
CONTINUOUS
 62
    4
 10
305.39812869311118
 20
704.36440296867295
 11
305.39812869311118
 21
682.36440296867295
  0
ARC
  8
_0-3_躯体と製品
  6
CONTINUOUS
 62
    4
 10
302.64812869311118
 20
682.36440296867295
 40
2.75
 50
180
 51
0
  0
ARC
  8
_0-3_躯体と製品
  6
CONTINUOUS
 62
    4
 10
302.64812869311118
 20
704.36440296867113
 40
2.75
 50
0
 51
180
  0
LINE
  8
_0-3_躯体と製品
  6
CONTINUOUS
 62
    4
 10
291.39812869311118
 20
704.36440296867295
 11
291.39812869311118
 21
682.36440296867295
  0
ARC
  8
_0-3_躯体と製品
  6
CONTINUOUS
 62
    4
 10
316.64812869311118
 20
682.36440296867295
 40
2.75
 50
180
 51
0
  0
ARC
  8
_0-3_躯体と製品
  6
CONTINUOUS
 62
    4
 10
316.64812869311118
 20
704.36440296867113
 40
2.75
 50
0
 51
180
  0
ARC
  8
_0-3_躯体と製品
  6
CONTINUOUS
 62
    4
 10
316.64812869311118
 20
728.86440296867295
 40
2.75
 50
180
 51
0
  0
LINE
  8
_0-3_躯体と製品
  6
CONTINUOUS
 62
    4
 10
355.89812869311208
 20
785.36440296867113
 11
355.89812869311208
 21
763.36440296867295
  0
LINE
  8
_0-3_躯体と製品
  6
CONTINUOUS
 62
    4
 10
341.8981286931139
 20
785.36440296867113
 11
341.8981286931139
 21
763.36440296867295
  0
LINE
  8
_0-3_躯体と製品
  6
CONTINUOUS
 62
    4
 10
347.39812869311118
 20
763.36440296867295
 11
347.39812869311118
 21
785.36440296867113
  0
LINE
  8
_0-3_躯体と製品
  6
CONTINUOUS
 62
    4
 10
327.89812869311208
 20
785.36440296867113
 11
327.89812869311208
 21
763.36440296867295
  0
LINE
  8
_0-3_躯体と製品
  6
CONTINUOUS
 62
    4
 10
333.39812869311118
 20
763.36440296867295
 11
333.39812869311118
 21
785.36440296867113
  0
LINE
  8
_0-3_躯体と製品
  6
CONTINUOUS
 62
    4
 10
319.39812869311208
 20
763.36440296867295
 11
319.39812869311208
 21
785.36440296867113
  0
ARC
  8
_0-3_躯体と製品
  6
CONTINUOUS
 62
    4
 10
344.64812869311118
 20
750.86440296867113
 40
2.75
 50
0
 51
180
  0
ARC
  8
_0-3_躯体と製品
  6
CONTINUOUS
 62
    4
 10
344.64812869311118
 20
763.36440296867295
 40
2.75
 50
180
 51
0
  0
ARC
  8
_0-3_躯体と製品
  6
CONTINUOUS
 62
    4
 10
330.64812869311118
 20
750.86440296867113
 40
2.75
 50
0
 51
180
  0
ARC
  8
_0-3_躯体と製品
  6
CONTINUOUS
 62
    4
 10
330.64812869311118
 20
763.36440296867295
 40
2.75
 50
180
 51
0
  0
ARC
  8
_0-3_躯体と製品
  6
CONTINUOUS
 62
    4
 10
344.64812869311118
 20
785.36440296867113
 40
2.75
 50
0
 51
180
  0
ARC
  8
_0-3_躯体と製品
  6
CONTINUOUS
 62
    4
 10
330.64812869311118
 20
785.36440296867113
 40
2.75
 50
0
 51
180
  0
LINE
  8
_0-3_躯体と製品
  6
CONTINUOUS
 62
    4
 10
313.89812869311208
 20
785.36440296867113
 11
313.89812869311208
 21
763.36440296867295
  0
LINE
  8
_0-3_躯体と製品
  6
CONTINUOUS
 62
    4
 10
299.89812869311208
 20
785.36440296867113
 11
299.89812869311208
 21
763.36440296867295
  0
LINE
  8
_0-3_躯体と製品
  6
CONTINUOUS
 62
    4
 10
305.39812869311118
 20
763.36440296867295
 11
305.39812869311118
 21
785.36440296867113
  0
LINE
  8
_0-3_躯体と製品
  6
CONTINUOUS
 62
    4
 10
291.39812869311118
 20
763.36440296867295
 11
291.39812869311118
 21
785.36440296867113
  0
ARC
  8
_0-3_躯体と製品
  6
CONTINUOUS
 62
    4
 10
302.64812869311118
 20
750.86440296867113
 40
2.75
 50
0
 51
180
  0
ARC
  8
_0-3_躯体と製品
  6
CONTINUOUS
 62
    4
 10
302.64812869311118
 20
763.36440296867295
 40
2.75
 50
180
 51
0
  0
ARC
  8
_0-3_躯体と製品
  6
CONTINUOUS
 62
    4
 10
302.64812869311118
 20
785.36440296867113
 40
2.75
 50
0
 51
180
  0
ARC
  8
_0-3_躯体と製品
  6
CONTINUOUS
 62
    4
 10
316.64812869311118
 20
750.86440296867113
 40
2.75
 50
0
 51
180
  0
ARC
  8
_0-3_躯体と製品
  6
CONTINUOUS
 62
    4
 10
316.64812869311118
 20
763.36440296867295
 40
2.75
 50
180
 51
0
  0
ARC
  8
_0-3_躯体と製品
  6
CONTINUOUS
 62
    4
 10
316.64812869311118
 20
785.36440296867113
 40
2.75
 50
0
 51
180
  0
LINE
  8
_0-3_躯体と製品
  6
CONTINUOUS
 62
    4
 10
369.89812869311208
 20
750.86440296867113
 11
369.89812869311208
 21
728.86440296867295
  0
LINE
  8
_0-3_躯体と製品
  6
CONTINUOUS
 62
    4
 10
361.39812869311208
 20
728.86440296867295
 11
361.39812869311208
 21
750.86440296867113
  0
LINE
  8
_0-3_躯体と製品
  6
CONTINUOUS
 62
    4
 10
369.89812869311208
 20
682.36440296867295
 11
369.89812869311208
 21
704.36440296867113
  0
LINE
  8
_0-3_躯体と製品
  6
CONTINUOUS
 62
    4
 10
361.39812869311208
 20
704.36440296867295
 11
361.39812869311208
 21
682.36440296867295
  0
LINE
  8
_0-3_躯体と製品
  6
CONTINUOUS
 62
    4
 10
369.89812869311208
 20
785.36440296867113
 11
369.89812869311208
 21
763.36440296867295
  0
LINE
  8
_0-3_躯体と製品
  6
CONTINUOUS
 62
    4
 10
361.39812869311208
 20
763.36440296867295
 11
361.39812869311208
 21
785.36440296867113
  0
ARC
  8
_0-3_躯体と製品
  6
CONTINUOUS
 62
    4
 10
456.64812869311208
 20
647.86440296867477
 40
2.75
 50
180
 51
0
  0
ARC
  8
_0-3_躯体と製品
  6
CONTINUOUS
 62
    4
 10
456.64812869311208
 20
669.86440296867113
 40
2.75
 50
0
 51
180
  0
LINE
  8
_0-3_躯体と製品
  6
CONTINUOUS
 62
    4
 10
397.89812869311118
 20
647.86440296867477
 11
397.89812869311118
 21
669.86440296867113
  0
LINE
  8
_0-3_躯体と製品
  6
CONTINUOUS
 62
    4
 10
453.89812869311118
 20
647.86440296867477
 11
453.89812869311118
 21
669.86440296867113
  0
LINE
  8
_0-3_躯体と製品
  6
CONTINUOUS
 62
    4
 10
445.39812869311208
 20
669.86440296867113
 11
445.39812869311208
 21
647.86440296867477
  0
LINE
  8
_0-3_躯体と製品
  6
CONTINUOUS
 62
    4
 10
439.89812869311208
 20
647.86440296867477
 11
439.89812869311208
 21
669.86440296867113
  0
LINE
  8
_0-3_躯体と製品
  6
CONTINUOUS
 62
    4
 10
431.39812869311208
 20
669.86440296867113
 11
431.39812869311208
 21
647.86440296867477
  0
LINE
  8
_0-3_躯体と製品
  6
CONTINUOUS
 62
    4
 10
425.89812869311118
 20
647.86440296867477
 11
425.89812869311118
 21
669.86440296867113
  0
LINE
  8
_0-3_躯体と製品
  6
CONTINUOUS
 62
    4
 10
417.39812869311208
 20
669.86440296867113
 11
417.39812869311208
 21
647.86440296867477
  0
LINE
  8
_0-3_躯体と製品
  6
CONTINUOUS
 62
    4
 10
411.89812869311118
 20
647.86440296867477
 11
411.89812869311118
 21
669.86440296867113
  0
LINE
  8
_0-3_躯体と製品
  6
CONTINUOUS
 62
    4
 10
403.39812869311118
 20
669.86440296867113
 11
403.39812869311118
 21
647.86440296867477
  0
ARC
  8
_0-3_躯体と製品
  6
CONTINUOUS
 62
    4
 10
428.64812869311118
 20
647.86440296867477
 40
2.75
 50
180
 51
0
  0
ARC
  8
_0-3_躯体と製品
  6
CONTINUOUS
 62
    4
 10
400.64812869311208
 20
647.86440296867477
 40
2.75
 50
180
 51
0
  0
ARC
  8
_0-3_躯体と製品
  6
CONTINUOUS
 62
    4
 10
414.64812869311208
 20
647.86440296867477
 40
2.75
 50
180
 51
0
  0
ARC
  8
_0-3_躯体と製品
  6
CONTINUOUS
 62
    4
 10
442.64812869311118
 20
647.86440296867477
 40
2.75
 50
180
 51
0
  0
ARC
  8
_0-3_躯体と製品
  6
CONTINUOUS
 62
    4
 10
428.64812869311118
 20
669.86440296867113
 40
2.75
 50
0
 51
180
  0
ARC
  8
_0-3_躯体と製品
  6
CONTINUOUS
 62
    4
 10
400.64812869311208
 20
669.86440296867113
 40
2.75
 50
0
 51
180
  0
ARC
  8
_0-3_躯体と製品
  6
CONTINUOUS
 62
    4
 10
414.64812869311208
 20
669.86440296867113
 40
2.75
 50
0
 51
180
  0
ARC
  8
_0-3_躯体と製品
  6
CONTINUOUS
 62
    4
 10
442.64812869311118
 20
669.86440296867113
 40
2.75
 50
0
 51
180
  0
LINE
  8
_0-3_躯体と製品
  6
CONTINUOUS
 62
    4
 10
389.39812869311208
 20
669.86440296867113
 11
389.39812869311208
 21
647.86440296867477
  0
LINE
  8
_0-3_躯体と製品
  6
CONTINUOUS
 62
    4
 10
383.89812869311118
 20
647.86440296867477
 11
383.89812869311118
 21
669.86440296867113
  0
LINE
  8
_0-3_躯体と製品
  6
CONTINUOUS
 62
    4
 10
375.39812869311208
 20
669.86440296867113
 11
375.39812869311208
 21
647.86440296867477
  0
ARC
  8
_0-3_躯体と製品
  6
CONTINUOUS
 62
    4
 10
386.64812869311118
 20
647.86440296867477
 40
2.75
 50
180
 51
0
  0
ARC
  8
_0-3_躯体と製品
  6
CONTINUOUS
 62
    4
 10
386.64812869311118
 20
669.86440296867113
 40
2.75
 50
0
 51
180
  0
ARC
  8
_0-3_躯体と製品
  6
CONTINUOUS
 62
    4
 10
470.64812869311208
 20
647.86440296867477
 40
2.75
 50
180
 51
0
  0
ARC
  8
_0-3_躯体と製品
  6
CONTINUOUS
 62
    4
 10
470.64812869311208
 20
669.86440296867113
 40
2.75
 50
0
 51
180
  0
LINE
  8
_0-3_躯体と製品
  6
CONTINUOUS
 62
    4
 10
467.89812869311118
 20
647.86440296867477
 11
467.89812869311118
 21
669.86440296867113
  0
LINE
  8
_0-3_躯体と製品
  6
CONTINUOUS
 62
    4
 10
459.39812869311208
 20
669.86440296867113
 11
459.39812869311208
 21
647.86440296867477
  0
LINE
  8
_0-3_躯体と製品
  6
CONTINUOUS
 62
    4
 10
481.89812869311118
 20
647.86440296867477
 11
481.89812869311118
 21
669.86440296867113
  0
LINE
  8
_0-3_躯体と製品
  6
CONTINUOUS
 62
    4
 10
529.3981286931139
 20
669.86440296867113
 11
529.3981286931139
 21
647.86440296867477
  0
LINE
  8
_0-3_躯体と製品
  6
CONTINUOUS
 62
    4
 10
523.89812869311118
 20
647.86440296867477
 11
523.89812869311118
 21
669.86440296867113
  0
LINE
  8
_0-3_躯体と製品
  6
CONTINUOUS
 62
    4
 10
515.39812869311208
 20
669.86440296867113
 11
515.39812869311208
 21
647.86440296867477
  0
LINE
  8
_0-3_躯体と製品
  6
CONTINUOUS
 62
    4
 10
509.89812869311208
 20
647.86440296867477
 11
509.89812869311208
 21
669.86440296867113
  0
LINE
  8
_0-3_躯体と製品
  6
CONTINUOUS
 62
    4
 10
501.39812869311208
 20
669.86440296867113
 11
501.39812869311208
 21
647.86440296867477
  0
LINE
  8
_0-3_躯体と製品
  6
CONTINUOUS
 62
    4
 10
495.89812869311208
 20
647.86440296867477
 11
495.89812869311208
 21
669.86440296867113
  0
LINE
  8
_0-3_躯体と製品
  6
CONTINUOUS
 62
    4
 10
487.39812869311208
 20
669.86440296867113
 11
487.39812869311208
 21
647.86440296867477
  0
ARC
  8
_0-3_躯体と製品
  6
CONTINUOUS
 62
    4
 10
512.64812869311208
 20
647.86440296867477
 40
2.75
 50
180
 51
0
  0
ARC
  8
_0-3_躯体と製品
  6
CONTINUOUS
 62
    4
 10
484.64812869311208
 20
647.86440296867477
 40
2.75
 50
180
 51
0
  0
ARC
  8
_0-3_躯体と製品
  6
CONTINUOUS
 62
    4
 10
498.64812869311118
 20
647.86440296867477
 40
2.75
 50
180
 51
0
  0
ARC
  8
_0-3_躯体と製品
  6
CONTINUOUS
 62
    4
 10
526.64812869311208
 20
647.86440296867477
 40
2.75
 50
180
 51
0
  0
ARC
  8
_0-3_躯体と製品
  6
CONTINUOUS
 62
    4
 10
512.64812869311208
 20
669.86440296867113
 40
2.75
 50
0
 51
180
  0
ARC
  8
_0-3_躯体と製品
  6
CONTINUOUS
 62
    4
 10
484.64812869311208
 20
669.86440296867113
 40
2.75
 50
0
 51
180
  0
ARC
  8
_0-3_躯体と製品
  6
CONTINUOUS
 62
    4
 10
498.64812869311118
 20
669.86440296867113
 40
2.75
 50
0
 51
180
  0
ARC
  8
_0-3_躯体と製品
  6
CONTINUOUS
 62
    4
 10
526.64812869311208
 20
669.86440296867113
 40
2.75
 50
0
 51
180
  0
LINE
  8
_0-3_躯体と製品
  6
CONTINUOUS
 62
    4
 10
473.39812869311208
 20
669.86440296867113
 11
473.39812869311208
 21
647.86440296867477
  0
ARC
  8
_0-3_躯体と製品
  6
CONTINUOUS
 62
    4
 10
456.64812869311208
 20
728.86440296867295
 40
2.75
 50
180
 51
0
  0
ARC
  8
_0-3_躯体と製品
  6
CONTINUOUS
 62
    4
 10
456.64812869311208
 20
682.36440296867295
 40
2.75
 50
180
 51
0
  0
ARC
  8
_0-3_躯体と製品
  6
CONTINUOUS
 62
    4
 10
456.64812869311208
 20
704.36440296867113
 40
2.75
 50
0
 51
180
  0
ARC
  8
_0-3_躯体と製品
  6
CONTINUOUS
 62
    4
 10
456.64812869311208
 20
750.86440296867113
 40
2.75
 50
0
 51
180
  0
ARC
  8
_0-3_躯体と製品
  6
CONTINUOUS
 62
    4
 10
456.64812869311208
 20
763.36440296867295
 40
2.75
 50
180
 51
0
  0
ARC
  8
_0-3_躯体と製品
  6
CONTINUOUS
 62
    4
 10
456.64812869311208
 20
785.36440296867113
 40
2.75
 50
0
 51
180
  0
LINE
  8
_0-3_躯体と製品
  6
CONTINUOUS
 62
    4
 10
425.89812869311118
 20
750.86440296867113
 11
425.89812869311118
 21
728.86440296867295
  0
LINE
  8
_0-3_躯体と製品
  6
CONTINUOUS
 62
    4
 10
417.39812869311208
 20
728.86440296867295
 11
417.39812869311208
 21
750.86440296867113
  0
LINE
  8
_0-3_躯体と製品
  6
CONTINUOUS
 62
    4
 10
411.89812869311118
 20
750.86440296867113
 11
411.89812869311118
 21
728.86440296867295
  0
LINE
  8
_0-3_躯体と製品
  6
CONTINUOUS
 62
    4
 10
403.39812869311118
 20
728.86440296867295
 11
403.39812869311118
 21
750.86440296867113
  0
LINE
  8
_0-3_躯体と製品
  6
CONTINUOUS
 62
    4
 10
397.89812869311118
 20
750.86440296867113
 11
397.89812869311118
 21
728.86440296867295
  0
LINE
  8
_0-3_躯体と製品
  6
CONTINUOUS
 62
    4
 10
389.39812869311208
 20
728.86440296867295
 11
389.39812869311208
 21
750.86440296867113
  0
LINE
  8
_0-3_躯体と製品
  6
CONTINUOUS
 62
    4
 10
383.89812869311118
 20
750.86440296867113
 11
383.89812869311118
 21
728.86440296867295
  0
LINE
  8
_0-3_躯体と製品
  6
CONTINUOUS
 62
    4
 10
375.39812869311208
 20
728.86440296867295
 11
375.39812869311208
 21
750.86440296867113
  0
LINE
  8
_0-3_躯体と製品
  6
CONTINUOUS
 62
    4
 10
453.89812869311118
 20
750.86440296867113
 11
453.89812869311118
 21
728.86440296867295
  0
LINE
  8
_0-3_躯体と製品
  6
CONTINUOUS
 62
    4
 10
445.39812869311208
 20
728.86440296867295
 11
445.39812869311208
 21
750.86440296867113
  0
LINE
  8
_0-3_躯体と製品
  6
CONTINUOUS
 62
    4
 10
439.89812869311208
 20
750.86440296867113
 11
439.89812869311208
 21
728.86440296867295
  0
LINE
  8
_0-3_躯体と製品
  6
CONTINUOUS
 62
    4
 10
431.39812869311208
 20
728.86440296867295
 11
431.39812869311208
 21
750.86440296867113
  0
ARC
  8
_0-3_躯体と製品
  6
CONTINUOUS
 62
    4
 10
428.64812869311118
 20
728.86440296867295
 40
2.75
 50
180
 51
0
  0
ARC
  8
_0-3_躯体と製品
  6
CONTINUOUS
 62
    4
 10
428.64812869311118
 20
682.36440296867295
 40
2.75
 50
180
 51
0
  0
ARC
  8
_0-3_躯体と製品
  6
CONTINUOUS
 62
    4
 10
428.64812869311118
 20
704.36440296867113
 40
2.75
 50
0
 51
180
  0
ARC
  8
_0-3_躯体と製品
  6
CONTINUOUS
 62
    4
 10
400.64812869311208
 20
682.36440296867295
 40
2.75
 50
180
 51
0
  0
ARC
  8
_0-3_躯体と製品
  6
CONTINUOUS
 62
    4
 10
400.64812869311208
 20
704.36440296867113
 40
2.75
 50
0
 51
180
  0
ARC
  8
_0-3_躯体と製品
  6
CONTINUOUS
 62
    4
 10
400.64812869311208
 20
728.86440296867295
 40
2.75
 50
180
 51
0
  0
LINE
  8
_0-3_躯体と製品
  6
CONTINUOUS
 62
    4
 10
397.89812869311118
 20
682.36440296867295
 11
397.89812869311118
 21
704.36440296867113
  0
ARC
  8
_0-3_躯体と製品
  6
CONTINUOUS
 62
    4
 10
414.64812869311208
 20
728.86440296867295
 40
2.75
 50
180
 51
0
  0
LINE
  8
_0-3_躯体と製品
  6
CONTINUOUS
 62
    4
 10
425.89812869311118
 20
682.36440296867295
 11
425.89812869311118
 21
704.36440296867113
  0
LINE
  8
_0-3_躯体と製品
  6
CONTINUOUS
 62
    4
 10
411.89812869311118
 20
682.36440296867295
 11
411.89812869311118
 21
704.36440296867113
  0
LINE
  8
_0-3_躯体と製品
  6
CONTINUOUS
 62
    4
 10
417.39812869311208
 20
704.36440296867295
 11
417.39812869311208
 21
682.36440296867295
  0
ARC
  8
_0-3_躯体と製品
  6
CONTINUOUS
 62
    4
 10
414.64812869311208
 20
682.36440296867295
 40
2.75
 50
180
 51
0
  0
ARC
  8
_0-3_躯体と製品
  6
CONTINUOUS
 62
    4
 10
414.64812869311208
 20
704.36440296867113
 40
2.75
 50
0
 51
180
  0
LINE
  8
_0-3_躯体と製品
  6
CONTINUOUS
 62
    4
 10
403.39812869311118
 20
704.36440296867295
 11
403.39812869311118
 21
682.36440296867295
  0
ARC
  8
_0-3_躯体と製品
  6
CONTINUOUS
 62
    4
 10
442.64812869311118
 20
728.86440296867295
 40
2.75
 50
180
 51
0
  0
LINE
  8
_0-3_躯体と製品
  6
CONTINUOUS
 62
    4
 10
453.89812869311118
 20
682.36440296867295
 11
453.89812869311118
 21
704.36440296867113
  0
LINE
  8
_0-3_躯体と製品
  6
CONTINUOUS
 62
    4
 10
445.39812869311208
 20
704.36440296867295
 11
445.39812869311208
 21
682.36440296867295
  0
LINE
  8
_0-3_躯体と製品
  6
CONTINUOUS
 62
    4
 10
439.89812869311208
 20
682.36440296867295
 11
439.89812869311208
 21
704.36440296867113
  0
LINE
  8
_0-3_躯体と製品
  6
CONTINUOUS
 62
    4
 10
431.39812869311208
 20
704.36440296867295
 11
431.39812869311208
 21
682.36440296867295
  0
ARC
  8
_0-3_躯体と製品
  6
CONTINUOUS
 62
    4
 10
442.64812869311118
 20
682.36440296867295
 40
2.75
 50
180
 51
0
  0
ARC
  8
_0-3_躯体と製品
  6
CONTINUOUS
 62
    4
 10
442.64812869311118
 20
704.36440296867113
 40
2.75
 50
0
 51
180
  0
ARC
  8
_0-3_躯体と製品
  6
CONTINUOUS
 62
    4
 10
386.64812869311118
 20
728.86440296867295
 40
2.75
 50
180
 51
0
  0
LINE
  8
_0-3_躯体と製品
  6
CONTINUOUS
 62
    4
 10
383.89812869311118
 20
682.36440296867295
 11
383.89812869311118
 21
704.36440296867113
  0
LINE
  8
_0-3_躯体と製品
  6
CONTINUOUS
 62
    4
 10
389.39812869311208
 20
704.36440296867295
 11
389.39812869311208
 21
682.36440296867295
  0
ARC
  8
_0-3_躯体と製品
  6
CONTINUOUS
 62
    4
 10
386.64812869311118
 20
682.36440296867295
 40
2.75
 50
180
 51
0
  0
ARC
  8
_0-3_躯体と製品
  6
CONTINUOUS
 62
    4
 10
386.64812869311118
 20
704.36440296867113
 40
2.75
 50
0
 51
180
  0
LINE
  8
_0-3_躯体と製品
  6
CONTINUOUS
 62
    4
 10
375.39812869311208
 20
704.36440296867295
 11
375.39812869311208
 21
682.36440296867295
  0
ARC
  8
_0-3_躯体と製品
  6
CONTINUOUS
 62
    4
 10
428.64812869311118
 20
785.36440296867113
 40
2.75
 50
0
 51
180
  0
ARC
  8
_0-3_躯体と製品
  6
CONTINUOUS
 62
    4
 10
428.64812869311118
 20
750.86440296867113
 40
2.75
 50
0
 51
180
  0
ARC
  8
_0-3_躯体と製品
  6
CONTINUOUS
 62
    4
 10
428.64812869311118
 20
763.36440296867295
 40
2.75
 50
180
 51
0
  0
LINE
  8
_0-3_躯体と製品
  6
CONTINUOUS
 62
    4
 10
397.89812869311118
 20
785.36440296867113
 11
397.89812869311118
 21
763.36440296867295
  0
LINE
  8
_0-3_躯体と製品
  6
CONTINUOUS
 62
    4
 10
425.89812869311118
 20
785.36440296867113
 11
425.89812869311118
 21
763.36440296867295
  0
LINE
  8
_0-3_躯体と製品
  6
CONTINUOUS
 62
    4
 10
411.89812869311118
 20
785.36440296867113
 11
411.89812869311118
 21
763.36440296867295
  0
LINE
  8
_0-3_躯体と製品
  6
CONTINUOUS
 62
    4
 10
417.39812869311208
 20
763.36440296867295
 11
417.39812869311208
 21
785.36440296867113
  0
LINE
  8
_0-3_躯体と製品
  6
CONTINUOUS
 62
    4
 10
403.39812869311118
 20
763.36440296867295
 11
403.39812869311118
 21
785.36440296867113
  0
ARC
  8
_0-3_躯体と製品
  6
CONTINUOUS
 62
    4
 10
400.64812869311208
 20
750.86440296867113
 40
2.75
 50
0
 51
180
  0
ARC
  8
_0-3_躯体と製品
  6
CONTINUOUS
 62
    4
 10
400.64812869311208
 20
763.36440296867295
 40
2.75
 50
180
 51
0
  0
ARC
  8
_0-3_躯体と製品
  6
CONTINUOUS
 62
    4
 10
414.64812869311208
 20
750.86440296867113
 40
2.75
 50
0
 51
180
  0
ARC
  8
_0-3_躯体と製品
  6
CONTINUOUS
 62
    4
 10
414.64812869311208
 20
763.36440296867295
 40
2.75
 50
180
 51
0
  0
ARC
  8
_0-3_躯体と製品
  6
CONTINUOUS
 62
    4
 10
400.64812869311208
 20
785.36440296867113
 40
2.75
 50
0
 51
180
  0
ARC
  8
_0-3_躯体と製品
  6
CONTINUOUS
 62
    4
 10
414.64812869311208
 20
785.36440296867113
 40
2.75
 50
0
 51
180
  0
LINE
  8
_0-3_躯体と製品
  6
CONTINUOUS
 62
    4
 10
453.89812869311118
 20
785.36440296867113
 11
453.89812869311118
 21
763.36440296867295
  0
LINE
  8
_0-3_躯体と製品
  6
CONTINUOUS
 62
    4
 10
439.89812869311208
 20
785.36440296867113
 11
439.89812869311208
 21
763.36440296867295
  0
LINE
  8
_0-3_躯体と製品
  6
CONTINUOUS
 62
    4
 10
445.39812869311208
 20
763.36440296867295
 11
445.39812869311208
 21
785.36440296867113
  0
LINE
  8
_0-3_躯体と製品
  6
CONTINUOUS
 62
    4
 10
431.39812869311208
 20
763.36440296867295
 11
431.39812869311208
 21
785.36440296867113
  0
ARC
  8
_0-3_躯体と製品
  6
CONTINUOUS
 62
    4
 10
442.64812869311118
 20
750.86440296867113
 40
2.75
 50
0
 51
180
  0
ARC
  8
_0-3_躯体と製品
  6
CONTINUOUS
 62
    4
 10
442.64812869311118
 20
763.36440296867295
 40
2.75
 50
180
 51
0
  0
ARC
  8
_0-3_躯体と製品
  6
CONTINUOUS
 62
    4
 10
442.64812869311118
 20
785.36440296867113
 40
2.75
 50
0
 51
180
  0
LINE
  8
_0-3_躯体と製品
  6
CONTINUOUS
 62
    4
 10
383.89812869311118
 20
785.36440296867113
 11
383.89812869311118
 21
763.36440296867295
  0
LINE
  8
_0-3_躯体と製品
  6
CONTINUOUS
 62
    4
 10
389.39812869311208
 20
763.36440296867295
 11
389.39812869311208
 21
785.36440296867113
  0
LINE
  8
_0-3_躯体と製品
  6
CONTINUOUS
 62
    4
 10
375.39812869311208
 20
763.36440296867295
 11
375.39812869311208
 21
785.36440296867113
  0
ARC
  8
_0-3_躯体と製品
  6
CONTINUOUS
 62
    4
 10
386.64812869311118
 20
750.86440296867113
 40
2.75
 50
0
 51
180
  0
ARC
  8
_0-3_躯体と製品
  6
CONTINUOUS
 62
    4
 10
386.64812869311118
 20
763.36440296867295
 40
2.75
 50
180
 51
0
  0
ARC
  8
_0-3_躯体と製品
  6
CONTINUOUS
 62
    4
 10
386.64812869311118
 20
785.36440296867113
 40
2.75
 50
0
 51
180
  0
LINE
  8
_0-3_躯体と製品
  6
CONTINUOUS
 62
    4
 10
481.89812869311118
 20
750.86440296867113
 11
481.89812869311118
 21
728.86440296867295
  0
LINE
  8
_0-3_躯体と製品
  6
CONTINUOUS
 62
    4
 10
509.89812869311208
 20
750.86440296867113
 11
509.89812869311208
 21
728.86440296867295
  0
LINE
  8
_0-3_躯体と製品
  6
CONTINUOUS
 62
    4
 10
501.39812869311208
 20
728.86440296867295
 11
501.39812869311208
 21
750.86440296867113
  0
LINE
  8
_0-3_躯体と製品
  6
CONTINUOUS
 62
    4
 10
495.89812869311208
 20
750.86440296867113
 11
495.89812869311208
 21
728.86440296867295
  0
LINE
  8
_0-3_躯体と製品
  6
CONTINUOUS
 62
    4
 10
487.39812869311208
 20
728.86440296867295
 11
487.39812869311208
 21
750.86440296867113
  0
LINE
  8
_0-3_躯体と製品
  6
CONTINUOUS
 62
    4
 10
529.3981286931139
 20
728.86440296867295
 11
529.3981286931139
 21
750.86440296867113
  0
LINE
  8
_0-3_躯体と製品
  6
CONTINUOUS
 62
    4
 10
523.89812869311118
 20
750.86440296867113
 11
523.89812869311118
 21
728.86440296867295
  0
LINE
  8
_0-3_躯体と製品
  6
CONTINUOUS
 62
    4
 10
515.39812869311208
 20
728.86440296867295
 11
515.39812869311208
 21
750.86440296867113
  0
LINE
  8
_0-3_躯体と製品
  6
CONTINUOUS
 62
    4
 10
473.39812869311208
 20
728.86440296867295
 11
473.39812869311208
 21
750.86440296867113
  0
LINE
  8
_0-3_躯体と製品
  6
CONTINUOUS
 62
    4
 10
467.89812869311118
 20
750.86440296867113
 11
467.89812869311118
 21
728.86440296867295
  0
LINE
  8
_0-3_躯体と製品
  6
CONTINUOUS
 62
    4
 10
459.39812869311208
 20
728.86440296867295
 11
459.39812869311208
 21
750.86440296867113
  0
ARC
  8
_0-3_躯体と製品
  6
CONTINUOUS
 62
    4
 10
470.64812869311208
 20
728.86440296867295
 40
2.75
 50
180
 51
0
  0
ARC
  8
_0-3_躯体と製品
  6
CONTINUOUS
 62
    4
 10
470.64812869311208
 20
682.36440296867295
 40
2.75
 50
180
 51
0
  0
ARC
  8
_0-3_躯体と製品
  6
CONTINUOUS
 62
    4
 10
470.64812869311208
 20
704.36440296867113
 40
2.75
 50
0
 51
180
  0
LINE
  8
_0-3_躯体と製品
  6
CONTINUOUS
 62
    4
 10
467.89812869311118
 20
682.36440296867295
 11
467.89812869311118
 21
704.36440296867113
  0
LINE
  8
_0-3_躯体と製品
  6
CONTINUOUS
 62
    4
 10
459.39812869311208
 20
704.36440296867295
 11
459.39812869311208
 21
682.36440296867295
  0
ARC
  8
_0-3_躯体と製品
  6
CONTINUOUS
 62
    4
 10
512.64812869311208
 20
728.86440296867295
 40
2.75
 50
180
 51
0
  0
ARC
  8
_0-3_躯体と製品
  6
CONTINUOUS
 62
    4
 10
512.64812869311208
 20
682.36440296867295
 40
2.75
 50
180
 51
0
  0
ARC
  8
_0-3_躯体と製品
  6
CONTINUOUS
 62
    4
 10
512.64812869311208
 20
704.36440296867113
 40
2.75
 50
0
 51
180
  0
ARC
  8
_0-3_躯体と製品
  6
CONTINUOUS
 62
    4
 10
484.64812869311208
 20
682.36440296867295
 40
2.75
 50
180
 51
0
  0
ARC
  8
_0-3_躯体と製品
  6
CONTINUOUS
 62
    4
 10
484.64812869311208
 20
704.36440296867113
 40
2.75
 50
0
 51
180
  0
ARC
  8
_0-3_躯体と製品
  6
CONTINUOUS
 62
    4
 10
484.64812869311208
 20
728.86440296867295
 40
2.75
 50
180
 51
0
  0
LINE
  8
_0-3_躯体と製品
  6
CONTINUOUS
 62
    4
 10
481.89812869311118
 20
682.36440296867295
 11
481.89812869311118
 21
704.36440296867113
  0
ARC
  8
_0-3_躯体と製品
  6
CONTINUOUS
 62
    4
 10
498.64812869311118
 20
728.86440296867295
 40
2.75
 50
180
 51
0
  0
LINE
  8
_0-3_躯体と製品
  6
CONTINUOUS
 62
    4
 10
509.89812869311208
 20
682.36440296867295
 11
509.89812869311208
 21
704.36440296867113
  0
LINE
  8
_0-3_躯体と製品
  6
CONTINUOUS
 62
    4
 10
495.89812869311208
 20
682.36440296867295
 11
495.89812869311208
 21
704.36440296867113
  0
LINE
  8
_0-3_躯体と製品
  6
CONTINUOUS
 62
    4
 10
501.39812869311208
 20
704.36440296867295
 11
501.39812869311208
 21
682.36440296867295
  0
ARC
  8
_0-3_躯体と製品
  6
CONTINUOUS
 62
    4
 10
498.64812869311118
 20
682.36440296867295
 40
2.75
 50
180
 51
0
  0
ARC
  8
_0-3_躯体と製品
  6
CONTINUOUS
 62
    4
 10
498.64812869311118
 20
704.36440296867113
 40
2.75
 50
0
 51
180
  0
LINE
  8
_0-3_躯体と製品
  6
CONTINUOUS
 62
    4
 10
487.39812869311208
 20
704.36440296867295
 11
487.39812869311208
 21
682.36440296867295
  0
ARC
  8
_0-3_躯体と製品
  6
CONTINUOUS
 62
    4
 10
526.64812869311208
 20
728.86440296867295
 40
2.75
 50
180
 51
0
  0
LINE
  8
_0-3_躯体と製品
  6
CONTINUOUS
 62
    4
 10
529.3981286931139
 20
704.36440296867295
 11
529.3981286931139
 21
682.36440296867295
  0
LINE
  8
_0-3_躯体と製品
  6
CONTINUOUS
 62
    4
 10
523.89812869311118
 20
682.36440296867295
 11
523.89812869311118
 21
704.36440296867113
  0
LINE
  8
_0-3_躯体と製品
  6
CONTINUOUS
 62
    4
 10
515.39812869311208
 20
704.36440296867295
 11
515.39812869311208
 21
682.36440296867295
  0
ARC
  8
_0-3_躯体と製品
  6
CONTINUOUS
 62
    4
 10
526.64812869311208
 20
682.36440296867295
 40
2.75
 50
180
 51
0
  0
ARC
  8
_0-3_躯体と製品
  6
CONTINUOUS
 62
    4
 10
526.64812869311208
 20
704.36440296867113
 40
2.75
 50
0
 51
180
  0
LINE
  8
_0-3_躯体と製品
  6
CONTINUOUS
 62
    4
 10
473.39812869311208
 20
704.36440296867295
 11
473.39812869311208
 21
682.36440296867295
  0
ARC
  8
_0-3_躯体と製品
  6
CONTINUOUS
 62
    4
 10
470.64812869311208
 20
750.86440296867113
 40
2.75
 50
0
 51
180
  0
ARC
  8
_0-3_躯体と製品
  6
CONTINUOUS
 62
    4
 10
470.64812869311208
 20
763.36440296867295
 40
2.75
 50
180
 51
0
  0
ARC
  8
_0-3_躯体と製品
  6
CONTINUOUS
 62
    4
 10
470.64812869311208
 20
785.36440296867113
 40
2.75
 50
0
 51
180
  0
LINE
  8
_0-3_躯体と製品
  6
CONTINUOUS
 62
    4
 10
467.89812869311118
 20
785.36440296867113
 11
467.89812869311118
 21
763.36440296867295
  0
LINE
  8
_0-3_躯体と製品
  6
CONTINUOUS
 62
    4
 10
459.39812869311208
 20
763.36440296867295
 11
459.39812869311208
 21
785.36440296867113
  0
LINE
  8
_0-3_躯体と製品
  6
CONTINUOUS
 62
    4
 10
481.89812869311118
 20
785.36440296867113
 11
481.89812869311118
 21
763.36440296867295
  0
LINE
  8
_0-3_躯体と製品
  6
CONTINUOUS
 62
    4
 10
523.89812869311118
 20
785.36440296867113
 11
523.89812869311118
 21
763.36440296867295
  0
LINE
  8
_0-3_躯体と製品
  6
CONTINUOUS
 62
    4
 10
529.3981286931139
 20
763.36440296867295
 11
529.3981286931139
 21
785.36440296867113
  0
LINE
  8
_0-3_躯体と製品
  6
CONTINUOUS
 62
    4
 10
509.89812869311208
 20
785.36440296867113
 11
509.89812869311208
 21
763.36440296867295
  0
LINE
  8
_0-3_躯体と製品
  6
CONTINUOUS
 62
    4
 10
515.39812869311208
 20
763.36440296867295
 11
515.39812869311208
 21
785.36440296867113
  0
LINE
  8
_0-3_躯体と製品
  6
CONTINUOUS
 62
    4
 10
495.89812869311208
 20
785.36440296867113
 11
495.89812869311208
 21
763.36440296867295
  0
LINE
  8
_0-3_躯体と製品
  6
CONTINUOUS
 62
    4
 10
501.39812869311208
 20
763.36440296867295
 11
501.39812869311208
 21
785.36440296867113
  0
LINE
  8
_0-3_躯体と製品
  6
CONTINUOUS
 62
    4
 10
487.39812869311208
 20
763.36440296867295
 11
487.39812869311208
 21
785.36440296867113
  0
ARC
  8
_0-3_躯体と製品
  6
CONTINUOUS
 62
    4
 10
512.64812869311208
 20
750.86440296867113
 40
2.75
 50
0
 51
180
  0
ARC
  8
_0-3_躯体と製品
  6
CONTINUOUS
 62
    4
 10
512.64812869311208
 20
763.36440296867295
 40
2.75
 50
180
 51
0
  0
ARC
  8
_0-3_躯体と製品
  6
CONTINUOUS
 62
    4
 10
484.64812869311208
 20
750.86440296867113
 40
2.75
 50
0
 51
180
  0
ARC
  8
_0-3_躯体と製品
  6
CONTINUOUS
 62
    4
 10
484.64812869311208
 20
763.36440296867295
 40
2.75
 50
180
 51
0
  0
ARC
  8
_0-3_躯体と製品
  6
CONTINUOUS
 62
    4
 10
498.64812869311118
 20
750.86440296867113
 40
2.75
 50
0
 51
180
  0
ARC
  8
_0-3_躯体と製品
  6
CONTINUOUS
 62
    4
 10
498.64812869311118
 20
763.36440296867295
 40
2.75
 50
180
 51
0
  0
ARC
  8
_0-3_躯体と製品
  6
CONTINUOUS
 62
    4
 10
526.64812869311208
 20
750.86440296867113
 40
2.75
 50
0
 51
180
  0
ARC
  8
_0-3_躯体と製品
  6
CONTINUOUS
 62
    4
 10
526.64812869311208
 20
763.36440296867295
 40
2.75
 50
180
 51
0
  0
ARC
  8
_0-3_躯体と製品
  6
CONTINUOUS
 62
    4
 10
512.64812869311208
 20
785.36440296867113
 40
2.75
 50
0
 51
180
  0
ARC
  8
_0-3_躯体と製品
  6
CONTINUOUS
 62
    4
 10
484.64812869311208
 20
785.36440296867113
 40
2.75
 50
0
 51
180
  0
ARC
  8
_0-3_躯体と製品
  6
CONTINUOUS
 62
    4
 10
498.64812869311118
 20
785.36440296867113
 40
2.75
 50
0
 51
180
  0
ARC
  8
_0-3_躯体と製品
  6
CONTINUOUS
 62
    4
 10
526.64812869311208
 20
785.36440296867113
 40
2.75
 50
0
 51
180
  0
LINE
  8
_0-3_躯体と製品
  6
CONTINUOUS
 62
    4
 10
473.39812869311208
 20
763.36440296867295
 11
473.39812869311208
 21
785.36440296867113
  0
ARC
  8
_0-3_躯体と製品
  6
CONTINUOUS
 62
    4
 10
582.64812869311208
 20
647.86440296867477
 40
2.75
 50
180
 51
0
  0
ARC
  8
_0-3_躯体と製品
  6
CONTINUOUS
 62
    4
 10
582.64812869311208
 20
669.86440296867113
 40
2.75
 50
0
 51
180
  0
LINE
  8
_0-3_躯体と製品
  6
CONTINUOUS
 62
    4
 10
579.8981286931139
 20
647.86440296867477
 11
579.8981286931139
 21
669.86440296867113
  0
LINE
  8
_0-3_躯体と製品
  6
CONTINUOUS
 62
    4
 10
571.39812869311208
 20
669.86440296867113
 11
571.39812869311208
 21
647.86440296867477
  0
LINE
  8
_0-3_躯体と製品
  6
CONTINUOUS
 62
    4
 10
565.8981286931139
 20
647.86440296867477
 11
565.8981286931139
 21
669.86440296867113
  0
ARC
  8
_0-3_躯体と製品
  6
CONTINUOUS
 62
    4
 10
568.64812869311208
 20
647.86440296867477
 40
2.75
 50
180
 51
0
  0
ARC
  8
_0-3_躯体と製品
  6
CONTINUOUS
 62
    4
 10
568.64812869311208
 20
669.86440296867113
 40
2.75
 50
0
 51
180
  0
LINE
  8
_0-3_躯体と製品
  6
CONTINUOUS
 62
    4
 10
557.39812869311208
 20
669.86440296867113
 11
557.39812869311208
 21
647.86440296867477
  0
LINE
  8
_0-3_躯体と製品
  6
CONTINUOUS
 62
    4
 10
551.89812869311208
 20
647.86440296867477
 11
551.89812869311208
 21
669.86440296867113
  0
LINE
  8
_0-3_躯体と製品
  6
CONTINUOUS
 62
    4
 10
543.39812869311208
 20
669.86440296867113
 11
543.39812869311208
 21
647.86440296867477
  0
LINE
  8
_0-3_躯体と製品
  6
CONTINUOUS
 62
    4
 10
537.89812869311118
 20
647.86440296867477
 11
537.89812869311118
 21
669.86440296867113
  0
ARC
  8
_0-3_躯体と製品
  6
CONTINUOUS
 62
    4
 10
554.64812869311208
 20
647.86440296867477
 40
2.75
 50
180
 51
0
  0
ARC
  8
_0-3_躯体と製品
  6
CONTINUOUS
 62
    4
 10
540.64812869311208
 20
647.86440296867477
 40
2.75
 50
180
 51
0
  0
ARC
  8
_0-3_躯体と製品
  6
CONTINUOUS
 62
    4
 10
554.64812869311208
 20
669.86440296867113
 40
2.75
 50
0
 51
180
  0
ARC
  8
_0-3_躯体と製品
  6
CONTINUOUS
 62
    4
 10
540.64812869311208
 20
669.86440296867113
 40
2.75
 50
0
 51
180
  0
LINE
  8
_0-3_躯体と製品
  6
CONTINUOUS
 62
    4
 10
585.3981286931139
 20
669.86440296867113
 11
585.3981286931139
 21
647.86440296867477
  0
LINE
  8
_0-3_躯体と製品
  6
CONTINUOUS
 62
    4
 10
613.39812869311208
 20
669.86440296867113
 11
613.39812869311208
 21
647.86440296867477
  0
LINE
  8
_0-3_躯体と製品
  6
CONTINUOUS
 62
    4
 10
607.89812869311208
 20
647.86440296867477
 11
607.89812869311208
 21
669.86440296867113
  0
LINE
  8
_0-3_躯体と製品
  6
CONTINUOUS
 62
    4
 10
599.3981286931139
 20
669.86440296867113
 11
599.3981286931139
 21
647.86440296867477
  0
LINE
  8
_0-3_躯体と製品
  6
CONTINUOUS
 62
    4
 10
593.8981286931139
 20
647.86440296867477
 11
593.8981286931139
 21
669.86440296867113
  0
ARC
  8
_0-3_躯体と製品
  6
CONTINUOUS
 62
    4
 10
610.64812869311208
 20
647.86440296867477
 40
2.75
 50
180
 51
0
  0
ARC
  8
_0-3_躯体と製品
  6
CONTINUOUS
 62
    4
 10
596.64812869311208
 20
647.86440296867477
 40
2.75
 50
180
 51
0
  0
ARC
  8
_0-3_躯体と製品
  6
CONTINUOUS
 62
    4
 10
610.64812869311208
 20
669.86440296867113
 40
2.75
 50
0
 51
180
  0
ARC
  8
_0-3_躯体と製品
  6
CONTINUOUS
 62
    4
 10
596.64812869311208
 20
669.86440296867113
 40
2.75
 50
0
 51
180
  0
ARC
  8
_0-3_躯体と製品
  6
CONTINUOUS
 62
    4
 10
694.6481286931139
 20
647.86440296867477
 40
2.75
 50
180
 51
0
  0
ARC
  8
_0-3_躯体と製品
  6
CONTINUOUS
 62
    4
 10
694.6481286931139
 20
669.86440296867113
 40
2.75
 50
0
 51
180
  0
LINE
  8
_0-3_躯体と製品
  6
CONTINUOUS
 62
    4
 10
691.89812869311208
 20
647.86440296867477
 11
691.89812869311208
 21
669.86440296867113
  0
LINE
  8
_0-3_躯体と製品
  6
CONTINUOUS
 62
    4
 10
683.39812869311208
 20
669.86440296867113
 11
683.39812869311208
 21
647.86440296867477
  0
LINE
  8
_0-3_躯体と製品
  6
CONTINUOUS
 62
    4
 10
677.8981286931139
 20
647.86440296867477
 11
677.8981286931139
 21
669.86440296867113
  0
LINE
  8
_0-3_躯体と製品
  6
CONTINUOUS
 62
    4
 10
663.89812869311208
 20
647.86440296867477
 11
663.89812869311208
 21
669.86440296867113
  0
LINE
  8
_0-3_躯体と製品
  6
CONTINUOUS
 62
    4
 10
669.3981286931139
 20
669.86440296867113
 11
669.3981286931139
 21
647.86440296867477
  0
LINE
  8
_0-3_躯体と製品
  6
CONTINUOUS
 62
    4
 10
655.39812869311208
 20
669.86440296867113
 11
655.39812869311208
 21
647.86440296867477
  0
LINE
  8
_0-3_躯体と製品
  6
CONTINUOUS
 62
    4
 10
649.89812869311208
 20
647.86440296867477
 11
649.89812869311208
 21
669.86440296867113
  0
ARC
  8
_0-3_躯体と製品
  6
CONTINUOUS
 62
    4
 10
666.64812869311208
 20
647.86440296867477
 40
2.75
 50
180
 51
0
  0
ARC
  8
_0-3_躯体と製品
  6
CONTINUOUS
 62
    4
 10
652.6481286931139
 20
647.86440296867477
 40
2.75
 50
180
 51
0
  0
ARC
  8
_0-3_躯体と製品
  6
CONTINUOUS
 62
    4
 10
680.64812869311208
 20
647.86440296867477
 40
2.75
 50
180
 51
0
  0
ARC
  8
_0-3_躯体と製品
  6
CONTINUOUS
 62
    4
 10
666.64812869311208
 20
669.86440296867113
 40
2.75
 50
0
 51
180
  0
ARC
  8
_0-3_躯体と製品
  6
CONTINUOUS
 62
    4
 10
652.6481286931139
 20
669.86440296867113
 40
2.75
 50
0
 51
180
  0
ARC
  8
_0-3_躯体と製品
  6
CONTINUOUS
 62
    4
 10
680.64812869311208
 20
669.86440296867113
 40
2.75
 50
0
 51
180
  0
LINE
  8
_0-3_躯体と製品
  6
CONTINUOUS
 62
    4
 10
641.3981286931139
 20
669.86440296867113
 11
641.3981286931139
 21
647.86440296867477
  0
LINE
  8
_0-3_躯体と製品
  6
CONTINUOUS
 62
    4
 10
635.89812869311118
 20
647.86440296867477
 11
635.89812869311118
 21
669.86440296867113
  0
LINE
  8
_0-3_躯体と製品
  6
CONTINUOUS
 62
    4
 10
627.3981286931139
 20
669.86440296867113
 11
627.3981286931139
 21
647.86440296867477
  0
LINE
  8
_0-3_躯体と製品
  6
CONTINUOUS
 62
    4
 10
621.89812869311208
 20
647.86440296867477
 11
621.89812869311208
 21
669.86440296867113
  0
ARC
  8
_0-3_躯体と製品
  6
CONTINUOUS
 62
    4
 10
638.64812869311208
 20
647.86440296867477
 40
2.75
 50
180
 51
0
  0
ARC
  8
_0-3_躯体と製品
  6
CONTINUOUS
 62
    4
 10
624.6481286931139
 20
647.86440296867477
 40
2.75
 50
180
 51
0
  0
ARC
  8
_0-3_躯体と製品
  6
CONTINUOUS
 62
    4
 10
638.64812869311208
 20
669.86440296867113
 40
2.75
 50
0
 51
180
  0
ARC
  8
_0-3_躯体と製品
  6
CONTINUOUS
 62
    4
 10
624.6481286931139
 20
669.86440296867113
 40
2.75
 50
0
 51
180
  0
LINE
  8
_0-3_躯体と製品
  6
CONTINUOUS
 62
    4
 10
697.39812869311481
 20
669.86440296867113
 11
697.39812869311481
 21
647.86440296867477
  0
ARC
  8
_0-3_躯体と製品
  6
CONTINUOUS
 62
    4
 10
582.64812869311208
 20
750.86440296867113
 40
2.75
 50
0
 51
180
  0
ARC
  8
_0-3_躯体と製品
  6
CONTINUOUS
 62
    4
 10
582.64812869311208
 20
763.36440296867295
 40
2.75
 50
180
 51
0
  0
ARC
  8
_0-3_躯体と製品
  6
CONTINUOUS
 62
    4
 10
582.64812869311208
 20
785.36440296867113
 40
2.75
 50
0
 51
180
  0
ARC
  8
_0-3_躯体と製品
  6
CONTINUOUS
 62
    4
 10
582.64812869311208
 20
728.86440296867295
 40
2.75
 50
180
 51
0
  0
ARC
  8
_0-3_躯体と製品
  6
CONTINUOUS
 62
    4
 10
582.64812869311208
 20
682.36440296867295
 40
2.75
 50
180
 51
0
  0
ARC
  8
_0-3_躯体と製品
  6
CONTINUOUS
 62
    4
 10
582.64812869311208
 20
704.36440296867113
 40
2.75
 50
0
 51
180
  0
LINE
  8
_0-3_躯体と製品
  6
CONTINUOUS
 62
    4
 10
579.8981286931139
 20
750.86440296867113
 11
579.8981286931139
 21
728.86440296867295
  0
LINE
  8
_0-3_躯体と製品
  6
CONTINUOUS
 62
    4
 10
571.39812869311208
 20
728.86440296867295
 11
571.39812869311208
 21
750.86440296867113
  0
LINE
  8
_0-3_躯体と製品
  6
CONTINUOUS
 62
    4
 10
565.8981286931139
 20
750.86440296867113
 11
565.8981286931139
 21
728.86440296867295
  0
LINE
  8
_0-3_躯体と製品
  6
CONTINUOUS
 62
    4
 10
557.39812869311208
 20
728.86440296867295
 11
557.39812869311208
 21
750.86440296867113
  0
LINE
  8
_0-3_躯体と製品
  6
CONTINUOUS
 62
    4
 10
551.89812869311208
 20
750.86440296867113
 11
551.89812869311208
 21
728.86440296867295
  0
LINE
  8
_0-3_躯体と製品
  6
CONTINUOUS
 62
    4
 10
543.39812869311208
 20
728.86440296867295
 11
543.39812869311208
 21
750.86440296867113
  0
LINE
  8
_0-3_躯体と製品
  6
CONTINUOUS
 62
    4
 10
537.89812869311118
 20
750.86440296867113
 11
537.89812869311118
 21
728.86440296867295
  0
ARC
  8
_0-3_躯体と製品
  6
CONTINUOUS
 62
    4
 10
568.64812869311208
 20
728.86440296867295
 40
2.75
 50
180
 51
0
  0
LINE
  8
_0-3_躯体と製品
  6
CONTINUOUS
 62
    4
 10
579.8981286931139
 20
682.36440296867295
 11
579.8981286931139
 21
704.36440296867113
  0
LINE
  8
_0-3_躯体と製品
  6
CONTINUOUS
 62
    4
 10
565.8981286931139
 20
682.36440296867295
 11
565.8981286931139
 21
704.36440296867113
  0
LINE
  8
_0-3_躯体と製品
  6
CONTINUOUS
 62
    4
 10
571.39812869311208
 20
704.36440296867295
 11
571.39812869311208
 21
682.36440296867295
  0
ARC
  8
_0-3_躯体と製品
  6
CONTINUOUS
 62
    4
 10
568.64812869311208
 20
682.36440296867295
 40
2.75
 50
180
 51
0
  0
ARC
  8
_0-3_躯体と製品
  6
CONTINUOUS
 62
    4
 10
568.64812869311208
 20
704.36440296867113
 40
2.75
 50
0
 51
180
  0
ARC
  8
_0-3_躯体と製品
  6
CONTINUOUS
 62
    4
 10
554.64812869311208
 20
728.86440296867295
 40
2.75
 50
180
 51
0
  0
ARC
  8
_0-3_躯体と製品
  6
CONTINUOUS
 62
    4
 10
540.64812869311208
 20
728.86440296867295
 40
2.75
 50
180
 51
0
  0
LINE
  8
_0-3_躯体と製品
  6
CONTINUOUS
 62
    4
 10
551.89812869311208
 20
682.36440296867295
 11
551.89812869311208
 21
704.36440296867113
  0
LINE
  8
_0-3_躯体と製品
  6
CONTINUOUS
 62
    4
 10
557.39812869311208
 20
704.36440296867295
 11
557.39812869311208
 21
682.36440296867295
  0
ARC
  8
_0-3_躯体と製品
  6
CONTINUOUS
 62
    4
 10
554.64812869311208
 20
682.36440296867295
 40
2.75
 50
180
 51
0
  0
ARC
  8
_0-3_躯体と製品
  6
CONTINUOUS
 62
    4
 10
554.64812869311208
 20
704.36440296867113
 40
2.75
 50
0
 51
180
  0
LINE
  8
_0-3_躯体と製品
  6
CONTINUOUS
 62
    4
 10
537.89812869311118
 20
682.36440296867295
 11
537.89812869311118
 21
704.36440296867113
  0
LINE
  8
_0-3_躯体と製品
  6
CONTINUOUS
 62
    4
 10
543.39812869311208
 20
704.36440296867295
 11
543.39812869311208
 21
682.36440296867295
  0
ARC
  8
_0-3_躯体と製品
  6
CONTINUOUS
 62
    4
 10
540.64812869311208
 20
682.36440296867295
 40
2.75
 50
180
 51
0
  0
ARC
  8
_0-3_躯体と製品
  6
CONTINUOUS
 62
    4
 10
540.64812869311208
 20
704.36440296867113
 40
2.75
 50
0
 51
180
  0
LINE
  8
_0-3_躯体と製品
  6
CONTINUOUS
 62
    4
 10
579.8981286931139
 20
785.36440296867113
 11
579.8981286931139
 21
763.36440296867295
  0
LINE
  8
_0-3_躯体と製品
  6
CONTINUOUS
 62
    4
 10
565.8981286931139
 20
785.36440296867113
 11
565.8981286931139
 21
763.36440296867295
  0
LINE
  8
_0-3_躯体と製品
  6
CONTINUOUS
 62
    4
 10
571.39812869311208
 20
763.36440296867295
 11
571.39812869311208
 21
785.36440296867113
  0
ARC
  8
_0-3_躯体と製品
  6
CONTINUOUS
 62
    4
 10
568.64812869311208
 20
750.86440296867113
 40
2.75
 50
0
 51
180
  0
ARC
  8
_0-3_躯体と製品
  6
CONTINUOUS
 62
    4
 10
568.64812869311208
 20
763.36440296867295
 40
2.75
 50
180
 51
0
  0
ARC
  8
_0-3_躯体と製品
  6
CONTINUOUS
 62
    4
 10
568.64812869311208
 20
785.36440296867113
 40
2.75
 50
0
 51
180
  0
LINE
  8
_0-3_躯体と製品
  6
CONTINUOUS
 62
    4
 10
551.89812869311208
 20
785.36440296867113
 11
551.89812869311208
 21
763.36440296867295
  0
LINE
  8
_0-3_躯体と製品
  6
CONTINUOUS
 62
    4
 10
557.39812869311208
 20
763.36440296867295
 11
557.39812869311208
 21
785.36440296867113
  0
LINE
  8
_0-3_躯体と製品
  6
CONTINUOUS
 62
    4
 10
537.89812869311118
 20
785.36440296867113
 11
537.89812869311118
 21
763.36440296867295
  0
LINE
  8
_0-3_躯体と製品
  6
CONTINUOUS
 62
    4
 10
543.39812869311208
 20
763.36440296867295
 11
543.39812869311208
 21
785.36440296867113
  0
ARC
  8
_0-3_躯体と製品
  6
CONTINUOUS
 62
    4
 10
554.64812869311208
 20
750.86440296867113
 40
2.75
 50
0
 51
180
  0
ARC
  8
_0-3_躯体と製品
  6
CONTINUOUS
 62
    4
 10
554.64812869311208
 20
763.36440296867295
 40
2.75
 50
180
 51
0
  0
ARC
  8
_0-3_躯体と製品
  6
CONTINUOUS
 62
    4
 10
540.64812869311208
 20
750.86440296867113
 40
2.75
 50
0
 51
180
  0
ARC
  8
_0-3_躯体と製品
  6
CONTINUOUS
 62
    4
 10
540.64812869311208
 20
763.36440296867295
 40
2.75
 50
180
 51
0
  0
ARC
  8
_0-3_躯体と製品
  6
CONTINUOUS
 62
    4
 10
554.64812869311208
 20
785.36440296867113
 40
2.75
 50
0
 51
180
  0
ARC
  8
_0-3_躯体と製品
  6
CONTINUOUS
 62
    4
 10
540.64812869311208
 20
785.36440296867113
 40
2.75
 50
0
 51
180
  0
LINE
  8
_0-3_躯体と製品
  6
CONTINUOUS
 62
    4
 10
585.3981286931139
 20
728.86440296867295
 11
585.3981286931139
 21
750.86440296867113
  0
LINE
  8
_0-3_躯体と製品
  6
CONTINUOUS
 62
    4
 10
613.39812869311208
 20
728.86440296867295
 11
613.39812869311208
 21
750.86440296867113
  0
LINE
  8
_0-3_躯体と製品
  6
CONTINUOUS
 62
    4
 10
607.89812869311208
 20
750.86440296867113
 11
607.89812869311208
 21
728.86440296867295
  0
LINE
  8
_0-3_躯体と製品
  6
CONTINUOUS
 62
    4
 10
599.3981286931139
 20
728.86440296867295
 11
599.3981286931139
 21
750.86440296867113
  0
LINE
  8
_0-3_躯体と製品
  6
CONTINUOUS
 62
    4
 10
593.8981286931139
 20
750.86440296867113
 11
593.8981286931139
 21
728.86440296867295
  0
LINE
  8
_0-3_躯体と製品
  6
CONTINUOUS
 62
    4
 10
585.3981286931139
 20
704.36440296867295
 11
585.3981286931139
 21
682.36440296867295
  0
ARC
  8
_0-3_躯体と製品
  6
CONTINUOUS
 62
    4
 10
610.64812869311208
 20
728.86440296867295
 40
2.75
 50
180
 51
0
  0
ARC
  8
_0-3_躯体と製品
  6
CONTINUOUS
 62
    4
 10
596.64812869311208
 20
728.86440296867295
 40
2.75
 50
180
 51
0
  0
LINE
  8
_0-3_躯体と製品
  6
CONTINUOUS
 62
    4
 10
607.89812869311208
 20
682.36440296867295
 11
607.89812869311208
 21
704.36440296867113
  0
LINE
  8
_0-3_躯体と製品
  6
CONTINUOUS
 62
    4
 10
613.39812869311208
 20
704.36440296867295
 11
613.39812869311208
 21
682.36440296867295
  0
ARC
  8
_0-3_躯体と製品
  6
CONTINUOUS
 62
    4
 10
610.64812869311208
 20
682.36440296867295
 40
2.75
 50
180
 51
0
  0
ARC
  8
_0-3_躯体と製品
  6
CONTINUOUS
 62
    4
 10
610.64812869311208
 20
704.36440296867113
 40
2.75
 50
0
 51
180
  0
LINE
  8
_0-3_躯体と製品
  6
CONTINUOUS
 62
    4
 10
593.8981286931139
 20
682.36440296867295
 11
593.8981286931139
 21
704.36440296867113
  0
LINE
  8
_0-3_躯体と製品
  6
CONTINUOUS
 62
    4
 10
599.3981286931139
 20
704.36440296867295
 11
599.3981286931139
 21
682.36440296867295
  0
ARC
  8
_0-3_躯体と製品
  6
CONTINUOUS
 62
    4
 10
596.64812869311208
 20
682.36440296867295
 40
2.75
 50
180
 51
0
  0
ARC
  8
_0-3_躯体と製品
  6
CONTINUOUS
 62
    4
 10
596.64812869311208
 20
704.36440296867113
 40
2.75
 50
0
 51
180
  0
LINE
  8
_0-3_躯体と製品
  6
CONTINUOUS
 62
    4
 10
585.3981286931139
 20
763.36440296867295
 11
585.3981286931139
 21
785.36440296867113
  0
LINE
  8
_0-3_躯体と製品
  6
CONTINUOUS
 62
    4
 10
607.89812869311208
 20
785.36440296867113
 11
607.89812869311208
 21
763.36440296867295
  0
LINE
  8
_0-3_躯体と製品
  6
CONTINUOUS
 62
    4
 10
613.39812869311208
 20
763.36440296867295
 11
613.39812869311208
 21
785.36440296867113
  0
LINE
  8
_0-3_躯体と製品
  6
CONTINUOUS
 62
    4
 10
593.8981286931139
 20
785.36440296867113
 11
593.8981286931139
 21
763.36440296867295
  0
LINE
  8
_0-3_躯体と製品
  6
CONTINUOUS
 62
    4
 10
599.3981286931139
 20
763.36440296867295
 11
599.3981286931139
 21
785.36440296867113
  0
ARC
  8
_0-3_躯体と製品
  6
CONTINUOUS
 62
    4
 10
610.64812869311208
 20
750.86440296867113
 40
2.75
 50
0
 51
180
  0
ARC
  8
_0-3_躯体と製品
  6
CONTINUOUS
 62
    4
 10
610.64812869311208
 20
763.36440296867295
 40
2.75
 50
180
 51
0
  0
ARC
  8
_0-3_躯体と製品
  6
CONTINUOUS
 62
    4
 10
596.64812869311208
 20
750.86440296867113
 40
2.75
 50
0
 51
180
  0
ARC
  8
_0-3_躯体と製品
  6
CONTINUOUS
 62
    4
 10
596.64812869311208
 20
763.36440296867295
 40
2.75
 50
180
 51
0
  0
ARC
  8
_0-3_躯体と製品
  6
CONTINUOUS
 62
    4
 10
610.64812869311208
 20
785.36440296867113
 40
2.75
 50
0
 51
180
  0
ARC
  8
_0-3_躯体と製品
  6
CONTINUOUS
 62
    4
 10
596.64812869311208
 20
785.36440296867113
 40
2.75
 50
0
 51
180
  0
LINE
  8
_0-3_躯体と製品
  6
CONTINUOUS
 62
    4
 10
663.89812869311208
 20
750.86440296867113
 11
663.89812869311208
 21
728.86440296867295
  0
LINE
  8
_0-3_躯体と製品
  6
CONTINUOUS
 62
    4
 10
669.3981286931139
 20
728.86440296867295
 11
669.3981286931139
 21
750.86440296867113
  0
LINE
  8
_0-3_躯体と製品
  6
CONTINUOUS
 62
    4
 10
655.39812869311208
 20
728.86440296867295
 11
655.39812869311208
 21
750.86440296867113
  0
LINE
  8
_0-3_躯体と製品
  6
CONTINUOUS
 62
    4
 10
649.89812869311208
 20
750.86440296867113
 11
649.89812869311208
 21
728.86440296867295
  0
LINE
  8
_0-3_躯体と製品
  6
CONTINUOUS
 62
    4
 10
697.39812869311481
 20
728.86440296867295
 11
697.39812869311481
 21
750.86440296867113
  0
LINE
  8
_0-3_躯体と製品
  6
CONTINUOUS
 62
    4
 10
691.89812869311208
 20
750.86440296867113
 11
691.89812869311208
 21
728.86440296867295
  0
LINE
  8
_0-3_躯体と製品
  6
CONTINUOUS
 62
    4
 10
683.39812869311208
 20
728.86440296867295
 11
683.39812869311208
 21
750.86440296867113
  0
LINE
  8
_0-3_躯体と製品
  6
CONTINUOUS
 62
    4
 10
677.8981286931139
 20
750.86440296867113
 11
677.8981286931139
 21
728.86440296867295
  0
LINE
  8
_0-3_躯体と製品
  6
CONTINUOUS
 62
    4
 10
641.3981286931139
 20
728.86440296867295
 11
641.3981286931139
 21
750.86440296867113
  0
LINE
  8
_0-3_躯体と製品
  6
CONTINUOUS
 62
    4
 10
635.89812869311118
 20
750.86440296867113
 11
635.89812869311118
 21
728.86440296867295
  0
LINE
  8
_0-3_躯体と製品
  6
CONTINUOUS
 62
    4
 10
627.3981286931139
 20
728.86440296867295
 11
627.3981286931139
 21
750.86440296867113
  0
LINE
  8
_0-3_躯体と製品
  6
CONTINUOUS
 62
    4
 10
621.89812869311208
 20
750.86440296867113
 11
621.89812869311208
 21
728.86440296867295
  0
ARC
  8
_0-3_躯体と製品
  6
CONTINUOUS
 62
    4
 10
694.6481286931139
 20
728.86440296867295
 40
2.75
 50
180
 51
0
  0
ARC
  8
_0-3_躯体と製品
  6
CONTINUOUS
 62
    4
 10
694.6481286931139
 20
682.36440296867295
 40
2.75
 50
180
 51
0
  0
ARC
  8
_0-3_躯体と製品
  6
CONTINUOUS
 62
    4
 10
694.6481286931139
 20
704.36440296867113
 40
2.75
 50
0
 51
180
  0
ARC
  8
_0-3_躯体と製品
  6
CONTINUOUS
 62
    4
 10
666.64812869311208
 20
728.86440296867295
 40
2.75
 50
180
 51
0
  0
ARC
  8
_0-3_躯体と製品
  6
CONTINUOUS
 62
    4
 10
652.6481286931139
 20
728.86440296867295
 40
2.75
 50
180
 51
0
  0
ARC
  8
_0-3_躯体と製品
  6
CONTINUOUS
 62
    4
 10
666.64812869311208
 20
704.36440296867113
 40
2.75
 50
0
 51
180
  0
ARC
  8
_0-3_躯体と製品
  6
CONTINUOUS
 62
    4
 10
666.64812869311208
 20
682.36440296867295
 40
2.75
 50
180
 51
0
  0
LINE
  8
_0-3_躯体と製品
  6
CONTINUOUS
 62
    4
 10
669.3981286931139
 20
704.36440296867295
 11
669.3981286931139
 21
682.36440296867295
  0
LINE
  8
_0-3_躯体と製品
  6
CONTINUOUS
 62
    4
 10
663.89812869311208
 20
682.36440296867295
 11
663.89812869311208
 21
704.36440296867113
  0
LINE
  8
_0-3_躯体と製品
  6
CONTINUOUS
 62
    4
 10
649.89812869311208
 20
682.36440296867295
 11
649.89812869311208
 21
704.36440296867113
  0
LINE
  8
_0-3_躯体と製品
  6
CONTINUOUS
 62
    4
 10
655.39812869311208
 20
704.36440296867295
 11
655.39812869311208
 21
682.36440296867295
  0
ARC
  8
_0-3_躯体と製品
  6
CONTINUOUS
 62
    4
 10
652.6481286931139
 20
682.36440296867295
 40
2.75
 50
180
 51
0
  0
ARC
  8
_0-3_躯体と製品
  6
CONTINUOUS
 62
    4
 10
652.6481286931139
 20
704.36440296867113
 40
2.75
 50
0
 51
180
  0
ARC
  8
_0-3_躯体と製品
  6
CONTINUOUS
 62
    4
 10
680.64812869311208
 20
728.86440296867295
 40
2.75
 50
180
 51
0
  0
LINE
  8
_0-3_躯体と製品
  6
CONTINUOUS
 62
    4
 10
691.89812869311208
 20
682.36440296867295
 11
691.89812869311208
 21
704.36440296867113
  0
LINE
  8
_0-3_躯体と製品
  6
CONTINUOUS
 62
    4
 10
677.8981286931139
 20
682.36440296867295
 11
677.8981286931139
 21
704.36440296867113
  0
LINE
  8
_0-3_躯体と製品
  6
CONTINUOUS
 62
    4
 10
683.39812869311208
 20
704.36440296867295
 11
683.39812869311208
 21
682.36440296867295
  0
ARC
  8
_0-3_躯体と製品
  6
CONTINUOUS
 62
    4
 10
680.64812869311208
 20
682.36440296867295
 40
2.75
 50
180
 51
0
  0
ARC
  8
_0-3_躯体と製品
  6
CONTINUOUS
 62
    4
 10
680.64812869311208
 20
704.36440296867113
 40
2.75
 50
0
 51
180
  0
ARC
  8
_0-3_躯体と製品
  6
CONTINUOUS
 62
    4
 10
638.64812869311208
 20
728.86440296867295
 40
2.75
 50
180
 51
0
  0
ARC
  8
_0-3_躯体と製品
  6
CONTINUOUS
 62
    4
 10
624.6481286931139
 20
728.86440296867295
 40
2.75
 50
180
 51
0
  0
LINE
  8
_0-3_躯体と製品
  6
CONTINUOUS
 62
    4
 10
635.89812869311118
 20
682.36440296867295
 11
635.89812869311118
 21
704.36440296867113
  0
LINE
  8
_0-3_躯体と製品
  6
CONTINUOUS
 62
    4
 10
641.3981286931139
 20
704.36440296867295
 11
641.3981286931139
 21
682.36440296867295
  0
ARC
  8
_0-3_躯体と製品
  6
CONTINUOUS
 62
    4
 10
638.64812869311208
 20
682.36440296867295
 40
2.75
 50
180
 51
0
  0
ARC
  8
_0-3_躯体と製品
  6
CONTINUOUS
 62
    4
 10
638.64812869311208
 20
704.36440296867113
 40
2.75
 50
0
 51
180
  0
LINE
  8
_0-3_躯体と製品
  6
CONTINUOUS
 62
    4
 10
621.89812869311208
 20
682.36440296867295
 11
621.89812869311208
 21
704.36440296867113
  0
LINE
  8
_0-3_躯体と製品
  6
CONTINUOUS
 62
    4
 10
627.3981286931139
 20
704.36440296867295
 11
627.3981286931139
 21
682.36440296867295
  0
ARC
  8
_0-3_躯体と製品
  6
CONTINUOUS
 62
    4
 10
624.6481286931139
 20
682.36440296867295
 40
2.75
 50
180
 51
0
  0
ARC
  8
_0-3_躯体と製品
  6
CONTINUOUS
 62
    4
 10
624.6481286931139
 20
704.36440296867113
 40
2.75
 50
0
 51
180
  0
LINE
  8
_0-3_躯体と製品
  6
CONTINUOUS
 62
    4
 10
697.39812869311481
 20
704.36440296867295
 11
697.39812869311481
 21
682.36440296867295
  0
ARC
  8
_0-3_躯体と製品
  6
CONTINUOUS
 62
    4
 10
694.6481286931139
 20
750.86440296867113
 40
2.75
 50
0
 51
180
  0
ARC
  8
_0-3_躯体と製品
  6
CONTINUOUS
 62
    4
 10
694.6481286931139
 20
763.36440296867295
 40
2.75
 50
180
 51
0
  0
ARC
  8
_0-3_躯体と製品
  6
CONTINUOUS
 62
    4
 10
694.6481286931139
 20
785.36440296867113
 40
2.75
 50
0
 51
180
  0
LINE
  8
_0-3_躯体と製品
  6
CONTINUOUS
 62
    4
 10
669.3981286931139
 20
763.36440296867295
 11
669.3981286931139
 21
785.36440296867113
  0
LINE
  8
_0-3_躯体と製品
  6
CONTINUOUS
 62
    4
 10
663.89812869311208
 20
785.36440296867113
 11
663.89812869311208
 21
763.36440296867295
  0
LINE
  8
_0-3_躯体と製品
  6
CONTINUOUS
 62
    4
 10
677.8981286931139
 20
785.36440296867113
 11
677.8981286931139
 21
763.36440296867295
  0
LINE
  8
_0-3_躯体と製品
  6
CONTINUOUS
 62
    4
 10
683.39812869311208
 20
763.36440296867295
 11
683.39812869311208
 21
785.36440296867113
  0
LINE
  8
_0-3_躯体と製品
  6
CONTINUOUS
 62
    4
 10
691.89812869311208
 20
785.36440296867113
 11
691.89812869311208
 21
763.36440296867295
  0
LINE
  8
_0-3_躯体と製品
  6
CONTINUOUS
 62
    4
 10
649.89812869311208
 20
785.36440296867113
 11
649.89812869311208
 21
763.36440296867295
  0
LINE
  8
_0-3_躯体と製品
  6
CONTINUOUS
 62
    4
 10
655.39812869311208
 20
763.36440296867295
 11
655.39812869311208
 21
785.36440296867113
  0
ARC
  8
_0-3_躯体と製品
  6
CONTINUOUS
 62
    4
 10
666.64812869311208
 20
763.36440296867295
 40
2.75
 50
180
 51
0
  0
ARC
  8
_0-3_躯体と製品
  6
CONTINUOUS
 62
    4
 10
666.64812869311208
 20
750.86440296867113
 40
2.75
 50
0
 51
180
  0
ARC
  8
_0-3_躯体と製品
  6
CONTINUOUS
 62
    4
 10
652.6481286931139
 20
750.86440296867113
 40
2.75
 50
0
 51
180
  0
ARC
  8
_0-3_躯体と製品
  6
CONTINUOUS
 62
    4
 10
652.6481286931139
 20
763.36440296867295
 40
2.75
 50
180
 51
0
  0
ARC
  8
_0-3_躯体と製品
  6
CONTINUOUS
 62
    4
 10
680.64812869311208
 20
750.86440296867113
 40
2.75
 50
0
 51
180
  0
ARC
  8
_0-3_躯体と製品
  6
CONTINUOUS
 62
    4
 10
680.64812869311208
 20
763.36440296867295
 40
2.75
 50
180
 51
0
  0
ARC
  8
_0-3_躯体と製品
  6
CONTINUOUS
 62
    4
 10
666.64812869311208
 20
785.36440296867113
 40
2.75
 50
0
 51
180
  0
ARC
  8
_0-3_躯体と製品
  6
CONTINUOUS
 62
    4
 10
652.6481286931139
 20
785.36440296867113
 40
2.75
 50
0
 51
180
  0
ARC
  8
_0-3_躯体と製品
  6
CONTINUOUS
 62
    4
 10
680.64812869311208
 20
785.36440296867113
 40
2.75
 50
0
 51
180
  0
LINE
  8
_0-3_躯体と製品
  6
CONTINUOUS
 62
    4
 10
635.89812869311118
 20
785.36440296867113
 11
635.89812869311118
 21
763.36440296867295
  0
LINE
  8
_0-3_躯体と製品
  6
CONTINUOUS
 62
    4
 10
641.3981286931139
 20
763.36440296867295
 11
641.3981286931139
 21
785.36440296867113
  0
LINE
  8
_0-3_躯体と製品
  6
CONTINUOUS
 62
    4
 10
621.89812869311208
 20
785.36440296867113
 11
621.89812869311208
 21
763.36440296867295
  0
LINE
  8
_0-3_躯体と製品
  6
CONTINUOUS
 62
    4
 10
627.3981286931139
 20
763.36440296867295
 11
627.3981286931139
 21
785.36440296867113
  0
ARC
  8
_0-3_躯体と製品
  6
CONTINUOUS
 62
    4
 10
638.64812869311208
 20
750.86440296867113
 40
2.75
 50
0
 51
180
  0
ARC
  8
_0-3_躯体と製品
  6
CONTINUOUS
 62
    4
 10
638.64812869311208
 20
763.36440296867295
 40
2.75
 50
180
 51
0
  0
ARC
  8
_0-3_躯体と製品
  6
CONTINUOUS
 62
    4
 10
624.6481286931139
 20
750.86440296867113
 40
2.75
 50
0
 51
180
  0
ARC
  8
_0-3_躯体と製品
  6
CONTINUOUS
 62
    4
 10
624.6481286931139
 20
763.36440296867295
 40
2.75
 50
180
 51
0
  0
ARC
  8
_0-3_躯体と製品
  6
CONTINUOUS
 62
    4
 10
638.64812869311208
 20
785.36440296867113
 40
2.75
 50
0
 51
180
  0
ARC
  8
_0-3_躯体と製品
  6
CONTINUOUS
 62
    4
 10
624.6481286931139
 20
785.36440296867113
 40
2.75
 50
0
 51
180
  0
LINE
  8
_0-3_躯体と製品
  6
CONTINUOUS
 62
    4
 10
697.39812869311481
 20
763.36440296867295
 11
697.39812869311481
 21
785.36440296867113
  0
LINE
  8
_0-3_躯体と製品
  6
CONTINUOUS
 62
    4
 10
781.3981286931139
 20
669.86440296867113
 11
781.3981286931139
 21
647.86440296867477
  0
LINE
  8
_0-3_躯体と製品
  6
CONTINUOUS
 62
    4
 10
775.89812869311208
 20
647.86440296867477
 11
775.89812869311208
 21
669.86440296867113
  0
LINE
  8
_0-3_躯体と製品
  6
CONTINUOUS
 62
    4
 10
767.39812869311481
 20
669.86440296867113
 11
767.39812869311481
 21
647.86440296867477
  0
LINE
  8
_0-3_躯体と製品
  6
CONTINUOUS
 62
    4
 10
761.89812869311208
 20
647.86440296867477
 11
761.89812869311208
 21
669.86440296867113
  0
LINE
  8
_0-3_躯体と製品
  6
CONTINUOUS
 62
    4
 10
753.3981286931139
 20
669.86440296867113
 11
753.3981286931139
 21
647.86440296867477
  0
LINE
  8
_0-3_躯体と製品
  6
CONTINUOUS
 62
    4
 10
747.8981286931139
 20
647.86440296867477
 11
747.8981286931139
 21
669.86440296867113
  0
LINE
  8
_0-3_躯体と製品
  6
CONTINUOUS
 62
    4
 10
739.3981286931139
 20
669.86440296867113
 11
739.3981286931139
 21
647.86440296867477
  0
LINE
  8
_0-3_躯体と製品
  6
CONTINUOUS
 62
    4
 10
733.89812869311208
 20
647.86440296867477
 11
733.89812869311208
 21
669.86440296867113
  0
ARC
  8
_0-3_躯体と製品
  6
CONTINUOUS
 62
    4
 10
750.64812869311208
 20
647.86440296867477
 40
2.75
 50
180
 51
0
  0
ARC
  8
_0-3_躯体と製品
  6
CONTINUOUS
 62
    4
 10
736.6481286931139
 20
647.86440296867477
 40
2.75
 50
180
 51
0
  0
ARC
  8
_0-3_躯体と製品
  6
CONTINUOUS
 62
    4
 10
778.6481286931139
 20
647.86440296867477
 40
2.75
 50
180
 51
0
  0
ARC
  8
_0-3_躯体と製品
  6
CONTINUOUS
 62
    4
 10
764.6481286931139
 20
647.86440296867477
 40
2.75
 50
180
 51
0
  0
ARC
  8
_0-3_躯体と製品
  6
CONTINUOUS
 62
    4
 10
750.64812869311208
 20
669.86440296867113
 40
2.75
 50
0
 51
180
  0
ARC
  8
_0-3_躯体と製品
  6
CONTINUOUS
 62
    4
 10
736.6481286931139
 20
669.86440296867113
 40
2.75
 50
0
 51
180
  0
ARC
  8
_0-3_躯体と製品
  6
CONTINUOUS
 62
    4
 10
778.6481286931139
 20
669.86440296867113
 40
2.75
 50
0
 51
180
  0
ARC
  8
_0-3_躯体と製品
  6
CONTINUOUS
 62
    4
 10
764.6481286931139
 20
669.86440296867113
 40
2.75
 50
0
 51
180
  0
LINE
  8
_0-3_躯体と製品
  6
CONTINUOUS
 62
    4
 10
725.39812869311208
 20
669.86440296867113
 11
725.39812869311208
 21
647.86440296867477
  0
LINE
  8
_0-3_躯体と製品
  6
CONTINUOUS
 62
    4
 10
719.8981286931139
 20
647.86440296867477
 11
719.8981286931139
 21
669.86440296867113
  0
LINE
  8
_0-3_躯体と製品
  6
CONTINUOUS
 62
    4
 10
711.3981286931139
 20
669.86440296867113
 11
711.3981286931139
 21
647.86440296867477
  0
LINE
  8
_0-3_躯体と製品
  6
CONTINUOUS
 62
    4
 10
705.89812869311208
 20
647.86440296867477
 11
705.89812869311208
 21
669.86440296867113
  0
ARC
  8
_0-3_躯体と製品
  6
CONTINUOUS
 62
    4
 10
722.6481286931139
 20
647.86440296867477
 40
2.75
 50
180
 51
0
  0
ARC
  8
_0-3_躯体と製品
  6
CONTINUOUS
 62
    4
 10
708.64812869311208
 20
647.86440296867477
 40
2.75
 50
180
 51
0
  0
ARC
  8
_0-3_躯体と製品
  6
CONTINUOUS
 62
    4
 10
722.6481286931139
 20
669.86440296867113
 40
2.75
 50
0
 51
180
  0
ARC
  8
_0-3_躯体と製品
  6
CONTINUOUS
 62
    4
 10
708.64812869311208
 20
669.86440296867113
 40
2.75
 50
0
 51
180
  0
ARC
  8
_0-3_躯体と製品
  6
CONTINUOUS
 62
    4
 10
806.64812869311299
 20
647.86440296867477
 40
2.75
 50
180
 51
0
  0
ARC
  8
_0-3_躯体と製品
  6
CONTINUOUS
 62
    4
 10
806.64812869311299
 20
669.86440296867113
 40
2.75
 50
0
 51
180
  0
LINE
  8
_0-3_躯体と製品
  6
CONTINUOUS
 62
    4
 10
789.8981286931139
 20
647.86440296867477
 11
789.8981286931139
 21
669.86440296867113
  0
LINE
  8
_0-3_躯体と製品
  6
CONTINUOUS
 62
    4
 10
803.89812869311299
 20
647.86440296867477
 11
803.89812869311299
 21
669.86440296867113
  0
LINE
  8
_0-3_躯体と製品
  6
CONTINUOUS
 62
    4
 10
795.3981286931139
 20
669.86440296867113
 11
795.3981286931139
 21
647.86440296867477
  0
ARC
  8
_0-3_躯体と製品
  6
CONTINUOUS
 62
    4
 10
792.64812869311481
 20
647.86440296867477
 40
2.75
 50
180
 51
0
  0
ARC
  8
_0-3_躯体と製品
  6
CONTINUOUS
 62
    4
 10
792.64812869311481
 20
669.86440296867113
 40
2.75
 50
0
 51
180
  0
LINE
  8
_0-3_躯体と製品
  6
CONTINUOUS
 62
    4
 10
859.89812869311299
 20
647.86440296867477
 11
859.89812869311299
 21
669.86440296867113
  0
LINE
  8
_0-3_躯体と製品
  6
CONTINUOUS
 62
    4
 10
851.39812869311299
 20
669.86440296867113
 11
851.39812869311299
 21
647.86440296867477
  0
LINE
  8
_0-3_躯体と製品
  6
CONTINUOUS
 62
    4
 10
845.89812869311299
 20
647.86440296867477
 11
845.89812869311299
 21
669.86440296867113
  0
LINE
  8
_0-3_躯体と製品
  6
CONTINUOUS
 62
    4
 10
837.39812869311299
 20
669.86440296867113
 11
837.39812869311299
 21
647.86440296867477
  0
LINE
  8
_0-3_躯体と製品
  6
CONTINUOUS
 62
    4
 10
831.89812869311299
 20
647.86440296867477
 11
831.89812869311299
 21
669.86440296867113
  0
LINE
  8
_0-3_躯体と製品
  6
CONTINUOUS
 62
    4
 10
823.39812869311118
 20
669.86440296867113
 11
823.39812869311118
 21
647.86440296867477
  0
LINE
  8
_0-3_躯体と製品
  6
CONTINUOUS
 62
    4
 10
817.89812869311299
 20
647.86440296867477
 11
817.89812869311299
 21
669.86440296867113
  0
LINE
  8
_0-3_躯体と製品
  6
CONTINUOUS
 62
    4
 10
809.39812869311299
 20
669.86440296867113
 11
809.39812869311299
 21
647.86440296867477
  0
ARC
  8
_0-3_躯体と製品
  6
CONTINUOUS
 62
    4
 10
834.64812869311299
 20
647.86440296867477
 40
2.75
 50
180
 51
0
  0
ARC
  8
_0-3_躯体と製品
  6
CONTINUOUS
 62
    4
 10
820.64812869311299
 20
647.86440296867477
 40
2.75
 50
180
 51
0
  0
ARC
  8
_0-3_躯体と製品
  6
CONTINUOUS
 62
    4
 10
848.64812869311299
 20
647.86440296867477
 40
2.75
 50
180
 51
0
  0
ARC
  8
_0-3_躯体と製品
  6
CONTINUOUS
 62
    4
 10
834.64812869311299
 20
669.86440296867113
 40
2.75
 50
0
 51
180
  0
ARC
  8
_0-3_躯体と製品
  6
CONTINUOUS
 62
    4
 10
820.64812869311299
 20
669.86440296867113
 40
2.75
 50
0
 51
180
  0
ARC
  8
_0-3_躯体と製品
  6
CONTINUOUS
 62
    4
 10
848.64812869311299
 20
669.86440296867113
 40
2.75
 50
0
 51
180
  0
LINE
  8
_0-3_躯体と製品
  6
CONTINUOUS
 62
    4
 10
739.3981286931139
 20
728.86440296867295
 11
739.3981286931139
 21
750.86440296867113
  0
LINE
  8
_0-3_躯体と製品
  6
CONTINUOUS
 62
    4
 10
733.89812869311208
 20
750.86440296867113
 11
733.89812869311208
 21
728.86440296867295
  0
LINE
  8
_0-3_躯体と製品
  6
CONTINUOUS
 62
    4
 10
753.3981286931139
 20
728.86440296867295
 11
753.3981286931139
 21
750.86440296867113
  0
LINE
  8
_0-3_躯体と製品
  6
CONTINUOUS
 62
    4
 10
747.8981286931139
 20
750.86440296867113
 11
747.8981286931139
 21
728.86440296867295
  0
LINE
  8
_0-3_躯体と製品
  6
CONTINUOUS
 62
    4
 10
711.3981286931139
 20
728.86440296867295
 11
711.3981286931139
 21
750.86440296867113
  0
LINE
  8
_0-3_躯体と製品
  6
CONTINUOUS
 62
    4
 10
705.89812869311208
 20
750.86440296867113
 11
705.89812869311208
 21
728.86440296867295
  0
LINE
  8
_0-3_躯体と製品
  6
CONTINUOUS
 62
    4
 10
725.39812869311208
 20
728.86440296867295
 11
725.39812869311208
 21
750.86440296867113
  0
LINE
  8
_0-3_躯体と製品
  6
CONTINUOUS
 62
    4
 10
719.8981286931139
 20
750.86440296867113
 11
719.8981286931139
 21
728.86440296867295
  0
LINE
  8
_0-3_躯体と製品
  6
CONTINUOUS
 62
    4
 10
781.3981286931139
 20
728.86440296867295
 11
781.3981286931139
 21
750.86440296867113
  0
LINE
  8
_0-3_躯体と製品
  6
CONTINUOUS
 62
    4
 10
775.89812869311208
 20
750.86440296867113
 11
775.89812869311208
 21
728.86440296867295
  0
LINE
  8
_0-3_躯体と製品
  6
CONTINUOUS
 62
    4
 10
767.39812869311481
 20
728.86440296867295
 11
767.39812869311481
 21
750.86440296867113
  0
LINE
  8
_0-3_躯体と製品
  6
CONTINUOUS
 62
    4
 10
761.89812869311208
 20
750.86440296867113
 11
761.89812869311208
 21
728.86440296867295
  0
ARC
  8
_0-3_躯体と製品
  6
CONTINUOUS
 62
    4
 10
736.6481286931139
 20
728.86440296867295
 40
2.75
 50
180
 51
0
  0
ARC
  8
_0-3_躯体と製品
  6
CONTINUOUS
 62
    4
 10
750.64812869311208
 20
728.86440296867295
 40
2.75
 50
180
 51
0
  0
ARC
  8
_0-3_躯体と製品
  6
CONTINUOUS
 62
    4
 10
750.64812869311208
 20
682.36440296867295
 40
2.75
 50
180
 51
0
  0
ARC
  8
_0-3_躯体と製品
  6
CONTINUOUS
 62
    4
 10
750.64812869311208
 20
704.36440296867113
 40
2.75
 50
0
 51
180
  0
LINE
  8
_0-3_躯体と製品
  6
CONTINUOUS
 62
    4
 10
747.8981286931139
 20
682.36440296867295
 11
747.8981286931139
 21
704.36440296867113
  0
LINE
  8
_0-3_躯体と製品
  6
CONTINUOUS
 62
    4
 10
753.3981286931139
 20
704.36440296867295
 11
753.3981286931139
 21
682.36440296867295
  0
LINE
  8
_0-3_躯体と製品
  6
CONTINUOUS
 62
    4
 10
733.89812869311208
 20
682.36440296867295
 11
733.89812869311208
 21
704.36440296867113
  0
LINE
  8
_0-3_躯体と製品
  6
CONTINUOUS
 62
    4
 10
739.3981286931139
 20
704.36440296867295
 11
739.3981286931139
 21
682.36440296867295
  0
ARC
  8
_0-3_躯体と製品
  6
CONTINUOUS
 62
    4
 10
736.6481286931139
 20
682.36440296867295
 40
2.75
 50
180
 51
0
  0
ARC
  8
_0-3_躯体と製品
  6
CONTINUOUS
 62
    4
 10
736.6481286931139
 20
704.36440296867113
 40
2.75
 50
0
 51
180
  0
ARC
  8
_0-3_躯体と製品
  6
CONTINUOUS
 62
    4
 10
778.6481286931139
 20
728.86440296867295
 40
2.75
 50
180
 51
0
  0
ARC
  8
_0-3_躯体と製品
  6
CONTINUOUS
 62
    4
 10
764.6481286931139
 20
728.86440296867295
 40
2.75
 50
180
 51
0
  0
LINE
  8
_0-3_躯体と製品
  6
CONTINUOUS
 62
    4
 10
775.89812869311208
 20
682.36440296867295
 11
775.89812869311208
 21
704.36440296867113
  0
LINE
  8
_0-3_躯体と製品
  6
CONTINUOUS
 62
    4
 10
781.3981286931139
 20
704.36440296867295
 11
781.3981286931139
 21
682.36440296867295
  0
ARC
  8
_0-3_躯体と製品
  6
CONTINUOUS
 62
    4
 10
778.6481286931139
 20
682.36440296867295
 40
2.75
 50
180
 51
0
  0
ARC
  8
_0-3_躯体と製品
  6
CONTINUOUS
 62
    4
 10
778.6481286931139
 20
704.36440296867113
 40
2.75
 50
0
 51
180
  0
LINE
  8
_0-3_躯体と製品
  6
CONTINUOUS
 62
    4
 10
761.89812869311208
 20
682.36440296867295
 11
761.89812869311208
 21
704.36440296867113
  0
LINE
  8
_0-3_躯体と製品
  6
CONTINUOUS
 62
    4
 10
767.39812869311481
 20
704.36440296867295
 11
767.39812869311481
 21
682.36440296867295
  0
ARC
  8
_0-3_躯体と製品
  6
CONTINUOUS
 62
    4
 10
764.6481286931139
 20
682.36440296867295
 40
2.75
 50
180
 51
0
  0
ARC
  8
_0-3_躯体と製品
  6
CONTINUOUS
 62
    4
 10
764.6481286931139
 20
704.36440296867113
 40
2.75
 50
0
 51
180
  0
ARC
  8
_0-3_躯体と製品
  6
CONTINUOUS
 62
    4
 10
708.64812869311208
 20
728.86440296867295
 40
2.75
 50
180
 51
0
  0
ARC
  8
_0-3_躯体と製品
  6
CONTINUOUS
 62
    4
 10
722.6481286931139
 20
728.86440296867295
 40
2.75
 50
180
 51
0
  0
LINE
  8
_0-3_躯体と製品
  6
CONTINUOUS
 62
    4
 10
719.8981286931139
 20
682.36440296867295
 11
719.8981286931139
 21
704.36440296867113
  0
LINE
  8
_0-3_躯体と製品
  6
CONTINUOUS
 62
    4
 10
725.39812869311208
 20
704.36440296867295
 11
725.39812869311208
 21
682.36440296867295
  0
ARC
  8
_0-3_躯体と製品
  6
CONTINUOUS
 62
    4
 10
722.6481286931139
 20
682.36440296867295
 40
2.75
 50
180
 51
0
  0
ARC
  8
_0-3_躯体と製品
  6
CONTINUOUS
 62
    4
 10
722.6481286931139
 20
704.36440296867113
 40
2.75
 50
0
 51
180
  0
LINE
  8
_0-3_躯体と製品
  6
CONTINUOUS
 62
    4
 10
705.89812869311208
 20
682.36440296867295
 11
705.89812869311208
 21
704.36440296867113
  0
LINE
  8
_0-3_躯体と製品
  6
CONTINUOUS
 62
    4
 10
711.3981286931139
 20
704.36440296867295
 11
711.3981286931139
 21
682.36440296867295
  0
ARC
  8
_0-3_躯体と製品
  6
CONTINUOUS
 62
    4
 10
708.64812869311208
 20
682.36440296867295
 40
2.75
 50
180
 51
0
  0
ARC
  8
_0-3_躯体と製品
  6
CONTINUOUS
 62
    4
 10
708.64812869311208
 20
704.36440296867113
 40
2.75
 50
0
 51
180
  0
LINE
  8
_0-3_躯体と製品
  6
CONTINUOUS
 62
    4
 10
733.89812869311208
 20
785.36440296867113
 11
733.89812869311208
 21
763.36440296867295
  0
LINE
  8
_0-3_躯体と製品
  6
CONTINUOUS
 62
    4
 10
739.3981286931139
 20
763.36440296867295
 11
739.3981286931139
 21
785.36440296867113
  0
LINE
  8
_0-3_躯体と製品
  6
CONTINUOUS
 62
    4
 10
747.8981286931139
 20
785.36440296867113
 11
747.8981286931139
 21
763.36440296867295
  0
LINE
  8
_0-3_躯体と製品
  6
CONTINUOUS
 62
    4
 10
753.3981286931139
 20
763.36440296867295
 11
753.3981286931139
 21
785.36440296867113
  0
ARC
  8
_0-3_躯体と製品
  6
CONTINUOUS
 62
    4
 10
736.6481286931139
 20
750.86440296867113
 40
2.75
 50
0
 51
180
  0
ARC
  8
_0-3_躯体と製品
  6
CONTINUOUS
 62
    4
 10
736.6481286931139
 20
763.36440296867295
 40
2.75
 50
180
 51
0
  0
ARC
  8
_0-3_躯体と製品
  6
CONTINUOUS
 62
    4
 10
750.64812869311208
 20
750.86440296867113
 40
2.75
 50
0
 51
180
  0
ARC
  8
_0-3_躯体と製品
  6
CONTINUOUS
 62
    4
 10
750.64812869311208
 20
763.36440296867295
 40
2.75
 50
180
 51
0
  0
ARC
  8
_0-3_躯体と製品
  6
CONTINUOUS
 62
    4
 10
736.6481286931139
 20
785.36440296867113
 40
2.75
 50
0
 51
180
  0
ARC
  8
_0-3_躯体と製品
  6
CONTINUOUS
 62
    4
 10
750.64812869311208
 20
785.36440296867113
 40
2.75
 50
0
 51
180
  0
LINE
  8
_0-3_躯体と製品
  6
CONTINUOUS
 62
    4
 10
761.89812869311208
 20
785.36440296867113
 11
761.89812869311208
 21
763.36440296867295
  0
LINE
  8
_0-3_躯体と製品
  6
CONTINUOUS
 62
    4
 10
767.39812869311481
 20
763.36440296867295
 11
767.39812869311481
 21
785.36440296867113
  0
LINE
  8
_0-3_躯体と製品
  6
CONTINUOUS
 62
    4
 10
775.89812869311208
 20
785.36440296867113
 11
775.89812869311208
 21
763.36440296867295
  0
LINE
  8
_0-3_躯体と製品
  6
CONTINUOUS
 62
    4
 10
781.3981286931139
 20
763.36440296867295
 11
781.3981286931139
 21
785.36440296867113
  0
ARC
  8
_0-3_躯体と製品
  6
CONTINUOUS
 62
    4
 10
778.6481286931139
 20
750.86440296867113
 40
2.75
 50
0
 51
180
  0
ARC
  8
_0-3_躯体と製品
  6
CONTINUOUS
 62
    4
 10
778.6481286931139
 20
763.36440296867295
 40
2.75
 50
180
 51
0
  0
ARC
  8
_0-3_躯体と製品
  6
CONTINUOUS
 62
    4
 10
764.6481286931139
 20
750.86440296867113
 40
2.75
 50
0
 51
180
  0
ARC
  8
_0-3_躯体と製品
  6
CONTINUOUS
 62
    4
 10
764.6481286931139
 20
763.36440296867295
 40
2.75
 50
180
 51
0
  0
ARC
  8
_0-3_躯体と製品
  6
CONTINUOUS
 62
    4
 10
778.6481286931139
 20
785.36440296867113
 40
2.75
 50
0
 51
180
  0
ARC
  8
_0-3_躯体と製品
  6
CONTINUOUS
 62
    4
 10
764.6481286931139
 20
785.36440296867113
 40
2.75
 50
0
 51
180
  0
LINE
  8
_0-3_躯体と製品
  6
CONTINUOUS
 62
    4
 10
705.89812869311208
 20
785.36440296867113
 11
705.89812869311208
 21
763.36440296867295
  0
LINE
  8
_0-3_躯体と製品
  6
CONTINUOUS
 62
    4
 10
711.3981286931139
 20
763.36440296867295
 11
711.3981286931139
 21
785.36440296867113
  0
LINE
  8
_0-3_躯体と製品
  6
CONTINUOUS
 62
    4
 10
719.8981286931139
 20
785.36440296867113
 11
719.8981286931139
 21
763.36440296867295
  0
LINE
  8
_0-3_躯体と製品
  6
CONTINUOUS
 62
    4
 10
725.39812869311208
 20
763.36440296867295
 11
725.39812869311208
 21
785.36440296867113
  0
ARC
  8
_0-3_躯体と製品
  6
CONTINUOUS
 62
    4
 10
708.64812869311208
 20
750.86440296867113
 40
2.75
 50
0
 51
180
  0
ARC
  8
_0-3_躯体と製品
  6
CONTINUOUS
 62
    4
 10
708.64812869311208
 20
763.36440296867295
 40
2.75
 50
180
 51
0
  0
ARC
  8
_0-3_躯体と製品
  6
CONTINUOUS
 62
    4
 10
722.6481286931139
 20
750.86440296867113
 40
2.75
 50
0
 51
180
  0
ARC
  8
_0-3_躯体と製品
  6
CONTINUOUS
 62
    4
 10
722.6481286931139
 20
763.36440296867295
 40
2.75
 50
180
 51
0
  0
ARC
  8
_0-3_躯体と製品
  6
CONTINUOUS
 62
    4
 10
708.64812869311208
 20
785.36440296867113
 40
2.75
 50
0
 51
180
  0
ARC
  8
_0-3_躯体と製品
  6
CONTINUOUS
 62
    4
 10
722.6481286931139
 20
785.36440296867113
 40
2.75
 50
0
 51
180
  0
ARC
  8
_0-3_躯体と製品
  6
CONTINUOUS
 62
    4
 10
806.64812869311299
 20
728.86440296867295
 40
2.75
 50
180
 51
0
  0
ARC
  8
_0-3_躯体と製品
  6
CONTINUOUS
 62
    4
 10
806.64812869311299
 20
682.36440296867295
 40
2.75
 50
180
 51
0
  0
ARC
  8
_0-3_躯体と製品
  6
CONTINUOUS
 62
    4
 10
806.64812869311299
 20
704.36440296867113
 40
2.75
 50
0
 51
180
  0
ARC
  8
_0-3_躯体と製品
  6
CONTINUOUS
 62
    4
 10
806.64812869311299
 20
750.86440296867113
 40
2.75
 50
0
 51
180
  0
ARC
  8
_0-3_躯体と製品
  6
CONTINUOUS
 62
    4
 10
806.64812869311299
 20
763.36440296867295
 40
2.75
 50
180
 51
0
  0
ARC
  8
_0-3_躯体と製品
  6
CONTINUOUS
 62
    4
 10
806.64812869311299
 20
785.36440296867113
 40
2.75
 50
0
 51
180
  0
LINE
  8
_0-3_躯体と製品
  6
CONTINUOUS
 62
    4
 10
795.3981286931139
 20
728.86440296867295
 11
795.3981286931139
 21
750.86440296867113
  0
LINE
  8
_0-3_躯体と製品
  6
CONTINUOUS
 62
    4
 10
789.8981286931139
 20
750.86440296867113
 11
789.8981286931139
 21
728.86440296867295
  0
LINE
  8
_0-3_躯体と製品
  6
CONTINUOUS
 62
    4
 10
803.89812869311299
 20
750.86440296867113
 11
803.89812869311299
 21
728.86440296867295
  0
ARC
  8
_0-3_躯体と製品
  6
CONTINUOUS
 62
    4
 10
792.64812869311481
 20
728.86440296867295
 40
2.75
 50
180
 51
0
  0
ARC
  8
_0-3_躯体と製品
  6
CONTINUOUS
 62
    4
 10
792.64812869311481
 20
682.36440296867295
 40
2.75
 50
180
 51
0
  0
ARC
  8
_0-3_躯体と製品
  6
CONTINUOUS
 62
    4
 10
792.64812869311481
 20
704.36440296867113
 40
2.75
 50
0
 51
180
  0
LINE
  8
_0-3_躯体と製品
  6
CONTINUOUS
 62
    4
 10
789.8981286931139
 20
682.36440296867295
 11
789.8981286931139
 21
704.36440296867113
  0
LINE
  8
_0-3_躯体と製品
  6
CONTINUOUS
 62
    4
 10
803.89812869311299
 20
682.36440296867295
 11
803.89812869311299
 21
704.36440296867113
  0
LINE
  8
_0-3_躯体と製品
  6
CONTINUOUS
 62
    4
 10
795.3981286931139
 20
704.36440296867295
 11
795.3981286931139
 21
682.36440296867295
  0
LINE
  8
_0-3_躯体と製品
  6
CONTINUOUS
 62
    4
 10
789.8981286931139
 20
785.36440296867113
 11
789.8981286931139
 21
763.36440296867295
  0
LINE
  8
_0-3_躯体と製品
  6
CONTINUOUS
 62
    4
 10
795.3981286931139
 20
763.36440296867295
 11
795.3981286931139
 21
785.36440296867113
  0
LINE
  8
_0-3_躯体と製品
  6
CONTINUOUS
 62
    4
 10
803.89812869311299
 20
785.36440296867113
 11
803.89812869311299
 21
763.36440296867295
  0
ARC
  8
_0-3_躯体と製品
  6
CONTINUOUS
 62
    4
 10
792.64812869311481
 20
750.86440296867113
 40
2.75
 50
0
 51
180
  0
ARC
  8
_0-3_躯体と製品
  6
CONTINUOUS
 62
    4
 10
792.64812869311481
 20
763.36440296867295
 40
2.75
 50
180
 51
0
  0
ARC
  8
_0-3_躯体と製品
  6
CONTINUOUS
 62
    4
 10
792.64812869311481
 20
785.36440296867113
 40
2.75
 50
0
 51
180
  0
LINE
  8
_0-3_躯体と製品
  6
CONTINUOUS
 62
    4
 10
809.39812869311299
 20
728.86440296867295
 11
809.39812869311299
 21
750.86440296867113
  0
LINE
  8
_0-3_躯体と製品
  6
CONTINUOUS
 62
    4
 10
823.39812869311118
 20
728.86440296867295
 11
823.39812869311118
 21
750.86440296867113
  0
LINE
  8
_0-3_躯体と製品
  6
CONTINUOUS
 62
    4
 10
817.89812869311299
 20
750.86440296867113
 11
817.89812869311299
 21
728.86440296867295
  0
LINE
  8
_0-3_躯体と製品
  6
CONTINUOUS
 62
    4
 10
837.39812869311299
 20
728.86440296867295
 11
837.39812869311299
 21
750.86440296867113
  0
LINE
  8
_0-3_躯体と製品
  6
CONTINUOUS
 62
    4
 10
831.89812869311299
 20
750.86440296867113
 11
831.89812869311299
 21
728.86440296867295
  0
LINE
  8
_0-3_躯体と製品
  6
CONTINUOUS
 62
    4
 10
859.89812869311299
 20
750.86440296867113
 11
859.89812869311299
 21
728.86440296867295
  0
LINE
  8
_0-3_躯体と製品
  6
CONTINUOUS
 62
    4
 10
851.39812869311299
 20
728.86440296867295
 11
851.39812869311299
 21
750.86440296867113
  0
LINE
  8
_0-3_躯体と製品
  6
CONTINUOUS
 62
    4
 10
845.89812869311299
 20
750.86440296867113
 11
845.89812869311299
 21
728.86440296867295
  0
ARC
  8
_0-3_躯体と製品
  6
CONTINUOUS
 62
    4
 10
820.64812869311299
 20
728.86440296867295
 40
2.75
 50
180
 51
0
  0
ARC
  8
_0-3_躯体と製品
  6
CONTINUOUS
 62
    4
 10
834.64812869311299
 20
728.86440296867295
 40
2.75
 50
180
 51
0
  0
LINE
  8
_0-3_躯体と製品
  6
CONTINUOUS
 62
    4
 10
831.89812869311299
 20
682.36440296867295
 11
831.89812869311299
 21
704.36440296867113
  0
LINE
  8
_0-3_躯体と製品
  6
CONTINUOUS
 62
    4
 10
837.39812869311299
 20
704.36440296867295
 11
837.39812869311299
 21
682.36440296867295
  0
ARC
  8
_0-3_躯体と製品
  6
CONTINUOUS
 62
    4
 10
834.64812869311299
 20
682.36440296867295
 40
2.75
 50
180
 51
0
  0
ARC
  8
_0-3_躯体と製品
  6
CONTINUOUS
 62
    4
 10
834.64812869311299
 20
704.36440296867113
 40
2.75
 50
0
 51
180
  0
LINE
  8
_0-3_躯体と製品
  6
CONTINUOUS
 62
    4
 10
817.89812869311299
 20
682.36440296867295
 11
817.89812869311299
 21
704.36440296867113
  0
LINE
  8
_0-3_躯体と製品
  6
CONTINUOUS
 62
    4
 10
823.39812869311118
 20
704.36440296867295
 11
823.39812869311118
 21
682.36440296867295
  0
ARC
  8
_0-3_躯体と製品
  6
CONTINUOUS
 62
    4
 10
820.64812869311299
 20
682.36440296867295
 40
2.75
 50
180
 51
0
  0
ARC
  8
_0-3_躯体と製品
  6
CONTINUOUS
 62
    4
 10
820.64812869311299
 20
704.36440296867113
 40
2.75
 50
0
 51
180
  0
LINE
  8
_0-3_躯体と製品
  6
CONTINUOUS
 62
    4
 10
809.39812869311299
 20
704.36440296867295
 11
809.39812869311299
 21
682.36440296867295
  0
ARC
  8
_0-3_躯体と製品
  6
CONTINUOUS
 62
    4
 10
848.64812869311299
 20
728.86440296867295
 40
2.75
 50
180
 51
0
  0
LINE
  8
_0-3_躯体と製品
  6
CONTINUOUS
 62
    4
 10
859.89812869311299
 20
682.36440296867295
 11
859.89812869311299
 21
704.36440296867113
  0
LINE
  8
_0-3_躯体と製品
  6
CONTINUOUS
 62
    4
 10
845.89812869311299
 20
682.36440296867295
 11
845.89812869311299
 21
704.36440296867113
  0
LINE
  8
_0-3_躯体と製品
  6
CONTINUOUS
 62
    4
 10
851.39812869311299
 20
704.36440296867295
 11
851.39812869311299
 21
682.36440296867295
  0
ARC
  8
_0-3_躯体と製品
  6
CONTINUOUS
 62
    4
 10
848.64812869311299
 20
682.36440296867295
 40
2.75
 50
180
 51
0
  0
ARC
  8
_0-3_躯体と製品
  6
CONTINUOUS
 62
    4
 10
848.64812869311299
 20
704.36440296867113
 40
2.75
 50
0
 51
180
  0
LINE
  8
_0-3_躯体と製品
  6
CONTINUOUS
 62
    4
 10
809.39812869311299
 20
763.36440296867295
 11
809.39812869311299
 21
785.36440296867113
  0
LINE
  8
_0-3_躯体と製品
  6
CONTINUOUS
 62
    4
 10
817.89812869311299
 20
785.36440296867113
 11
817.89812869311299
 21
763.36440296867295
  0
LINE
  8
_0-3_躯体と製品
  6
CONTINUOUS
 62
    4
 10
823.39812869311118
 20
763.36440296867295
 11
823.39812869311118
 21
785.36440296867113
  0
LINE
  8
_0-3_躯体と製品
  6
CONTINUOUS
 62
    4
 10
831.89812869311299
 20
785.36440296867113
 11
831.89812869311299
 21
763.36440296867295
  0
LINE
  8
_0-3_躯体と製品
  6
CONTINUOUS
 62
    4
 10
837.39812869311299
 20
763.36440296867295
 11
837.39812869311299
 21
785.36440296867113
  0
LINE
  8
_0-3_躯体と製品
  6
CONTINUOUS
 62
    4
 10
845.89812869311299
 20
785.36440296867113
 11
845.89812869311299
 21
763.36440296867295
  0
LINE
  8
_0-3_躯体と製品
  6
CONTINUOUS
 62
    4
 10
851.39812869311299
 20
763.36440296867295
 11
851.39812869311299
 21
785.36440296867113
  0
LINE
  8
_0-3_躯体と製品
  6
CONTINUOUS
 62
    4
 10
859.89812869311299
 20
785.36440296867113
 11
859.89812869311299
 21
763.36440296867295
  0
ARC
  8
_0-3_躯体と製品
  6
CONTINUOUS
 62
    4
 10
820.64812869311299
 20
750.86440296867113
 40
2.75
 50
0
 51
180
  0
ARC
  8
_0-3_躯体と製品
  6
CONTINUOUS
 62
    4
 10
820.64812869311299
 20
763.36440296867295
 40
2.75
 50
180
 51
0
  0
ARC
  8
_0-3_躯体と製品
  6
CONTINUOUS
 62
    4
 10
834.64812869311299
 20
750.86440296867113
 40
2.75
 50
0
 51
180
  0
ARC
  8
_0-3_躯体と製品
  6
CONTINUOUS
 62
    4
 10
834.64812869311299
 20
763.36440296867295
 40
2.75
 50
180
 51
0
  0
ARC
  8
_0-3_躯体と製品
  6
CONTINUOUS
 62
    4
 10
848.64812869311299
 20
750.86440296867113
 40
2.75
 50
0
 51
180
  0
ARC
  8
_0-3_躯体と製品
  6
CONTINUOUS
 62
    4
 10
848.64812869311299
 20
763.36440296867295
 40
2.75
 50
180
 51
0
  0
ARC
  8
_0-3_躯体と製品
  6
CONTINUOUS
 62
    4
 10
820.64812869311299
 20
785.36440296867113
 40
2.75
 50
0
 51
180
  0
ARC
  8
_0-3_躯体と製品
  6
CONTINUOUS
 62
    4
 10
834.64812869311299
 20
785.36440296867113
 40
2.75
 50
0
 51
180
  0
ARC
  8
_0-3_躯体と製品
  6
CONTINUOUS
 62
    4
 10
848.64812869311299
 20
785.36440296867113
 40
2.75
 50
0
 51
180
  0
LINE
  8
_0-3_躯体と製品
  6
CONTINUOUS
 62
    4
 10
1159.648128693113
 20
816.61440296867295
 11
1159.648128693113
 21
616.61440296867477
  0
ARC
  8
_0-3_躯体と製品
  6
CONTINUOUS
 62
    4
 10
1030.648128693113
 20
750.86440296867113
 40
2.75
 50
0
 51
180
  0
ARC
  8
_0-3_躯体と製品
  6
CONTINUOUS
 62
    4
 10
1030.648128693113
 20
763.36440296867295
 40
2.75
 50
180
 51
0
  0
ARC
  8
_0-3_躯体と製品
  6
CONTINUOUS
 62
    4
 10
1030.648128693113
 20
785.36440296867113
 40
2.75
 50
0
 51
180
  0
ARC
  8
_0-3_躯体と製品
  6
CONTINUOUS
 62
    4
 10
1030.648128693113
 20
647.86440296867477
 40
2.75
 50
180
 51
0
  0
ARC
  8
_0-3_躯体と製品
  6
CONTINUOUS
 62
    4
 10
1030.648128693113
 20
728.86440296867295
 40
2.75
 50
180
 51
0
  0
ARC
  8
_0-3_躯体と製品
  6
CONTINUOUS
 62
    4
 10
1030.648128693113
 20
669.86440296867113
 40
2.75
 50
0
 51
180
  0
ARC
  8
_0-3_躯体と製品
  6
CONTINUOUS
 62
    4
 10
1030.648128693113
 20
682.36440296867295
 40
2.75
 50
180
 51
0
  0
ARC
  8
_0-3_躯体と製品
  6
CONTINUOUS
 62
    4
 10
1030.648128693113
 20
704.36440296867113
 40
2.75
 50
0
 51
180
  0
ARC
  8
_0-3_躯体と製品
  6
CONTINUOUS
 62
    4
 10
946.64812869311299
 20
647.86440296867477
 40
2.75
 50
180
 51
0
  0
ARC
  8
_0-3_躯体と製品
  6
CONTINUOUS
 62
    4
 10
946.64812869311299
 20
669.86440296867113
 40
2.75
 50
0
 51
180
  0
ARC
  8
_0-3_躯体と製品
  6
CONTINUOUS
 62
    4
 10
918.64812869311118
 20
647.86440296867477
 40
2.75
 50
180
 51
0
  0
ARC
  8
_0-3_躯体と製品
  6
CONTINUOUS
 62
    4
 10
918.64812869311118
 20
669.86440296867113
 40
2.75
 50
0
 51
180
  0
LINE
  8
_0-3_躯体と製品
  6
CONTINUOUS
 62
    4
 10
893.39812869311299
 20
669.86440296867113
 11
893.39812869311299
 21
647.86440296867477
  0
LINE
  8
_0-3_躯体と製品
  6
CONTINUOUS
 62
    4
 10
915.89812869311299
 20
647.86440296867477
 11
915.89812869311299
 21
669.86440296867113
  0
LINE
  8
_0-3_躯体と製品
  6
CONTINUOUS
 62
    4
 10
907.39812869311299
 20
669.86440296867113
 11
907.39812869311299
 21
647.86440296867477
  0
LINE
  8
_0-3_躯体と製品
  6
CONTINUOUS
 62
    4
 10
901.89812869311299
 20
647.86440296867477
 11
901.89812869311299
 21
669.86440296867113
  0
ARC
  8
_0-3_躯体と製品
  6
CONTINUOUS
 62
    4
 10
904.64812869311299
 20
647.86440296867477
 40
2.75
 50
180
 51
0
  0
ARC
  8
_0-3_躯体と製品
  6
CONTINUOUS
 62
    4
 10
904.64812869311299
 20
669.86440296867113
 40
2.75
 50
0
 51
180
  0
LINE
  8
_0-3_躯体と製品
  6
CONTINUOUS
 62
    4
 10
887.89812869311481
 20
647.86440296867477
 11
887.89812869311481
 21
669.86440296867113
  0
LINE
  8
_0-3_躯体と製品
  6
CONTINUOUS
 62
    4
 10
879.39812869311299
 20
669.86440296867113
 11
879.39812869311299
 21
647.86440296867477
  0
LINE
  8
_0-3_躯体と製品
  6
CONTINUOUS
 62
    4
 10
873.89812869311299
 20
647.86440296867477
 11
873.89812869311299
 21
669.86440296867113
  0
LINE
  8
_0-3_躯体と製品
  6
CONTINUOUS
 62
    4
 10
865.39812869311299
 20
669.86440296867113
 11
865.39812869311299
 21
647.86440296867477
  0
ARC
  8
_0-3_躯体と製品
  6
CONTINUOUS
 62
    4
 10
876.64812869311118
 20
647.86440296867477
 40
2.75
 50
180
 51
0
  0
ARC
  8
_0-3_躯体と製品
  6
CONTINUOUS
 62
    4
 10
876.64812869311118
 20
669.86440296867113
 40
2.75
 50
0
 51
180
  0
ARC
  8
_0-3_躯体と製品
  6
CONTINUOUS
 62
    4
 10
890.64812869311299
 20
647.86440296867477
 40
2.75
 50
180
 51
0
  0
ARC
  8
_0-3_躯体と製品
  6
CONTINUOUS
 62
    4
 10
890.64812869311299
 20
669.86440296867113
 40
2.75
 50
0
 51
180
  0
LINE
  8
_0-3_躯体と製品
  6
CONTINUOUS
 62
    4
 10
943.89812869311299
 20
647.86440296867477
 11
943.89812869311299
 21
669.86440296867113
  0
LINE
  8
_0-3_躯体と製品
  6
CONTINUOUS
 62
    4
 10
935.39812869311299
 20
669.86440296867113
 11
935.39812869311299
 21
647.86440296867477
  0
LINE
  8
_0-3_躯体と製品
  6
CONTINUOUS
 62
    4
 10
929.89812869311481
 20
647.86440296867477
 11
929.89812869311481
 21
669.86440296867113
  0
LINE
  8
_0-3_躯体と製品
  6
CONTINUOUS
 62
    4
 10
921.39812869311299
 20
669.86440296867113
 11
921.39812869311299
 21
647.86440296867477
  0
ARC
  8
_0-3_躯体と製品
  6
CONTINUOUS
 62
    4
 10
932.64812869311299
 20
647.86440296867477
 40
2.75
 50
180
 51
0
  0
ARC
  8
_0-3_躯体と製品
  6
CONTINUOUS
 62
    4
 10
932.64812869311299
 20
669.86440296867113
 40
2.75
 50
0
 51
180
  0
LINE
  8
_0-3_躯体と製品
  6
CONTINUOUS
 62
    4
 10
1027.898128693113
 20
647.86440296867477
 11
1027.898128693113
 21
669.86440296867113
  0
LINE
  8
_0-3_躯体と製品
  6
CONTINUOUS
 62
    4
 10
1019.398128693113
 20
669.86440296867113
 11
1019.398128693113
 21
647.86440296867477
  0
LINE
  8
_0-3_躯体と製品
  6
CONTINUOUS
 62
    4
 10
1013.8981286931112
 20
647.86440296867477
 11
1013.8981286931112
 21
669.86440296867113
  0
LINE
  8
_0-3_躯体と製品
  6
CONTINUOUS
 62
    4
 10
1005.398128693113
 20
669.86440296867113
 11
1005.398128693113
 21
647.86440296867477
  0
LINE
  8
_0-3_躯体と製品
  6
CONTINUOUS
 62
    4
 10
999.89812869311299
 20
647.86440296867477
 11
999.89812869311299
 21
669.86440296867113
  0
LINE
  8
_0-3_躯体と製品
  6
CONTINUOUS
 62
    4
 10
991.39812869311299
 20
669.86440296867113
 11
991.39812869311299
 21
647.86440296867477
  0
LINE
  8
_0-3_躯体と製品
  6
CONTINUOUS
 62
    4
 10
985.89812869311299
 20
647.86440296867477
 11
985.89812869311299
 21
669.86440296867113
  0
LINE
  8
_0-3_躯体と製品
  6
CONTINUOUS
 62
    4
 10
977.39812869311299
 20
669.86440296867113
 11
977.39812869311299
 21
647.86440296867477
  0
ARC
  8
_0-3_躯体と製品
  6
CONTINUOUS
 62
    4
 10
1002.648128693113
 20
647.86440296867477
 40
2.75
 50
180
 51
0
  0
ARC
  8
_0-3_躯体と製品
  6
CONTINUOUS
 62
    4
 10
988.64812869311299
 20
647.86440296867477
 40
2.75
 50
180
 51
0
  0
ARC
  8
_0-3_躯体と製品
  6
CONTINUOUS
 62
    4
 10
1016.648128693113
 20
647.86440296867477
 40
2.75
 50
180
 51
0
  0
ARC
  8
_0-3_躯体と製品
  6
CONTINUOUS
 62
    4
 10
1002.648128693113
 20
669.86440296867113
 40
2.75
 50
0
 51
180
  0
ARC
  8
_0-3_躯体と製品
  6
CONTINUOUS
 62
    4
 10
988.64812869311299
 20
669.86440296867113
 40
2.75
 50
0
 51
180
  0
ARC
  8
_0-3_躯体と製品
  6
CONTINUOUS
 62
    4
 10
1016.648128693113
 20
669.86440296867113
 40
2.75
 50
0
 51
180
  0
LINE
  8
_0-3_躯体と製品
  6
CONTINUOUS
 62
    4
 10
971.89812869311299
 20
647.86440296867477
 11
971.89812869311299
 21
669.86440296867113
  0
LINE
  8
_0-3_躯体と製品
  6
CONTINUOUS
 62
    4
 10
963.39812869311299
 20
669.86440296867113
 11
963.39812869311299
 21
647.86440296867477
  0
LINE
  8
_0-3_躯体と製品
  6
CONTINUOUS
 62
    4
 10
957.89812869311299
 20
647.86440296867477
 11
957.89812869311299
 21
669.86440296867113
  0
LINE
  8
_0-3_躯体と製品
  6
CONTINUOUS
 62
    4
 10
949.39812869311299
 20
669.86440296867113
 11
949.39812869311299
 21
647.86440296867477
  0
ARC
  8
_0-3_躯体と製品
  6
CONTINUOUS
 62
    4
 10
960.64812869311299
 20
647.86440296867477
 40
2.75
 50
180
 51
0
  0
ARC
  8
_0-3_躯体と製品
  6
CONTINUOUS
 62
    4
 10
960.64812869311299
 20
669.86440296867113
 40
2.75
 50
0
 51
180
  0
ARC
  8
_0-3_躯体と製品
  6
CONTINUOUS
 62
    4
 10
974.64812869311299
 20
647.86440296867477
 40
2.75
 50
180
 51
0
  0
ARC
  8
_0-3_躯体と製品
  6
CONTINUOUS
 62
    4
 10
974.64812869311299
 20
669.86440296867113
 40
2.75
 50
0
 51
180
  0
ARC
  8
_0-3_躯体と製品
  6
CONTINUOUS
 62
    4
 10
946.64812869311299
 20
728.86440296867295
 40
2.75
 50
180
 51
0
  0
ARC
  8
_0-3_躯体と製品
  6
CONTINUOUS
 62
    4
 10
946.64812869311299
 20
682.36440296867295
 40
2.75
 50
180
 51
0
  0
ARC
  8
_0-3_躯体と製品
  6
CONTINUOUS
 62
    4
 10
946.64812869311299
 20
704.36440296867113
 40
2.75
 50
0
 51
180
  0
ARC
  8
_0-3_躯体と製品
  6
CONTINUOUS
 62
    4
 10
946.64812869311299
 20
750.86440296867113
 40
2.75
 50
0
 51
180
  0
ARC
  8
_0-3_躯体と製品
  6
CONTINUOUS
 62
    4
 10
946.64812869311299
 20
763.36440296867295
 40
2.75
 50
180
 51
0
  0
ARC
  8
_0-3_躯体と製品
  6
CONTINUOUS
 62
    4
 10
946.64812869311299
 20
785.36440296867113
 40
2.75
 50
0
 51
180
  0
LINE
  8
_0-3_躯体と製品
  6
CONTINUOUS
 62
    4
 10
907.39812869311299
 20
728.86440296867295
 11
907.39812869311299
 21
750.86440296867113
  0
LINE
  8
_0-3_躯体と製品
  6
CONTINUOUS
 62
    4
 10
901.89812869311299
 20
750.86440296867113
 11
901.89812869311299
 21
728.86440296867295
  0
LINE
  8
_0-3_躯体と製品
  6
CONTINUOUS
 62
    4
 10
915.89812869311299
 20
750.86440296867113
 11
915.89812869311299
 21
728.86440296867295
  0
LINE
  8
_0-3_躯体と製品
  6
CONTINUOUS
 62
    4
 10
865.39812869311299
 20
728.86440296867295
 11
865.39812869311299
 21
750.86440296867113
  0
LINE
  8
_0-3_躯体と製品
  6
CONTINUOUS
 62
    4
 10
879.39812869311299
 20
728.86440296867295
 11
879.39812869311299
 21
750.86440296867113
  0
LINE
  8
_0-3_躯体と製品
  6
CONTINUOUS
 62
    4
 10
873.89812869311299
 20
750.86440296867113
 11
873.89812869311299
 21
728.86440296867295
  0
LINE
  8
_0-3_躯体と製品
  6
CONTINUOUS
 62
    4
 10
893.39812869311299
 20
728.86440296867295
 11
893.39812869311299
 21
750.86440296867113
  0
LINE
  8
_0-3_躯体と製品
  6
CONTINUOUS
 62
    4
 10
887.89812869311481
 20
750.86440296867113
 11
887.89812869311481
 21
728.86440296867295
  0
LINE
  8
_0-3_躯体と製品
  6
CONTINUOUS
 62
    4
 10
935.39812869311299
 20
728.86440296867295
 11
935.39812869311299
 21
750.86440296867113
  0
LINE
  8
_0-3_躯体と製品
  6
CONTINUOUS
 62
    4
 10
943.89812869311299
 20
750.86440296867113
 11
943.89812869311299
 21
728.86440296867295
  0
LINE
  8
_0-3_躯体と製品
  6
CONTINUOUS
 62
    4
 10
921.39812869311299
 20
728.86440296867295
 11
921.39812869311299
 21
750.86440296867113
  0
LINE
  8
_0-3_躯体と製品
  6
CONTINUOUS
 62
    4
 10
929.89812869311481
 20
750.86440296867113
 11
929.89812869311481
 21
728.86440296867295
  0
ARC
  8
_0-3_躯体と製品
  6
CONTINUOUS
 62
    4
 10
918.64812869311118
 20
728.86440296867295
 40
2.75
 50
180
 51
0
  0
ARC
  8
_0-3_躯体と製品
  6
CONTINUOUS
 62
    4
 10
918.64812869311118
 20
682.36440296867295
 40
2.75
 50
180
 51
0
  0
ARC
  8
_0-3_躯体と製品
  6
CONTINUOUS
 62
    4
 10
918.64812869311118
 20
704.36440296867113
 40
2.75
 50
0
 51
180
  0
LINE
  8
_0-3_躯体と製品
  6
CONTINUOUS
 62
    4
 10
893.39812869311299
 20
704.36440296867295
 11
893.39812869311299
 21
682.36440296867295
  0
ARC
  8
_0-3_躯体と製品
  6
CONTINUOUS
 62
    4
 10
904.64812869311299
 20
728.86440296867295
 40
2.75
 50
180
 51
0
  0
LINE
  8
_0-3_躯体と製品
  6
CONTINUOUS
 62
    4
 10
915.89812869311299
 20
682.36440296867295
 11
915.89812869311299
 21
704.36440296867113
  0
LINE
  8
_0-3_躯体と製品
  6
CONTINUOUS
 62
    4
 10
901.89812869311299
 20
682.36440296867295
 11
901.89812869311299
 21
704.36440296867113
  0
LINE
  8
_0-3_躯体と製品
  6
CONTINUOUS
 62
    4
 10
907.39812869311299
 20
704.36440296867295
 11
907.39812869311299
 21
682.36440296867295
  0
ARC
  8
_0-3_躯体と製品
  6
CONTINUOUS
 62
    4
 10
904.64812869311299
 20
682.36440296867295
 40
2.75
 50
180
 51
0
  0
ARC
  8
_0-3_躯体と製品
  6
CONTINUOUS
 62
    4
 10
904.64812869311299
 20
704.36440296867113
 40
2.75
 50
0
 51
180
  0
ARC
  8
_0-3_躯体と製品
  6
CONTINUOUS
 62
    4
 10
876.64812869311118
 20
728.86440296867295
 40
2.75
 50
180
 51
0
  0
LINE
  8
_0-3_躯体と製品
  6
CONTINUOUS
 62
    4
 10
887.89812869311481
 20
682.36440296867295
 11
887.89812869311481
 21
704.36440296867113
  0
LINE
  8
_0-3_躯体と製品
  6
CONTINUOUS
 62
    4
 10
873.89812869311299
 20
682.36440296867295
 11
873.89812869311299
 21
704.36440296867113
  0
LINE
  8
_0-3_躯体と製品
  6
CONTINUOUS
 62
    4
 10
879.39812869311299
 20
704.36440296867295
 11
879.39812869311299
 21
682.36440296867295
  0
ARC
  8
_0-3_躯体と製品
  6
CONTINUOUS
 62
    4
 10
876.64812869311118
 20
682.36440296867295
 40
2.75
 50
180
 51
0
  0
ARC
  8
_0-3_躯体と製品
  6
CONTINUOUS
 62
    4
 10
876.64812869311118
 20
704.36440296867113
 40
2.75
 50
0
 51
180
  0
LINE
  8
_0-3_躯体と製品
  6
CONTINUOUS
 62
    4
 10
865.39812869311299
 20
704.36440296867295
 11
865.39812869311299
 21
682.36440296867295
  0
ARC
  8
_0-3_躯体と製品
  6
CONTINUOUS
 62
    4
 10
890.64812869311299
 20
728.86440296867295
 40
2.75
 50
180
 51
0
  0
ARC
  8
_0-3_躯体と製品
  6
CONTINUOUS
 62
    4
 10
890.64812869311299
 20
682.36440296867295
 40
2.75
 50
180
 51
0
  0
ARC
  8
_0-3_躯体と製品
  6
CONTINUOUS
 62
    4
 10
890.64812869311299
 20
704.36440296867113
 40
2.75
 50
0
 51
180
  0
ARC
  8
_0-3_躯体と製品
  6
CONTINUOUS
 62
    4
 10
932.64812869311299
 20
728.86440296867295
 40
2.75
 50
180
 51
0
  0
LINE
  8
_0-3_躯体と製品
  6
CONTINUOUS
 62
    4
 10
943.89812869311299
 20
682.36440296867295
 11
943.89812869311299
 21
704.36440296867113
  0
LINE
  8
_0-3_躯体と製品
  6
CONTINUOUS
 62
    4
 10
935.39812869311299
 20
704.36440296867295
 11
935.39812869311299
 21
682.36440296867295
  0
LINE
  8
_0-3_躯体と製品
  6
CONTINUOUS
 62
    4
 10
929.89812869311481
 20
682.36440296867295
 11
929.89812869311481
 21
704.36440296867113
  0
LINE
  8
_0-3_躯体と製品
  6
CONTINUOUS
 62
    4
 10
921.39812869311299
 20
704.36440296867295
 11
921.39812869311299
 21
682.36440296867295
  0
ARC
  8
_0-3_躯体と製品
  6
CONTINUOUS
 62
    4
 10
932.64812869311299
 20
682.36440296867295
 40
2.75
 50
180
 51
0
  0
ARC
  8
_0-3_躯体と製品
  6
CONTINUOUS
 62
    4
 10
932.64812869311299
 20
704.36440296867113
 40
2.75
 50
0
 51
180
  0
ARC
  8
_0-3_躯体と製品
  6
CONTINUOUS
 62
    4
 10
918.64812869311118
 20
785.36440296867113
 40
2.75
 50
0
 51
180
  0
ARC
  8
_0-3_躯体と製品
  6
CONTINUOUS
 62
    4
 10
918.64812869311118
 20
750.86440296867113
 40
2.75
 50
0
 51
180
  0
ARC
  8
_0-3_躯体と製品
  6
CONTINUOUS
 62
    4
 10
918.64812869311118
 20
763.36440296867295
 40
2.75
 50
180
 51
0
  0
LINE
  8
_0-3_躯体と製品
  6
CONTINUOUS
 62
    4
 10
893.39812869311299
 20
763.36440296867295
 11
893.39812869311299
 21
785.36440296867113
  0
LINE
  8
_0-3_躯体と製品
  6
CONTINUOUS
 62
    4
 10
901.89812869311299
 20
785.36440296867113
 11
901.89812869311299
 21
763.36440296867295
  0
LINE
  8
_0-3_躯体と製品
  6
CONTINUOUS
 62
    4
 10
907.39812869311299
 20
763.36440296867295
 11
907.39812869311299
 21
785.36440296867113
  0
LINE
  8
_0-3_躯体と製品
  6
CONTINUOUS
 62
    4
 10
915.89812869311299
 20
785.36440296867113
 11
915.89812869311299
 21
763.36440296867295
  0
ARC
  8
_0-3_躯体と製品
  6
CONTINUOUS
 62
    4
 10
904.64812869311299
 20
750.86440296867113
 40
2.75
 50
0
 51
180
  0
ARC
  8
_0-3_躯体と製品
  6
CONTINUOUS
 62
    4
 10
904.64812869311299
 20
763.36440296867295
 40
2.75
 50
180
 51
0
  0
ARC
  8
_0-3_躯体と製品
  6
CONTINUOUS
 62
    4
 10
904.64812869311299
 20
785.36440296867113
 40
2.75
 50
0
 51
180
  0
LINE
  8
_0-3_躯体と製品
  6
CONTINUOUS
 62
    4
 10
865.39812869311299
 20
763.36440296867295
 11
865.39812869311299
 21
785.36440296867113
  0
LINE
  8
_0-3_躯体と製品
  6
CONTINUOUS
 62
    4
 10
873.89812869311299
 20
785.36440296867113
 11
873.89812869311299
 21
763.36440296867295
  0
LINE
  8
_0-3_躯体と製品
  6
CONTINUOUS
 62
    4
 10
879.39812869311299
 20
763.36440296867295
 11
879.39812869311299
 21
785.36440296867113
  0
LINE
  8
_0-3_躯体と製品
  6
CONTINUOUS
 62
    4
 10
887.89812869311481
 20
785.36440296867113
 11
887.89812869311481
 21
763.36440296867295
  0
ARC
  8
_0-3_躯体と製品
  6
CONTINUOUS
 62
    4
 10
876.64812869311118
 20
750.86440296867113
 40
2.75
 50
0
 51
180
  0
ARC
  8
_0-3_躯体と製品
  6
CONTINUOUS
 62
    4
 10
876.64812869311118
 20
763.36440296867295
 40
2.75
 50
180
 51
0
  0
ARC
  8
_0-3_躯体と製品
  6
CONTINUOUS
 62
    4
 10
876.64812869311118
 20
785.36440296867113
 40
2.75
 50
0
 51
180
  0
ARC
  8
_0-3_躯体と製品
  6
CONTINUOUS
 62
    4
 10
890.64812869311299
 20
750.86440296867113
 40
2.75
 50
0
 51
180
  0
ARC
  8
_0-3_躯体と製品
  6
CONTINUOUS
 62
    4
 10
890.64812869311299
 20
763.36440296867295
 40
2.75
 50
180
 51
0
  0
ARC
  8
_0-3_躯体と製品
  6
CONTINUOUS
 62
    4
 10
890.64812869311299
 20
785.36440296867113
 40
2.75
 50
0
 51
180
  0
LINE
  8
_0-3_躯体と製品
  6
CONTINUOUS
 62
    4
 10
921.39812869311299
 20
763.36440296867295
 11
921.39812869311299
 21
785.36440296867113
  0
LINE
  8
_0-3_躯体と製品
  6
CONTINUOUS
 62
    4
 10
929.89812869311481
 20
785.36440296867113
 11
929.89812869311481
 21
763.36440296867295
  0
LINE
  8
_0-3_躯体と製品
  6
CONTINUOUS
 62
    4
 10
935.39812869311299
 20
763.36440296867295
 11
935.39812869311299
 21
785.36440296867113
  0
LINE
  8
_0-3_躯体と製品
  6
CONTINUOUS
 62
    4
 10
943.89812869311299
 20
785.36440296867113
 11
943.89812869311299
 21
763.36440296867295
  0
ARC
  8
_0-3_躯体と製品
  6
CONTINUOUS
 62
    4
 10
932.64812869311299
 20
750.86440296867113
 40
2.75
 50
0
 51
180
  0
ARC
  8
_0-3_躯体と製品
  6
CONTINUOUS
 62
    4
 10
932.64812869311299
 20
763.36440296867295
 40
2.75
 50
180
 51
0
  0
ARC
  8
_0-3_躯体と製品
  6
CONTINUOUS
 62
    4
 10
932.64812869311299
 20
785.36440296867113
 40
2.75
 50
0
 51
180
  0
LINE
  8
_0-3_躯体と製品
  6
CONTINUOUS
 62
    4
 10
977.39812869311299
 20
728.86440296867295
 11
977.39812869311299
 21
750.86440296867113
  0
LINE
  8
_0-3_躯体と製品
  6
CONTINUOUS
 62
    4
 10
991.39812869311299
 20
728.86440296867295
 11
991.39812869311299
 21
750.86440296867113
  0
LINE
  8
_0-3_躯体と製品
  6
CONTINUOUS
 62
    4
 10
985.89812869311299
 20
750.86440296867113
 11
985.89812869311299
 21
728.86440296867295
  0
LINE
  8
_0-3_躯体と製品
  6
CONTINUOUS
 62
    4
 10
999.89812869311299
 20
750.86440296867113
 11
999.89812869311299
 21
728.86440296867295
  0
LINE
  8
_0-3_躯体と製品
  6
CONTINUOUS
 62
    4
 10
1019.398128693113
 20
728.86440296867295
 11
1019.398128693113
 21
750.86440296867113
  0
LINE
  8
_0-3_躯体と製品
  6
CONTINUOUS
 62
    4
 10
1027.898128693113
 20
750.86440296867113
 11
1027.898128693113
 21
728.86440296867295
  0
LINE
  8
_0-3_躯体と製品
  6
CONTINUOUS
 62
    4
 10
1005.398128693113
 20
728.86440296867295
 11
1005.398128693113
 21
750.86440296867113
  0
LINE
  8
_0-3_躯体と製品
  6
CONTINUOUS
 62
    4
 10
1013.8981286931112
 20
750.86440296867113
 11
1013.8981286931112
 21
728.86440296867295
  0
LINE
  8
_0-3_躯体と製品
  6
CONTINUOUS
 62
    4
 10
949.39812869311299
 20
728.86440296867295
 11
949.39812869311299
 21
750.86440296867113
  0
LINE
  8
_0-3_躯体と製品
  6
CONTINUOUS
 62
    4
 10
963.39812869311299
 20
728.86440296867295
 11
963.39812869311299
 21
750.86440296867113
  0
LINE
  8
_0-3_躯体と製品
  6
CONTINUOUS
 62
    4
 10
957.89812869311299
 20
750.86440296867113
 11
957.89812869311299
 21
728.86440296867295
  0
LINE
  8
_0-3_躯体と製品
  6
CONTINUOUS
 62
    4
 10
971.89812869311299
 20
750.86440296867113
 11
971.89812869311299
 21
728.86440296867295
  0
ARC
  8
_0-3_躯体と製品
  6
CONTINUOUS
 62
    4
 10
1002.648128693113
 20
728.86440296867295
 40
2.75
 50
180
 51
0
  0
ARC
  8
_0-3_躯体と製品
  6
CONTINUOUS
 62
    4
 10
1002.648128693113
 20
682.36440296867295
 40
2.75
 50
180
 51
0
  0
ARC
  8
_0-3_躯体と製品
  6
CONTINUOUS
 62
    4
 10
1002.648128693113
 20
704.36440296867113
 40
2.75
 50
0
 51
180
  0
ARC
  8
_0-3_躯体と製品
  6
CONTINUOUS
 62
    4
 10
988.64812869311299
 20
728.86440296867295
 40
2.75
 50
180
 51
0
  0
LINE
  8
_0-3_躯体と製品
  6
CONTINUOUS
 62
    4
 10
999.89812869311299
 20
682.36440296867295
 11
999.89812869311299
 21
704.36440296867113
  0
LINE
  8
_0-3_躯体と製品
  6
CONTINUOUS
 62
    4
 10
985.89812869311299
 20
682.36440296867295
 11
985.89812869311299
 21
704.36440296867113
  0
LINE
  8
_0-3_躯体と製品
  6
CONTINUOUS
 62
    4
 10
991.39812869311299
 20
704.36440296867295
 11
991.39812869311299
 21
682.36440296867295
  0
ARC
  8
_0-3_躯体と製品
  6
CONTINUOUS
 62
    4
 10
988.64812869311299
 20
682.36440296867295
 40
2.75
 50
180
 51
0
  0
ARC
  8
_0-3_躯体と製品
  6
CONTINUOUS
 62
    4
 10
988.64812869311299
 20
704.36440296867113
 40
2.75
 50
0
 51
180
  0
LINE
  8
_0-3_躯体と製品
  6
CONTINUOUS
 62
    4
 10
977.39812869311299
 20
704.36440296867295
 11
977.39812869311299
 21
682.36440296867295
  0
ARC
  8
_0-3_躯体と製品
  6
CONTINUOUS
 62
    4
 10
1016.648128693113
 20
728.86440296867295
 40
2.75
 50
180
 51
0
  0
LINE
  8
_0-3_躯体と製品
  6
CONTINUOUS
 62
    4
 10
1027.898128693113
 20
682.36440296867295
 11
1027.898128693113
 21
704.36440296867113
  0
LINE
  8
_0-3_躯体と製品
  6
CONTINUOUS
 62
    4
 10
1019.398128693113
 20
704.36440296867295
 11
1019.398128693113
 21
682.36440296867295
  0
LINE
  8
_0-3_躯体と製品
  6
CONTINUOUS
 62
    4
 10
1013.8981286931112
 20
682.36440296867295
 11
1013.8981286931112
 21
704.36440296867113
  0
LINE
  8
_0-3_躯体と製品
  6
CONTINUOUS
 62
    4
 10
1005.398128693113
 20
704.36440296867295
 11
1005.398128693113
 21
682.36440296867295
  0
ARC
  8
_0-3_躯体と製品
  6
CONTINUOUS
 62
    4
 10
1016.648128693113
 20
682.36440296867295
 40
2.75
 50
180
 51
0
  0
ARC
  8
_0-3_躯体と製品
  6
CONTINUOUS
 62
    4
 10
1016.648128693113
 20
704.36440296867113
 40
2.75
 50
0
 51
180
  0
ARC
  8
_0-3_躯体と製品
  6
CONTINUOUS
 62
    4
 10
960.64812869311299
 20
728.86440296867295
 40
2.75
 50
180
 51
0
  0
LINE
  8
_0-3_躯体と製品
  6
CONTINUOUS
 62
    4
 10
971.89812869311299
 20
682.36440296867295
 11
971.89812869311299
 21
704.36440296867113
  0
LINE
  8
_0-3_躯体と製品
  6
CONTINUOUS
 62
    4
 10
957.89812869311299
 20
682.36440296867295
 11
957.89812869311299
 21
704.36440296867113
  0
LINE
  8
_0-3_躯体と製品
  6
CONTINUOUS
 62
    4
 10
963.39812869311299
 20
704.36440296867295
 11
963.39812869311299
 21
682.36440296867295
  0
ARC
  8
_0-3_躯体と製品
  6
CONTINUOUS
 62
    4
 10
960.64812869311299
 20
682.36440296867295
 40
2.75
 50
180
 51
0
  0
ARC
  8
_0-3_躯体と製品
  6
CONTINUOUS
 62
    4
 10
960.64812869311299
 20
704.36440296867113
 40
2.75
 50
0
 51
180
  0
LINE
  8
_0-3_躯体と製品
  6
CONTINUOUS
 62
    4
 10
949.39812869311299
 20
704.36440296867295
 11
949.39812869311299
 21
682.36440296867295
  0
ARC
  8
_0-3_躯体と製品
  6
CONTINUOUS
 62
    4
 10
974.64812869311299
 20
728.86440296867295
 40
2.75
 50
180
 51
0
  0
ARC
  8
_0-3_躯体と製品
  6
CONTINUOUS
 62
    4
 10
974.64812869311299
 20
682.36440296867295
 40
2.75
 50
180
 51
0
  0
ARC
  8
_0-3_躯体と製品
  6
CONTINUOUS
 62
    4
 10
974.64812869311299
 20
704.36440296867113
 40
2.75
 50
0
 51
180
  0
LINE
  8
_0-3_躯体と製品
  6
CONTINUOUS
 62
    4
 10
977.39812869311299
 20
763.36440296867295
 11
977.39812869311299
 21
785.36440296867113
  0
LINE
  8
_0-3_躯体と製品
  6
CONTINUOUS
 62
    4
 10
985.89812869311299
 20
785.36440296867113
 11
985.89812869311299
 21
763.36440296867295
  0
LINE
  8
_0-3_躯体と製品
  6
CONTINUOUS
 62
    4
 10
991.39812869311299
 20
763.36440296867295
 11
991.39812869311299
 21
785.36440296867113
  0
LINE
  8
_0-3_躯体と製品
  6
CONTINUOUS
 62
    4
 10
999.89812869311299
 20
785.36440296867113
 11
999.89812869311299
 21
763.36440296867295
  0
LINE
  8
_0-3_躯体と製品
  6
CONTINUOUS
 62
    4
 10
1005.398128693113
 20
763.36440296867295
 11
1005.398128693113
 21
785.36440296867113
  0
LINE
  8
_0-3_躯体と製品
  6
CONTINUOUS
 62
    4
 10
1013.8981286931112
 20
785.36440296867113
 11
1013.8981286931112
 21
763.36440296867295
  0
LINE
  8
_0-3_躯体と製品
  6
CONTINUOUS
 62
    4
 10
1019.398128693113
 20
763.36440296867295
 11
1019.398128693113
 21
785.36440296867113
  0
LINE
  8
_0-3_躯体と製品
  6
CONTINUOUS
 62
    4
 10
1027.898128693113
 20
785.36440296867113
 11
1027.898128693113
 21
763.36440296867295
  0
ARC
  8
_0-3_躯体と製品
  6
CONTINUOUS
 62
    4
 10
1002.648128693113
 20
750.86440296867113
 40
2.75
 50
0
 51
180
  0
ARC
  8
_0-3_躯体と製品
  6
CONTINUOUS
 62
    4
 10
1002.648128693113
 20
763.36440296867295
 40
2.75
 50
180
 51
0
  0
ARC
  8
_0-3_躯体と製品
  6
CONTINUOUS
 62
    4
 10
988.64812869311299
 20
750.86440296867113
 40
2.75
 50
0
 51
180
  0
ARC
  8
_0-3_躯体と製品
  6
CONTINUOUS
 62
    4
 10
988.64812869311299
 20
763.36440296867295
 40
2.75
 50
180
 51
0
  0
ARC
  8
_0-3_躯体と製品
  6
CONTINUOUS
 62
    4
 10
1016.648128693113
 20
750.86440296867113
 40
2.75
 50
0
 51
180
  0
ARC
  8
_0-3_躯体と製品
  6
CONTINUOUS
 62
    4
 10
1016.648128693113
 20
763.36440296867295
 40
2.75
 50
180
 51
0
  0
ARC
  8
_0-3_躯体と製品
  6
CONTINUOUS
 62
    4
 10
1002.648128693113
 20
785.36440296867113
 40
2.75
 50
0
 51
180
  0
ARC
  8
_0-3_躯体と製品
  6
CONTINUOUS
 62
    4
 10
988.64812869311299
 20
785.36440296867113
 40
2.75
 50
0
 51
180
  0
ARC
  8
_0-3_躯体と製品
  6
CONTINUOUS
 62
    4
 10
1016.648128693113
 20
785.36440296867113
 40
2.75
 50
0
 51
180
  0
LINE
  8
_0-3_躯体と製品
  6
CONTINUOUS
 62
    4
 10
949.39812869311299
 20
763.36440296867295
 11
949.39812869311299
 21
785.36440296867113
  0
LINE
  8
_0-3_躯体と製品
  6
CONTINUOUS
 62
    4
 10
957.89812869311299
 20
785.36440296867113
 11
957.89812869311299
 21
763.36440296867295
  0
LINE
  8
_0-3_躯体と製品
  6
CONTINUOUS
 62
    4
 10
963.39812869311299
 20
763.36440296867295
 11
963.39812869311299
 21
785.36440296867113
  0
LINE
  8
_0-3_躯体と製品
  6
CONTINUOUS
 62
    4
 10
971.89812869311299
 20
785.36440296867113
 11
971.89812869311299
 21
763.36440296867295
  0
ARC
  8
_0-3_躯体と製品
  6
CONTINUOUS
 62
    4
 10
960.64812869311299
 20
750.86440296867113
 40
2.75
 50
0
 51
180
  0
ARC
  8
_0-3_躯体と製品
  6
CONTINUOUS
 62
    4
 10
960.64812869311299
 20
763.36440296867295
 40
2.75
 50
180
 51
0
  0
ARC
  8
_0-3_躯体と製品
  6
CONTINUOUS
 62
    4
 10
960.64812869311299
 20
785.36440296867113
 40
2.75
 50
0
 51
180
  0
ARC
  8
_0-3_躯体と製品
  6
CONTINUOUS
 62
    4
 10
974.64812869311299
 20
750.86440296867113
 40
2.75
 50
0
 51
180
  0
ARC
  8
_0-3_躯体と製品
  6
CONTINUOUS
 62
    4
 10
974.64812869311299
 20
763.36440296867295
 40
2.75
 50
180
 51
0
  0
ARC
  8
_0-3_躯体と製品
  6
CONTINUOUS
 62
    4
 10
974.64812869311299
 20
785.36440296867113
 40
2.75
 50
0
 51
180
  0
ARC
  8
_0-3_躯体と製品
  6
CONTINUOUS
 62
    4
 10
1142.6311286931059
 20
676.11440296867477
 40
3
 50
90.000002999880451
 51
269.99999700011944
  0
ARC
  8
_0-3_躯体と製品
  6
CONTINUOUS
 62
    4
 10
1151.6311286931059
 20
676.11440296867477
 40
3
 50
269.99999700011949
 51
90.000002999880479
  0
LINE
  8
_0-3_躯体と製品
  6
CONTINUOUS
 62
    4
 10
1055.898128693113
 20
647.86440296867477
 11
1055.898128693113
 21
669.86440296867113
  0
LINE
  8
_0-3_躯体と製品
  6
CONTINUOUS
 62
    4
 10
1103.398128693113
 20
669.86440296867113
 11
1103.398128693113
 21
647.86440296867477
  0
LINE
  8
_0-3_躯体と製品
  6
CONTINUOUS
 62
    4
 10
1097.898128693113
 20
647.86440296867477
 11
1097.898128693113
 21
669.86440296867113
  0
LINE
  8
_0-3_躯体と製品
  6
CONTINUOUS
 62
    4
 10
1089.398128693113
 20
669.86440296867113
 11
1089.398128693113
 21
647.86440296867477
  0
LINE
  8
_0-3_躯体と製品
  6
CONTINUOUS
 62
    4
 10
1083.898128693113
 20
647.86440296867477
 11
1083.898128693113
 21
669.86440296867113
  0
LINE
  8
_0-3_躯体と製品
  6
CONTINUOUS
 62
    4
 10
1075.3981286931148
 20
669.86440296867113
 11
1075.3981286931148
 21
647.86440296867477
  0
LINE
  8
_0-3_躯体と製品
  6
CONTINUOUS
 62
    4
 10
1069.898128693113
 20
647.86440296867477
 11
1069.898128693113
 21
669.86440296867113
  0
LINE
  8
_0-3_躯体と製品
  6
CONTINUOUS
 62
    4
 10
1061.398128693113
 20
669.86440296867113
 11
1061.398128693113
 21
647.86440296867477
  0
ARC
  8
_0-3_躯体と製品
  6
CONTINUOUS
 62
    4
 10
1086.648128693113
 20
647.86440296867477
 40
2.75
 50
180
 51
0
  0
ARC
  8
_0-3_躯体と製品
  6
CONTINUOUS
 62
    4
 10
1058.648128693113
 20
647.86440296867477
 40
2.75
 50
180
 51
0
  0
ARC
  8
_0-3_躯体と製品
  6
CONTINUOUS
 62
    4
 10
1072.648128693113
 20
647.86440296867477
 40
2.75
 50
180
 51
0
  0
ARC
  8
_0-3_躯体と製品
  6
CONTINUOUS
 62
    4
 10
1100.648128693113
 20
647.86440296867477
 40
2.75
 50
180
 51
0
  0
ARC
  8
_0-3_躯体と製品
  6
CONTINUOUS
 62
    4
 10
1086.648128693113
 20
669.86440296867113
 40
2.75
 50
0
 51
180
  0
ARC
  8
_0-3_躯体と製品
  6
CONTINUOUS
 62
    4
 10
1058.648128693113
 20
669.86440296867113
 40
2.75
 50
0
 51
180
  0
ARC
  8
_0-3_躯体と製品
  6
CONTINUOUS
 62
    4
 10
1072.648128693113
 20
669.86440296867113
 40
2.75
 50
0
 51
180
  0
ARC
  8
_0-3_躯体と製品
  6
CONTINUOUS
 62
    4
 10
1100.648128693113
 20
669.86440296867113
 40
2.75
 50
0
 51
180
  0
LINE
  8
_0-3_躯体と製品
  6
CONTINUOUS
 62
    4
 10
1041.898128693113
 20
647.86440296867477
 11
1041.898128693113
 21
669.86440296867113
  0
LINE
  8
_0-3_躯体と製品
  6
CONTINUOUS
 62
    4
 10
1033.398128693113
 20
669.86440296867113
 11
1033.398128693113
 21
647.86440296867477
  0
LINE
  8
_0-3_躯体と製品
  6
CONTINUOUS
 62
    4
 10
1047.398128693113
 20
669.86440296867113
 11
1047.398128693113
 21
647.86440296867477
  0
ARC
  8
_0-3_躯体と製品
  6
CONTINUOUS
 62
    4
 10
1044.648128693113
 20
647.86440296867477
 40
2.75
 50
180
 51
0
  0
ARC
  8
_0-3_躯体と製品
  6
CONTINUOUS
 62
    4
 10
1044.648128693113
 20
669.86440296867113
 40
2.75
 50
0
 51
180
  0
LINE
  8
_0-3_躯体と製品
  6
CONTINUOUS
 62
    4
 10
1131.398128693113
 20
669.86440296867113
 11
1131.398128693113
 21
647.86440296867477
  0
LINE
  8
_0-3_躯体と製品
  6
CONTINUOUS
 62
    4
 10
1125.898128693113
 20
647.86440296867477
 11
1125.898128693113
 21
669.86440296867113
  0
LINE
  8
_0-3_躯体と製品
  6
CONTINUOUS
 62
    4
 10
1117.3981286931148
 20
669.86440296867113
 11
1117.3981286931148
 21
647.86440296867477
  0
LINE
  8
_0-3_躯体と製品
  6
CONTINUOUS
 62
    4
 10
1111.898128693113
 20
647.86440296867477
 11
1111.898128693113
 21
669.86440296867113
  0
ARC
  8
_0-3_躯体と製品
  6
CONTINUOUS
 62
    4
 10
1128.648128693113
 20
647.86440296867477
 40
2.75
 50
180
 51
0
  0
ARC
  8
_0-3_躯体と製品
  6
CONTINUOUS
 62
    4
 10
1114.648128693113
 20
647.86440296867477
 40
2.75
 50
180
 51
0
  0
ARC
  8
_0-3_躯体と製品
  6
CONTINUOUS
 62
    4
 10
1128.648128693113
 20
669.86440296867113
 40
2.75
 50
0
 51
180
  0
ARC
  8
_0-3_躯体と製品
  6
CONTINUOUS
 62
    4
 10
1114.648128693113
 20
669.86440296867113
 40
2.75
 50
0
 51
180
  0
LINE
  8
_0-3_躯体と製品
  6
CONTINUOUS
 62
    4
 10
1151.6311286931059
 20
673.11440296867295
 11
1142.6311286931059
 21
673.11440296867295
  0
LINE
  8
_0-3_躯体と製品
  6
CONTINUOUS
 62
    4
 10
1061.398128693113
 20
728.86440296867295
 11
1061.398128693113
 21
750.86440296867113
  0
LINE
  8
_0-3_躯体と製品
  6
CONTINUOUS
 62
    4
 10
1075.3981286931148
 20
728.86440296867295
 11
1075.3981286931148
 21
750.86440296867113
  0
LINE
  8
_0-3_躯体と製品
  6
CONTINUOUS
 62
    4
 10
1069.898128693113
 20
750.86440296867113
 11
1069.898128693113
 21
728.86440296867295
  0
LINE
  8
_0-3_躯体と製品
  6
CONTINUOUS
 62
    4
 10
1083.898128693113
 20
750.86440296867113
 11
1083.898128693113
 21
728.86440296867295
  0
LINE
  8
_0-3_躯体と製品
  6
CONTINUOUS
 62
    4
 10
1033.398128693113
 20
728.86440296867295
 11
1033.398128693113
 21
750.86440296867113
  0
LINE
  8
_0-3_躯体と製品
  6
CONTINUOUS
 62
    4
 10
1047.398128693113
 20
728.86440296867295
 11
1047.398128693113
 21
750.86440296867113
  0
LINE
  8
_0-3_躯体と製品
  6
CONTINUOUS
 62
    4
 10
1041.898128693113
 20
750.86440296867113
 11
1041.898128693113
 21
728.86440296867295
  0
LINE
  8
_0-3_躯体と製品
  6
CONTINUOUS
 62
    4
 10
1055.898128693113
 20
750.86440296867113
 11
1055.898128693113
 21
728.86440296867295
  0
LINE
  8
_0-3_躯体と製品
  6
CONTINUOUS
 62
    4
 10
1103.398128693113
 20
728.86440296867295
 11
1103.398128693113
 21
750.86440296867113
  0
LINE
  8
_0-3_躯体と製品
  6
CONTINUOUS
 62
    4
 10
1089.398128693113
 20
728.86440296867295
 11
1089.398128693113
 21
750.86440296867113
  0
LINE
  8
_0-3_躯体と製品
  6
CONTINUOUS
 62
    4
 10
1097.898128693113
 20
750.86440296867113
 11
1097.898128693113
 21
728.86440296867295
  0
ARC
  8
_0-3_躯体と製品
  6
CONTINUOUS
 62
    4
 10
1086.648128693113
 20
728.86440296867295
 40
2.75
 50
180
 51
0
  0
ARC
  8
_0-3_躯体と製品
  6
CONTINUOUS
 62
    4
 10
1086.648128693113
 20
682.36440296867295
 40
2.75
 50
180
 51
0
  0
ARC
  8
_0-3_躯体と製品
  6
CONTINUOUS
 62
    4
 10
1086.648128693113
 20
704.36440296867113
 40
2.75
 50
0
 51
180
  0
ARC
  8
_0-3_躯体と製品
  6
CONTINUOUS
 62
    4
 10
1058.648128693113
 20
728.86440296867295
 40
2.75
 50
180
 51
0
  0
ARC
  8
_0-3_躯体と製品
  6
CONTINUOUS
 62
    4
 10
1058.648128693113
 20
682.36440296867295
 40
2.75
 50
180
 51
0
  0
ARC
  8
_0-3_躯体と製品
  6
CONTINUOUS
 62
    4
 10
1058.648128693113
 20
704.36440296867113
 40
2.75
 50
0
 51
180
  0
LINE
  8
_0-3_躯体と製品
  6
CONTINUOUS
 62
    4
 10
1055.898128693113
 20
682.36440296867295
 11
1055.898128693113
 21
704.36440296867113
  0
ARC
  8
_0-3_躯体と製品
  6
CONTINUOUS
 62
    4
 10
1072.648128693113
 20
728.86440296867295
 40
2.75
 50
180
 51
0
  0
LINE
  8
_0-3_躯体と製品
  6
CONTINUOUS
 62
    4
 10
1083.898128693113
 20
682.36440296867295
 11
1083.898128693113
 21
704.36440296867113
  0
LINE
  8
_0-3_躯体と製品
  6
CONTINUOUS
 62
    4
 10
1069.898128693113
 20
682.36440296867295
 11
1069.898128693113
 21
704.36440296867113
  0
LINE
  8
_0-3_躯体と製品
  6
CONTINUOUS
 62
    4
 10
1075.3981286931148
 20
704.36440296867295
 11
1075.3981286931148
 21
682.36440296867295
  0
ARC
  8
_0-3_躯体と製品
  6
CONTINUOUS
 62
    4
 10
1072.648128693113
 20
682.36440296867295
 40
2.75
 50
180
 51
0
  0
ARC
  8
_0-3_躯体と製品
  6
CONTINUOUS
 62
    4
 10
1072.648128693113
 20
704.36440296867113
 40
2.75
 50
0
 51
180
  0
LINE
  8
_0-3_躯体と製品
  6
CONTINUOUS
 62
    4
 10
1061.398128693113
 20
704.36440296867295
 11
1061.398128693113
 21
682.36440296867295
  0
ARC
  8
_0-3_躯体と製品
  6
CONTINUOUS
 62
    4
 10
1100.648128693113
 20
728.86440296867295
 40
2.75
 50
180
 51
0
  0
LINE
  8
_0-3_躯体と製品
  6
CONTINUOUS
 62
    4
 10
1103.398128693113
 20
704.36440296867295
 11
1103.398128693113
 21
682.36440296867295
  0
LINE
  8
_0-3_躯体と製品
  6
CONTINUOUS
 62
    4
 10
1097.898128693113
 20
682.36440296867295
 11
1097.898128693113
 21
704.36440296867113
  0
LINE
  8
_0-3_躯体と製品
  6
CONTINUOUS
 62
    4
 10
1089.398128693113
 20
704.36440296867295
 11
1089.398128693113
 21
682.36440296867295
  0
ARC
  8
_0-3_躯体と製品
  6
CONTINUOUS
 62
    4
 10
1100.648128693113
 20
682.36440296867295
 40
2.75
 50
180
 51
0
  0
ARC
  8
_0-3_躯体と製品
  6
CONTINUOUS
 62
    4
 10
1100.648128693113
 20
704.36440296867113
 40
2.75
 50
0
 51
180
  0
ARC
  8
_0-3_躯体と製品
  6
CONTINUOUS
 62
    4
 10
1044.648128693113
 20
728.86440296867295
 40
2.75
 50
180
 51
0
  0
ARC
  8
_0-3_躯体と製品
  6
CONTINUOUS
 62
    4
 10
1044.648128693113
 20
682.36440296867295
 40
2.75
 50
180
 51
0
  0
ARC
  8
_0-3_躯体と製品
  6
CONTINUOUS
 62
    4
 10
1044.648128693113
 20
704.36440296867113
 40
2.75
 50
0
 51
180
  0
LINE
  8
_0-3_躯体と製品
  6
CONTINUOUS
 62
    4
 10
1041.898128693113
 20
682.36440296867295
 11
1041.898128693113
 21
704.36440296867113
  0
LINE
  8
_0-3_躯体と製品
  6
CONTINUOUS
 62
    4
 10
1033.398128693113
 20
704.36440296867295
 11
1033.398128693113
 21
682.36440296867295
  0
LINE
  8
_0-3_躯体と製品
  6
CONTINUOUS
 62
    4
 10
1047.398128693113
 20
704.36440296867295
 11
1047.398128693113
 21
682.36440296867295
  0
ARC
  8
_0-3_躯体と製品
  6
CONTINUOUS
 62
    4
 10
1086.648128693113
 20
785.36440296867113
 40
2.75
 50
0
 51
180
  0
ARC
  8
_0-3_躯体と製品
  6
CONTINUOUS
 62
    4
 10
1086.648128693113
 20
750.86440296867113
 40
2.75
 50
0
 51
180
  0
ARC
  8
_0-3_躯体と製品
  6
CONTINUOUS
 62
    4
 10
1086.648128693113
 20
763.36440296867295
 40
2.75
 50
180
 51
0
  0
LINE
  8
_0-3_躯体と製品
  6
CONTINUOUS
 62
    4
 10
1055.898128693113
 20
785.36440296867113
 11
1055.898128693113
 21
763.36440296867295
  0
LINE
  8
_0-3_躯体と製品
  6
CONTINUOUS
 62
    4
 10
1061.398128693113
 20
763.36440296867295
 11
1061.398128693113
 21
785.36440296867113
  0
LINE
  8
_0-3_躯体と製品
  6
CONTINUOUS
 62
    4
 10
1069.898128693113
 20
785.36440296867113
 11
1069.898128693113
 21
763.36440296867295
  0
LINE
  8
_0-3_躯体と製品
  6
CONTINUOUS
 62
    4
 10
1075.3981286931148
 20
763.36440296867295
 11
1075.3981286931148
 21
785.36440296867113
  0
LINE
  8
_0-3_躯体と製品
  6
CONTINUOUS
 62
    4
 10
1083.898128693113
 20
785.36440296867113
 11
1083.898128693113
 21
763.36440296867295
  0
ARC
  8
_0-3_躯体と製品
  6
CONTINUOUS
 62
    4
 10
1058.648128693113
 20
750.86440296867113
 40
2.75
 50
0
 51
180
  0
ARC
  8
_0-3_躯体と製品
  6
CONTINUOUS
 62
    4
 10
1058.648128693113
 20
763.36440296867295
 40
2.75
 50
180
 51
0
  0
ARC
  8
_0-3_躯体と製品
  6
CONTINUOUS
 62
    4
 10
1072.648128693113
 20
750.86440296867113
 40
2.75
 50
0
 51
180
  0
ARC
  8
_0-3_躯体と製品
  6
CONTINUOUS
 62
    4
 10
1072.648128693113
 20
763.36440296867295
 40
2.75
 50
180
 51
0
  0
ARC
  8
_0-3_躯体と製品
  6
CONTINUOUS
 62
    4
 10
1058.648128693113
 20
785.36440296867113
 40
2.75
 50
0
 51
180
  0
ARC
  8
_0-3_躯体と製品
  6
CONTINUOUS
 62
    4
 10
1072.648128693113
 20
785.36440296867113
 40
2.75
 50
0
 51
180
  0
LINE
  8
_0-3_躯体と製品
  6
CONTINUOUS
 62
    4
 10
1089.398128693113
 20
763.36440296867295
 11
1089.398128693113
 21
785.36440296867113
  0
LINE
  8
_0-3_躯体と製品
  6
CONTINUOUS
 62
    4
 10
1097.898128693113
 20
785.36440296867113
 11
1097.898128693113
 21
763.36440296867295
  0
LINE
  8
_0-3_躯体と製品
  6
CONTINUOUS
 62
    4
 10
1103.398128693113
 20
763.36440296867295
 11
1103.398128693113
 21
785.36440296867113
  0
ARC
  8
_0-3_躯体と製品
  6
CONTINUOUS
 62
    4
 10
1100.648128693113
 20
750.86440296867113
 40
2.75
 50
0
 51
180
  0
ARC
  8
_0-3_躯体と製品
  6
CONTINUOUS
 62
    4
 10
1100.648128693113
 20
763.36440296867295
 40
2.75
 50
180
 51
0
  0
ARC
  8
_0-3_躯体と製品
  6
CONTINUOUS
 62
    4
 10
1100.648128693113
 20
785.36440296867113
 40
2.75
 50
0
 51
180
  0
LINE
  8
_0-3_躯体と製品
  6
CONTINUOUS
 62
    4
 10
1033.398128693113
 20
763.36440296867295
 11
1033.398128693113
 21
785.36440296867113
  0
LINE
  8
_0-3_躯体と製品
  6
CONTINUOUS
 62
    4
 10
1041.898128693113
 20
785.36440296867113
 11
1041.898128693113
 21
763.36440296867295
  0
LINE
  8
_0-3_躯体と製品
  6
CONTINUOUS
 62
    4
 10
1047.398128693113
 20
763.36440296867295
 11
1047.398128693113
 21
785.36440296867113
  0
ARC
  8
_0-3_躯体と製品
  6
CONTINUOUS
 62
    4
 10
1044.648128693113
 20
750.86440296867113
 40
2.75
 50
0
 51
180
  0
ARC
  8
_0-3_躯体と製品
  6
CONTINUOUS
 62
    4
 10
1044.648128693113
 20
763.36440296867295
 40
2.75
 50
180
 51
0
  0
ARC
  8
_0-3_躯体と製品
  6
CONTINUOUS
 62
    4
 10
1044.648128693113
 20
785.36440296867113
 40
2.75
 50
0
 51
180
  0
LINE
  8
_0-3_躯体と製品
  6
CONTINUOUS
 62
    4
 10
1117.3981286931148
 20
728.86440296867295
 11
1117.3981286931148
 21
750.86440296867113
  0
LINE
  8
_0-3_躯体と製品
  6
CONTINUOUS
 62
    4
 10
1111.898128693113
 20
750.86440296867113
 11
1111.898128693113
 21
728.86440296867295
  0
LINE
  8
_0-3_躯体と製品
  6
CONTINUOUS
 62
    4
 10
1131.398128693113
 20
728.86440296867295
 11
1131.398128693113
 21
750.86440296867113
  0
LINE
  8
_0-3_躯体と製品
  6
CONTINUOUS
 62
    4
 10
1125.898128693113
 20
750.86440296867113
 11
1125.898128693113
 21
728.86440296867295
  0
ARC
  8
_0-3_躯体と製品
  6
CONTINUOUS
 62
    4
 10
1114.648128693113
 20
728.86440296867295
 40
2.75
 50
180
 51
0
  0
ARC
  8
_0-3_躯体と製品
  6
CONTINUOUS
 62
    4
 10
1128.648128693113
 20
728.86440296867295
 40
2.75
 50
180
 51
0
  0
LINE
  8
_0-3_躯体と製品
  6
CONTINUOUS
 62
    4
 10
1125.898128693113
 20
682.36440296867295
 11
1125.898128693113
 21
704.36440296867113
  0
LINE
  8
_0-3_躯体と製品
  6
CONTINUOUS
 62
    4
 10
1131.398128693113
 20
704.36440296867295
 11
1131.398128693113
 21
682.36440296867295
  0
ARC
  8
_0-3_躯体と製品
  6
CONTINUOUS
 62
    4
 10
1128.648128693113
 20
682.36440296867295
 40
2.75
 50
180
 51
0
  0
ARC
  8
_0-3_躯体と製品
  6
CONTINUOUS
 62
    4
 10
1128.648128693113
 20
704.36440296867113
 40
2.75
 50
0
 51
180
  0
LINE
  8
_0-3_躯体と製品
  6
CONTINUOUS
 62
    4
 10
1111.898128693113
 20
682.36440296867295
 11
1111.898128693113
 21
704.36440296867113
  0
LINE
  8
_0-3_躯体と製品
  6
CONTINUOUS
 62
    4
 10
1117.3981286931148
 20
704.36440296867295
 11
1117.3981286931148
 21
682.36440296867295
  0
ARC
  8
_0-3_躯体と製品
  6
CONTINUOUS
 62
    4
 10
1114.648128693113
 20
682.36440296867295
 40
2.75
 50
180
 51
0
  0
ARC
  8
_0-3_躯体と製品
  6
CONTINUOUS
 62
    4
 10
1114.648128693113
 20
704.36440296867113
 40
2.75
 50
0
 51
180
  0
LINE
  8
_0-3_躯体と製品
  6
CONTINUOUS
 62
    4
 10
1142.6311286931059
 20
679.11440296867477
 11
1151.6311286931059
 21
679.11440296867477
  0
ARC
  8
_0-3_躯体と製品
  6
CONTINUOUS
 62
    4
 10
1142.6311286931059
 20
757.11440296867295
 40
3
 50
90.000002999880451
 51
269.99999700011944
  0
LINE
  8
_0-3_躯体と製品
  6
CONTINUOUS
 62
    4
 10
1111.898128693113
 20
785.36440296867113
 11
1111.898128693113
 21
763.36440296867295
  0
LINE
  8
_0-3_躯体と製品
  6
CONTINUOUS
 62
    4
 10
1117.3981286931148
 20
763.36440296867295
 11
1117.3981286931148
 21
785.36440296867113
  0
LINE
  8
_0-3_躯体と製品
  6
CONTINUOUS
 62
    4
 10
1125.898128693113
 20
785.36440296867113
 11
1125.898128693113
 21
763.36440296867295
  0
LINE
  8
_0-3_躯体と製品
  6
CONTINUOUS
 62
    4
 10
1131.398128693113
 20
763.36440296867295
 11
1131.398128693113
 21
785.36440296867113
  0
ARC
  8
_0-3_躯体と製品
  6
CONTINUOUS
 62
    4
 10
1114.648128693113
 20
750.86440296867113
 40
2.75
 50
0
 51
180
  0
ARC
  8
_0-3_躯体と製品
  6
CONTINUOUS
 62
    4
 10
1114.648128693113
 20
763.36440296867295
 40
2.75
 50
180
 51
0
  0
ARC
  8
_0-3_躯体と製品
  6
CONTINUOUS
 62
    4
 10
1128.648128693113
 20
750.86440296867113
 40
2.75
 50
0
 51
180
  0
ARC
  8
_0-3_躯体と製品
  6
CONTINUOUS
 62
    4
 10
1128.648128693113
 20
763.36440296867295
 40
2.75
 50
180
 51
0
  0
ARC
  8
_0-3_躯体と製品
  6
CONTINUOUS
 62
    4
 10
1114.648128693113
 20
785.36440296867113
 40
2.75
 50
0
 51
180
  0
ARC
  8
_0-3_躯体と製品
  6
CONTINUOUS
 62
    4
 10
1128.648128693113
 20
785.36440296867113
 40
2.75
 50
0
 51
180
  0
LINE
  8
_0-3_躯体と製品
  6
CONTINUOUS
 62
    4
 10
1151.6311286931059
 20
754.11440296867295
 11
1142.6311286931059
 21
754.11440296867295
  0
LINE
  8
_0-3_躯体と製品
  6
CONTINUOUS
 62
    4
 10
1142.6311286931059
 20
760.11440296867295
 11
1151.6311286931059
 21
760.11440296867295
  0
ARC
  8
_0-3_躯体と製品
  6
CONTINUOUS
 62
    4
 10
1151.6311286931059
 20
757.11440296867295
 40
3
 50
269.99999700011949
 51
90.000002999880479
  0
CIRCLE
  8
_0-3_躯体と製品
  6
CONTINUOUS
 62
    4
 10
189.64812869311118
 20
626.61440296867113
 40
2.1000000000000001
  0
CIRCLE
  8
_0-3_躯体と製品
  6
CONTINUOUS
 62
    4
 10
189.64812869311118
 20
626.61440296867113
 40
4.5
  0
CIRCLE
  8
_0-3_躯体と製品
  6
CONTINUOUS
 62
    4
 10
189.64812869311118
 20
806.61440296867295
 40
4.5
  0
CIRCLE
  8
_0-3_躯体と製品
  6
CONTINUOUS
 62
    4
 10
189.64812869311118
 20
806.61440296867295
 40
2.1000000000000001
  0
CIRCLE
  8
_0-3_躯体と製品
  6
CONTINUOUS
 62
    4
 10
659.6481286931139
 20
626.61440296867113
 40
4.5
  0
CIRCLE
  8
_0-3_躯体と製品
  6
CONTINUOUS
 62
    4
 10
659.6481286931139
 20
626.61440296867113
 40
2.1000000000000001
  0
CIRCLE
  8
_0-3_躯体と製品
  6
CONTINUOUS
 62
    4
 10
659.6481286931139
 20
806.61440296867295
 40
2.1000000000000001
  0
CIRCLE
  8
_0-3_躯体と製品
  6
CONTINUOUS
 62
    4
 10
659.6481286931139
 20
806.61440296867295
 40
4.5
  0
CIRCLE
  8
_0-3_躯体と製品
  6
CONTINUOUS
 62
    4
 10
1129.648128693113
 20
626.61440296867113
 40
4.5
  0
CIRCLE
  8
_0-3_躯体と製品
  6
CONTINUOUS
 62
    4
 10
1129.648128693113
 20
626.61440296867113
 40
2.1000000000000001
  0
CIRCLE
  8
_0-3_躯体と製品
  6
CONTINUOUS
 62
    4
 10
1129.648128693113
 20
806.61440296867295
 40
2.1000000000000001
  0
CIRCLE
  8
_0-3_躯体と製品
  6
CONTINUOUS
 62
    4
 10
1129.648128693113
 20
806.61440296867295
 40
4.5
  0
CIRCLE
  8
_0-3_躯体と製品
  6
CONTINUOUS
 62
    4
 10
1149.1311286931059
 20
676.11440296867477
 40
2.5
  0
CIRCLE
  8
_0-3_躯体と製品
  6
CONTINUOUS
 62
    4
 10
1149.1311286931059
 20
757.11440296867295
 40
2.5
  0
LINE
  8
_0-3_躯体と製品
  6
CONTINUOUS
 62
    4
 10
36.915148311385565
 20
798.61430296867366
 11
26.915248311389405
 21
798.61430296867366
  0
LINE
  8
_0-3_躯体と製品
  6
CONTINUOUS
 62
    3
 10
33.915148311385565
 20
796.11440296867295
 11
33.915148311385565
 21
718.11440296867295
  0
LINE
  8
_0-3_躯体と製品
  6
CONTINUOUS
 62
    3
 10
33.915148311385565
 20
718.11440296867295
 11
35.415148311385565
 21
718.11440296867295
  0
LINE
  8
_0-3_躯体と製品
  6
CONTINUOUS
 62
    3
 10
35.415148311385565
 20
718.11440296867295
 11
35.415148311385565
 21
796.11440296867295
  0
LINE
  8
_0-3_躯体と製品
  6
CONTINUOUS
 62
    3
 10
35.415148311385565
 20
796.11440296867295
 11
33.915148311385565
 21
796.11440296867295
  0
LINE
  8
_0-3_躯体と製品
  6
CONTINUOUS
 62
    3
 10
33.915148311385565
 20
718.11440296867295
 11
33.915148311385565
 21
796.11440296867295
  0
LINE
  8
_0-3_躯体と製品
  6
CONTINUOUS
 62
    3
 10
35.415148311385565
 20
796.11440296867295
 11
35.415148311385565
 21
718.11440296867295
  0
LINE
  8
_0-3_躯体と製品
  6
CONTINUOUS
 62
    4
 10
39.416248311379604
 20
816.61430296867184
 11
39.416248311379604
 21
716.61440296867295
  0
LINE
  8
_0-3_躯体と製品
  6
CONTINUOUS
 62
    4
 10
36.416248311379604
 20
721.11440296867477
 11
36.416248311379604
 21
793.11440296867295
  0
LINE
  8
_0-3_躯体と製品
  6
CONTINUOUS
 62
    4
 10
35.415148311385565
 20
718.11440296867295
 11
33.915148311385565
 21
718.11440296867295
  0
LINE
  8
_0-3_躯体と製品
  6
CONTINUOUS
 62
    4
 10
35.915248311389405
 20
717.61430296867184
 11
35.915248311389405
 21
720.61430296867184
  0
LINE
  8
_0-3_躯体と製品
  6
CONTINUOUS
 62
    4
 10
35.915248311389405
 20
720.61430296867184
 11
36.416248311379604
 21
721.11440296867477
  0
LINE
  8
_0-3_躯体と製品
  6
CONTINUOUS
 62
    4
 10
39.416248311379604
 20
616.61450296867406
 11
39.416248311379604
 21
716.61440296867295
  0
LINE
  8
_0-3_躯体と製品
  6
CONTINUOUS
 62
    4
 10
24.915148311385565
 20
716.61440296867295
 11
24.915148311385565
 21
720.61430296867184
  0
LINE
  8
_0-3_躯体と製品
  6
CONTINUOUS
 62
    4
 10
31.916248311379604
 20
720.61430296867184
 11
33.416248311379604
 21
720.61430296867184
  0
LINE
  8
_0-3_躯体と製品
  6
CONTINUOUS
 62
    4
 10
24.915148311385565
 20
720.61430296867184
 11
26.915248311389405
 21
720.61430296867184
  0
LINE
  8
_0-3_躯体と製品
  6
CONTINUOUS
 62
    4
 10
26.915248311389405
 20
720.61430296867184
 11
26.915248311389405
 21
717.61430296867184
  0
LINE
  8
_0-3_躯体と製品
  6
CONTINUOUS
 62
    4
 10
26.915248311389405
 20
717.61430296867184
 11
31.916248311379604
 21
717.61430296867184
  0
LINE
  8
_0-3_躯体と製品
  6
CONTINUOUS
 62
    4
 10
31.916248311379604
 20
717.61430296867184
 11
31.916248311379604
 21
720.61430296867184
  0
LINE
  8
_0-3_躯体と製品
  6
CONTINUOUS
 62
    4
 10
33.416248311379604
 20
720.61430296867184
 11
33.416248311379604
 21
717.61430296867184
  0
LINE
  8
_0-3_躯体と製品
  6
CONTINUOUS
 62
    4
 10
31.916248311379604
 20
712.61420296867254
 11
33.416248311379604
 21
712.61420296867254
  0
LINE
  8
_0-3_躯体と製品
  6
CONTINUOUS
 62
    4
 10
24.915148311385565
 20
716.61440296867295
 11
24.915148311385565
 21
712.61420296867254
  0
LINE
  8
_0-3_躯体と製品
  6
CONTINUOUS
 62
    4
 10
24.915148311385565
 20
712.61420296867254
 11
26.915248311389405
 21
712.61420296867254
  0
LINE
  8
_0-3_躯体と製品
  6
CONTINUOUS
 62
    4
 10
26.915248311389405
 20
712.61420296867254
 11
26.915248311389405
 21
715.61420296867254
  0
LINE
  8
_0-3_躯体と製品
  6
CONTINUOUS
 62
    4
 10
26.915248311389405
 20
715.61420296867254
 11
31.916248311379604
 21
715.61420296867254
  0
LINE
  8
_0-3_躯体と製品
  6
CONTINUOUS
 62
    4
 10
31.916248311379604
 20
715.61420296867254
 11
31.916248311379604
 21
712.61420296867254
  0
LINE
  8
_0-3_躯体と製品
  6
CONTINUOUS
 62
    4
 10
33.416248311379604
 20
712.61420296867254
 11
33.416248311379604
 21
715.61420296867254
  0
LINE
  8
_0-3_躯体と製品
  6
CONTINUOUS
 62
    4
 10
33.416248311379604
 20
717.61430296867184
 11
35.915248311389405
 21
717.61430296867184
  0
LINE
  8
_0-3_躯体と製品
  6
CONTINUOUS
 62
    4
 10
33.416248311379604
 20
715.61420296867254
 11
35.915248311389405
 21
715.61420296867254
  0
LINE
  8
_0-3_躯体と製品
  6
CONTINUOUS
 62
    4
 10
24.915148311385565
 20
815.81030296867357
 11
24.915148311385565
 21
797.60330296867323
  0
LINE
  8
_0-3_躯体と製品
  6
CONTINUOUS
 62
    4
 10
33.915148311385565
 20
796.11440296867295
 11
35.415148311385565
 21
796.11440296867295
  0
LINE
  8
_0-3_躯体と製品
  6
CONTINUOUS
 62
    4
 10
36.416248311379604
 20
793.11440296867295
 11
35.915248311389405
 21
793.61420296867254
  0
LINE
  8
_0-3_躯体と製品
  6
CONTINUOUS
 62
    4
 10
35.915248311389405
 20
793.61420296867254
 11
35.915248311389405
 21
796.61420296867254
  0
LINE
  8
_0-3_躯体と製品
  6
CONTINUOUS
 62
    4
 10
33.416248311379604
 20
793.61420296867254
 11
31.916248311379604
 21
793.61420296867254
  0
LINE
  8
_0-3_躯体と製品
  6
CONTINUOUS
 62
    4
 10
31.916248311379604
 20
793.61420296867254
 11
31.916248311379604
 21
796.61420296867254
  0
LINE
  8
_0-3_躯体と製品
  6
CONTINUOUS
 62
    4
 10
31.916248311379604
 20
796.61420296867254
 11
24.915148311385565
 21
796.61420296867254
  0
LINE
  8
_0-3_躯体と製品
  6
CONTINUOUS
 62
    4
 10
33.416248311379604
 20
796.61420296867254
 11
33.416248311379604
 21
793.61420296867254
  0
LINE
  8
_0-3_躯体と製品
  6
CONTINUOUS
 62
    4
 10
35.915248311389405
 20
796.61420296867254
 11
33.416248311379604
 21
796.61420296867254
  0
LINE
  8
_0-3_躯体と製品
  6
CONTINUOUS
 62
    4
 10
36.915148311385565
 20
814.61420296867254
 11
36.915148311385565
 21
798.61430296867366
  0
LINE
  8
_0-3_躯体と製品
  6
CONTINUOUS
 62
    4
 10
26.915248311389405
 20
798.61430296867366
 11
26.915248311389405
 21
814.61420296867254
  0
LINE
  8
_0-3_躯体と製品
  6
CONTINUOUS
 62
    4
 10
26.915248311389405
 20
814.61420296867254
 11
36.915148311385565
 21
814.61420296867254
  0
LINE
  8
_0-3_躯体と製品
  6
CONTINUOUS
 62
    4
 10
24.915148311385565
 20
816.61430296867184
 11
39.416248311379604
 21
816.61430296867184
  0
LINE
  8
_0-3_躯体と製品
  6
CONTINUOUS
 62
    4
 10
24.915148311385565
 20
796.61420296867254
 11
24.915148311385565
 21
816.61430296867184
  0
LINE
  8
_0-3_躯体と製品
  6
CONTINUOUS
 62
    4
 10
36.915148311385565
 20
634.61450296867588
 11
26.915248311389405
 21
634.61450296867588
  0
LINE
  8
_0-3_躯体と製品
  6
CONTINUOUS
 62
    4
 10
33.915148311385565
 20
637.11440296867113
 11
35.415148311385565
 21
637.11440296867113
  0
LINE
  8
_0-3_躯体と製品
  6
CONTINUOUS
 62
    4
 10
36.416248311379604
 20
640.11440296867113
 11
35.915248311389405
 21
639.61460296867153
  0
LINE
  8
_0-3_躯体と製品
  6
CONTINUOUS
 62
    4
 10
35.915248311389405
 20
639.61460296867153
 11
35.915248311389405
 21
636.61460296867153
  0
LINE
  8
_0-3_躯体と製品
  6
CONTINUOUS
 62
    4
 10
33.416248311379604
 20
639.61460296867153
 11
31.916248311379604
 21
639.61460296867153
  0
LINE
  8
_0-3_躯体と製品
  6
CONTINUOUS
 62
    4
 10
31.916248311379604
 20
639.61460296867153
 11
31.916248311379604
 21
636.61460296867153
  0
LINE
  8
_0-3_躯体と製品
  6
CONTINUOUS
 62
    4
 10
31.916248311379604
 20
636.61460296867153
 11
24.915148311385565
 21
636.61460296867153
  0
LINE
  8
_0-3_躯体と製品
  6
CONTINUOUS
 62
    4
 10
33.416248311379604
 20
636.61460296867153
 11
33.416248311379604
 21
639.61460296867153
  0
LINE
  8
_0-3_躯体と製品
  6
CONTINUOUS
 62
    4
 10
35.915248311389405
 20
636.61460296867153
 11
33.416248311379604
 21
636.61460296867153
  0
LINE
  8
_0-3_躯体と製品
  6
CONTINUOUS
 62
    4
 10
26.915248311389405
 20
618.61460296867335
 11
36.915148311385565
 21
618.61460296867335
  0
LINE
  8
_0-3_躯体と製品
  6
CONTINUOUS
 62
    4
 10
24.915148311385565
 20
617.41850296867779
 11
24.915148311385565
 21
635.62550296867448
  0
LINE
  8
_0-3_躯体と製品
  6
CONTINUOUS
 62
    4
 10
36.915148311385565
 20
618.61460296867335
 11
36.915148311385565
 21
634.61450296867588
  0
LINE
  8
_0-3_躯体と製品
  6
CONTINUOUS
 62
    4
 10
26.915248311389405
 20
634.61450296867588
 11
26.915248311389405
 21
618.61460296867335
  0
LINE
  8
_0-3_躯体と製品
  6
CONTINUOUS
 62
    4
 10
24.915148311385565
 20
636.61460296867153
 11
24.915148311385565
 21
616.61450296867406
  0
LINE
  8
_0-3_躯体と製品
  6
CONTINUOUS
 62
    4
 10
24.915148311385565
 20
616.61450296867406
 11
39.416248311379604
 21
616.61450296867406
  0
LINE
  8
_0-3_躯体と製品
  6
CONTINUOUS
 62
    3
 10
33.915148311385565
 20
637.11440296867113
 11
33.915148311385565
 21
715.11440296867295
  0
LINE
  8
_0-3_躯体と製品
  6
CONTINUOUS
 62
    3
 10
33.915148311385565
 20
715.11440296867295
 11
35.415148311385565
 21
715.11440296867295
  0
LINE
  8
_0-3_躯体と製品
  6
CONTINUOUS
 62
    3
 10
35.415148311385565
 20
715.11440296867295
 11
35.415148311385565
 21
637.11440296867113
  0
LINE
  8
_0-3_躯体と製品
  6
CONTINUOUS
 62
    3
 10
35.415148311385565
 20
637.11440296867113
 11
33.915148311385565
 21
637.11440296867113
  0
LINE
  8
_0-3_躯体と製品
  6
CONTINUOUS
 62
    3
 10
35.415148311385565
 20
637.11440296867113
 11
35.415148311385565
 21
715.11440296867295
  0
LINE
  8
_0-3_躯体と製品
  6
CONTINUOUS
 62
    4
 10
36.416248311379604
 20
712.11440296867295
 11
36.416248311379604
 21
640.11440296867113
  0
LINE
  8
_0-3_躯体と製品
  6
CONTINUOUS
 62
    4
 10
35.915248311389405
 20
715.61450296867224
 11
35.915248311389405
 21
712.61450296867224
  0
LINE
  8
_0-3_躯体と製品
  6
CONTINUOUS
 62
    4
 10
35.915248311389405
 20
712.61450296867224
 11
36.416248311379604
 21
712.11440296867295
  0
LINE
  8
_0-3_躯体と製品
  6
CONTINUOUS
 62
    3
 10
33.915148311385565
 20
715.11440296867295
 11
33.915148311385565
 21
637.11440296867113
  0
LINE
  8
_0-5_中心線
  6
CENTER1
 62
    7
 10
1178.4666330142873
 20
716.61440296867295
 11
-11.678450894567504
 21
716.61440296867295
  0
INSERT
  2
-006-_D7
  8
_0-2_寸法
 10
-7389.0751423190295
 20
-8014.1793534510871
 41
1
 42
1
 50
0
  0
INSERT
  2
-007-_D8
  8
_0-2_寸法
 10
-7389.0751423190295
 20
-8014.1793534510871
 41
1
 42
1
 50
0
  0
INSERT
  2
-008-_D9
  8
_0-2_寸法
 10
-7389.0751423190295
 20
-8014.1793534510871
 41
1
 42
1
 50
0
  0
LINE
  8
_0-4_文字-記号
  6
CONTINUOUS
 62
    7
 10
1002.648128693113
 20
781.18103845754013
 11
1040.1630341992795
 21
846.15876083534022
  0
LINE
  8
_0-4_文字-記号
  6
CONTINUOUS
 62
    7
 10
1040.1630341992795
 20
846.15876083534022
 11
1061.5036826664391
 21
846.15876083534022
  0
LINE
  8
_0-4_文字-記号
  6
CONTINUOUS
 62
    7
 10
33.915148311385565
 20
757.11440296867295
 11
22.49920508318246
 21
776.88739665622597
  0
LINE
  8
_0-4_文字-記号
  6
CONTINUOUS
 62
    7
 10
22.49920508318246
 20
776.88739665622597
 11
11.052761740812457
 21
776.88739665622597
  0
TEXT
  8
_0-4_文字-記号
 62
    7
 10
-25.84228010332663
 20
772.78563278880574
 40
10
 41
1
 50
0
  1
開閉板
  0
LINE
  8
_0-4_文字-記号
  6
CONTINUOUS
 62
    7
 10
332.53231953238992
 20
816.61440296867295
 11
349.5897624997333
 21
846.15876083534022
  0
LINE
  8
_0-4_文字-記号
  6
CONTINUOUS
 62
    7
 10
349.5897624997333
 20
846.15876083534022
 11
365.06660631855266
 21
846.15876083534022
  0
INSERT
  2
-009-_D10
  8
_0-2_寸法
 10
-7389.0751423190295
 20
-8014.1793534510871
 41
1
 42
1
 50
0
  0
LINE
  8
_0-2_寸法
  6
CONTINUOUS
 62
    4
 10
965.73678738887156
 20
366.4372961473
 11
965.73678738887156
 21
438.78132792225915
  0
LINE
  8
_0-2_寸法
  6
CONTINUOUS
 62
    4
 10
965.73678738887156
 20
438.78132792225915
 11
1164.0469540555541
 21
438.78132792225915
  0
INSERT
  2
-000-_Dot
  8
_0-2_寸法
 10
965.73678738887156
 20
438.78132792225915
 41
4.9999999999999991
 42
4.9999999999999991
 50
180
  0
TEXT
  8
_0-2_寸法
 62
    7
 10
1058.2780540247468
 20
446.96436657974118
 40
10
 41
1
 50
0
  1
200
  0
LINE
  8
_0-4_文字-記号
  6
CONTINUOUS
 62
    7
 10
986.10296321005899
 20
331.41243605259115
 11
1010.7311247772332
 21
288.75520892120221
  0
LINE
  8
_0-4_文字-記号
  6
CONTINUOUS
 62
    7
 10
1010.7311247772332
 20
288.75520892120221
 11
1023.6567421535683
 21
288.75520892120221
  0
TEXT
  8
_0-4_文字-記号
 62
    7
 10
1025.4904050651758
 20
283.35429071931321
 40
10
 41
1
 50
0
  1
調整パッキン
  0
TEXT
  8
_0-4_文字-記号
 62
    7
 10
1064.7026616932662
 20
66.75427436083919
 40
10
 41
1
 50
0
  1
（別途附属品）
  0
LINE
  8
_0-4_文字-記号
  6
CONTINUOUS
 62
    7
 10
1034.1152528152334
 20
107.51635901477221
 11
1046.6812010844578
 21
85.75149816719113
  0
LINE
  8
_0-4_文字-記号
  6
CONTINUOUS
 62
    7
 10
1046.6812010844578
 20
85.75149816719113
 11
1062.2291345802396
 21
85.75149816719113
  0
LINE
  8
_0-4_文字-記号
  6
CONTINUOUS
 62
    7
 10
1072.9608686368383
 20
148.88439089830263
 11
1087.7114115080431
 21
123.33570120616605
  0
LINE
  8
_0-4_文字-記号
  6
CONTINUOUS
 62
    7
 10
1087.7114115080431
 20
123.33570120616605
 11
1100.7367354674543
 21
123.33570120616605
  0
TEXT
  8
_0-4_文字-記号
 62
    7
 10
986.82437089170617
 20
37.285395130192228
 40
12
 41
1
 50
0
  1
品　　　　名
  0
TEXT
  8
_0-4_文字-記号
 62
    7
 10
944.61516991721783
 20
1.3738982544155078
 40
12
 41
1
 50
0
  1
床換気口：ベースピットＭＶ
  0
LINE
  8
_0-4_文字-記号
  6
CONTINUOUS
 62
    7
 10
931.93365968097987
 20
54.351599483857171
 11
931.93365968097987
 21
-11.924056277173804
  0
LINE
  8
_0-4_文字-記号
  6
CONTINUOUS
 62
    7
 10
931.93365968097987
 20
54.351599483857171
 11
1136.2972458700015
 21
54.351599483857171
  0
LINE
  8
_0-4_文字-記号
  6
CONTINUOUS
 62
    7
 10
931.93365968097987
 20
30.951599483857535
 11
1136.2972458700015
 21
30.951599483857535
  0
LINE
  8
_0-4_文字-記号
  6
CONTINUOUS
 62
    7
 10
931.93365968097987
 20
-11.924056277173804
 11
1136.2972458700015
 21
-11.924056277173804
  0
LINE
  8
_0-4_文字-記号
  6
CONTINUOUS
 62
    7
 10
1136.2972458700015
 20
54.351599483857171
 11
1136.2972458700015
 21
-11.924056277173804
  0
LINE
  8
_0-4_文字-記号
  6
CONTINUOUS
 62
    7
 10
931.93365968097987
 20
29.781599483855643
 11
1136.2972458700015
 21
29.781599483855643
  0
ARC
  8
_0-3_躯体と製品
  6
CONTINUOUS
 62
    4
 10
220.64812869311208
 20
365.96467510153889
 40
2.75
 50
0
 51
180
  0
LINE
  8
_0-3_躯体と製品
  6
CONTINUOUS
 62
    4
 10
217.89812869311118
 20
365.96467510153889
 11
217.89812869311118
 21
343.96467510153889
  0
ARC
  8
_0-3_躯体と製品
  6
CONTINUOUS
 62
    4
 10
220.64812869311208
 20
343.96467510153889
 40
2.75
 50
180
 51
0
  0
LINE
  8
_0-3_躯体と製品
  6
CONTINUOUS
 62
    4
 10
223.39812869311208
 20
343.96467510153889
 11
223.39812869311208
 21
365.96467510153889
  0
LINE
  8
_0-3_躯体と製品
  6
CONTINUOUS
 62
    4
 10
231.89812869311118
 20
365.96467510153889
 11
231.89812869311118
 21
343.96467510153889
  0
ARC
  8
_0-3_躯体と製品
  6
CONTINUOUS
 62
    4
 10
234.64812869311208
 20
343.96467510153889
 40
2.75
 50
180
 51
0
  0
LINE
  8
_0-3_躯体と製品
  6
CONTINUOUS
 62
    4
 10
237.39812869311208
 20
343.96467510153889
 11
237.39812869311208
 21
365.96467510153889
  0
ARC
  8
_0-3_躯体と製品
  6
CONTINUOUS
 62
    4
 10
234.64812869311208
 20
365.96467510153889
 40
2.75
 50
0
 51
180
  0
LINE
  8
_0-3_躯体と製品
  6
CONTINUOUS
 62
    4
 10
647.1481286931139
 20
421.16416510153977
 11
647.1481286931139
 21
416.26518510153983
  0
LINE
  8
_0-3_躯体と製品
  6
CONTINUOUS
 62
    4
 10
646.14812869311208
 20
421.16416510153977
 11
646.14812869311208
 21
416.26518510153983
  0
LINE
  8
_0-3_躯体と製品
  6
CONTINUOUS
 62
    4
 10
646.14812869311208
 20
421.71467510153889
 11
640.14812869311208
 21
421.71467510153889
  0
ARC
  8
_0-3_躯体と製品
  6
CONTINUOUS
 62
    4
 10
640.14812869311208
 20
418.71467510153889
 40
3
 50
90
 51
270
  0
LINE
  8
_0-3_躯体と製品
  6
CONTINUOUS
 62
    4
 10
640.14812869311208
 20
415.71467510153889
 11
646.14812869311208
 21
415.71467510153889
  0
ARC
  8
_0-3_躯体と製品
  6
CONTINUOUS
 62
    4
 10
646.14812869311208
 20
418.71467510153889
 40
3
 50
270
 51
90
  0
LINE
  8
_0-3_躯体と製品
  6
CONTINUOUS
 62
    4
 10
609.8981286931139
 20
412.46467510153889
 11
609.8981286931139
 21
390.46467510153889
  0
ARC
  8
_0-3_躯体と製品
  6
CONTINUOUS
 62
    4
 10
612.64812869311481
 20
390.46467510153889
 40
2.75
 50
180
 51
0
  0
LINE
  8
_0-3_躯体と製品
  6
CONTINUOUS
 62
    4
 10
615.3981286931139
 20
390.46467510153889
 11
615.3981286931139
 21
412.46467510153889
  0
ARC
  8
_0-3_躯体と製品
  6
CONTINUOUS
 62
    4
 10
612.64812869311481
 20
412.46467510153889
 40
2.75
 50
0
 51
180
  0
LINE
  8
_0-3_躯体と製品
  6
CONTINUOUS
 62
    4
 10
595.8981286931139
 20
412.46467510153889
 11
595.8981286931139
 21
390.46467510153889
  0
ARC
  8
_0-3_躯体と製品
  6
CONTINUOUS
 62
    4
 10
598.6481286931139
 20
390.46467510153889
 40
2.75
 50
180
 51
0
  0
LINE
  8
_0-3_躯体と製品
  6
CONTINUOUS
 62
    4
 10
601.39812869311208
 20
390.46467510153889
 11
601.39812869311208
 21
412.46467510153889
  0
ARC
  8
_0-3_躯体と製品
  6
CONTINUOUS
 62
    4
 10
598.6481286931139
 20
412.46467510153889
 40
2.75
 50
0
 51
180
  0
LINE
  8
_0-3_躯体と製品
  6
CONTINUOUS
 62
    4
 10
581.8981286931139
 20
412.46467510153889
 11
581.8981286931139
 21
390.46467510153889
  0
ARC
  8
_0-3_躯体と製品
  6
CONTINUOUS
 62
    4
 10
584.6481286931139
 20
390.46467510153889
 40
2.75
 50
180
 51
0
  0
LINE
  8
_0-3_躯体と製品
  6
CONTINUOUS
 62
    4
 10
587.39812869311208
 20
390.46467510153889
 11
587.39812869311208
 21
412.46467510153889
  0
ARC
  8
_0-3_躯体と製品
  6
CONTINUOUS
 62
    4
 10
584.6481286931139
 20
412.46467510153889
 40
2.75
 50
0
 51
180
  0
ARC
  8
_0-3_躯体と製品
  6
CONTINUOUS
 62
    4
 10
626.64812869311118
 20
412.46467510153889
 40
2.75
 50
0
 51
180
  0
LINE
  8
_0-3_躯体と製品
  6
CONTINUOUS
 62
    4
 10
629.39812869311208
 20
412.46467510153889
 11
629.39812869311208
 21
390.46467510153889
  0
ARC
  8
_0-3_躯体と製品
  6
CONTINUOUS
 62
    4
 10
626.64812869311118
 20
390.46467510153889
 40
2.75
 50
180
 51
0
  0
LINE
  8
_0-3_躯体と製品
  6
CONTINUOUS
 62
    4
 10
623.8981286931139
 20
390.46467510153889
 11
623.8981286931139
 21
412.46467510153889
  0
LINE
  8
_0-3_躯体と製品
  6
CONTINUOUS
 62
    4
 10
647.1481286931139
 20
335.26518510154165
 11
647.1481286931139
 21
340.16416510153977
  0
LINE
  8
_0-3_躯体と製品
  6
CONTINUOUS
 62
    4
 10
646.14812869311208
 20
335.26518510154165
 11
646.14812869311208
 21
340.16416510153977
  0
LINE
  8
_0-3_躯体と製品
  6
CONTINUOUS
 62
    4
 10
646.14812869311208
 20
340.71467510153889
 11
640.14812869311208
 21
340.71467510153889
  0
ARC
  8
_0-3_躯体と製品
  6
CONTINUOUS
 62
    4
 10
640.14812869311208
 20
337.71467510153889
 40
3
 50
90
 51
270
  0
LINE
  8
_0-3_躯体と製品
  6
CONTINUOUS
 62
    4
 10
640.14812869311208
 20
334.71467510153889
 11
646.14812869311208
 21
334.71467510153889
  0
ARC
  8
_0-3_躯体と製品
  6
CONTINUOUS
 62
    4
 10
646.14812869311208
 20
337.71467510153889
 40
3
 50
270
 51
90
  0
LINE
  8
_0-3_躯体と製品
  6
CONTINUOUS
 62
    4
 10
615.3981286931139
 20
343.96467510153889
 11
615.3981286931139
 21
365.96467510153889
  0
ARC
  8
_0-3_躯体と製品
  6
CONTINUOUS
 62
    4
 10
612.64812869311481
 20
365.96467510153889
 40
2.75
 50
0
 51
180
  0
LINE
  8
_0-3_躯体と製品
  6
CONTINUOUS
 62
    4
 10
609.8981286931139
 20
365.96467510153889
 11
609.8981286931139
 21
343.96467510153889
  0
ARC
  8
_0-3_躯体と製品
  6
CONTINUOUS
 62
    4
 10
612.64812869311481
 20
343.96467510153889
 40
2.75
 50
180
 51
0
  0
LINE
  8
_0-3_躯体と製品
  6
CONTINUOUS
 62
    4
 10
601.39812869311208
 20
343.96467510153889
 11
601.39812869311208
 21
365.96467510153889
  0
ARC
  8
_0-3_躯体と製品
  6
CONTINUOUS
 62
    4
 10
598.6481286931139
 20
365.96467510153889
 40
2.75
 50
0
 51
180
  0
LINE
  8
_0-3_躯体と製品
  6
CONTINUOUS
 62
    4
 10
595.8981286931139
 20
365.96467510153889
 11
595.8981286931139
 21
343.96467510153889
  0
ARC
  8
_0-3_躯体と製品
  6
CONTINUOUS
 62
    4
 10
598.6481286931139
 20
343.96467510153889
 40
2.75
 50
180
 51
0
  0
LINE
  8
_0-3_躯体と製品
  6
CONTINUOUS
 62
    4
 10
587.39812869311208
 20
343.96467510153889
 11
587.39812869311208
 21
365.96467510153889
  0
ARC
  8
_0-3_躯体と製品
  6
CONTINUOUS
 62
    4
 10
584.6481286931139
 20
365.96467510153889
 40
2.75
 50
0
 51
180
  0
LINE
  8
_0-3_躯体と製品
  6
CONTINUOUS
 62
    4
 10
581.8981286931139
 20
365.96467510153889
 11
581.8981286931139
 21
343.96467510153889
  0
ARC
  8
_0-3_躯体と製品
  6
CONTINUOUS
 62
    4
 10
584.6481286931139
 20
343.96467510153889
 40
2.75
 50
180
 51
0
  0
LINE
  8
_0-3_躯体と製品
  6
CONTINUOUS
 62
    4
 10
629.39812869311208
 20
343.96467510153889
 11
629.39812869311208
 21
365.96467510153889
  0
ARC
  8
_0-3_躯体と製品
  6
CONTINUOUS
 62
    4
 10
626.64812869311118
 20
365.96467510153889
 40
2.75
 50
0
 51
180
  0
LINE
  8
_0-3_躯体と製品
  6
CONTINUOUS
 62
    4
 10
623.8981286931139
 20
365.96467510153889
 11
623.8981286931139
 21
343.96467510153889
  0
ARC
  8
_0-3_躯体と製品
  6
CONTINUOUS
 62
    4
 10
626.64812869311118
 20
343.96467510153889
 40
2.75
 50
180
 51
0
  0
LINE
  8
_0-3_躯体と製品
  6
CONTINUOUS
 62
    4
 10
567.8981286931139
 20
412.46467510153889
 11
567.8981286931139
 21
390.46467510153889
  0
ARC
  8
_0-3_躯体と製品
  6
CONTINUOUS
 62
    4
 10
570.6481286931139
 20
390.46467510153889
 40
2.75
 50
180
 51
0
  0
LINE
  8
_0-3_躯体と製品
  6
CONTINUOUS
 62
    4
 10
573.39812869311208
 20
390.46467510153889
 11
573.39812869311208
 21
412.46467510153889
  0
ARC
  8
_0-3_躯体と製品
  6
CONTINUOUS
 62
    4
 10
570.6481286931139
 20
412.46467510153889
 40
2.75
 50
0
 51
180
  0
LINE
  8
_0-3_躯体と製品
  6
CONTINUOUS
 62
    4
 10
553.89812869311118
 20
412.46467510153889
 11
553.89812869311118
 21
390.46467510153889
  0
ARC
  8
_0-3_躯体と製品
  6
CONTINUOUS
 62
    4
 10
556.64812869311118
 20
390.46467510153889
 40
2.75
 50
180
 51
0
  0
LINE
  8
_0-3_躯体と製品
  6
CONTINUOUS
 62
    4
 10
559.39812869311208
 20
390.46467510153889
 11
559.39812869311208
 21
412.46467510153889
  0
ARC
  8
_0-3_躯体と製品
  6
CONTINUOUS
 62
    4
 10
556.64812869311118
 20
412.46467510153889
 40
2.75
 50
0
 51
180
  0
LINE
  8
_0-3_躯体と製品
  6
CONTINUOUS
 62
    4
 10
539.89812869311118
 20
412.46467510153889
 11
539.89812869311118
 21
390.46467510153889
  0
ARC
  8
_0-3_躯体と製品
  6
CONTINUOUS
 62
    4
 10
542.64812869311208
 20
390.46467510153889
 40
2.75
 50
180
 51
0
  0
LINE
  8
_0-3_躯体と製品
  6
CONTINUOUS
 62
    4
 10
545.39812869311208
 20
390.46467510153889
 11
545.39812869311208
 21
412.46467510153889
  0
ARC
  8
_0-3_躯体と製品
  6
CONTINUOUS
 62
    4
 10
542.64812869311208
 20
412.46467510153889
 40
2.75
 50
0
 51
180
  0
LINE
  8
_0-3_躯体と製品
  6
CONTINUOUS
 62
    4
 10
525.89812869311118
 20
412.46467510153889
 11
525.89812869311118
 21
390.46467510153889
  0
ARC
  8
_0-3_躯体と製品
  6
CONTINUOUS
 62
    4
 10
528.64812869311208
 20
390.46467510153889
 40
2.75
 50
180
 51
0
  0
LINE
  8
_0-3_躯体と製品
  6
CONTINUOUS
 62
    4
 10
531.39812869311118
 20
390.46467510153889
 11
531.39812869311118
 21
412.46467510153889
  0
ARC
  8
_0-3_躯体と製品
  6
CONTINUOUS
 62
    4
 10
528.64812869311208
 20
412.46467510153889
 40
2.75
 50
0
 51
180
  0
LINE
  8
_0-3_躯体と製品
  6
CONTINUOUS
 62
    4
 10
511.89812869311118
 20
412.46467510153889
 11
511.89812869311118
 21
390.46467510153889
  0
ARC
  8
_0-3_躯体と製品
  6
CONTINUOUS
 62
    4
 10
514.64812869311118
 20
390.46467510153889
 40
2.75
 50
180
 51
0
  0
LINE
  8
_0-3_躯体と製品
  6
CONTINUOUS
 62
    4
 10
517.39812869311208
 20
390.46467510153889
 11
517.39812869311208
 21
412.46467510153889
  0
ARC
  8
_0-3_躯体と製品
  6
CONTINUOUS
 62
    4
 10
514.64812869311118
 20
412.46467510153889
 40
2.75
 50
0
 51
180
  0
LINE
  8
_0-3_躯体と製品
  6
CONTINUOUS
 62
    4
 10
497.89812869311118
 20
412.46467510153889
 11
497.89812869311118
 21
390.46467510153889
  0
ARC
  8
_0-3_躯体と製品
  6
CONTINUOUS
 62
    4
 10
500.64812869311118
 20
390.46467510153889
 40
2.75
 50
180
 51
0
  0
LINE
  8
_0-3_躯体と製品
  6
CONTINUOUS
 62
    4
 10
503.39812869311208
 20
390.46467510153889
 11
503.39812869311208
 21
412.46467510153889
  0
ARC
  8
_0-3_躯体と製品
  6
CONTINUOUS
 62
    4
 10
500.64812869311118
 20
412.46467510153889
 40
2.75
 50
0
 51
180
  0
LINE
  8
_0-3_躯体と製品
  6
CONTINUOUS
 62
    4
 10
413.89812869311208
 20
412.46467510153889
 11
413.89812869311208
 21
390.46467510153889
  0
ARC
  8
_0-3_躯体と製品
  6
CONTINUOUS
 62
    4
 10
416.64812869311118
 20
390.46467510153889
 40
2.75
 50
180
 51
0
  0
LINE
  8
_0-3_躯体と製品
  6
CONTINUOUS
 62
    4
 10
419.39812869311118
 20
390.46467510153889
 11
419.39812869311118
 21
412.46467510153889
  0
ARC
  8
_0-3_躯体と製品
  6
CONTINUOUS
 62
    4
 10
416.64812869311118
 20
412.46467510153889
 40
2.75
 50
0
 51
180
  0
ARC
  8
_0-3_躯体と製品
  6
CONTINUOUS
 62
    4
 10
486.64812869311118
 20
412.46467510153889
 40
2.75
 50
0
 51
180
  0
LINE
  8
_0-3_躯体と製品
  6
CONTINUOUS
 62
    4
 10
489.39812869311208
 20
412.46467510153889
 11
489.39812869311208
 21
390.46467510153889
  0
ARC
  8
_0-3_躯体と製品
  6
CONTINUOUS
 62
    4
 10
486.64812869311118
 20
390.46467510153889
 40
2.75
 50
180
 51
0
  0
LINE
  8
_0-3_躯体と製品
  6
CONTINUOUS
 62
    4
 10
483.89812869311118
 20
390.46467510153889
 11
483.89812869311118
 21
412.46467510153889
  0
LINE
  8
_0-3_躯体と製品
  6
CONTINUOUS
 62
    4
 10
441.89812869311208
 20
412.46467510153889
 11
441.89812869311208
 21
390.46467510153889
  0
ARC
  8
_0-3_躯体と製品
  6
CONTINUOUS
 62
    4
 10
444.64812869311118
 20
390.46467510153889
 40
2.75
 50
180
 51
0
  0
LINE
  8
_0-3_躯体と製品
  6
CONTINUOUS
 62
    4
 10
447.39812869311208
 20
390.46467510153889
 11
447.39812869311208
 21
412.46467510153889
  0
ARC
  8
_0-3_躯体と製品
  6
CONTINUOUS
 62
    4
 10
444.64812869311118
 20
412.46467510153889
 40
2.75
 50
0
 51
180
  0
LINE
  8
_0-3_躯体と製品
  6
CONTINUOUS
 62
    4
 10
469.8981286931139
 20
412.46467510153889
 11
469.8981286931139
 21
390.46467510153889
  0
ARC
  8
_0-3_躯体と製品
  6
CONTINUOUS
 62
    4
 10
472.64812869311208
 20
390.46467510153889
 40
2.75
 50
180
 51
0
  0
LINE
  8
_0-3_躯体と製品
  6
CONTINUOUS
 62
    4
 10
475.39812869311118
 20
390.46467510153889
 11
475.39812869311118
 21
412.46467510153889
  0
ARC
  8
_0-3_躯体と製品
  6
CONTINUOUS
 62
    4
 10
472.64812869311208
 20
412.46467510153889
 40
2.75
 50
0
 51
180
  0
LINE
  8
_0-3_躯体と製品
  6
CONTINUOUS
 62
    4
 10
455.89812869311208
 20
412.46467510153889
 11
455.89812869311208
 21
390.46467510153889
  0
ARC
  8
_0-3_躯体と製品
  6
CONTINUOUS
 62
    4
 10
458.64812869311118
 20
390.46467510153889
 40
2.75
 50
180
 51
0
  0
LINE
  8
_0-3_躯体と製品
  6
CONTINUOUS
 62
    4
 10
461.39812869311118
 20
390.46467510153889
 11
461.39812869311118
 21
412.46467510153889
  0
ARC
  8
_0-3_躯体と製品
  6
CONTINUOUS
 62
    4
 10
458.64812869311118
 20
412.46467510153889
 40
2.75
 50
0
 51
180
  0
LINE
  8
_0-3_躯体と製品
  6
CONTINUOUS
 62
    4
 10
427.89812869311208
 20
412.46467510153889
 11
427.89812869311208
 21
390.46467510153889
  0
ARC
  8
_0-3_躯体と製品
  6
CONTINUOUS
 62
    4
 10
430.64812869311118
 20
390.46467510153889
 40
2.75
 50
180
 51
0
  0
LINE
  8
_0-3_躯体と製品
  6
CONTINUOUS
 62
    4
 10
433.39812869311208
 20
390.46467510153889
 11
433.39812869311208
 21
412.46467510153889
  0
ARC
  8
_0-3_躯体と製品
  6
CONTINUOUS
 62
    4
 10
430.64812869311118
 20
412.46467510153889
 40
2.75
 50
0
 51
180
  0
LINE
  8
_0-3_躯体と製品
  6
CONTINUOUS
 62
    4
 10
503.39812869311208
 20
343.96467510153889
 11
503.39812869311208
 21
365.96467510153889
  0
ARC
  8
_0-3_躯体と製品
  6
CONTINUOUS
 62
    4
 10
500.64812869311118
 20
365.96467510153889
 40
2.75
 50
0
 51
180
  0
LINE
  8
_0-3_躯体と製品
  6
CONTINUOUS
 62
    4
 10
497.89812869311118
 20
365.96467510153889
 11
497.89812869311118
 21
343.96467510153889
  0
ARC
  8
_0-3_躯体と製品
  6
CONTINUOUS
 62
    4
 10
500.64812869311118
 20
343.96467510153889
 40
2.75
 50
180
 51
0
  0
LINE
  8
_0-3_躯体と製品
  6
CONTINUOUS
 62
    4
 10
419.39812869311118
 20
343.96467510153889
 11
419.39812869311118
 21
365.96467510153889
  0
ARC
  8
_0-3_躯体と製品
  6
CONTINUOUS
 62
    4
 10
416.64812869311118
 20
365.96467510153889
 40
2.75
 50
0
 51
180
  0
LINE
  8
_0-3_躯体と製品
  6
CONTINUOUS
 62
    4
 10
413.89812869311208
 20
365.96467510153889
 11
413.89812869311208
 21
343.96467510153889
  0
ARC
  8
_0-3_躯体と製品
  6
CONTINUOUS
 62
    4
 10
416.64812869311118
 20
343.96467510153889
 40
2.75
 50
180
 51
0
  0
LINE
  8
_0-3_躯体と製品
  6
CONTINUOUS
 62
    4
 10
461.39812869311118
 20
343.96467510153889
 11
461.39812869311118
 21
365.96467510153889
  0
ARC
  8
_0-3_躯体と製品
  6
CONTINUOUS
 62
    4
 10
458.64812869311118
 20
365.96467510153889
 40
2.75
 50
0
 51
180
  0
LINE
  8
_0-3_躯体と製品
  6
CONTINUOUS
 62
    4
 10
455.89812869311208
 20
365.96467510153889
 11
455.89812869311208
 21
343.96467510153889
  0
ARC
  8
_0-3_躯体と製品
  6
CONTINUOUS
 62
    4
 10
458.64812869311118
 20
343.96467510153889
 40
2.75
 50
180
 51
0
  0
LINE
  8
_0-3_躯体と製品
  6
CONTINUOUS
 62
    4
 10
447.39812869311208
 20
343.96467510153889
 11
447.39812869311208
 21
365.96467510153889
  0
ARC
  8
_0-3_躯体と製品
  6
CONTINUOUS
 62
    4
 10
444.64812869311118
 20
365.96467510153889
 40
2.75
 50
0
 51
180
  0
LINE
  8
_0-3_躯体と製品
  6
CONTINUOUS
 62
    4
 10
441.89812869311208
 20
365.96467510153889
 11
441.89812869311208
 21
343.96467510153889
  0
ARC
  8
_0-3_躯体と製品
  6
CONTINUOUS
 62
    4
 10
444.64812869311118
 20
343.96467510153889
 40
2.75
 50
180
 51
0
  0
LINE
  8
_0-3_躯体と製品
  6
CONTINUOUS
 62
    4
 10
433.39812869311208
 20
343.96467510153889
 11
433.39812869311208
 21
365.96467510153889
  0
ARC
  8
_0-3_躯体と製品
  6
CONTINUOUS
 62
    4
 10
430.64812869311118
 20
365.96467510153889
 40
2.75
 50
0
 51
180
  0
LINE
  8
_0-3_躯体と製品
  6
CONTINUOUS
 62
    4
 10
427.89812869311208
 20
365.96467510153889
 11
427.89812869311208
 21
343.96467510153889
  0
ARC
  8
_0-3_躯体と製品
  6
CONTINUOUS
 62
    4
 10
430.64812869311118
 20
343.96467510153889
 40
2.75
 50
180
 51
0
  0
LINE
  8
_0-3_躯体と製品
  6
CONTINUOUS
 62
    4
 10
489.39812869311208
 20
343.96467510153889
 11
489.39812869311208
 21
365.96467510153889
  0
ARC
  8
_0-3_躯体と製品
  6
CONTINUOUS
 62
    4
 10
486.64812869311118
 20
365.96467510153889
 40
2.75
 50
0
 51
180
  0
LINE
  8
_0-3_躯体と製品
  6
CONTINUOUS
 62
    4
 10
483.89812869311118
 20
365.96467510153889
 11
483.89812869311118
 21
343.96467510153889
  0
ARC
  8
_0-3_躯体と製品
  6
CONTINUOUS
 62
    4
 10
486.64812869311118
 20
343.96467510153889
 40
2.75
 50
180
 51
0
  0
LINE
  8
_0-3_躯体と製品
  6
CONTINUOUS
 62
    4
 10
475.39812869311118
 20
343.96467510153889
 11
475.39812869311118
 21
365.96467510153889
  0
ARC
  8
_0-3_躯体と製品
  6
CONTINUOUS
 62
    4
 10
472.64812869311208
 20
365.96467510153889
 40
2.75
 50
0
 51
180
  0
LINE
  8
_0-3_躯体と製品
  6
CONTINUOUS
 62
    4
 10
469.8981286931139
 20
365.96467510153889
 11
469.8981286931139
 21
343.96467510153889
  0
ARC
  8
_0-3_躯体と製品
  6
CONTINUOUS
 62
    4
 10
472.64812869311208
 20
343.96467510153889
 40
2.75
 50
180
 51
0
  0
LINE
  8
_0-3_躯体と製品
  6
CONTINUOUS
 62
    4
 10
531.39812869311118
 20
343.96467510153889
 11
531.39812869311118
 21
365.96467510153889
  0
ARC
  8
_0-3_躯体と製品
  6
CONTINUOUS
 62
    4
 10
528.64812869311208
 20
365.96467510153889
 40
2.75
 50
0
 51
180
  0
LINE
  8
_0-3_躯体と製品
  6
CONTINUOUS
 62
    4
 10
525.89812869311118
 20
365.96467510153889
 11
525.89812869311118
 21
343.96467510153889
  0
ARC
  8
_0-3_躯体と製品
  6
CONTINUOUS
 62
    4
 10
528.64812869311208
 20
343.96467510153889
 40
2.75
 50
180
 51
0
  0
LINE
  8
_0-3_躯体と製品
  6
CONTINUOUS
 62
    4
 10
517.39812869311208
 20
343.96467510153889
 11
517.39812869311208
 21
365.96467510153889
  0
ARC
  8
_0-3_躯体と製品
  6
CONTINUOUS
 62
    4
 10
514.64812869311118
 20
365.96467510153889
 40
2.75
 50
0
 51
180
  0
LINE
  8
_0-3_躯体と製品
  6
CONTINUOUS
 62
    4
 10
511.89812869311118
 20
365.96467510153889
 11
511.89812869311118
 21
343.96467510153889
  0
ARC
  8
_0-3_躯体と製品
  6
CONTINUOUS
 62
    4
 10
514.64812869311118
 20
343.96467510153889
 40
2.75
 50
180
 51
0
  0
LINE
  8
_0-3_躯体と製品
  6
CONTINUOUS
 62
    4
 10
573.39812869311208
 20
343.96467510153889
 11
573.39812869311208
 21
365.96467510153889
  0
ARC
  8
_0-3_躯体と製品
  6
CONTINUOUS
 62
    4
 10
570.6481286931139
 20
365.96467510153889
 40
2.75
 50
0
 51
180
  0
LINE
  8
_0-3_躯体と製品
  6
CONTINUOUS
 62
    4
 10
567.8981286931139
 20
365.96467510153889
 11
567.8981286931139
 21
343.96467510153889
  0
ARC
  8
_0-3_躯体と製品
  6
CONTINUOUS
 62
    4
 10
570.6481286931139
 20
343.96467510153889
 40
2.75
 50
180
 51
0
  0
LINE
  8
_0-3_躯体と製品
  6
CONTINUOUS
 62
    4
 10
545.39812869311208
 20
343.96467510153889
 11
545.39812869311208
 21
365.96467510153889
  0
ARC
  8
_0-3_躯体と製品
  6
CONTINUOUS
 62
    4
 10
542.64812869311208
 20
365.96467510153889
 40
2.75
 50
0
 51
180
  0
LINE
  8
_0-3_躯体と製品
  6
CONTINUOUS
 62
    4
 10
539.89812869311118
 20
365.96467510153889
 11
539.89812869311118
 21
343.96467510153889
  0
ARC
  8
_0-3_躯体と製品
  6
CONTINUOUS
 62
    4
 10
542.64812869311208
 20
343.96467510153889
 40
2.75
 50
180
 51
0
  0
LINE
  8
_0-3_躯体と製品
  6
CONTINUOUS
 62
    4
 10
559.39812869311208
 20
343.96467510153889
 11
559.39812869311208
 21
365.96467510153889
  0
ARC
  8
_0-3_躯体と製品
  6
CONTINUOUS
 62
    4
 10
556.64812869311118
 20
365.96467510153889
 40
2.75
 50
0
 51
180
  0
LINE
  8
_0-3_躯体と製品
  6
CONTINUOUS
 62
    4
 10
553.89812869311118
 20
365.96467510153889
 11
553.89812869311118
 21
343.96467510153889
  0
ARC
  8
_0-3_躯体と製品
  6
CONTINUOUS
 62
    4
 10
556.64812869311118
 20
343.96467510153889
 40
2.75
 50
180
 51
0
  0
LINE
  8
_0-3_躯体と製品
  6
CONTINUOUS
 62
    4
 10
497.89812869311118
 20
446.96467510153889
 11
497.89812869311118
 21
424.96467510153707
  0
ARC
  8
_0-3_躯体と製品
  6
CONTINUOUS
 62
    4
 10
500.64812869311118
 20
424.96467510153707
 40
2.75
 50
180
 51
0
  0
LINE
  8
_0-3_躯体と製品
  6
CONTINUOUS
 62
    4
 10
503.39812869311208
 20
424.96467510153707
 11
503.39812869311208
 21
446.96467510153889
  0
ARC
  8
_0-3_躯体と製品
  6
CONTINUOUS
 62
    4
 10
500.64812869311118
 20
446.96467510153889
 40
2.75
 50
0
 51
180
  0
LINE
  8
_0-3_躯体と製品
  6
CONTINUOUS
 62
    4
 10
413.89812869311208
 20
446.96467510153889
 11
413.89812869311208
 21
424.96467510153707
  0
ARC
  8
_0-3_躯体と製品
  6
CONTINUOUS
 62
    4
 10
416.64812869311118
 20
424.96467510153707
 40
2.75
 50
180
 51
0
  0
LINE
  8
_0-3_躯体と製品
  6
CONTINUOUS
 62
    4
 10
419.39812869311118
 20
424.96467510153707
 11
419.39812869311118
 21
446.96467510153889
  0
ARC
  8
_0-3_躯体と製品
  6
CONTINUOUS
 62
    4
 10
416.64812869311118
 20
446.96467510153889
 40
2.75
 50
0
 51
180
  0
LINE
  8
_0-3_躯体と製品
  6
CONTINUOUS
 62
    4
 10
455.89812869311208
 20
446.96467510153889
 11
455.89812869311208
 21
424.96467510153707
  0
ARC
  8
_0-3_躯体と製品
  6
CONTINUOUS
 62
    4
 10
458.64812869311118
 20
424.96467510153707
 40
2.75
 50
180
 51
0
  0
LINE
  8
_0-3_躯体と製品
  6
CONTINUOUS
 62
    4
 10
461.39812869311118
 20
424.96467510153707
 11
461.39812869311118
 21
446.96467510153889
  0
ARC
  8
_0-3_躯体と製品
  6
CONTINUOUS
 62
    4
 10
458.64812869311118
 20
446.96467510153889
 40
2.75
 50
0
 51
180
  0
LINE
  8
_0-3_躯体と製品
  6
CONTINUOUS
 62
    4
 10
447.39812869311208
 20
424.96467510153707
 11
447.39812869311208
 21
446.96467510153889
  0
ARC
  8
_0-3_躯体と製品
  6
CONTINUOUS
 62
    4
 10
444.64812869311118
 20
446.96467510153889
 40
2.75
 50
0
 51
180
  0
LINE
  8
_0-3_躯体と製品
  6
CONTINUOUS
 62
    4
 10
441.89812869311208
 20
446.96467510153889
 11
441.89812869311208
 21
424.96467510153707
  0
ARC
  8
_0-3_躯体と製品
  6
CONTINUOUS
 62
    4
 10
444.64812869311118
 20
424.96467510153707
 40
2.75
 50
180
 51
0
  0
LINE
  8
_0-3_躯体と製品
  6
CONTINUOUS
 62
    4
 10
427.89812869311208
 20
446.96467510153889
 11
427.89812869311208
 21
424.96467510153707
  0
ARC
  8
_0-3_躯体と製品
  6
CONTINUOUS
 62
    4
 10
430.64812869311118
 20
424.96467510153707
 40
2.75
 50
180
 51
0
  0
LINE
  8
_0-3_躯体と製品
  6
CONTINUOUS
 62
    4
 10
433.39812869311208
 20
424.96467510153707
 11
433.39812869311208
 21
446.96467510153889
  0
ARC
  8
_0-3_躯体と製品
  6
CONTINUOUS
 62
    4
 10
430.64812869311118
 20
446.96467510153889
 40
2.75
 50
0
 51
180
  0
LINE
  8
_0-3_躯体と製品
  6
CONTINUOUS
 62
    4
 10
483.89812869311118
 20
446.96467510153889
 11
483.89812869311118
 21
424.96467510153707
  0
ARC
  8
_0-3_躯体と製品
  6
CONTINUOUS
 62
    4
 10
486.64812869311118
 20
424.96467510153707
 40
2.75
 50
180
 51
0
  0
LINE
  8
_0-3_躯体と製品
  6
CONTINUOUS
 62
    4
 10
489.39812869311208
 20
424.96467510153707
 11
489.39812869311208
 21
446.96467510153889
  0
ARC
  8
_0-3_躯体と製品
  6
CONTINUOUS
 62
    4
 10
486.64812869311118
 20
446.96467510153889
 40
2.75
 50
0
 51
180
  0
LINE
  8
_0-3_躯体と製品
  6
CONTINUOUS
 62
    4
 10
469.8981286931139
 20
446.96467510153889
 11
469.8981286931139
 21
424.96467510153707
  0
ARC
  8
_0-3_躯体と製品
  6
CONTINUOUS
 62
    4
 10
472.64812869311208
 20
424.96467510153707
 40
2.75
 50
180
 51
0
  0
LINE
  8
_0-3_躯体と製品
  6
CONTINUOUS
 62
    4
 10
475.39812869311118
 20
424.96467510153707
 11
475.39812869311118
 21
446.96467510153889
  0
ARC
  8
_0-3_躯体と製品
  6
CONTINUOUS
 62
    4
 10
472.64812869311208
 20
446.96467510153889
 40
2.75
 50
0
 51
180
  0
LINE
  8
_0-3_躯体と製品
  6
CONTINUOUS
 62
    4
 10
525.89812869311118
 20
446.96467510153889
 11
525.89812869311118
 21
424.96467510153707
  0
ARC
  8
_0-3_躯体と製品
  6
CONTINUOUS
 62
    4
 10
528.64812869311208
 20
424.96467510153707
 40
2.75
 50
180
 51
0
  0
LINE
  8
_0-3_躯体と製品
  6
CONTINUOUS
 62
    4
 10
531.39812869311118
 20
424.96467510153707
 11
531.39812869311118
 21
446.96467510153889
  0
ARC
  8
_0-3_躯体と製品
  6
CONTINUOUS
 62
    4
 10
528.64812869311208
 20
446.96467510153889
 40
2.75
 50
0
 51
180
  0
LINE
  8
_0-3_躯体と製品
  6
CONTINUOUS
 62
    4
 10
511.89812869311118
 20
446.96467510153889
 11
511.89812869311118
 21
424.96467510153707
  0
ARC
  8
_0-3_躯体と製品
  6
CONTINUOUS
 62
    4
 10
514.64812869311118
 20
424.96467510153707
 40
2.75
 50
180
 51
0
  0
LINE
  8
_0-3_躯体と製品
  6
CONTINUOUS
 62
    4
 10
517.39812869311208
 20
424.96467510153707
 11
517.39812869311208
 21
446.96467510153889
  0
ARC
  8
_0-3_躯体と製品
  6
CONTINUOUS
 62
    4
 10
514.64812869311118
 20
446.96467510153889
 40
2.75
 50
0
 51
180
  0
LINE
  8
_0-3_躯体と製品
  6
CONTINUOUS
 62
    4
 10
567.8981286931139
 20
446.96467510153889
 11
567.8981286931139
 21
424.96467510153707
  0
ARC
  8
_0-3_躯体と製品
  6
CONTINUOUS
 62
    4
 10
570.6481286931139
 20
424.96467510153707
 40
2.75
 50
180
 51
0
  0
LINE
  8
_0-3_躯体と製品
  6
CONTINUOUS
 62
    4
 10
573.39812869311208
 20
424.96467510153707
 11
573.39812869311208
 21
446.96467510153889
  0
ARC
  8
_0-3_躯体と製品
  6
CONTINUOUS
 62
    4
 10
570.6481286931139
 20
446.96467510153889
 40
2.75
 50
0
 51
180
  0
LINE
  8
_0-3_躯体と製品
  6
CONTINUOUS
 62
    4
 10
539.89812869311118
 20
446.96467510153889
 11
539.89812869311118
 21
424.96467510153707
  0
ARC
  8
_0-3_躯体と製品
  6
CONTINUOUS
 62
    4
 10
542.64812869311208
 20
424.96467510153707
 40
2.75
 50
180
 51
0
  0
LINE
  8
_0-3_躯体と製品
  6
CONTINUOUS
 62
    4
 10
545.39812869311208
 20
424.96467510153707
 11
545.39812869311208
 21
446.96467510153889
  0
ARC
  8
_0-3_躯体と製品
  6
CONTINUOUS
 62
    4
 10
542.64812869311208
 20
446.96467510153889
 40
2.75
 50
0
 51
180
  0
LINE
  8
_0-3_躯体と製品
  6
CONTINUOUS
 62
    4
 10
553.89812869311118
 20
446.96467510153889
 11
553.89812869311118
 21
424.96467510153707
  0
ARC
  8
_0-3_躯体と製品
  6
CONTINUOUS
 62
    4
 10
556.64812869311118
 20
424.96467510153707
 40
2.75
 50
180
 51
0
  0
LINE
  8
_0-3_躯体と製品
  6
CONTINUOUS
 62
    4
 10
559.39812869311208
 20
424.96467510153707
 11
559.39812869311208
 21
446.96467510153889
  0
ARC
  8
_0-3_躯体と製品
  6
CONTINUOUS
 62
    4
 10
556.64812869311118
 20
446.96467510153889
 40
2.75
 50
0
 51
180
  0
LINE
  8
_0-3_躯体と製品
  6
CONTINUOUS
 62
    4
 10
609.8981286931139
 20
446.96467510153889
 11
609.8981286931139
 21
424.96467510153707
  0
ARC
  8
_0-3_躯体と製品
  6
CONTINUOUS
 62
    4
 10
612.64812869311481
 20
424.96467510153707
 40
2.75
 50
180
 51
0
  0
LINE
  8
_0-3_躯体と製品
  6
CONTINUOUS
 62
    4
 10
615.3981286931139
 20
424.96467510153707
 11
615.3981286931139
 21
446.96467510153889
  0
ARC
  8
_0-3_躯体と製品
  6
CONTINUOUS
 62
    4
 10
612.64812869311481
 20
446.96467510153889
 40
2.75
 50
0
 51
180
  0
LINE
  8
_0-3_躯体と製品
  6
CONTINUOUS
 62
    4
 10
595.8981286931139
 20
446.96467510153889
 11
595.8981286931139
 21
424.96467510153707
  0
ARC
  8
_0-3_躯体と製品
  6
CONTINUOUS
 62
    4
 10
598.6481286931139
 20
424.96467510153707
 40
2.75
 50
180
 51
0
  0
LINE
  8
_0-3_躯体と製品
  6
CONTINUOUS
 62
    4
 10
601.39812869311208
 20
424.96467510153707
 11
601.39812869311208
 21
446.96467510153889
  0
ARC
  8
_0-3_躯体と製品
  6
CONTINUOUS
 62
    4
 10
598.6481286931139
 20
446.96467510153889
 40
2.75
 50
0
 51
180
  0
LINE
  8
_0-3_躯体と製品
  6
CONTINUOUS
 62
    4
 10
581.8981286931139
 20
446.96467510153889
 11
581.8981286931139
 21
424.96467510153707
  0
ARC
  8
_0-3_躯体と製品
  6
CONTINUOUS
 62
    4
 10
584.6481286931139
 20
424.96467510153707
 40
2.75
 50
180
 51
0
  0
LINE
  8
_0-3_躯体と製品
  6
CONTINUOUS
 62
    4
 10
587.39812869311208
 20
424.96467510153707
 11
587.39812869311208
 21
446.96467510153889
  0
ARC
  8
_0-3_躯体と製品
  6
CONTINUOUS
 62
    4
 10
584.6481286931139
 20
446.96467510153889
 40
2.75
 50
0
 51
180
  0
LINE
  8
_0-3_躯体と製品
  6
CONTINUOUS
 62
    4
 10
623.8981286931139
 20
446.96467510153889
 11
623.8981286931139
 21
424.96467510153707
  0
ARC
  8
_0-3_躯体と製品
  6
CONTINUOUS
 62
    4
 10
626.64812869311118
 20
424.96467510153707
 40
2.75
 50
180
 51
0
  0
LINE
  8
_0-3_躯体と製品
  6
CONTINUOUS
 62
    4
 10
629.39812869311208
 20
424.96467510153707
 11
629.39812869311208
 21
446.96467510153889
  0
ARC
  8
_0-3_躯体と製品
  6
CONTINUOUS
 62
    4
 10
626.64812869311118
 20
446.96467510153889
 40
2.75
 50
0
 51
180
  0
LINE
  8
_0-3_躯体と製品
  6
CONTINUOUS
 62
    4
 10
329.89812869311208
 20
412.46467510153889
 11
329.89812869311208
 21
390.46467510153889
  0
ARC
  8
_0-3_躯体と製品
  6
CONTINUOUS
 62
    4
 10
332.64812869311208
 20
390.46467510153889
 40
2.75
 50
180
 51
0
  0
LINE
  8
_0-3_躯体と製品
  6
CONTINUOUS
 62
    4
 10
335.39812869311118
 20
390.46467510153889
 11
335.39812869311118
 21
412.46467510153889
  0
ARC
  8
_0-3_躯体と製品
  6
CONTINUOUS
 62
    4
 10
332.64812869311208
 20
412.46467510153889
 40
2.75
 50
0
 51
180
  0
ARC
  8
_0-3_躯体と製品
  6
CONTINUOUS
 62
    4
 10
318.64812869311208
 20
412.46467510153889
 40
2.75
 50
0
 51
180
  0
LINE
  8
_0-3_躯体と製品
  6
CONTINUOUS
 62
    4
 10
321.39812869311118
 20
412.46467510153889
 11
321.39812869311118
 21
390.46467510153889
  0
ARC
  8
_0-3_躯体と製品
  6
CONTINUOUS
 62
    4
 10
318.64812869311208
 20
390.46467510153889
 40
2.75
 50
180
 51
0
  0
LINE
  8
_0-3_躯体と製品
  6
CONTINUOUS
 62
    4
 10
315.89812869311208
 20
390.46467510153889
 11
315.89812869311208
 21
412.46467510153889
  0
LINE
  8
_0-3_躯体と製品
  6
CONTINUOUS
 62
    4
 10
357.89812869311208
 20
412.46467510153889
 11
357.89812869311208
 21
390.46467510153889
  0
ARC
  8
_0-3_躯体と製品
  6
CONTINUOUS
 62
    4
 10
360.64812869311208
 20
390.46467510153889
 40
2.75
 50
180
 51
0
  0
LINE
  8
_0-3_躯体と製品
  6
CONTINUOUS
 62
    4
 10
363.39812869311118
 20
390.46467510153889
 11
363.39812869311118
 21
412.46467510153889
  0
ARC
  8
_0-3_躯体と製品
  6
CONTINUOUS
 62
    4
 10
360.64812869311208
 20
412.46467510153889
 40
2.75
 50
0
 51
180
  0
LINE
  8
_0-3_躯体と製品
  6
CONTINUOUS
 62
    4
 10
385.89812869311208
 20
412.46467510153889
 11
385.89812869311208
 21
390.46467510153889
  0
ARC
  8
_0-3_躯体と製品
  6
CONTINUOUS
 62
    4
 10
388.64812869311208
 20
390.46467510153889
 40
2.75
 50
180
 51
0
  0
LINE
  8
_0-3_躯体と製品
  6
CONTINUOUS
 62
    4
 10
391.39812869311118
 20
390.46467510153889
 11
391.39812869311118
 21
412.46467510153889
  0
ARC
  8
_0-3_躯体と製品
  6
CONTINUOUS
 62
    4
 10
388.64812869311208
 20
412.46467510153889
 40
2.75
 50
0
 51
180
  0
LINE
  8
_0-3_躯体と製品
  6
CONTINUOUS
 62
    4
 10
371.89812869311208
 20
412.46467510153889
 11
371.89812869311208
 21
390.46467510153889
  0
ARC
  8
_0-3_躯体と製品
  6
CONTINUOUS
 62
    4
 10
374.6481286931139
 20
390.46467510153889
 40
2.75
 50
180
 51
0
  0
LINE
  8
_0-3_躯体と製品
  6
CONTINUOUS
 62
    4
 10
377.39812869311208
 20
390.46467510153889
 11
377.39812869311208
 21
412.46467510153889
  0
ARC
  8
_0-3_躯体と製品
  6
CONTINUOUS
 62
    4
 10
374.6481286931139
 20
412.46467510153889
 40
2.75
 50
0
 51
180
  0
ARC
  8
_0-3_躯体と製品
  6
CONTINUOUS
 62
    4
 10
346.64812869311208
 20
412.46467510153889
 40
2.75
 50
0
 51
180
  0
LINE
  8
_0-3_躯体と製品
  6
CONTINUOUS
 62
    4
 10
349.39812869311118
 20
412.46467510153889
 11
349.39812869311118
 21
390.46467510153889
  0
ARC
  8
_0-3_躯体と製品
  6
CONTINUOUS
 62
    4
 10
346.64812869311208
 20
390.46467510153889
 40
2.75
 50
180
 51
0
  0
LINE
  8
_0-3_躯体と製品
  6
CONTINUOUS
 62
    4
 10
343.89812869311118
 20
390.46467510153889
 11
343.89812869311118
 21
412.46467510153889
  0
LINE
  8
_0-3_躯体と製品
  6
CONTINUOUS
 62
    4
 10
231.89812869311118
 20
412.46467510153889
 11
231.89812869311118
 21
390.46467510153889
  0
ARC
  8
_0-3_躯体と製品
  6
CONTINUOUS
 62
    4
 10
234.64812869311208
 20
390.46467510153889
 40
2.75
 50
180
 51
0
  0
LINE
  8
_0-3_躯体と製品
  6
CONTINUOUS
 62
    4
 10
237.39812869311208
 20
390.46467510153889
 11
237.39812869311208
 21
412.46467510153889
  0
ARC
  8
_0-3_躯体と製品
  6
CONTINUOUS
 62
    4
 10
234.64812869311208
 20
412.46467510153889
 40
2.75
 50
0
 51
180
  0
LINE
  8
_0-3_躯体と製品
  6
CONTINUOUS
 62
    4
 10
245.89812869311208
 20
412.46467510153889
 11
245.89812869311208
 21
390.46467510153889
  0
ARC
  8
_0-3_躯体と製品
  6
CONTINUOUS
 62
    4
 10
248.64812869311118
 20
390.46467510153889
 40
2.75
 50
180
 51
0
  0
LINE
  8
_0-3_躯体と製品
  6
CONTINUOUS
 62
    4
 10
251.39812869311208
 20
390.46467510153889
 11
251.39812869311208
 21
412.46467510153889
  0
ARC
  8
_0-3_躯体と製品
  6
CONTINUOUS
 62
    4
 10
248.64812869311118
 20
412.46467510153889
 40
2.75
 50
0
 51
180
  0
LINE
  8
_0-3_躯体と製品
  6
CONTINUOUS
 62
    4
 10
301.89812869311208
 20
412.46467510153889
 11
301.89812869311208
 21
390.46467510153889
  0
ARC
  8
_0-3_躯体と製品
  6
CONTINUOUS
 62
    4
 10
304.64812869311208
 20
390.46467510153889
 40
2.75
 50
180
 51
0
  0
LINE
  8
_0-3_躯体と製品
  6
CONTINUOUS
 62
    4
 10
307.39812869311208
 20
390.46467510153889
 11
307.39812869311208
 21
412.46467510153889
  0
ARC
  8
_0-3_躯体と製品
  6
CONTINUOUS
 62
    4
 10
304.64812869311208
 20
412.46467510153889
 40
2.75
 50
0
 51
180
  0
LINE
  8
_0-3_躯体と製品
  6
CONTINUOUS
 62
    4
 10
273.89812869311118
 20
412.46467510153889
 11
273.89812869311118
 21
390.46467510153889
  0
ARC
  8
_0-3_躯体と製品
  6
CONTINUOUS
 62
    4
 10
276.64812869311208
 20
390.46467510153889
 40
2.75
 50
180
 51
0
  0
LINE
  8
_0-3_躯体と製品
  6
CONTINUOUS
 62
    4
 10
279.3981286931139
 20
390.46467510153889
 11
279.3981286931139
 21
412.46467510153889
  0
ARC
  8
_0-3_躯体と製品
  6
CONTINUOUS
 62
    4
 10
276.64812869311208
 20
412.46467510153889
 40
2.75
 50
0
 51
180
  0
LINE
  8
_0-3_躯体と製品
  6
CONTINUOUS
 62
    4
 10
259.89812869311208
 20
412.46467510153889
 11
259.89812869311208
 21
390.46467510153889
  0
ARC
  8
_0-3_躯体と製品
  6
CONTINUOUS
 62
    4
 10
262.64812869311208
 20
390.46467510153889
 40
2.75
 50
180
 51
0
  0
LINE
  8
_0-3_躯体と製品
  6
CONTINUOUS
 62
    4
 10
265.39812869311208
 20
390.46467510153889
 11
265.39812869311208
 21
412.46467510153889
  0
ARC
  8
_0-3_躯体と製品
  6
CONTINUOUS
 62
    4
 10
262.64812869311208
 20
412.46467510153889
 40
2.75
 50
0
 51
180
  0
LINE
  8
_0-3_躯体と製品
  6
CONTINUOUS
 62
    4
 10
287.89812869311118
 20
412.46467510153889
 11
287.89812869311118
 21
390.46467510153889
  0
ARC
  8
_0-3_躯体と製品
  6
CONTINUOUS
 62
    4
 10
290.64812869311208
 20
390.46467510153889
 40
2.75
 50
180
 51
0
  0
LINE
  8
_0-3_躯体と製品
  6
CONTINUOUS
 62
    4
 10
293.39812869311208
 20
390.46467510153889
 11
293.39812869311208
 21
412.46467510153889
  0
ARC
  8
_0-3_躯体と製品
  6
CONTINUOUS
 62
    4
 10
290.64812869311208
 20
412.46467510153889
 40
2.75
 50
0
 51
180
  0
LINE
  8
_0-3_躯体と製品
  6
CONTINUOUS
 62
    4
 10
265.39812869311208
 20
343.96467510153889
 11
265.39812869311208
 21
365.96467510153889
  0
ARC
  8
_0-3_躯体と製品
  6
CONTINUOUS
 62
    4
 10
262.64812869311208
 20
365.96467510153889
 40
2.75
 50
0
 51
180
  0
LINE
  8
_0-3_躯体と製品
  6
CONTINUOUS
 62
    4
 10
259.89812869311208
 20
365.96467510153889
 11
259.89812869311208
 21
343.96467510153889
  0
ARC
  8
_0-3_躯体と製品
  6
CONTINUOUS
 62
    4
 10
262.64812869311208
 20
343.96467510153889
 40
2.75
 50
180
 51
0
  0
LINE
  8
_0-3_躯体と製品
  6
CONTINUOUS
 62
    4
 10
251.39812869311208
 20
343.96467510153889
 11
251.39812869311208
 21
365.96467510153889
  0
ARC
  8
_0-3_躯体と製品
  6
CONTINUOUS
 62
    4
 10
248.64812869311118
 20
365.96467510153889
 40
2.75
 50
0
 51
180
  0
LINE
  8
_0-3_躯体と製品
  6
CONTINUOUS
 62
    4
 10
245.89812869311208
 20
365.96467510153889
 11
245.89812869311208
 21
343.96467510153889
  0
ARC
  8
_0-3_躯体と製品
  6
CONTINUOUS
 62
    4
 10
248.64812869311118
 20
343.96467510153889
 40
2.75
 50
180
 51
0
  0
LINE
  8
_0-3_躯体と製品
  6
CONTINUOUS
 62
    4
 10
279.3981286931139
 20
343.96467510153889
 11
279.3981286931139
 21
365.96467510153889
  0
ARC
  8
_0-3_躯体と製品
  6
CONTINUOUS
 62
    4
 10
276.64812869311208
 20
365.96467510153889
 40
2.75
 50
0
 51
180
  0
LINE
  8
_0-3_躯体と製品
  6
CONTINUOUS
 62
    4
 10
273.89812869311118
 20
365.96467510153889
 11
273.89812869311118
 21
343.96467510153889
  0
ARC
  8
_0-3_躯体と製品
  6
CONTINUOUS
 62
    4
 10
276.64812869311208
 20
343.96467510153889
 40
2.75
 50
180
 51
0
  0
LINE
  8
_0-3_躯体と製品
  6
CONTINUOUS
 62
    4
 10
293.39812869311208
 20
343.96467510153889
 11
293.39812869311208
 21
365.96467510153889
  0
ARC
  8
_0-3_躯体と製品
  6
CONTINUOUS
 62
    4
 10
290.64812869311208
 20
365.96467510153889
 40
2.75
 50
0
 51
180
  0
LINE
  8
_0-3_躯体と製品
  6
CONTINUOUS
 62
    4
 10
287.89812869311118
 20
365.96467510153889
 11
287.89812869311118
 21
343.96467510153889
  0
ARC
  8
_0-3_躯体と製品
  6
CONTINUOUS
 62
    4
 10
290.64812869311208
 20
343.96467510153889
 40
2.75
 50
180
 51
0
  0
LINE
  8
_0-3_躯体と製品
  6
CONTINUOUS
 62
    4
 10
335.39812869311118
 20
343.96467510153889
 11
335.39812869311118
 21
365.96467510153889
  0
ARC
  8
_0-3_躯体と製品
  6
CONTINUOUS
 62
    4
 10
332.64812869311208
 20
365.96467510153889
 40
2.75
 50
0
 51
180
  0
LINE
  8
_0-3_躯体と製品
  6
CONTINUOUS
 62
    4
 10
329.89812869311208
 20
365.96467510153889
 11
329.89812869311208
 21
343.96467510153889
  0
ARC
  8
_0-3_躯体と製品
  6
CONTINUOUS
 62
    4
 10
332.64812869311208
 20
343.96467510153889
 40
2.75
 50
180
 51
0
  0
LINE
  8
_0-3_躯体と製品
  6
CONTINUOUS
 62
    4
 10
307.39812869311208
 20
343.96467510153889
 11
307.39812869311208
 21
365.96467510153889
  0
ARC
  8
_0-3_躯体と製品
  6
CONTINUOUS
 62
    4
 10
304.64812869311208
 20
365.96467510153889
 40
2.75
 50
0
 51
180
  0
LINE
  8
_0-3_躯体と製品
  6
CONTINUOUS
 62
    4
 10
301.89812869311208
 20
365.96467510153889
 11
301.89812869311208
 21
343.96467510153889
  0
ARC
  8
_0-3_躯体と製品
  6
CONTINUOUS
 62
    4
 10
304.64812869311208
 20
343.96467510153889
 40
2.75
 50
180
 51
0
  0
LINE
  8
_0-3_躯体と製品
  6
CONTINUOUS
 62
    4
 10
321.39812869311118
 20
343.96467510153889
 11
321.39812869311118
 21
365.96467510153889
  0
ARC
  8
_0-3_躯体と製品
  6
CONTINUOUS
 62
    4
 10
318.64812869311208
 20
365.96467510153889
 40
2.75
 50
0
 51
180
  0
LINE
  8
_0-3_躯体と製品
  6
CONTINUOUS
 62
    4
 10
315.89812869311208
 20
365.96467510153889
 11
315.89812869311208
 21
343.96467510153889
  0
ARC
  8
_0-3_躯体と製品
  6
CONTINUOUS
 62
    4
 10
318.64812869311208
 20
343.96467510153889
 40
2.75
 50
180
 51
0
  0
LINE
  8
_0-3_躯体と製品
  6
CONTINUOUS
 62
    4
 10
363.39812869311118
 20
343.96467510153889
 11
363.39812869311118
 21
365.96467510153889
  0
ARC
  8
_0-3_躯体と製品
  6
CONTINUOUS
 62
    4
 10
360.64812869311208
 20
365.96467510153889
 40
2.75
 50
0
 51
180
  0
LINE
  8
_0-3_躯体と製品
  6
CONTINUOUS
 62
    4
 10
357.89812869311208
 20
365.96467510153889
 11
357.89812869311208
 21
343.96467510153889
  0
ARC
  8
_0-3_躯体と製品
  6
CONTINUOUS
 62
    4
 10
360.64812869311208
 20
343.96467510153889
 40
2.75
 50
180
 51
0
  0
LINE
  8
_0-3_躯体と製品
  6
CONTINUOUS
 62
    4
 10
349.39812869311118
 20
343.96467510153889
 11
349.39812869311118
 21
365.96467510153889
  0
ARC
  8
_0-3_躯体と製品
  6
CONTINUOUS
 62
    4
 10
346.64812869311208
 20
365.96467510153889
 40
2.75
 50
0
 51
180
  0
LINE
  8
_0-3_躯体と製品
  6
CONTINUOUS
 62
    4
 10
343.89812869311118
 20
365.96467510153889
 11
343.89812869311118
 21
343.96467510153889
  0
ARC
  8
_0-3_躯体と製品
  6
CONTINUOUS
 62
    4
 10
346.64812869311208
 20
343.96467510153889
 40
2.75
 50
180
 51
0
  0
LINE
  8
_0-3_躯体と製品
  6
CONTINUOUS
 62
    4
 10
377.39812869311208
 20
343.96467510153889
 11
377.39812869311208
 21
365.96467510153889
  0
ARC
  8
_0-3_躯体と製品
  6
CONTINUOUS
 62
    4
 10
374.6481286931139
 20
365.96467510153889
 40
2.75
 50
0
 51
180
  0
LINE
  8
_0-3_躯体と製品
  6
CONTINUOUS
 62
    4
 10
371.89812869311208
 20
365.96467510153889
 11
371.89812869311208
 21
343.96467510153889
  0
ARC
  8
_0-3_躯体と製品
  6
CONTINUOUS
 62
    4
 10
374.6481286931139
 20
343.96467510153889
 40
2.75
 50
180
 51
0
  0
LINE
  8
_0-3_躯体と製品
  6
CONTINUOUS
 62
    4
 10
391.39812869311118
 20
343.96467510153889
 11
391.39812869311118
 21
365.96467510153889
  0
ARC
  8
_0-3_躯体と製品
  6
CONTINUOUS
 62
    4
 10
388.64812869311208
 20
365.96467510153889
 40
2.75
 50
0
 51
180
  0
LINE
  8
_0-3_躯体と製品
  6
CONTINUOUS
 62
    4
 10
385.89812869311208
 20
365.96467510153889
 11
385.89812869311208
 21
343.96467510153889
  0
ARC
  8
_0-3_躯体と製品
  6
CONTINUOUS
 62
    4
 10
388.64812869311208
 20
343.96467510153889
 40
2.75
 50
180
 51
0
  0
ARC
  8
_0-3_躯体と製品
  6
CONTINUOUS
 62
    4
 10
206.64812869311208
 20
412.46467510153889
 40
2.75
 50
0
 51
180
  0
LINE
  8
_0-3_躯体と製品
  6
CONTINUOUS
 62
    4
 10
209.39812869311208
 20
412.46467510153889
 11
209.39812869311208
 21
390.46467510153889
  0
ARC
  8
_0-3_躯体と製品
  6
CONTINUOUS
 62
    4
 10
206.64812869311208
 20
390.46467510153889
 40
2.75
 50
180
 51
0
  0
LINE
  8
_0-3_躯体と製品
  6
CONTINUOUS
 62
    4
 10
203.89812869311118
 20
390.46467510153889
 11
203.89812869311118
 21
412.46467510153889
  0
LINE
  8
_0-3_躯体と製品
  6
CONTINUOUS
 62
    4
 10
189.89812869311208
 20
412.46467510153889
 11
189.89812869311208
 21
390.46467510153889
  0
ARC
  8
_0-3_躯体と製品
  6
CONTINUOUS
 62
    4
 10
192.64812869311118
 20
390.46467510153889
 40
2.75
 50
180
 51
0
  0
LINE
  8
_0-3_躯体と製品
  6
CONTINUOUS
 62
    4
 10
195.39812869311208
 20
390.46467510153889
 11
195.39812869311208
 21
412.46467510153889
  0
ARC
  8
_0-3_躯体と製品
  6
CONTINUOUS
 62
    4
 10
192.64812869311118
 20
412.46467510153889
 40
2.75
 50
0
 51
180
  0
LINE
  8
_0-3_躯体と製品
  6
CONTINUOUS
 62
    4
 10
195.39812869311208
 20
343.96467510153889
 11
195.39812869311208
 21
365.96467510153889
  0
ARC
  8
_0-3_躯体と製品
  6
CONTINUOUS
 62
    4
 10
192.64812869311118
 20
365.96467510153889
 40
2.75
 50
0
 51
180
  0
LINE
  8
_0-3_躯体と製品
  6
CONTINUOUS
 62
    4
 10
189.89812869311208
 20
365.96467510153889
 11
189.89812869311208
 21
343.96467510153889
  0
ARC
  8
_0-3_躯体と製品
  6
CONTINUOUS
 62
    4
 10
192.64812869311118
 20
343.96467510153889
 40
2.75
 50
180
 51
0
  0
LINE
  8
_0-3_躯体と製品
  6
CONTINUOUS
 62
    4
 10
209.39812869311208
 20
343.96467510153889
 11
209.39812869311208
 21
365.96467510153889
  0
ARC
  8
_0-3_躯体と製品
  6
CONTINUOUS
 62
    4
 10
206.64812869311208
 20
365.96467510153889
 40
2.75
 50
0
 51
180
  0
LINE
  8
_0-3_躯体と製品
  6
CONTINUOUS
 62
    4
 10
203.89812869311118
 20
365.96467510153889
 11
203.89812869311118
 21
343.96467510153889
  0
ARC
  8
_0-3_躯体と製品
  6
CONTINUOUS
 62
    4
 10
206.64812869311208
 20
343.96467510153889
 40
2.75
 50
180
 51
0
  0
ARC
  8
_0-3_躯体と製品
  6
CONTINUOUS
 62
    4
 10
220.64812869311208
 20
412.46467510153889
 40
2.75
 50
0
 51
180
  0
LINE
  8
_0-3_躯体と製品
  6
CONTINUOUS
 62
    4
 10
217.89812869311118
 20
412.46467510153889
 11
217.89812869311118
 21
390.46467510153889
  0
ARC
  8
_0-3_躯体と製品
  6
CONTINUOUS
 62
    4
 10
220.64812869311208
 20
390.46467510153889
 40
2.75
 50
180
 51
0
  0
LINE
  8
_0-3_躯体と製品
  6
CONTINUOUS
 62
    4
 10
223.39812869311208
 20
390.46467510153889
 11
223.39812869311208
 21
412.46467510153889
  0
LINE
  8
_0-3_躯体と製品
  6
CONTINUOUS
 62
    4
 10
259.89812869311208
 20
446.96467510153889
 11
259.89812869311208
 21
424.96467510153707
  0
ARC
  8
_0-3_躯体と製品
  6
CONTINUOUS
 62
    4
 10
262.64812869311208
 20
424.96467510153707
 40
2.75
 50
180
 51
0
  0
LINE
  8
_0-3_躯体と製品
  6
CONTINUOUS
 62
    4
 10
265.39812869311208
 20
424.96467510153707
 11
265.39812869311208
 21
446.96467510153889
  0
ARC
  8
_0-3_躯体と製品
  6
CONTINUOUS
 62
    4
 10
262.64812869311208
 20
446.96467510153889
 40
2.75
 50
0
 51
180
  0
LINE
  8
_0-3_躯体と製品
  6
CONTINUOUS
 62
    4
 10
223.39812869311208
 20
424.96467510153707
 11
223.39812869311208
 21
446.96467510153889
  0
ARC
  8
_0-3_躯体と製品
  6
CONTINUOUS
 62
    4
 10
220.64812869311208
 20
446.96467510153889
 40
2.75
 50
0
 51
180
  0
LINE
  8
_0-3_躯体と製品
  6
CONTINUOUS
 62
    4
 10
217.89812869311118
 20
446.96467510153889
 11
217.89812869311118
 21
424.96467510153707
  0
ARC
  8
_0-3_躯体と製品
  6
CONTINUOUS
 62
    4
 10
220.64812869311208
 20
424.96467510153707
 40
2.75
 50
180
 51
0
  0
LINE
  8
_0-3_躯体と製品
  6
CONTINUOUS
 62
    4
 10
189.89812869311208
 20
446.96467510153889
 11
189.89812869311208
 21
424.96467510153707
  0
ARC
  8
_0-3_躯体と製品
  6
CONTINUOUS
 62
    4
 10
192.64812869311118
 20
424.96467510153707
 40
2.75
 50
180
 51
0
  0
LINE
  8
_0-3_躯体と製品
  6
CONTINUOUS
 62
    4
 10
195.39812869311208
 20
424.96467510153707
 11
195.39812869311208
 21
446.96467510153889
  0
ARC
  8
_0-3_躯体と製品
  6
CONTINUOUS
 62
    4
 10
192.64812869311118
 20
446.96467510153889
 40
2.75
 50
0
 51
180
  0
LINE
  8
_0-3_躯体と製品
  6
CONTINUOUS
 62
    4
 10
203.89812869311118
 20
446.96467510153889
 11
203.89812869311118
 21
424.96467510153707
  0
ARC
  8
_0-3_躯体と製品
  6
CONTINUOUS
 62
    4
 10
206.64812869311208
 20
424.96467510153707
 40
2.75
 50
180
 51
0
  0
LINE
  8
_0-3_躯体と製品
  6
CONTINUOUS
 62
    4
 10
209.39812869311208
 20
424.96467510153707
 11
209.39812869311208
 21
446.96467510153889
  0
ARC
  8
_0-3_躯体と製品
  6
CONTINUOUS
 62
    4
 10
206.64812869311208
 20
446.96467510153889
 40
2.75
 50
0
 51
180
  0
LINE
  8
_0-3_躯体と製品
  6
CONTINUOUS
 62
    4
 10
245.89812869311208
 20
446.96467510153889
 11
245.89812869311208
 21
424.96467510153707
  0
ARC
  8
_0-3_躯体と製品
  6
CONTINUOUS
 62
    4
 10
248.64812869311118
 20
424.96467510153707
 40
2.75
 50
180
 51
0
  0
LINE
  8
_0-3_躯体と製品
  6
CONTINUOUS
 62
    4
 10
251.39812869311208
 20
424.96467510153707
 11
251.39812869311208
 21
446.96467510153889
  0
ARC
  8
_0-3_躯体と製品
  6
CONTINUOUS
 62
    4
 10
248.64812869311118
 20
446.96467510153889
 40
2.75
 50
0
 51
180
  0
LINE
  8
_0-3_躯体と製品
  6
CONTINUOUS
 62
    4
 10
231.89812869311118
 20
446.96467510153889
 11
231.89812869311118
 21
424.96467510153707
  0
ARC
  8
_0-3_躯体と製品
  6
CONTINUOUS
 62
    4
 10
234.64812869311208
 20
424.96467510153707
 40
2.75
 50
180
 51
0
  0
LINE
  8
_0-3_躯体と製品
  6
CONTINUOUS
 62
    4
 10
237.39812869311208
 20
424.96467510153707
 11
237.39812869311208
 21
446.96467510153889
  0
ARC
  8
_0-3_躯体と製品
  6
CONTINUOUS
 62
    4
 10
234.64812869311208
 20
446.96467510153889
 40
2.75
 50
0
 51
180
  0
LINE
  8
_0-3_躯体と製品
  6
CONTINUOUS
 62
    4
 10
273.89812869311118
 20
446.96467510153889
 11
273.89812869311118
 21
424.96467510153707
  0
ARC
  8
_0-3_躯体と製品
  6
CONTINUOUS
 62
    4
 10
276.64812869311208
 20
424.96467510153707
 40
2.75
 50
180
 51
0
  0
LINE
  8
_0-3_躯体と製品
  6
CONTINUOUS
 62
    4
 10
279.3981286931139
 20
424.96467510153707
 11
279.3981286931139
 21
446.96467510153889
  0
ARC
  8
_0-3_躯体と製品
  6
CONTINUOUS
 62
    4
 10
276.64812869311208
 20
446.96467510153889
 40
2.75
 50
0
 51
180
  0
LINE
  8
_0-3_躯体と製品
  6
CONTINUOUS
 62
    4
 10
287.89812869311118
 20
446.96467510153889
 11
287.89812869311118
 21
424.96467510153707
  0
ARC
  8
_0-3_躯体と製品
  6
CONTINUOUS
 62
    4
 10
290.64812869311208
 20
424.96467510153707
 40
2.75
 50
180
 51
0
  0
LINE
  8
_0-3_躯体と製品
  6
CONTINUOUS
 62
    4
 10
293.39812869311208
 20
424.96467510153707
 11
293.39812869311208
 21
446.96467510153889
  0
ARC
  8
_0-3_躯体と製品
  6
CONTINUOUS
 62
    4
 10
290.64812869311208
 20
446.96467510153889
 40
2.75
 50
0
 51
180
  0
LINE
  8
_0-3_躯体と製品
  6
CONTINUOUS
 62
    4
 10
329.89812869311208
 20
446.96467510153889
 11
329.89812869311208
 21
424.96467510153707
  0
ARC
  8
_0-3_躯体と製品
  6
CONTINUOUS
 62
    4
 10
332.64812869311208
 20
424.96467510153707
 40
2.75
 50
180
 51
0
  0
LINE
  8
_0-3_躯体と製品
  6
CONTINUOUS
 62
    4
 10
335.39812869311118
 20
424.96467510153707
 11
335.39812869311118
 21
446.96467510153889
  0
ARC
  8
_0-3_躯体と製品
  6
CONTINUOUS
 62
    4
 10
332.64812869311208
 20
446.96467510153889
 40
2.75
 50
0
 51
180
  0
LINE
  8
_0-3_躯体と製品
  6
CONTINUOUS
 62
    4
 10
301.89812869311208
 20
446.96467510153889
 11
301.89812869311208
 21
424.96467510153707
  0
ARC
  8
_0-3_躯体と製品
  6
CONTINUOUS
 62
    4
 10
304.64812869311208
 20
424.96467510153707
 40
2.75
 50
180
 51
0
  0
LINE
  8
_0-3_躯体と製品
  6
CONTINUOUS
 62
    4
 10
307.39812869311208
 20
424.96467510153707
 11
307.39812869311208
 21
446.96467510153889
  0
ARC
  8
_0-3_躯体と製品
  6
CONTINUOUS
 62
    4
 10
304.64812869311208
 20
446.96467510153889
 40
2.75
 50
0
 51
180
  0
LINE
  8
_0-3_躯体と製品
  6
CONTINUOUS
 62
    4
 10
315.89812869311208
 20
446.96467510153889
 11
315.89812869311208
 21
424.96467510153707
  0
ARC
  8
_0-3_躯体と製品
  6
CONTINUOUS
 62
    4
 10
318.64812869311208
 20
424.96467510153707
 40
2.75
 50
180
 51
0
  0
LINE
  8
_0-3_躯体と製品
  6
CONTINUOUS
 62
    4
 10
321.39812869311118
 20
424.96467510153707
 11
321.39812869311118
 21
446.96467510153889
  0
ARC
  8
_0-3_躯体と製品
  6
CONTINUOUS
 62
    4
 10
318.64812869311208
 20
446.96467510153889
 40
2.75
 50
0
 51
180
  0
LINE
  8
_0-3_躯体と製品
  6
CONTINUOUS
 62
    4
 10
357.89812869311208
 20
446.96467510153889
 11
357.89812869311208
 21
424.96467510153707
  0
ARC
  8
_0-3_躯体と製品
  6
CONTINUOUS
 62
    4
 10
360.64812869311208
 20
424.96467510153707
 40
2.75
 50
180
 51
0
  0
LINE
  8
_0-3_躯体と製品
  6
CONTINUOUS
 62
    4
 10
363.39812869311118
 20
424.96467510153707
 11
363.39812869311118
 21
446.96467510153889
  0
ARC
  8
_0-3_躯体と製品
  6
CONTINUOUS
 62
    4
 10
360.64812869311208
 20
446.96467510153889
 40
2.75
 50
0
 51
180
  0
LINE
  8
_0-3_躯体と製品
  6
CONTINUOUS
 62
    4
 10
343.89812869311118
 20
446.96467510153889
 11
343.89812869311118
 21
424.96467510153707
  0
ARC
  8
_0-3_躯体と製品
  6
CONTINUOUS
 62
    4
 10
346.64812869311208
 20
424.96467510153707
 40
2.75
 50
180
 51
0
  0
LINE
  8
_0-3_躯体と製品
  6
CONTINUOUS
 62
    4
 10
349.39812869311118
 20
424.96467510153707
 11
349.39812869311118
 21
446.96467510153889
  0
ARC
  8
_0-3_躯体と製品
  6
CONTINUOUS
 62
    4
 10
346.64812869311208
 20
446.96467510153889
 40
2.75
 50
0
 51
180
  0
LINE
  8
_0-3_躯体と製品
  6
CONTINUOUS
 62
    4
 10
371.89812869311208
 20
446.96467510153889
 11
371.89812869311208
 21
424.96467510153707
  0
ARC
  8
_0-3_躯体と製品
  6
CONTINUOUS
 62
    4
 10
374.6481286931139
 20
424.96467510153707
 40
2.75
 50
180
 51
0
  0
LINE
  8
_0-3_躯体と製品
  6
CONTINUOUS
 62
    4
 10
377.39812869311208
 20
424.96467510153707
 11
377.39812869311208
 21
446.96467510153889
  0
ARC
  8
_0-3_躯体と製品
  6
CONTINUOUS
 62
    4
 10
374.6481286931139
 20
446.96467510153889
 40
2.75
 50
0
 51
180
  0
LINE
  8
_0-3_躯体と製品
  6
CONTINUOUS
 62
    4
 10
385.89812869311208
 20
446.96467510153889
 11
385.89812869311208
 21
424.96467510153707
  0
ARC
  8
_0-3_躯体と製品
  6
CONTINUOUS
 62
    4
 10
388.64812869311208
 20
424.96467510153707
 40
2.75
 50
180
 51
0
  0
LINE
  8
_0-3_躯体と製品
  6
CONTINUOUS
 62
    4
 10
391.39812869311118
 20
424.96467510153707
 11
391.39812869311118
 21
446.96467510153889
  0
ARC
  8
_0-3_躯体と製品
  6
CONTINUOUS
 62
    4
 10
388.64812869311208
 20
446.96467510153889
 40
2.75
 50
0
 51
180
  0
LINE
  8
_0-3_躯体と製品
  6
CONTINUOUS
 62
    4
 10
405.39812869311118
 20
343.96467510153889
 11
405.39812869311118
 21
365.96467510153889
  0
ARC
  8
_0-3_躯体と製品
  6
CONTINUOUS
 62
    4
 10
402.64812869311118
 20
365.96467510153889
 40
2.75
 50
0
 51
180
  0
LINE
  8
_0-3_躯体と製品
  6
CONTINUOUS
 62
    4
 10
399.89812869311208
 20
365.96467510153889
 11
399.89812869311208
 21
343.96467510153889
  0
ARC
  8
_0-3_躯体と製品
  6
CONTINUOUS
 62
    4
 10
402.64812869311118
 20
343.96467510153889
 40
2.75
 50
180
 51
0
  0
ARC
  8
_0-3_躯体と製品
  6
CONTINUOUS
 62
    4
 10
402.64812869311118
 20
412.46467510153889
 40
2.75
 50
0
 51
180
  0
LINE
  8
_0-3_躯体と製品
  6
CONTINUOUS
 62
    4
 10
399.89812869311208
 20
412.46467510153889
 11
399.89812869311208
 21
390.46467510153889
  0
ARC
  8
_0-3_躯体と製品
  6
CONTINUOUS
 62
    4
 10
402.64812869311118
 20
390.46467510153889
 40
2.75
 50
180
 51
0
  0
LINE
  8
_0-3_躯体と製品
  6
CONTINUOUS
 62
    4
 10
405.39812869311118
 20
390.46467510153889
 11
405.39812869311118
 21
412.46467510153889
  0
LINE
  8
_0-3_躯体と製品
  6
CONTINUOUS
 62
    4
 10
405.39812869311118
 20
424.96467510153707
 11
405.39812869311118
 21
446.96467510153889
  0
ARC
  8
_0-3_躯体と製品
  6
CONTINUOUS
 62
    4
 10
402.64812869311118
 20
446.96467510153889
 40
2.75
 50
0
 51
180
  0
LINE
  8
_0-3_躯体と製品
  6
CONTINUOUS
 62
    4
 10
399.89812869311208
 20
446.96467510153889
 11
399.89812869311208
 21
424.96467510153707
  0
ARC
  8
_0-3_躯体と製品
  6
CONTINUOUS
 62
    4
 10
402.64812869311118
 20
424.96467510153707
 40
2.75
 50
180
 51
0
  0
LINE
  8
_0-3_躯体と製品
  6
CONTINUOUS
 62
    4
 10
659.6481286931139
 20
478.21467510153889
 11
159.64812869311208
 21
478.21467510153889
  0
LINE
  8
_0-3_躯体と製品
  6
CONTINUOUS
 62
    4
 10
159.64812869311208
 20
478.21467510153889
 11
159.64812869311208
 21
278.21467510153889
  0
LINE
  8
_0-3_躯体と製品
  6
CONTINUOUS
 62
    4
 10
159.64812869311208
 20
278.21467510153889
 11
659.6481286931139
 21
278.21467510153889
  0
LINE
  8
_0-3_躯体と製品
  6
CONTINUOUS
 62
    4
 10
659.6481286931139
 20
278.21467510153889
 11
659.6481286931139
 21
478.21467510153889
  0
LINE
  8
_0-3_躯体と製品
  6
CONTINUOUS
 62
    4
 10
259.89812869311208
 20
331.46467510153707
 11
259.89812869311208
 21
309.46467510153889
  0
ARC
  8
_0-3_躯体と製品
  6
CONTINUOUS
 62
    4
 10
262.64812869311208
 20
309.46467510153889
 40
2.75
 50
180
 51
0
  0
LINE
  8
_0-3_躯体と製品
  6
CONTINUOUS
 62
    4
 10
265.39812869311208
 20
309.46467510153889
 11
265.39812869311208
 21
331.46467510153707
  0
ARC
  8
_0-3_躯体と製品
  6
CONTINUOUS
 62
    4
 10
262.64812869311208
 20
331.46467510153707
 40
2.75
 50
0
 51
180
  0
ARC
  8
_0-3_躯体と製品
  6
CONTINUOUS
 62
    4
 10
220.64812869311208
 20
331.46467510153707
 40
2.75
 50
0
 51
180
  0
LINE
  8
_0-3_躯体と製品
  6
CONTINUOUS
 62
    4
 10
217.89812869311118
 20
331.46467510153707
 11
217.89812869311118
 21
309.46467510153889
  0
ARC
  8
_0-3_躯体と製品
  6
CONTINUOUS
 62
    4
 10
220.64812869311208
 20
309.46467510153889
 40
2.75
 50
180
 51
0
  0
LINE
  8
_0-3_躯体と製品
  6
CONTINUOUS
 62
    4
 10
223.39812869311208
 20
309.46467510153889
 11
223.39812869311208
 21
331.46467510153707
  0
LINE
  8
_0-3_躯体と製品
  6
CONTINUOUS
 62
    4
 10
189.89812869311208
 20
331.46467510153707
 11
189.89812869311208
 21
309.46467510153889
  0
ARC
  8
_0-3_躯体と製品
  6
CONTINUOUS
 62
    4
 10
192.64812869311118
 20
309.46467510153889
 40
2.75
 50
180
 51
0
  0
LINE
  8
_0-3_躯体と製品
  6
CONTINUOUS
 62
    4
 10
195.39812869311208
 20
309.46467510153889
 11
195.39812869311208
 21
331.46467510153707
  0
ARC
  8
_0-3_躯体と製品
  6
CONTINUOUS
 62
    4
 10
192.64812869311118
 20
331.46467510153707
 40
2.75
 50
0
 51
180
  0
LINE
  8
_0-3_躯体と製品
  6
CONTINUOUS
 62
    4
 10
203.89812869311118
 20
331.46467510153707
 11
203.89812869311118
 21
309.46467510153889
  0
ARC
  8
_0-3_躯体と製品
  6
CONTINUOUS
 62
    4
 10
206.64812869311208
 20
309.46467510153889
 40
2.75
 50
180
 51
0
  0
LINE
  8
_0-3_躯体と製品
  6
CONTINUOUS
 62
    4
 10
209.39812869311208
 20
309.46467510153889
 11
209.39812869311208
 21
331.46467510153707
  0
ARC
  8
_0-3_躯体と製品
  6
CONTINUOUS
 62
    4
 10
206.64812869311208
 20
331.46467510153707
 40
2.75
 50
0
 51
180
  0
LINE
  8
_0-3_躯体と製品
  6
CONTINUOUS
 62
    4
 10
231.89812869311118
 20
331.46467510153707
 11
231.89812869311118
 21
309.46467510153889
  0
ARC
  8
_0-3_躯体と製品
  6
CONTINUOUS
 62
    4
 10
234.64812869311208
 20
309.46467510153889
 40
2.75
 50
180
 51
0
  0
LINE
  8
_0-3_躯体と製品
  6
CONTINUOUS
 62
    4
 10
237.39812869311208
 20
309.46467510153889
 11
237.39812869311208
 21
331.46467510153707
  0
ARC
  8
_0-3_躯体と製品
  6
CONTINUOUS
 62
    4
 10
234.64812869311208
 20
331.46467510153707
 40
2.75
 50
0
 51
180
  0
LINE
  8
_0-3_躯体と製品
  6
CONTINUOUS
 62
    4
 10
245.89812869311208
 20
331.46467510153707
 11
245.89812869311208
 21
309.46467510153889
  0
ARC
  8
_0-3_躯体と製品
  6
CONTINUOUS
 62
    4
 10
248.64812869311118
 20
309.46467510153889
 40
2.75
 50
180
 51
0
  0
LINE
  8
_0-3_躯体と製品
  6
CONTINUOUS
 62
    4
 10
251.39812869311208
 20
309.46467510153889
 11
251.39812869311208
 21
331.46467510153707
  0
ARC
  8
_0-3_躯体と製品
  6
CONTINUOUS
 62
    4
 10
248.64812869311118
 20
331.46467510153707
 40
2.75
 50
0
 51
180
  0
LINE
  8
_0-3_躯体と製品
  6
CONTINUOUS
 62
    4
 10
273.89812869311118
 20
331.46467510153707
 11
273.89812869311118
 21
309.46467510153889
  0
ARC
  8
_0-3_躯体と製品
  6
CONTINUOUS
 62
    4
 10
276.64812869311208
 20
309.46467510153889
 40
2.75
 50
180
 51
0
  0
LINE
  8
_0-3_躯体と製品
  6
CONTINUOUS
 62
    4
 10
279.3981286931139
 20
309.46467510153889
 11
279.3981286931139
 21
331.46467510153707
  0
ARC
  8
_0-3_躯体と製品
  6
CONTINUOUS
 62
    4
 10
276.64812869311208
 20
331.46467510153707
 40
2.75
 50
0
 51
180
  0
LINE
  8
_0-3_躯体と製品
  6
CONTINUOUS
 62
    4
 10
287.89812869311118
 20
331.46467510153707
 11
287.89812869311118
 21
309.46467510153889
  0
ARC
  8
_0-3_躯体と製品
  6
CONTINUOUS
 62
    4
 10
290.64812869311208
 20
309.46467510153889
 40
2.75
 50
180
 51
0
  0
LINE
  8
_0-3_躯体と製品
  6
CONTINUOUS
 62
    4
 10
293.39812869311208
 20
309.46467510153889
 11
293.39812869311208
 21
331.46467510153707
  0
ARC
  8
_0-3_躯体と製品
  6
CONTINUOUS
 62
    4
 10
290.64812869311208
 20
331.46467510153707
 40
2.75
 50
0
 51
180
  0
LINE
  8
_0-3_躯体と製品
  6
CONTINUOUS
 62
    4
 10
329.89812869311208
 20
331.46467510153707
 11
329.89812869311208
 21
309.46467510153889
  0
ARC
  8
_0-3_躯体と製品
  6
CONTINUOUS
 62
    4
 10
332.64812869311208
 20
309.46467510153889
 40
2.75
 50
180
 51
0
  0
LINE
  8
_0-3_躯体と製品
  6
CONTINUOUS
 62
    4
 10
335.39812869311118
 20
309.46467510153889
 11
335.39812869311118
 21
331.46467510153707
  0
ARC
  8
_0-3_躯体と製品
  6
CONTINUOUS
 62
    4
 10
332.64812869311208
 20
331.46467510153707
 40
2.75
 50
0
 51
180
  0
LINE
  8
_0-3_躯体と製品
  6
CONTINUOUS
 62
    4
 10
301.89812869311208
 20
331.46467510153707
 11
301.89812869311208
 21
309.46467510153889
  0
ARC
  8
_0-3_躯体と製品
  6
CONTINUOUS
 62
    4
 10
304.64812869311208
 20
309.46467510153889
 40
2.75
 50
180
 51
0
  0
LINE
  8
_0-3_躯体と製品
  6
CONTINUOUS
 62
    4
 10
307.39812869311208
 20
309.46467510153889
 11
307.39812869311208
 21
331.46467510153707
  0
ARC
  8
_0-3_躯体と製品
  6
CONTINUOUS
 62
    4
 10
304.64812869311208
 20
331.46467510153707
 40
2.75
 50
0
 51
180
  0
LINE
  8
_0-3_躯体と製品
  6
CONTINUOUS
 62
    4
 10
315.89812869311208
 20
331.46467510153707
 11
315.89812869311208
 21
309.46467510153889
  0
ARC
  8
_0-3_躯体と製品
  6
CONTINUOUS
 62
    4
 10
318.64812869311208
 20
309.46467510153889
 40
2.75
 50
180
 51
0
  0
LINE
  8
_0-3_躯体と製品
  6
CONTINUOUS
 62
    4
 10
321.39812869311118
 20
309.46467510153889
 11
321.39812869311118
 21
331.46467510153707
  0
ARC
  8
_0-3_躯体と製品
  6
CONTINUOUS
 62
    4
 10
318.64812869311208
 20
331.46467510153707
 40
2.75
 50
0
 51
180
  0
LINE
  8
_0-3_躯体と製品
  6
CONTINUOUS
 62
    4
 10
497.89812869311118
 20
331.46467510153707
 11
497.89812869311118
 21
309.46467510153889
  0
ARC
  8
_0-3_躯体と製品
  6
CONTINUOUS
 62
    4
 10
500.64812869311118
 20
309.46467510153889
 40
2.75
 50
180
 51
0
  0
LINE
  8
_0-3_躯体と製品
  6
CONTINUOUS
 62
    4
 10
503.39812869311208
 20
309.46467510153889
 11
503.39812869311208
 21
331.46467510153707
  0
ARC
  8
_0-3_躯体と製品
  6
CONTINUOUS
 62
    4
 10
500.64812869311118
 20
331.46467510153707
 40
2.75
 50
0
 51
180
  0
LINE
  8
_0-3_躯体と製品
  6
CONTINUOUS
 62
    4
 10
357.89812869311208
 20
331.46467510153707
 11
357.89812869311208
 21
309.46467510153889
  0
ARC
  8
_0-3_躯体と製品
  6
CONTINUOUS
 62
    4
 10
360.64812869311208
 20
309.46467510153889
 40
2.75
 50
180
 51
0
  0
LINE
  8
_0-3_躯体と製品
  6
CONTINUOUS
 62
    4
 10
363.39812869311118
 20
309.46467510153889
 11
363.39812869311118
 21
331.46467510153707
  0
ARC
  8
_0-3_躯体と製品
  6
CONTINUOUS
 62
    4
 10
360.64812869311208
 20
331.46467510153707
 40
2.75
 50
0
 51
180
  0
LINE
  8
_0-3_躯体と製品
  6
CONTINUOUS
 62
    4
 10
343.89812869311118
 20
331.46467510153707
 11
343.89812869311118
 21
309.46467510153889
  0
ARC
  8
_0-3_躯体と製品
  6
CONTINUOUS
 62
    4
 10
346.64812869311208
 20
309.46467510153889
 40
2.75
 50
180
 51
0
  0
LINE
  8
_0-3_躯体と製品
  6
CONTINUOUS
 62
    4
 10
349.39812869311118
 20
309.46467510153889
 11
349.39812869311118
 21
331.46467510153707
  0
ARC
  8
_0-3_躯体と製品
  6
CONTINUOUS
 62
    4
 10
346.64812869311208
 20
331.46467510153707
 40
2.75
 50
0
 51
180
  0
LINE
  8
_0-3_躯体と製品
  6
CONTINUOUS
 62
    4
 10
371.89812869311208
 20
331.46467510153707
 11
371.89812869311208
 21
309.46467510153889
  0
ARC
  8
_0-3_躯体と製品
  6
CONTINUOUS
 62
    4
 10
374.6481286931139
 20
309.46467510153889
 40
2.75
 50
180
 51
0
  0
LINE
  8
_0-3_躯体と製品
  6
CONTINUOUS
 62
    4
 10
377.39812869311208
 20
309.46467510153889
 11
377.39812869311208
 21
331.46467510153707
  0
ARC
  8
_0-3_躯体と製品
  6
CONTINUOUS
 62
    4
 10
374.6481286931139
 20
331.46467510153707
 40
2.75
 50
0
 51
180
  0
LINE
  8
_0-3_躯体と製品
  6
CONTINUOUS
 62
    4
 10
413.89812869311208
 20
331.46467510153707
 11
413.89812869311208
 21
309.46467510153889
  0
ARC
  8
_0-3_躯体と製品
  6
CONTINUOUS
 62
    4
 10
416.64812869311118
 20
309.46467510153889
 40
2.75
 50
180
 51
0
  0
LINE
  8
_0-3_躯体と製品
  6
CONTINUOUS
 62
    4
 10
419.39812869311118
 20
309.46467510153889
 11
419.39812869311118
 21
331.46467510153707
  0
ARC
  8
_0-3_躯体と製品
  6
CONTINUOUS
 62
    4
 10
416.64812869311118
 20
331.46467510153707
 40
2.75
 50
0
 51
180
  0
ARC
  8
_0-3_躯体と製品
  6
CONTINUOUS
 62
    4
 10
402.64812869311118
 20
331.46467510153707
 40
2.75
 50
0
 51
180
  0
LINE
  8
_0-3_躯体と製品
  6
CONTINUOUS
 62
    4
 10
399.89812869311208
 20
331.46467510153707
 11
399.89812869311208
 21
309.46467510153889
  0
ARC
  8
_0-3_躯体と製品
  6
CONTINUOUS
 62
    4
 10
402.64812869311118
 20
309.46467510153889
 40
2.75
 50
180
 51
0
  0
LINE
  8
_0-3_躯体と製品
  6
CONTINUOUS
 62
    4
 10
405.39812869311118
 20
309.46467510153889
 11
405.39812869311118
 21
331.46467510153707
  0
LINE
  8
_0-3_躯体と製品
  6
CONTINUOUS
 62
    4
 10
385.89812869311208
 20
331.46467510153707
 11
385.89812869311208
 21
309.46467510153889
  0
ARC
  8
_0-3_躯体と製品
  6
CONTINUOUS
 62
    4
 10
388.64812869311208
 20
309.46467510153889
 40
2.75
 50
180
 51
0
  0
LINE
  8
_0-3_躯体と製品
  6
CONTINUOUS
 62
    4
 10
391.39812869311118
 20
309.46467510153889
 11
391.39812869311118
 21
331.46467510153707
  0
ARC
  8
_0-3_躯体と製品
  6
CONTINUOUS
 62
    4
 10
388.64812869311208
 20
331.46467510153707
 40
2.75
 50
0
 51
180
  0
LINE
  8
_0-3_躯体と製品
  6
CONTINUOUS
 62
    4
 10
455.89812869311208
 20
331.46467510153707
 11
455.89812869311208
 21
309.46467510153889
  0
ARC
  8
_0-3_躯体と製品
  6
CONTINUOUS
 62
    4
 10
458.64812869311118
 20
309.46467510153889
 40
2.75
 50
180
 51
0
  0
LINE
  8
_0-3_躯体と製品
  6
CONTINUOUS
 62
    4
 10
461.39812869311118
 20
309.46467510153889
 11
461.39812869311118
 21
331.46467510153707
  0
ARC
  8
_0-3_躯体と製品
  6
CONTINUOUS
 62
    4
 10
458.64812869311118
 20
331.46467510153707
 40
2.75
 50
0
 51
180
  0
ARC
  8
_0-3_躯体と製品
  6
CONTINUOUS
 62
    4
 10
444.64812869311118
 20
331.46467510153707
 40
2.75
 50
0
 51
180
  0
LINE
  8
_0-3_躯体と製品
  6
CONTINUOUS
 62
    4
 10
441.89812869311208
 20
331.46467510153707
 11
441.89812869311208
 21
309.46467510153889
  0
ARC
  8
_0-3_躯体と製品
  6
CONTINUOUS
 62
    4
 10
444.64812869311118
 20
309.46467510153889
 40
2.75
 50
180
 51
0
  0
LINE
  8
_0-3_躯体と製品
  6
CONTINUOUS
 62
    4
 10
447.39812869311208
 20
309.46467510153889
 11
447.39812869311208
 21
331.46467510153707
  0
LINE
  8
_0-3_躯体と製品
  6
CONTINUOUS
 62
    4
 10
427.89812869311208
 20
331.46467510153707
 11
427.89812869311208
 21
309.46467510153889
  0
ARC
  8
_0-3_躯体と製品
  6
CONTINUOUS
 62
    4
 10
430.64812869311118
 20
309.46467510153889
 40
2.75
 50
180
 51
0
  0
LINE
  8
_0-3_躯体と製品
  6
CONTINUOUS
 62
    4
 10
433.39812869311208
 20
309.46467510153889
 11
433.39812869311208
 21
331.46467510153707
  0
ARC
  8
_0-3_躯体と製品
  6
CONTINUOUS
 62
    4
 10
430.64812869311118
 20
331.46467510153707
 40
2.75
 50
0
 51
180
  0
LINE
  8
_0-3_躯体と製品
  6
CONTINUOUS
 62
    4
 10
483.89812869311118
 20
331.46467510153707
 11
483.89812869311118
 21
309.46467510153889
  0
ARC
  8
_0-3_躯体と製品
  6
CONTINUOUS
 62
    4
 10
486.64812869311118
 20
309.46467510153889
 40
2.75
 50
180
 51
0
  0
LINE
  8
_0-3_躯体と製品
  6
CONTINUOUS
 62
    4
 10
489.39812869311208
 20
309.46467510153889
 11
489.39812869311208
 21
331.46467510153707
  0
ARC
  8
_0-3_躯体と製品
  6
CONTINUOUS
 62
    4
 10
486.64812869311118
 20
331.46467510153707
 40
2.75
 50
0
 51
180
  0
LINE
  8
_0-3_躯体と製品
  6
CONTINUOUS
 62
    4
 10
469.8981286931139
 20
331.46467510153707
 11
469.8981286931139
 21
309.46467510153889
  0
ARC
  8
_0-3_躯体と製品
  6
CONTINUOUS
 62
    4
 10
472.64812869311208
 20
309.46467510153889
 40
2.75
 50
180
 51
0
  0
LINE
  8
_0-3_躯体と製品
  6
CONTINUOUS
 62
    4
 10
475.39812869311118
 20
309.46467510153889
 11
475.39812869311118
 21
331.46467510153707
  0
ARC
  8
_0-3_躯体と製品
  6
CONTINUOUS
 62
    4
 10
472.64812869311208
 20
331.46467510153707
 40
2.75
 50
0
 51
180
  0
LINE
  8
_0-3_躯体と製品
  6
CONTINUOUS
 62
    4
 10
525.89812869311118
 20
331.46467510153707
 11
525.89812869311118
 21
309.46467510153889
  0
ARC
  8
_0-3_躯体と製品
  6
CONTINUOUS
 62
    4
 10
528.64812869311208
 20
309.46467510153889
 40
2.75
 50
180
 51
0
  0
LINE
  8
_0-3_躯体と製品
  6
CONTINUOUS
 62
    4
 10
531.39812869311118
 20
309.46467510153889
 11
531.39812869311118
 21
331.46467510153707
  0
ARC
  8
_0-3_躯体と製品
  6
CONTINUOUS
 62
    4
 10
528.64812869311208
 20
331.46467510153707
 40
2.75
 50
0
 51
180
  0
LINE
  8
_0-3_躯体と製品
  6
CONTINUOUS
 62
    4
 10
511.89812869311118
 20
331.46467510153707
 11
511.89812869311118
 21
309.46467510153889
  0
ARC
  8
_0-3_躯体と製品
  6
CONTINUOUS
 62
    4
 10
514.64812869311118
 20
309.46467510153889
 40
2.75
 50
180
 51
0
  0
LINE
  8
_0-3_躯体と製品
  6
CONTINUOUS
 62
    4
 10
517.39812869311208
 20
309.46467510153889
 11
517.39812869311208
 21
331.46467510153707
  0
ARC
  8
_0-3_躯体と製品
  6
CONTINUOUS
 62
    4
 10
514.64812869311118
 20
331.46467510153707
 40
2.75
 50
0
 51
180
  0
LINE
  8
_0-3_躯体と製品
  6
CONTINUOUS
 62
    4
 10
567.8981286931139
 20
331.46467510153707
 11
567.8981286931139
 21
309.46467510153889
  0
ARC
  8
_0-3_躯体と製品
  6
CONTINUOUS
 62
    4
 10
570.6481286931139
 20
309.46467510153889
 40
2.75
 50
180
 51
0
  0
LINE
  8
_0-3_躯体と製品
  6
CONTINUOUS
 62
    4
 10
573.39812869311208
 20
309.46467510153889
 11
573.39812869311208
 21
331.46467510153707
  0
ARC
  8
_0-3_躯体と製品
  6
CONTINUOUS
 62
    4
 10
570.6481286931139
 20
331.46467510153707
 40
2.75
 50
0
 51
180
  0
LINE
  8
_0-3_躯体と製品
  6
CONTINUOUS
 62
    4
 10
539.89812869311118
 20
331.46467510153707
 11
539.89812869311118
 21
309.46467510153889
  0
ARC
  8
_0-3_躯体と製品
  6
CONTINUOUS
 62
    4
 10
542.64812869311208
 20
309.46467510153889
 40
2.75
 50
180
 51
0
  0
LINE
  8
_0-3_躯体と製品
  6
CONTINUOUS
 62
    4
 10
545.39812869311208
 20
309.46467510153889
 11
545.39812869311208
 21
331.46467510153707
  0
ARC
  8
_0-3_躯体と製品
  6
CONTINUOUS
 62
    4
 10
542.64812869311208
 20
331.46467510153707
 40
2.75
 50
0
 51
180
  0
LINE
  8
_0-3_躯体と製品
  6
CONTINUOUS
 62
    4
 10
553.89812869311118
 20
331.46467510153707
 11
553.89812869311118
 21
309.46467510153889
  0
ARC
  8
_0-3_躯体と製品
  6
CONTINUOUS
 62
    4
 10
556.64812869311118
 20
309.46467510153889
 40
2.75
 50
180
 51
0
  0
LINE
  8
_0-3_躯体と製品
  6
CONTINUOUS
 62
    4
 10
559.39812869311208
 20
309.46467510153889
 11
559.39812869311208
 21
331.46467510153707
  0
ARC
  8
_0-3_躯体と製品
  6
CONTINUOUS
 62
    4
 10
556.64812869311118
 20
331.46467510153707
 40
2.75
 50
0
 51
180
  0
LINE
  8
_0-3_躯体と製品
  6
CONTINUOUS
 62
    4
 10
609.8981286931139
 20
331.46467510153707
 11
609.8981286931139
 21
309.46467510153889
  0
ARC
  8
_0-3_躯体と製品
  6
CONTINUOUS
 62
    4
 10
612.64812869311481
 20
309.46467510153889
 40
2.75
 50
180
 51
0
  0
LINE
  8
_0-3_躯体と製品
  6
CONTINUOUS
 62
    4
 10
615.3981286931139
 20
309.46467510153889
 11
615.3981286931139
 21
331.46467510153707
  0
ARC
  8
_0-3_躯体と製品
  6
CONTINUOUS
 62
    4
 10
612.64812869311481
 20
331.46467510153707
 40
2.75
 50
0
 51
180
  0
LINE
  8
_0-3_躯体と製品
  6
CONTINUOUS
 62
    4
 10
595.8981286931139
 20
331.46467510153707
 11
595.8981286931139
 21
309.46467510153889
  0
ARC
  8
_0-3_躯体と製品
  6
CONTINUOUS
 62
    4
 10
598.6481286931139
 20
309.46467510153889
 40
2.75
 50
180
 51
0
  0
LINE
  8
_0-3_躯体と製品
  6
CONTINUOUS
 62
    4
 10
601.39812869311208
 20
309.46467510153889
 11
601.39812869311208
 21
331.46467510153707
  0
ARC
  8
_0-3_躯体と製品
  6
CONTINUOUS
 62
    4
 10
598.6481286931139
 20
331.46467510153707
 40
2.75
 50
0
 51
180
  0
LINE
  8
_0-3_躯体と製品
  6
CONTINUOUS
 62
    4
 10
581.8981286931139
 20
331.46467510153707
 11
581.8981286931139
 21
309.46467510153889
  0
ARC
  8
_0-3_躯体と製品
  6
CONTINUOUS
 62
    4
 10
584.6481286931139
 20
309.46467510153889
 40
2.75
 50
180
 51
0
  0
LINE
  8
_0-3_躯体と製品
  6
CONTINUOUS
 62
    4
 10
587.39812869311208
 20
309.46467510153889
 11
587.39812869311208
 21
331.46467510153707
  0
ARC
  8
_0-3_躯体と製品
  6
CONTINUOUS
 62
    4
 10
584.6481286931139
 20
331.46467510153707
 40
2.75
 50
0
 51
180
  0
LINE
  8
_0-3_躯体と製品
  6
CONTINUOUS
 62
    4
 10
623.8981286931139
 20
331.46467510153707
 11
623.8981286931139
 21
309.46467510153889
  0
ARC
  8
_0-3_躯体と製品
  6
CONTINUOUS
 62
    4
 10
626.64812869311118
 20
309.46467510153889
 40
2.75
 50
180
 51
0
  0
LINE
  8
_0-3_躯体と製品
  6
CONTINUOUS
 62
    4
 10
629.39812869311208
 20
309.46467510153889
 11
629.39812869311208
 21
331.46467510153707
  0
ARC
  8
_0-3_躯体と製品
  6
CONTINUOUS
 62
    4
 10
626.64812869311118
 20
331.46467510153707
 40
2.75
 50
0
 51
180
  0
LINE
  8
_0-3_躯体と製品
  6
CONTINUOUS
 62
    4
 10
1148.6311286931059
 20
759.56389296867383
 11
1148.6311286931059
 21
754.66491296867207
  0
LINE
  8
_0-3_躯体と製品
  6
CONTINUOUS
 62
    4
 10
1149.6311286931059
 20
759.56389296867383
 11
1149.6311286931059
 21
754.66491296867207
  0
LINE
  8
_0-3_躯体と製品
  6
CONTINUOUS
 62
    4
 10
1148.6311286931059
 20
673.66491296867389
 11
1148.6311286931059
 21
678.56389296867383
  0
LINE
  8
_0-3_躯体と製品
  6
CONTINUOUS
 62
    4
 10
1149.6311286931059
 20
673.66491296867389
 11
1149.6311286931059
 21
678.56389296867383
  0
TEXT
  8
_0-4_文字-記号
 62
    7
 10
367.06570316510988
 20
841.70411049737413
 40
10
 41
1
 50
0
  1
床換気口 １０００×２００
  0
TEXT
  8
_0-4_文字-記号
 62
    7
 10
1066.8018552622043
 20
842.47880349162551
 40
10
 41
1
 50
0
  1
換気穴 ５.５×２７.５
  0
TEXT
  8
_0-4_文字-記号
 62
    7
 10
566.46743171566413
 20
507.13529190220652
 40
10
 41
1
 50
0
  1
換気穴 ５.５×２７.５
  0
TEXT
  8
_0-4_文字-記号
 62
    7
 10
367.06570316510988
 20
503.30438263024007
 40
10
 41
1
 50
0
  1
床換気口 ５００×２００
  0
TEXT
  8
_0-4_文字-記号
 62
    7
 10
401.43572636988847
 20
99.984077305776736
 40
12
 41
1
 50
0
  1
５００×２００
  0
TEXT
  8
_0-4_文字-記号
 62
    7
 10
381.03471310618352
 20
79.984077305775827
 40
12
 41
1
 50
0
  1
１,０００×２００
  0
ENDSEC
  0
EOF
