  0
SECTION
  2
HEADER
  9
$ACADVER
  1
AC1009
  9
$INSBASE
 10
0
 20
0
 30
0
  9
$EXTMIN
 10
0
 20
0
  9
$EXTMAX
 10
1189
 20
841
  9
$LIMMIN
 10
0
 20
0
  9
$LIMMAX
 10
1189
 20
841
  9
$LTSCALE
 40
0.5
  0
ENDSEC
  0
SECTION
  2
TABLES
  0
TABLE
  2
LTYPE
 70
     9
  0
LTYPE
  2
CONTINUOUS
 70
    64
  3
実線
 72
    65
 73
     0
 40
0.0
  0
LTYPE
  2
DASHED1
 70
    64
  3
--  --  --  --  --  --  --  --  
 72
    65
 73
     2
 40
2.5
 49
1.25
 49
-1.25
  0
LTYPE
  2
DASHED2
 70
    64
  3
----    ----    ----    ----    
 72
    65
 73
     2
 40
5.0
 49
2.5
 49
-2.5
  0
LTYPE
  2
DASHED3
 70
    64
  3
------  ------  ------  ------  
 72
    65
 73
     2
 40
5.0
 49
3.75
 49
-1.25
  0
LTYPE
  2
CENTER1
 70
    64
  3
----- - ----- - ----- - ----- - 
 72
    65
 73
     4
 40
10.0
 49
6.25
 49
-1.25
 49
1.25
 49
-1.25
  0
LTYPE
  2
CENTER2
 70
    64
  3
----------  --  ----------  --  
 72
    65
 73
     4
 40
20.0
 49
12.5
 49
-2.5
 49
2.5
 49
-2.5
  0
LTYPE
  2
PHANTOM1
 70
    64
  3
--- - - --- - - --- - - --- - - 
 72
    65
 73
     6
 40
10.0
 49
3.25
 49
-1.25
 49
1.25
 49
-1.25
 49
1.25
 49
-1.25
  0
LTYPE
  2
PHANTOM2
 70
    64
  3
--------  -  -  --------  -  -  
 72
    65
 73
     6
 40
20.0
 49
10.0
 49
-2.5
 49
1.25
 49
-2.5
 49
1.25
 49
-2.5
  0
LTYPE
  2
DOT
 70
    64
  3
-   -   -   -   -   -   -   -   
 72
    65
 73
     2
 40
2.5
 49
0.625
 49
-1.875
  0
LTYPE
  2
DUMMY
 70
    64
  3
ダミー
 72
    65
 73
     0
 40
0.0
  0
LTYPE
  2
RAND1
 70
    64
  3
ランダム線1
 72
    65
 73
     4
 40
10.0
 49
1.0
 49
-2.0
 49
3.0
 49
-4.0
  0
LTYPE
  2
RAND2
 70
    64
  3
ランダム線2
 72
    65
 73
     4
 40
14.0
 49
2.0
 49
-3.0
 49
4.0
 49
-5.0
  0
LTYPE
  2
RAND3
 70
    64
  3
ランダム線3
 72
    65
 73
     4
 40
18.0
 49
3.0
 49
-4.0
 49
5.0
 49
-6.0
  0
LTYPE
  2
RAND4
 70
    64
  3
ランダム線4
 72
    65
 73
     4
 40
22.0
 49
4.0
 49
-5.0
 49
6.0
 49
-7.0
  0
LTYPE
  2
RAND5
 70
    64
  3
ランダム線5
 72
    65
 73
     4
 40
26.0
 49
5.0
 49
-6.0
 49
7.0
 49
-8.0
  0
LTYPE
  2
LONG1
 70
    64
  3
----------  --  ----------  --  
 72
    65
 73
     4
 40
40.0
 49
32.5
 49
-2.5
 49
2.5
 49
-2.5
  0
LTYPE
  2
LONG2
 70
    64
  3
--------  -  -  --------  -  -  
 72
    65
 73
     6
 40
40.0
 49
30.0
 49
-2.5
 49
1.25
 49
-2.5
 49
1.25
 49
-2.5
  0
LTYPE
  2
LONG3
 70
    64
  3
+++++++++++++++..+++++++++++++++
 72
    65
 73
     2
 40
40.0
 49
37.5
 49
-2.5
  0
LTYPE
  2
LONG4
 70
    64
  3
+++++++++++++++..+++++++++++++++
 72
    65
 73
     2
 40
80.0
 49
75.0
 49
-5.0
  0
LTYPE
  2
LONG5
 70
    64
  3
----------  --  ----------  --  
 72
    65
 73
     4
 40
60.0
 49
37.5
 49
-7.5
 49
7.5
 49
-7.5
  0
LTYPE
  2
dashed
 70
   64
  3
-------   -------------   ------
 72
   65
 73
    2
 40
7.5
 49
6
 49
-1.5
  0
LTYPE
  2
dashed_spaced
 70
   64
  3
----        --------        ----
 72
   65
 73
    2
 40
12
 49
6
 49
-6
  0
LTYPE
  2
long_dashed_dotted
 70
   64
  3
------------- --- --------------
 72
   65
 73
    4
 40
15.25
 49
12
 49
-1.5
 49
0.25
 49
-1.5
  0
LTYPE
  2
long_dashed_double-dotted
 70
   64
  3
----------- --- --- ------------
 72
   65
 73
    6
 40
17
 49
12
 49
-1.5
 49
0.25
 49
-1.5
 49
0.25
 49
-1.5
  0
LTYPE
  2
long_dashed_triplicate-dotted
 70
   64
  3
--------- --- --- --- ----------
 72
   65
 73
    8
 40
18.75
 49
12
 49
-1.5
 49
0.25
 49
-1.5
 49
0.25
 49
-1.5
 49
0.25
 49
-1.5
  0
LTYPE
  2
dotted
 70
   64
  3
   -       -       -       -    
 72
   65
 73
    2
 40
1.75
 49
0.25
 49
-1.5
  0
LTYPE
  2
chain
 70
   64
  3
-------------- -- --------------
 72
   65
 73
    4
 40
18.5
 49
12
 49
-1.5
 49
3.5
 49
-1.5
  0
LTYPE
  2
chain_double_dash
 70
   64
  3
------------ -- -- -------------
 72
   65
 73
    6
 40
23.5
 49
12
 49
-1.5
 49
3.5
 49
-1.5
 49
3.5
 49
-1.5
  0
LTYPE
  2
dashed_dotted
 70
   64
  3
-----------     -     ----------
 72
   65
 73
    4
 40
9.25
 49
6
 49
-1.5
 49
0.25
 49
-1.5
  0
LTYPE
  2
double-dashed_dotted
 70
   64
  3
------   -----------   -   -----
 72
   65
 73
    6
 40
16.75
 49
6
 49
-1.5
 49
6
 49
-1.5
 49
0.25
 49
-1.5
  0
LTYPE
  2
dashed_double-dotted
 70
   64
  3
---------    -    -    ---------
 72
   65
 73
    6
 40
11
 49
6
 49
-1.5
 49
0.25
 49
-1.5
 49
0.25
 49
-1.5
  0
LTYPE
  2
double-dashed_double-dotted
 70
   64
  3
-----   ---------   -   -   ----
 72
   65
 73
    8
 40
18.5
 49
6
 49
-1.5
 49
6
 49
-1.5
 49
0.25
 49
-1.5
 49
0.25
 49
-1.5
  0
LTYPE
  2
dashed_triplicate-dotted
 70
   64
  3
-------    -    -    -    ------
 72
   65
 73
    8
 40
12.75
 49
6
 49
-1.5
 49
0.25
 49
-1.5
 49
0.25
 49
-1.5
 49
0.25
 49
-1.5
  0
LTYPE
  2
double-dashed_triplicate-dotted
 70
   64
  3
-----  ---------  -  -  -  -----
 72
   65
 73
   10
 40
20.25
 49
6
 49
-1.5
 49
6
 49
-1.5
 49
0.25
 49
-1.5
 49
0.25
 49
-1.5
 49
0.25
 49
-1.5
  0
LTYPE
  2
undefined
 70
   64
  3
--------------------------------
 72
   65
 73
    0
 40
0
  0
LTYPE
  2
PHANTOM2_17
 70
   64
  3
---------   ---   ---   --------
 72
   65
 73
    6
 40
1.25
 49
0.625
 49
-0.125
 49
0.125
 49
-0.125
 49
0.125
 49
-0.125
  0
ENDTAB
  0
TABLE
  2
STYLE
  5
3
100
AcDbSymbolTable
 70
     1
  0
STYLE
  5
10
100
AcDbSymbolTableRecord
100
AcDbTextStyleTableRecord
  2
STANDARD
 70
     0
 40
0.0
 41
1.0
 50
0.0
 71
     0
 42
0.2
  3
txt
  4
bigfont.shx
  0
STYLE
  5
26
100
AcDbSymbolTableRecord
100
AcDbTextStyleTableRecord
  2
TATEGAKI
 70
    68
 40
0.0
 41
1.0
 50
0.0
 71
     0
 42
1.0
  3
txt
  4
bigfont.shx
  0
ENDTAB
  0
TABLE
  2
LAYER
 70
    7
  0
LAYER
  2
_0-2_寸法
 70
   64
 62
    7
  6
CONTINUOUS
  0
LAYER
  2
_0-3_躯体と製品
 70
   64
 62
    7
  6
CONTINUOUS
  0
LAYER
  2
_0-4_文字-記号
 70
   64
 62
    7
  6
CONTINUOUS
  0
LAYER
  2
_0-5_中心線
 70
   64
 62
    7
  6
CONTINUOUS
  0
LAYER
  2
_0-6_Layer_01
 70
   64
 62
    7
  6
CONTINUOUS
  0
LAYER
  2
_0-7_Layer_05
 70
   64
 62
    7
  6
CONTINUOUS
  0
LAYER
  2
ADD_LINE
 70
   64
 62
    7
  6
CONTINUOUS
  0
ENDTAB
  0
ENDSEC
  0
SECTION
  2
BLOCKS
  0
BLOCK
  2
-000-_Dot
 70
   64
 10
0
 20
0
 30
0
  0
CIRCLE
  8
_0-0_0
  6
CONTINUOUS
 62
    7
 10
0
 20
0
 40
0.25
  0
LINE
  8
_0-0_0
  6
CONTINUOUS
 62
    7
 10
0.25
 20
0
 11
-0.25
 21
0
  0
LINE
  8
_0-0_0
  6
CONTINUOUS
 62
    7
 10
-0.5
 20
0
 11
-1
 21
0
  0
ENDBLK
  0
BLOCK
  2
-001-_D2
 70
   64
 10
0
 20
0
 30
0
  0
LINE
  8
_0-4_文字-記号
  6
CONTINUOUS
 62
    4
 10
9249.5871416970549
 20
8569.1051246937368
 11
9249.5871416970549
 21
8522.7414253384213
  0
LINE
  8
_0-4_文字-記号
  6
CONTINUOUS
 62
    4
 10
10149.587141697049
 20
8569.1051246937368
 11
10149.587141697049
 21
8522.7414253384213
  0
LINE
  8
_0-4_文字-記号
  6
CONTINUOUS
 62
    4
 10
9254.5871416970531
 20
8522.7414253384213
 11
10144.587141697049
 21
8522.7414253384213
  0
INSERT
  2
-000-_Dot
  8
_0-4_文字-記号
 10
9249.5871416970549
 20
8522.7414253384213
 41
5
 42
5
 50
180
  0
INSERT
  2
-000-_Dot
  8
_0-4_文字-記号
 10
10149.587141697049
 20
8522.7414253384213
 41
5
 42
5
 50
0
  0
TEXT
  8
_0-4_文字-記号
 62
    7
 10
9692.0871416970531
 20
8530.2414253384213
 40
10
 41
1
 50
0
  1
900
  0
POINT
  8
_0-1_Defpoints
 62
    7
 10
9249.5871416970549
 20
8574.1051246937368
  0
POINT
  8
_0-1_Defpoints
 62
    7
 10
10149.587141697049
 20
8574.1051246937368
  0
POINT
  8
_0-1_Defpoints
 62
    7
 10
10149.587141697049
 20
8522.7414253384213
  0
ENDBLK
  0
BLOCK
  2
-002-_D3
 70
   64
 10
0
 20
0
 30
0
  0
LINE
  8
_0-4_文字-記号
  6
CONTINUOUS
 62
    4
 10
10154.587141697049
 20
8574.1051246937368
 11
10212.166181739791
 21
8574.1051246937368
  0
LINE
  8
_0-4_文字-記号
  6
CONTINUOUS
 62
    4
 10
10154.587141697049
 20
8774.1051246937386
 11
10212.166181739791
 21
8774.1051246937386
  0
LINE
  8
_0-4_文字-記号
  6
CONTINUOUS
 62
    4
 10
10212.166181739791
 20
8579.1051246937386
 11
10212.166181739791
 21
8769.105124693735
  0
INSERT
  2
-000-_Dot
  8
_0-4_文字-記号
 10
10212.166181739791
 20
8574.1051246937368
 41
5
 42
5
 50
270
  0
INSERT
  2
-000-_Dot
  8
_0-4_文字-記号
 10
10212.166181739791
 20
8774.1051246937386
 41
5
 42
5
 50
90
  0
TEXT
  8
_0-4_文字-記号
 62
    7
 10
10204.66618173978
 20
8666.6051246937386
 40
10
 41
1
 50
90
  1
200
  0
POINT
  8
_0-1_Defpoints
 62
    7
 10
10149.587141697049
 20
8574.1051246937368
  0
POINT
  8
_0-1_Defpoints
 62
    7
 10
10149.587141697049
 20
8774.1051246937386
  0
POINT
  8
_0-1_Defpoints
 62
    7
 10
10212.166181739791
 20
8774.1051246937386
  0
ENDBLK
  0
BLOCK
  2
-003-_D4
 70
   64
 10
0
 20
0
 30
0
  0
LINE
  8
_0-4_文字-記号
  6
CONTINUOUS
 62
    4
 10
10150.586141697029
 20
8453.835026095132
 11
10200.583893504871
 21
8453.835026095132
  0
LINE
  8
_0-4_文字-記号
  6
CONTINUOUS
 62
    4
 10
10154.087141697049
 20
8468.8360260951358
 11
10200.583893504871
 21
8468.8360260951358
  0
LINE
  8
_0-4_文字-記号
  6
CONTINUOUS
 62
    4
 10
10200.583893504871
 20
8448.835026095132
 11
10200.583893504871
 21
8443.8350260951338
  0
LINE
  8
_0-4_文字-記号
  6
CONTINUOUS
 62
    4
 10
10200.583893504871
 20
8473.8360260951358
 11
10200.583893504871
 21
8478.8360260951358
  0
LINE
  8
_0-4_文字-記号
  6
CONTINUOUS
 62
    4
 10
10200.583893504871
 20
8461.3355260951339
 11
10224.06111419507
 21
8455.2809464098245
  0
LINE
  8
_0-4_文字-記号
  6
CONTINUOUS
 62
    4
 10
10224.06111419507
 20
8455.2809464098245
 11
10224.06111419507
 21
8425.5190416479199
  0
TEXT
  8
_0-4_文字-記号
 62
    7
 10
10216.56111419507
 20
8435.3999940288741
 40
10
 41
1
 50
90
  1
15
  0
LINE
  8
_0-4_文字-記号
  6
CONTINUOUS
 62
    4
 10
10200.583893504871
 20
8453.835026095132
 11
10200.583893504871
 21
8468.8360260951358
  0
INSERT
  2
-000-_Dot
  8
_0-4_文字-記号
 10
10200.583893504871
 20
8453.835026095132
 41
5
 42
5
 50
90
  0
INSERT
  2
-000-_Dot
  8
_0-4_文字-記号
 10
10200.583893504871
 20
8468.8360260951358
 41
5
 42
5
 50
270
  0
POINT
  8
_0-1_Defpoints
 62
    7
 10
10145.586141697029
 20
8453.835026095132
  0
POINT
  8
_0-1_Defpoints
 62
    7
 10
10149.087141697049
 20
8468.8360260951358
  0
POINT
  8
_0-1_Defpoints
 62
    7
 10
10200.583893504871
 20
8468.8360260951358
  0
ENDBLK
  0
BLOCK
  2
-004-_D5
 70
   64
 10
0
 20
0
 30
0
  0
LINE
  8
_0-2_寸法
  6
CONTINUOUS
 62
    4
 10
9150.8552613153242
 20
8774.1051246937386
 11
9088.4236558896609
 21
8774.1051246937386
  0
LINE
  8
_0-2_寸法
  6
CONTINUOUS
 62
    4
 10
9150.8552613153242
 20
8574.105324693739
 11
9088.4236558896609
 21
8574.105324693739
  0
LINE
  8
_0-2_寸法
  6
CONTINUOUS
 62
    4
 10
9088.4236558896609
 20
8769.105124693735
 11
9088.4236558896609
 21
8579.1053246937408
  0
INSERT
  2
-000-_Dot
  8
_0-2_寸法
 10
9088.4236558896609
 20
8774.1051246937386
 41
5
 42
5
 50
90
  0
INSERT
  2
-000-_Dot
  8
_0-2_寸法
 10
9088.4236558896609
 20
8574.105324693739
 41
5
 42
5
 50
270
  0
TEXT
  8
_0-2_寸法
 62
    7
 10
9080.9236558896573
 20
8666.6052246937397
 40
10
 41
1
 50
90
  1
200
  0
POINT
  8
_0-1_Defpoints
 62
    7
 10
9155.8552613153224
 20
8774.1051246937386
  0
POINT
  8
_0-1_Defpoints
 62
    7
 10
9155.8552613153224
 20
8574.105324693739
  0
POINT
  8
_0-1_Defpoints
 62
    7
 10
9088.4236558896609
 20
8574.105324693739
  0
ENDBLK
  0
BLOCK
  2
-005-_D6
 70
   64
 10
0
 20
0
 30
0
  0
LINE
  8
_0-2_寸法
  6
CONTINUOUS
 62
    4
 10
9154.3552613153224
 20
8570.6051246152001
 11
9154.3552613153224
 21
8522.8114691207666
  0
LINE
  8
_0-2_寸法
  6
CONTINUOUS
 62
    4
 10
9169.3552613153242
 20
8570.6051246937368
 11
9169.3552613153242
 21
8522.8114691207666
  0
LINE
  8
_0-2_寸法
  6
CONTINUOUS
 62
    4
 10
9149.3552613153224
 20
8522.8114691207666
 11
9144.3552613153242
 21
8522.8114691207666
  0
LINE
  8
_0-2_寸法
  6
CONTINUOUS
 62
    4
 10
9174.3552613153242
 20
8522.8114691207666
 11
9179.3552613153242
 21
8522.8114691207666
  0
LINE
  8
_0-2_寸法
  6
CONTINUOUS
 62
    4
 10
9161.8552613153224
 20
8522.8114691207666
 11
9169.7259490797242
 21
8498.3546731029364
  0
LINE
  8
_0-2_寸法
  6
CONTINUOUS
 62
    4
 10
9169.7259490797242
 20
8498.3546731029364
 11
9199.4878538416287
 21
8498.3546731029364
  0
TEXT
  8
_0-2_寸法
 62
    7
 10
9179.6069014606765
 20
8505.8546731029364
 40
10
 41
1
 50
0
  1
15
  0
LINE
  8
_0-2_寸法
  6
CONTINUOUS
 62
    4
 10
9154.3552613153224
 20
8522.8114691207666
 11
9169.3552613153242
 21
8522.8114691207666
  0
INSERT
  2
-000-_Dot
  8
_0-2_寸法
 10
9154.3552613153224
 20
8522.8114691207666
 41
5
 42
5
 50
0
  0
INSERT
  2
-000-_Dot
  8
_0-2_寸法
 10
9169.3552613153242
 20
8522.8114691207666
 41
5
 42
5
 50
180
  0
POINT
  8
_0-1_Defpoints
 62
    7
 10
9154.3552613153224
 20
8575.6051246151983
  0
POINT
  8
_0-1_Defpoints
 62
    7
 10
9169.3552613153242
 20
8575.6051246937368
  0
POINT
  8
_0-1_Defpoints
 62
    7
 10
9169.3552613153242
 20
8522.8114691207666
  0
ENDBLK
  0
BLOCK
  2
-006-_D7
 70
   64
 10
0
 20
0
 30
0
  0
LINE
  8
_0-2_寸法
  6
CONTINUOUS
 62
    4
 10
10152.97190037305
 20
8186.3452389813929
 11
10220.406743894549
 21
8186.3452389813929
  0
LINE
  8
_0-2_寸法
  6
CONTINUOUS
 62
    4
 10
10158.80365116262
 20
8211.3475997486639
 11
10220.406743894549
 21
8211.3475997486639
  0
LINE
  8
_0-2_寸法
  6
CONTINUOUS
 62
    4
 10
10220.406743894549
 20
8191.3452389813938
 11
10220.406743894549
 21
8206.3475997486639
  0
TEXT
  8
_0-2_寸法
 62
    7
 10
10212.906743894549
 20
8193.8464193650289
 40
10
 41
1
 50
90
  1
15
  0
INSERT
  2
-000-_Dot
  8
_0-2_寸法
 10
10220.406743894549
 20
8186.3452389813929
 41
5
 42
5
 50
270
  0
INSERT
  2
-000-_Dot
  8
_0-2_寸法
 10
10220.406743894549
 20
8211.3475997486639
 41
5
 42
5
 50
90
  0
POINT
  8
_0-1_Defpoints
 62
    7
 10
10147.97190037305
 20
8186.3452389813929
  0
POINT
  8
_0-1_Defpoints
 62
    7
 10
10153.80365116262
 20
8211.3475997486639
  0
POINT
  8
_0-1_Defpoints
 62
    7
 10
10220.406743894549
 20
8211.3475997486639
  0
ENDBLK
  0
BLOCK
  2
-007-_D8
 70
   64
 10
0
 20
0
 30
0
  0
LINE
  8
_0-4_文字-記号
  6
CONTINUOUS
 62
    4
 10
10061.303566987321
 20
8215.5142663323131
 11
10061.303566987321
 21
8250.1868932628622
  0
LINE
  8
_0-4_文字-記号
  6
CONTINUOUS
 62
    4
 10
10074.63690032066
 20
8215.5142664195828
 11
10074.63690032066
 21
8250.1868932628622
  0
LINE
  8
_0-4_文字-記号
  6
CONTINUOUS
 62
    4
 10
10056.30356698733
 20
8250.1868932628622
 11
10051.30356698733
 21
8250.1868932628622
  0
LINE
  8
_0-4_文字-記号
  6
CONTINUOUS
 62
    4
 10
10079.63690032066
 20
8250.1868932628622
 11
10084.63690032066
 21
8250.1868932628622
  0
TEXT
  8
_0-4_文字-記号
 62
    7
 10
10065.47023365399
 20
8257.6868932628622
 40
10
 41
1
 50
0
  1
8
  0
INSERT
  2
-000-_Dot
  8
_0-4_文字-記号
 10
10061.303566987321
 20
8250.1868932628622
 41
5
 42
5
 50
0
  0
INSERT
  2
-000-_Dot
  8
_0-4_文字-記号
 10
10074.63690032066
 20
8250.1868932628622
 41
5
 42
5
 50
180
  0
POINT
  8
_0-1_Defpoints
 62
    7
 10
10061.303566987321
 20
8210.5142663323131
  0
POINT
  8
_0-1_Defpoints
 62
    7
 10
10074.63690032066
 20
8210.5142664195828
  0
POINT
  8
_0-1_Defpoints
 62
    7
 10
10074.63690032066
 20
8250.1868932628622
  0
ENDBLK
  0
BLOCK
  2
-008-_D9
 70
   64
 10
0
 20
0
 30
0
  0
LINE
  8
_0-4_文字-記号
  6
CONTINUOUS
 62
    4
 10
10074.638566987351
 20
8215.5142663323131
 11
10074.638566987351
 21
8250.1868932628622
  0
LINE
  8
_0-4_文字-記号
  6
CONTINUOUS
 62
    4
 10
10087.97190032069
 20
8215.5142664195828
 11
10087.97190032069
 21
8250.1868932628622
  0
LINE
  8
_0-4_文字-記号
  6
CONTINUOUS
 62
    4
 10
10069.638566987351
 20
8250.1868932628622
 11
10064.638566987351
 21
8250.1868932628622
  0
LINE
  8
_0-4_文字-記号
  6
CONTINUOUS
 62
    4
 10
10092.97190032069
 20
8250.1868932628622
 11
10097.97190032069
 21
8250.1868932628622
  0
TEXT
  8
_0-4_文字-記号
 62
    7
 10
10079.63690032066
 20
8257.6868932628622
 40
10
 41
1
 50
0
  1
8
  0
INSERT
  2
-000-_Dot
  8
_0-4_文字-記号
 10
10074.638566987351
 20
8250.1868932628622
 41
5
 42
5
 50
0
  0
INSERT
  2
-000-_Dot
  8
_0-4_文字-記号
 10
10087.97190032069
 20
8250.1868932628622
 41
5
 42
5
 50
180
  0
POINT
  8
_0-1_Defpoints
 62
    7
 10
10074.638566987351
 20
8210.5142663323131
  0
POINT
  8
_0-1_Defpoints
 62
    7
 10
10087.97190032069
 20
8210.5142664195828
  0
POINT
  8
_0-1_Defpoints
 62
    7
 10
10087.97190032069
 20
8250.1868932628622
  0
ENDBLK
  0
ENDSEC
  0
SECTION
  2
ENTITIES
  0
LINE
  8
_0-6_Layer_01
  6
CONTINUOUS
 62
    3
 10
1069.4179225558546
 20
143.21630019036638
 11
1094.0862558891931
 21
143.21630019036638
  0
LINE
  8
_0-6_Layer_01
  6
CONTINUOUS
 62
    3
 10
1069.4179225558546
 20
141.55130019037279
 11
1094.0862558891931
 21
141.55130019037279
  0
LINE
  8
_0-6_Layer_01
  6
CONTINUOUS
 62
    3
 10
1069.4179225558546
 20
151.5513001903746
 11
1094.0862558891931
 21
151.5513001903746
  0
LINE
  8
_0-6_Layer_01
  6
CONTINUOUS
 62
    3
 10
1069.4179225558546
 20
153.21630019036638
 11
1094.0862558891931
 21
153.21630019036638
  0
LINE
  8
_0-6_Layer_01
  6
CONTINUOUS
 62
    3
 10
909.41792255585278
 20
143.21630019036638
 11
934.08625588919676
 21
143.21630019036638
  0
LINE
  8
_0-6_Layer_01
  6
CONTINUOUS
 62
    3
 10
909.41792255585278
 20
141.55130019037279
 11
934.08625588919676
 21
141.55130019037279
  0
LINE
  8
_0-6_Layer_01
  6
CONTINUOUS
 62
    3
 10
909.41792255585278
 20
153.21630019036638
 11
934.08625588919676
 21
153.21630019036638
  0
LINE
  8
_0-6_Layer_01
  6
CONTINUOUS
 62
    3
 10
909.41792255585278
 20
151.5513001903746
 11
934.08625588919676
 21
151.5513001903746
  0
LINE
  8
_0-7_Layer_05
  6
CONTINUOUS
 62
    4
 10
888.08625588918949
 20
137.71630019037366
 11
888.08625588918949
 21
154.05130019037279
  0
LINE
  8
_0-7_Layer_05
  6
CONTINUOUS
 62
    4
 10
886.08625588921677
 20
137.71630019037366
 11
886.08625588921677
 21
154.05130019037279
  0
LINE
  8
_0-6_Layer_01
  6
CONTINUOUS
 62
    3
 10
885.08625588920404
 20
134.88296685703244
 11
885.08625588920404
 21
157.05130019036551
  0
LINE
  8
_0-6_Layer_01
  6
CONTINUOUS
 62
    3
 10
886.08625588921677
 20
157.05130019036551
 11
886.08625588921677
 21
135.88296685704518
  0
LINE
  8
_0-6_Layer_01
  6
CONTINUOUS
 62
    3
 10
908.41792255584369
 20
134.88296685703244
 11
908.41792255584369
 21
157.05130019036551
  0
LINE
  8
_0-6_Layer_01
  6
CONTINUOUS
 62
    3
 10
907.41792255588189
 20
157.05130019036551
 11
907.41792255588189
 21
135.88296685704518
  0
LINE
  8
_0-6_Layer_01
  6
CONTINUOUS
 62
    3
 10
884.08625588919494
 20
157.05130019036551
 11
884.08625588919494
 21
135.88296685704518
  0
LINE
  8
_0-6_Layer_01
  6
CONTINUOUS
 62
    3
 10
909.41792255585278
 20
157.05130019036551
 11
909.41792255585278
 21
135.88296685704518
  0
LINE
  8
_0-6_Layer_01
  6
CONTINUOUS
 62
    3
 10
878.41792255584369
 20
148.71630019037366
 11
878.41792255584369
 21
146.05130019036733
  0
LINE
  8
_0-3_躯体と製品
  6
CONTINUOUS
 62
    3
 10
884.30125588917508
 20
134.88296685703244
 11
909.30125588917326
 21
134.88296685703244
  0
LINE
  8
_0-3_躯体と製品
  6
CONTINUOUS
 62
    3
 10
909.30125588917326
 20
134.88296685703244
 11
909.30125588917326
 21
129.88296685703335
  0
LINE
  8
_0-3_躯体と製品
  6
CONTINUOUS
 62
    3
 10
909.30125588917326
 20
129.88296685703335
 11
884.30125588917508
 21
129.88296685703335
  0
LINE
  8
_0-3_躯体と製品
  6
CONTINUOUS
 62
    3
 10
884.30125588917508
 20
129.88296685703335
 11
884.30125588917508
 21
134.88296685703244
  0
LINE
  8
_0-3_躯体と製品
  6
CONTINUOUS
 62
    3
 10
884.30125588917508
 20
134.88296685703244
 11
909.30125588917326
 21
129.88296685703335
  0
LINE
  8
_0-7_Layer_05
  6
CONTINUOUS
 62
    4
 10
882.3779225558701
 20
143.2163001903682
 11
883.10125588917072
 21
139.13296685703972
  0
LINE
  8
_0-7_Layer_05
  6
CONTINUOUS
 62
    4
 10
883.10125588917072
 20
139.13296685703972
 11
884.08625588919494
 21
139.13296685703972
  0
LINE
  8
_0-7_Layer_05
  6
CONTINUOUS
 62
    4
 10
908.74792255584725
 20
136.88296685703972
 11
898.41625588919305
 21
136.88296685703972
  0
LINE
  8
_0-7_Layer_05
  6
CONTINUOUS
 62
    4
 10
908.74792255584725
 20
134.88296685703244
 11
908.74792255584725
 21
136.88296685703972
  0
LINE
  8
_0-7_Layer_05
  6
CONTINUOUS
 62
    4
 10
888.91792255587279
 20
136.88296685703972
 11
898.41625588919305
 21
136.88296685703972
  0
ARC
  8
_0-7_Layer_05
  6
CONTINUOUS
 62
    4
 10
888.91792255587279
 20
137.71630019037366
 40
2.8333333333333308
 50
180.00000600015659
 51
269.99999700019771
  0
ARC
  8
_0-7_Layer_05
  6
CONTINUOUS
 62
    4
 10
888.91792255587279
 20
137.71630019037366
 40
0.8333333333333328
 50
180.00000600015659
 51
269.99999700019771
  0
LINE
  8
_0-6_Layer_01
  6
CONTINUOUS
 62
    3
 10
886.08625588921677
 20
141.55130019037279
 11
907.41792255588189
 21
141.55130019037279
  0
LINE
  8
_0-6_Layer_01
  6
CONTINUOUS
 62
    3
 10
881.25125588919582
 20
143.21630019036638
 11
884.08625588919494
 21
143.21630019036638
  0
LINE
  8
_0-6_Layer_01
  6
CONTINUOUS
 62
    3
 10
886.08625588921677
 20
143.21630019036638
 11
907.41792255588189
 21
143.21630019036638
  0
ARC
  8
_0-6_Layer_01
  6
CONTINUOUS
 62
    3
 10
908.41792255584369
 20
135.88296685704518
 40
0.9999999999999995
 50
180.00000600015659
 51
0
  0
ARC
  8
_0-6_Layer_01
  6
CONTINUOUS
 62
    3
 10
885.08625588920404
 20
135.88296685704518
 40
0.9999999999999995
 50
180.00000600015659
 51
0
  0
ARC
  8
_0-6_Layer_01
  6
CONTINUOUS
 62
    3
 10
881.25125588919582
 20
146.05130019036733
 40
2.8333333333333308
 50
180.00000600015659
 51
269.99999700019771
  0
ARC
  8
_0-6_Layer_01
  6
CONTINUOUS
 62
    3
 10
881.25125588919582
 20
148.71630019037366
 40
2.8333333333333308
 50
90.000002999802277
 51
180.00000600015659
  0
LINE
  8
_0-7_Layer_05
  6
CONTINUOUS
 62
    4
 10
886.08625588921677
 20
154.05130019037279
 11
888.08625588918949
 21
154.05130019037279
  0
LINE
  8
_0-7_Layer_05
  6
CONTINUOUS
 62
    4
 10
882.3779225558701
 20
151.5513001903746
 11
883.10125588917072
 21
155.6329668570379
  0
LINE
  8
_0-7_Layer_05
  6
CONTINUOUS
 62
    4
 10
883.10125588917072
 20
155.6329668570379
 11
884.08625588919494
 21
155.6329668570379
  0
LINE
  8
_0-6_Layer_01
  6
CONTINUOUS
 62
    3
 10
879.41792255585278
 20
158.8829668570379
 11
879.41792255585278
 21
157.88296685703972
  0
LINE
  8
_0-6_Layer_01
  6
CONTINUOUS
 62
    3
 10
879.41792255585278
 20
158.8829668570379
 11
883.25125588921401
 21
158.8829668570379
  0
LINE
  8
_0-6_Layer_01
  6
CONTINUOUS
 62
    3
 10
886.08625588921677
 20
153.21630019036638
 11
907.41792255588189
 21
153.21630019036638
  0
LINE
  8
_0-6_Layer_01
  6
CONTINUOUS
 62
    3
 10
914.08625588919494
 20
158.8829668570379
 11
910.2512558891849
 21
158.8829668570379
  0
LINE
  8
_0-6_Layer_01
  6
CONTINUOUS
 62
    3
 10
881.25125588919582
 20
151.5513001903746
 11
884.08625588919494
 21
151.5513001903746
  0
LINE
  8
_0-6_Layer_01
  6
CONTINUOUS
 62
    3
 10
886.08625588921677
 20
151.5513001903746
 11
907.41792255588189
 21
151.5513001903746
  0
LINE
  8
_0-6_Layer_01
  6
CONTINUOUS
 62
    3
 10
890.75125588921583
 20
158.8829668570379
 11
890.75125588921583
 21
157.88296685703972
  0
LINE
  8
_0-6_Layer_01
  6
CONTINUOUS
 62
    3
 10
890.75125588921583
 20
158.8829668570379
 11
886.9179225558546
 21
158.8829668570379
  0
LINE
  8
_0-6_Layer_01
  6
CONTINUOUS
 62
    3
 10
879.41792255585278
 20
157.88296685703972
 11
883.25125588921401
 21
157.88296685703972
  0
LINE
  8
_0-6_Layer_01
  6
CONTINUOUS
 62
    3
 10
891.75125588917217
 20
159.05130019037279
 11
891.75125588917217
 21
157.71630019037366
  0
LINE
  8
_0-6_Layer_01
  6
CONTINUOUS
 62
    3
 10
879.25125588917399
 20
159.88296685703244
 11
890.91792255584369
 21
159.88296685703244
  0
LINE
  8
_0-6_Layer_01
  6
CONTINUOUS
 62
    3
 10
886.08625588921677
 20
153.21630019036638
 11
893.04125588918214
 21
153.21630019036638
  0
LINE
  8
_0-6_Layer_01
  6
CONTINUOUS
 62
    3
 10
879.25125588917399
 20
156.88296685703972
 11
884.08625588919494
 21
156.88296685703972
  0
LINE
  8
_0-6_Layer_01
  6
CONTINUOUS
 62
    3
 10
890.75125588921583
 20
157.88296685703972
 11
886.9179225558546
 21
157.88296685703972
  0
LINE
  8
_0-6_Layer_01
  6
CONTINUOUS
 62
    3
 10
902.7512558891849
 20
158.8829668570379
 11
906.58625588919676
 21
158.8829668570379
  0
LINE
  8
_0-6_Layer_01
  6
CONTINUOUS
 62
    3
 10
902.58625588920768
 20
156.88296685703972
 11
907.41792255588189
 21
156.88296685703972
  0
LINE
  8
_0-6_Layer_01
  6
CONTINUOUS
 62
    3
 10
914.08625588919494
 20
157.88296685703972
 11
910.2512558891849
 21
157.88296685703972
  0
LINE
  8
_0-6_Layer_01
  6
CONTINUOUS
 62
    3
 10
914.08625588919494
 20
158.8829668570379
 11
914.08625588919494
 21
157.88296685703972
  0
LINE
  8
_0-6_Layer_01
  6
CONTINUOUS
 62
    3
 10
886.08625588921677
 20
156.88296685703972
 11
890.91792255584369
 21
156.88296685703972
  0
LINE
  8
_0-6_Layer_01
  6
CONTINUOUS
 62
    3
 10
902.7512558891849
 20
157.88296685703972
 11
906.58625588919676
 21
157.88296685703972
  0
LINE
  8
_0-6_Layer_01
  6
CONTINUOUS
 62
    3
 10
915.08625588920768
 20
159.05130019037279
 11
915.08625588920768
 21
157.71630019037366
  0
LINE
  8
_0-6_Layer_01
  6
CONTINUOUS
 62
    3
 10
902.58625588920768
 20
159.88296685703244
 11
914.25125588917399
 21
159.88296685703244
  0
LINE
  8
_0-6_Layer_01
  6
CONTINUOUS
 62
    3
 10
902.7512558891849
 20
158.8829668570379
 11
902.7512558891849
 21
157.88296685703972
  0
LINE
  8
_0-6_Layer_01
  6
CONTINUOUS
 62
    3
 10
909.41792255585278
 20
156.88296685703972
 11
914.25125588917399
 21
156.88296685703972
  0
LINE
  8
_0-6_Layer_01
  6
CONTINUOUS
 62
    3
 10
901.75125588917581
 20
157.71630019037366
 11
901.75125588917581
 21
159.05130019037279
  0
ARC
  8
_0-6_Layer_01
  6
CONTINUOUS
 62
    3
 10
914.25125588917399
 20
157.71630019037366
 40
0.8333333333333328
 50
269.99999700019771
 51
0
  0
ARC
  8
_0-6_Layer_01
  6
CONTINUOUS
 62
    3
 10
902.58625588920768
 20
159.05130019037279
 40
0.8333333333333328
 50
90.000002999802277
 51
180.00000600015659
  0
ARC
  8
_0-6_Layer_01
  6
CONTINUOUS
 62
    3
 10
879.25125588917399
 20
157.71630019037366
 40
0.8333333333333328
 50
180.00000600015659
 51
269.99999700019771
  0
ARC
  8
_0-6_Layer_01
  6
CONTINUOUS
 62
    3
 10
890.91792255584369
 20
159.05130019037279
 40
0.8333333333333328
 50
0
 51
90.000002999802277
  0
ARC
  8
_0-6_Layer_01
  6
CONTINUOUS
 62
    3
 10
910.2512558891849
 20
157.05130019036551
 40
1.8333333333333319
 50
90.000002999802277
 51
180.00000600015659
  0
ARC
  8
_0-6_Layer_01
  6
CONTINUOUS
 62
    3
 10
906.58625588919676
 20
157.05130019036551
 40
1.8333333333333319
 50
0
 51
90.000002999802277
  0
ARC
  8
_0-6_Layer_01
  6
CONTINUOUS
 62
    3
 10
914.25125588917399
 20
159.05130019037279
 40
0.8333333333333328
 50
0
 51
90.000002999802277
  0
ARC
  8
_0-6_Layer_01
  6
CONTINUOUS
 62
    3
 10
906.58625588919676
 20
157.05130019036551
 40
0.8333333333333328
 50
0
 51
90.000002999802277
  0
ARC
  8
_0-6_Layer_01
  6
CONTINUOUS
 62
    3
 10
883.25125588921401
 20
157.05130019036551
 40
0.8333333333333328
 50
0
 51
90.000002999802277
  0
ARC
  8
_0-6_Layer_01
  6
CONTINUOUS
 62
    3
 10
886.9179225558546
 20
157.05130019036551
 40
1.8333333333333319
 50
90.000002999802277
 51
180.00000600015659
  0
ARC
  8
_0-6_Layer_01
  6
CONTINUOUS
 62
    3
 10
910.2512558891849
 20
157.05130019036551
 40
0.8333333333333328
 50
90.000002999802277
 51
180.00000600015659
  0
ARC
  8
_0-6_Layer_01
  6
CONTINUOUS
 62
    3
 10
902.58625588920768
 20
157.71630019037366
 40
0.8333333333333328
 50
180.00000600015659
 51
269.99999700019771
  0
ARC
  8
_0-6_Layer_01
  6
CONTINUOUS
 62
    3
 10
883.25125588921401
 20
157.05130019036551
 40
1.8333333333333319
 50
0
 51
90.000002999802277
  0
ARC
  8
_0-6_Layer_01
  6
CONTINUOUS
 62
    3
 10
890.91792255584369
 20
157.71630019037366
 40
0.8333333333333328
 50
269.99999700019771
 51
0
  0
ARC
  8
_0-6_Layer_01
  6
CONTINUOUS
 62
    3
 10
879.25125588917399
 20
159.05130019037279
 40
0.8333333333333328
 50
90.000002999802277
 51
180.00000600015659
  0
ARC
  8
_0-6_Layer_01
  6
CONTINUOUS
 62
    3
 10
886.9179225558546
 20
157.05130019036551
 40
0.8333333333333328
 50
90.000002999802277
 51
180.00000600015659
  0
LINE
  8
_0-6_Layer_01
  6
CONTINUOUS
 62
    3
 10
1068.4179225558346
 20
134.88296685703244
 11
1068.4179225558346
 21
157.05130019036551
  0
LINE
  8
_0-6_Layer_01
  6
CONTINUOUS
 62
    3
 10
1067.4179225558746
 20
157.05130019036551
 11
1067.4179225558746
 21
135.88296685704518
  0
LINE
  8
_0-6_Layer_01
  6
CONTINUOUS
 62
    3
 10
1069.4179225558546
 20
157.05130019036551
 11
1069.4179225558546
 21
135.88296685704518
  0
LINE
  8
_0-6_Layer_01
  6
CONTINUOUS
 62
    3
 10
961.75125588917399
 20
134.88296685703244
 11
961.75125588917399
 21
157.05130019036551
  0
LINE
  8
_0-6_Layer_01
  6
CONTINUOUS
 62
    3
 10
960.75125588921401
 20
157.05130019036551
 11
960.75125588921401
 21
135.88296685704518
  0
LINE
  8
_0-6_Layer_01
  6
CONTINUOUS
 62
    3
 10
936.08625588921859
 20
157.05130019036551
 11
936.08625588921859
 21
135.88296685704518
  0
LINE
  8
_0-6_Layer_01
  6
CONTINUOUS
 62
    3
 10
1015.086255889204
 20
134.88296685703244
 11
1015.086255889204
 21
157.05130019036551
  0
LINE
  8
_0-6_Layer_01
  6
CONTINUOUS
 62
    3
 10
1014.0862558891931
 20
157.05130019036551
 11
1014.0862558891931
 21
135.88296685704518
  0
LINE
  8
_0-6_Layer_01
  6
CONTINUOUS
 62
    3
 10
1042.7512558891831
 20
157.05130019036551
 11
1042.7512558891831
 21
135.88296685704518
  0
LINE
  8
_0-6_Layer_01
  6
CONTINUOUS
 62
    3
 10
1016.0862558892131
 20
157.05130019036551
 11
1016.0862558892131
 21
135.88296685704518
  0
LINE
  8
_0-6_Layer_01
  6
CONTINUOUS
 62
    3
 10
1041.751255889174
 20
134.88296685703244
 11
1041.751255889174
 21
157.05130019036551
  0
LINE
  8
_0-6_Layer_01
  6
CONTINUOUS
 62
    3
 10
1040.751255889214
 20
157.05130019036551
 11
1040.751255889214
 21
135.88296685704518
  0
LINE
  8
_0-6_Layer_01
  6
CONTINUOUS
 62
    3
 10
989.4179225558546
 20
157.05130019036551
 11
989.4179225558546
 21
135.88296685704518
  0
LINE
  8
_0-6_Layer_01
  6
CONTINUOUS
 62
    3
 10
988.41792255583459
 20
134.88296685703244
 11
988.41792255583459
 21
157.05130019036551
  0
LINE
  8
_0-6_Layer_01
  6
CONTINUOUS
 62
    3
 10
987.41792255587461
 20
157.05130019036551
 11
987.41792255587461
 21
135.88296685704518
  0
LINE
  8
_0-6_Layer_01
  6
CONTINUOUS
 62
    3
 10
962.75125588918308
 20
157.05130019036551
 11
962.75125588918308
 21
135.88296685704518
  0
LINE
  8
_0-6_Layer_01
  6
CONTINUOUS
 62
    3
 10
935.08625588920586
 20
134.88296685703244
 11
935.08625588920586
 21
157.05130019036551
  0
LINE
  8
_0-6_Layer_01
  6
CONTINUOUS
 62
    3
 10
934.08625588919676
 20
157.05130019036551
 11
934.08625588919676
 21
135.88296685704518
  0
LINE
  8
_0-6_Layer_01
  6
CONTINUOUS
 62
    3
 10
989.4179225558546
 20
141.55130019037279
 11
1014.0862558891931
 21
141.55130019037279
  0
LINE
  8
_0-6_Layer_01
  6
CONTINUOUS
 62
    3
 10
989.4179225558546
 20
143.21630019036638
 11
1014.0862558891931
 21
143.21630019036638
  0
LINE
  8
_0-6_Layer_01
  6
CONTINUOUS
 62
    3
 10
936.08625588921859
 20
143.21630019036638
 11
960.75125588921401
 21
143.21630019036638
  0
LINE
  8
_0-6_Layer_01
  6
CONTINUOUS
 62
    3
 10
936.08625588921859
 20
141.55130019037279
 11
960.75125588921401
 21
141.55130019037279
  0
LINE
  8
_0-6_Layer_01
  6
CONTINUOUS
 62
    3
 10
962.75125588918308
 20
141.55130019037279
 11
987.41792255587461
 21
141.55130019037279
  0
LINE
  8
_0-6_Layer_01
  6
CONTINUOUS
 62
    3
 10
962.75125588918308
 20
143.21630019036638
 11
987.41792255587461
 21
143.21630019036638
  0
ARC
  8
_0-6_Layer_01
  6
CONTINUOUS
 62
    3
 10
961.75125588917399
 20
135.88296685704518
 40
0.9999999999999995
 50
180.00000600015659
 51
0
  0
ARC
  8
_0-6_Layer_01
  6
CONTINUOUS
 62
    3
 10
988.41792255583459
 20
135.88296685704518
 40
0.9999999999999995
 50
180.00000600015659
 51
0
  0
ARC
  8
_0-6_Layer_01
  6
CONTINUOUS
 62
    3
 10
935.08625588920586
 20
135.88296685704518
 40
0.9999999999999995
 50
180.00000600015659
 51
0
  0
ARC
  8
_0-6_Layer_01
  6
CONTINUOUS
 62
    3
 10
1068.4179225558346
 20
135.88296685704518
 40
0.9999999999999995
 50
180.00000600015659
 51
0
  0
LINE
  8
_0-6_Layer_01
  6
CONTINUOUS
 62
    3
 10
1016.0862558892131
 20
141.55130019037279
 11
1040.751255889214
 21
141.55130019037279
  0
LINE
  8
_0-6_Layer_01
  6
CONTINUOUS
 62
    3
 10
1016.0862558892131
 20
143.21630019036638
 11
1040.751255889214
 21
143.21630019036638
  0
ARC
  8
_0-6_Layer_01
  6
CONTINUOUS
 62
    3
 10
1041.751255889174
 20
135.88296685704518
 40
0.9999999999999995
 50
180.00000600015659
 51
0
  0
ARC
  8
_0-6_Layer_01
  6
CONTINUOUS
 62
    3
 10
1015.086255889204
 20
135.88296685704518
 40
0.9999999999999995
 50
180.00000600015659
 51
0
  0
LINE
  8
_0-6_Layer_01
  6
CONTINUOUS
 62
    3
 10
1042.7512558891831
 20
143.21630019036638
 11
1067.4179225558746
 21
143.21630019036638
  0
LINE
  8
_0-6_Layer_01
  6
CONTINUOUS
 62
    3
 10
1042.7512558891831
 20
141.55130019037279
 11
1067.4179225558746
 21
141.55130019037279
  0
LINE
  8
_0-6_Layer_01
  6
CONTINUOUS
 62
    3
 10
989.4179225558546
 20
153.21630019036638
 11
1014.0862558891931
 21
153.21630019036638
  0
LINE
  8
_0-6_Layer_01
  6
CONTINUOUS
 62
    3
 10
989.4179225558546
 20
151.5513001903746
 11
1014.0862558891931
 21
151.5513001903746
  0
LINE
  8
_0-6_Layer_01
  6
CONTINUOUS
 62
    3
 10
956.08625588921313
 20
157.88296685703972
 11
959.91792255588371
 21
157.88296685703972
  0
LINE
  8
_0-6_Layer_01
  6
CONTINUOUS
 62
    3
 10
940.75125588921583
 20
158.8829668570379
 11
936.9179225558546
 21
158.8829668570379
  0
LINE
  8
_0-6_Layer_01
  6
CONTINUOUS
 62
    3
 10
936.08625588921859
 20
156.88296685703972
 11
940.91792255584369
 21
156.88296685703972
  0
LINE
  8
_0-6_Layer_01
  6
CONTINUOUS
 62
    3
 10
936.08625588921859
 20
153.21630019036638
 11
960.75125588921401
 21
153.21630019036638
  0
LINE
  8
_0-6_Layer_01
  6
CONTINUOUS
 62
    3
 10
962.75125588918308
 20
156.88296685703972
 11
967.58625588920404
 21
156.88296685703972
  0
LINE
  8
_0-6_Layer_01
  6
CONTINUOUS
 62
    3
 10
928.41792255584187
 20
157.71630019037366
 11
928.41792255584187
 21
159.05130019037279
  0
LINE
  8
_0-6_Layer_01
  6
CONTINUOUS
 62
    3
 10
940.75125588921583
 20
158.8829668570379
 11
940.75125588921583
 21
157.88296685703972
  0
LINE
  8
_0-6_Layer_01
  6
CONTINUOUS
 62
    3
 10
967.41792255587461
 20
158.8829668570379
 11
963.58625588921313
 21
158.8829668570379
  0
LINE
  8
_0-6_Layer_01
  6
CONTINUOUS
 62
    3
 10
995.08625588920404
 20
159.05130019037279
 11
995.08625588920404
 21
157.71630019037366
  0
LINE
  8
_0-6_Layer_01
  6
CONTINUOUS
 62
    3
 10
982.58625588920404
 20
159.88296685703244
 11
994.25125588917399
 21
159.88296685703244
  0
LINE
  8
_0-6_Layer_01
  6
CONTINUOUS
 62
    3
 10
982.75125588918308
 20
158.8829668570379
 11
982.75125588918308
 21
157.88296685703972
  0
LINE
  8
_0-6_Layer_01
  6
CONTINUOUS
 62
    3
 10
982.75125588918308
 20
158.8829668570379
 11
986.58625588919313
 21
158.8829668570379
  0
LINE
  8
_0-6_Layer_01
  6
CONTINUOUS
 62
    3
 10
929.4179225558546
 20
158.8829668570379
 11
933.25125588921583
 21
158.8829668570379
  0
LINE
  8
_0-6_Layer_01
  6
CONTINUOUS
 62
    3
 10
955.08625588920404
 20
157.71630019037366
 11
955.08625588920404
 21
159.05130019037279
  0
LINE
  8
_0-6_Layer_01
  6
CONTINUOUS
 62
    3
 10
929.4179225558546
 20
158.8829668570379
 11
929.4179225558546
 21
157.88296685703972
  0
LINE
  8
_0-6_Layer_01
  6
CONTINUOUS
 62
    3
 10
936.08625588921859
 20
151.5513001903746
 11
960.75125588921401
 21
151.5513001903746
  0
LINE
  8
_0-6_Layer_01
  6
CONTINUOUS
 62
    3
 10
962.75125588918308
 20
153.21630019036638
 11
987.41792255587461
 21
153.21630019036638
  0
LINE
  8
_0-6_Layer_01
  6
CONTINUOUS
 62
    3
 10
962.75125588918308
 20
151.5513001903746
 11
987.41792255587461
 21
151.5513001903746
  0
LINE
  8
_0-6_Layer_01
  6
CONTINUOUS
 62
    3
 10
994.08625588919313
 20
158.8829668570379
 11
994.08625588919313
 21
157.88296685703972
  0
LINE
  8
_0-6_Layer_01
  6
CONTINUOUS
 62
    3
 10
929.25125588917581
 20
156.88296685703972
 11
934.08625588919676
 21
156.88296685703972
  0
LINE
  8
_0-6_Layer_01
  6
CONTINUOUS
 62
    3
 10
940.75125588921583
 20
157.88296685703972
 11
936.9179225558546
 21
157.88296685703972
  0
LINE
  8
_0-6_Layer_01
  6
CONTINUOUS
 62
    3
 10
967.41792255587461
 20
157.88296685703972
 11
963.58625588921313
 21
157.88296685703972
  0
LINE
  8
_0-6_Layer_01
  6
CONTINUOUS
 62
    3
 10
989.4179225558546
 20
156.88296685703972
 11
994.25125588917399
 21
156.88296685703972
  0
LINE
  8
_0-6_Layer_01
  6
CONTINUOUS
 62
    3
 10
981.75125588917399
 20
157.71630019037366
 11
981.75125588917399
 21
159.05130019037279
  0
LINE
  8
_0-6_Layer_01
  6
CONTINUOUS
 62
    3
 10
982.75125588918308
 20
157.88296685703972
 11
986.58625588919313
 21
157.88296685703972
  0
LINE
  8
_0-6_Layer_01
  6
CONTINUOUS
 62
    3
 10
994.08625588919313
 20
158.8829668570379
 11
990.25125588918308
 21
158.8829668570379
  0
LINE
  8
_0-6_Layer_01
  6
CONTINUOUS
 62
    3
 10
982.58625588920404
 20
156.88296685703972
 11
987.41792255587461
 21
156.88296685703972
  0
LINE
  8
_0-6_Layer_01
  6
CONTINUOUS
 62
    3
 10
994.08625588919313
 20
157.88296685703972
 11
990.25125588918308
 21
157.88296685703972
  0
LINE
  8
_0-6_Layer_01
  6
CONTINUOUS
 62
    3
 10
968.41792255583459
 20
159.05130019037279
 11
968.41792255583459
 21
157.71630019037366
  0
LINE
  8
_0-6_Layer_01
  6
CONTINUOUS
 62
    3
 10
955.91792255583459
 20
159.88296685703244
 11
967.58625588920404
 21
159.88296685703244
  0
LINE
  8
_0-6_Layer_01
  6
CONTINUOUS
 62
    3
 10
956.08625588921313
 20
158.8829668570379
 11
956.08625588921313
 21
157.88296685703972
  0
LINE
  8
_0-6_Layer_01
  6
CONTINUOUS
 62
    3
 10
967.41792255587461
 20
158.8829668570379
 11
967.41792255587461
 21
157.88296685703972
  0
LINE
  8
_0-6_Layer_01
  6
CONTINUOUS
 62
    3
 10
929.4179225558546
 20
157.88296685703972
 11
933.25125588921583
 21
157.88296685703972
  0
LINE
  8
_0-6_Layer_01
  6
CONTINUOUS
 62
    3
 10
941.75125588917399
 20
159.05130019037279
 11
941.75125588917399
 21
157.71630019037366
  0
LINE
  8
_0-6_Layer_01
  6
CONTINUOUS
 62
    3
 10
929.25125588917581
 20
159.88296685703244
 11
940.91792255584369
 21
159.88296685703244
  0
LINE
  8
_0-6_Layer_01
  6
CONTINUOUS
 62
    3
 10
956.08625588921313
 20
158.8829668570379
 11
959.91792255588371
 21
158.8829668570379
  0
LINE
  8
_0-6_Layer_01
  6
CONTINUOUS
 62
    3
 10
955.91792255583459
 20
156.88296685703972
 11
960.75125588921401
 21
156.88296685703972
  0
ARC
  8
_0-6_Layer_01
  6
CONTINUOUS
 62
    3
 10
994.25125588917399
 20
157.71630019037366
 40
0.8333333333333328
 50
269.99999700019771
 51
0
  0
ARC
  8
_0-6_Layer_01
  6
CONTINUOUS
 62
    3
 10
982.58625588920404
 20
159.05130019037279
 40
0.8333333333333328
 50
90.000002999802277
 51
180.00000600015659
  0
ARC
  8
_0-6_Layer_01
  6
CONTINUOUS
 62
    3
 10
990.25125588918308
 20
157.05130019036551
 40
0.8333333333333328
 50
90.000002999802277
 51
180.00000600015659
  0
ARC
  8
_0-6_Layer_01
  6
CONTINUOUS
 62
    3
 10
936.9179225558546
 20
157.05130019036551
 40
1.8333333333333319
 50
90.000002999802277
 51
180.00000600015659
  0
ARC
  8
_0-6_Layer_01
  6
CONTINUOUS
 62
    3
 10
933.25125588921583
 20
157.05130019036551
 40
1.8333333333333319
 50
0
 51
90.000002999802277
  0
ARC
  8
_0-6_Layer_01
  6
CONTINUOUS
 62
    3
 10
929.25125588917581
 20
157.71630019037366
 40
0.8333333333333328
 50
180.00000600015659
 51
269.99999700019771
  0
ARC
  8
_0-6_Layer_01
  6
CONTINUOUS
 62
    3
 10
940.91792255584369
 20
159.05130019037279
 40
0.8333333333333328
 50
0
 51
90.000002999802277
  0
ARC
  8
_0-6_Layer_01
  6
CONTINUOUS
 62
    3
 10
959.91792255588371
 20
157.05130019036551
 40
1.8333333333333319
 50
0
 51
90.000002999802277
  0
ARC
  8
_0-6_Layer_01
  6
CONTINUOUS
 62
    3
 10
940.91792255584369
 20
157.71630019037366
 40
0.8333333333333328
 50
269.99999700019771
 51
0
  0
ARC
  8
_0-6_Layer_01
  6
CONTINUOUS
 62
    3
 10
929.25125588917581
 20
159.05130019037279
 40
0.8333333333333328
 50
90.000002999802277
 51
180.00000600015659
  0
ARC
  8
_0-6_Layer_01
  6
CONTINUOUS
 62
    3
 10
959.91792255588371
 20
157.05130019036551
 40
0.8333333333333328
 50
0
 51
90.000002999802277
  0
ARC
  8
_0-6_Layer_01
  6
CONTINUOUS
 62
    3
 10
963.58625588921313
 20
157.05130019036551
 40
1.8333333333333319
 50
90.000002999802277
 51
180.00000600015659
  0
ARC
  8
_0-6_Layer_01
  6
CONTINUOUS
 62
    3
 10
982.58625588920404
 20
157.71630019037366
 40
0.8333333333333328
 50
180.00000600015659
 51
269.99999700019771
  0
ARC
  8
_0-6_Layer_01
  6
CONTINUOUS
 62
    3
 10
994.25125588917399
 20
159.05130019037279
 40
0.8333333333333328
 50
0
 51
90.000002999802277
  0
ARC
  8
_0-6_Layer_01
  6
CONTINUOUS
 62
    3
 10
986.58625588919313
 20
157.05130019036551
 40
0.8333333333333328
 50
0
 51
90.000002999802277
  0
ARC
  8
_0-6_Layer_01
  6
CONTINUOUS
 62
    3
 10
967.58625588920404
 20
159.05130019037279
 40
0.8333333333333328
 50
0
 51
90.000002999802277
  0
ARC
  8
_0-6_Layer_01
  6
CONTINUOUS
 62
    3
 10
963.58625588921313
 20
157.05130019036551
 40
0.8333333333333328
 50
90.000002999802277
 51
180.00000600015659
  0
ARC
  8
_0-6_Layer_01
  6
CONTINUOUS
 62
    3
 10
955.91792255583459
 20
157.71630019037366
 40
0.8333333333333328
 50
180.00000600015659
 51
269.99999700019771
  0
ARC
  8
_0-6_Layer_01
  6
CONTINUOUS
 62
    3
 10
933.25125588921583
 20
157.05130019036551
 40
0.8333333333333328
 50
0
 51
90.000002999802277
  0
ARC
  8
_0-6_Layer_01
  6
CONTINUOUS
 62
    3
 10
990.25125588918308
 20
157.05130019036551
 40
1.8333333333333319
 50
90.000002999802277
 51
180.00000600015659
  0
ARC
  8
_0-6_Layer_01
  6
CONTINUOUS
 62
    3
 10
986.58625588919313
 20
157.05130019036551
 40
1.8333333333333319
 50
0
 51
90.000002999802277
  0
ARC
  8
_0-6_Layer_01
  6
CONTINUOUS
 62
    3
 10
967.58625588920404
 20
157.71630019037366
 40
0.8333333333333328
 50
269.99999700019771
 51
0
  0
ARC
  8
_0-6_Layer_01
  6
CONTINUOUS
 62
    3
 10
955.91792255583459
 20
159.05130019037279
 40
0.8333333333333328
 50
90.000002999802277
 51
180.00000600015659
  0
ARC
  8
_0-6_Layer_01
  6
CONTINUOUS
 62
    3
 10
936.9179225558546
 20
157.05130019036551
 40
0.8333333333333328
 50
90.000002999802277
 51
180.00000600015659
  0
LINE
  8
_0-6_Layer_01
  6
CONTINUOUS
 62
    3
 10
1062.7512558891831
 20
158.8829668570379
 11
1062.7512558891831
 21
157.88296685703972
  0
LINE
  8
_0-6_Layer_01
  6
CONTINUOUS
 62
    3
 10
1074.0862558891931
 20
158.8829668570379
 11
1070.2512558891831
 21
158.8829668570379
  0
LINE
  8
_0-6_Layer_01
  6
CONTINUOUS
 62
    3
 10
1069.4179225558546
 20
156.88296685703972
 11
1074.251255889174
 21
156.88296685703972
  0
LINE
  8
_0-6_Layer_01
  6
CONTINUOUS
 62
    3
 10
1061.751255889174
 20
157.71630019037366
 11
1061.751255889174
 21
159.05130019037279
  0
LINE
  8
_0-6_Layer_01
  6
CONTINUOUS
 62
    3
 10
1074.0862558891931
 20
158.8829668570379
 11
1074.0862558891931
 21
157.88296685703972
  0
LINE
  8
_0-6_Layer_01
  6
CONTINUOUS
 62
    3
 10
1062.586255889204
 20
156.88296685703972
 11
1067.4179225558746
 21
156.88296685703972
  0
LINE
  8
_0-6_Layer_01
  6
CONTINUOUS
 62
    3
 10
1062.7512558891831
 20
158.8829668570379
 11
1066.5862558891931
 21
158.8829668570379
  0
LINE
  8
_0-6_Layer_01
  6
CONTINUOUS
 62
    3
 10
1062.7512558891831
 20
157.88296685703972
 11
1066.5862558891931
 21
157.88296685703972
  0
LINE
  8
_0-6_Layer_01
  6
CONTINUOUS
 62
    3
 10
1075.086255889204
 20
159.05130019037279
 11
1075.086255889204
 21
157.71630019037366
  0
LINE
  8
_0-6_Layer_01
  6
CONTINUOUS
 62
    3
 10
1062.586255889204
 20
159.88296685703244
 11
1074.251255889174
 21
159.88296685703244
  0
LINE
  8
_0-6_Layer_01
  6
CONTINUOUS
 62
    3
 10
1074.0862558891931
 20
157.88296685703972
 11
1070.2512558891831
 21
157.88296685703972
  0
ARC
  8
_0-6_Layer_01
  6
CONTINUOUS
 62
    3
 10
1074.251255889174
 20
157.71630019037366
 40
0.8333333333333328
 50
269.99999700019771
 51
0
  0
ARC
  8
_0-6_Layer_01
  6
CONTINUOUS
 62
    3
 10
1062.586255889204
 20
159.05130019037279
 40
0.8333333333333328
 50
90.000002999802277
 51
180.00000600015659
  0
ARC
  8
_0-6_Layer_01
  6
CONTINUOUS
 62
    3
 10
1070.2512558891831
 20
157.05130019036551
 40
0.8333333333333328
 50
90.000002999802277
 51
180.00000600015659
  0
ARC
  8
_0-6_Layer_01
  6
CONTINUOUS
 62
    3
 10
1062.586255889204
 20
157.71630019037366
 40
0.8333333333333328
 50
180.00000600015659
 51
269.99999700019771
  0
ARC
  8
_0-6_Layer_01
  6
CONTINUOUS
 62
    3
 10
1074.251255889174
 20
159.05130019037279
 40
0.8333333333333328
 50
0
 51
90.000002999802277
  0
ARC
  8
_0-6_Layer_01
  6
CONTINUOUS
 62
    3
 10
1066.5862558891931
 20
157.05130019036551
 40
0.8333333333333328
 50
0
 51
90.000002999802277
  0
ARC
  8
_0-6_Layer_01
  6
CONTINUOUS
 62
    3
 10
1070.2512558891831
 20
157.05130019036551
 40
1.8333333333333319
 50
90.000002999802277
 51
180.00000600015659
  0
ARC
  8
_0-6_Layer_01
  6
CONTINUOUS
 62
    3
 10
1066.5862558891931
 20
157.05130019036551
 40
1.8333333333333319
 50
0
 51
90.000002999802277
  0
LINE
  8
_0-6_Layer_01
  6
CONTINUOUS
 62
    3
 10
1047.4179225558746
 20
157.88296685703972
 11
1043.5862558892131
 21
157.88296685703972
  0
LINE
  8
_0-6_Layer_01
  6
CONTINUOUS
 62
    3
 10
1047.4179225558746
 20
158.8829668570379
 11
1047.4179225558746
 21
157.88296685703972
  0
LINE
  8
_0-6_Layer_01
  6
CONTINUOUS
 62
    3
 10
1020.751255889214
 20
158.8829668570379
 11
1020.751255889214
 21
157.88296685703972
  0
LINE
  8
_0-6_Layer_01
  6
CONTINUOUS
 62
    3
 10
1042.7512558891831
 20
156.88296685703972
 11
1047.586255889204
 21
156.88296685703972
  0
LINE
  8
_0-6_Layer_01
  6
CONTINUOUS
 62
    3
 10
1036.0862558892131
 20
158.8829668570379
 11
1036.0862558892131
 21
157.88296685703972
  0
LINE
  8
_0-6_Layer_01
  6
CONTINUOUS
 62
    3
 10
1036.0862558892131
 20
158.8829668570379
 11
1039.9179225558837
 21
158.8829668570379
  0
LINE
  8
_0-6_Layer_01
  6
CONTINUOUS
 62
    3
 10
1035.9179225558346
 20
156.88296685703972
 11
1040.751255889214
 21
156.88296685703972
  0
LINE
  8
_0-6_Layer_01
  6
CONTINUOUS
 62
    3
 10
1008.4179225558346
 20
157.71630019037366
 11
1008.4179225558346
 21
159.05130019037279
  0
LINE
  8
_0-6_Layer_01
  6
CONTINUOUS
 62
    3
 10
1020.751255889214
 20
158.8829668570379
 11
1016.9179225558546
 21
158.8829668570379
  0
LINE
  8
_0-6_Layer_01
  6
CONTINUOUS
 62
    3
 10
1009.4179225558546
 20
158.8829668570379
 11
1013.251255889214
 21
158.8829668570379
  0
LINE
  8
_0-6_Layer_01
  6
CONTINUOUS
 62
    3
 10
1009.251255889174
 20
156.88296685703972
 11
1014.0862558891931
 21
156.88296685703972
  0
LINE
  8
_0-6_Layer_01
  6
CONTINUOUS
 62
    3
 10
1036.0862558892131
 20
157.88296685703972
 11
1039.9179225558837
 21
157.88296685703972
  0
LINE
  8
_0-6_Layer_01
  6
CONTINUOUS
 62
    3
 10
1048.4179225558346
 20
159.05130019037279
 11
1048.4179225558346
 21
157.71630019037366
  0
LINE
  8
_0-6_Layer_01
  6
CONTINUOUS
 62
    3
 10
1035.9179225558346
 20
159.88296685703244
 11
1047.586255889204
 21
159.88296685703244
  0
LINE
  8
_0-6_Layer_01
  6
CONTINUOUS
 62
    3
 10
1009.4179225558546
 20
158.8829668570379
 11
1009.4179225558546
 21
157.88296685703972
  0
LINE
  8
_0-6_Layer_01
  6
CONTINUOUS
 62
    3
 10
1020.751255889214
 20
157.88296685703972
 11
1016.9179225558546
 21
157.88296685703972
  0
LINE
  8
_0-6_Layer_01
  6
CONTINUOUS
 62
    3
 10
1047.4179225558746
 20
158.8829668570379
 11
1043.5862558892131
 21
158.8829668570379
  0
LINE
  8
_0-6_Layer_01
  6
CONTINUOUS
 62
    3
 10
1016.0862558892131
 20
156.88296685703972
 11
1020.9179225558437
 21
156.88296685703972
  0
LINE
  8
_0-6_Layer_01
  6
CONTINUOUS
 62
    3
 10
1009.4179225558546
 20
157.88296685703972
 11
1013.251255889214
 21
157.88296685703972
  0
LINE
  8
_0-6_Layer_01
  6
CONTINUOUS
 62
    3
 10
1021.751255889174
 20
159.05130019037279
 11
1021.751255889174
 21
157.71630019037366
  0
LINE
  8
_0-6_Layer_01
  6
CONTINUOUS
 62
    3
 10
1009.251255889174
 20
159.88296685703244
 11
1020.9179225558437
 21
159.88296685703244
  0
LINE
  8
_0-6_Layer_01
  6
CONTINUOUS
 62
    3
 10
1035.086255889204
 20
157.71630019037366
 11
1035.086255889204
 21
159.05130019037279
  0
LINE
  8
_0-6_Layer_01
  6
CONTINUOUS
 62
    3
 10
1016.0862558892131
 20
153.21630019036638
 11
1040.751255889214
 21
153.21630019036638
  0
LINE
  8
_0-6_Layer_01
  6
CONTINUOUS
 62
    3
 10
1016.0862558892131
 20
151.5513001903746
 11
1040.751255889214
 21
151.5513001903746
  0
ARC
  8
_0-6_Layer_01
  6
CONTINUOUS
 62
    3
 10
1009.251255889174
 20
159.05130019037279
 40
0.8333333333333328
 50
90.000002999802277
 51
180.00000600015659
  0
ARC
  8
_0-6_Layer_01
  6
CONTINUOUS
 62
    3
 10
1047.586255889204
 20
159.05130019037279
 40
0.8333333333333328
 50
0
 51
90.000002999802277
  0
ARC
  8
_0-6_Layer_01
  6
CONTINUOUS
 62
    3
 10
1039.9179225558837
 20
157.05130019036551
 40
0.8333333333333328
 50
0
 51
90.000002999802277
  0
ARC
  8
_0-6_Layer_01
  6
CONTINUOUS
 62
    3
 10
1043.5862558892131
 20
157.05130019036551
 40
1.8333333333333319
 50
90.000002999802277
 51
180.00000600015659
  0
ARC
  8
_0-6_Layer_01
  6
CONTINUOUS
 62
    3
 10
1039.9179225558837
 20
157.05130019036551
 40
1.8333333333333319
 50
0
 51
90.000002999802277
  0
ARC
  8
_0-6_Layer_01
  6
CONTINUOUS
 62
    3
 10
1043.5862558892131
 20
157.05130019036551
 40
0.8333333333333328
 50
90.000002999802277
 51
180.00000600015659
  0
ARC
  8
_0-6_Layer_01
  6
CONTINUOUS
 62
    3
 10
1035.9179225558346
 20
157.71630019037366
 40
0.8333333333333328
 50
180.00000600015659
 51
269.99999700019771
  0
ARC
  8
_0-6_Layer_01
  6
CONTINUOUS
 62
    3
 10
1047.586255889204
 20
157.71630019037366
 40
0.8333333333333328
 50
269.99999700019771
 51
0
  0
ARC
  8
_0-6_Layer_01
  6
CONTINUOUS
 62
    3
 10
1035.9179225558346
 20
159.05130019037279
 40
0.8333333333333328
 50
90.000002999802277
 51
180.00000600015659
  0
ARC
  8
_0-6_Layer_01
  6
CONTINUOUS
 62
    3
 10
1016.9179225558546
 20
157.05130019036551
 40
0.8333333333333328
 50
90.000002999802277
 51
180.00000600015659
  0
ARC
  8
_0-6_Layer_01
  6
CONTINUOUS
 62
    3
 10
1020.9179225558437
 20
157.71630019037366
 40
0.8333333333333328
 50
269.99999700019771
 51
0
  0
ARC
  8
_0-6_Layer_01
  6
CONTINUOUS
 62
    3
 10
1020.9179225558437
 20
159.05130019037279
 40
0.8333333333333328
 50
0
 51
90.000002999802277
  0
ARC
  8
_0-6_Layer_01
  6
CONTINUOUS
 62
    3
 10
1013.251255889214
 20
157.05130019036551
 40
0.8333333333333328
 50
0
 51
90.000002999802277
  0
ARC
  8
_0-6_Layer_01
  6
CONTINUOUS
 62
    3
 10
1016.9179225558546
 20
157.05130019036551
 40
1.8333333333333319
 50
90.000002999802277
 51
180.00000600015659
  0
ARC
  8
_0-6_Layer_01
  6
CONTINUOUS
 62
    3
 10
1013.251255889214
 20
157.05130019036551
 40
1.8333333333333319
 50
0
 51
90.000002999802277
  0
ARC
  8
_0-6_Layer_01
  6
CONTINUOUS
 62
    3
 10
1009.251255889174
 20
157.71630019037366
 40
0.8333333333333328
 50
180.00000600015659
 51
269.99999700019771
  0
LINE
  8
_0-6_Layer_01
  6
CONTINUOUS
 62
    3
 10
1042.7512558891831
 20
151.5513001903746
 11
1067.4179225558746
 21
151.5513001903746
  0
LINE
  8
_0-6_Layer_01
  6
CONTINUOUS
 62
    3
 10
1042.7512558891831
 20
153.21630019036638
 11
1067.4179225558746
 21
153.21630019036638
  0
LINE
  8
_0-6_Layer_01
  6
CONTINUOUS
 62
    3
 10
1095.086255889204
 20
134.88296685703244
 11
1095.086255889204
 21
157.05130019036551
  0
LINE
  8
_0-6_Layer_01
  6
CONTINUOUS
 62
    3
 10
1094.0862558891931
 20
157.05130019036551
 11
1094.0862558891931
 21
135.88296685704518
  0
LINE
  8
_0-6_Layer_01
  6
CONTINUOUS
 62
    3
 10
1096.0862558892131
 20
157.05130019036551
 11
1096.0862558892131
 21
135.88296685704518
  0
LINE
  8
_0-6_Layer_01
  6
CONTINUOUS
 62
    3
 10
1096.0862558892131
 20
141.55130019037279
 11
1117.4179225558837
 21
141.55130019037279
  0
LINE
  8
_0-6_Layer_01
  6
CONTINUOUS
 62
    3
 10
1096.0862558892131
 20
143.21630019036638
 11
1117.4179225558837
 21
143.21630019036638
  0
ARC
  8
_0-6_Layer_01
  6
CONTINUOUS
 62
    3
 10
1095.086255889204
 20
135.88296685704518
 40
0.9999999999999995
 50
180.00000600015659
 51
0
  0
LINE
  8
_0-6_Layer_01
  6
CONTINUOUS
 62
    3
 10
1100.751255889214
 20
157.88296685703972
 11
1096.9179225558546
 21
157.88296685703972
  0
LINE
  8
_0-6_Layer_01
  6
CONTINUOUS
 62
    3
 10
1096.0862558892131
 20
151.5513001903746
 11
1117.4179225558837
 21
151.5513001903746
  0
LINE
  8
_0-6_Layer_01
  6
CONTINUOUS
 62
    3
 10
1100.751255889214
 20
158.8829668570379
 11
1096.9179225558546
 21
158.8829668570379
  0
LINE
  8
_0-6_Layer_01
  6
CONTINUOUS
 62
    3
 10
1096.0862558892131
 20
156.88296685703972
 11
1100.9179225558437
 21
156.88296685703972
  0
LINE
  8
_0-6_Layer_01
  6
CONTINUOUS
 62
    3
 10
1088.4179225558346
 20
157.71630019037366
 11
1088.4179225558346
 21
159.05130019037279
  0
LINE
  8
_0-6_Layer_01
  6
CONTINUOUS
 62
    3
 10
1100.751255889214
 20
158.8829668570379
 11
1100.751255889214
 21
157.88296685703972
  0
LINE
  8
_0-6_Layer_01
  6
CONTINUOUS
 62
    3
 10
1101.751255889174
 20
159.05130019037279
 11
1101.751255889174
 21
157.71630019037366
  0
LINE
  8
_0-6_Layer_01
  6
CONTINUOUS
 62
    3
 10
1089.251255889174
 20
159.88296685703244
 11
1100.9179225558437
 21
159.88296685703244
  0
LINE
  8
_0-6_Layer_01
  6
CONTINUOUS
 62
    3
 10
1089.4179225558546
 20
158.8829668570379
 11
1089.4179225558546
 21
157.88296685703972
  0
LINE
  8
_0-6_Layer_01
  6
CONTINUOUS
 62
    3
 10
1089.4179225558546
 20
158.8829668570379
 11
1093.251255889214
 21
158.8829668570379
  0
LINE
  8
_0-6_Layer_01
  6
CONTINUOUS
 62
    3
 10
1089.4179225558546
 20
157.88296685703972
 11
1093.251255889214
 21
157.88296685703972
  0
LINE
  8
_0-6_Layer_01
  6
CONTINUOUS
 62
    3
 10
1089.251255889174
 20
156.88296685703972
 11
1094.0862558891931
 21
156.88296685703972
  0
LINE
  8
_0-6_Layer_01
  6
CONTINUOUS
 62
    3
 10
1096.0862558892131
 20
153.21630019036638
 11
1117.4179225558837
 21
153.21630019036638
  0
ARC
  8
_0-6_Layer_01
  6
CONTINUOUS
 62
    3
 10
1089.251255889174
 20
159.05130019037279
 40
0.8333333333333328
 50
90.000002999802277
 51
180.00000600015659
  0
ARC
  8
_0-6_Layer_01
  6
CONTINUOUS
 62
    3
 10
1096.9179225558546
 20
157.05130019036551
 40
0.8333333333333328
 50
90.000002999802277
 51
180.00000600015659
  0
ARC
  8
_0-6_Layer_01
  6
CONTINUOUS
 62
    3
 10
1089.251255889174
 20
157.71630019037366
 40
0.8333333333333328
 50
180.00000600015659
 51
269.99999700019771
  0
ARC
  8
_0-6_Layer_01
  6
CONTINUOUS
 62
    3
 10
1100.9179225558437
 20
159.05130019037279
 40
0.8333333333333328
 50
0
 51
90.000002999802277
  0
ARC
  8
_0-6_Layer_01
  6
CONTINUOUS
 62
    3
 10
1100.9179225558437
 20
157.71630019037366
 40
0.8333333333333328
 50
269.99999700019771
 51
0
  0
ARC
  8
_0-6_Layer_01
  6
CONTINUOUS
 62
    3
 10
1093.251255889214
 20
157.05130019036551
 40
0.8333333333333328
 50
0
 51
90.000002999802277
  0
ARC
  8
_0-6_Layer_01
  6
CONTINUOUS
 62
    3
 10
1096.9179225558546
 20
157.05130019036551
 40
1.8333333333333319
 50
90.000002999802277
 51
180.00000600015659
  0
ARC
  8
_0-6_Layer_01
  6
CONTINUOUS
 62
    3
 10
1093.251255889214
 20
157.05130019036551
 40
1.8333333333333319
 50
0
 51
90.000002999802277
  0
ARC
  8
_0-3_躯体と製品
  6
CONTINUOUS
 62
    4
 10
102.96961688383635
 20
716.14115846453751
 40
1.4999999999999989
 50
179.99999700011949
 51
270
  0
ARC
  8
_0-3_躯体と製品
  6
CONTINUOUS
 62
    4
 10
114.96961688383635
 20
716.14115846453751
 40
1.4999999999999989
 50
270
 51
0.0000029998804484
  0
LINE
  8
_0-3_躯体と製品
  6
CONTINUOUS
 62
    4
 10
116.46961688383817
 20
716.14115846453751
 11
116.46961688383817
 21
529.14315846451609
  0
LINE
  8
_0-3_躯体と製品
  6
CONTINUOUS
 62
    4
 10
201.30249726559305
 20
415.57205986592635
 11
204.20149726556883
 21
415.57205986592635
  0
LINE
  8
_0-3_躯体と製品
  6
CONTINUOUS
 62
    4
 10
201.30249726559305
 20
413.37205986592198
 11
205.47549726557372
 21
413.37205986592198
  0
LINE
  8
_0-3_躯体と製品
  6
CONTINUOUS
 62
    4
 10
197.20149726557065
 20
417.3720598659238
 11
204.20149726556883
 21
417.3720598659238
  0
LINE
  8
_0-3_躯体と製品
  6
CONTINUOUS
 62
    4
 10
201.30249726559305
 20
412.37305986592582
 11
214.1014972655903
 21
412.37305986592582
  0
LINE
  8
_0-3_躯体と製品
  6
CONTINUOUS
 62
    4
 10
201.30249726559305
 20
413.37205986592198
 11
214.1014972655903
 21
413.37205986592198
  0
LINE
  8
_0-3_躯体と製品
  6
CONTINUOUS
 62
    4
 10
201.30249726559305
 20
407.37205986592016
 11
214.1014972655903
 21
407.37205986592016
  0
LINE
  8
_0-3_躯体と製品
  6
CONTINUOUS
 62
    4
 10
201.30249726559305
 20
406.37305986592582
 11
214.1014972655903
 21
406.37305986592582
  0
LINE
  8
_0-3_躯体と製品
  6
CONTINUOUS
 62
    3
 10
203.00149726558448
 20
403.57205986592635
 11
214.89949726557279
 21
403.57205986592635
  0
LINE
  8
_0-5_中心線
  6
CENTER1
 62
    7
 10
73.598866811176777
 20
622.6421584645268
 11
1126.7014972655634
 21
622.6421584645268
  0
LINE
  8
_0-5_中心線
  6
CENTER1
 62
    7
 10
73.598866811176777
 20
622.6421584645268
 11
1126.7014972655634
 21
622.6421584645268
  0
LINE
  8
_0-6_Layer_01
  6
CONTINUOUS
 62
    4
 10
196.70149726556883
 20
722.64215846452862
 11
1096.7014972655634
 21
722.64215846452862
  0
LINE
  8
_0-6_Layer_01
  6
CONTINUOUS
 62
    4
 10
204.70149726556701
 20
714.6421584645268
 11
1088.7014972655634
 21
714.6421584645268
  0
LINE
  8
_0-6_Layer_01
  6
CONTINUOUS
 62
    4
 10
1096.7014972655634
 20
522.6421584645268
 11
196.70149726556883
 21
522.6421584645268
  0
LINE
  8
_0-6_Layer_01
  6
CONTINUOUS
 62
    4
 10
1088.7014972655634
 20
530.64215846452862
 11
204.70149726556701
 21
530.64215846452862
  0
ARC
  8
_0-3_躯体と製品
  6
CONTINUOUS
 62
    4
 10
198.40149726558047
 20
410.67205986592489
 40
1.6999999999999991
 50
90.000002999880451
 51
180.00000600017779
  0
LINE
  8
_0-3_躯体と製品
  6
CONTINUOUS
 62
    4
 10
200.10249726558141
 20
415.67305986592146
 11
200.10249726558141
 21
402.9720598659278
  0
LINE
  8
_0-3_躯体と製品
  6
CONTINUOUS
 62
    4
 10
201.30249726559305
 20
415.67305986592146
 11
201.30249726559305
 21
402.9720598659278
  0
LINE
  8
_0-3_躯体と製品
  6
CONTINUOUS
 62
    4
 10
200.70249726558359
 20
402.37205986592198
 11
200.70249726558359
 21
415.67305986592146
  0
LINE
  8
_0-3_躯体と製品
  6
CONTINUOUS
 62
    3
 10
201.30249726559305
 20
404.07205986592635
 11
201.30249726559305
 21
413.87305986592582
  0
LINE
  8
_0-3_躯体と製品
  6
CONTINUOUS
 62
    3
 10
202.50249726557558
 20
404.07205986592635
 11
202.50249726557558
 21
413.87305986592582
  0
ARC
  8
_0-3_躯体と製品
  6
CONTINUOUS
 62
    4
 10
198.40149726558047
 20
409.0730598659211
 40
1.6999999999999991
 50
180.00000600017779
 51
269.99999700011949
  0
ARC
  8
_0-3_躯体と製品
  6
CONTINUOUS
 62
    4
 10
200.70249726558359
 20
402.9720598659278
 40
0.5999999999999997
 50
180.00000600017779
 51
0
  0
LINE
  8
_0-3_躯体と製品
  6
CONTINUOUS
 62
    4
 10
198.40149726558047
 20
407.37205986592016
 11
200.10249726558141
 21
407.37205986592016
  0
ARC
  8
_0-3_躯体と製品
  6
CONTINUOUS
 62
    3
 10
203.00149726558448
 20
404.07205986592635
 40
0.4999999999999998
 50
180.00000600017779
 51
269.99999700011949
  0
ARC
  8
_0-3_躯体と製品
  6
CONTINUOUS
 62
    3
 10
203.00149726558448
 20
404.07205986592635
 40
1.6999999999999991
 50
180.00000600017779
 51
269.99999700011949
  0
LINE
  8
_0-3_躯体と製品
  6
CONTINUOUS
 62
    4
 10
199.07749726558541
 20
407.37205986592016
 11
199.51149726556469
 21
404.92205986592489
  0
LINE
  8
_0-3_躯体と製品
  6
CONTINUOUS
 62
    4
 10
199.51149726556469
 20
404.92205986592489
 11
200.10249726557777
 21
404.92205986592489
  0
LINE
  8
_0-3_躯体と製品
  6
CONTINUOUS
 62
    4
 10
196.70149726556883
 20
410.67205986592489
 11
196.70149726556883
 21
409.0730598659211
  0
ARC
  8
_0-3_躯体と製品
  6
CONTINUOUS
 62
    4
 10
201.80149726557283
 20
415.67305986592146
 40
0.4999999999999998
 50
90.000002999880451
 51
180.00000600017779
  0
ARC
  8
_0-3_躯体と製品
  6
CONTINUOUS
 62
    4
 10
197.20149726557065
 20
416.87305986592582
 40
0.4999999999999998
 50
90.000002999880451
 51
180.00000600017779
  0
ARC
  8
_0-3_躯体と製品
  6
CONTINUOUS
 62
    4
 10
199.6014972655903
 20
415.67305986592146
 40
1.099999999999999
 50
0
 51
90.000002999880451
  0
ARC
  8
_0-3_躯体と製品
  6
CONTINUOUS
 62
    4
 10
201.80149726557283
 20
415.67305986592146
 40
1.099999999999999
 50
90.000002999880451
 51
180.00000600017779
  0
ARC
  8
_0-3_躯体と製品
  6
CONTINUOUS
 62
    4
 10
199.6014972655903
 20
415.67305986592146
 40
0.4999999999999998
 50
0
 51
90.000002999880451
  0
ARC
  8
_0-3_躯体と製品
  6
CONTINUOUS
 62
    4
 10
197.20149726557065
 20
416.07205986592635
 40
0.4999999999999998
 50
180.00000600017779
 51
269.99999700011949
  0
LINE
  8
_0-3_躯体と製品
  6
CONTINUOUS
 62
    4
 10
196.70149726556883
 20
416.07205986592635
 11
196.70149726556883
 21
416.87305986592582
  0
LINE
  8
_0-3_躯体と製品
  6
CONTINUOUS
 62
    4
 10
204.1014972655903
 20
416.17205986592671
 11
201.80149726557283
 21
416.17205986592671
  0
LINE
  8
_0-3_躯体と製品
  6
CONTINUOUS
 62
    4
 10
197.20149726557065
 20
415.57205986592635
 11
200.10249726558141
 21
415.57205986592635
  0
LINE
  8
_0-3_躯体と製品
  6
CONTINUOUS
 62
    4
 10
197.30149726557465
 20
416.17205986592671
 11
199.6014972655903
 21
416.17205986592671
  0
LINE
  8
_0-3_躯体と製品
  6
CONTINUOUS
 62
    4
 10
204.1014972655903
 20
416.77205986592344
 11
201.80149726557283
 21
416.77205986592344
  0
LINE
  8
_0-3_躯体と製品
  6
CONTINUOUS
 62
    4
 10
204.1014972655903
 20
416.77205986592344
 11
204.1014972655903
 21
416.17205986592671
  0
LINE
  8
_0-3_躯体と製品
  6
CONTINUOUS
 62
    4
 10
198.40149726558047
 20
412.37305986592582
 11
200.10249726558141
 21
412.37305986592582
  0
LINE
  8
_0-3_躯体と製品
  6
CONTINUOUS
 62
    4
 10
197.30149726557465
 20
416.77205986592344
 11
199.6014972655903
 21
416.77205986592344
  0
LINE
  8
_0-3_躯体と製品
  6
CONTINUOUS
 62
    4
 10
197.30149726557465
 20
416.77205986592344
 11
197.30149726557465
 21
416.17205986592671
  0
LINE
  8
_0-3_躯体と製品
  6
CONTINUOUS
 62
    4
 10
199.07749726558541
 20
412.37305986592582
 11
199.51149726556469
 21
414.82205986592453
  0
LINE
  8
_0-3_躯体と製品
  6
CONTINUOUS
 62
    4
 10
199.51149726556469
 20
414.82205986592453
 11
200.10249726557777
 21
414.82205986592453
  0
LINE
  8
_0-3_躯体と製品
  6
CONTINUOUS
 62
    3
 10
201.30249726559305
 20
413.87305986592582
 11
202.50249726557558
 21
413.87305986592582
  0
LINE
  8
_0-3_躯体と製品
  6
CONTINUOUS
 62
    4
 10
102.96961688383635
 20
715.64015846451912
 11
114.96961688383817
 21
715.64015846451912
  0
LINE
  8
_0-3_躯体と製品
  6
CONTINUOUS
 62
    4
 10
114.96961688383817
 20
721.64015846451912
 11
102.96961688383635
 21
721.64015846451912
  0
LINE
  8
_0-3_躯体と製品
  6
CONTINUOUS
 62
    4
 10
114.96961688383817
 20
722.64215846452862
 11
102.96961688383635
 21
722.64215846452862
  0
ARC
  8
_0-3_躯体と製品
  6
CONTINUOUS
 62
    4
 10
102.96961688383635
 20
721.14215846452862
 40
1.4999999999999989
 50
90.000006000177777
 51
179.99999700011949
  0
ARC
  8
_0-3_躯体と製品
  6
CONTINUOUS
 62
    4
 10
102.96961688383635
 20
721.14215846452862
 40
0.4999999999999998
 50
90.000006000177777
 51
179.99999700011949
  0
ARC
  8
_0-3_躯体と製品
  6
CONTINUOUS
 62
    4
 10
102.96961688383635
 20
716.14115846453751
 40
0.4999999999999998
 50
179.99999700011949
 51
270
  0
LINE
  8
_0-3_躯体と製品
  6
CONTINUOUS
 62
    4
 10
102.46861688384342
 20
721.14215846452862
 11
102.46861688384342
 21
716.14115846453751
  0
LINE
  8
_0-3_躯体と製品
  6
CONTINUOUS
 62
    4
 10
101.46961688383635
 20
721.14215846452862
 11
101.46961688383635
 21
716.14115846453751
  0
ARC
  8
_0-3_躯体と製品
  6
CONTINUOUS
 62
    4
 10
114.96961688383635
 20
721.14215846452862
 40
1.4999999999999989
 50
0.0000029998804485
 51
90.000006000177777
  0
ARC
  8
_0-3_躯体と製品
  6
CONTINUOUS
 62
    4
 10
114.96961688383635
 20
716.14115846453751
 40
0.4999999999999998
 50
270
 51
0.0000029998804484
  0
ARC
  8
_0-3_躯体と製品
  6
CONTINUOUS
 62
    4
 10
114.96961688383635
 20
721.14215846452862
 40
0.4999999999999998
 50
0.0000029998804485
 51
90.000006000177777
  0
LINE
  8
_0-3_躯体と製品
  6
CONTINUOUS
 62
    4
 10
116.46961688383817
 20
716.14115846453751
 11
116.46961688383817
 21
721.14215846452862
  0
LINE
  8
_0-3_躯体と製品
  6
CONTINUOUS
 62
    4
 10
115.47061688384383
 20
716.14115846453751
 11
115.47061688384383
 21
721.14215846452862
  0
LINE
  8
_0-6_Layer_01
  6
CONTINUOUS
 62
    4
 10
354.70149726556701
 20
626.1421584645268
 11
346.70149726556519
 21
626.1421584645268
  0
LINE
  8
_0-6_Layer_01
  6
CONTINUOUS
 62
    4
 10
354.70149726556701
 20
619.1421584645268
 11
346.70149726556519
 21
619.1421584645268
  0
LINE
  8
_0-6_Layer_01
  6
CONTINUOUS
 62
    4
 10
338.70149726556701
 20
714.6421584645268
 11
338.70149726556701
 21
530.64215846452862
  0
LINE
  8
_0-6_Layer_01
  6
CONTINUOUS
 62
    4
 10
330.70149726556883
 20
714.6421584645268
 11
330.70149726556883
 21
530.64215846452862
  0
LINE
  8
_0-6_Layer_01
  6
CONTINUOUS
 62
    4
 10
346.70149726556519
 20
714.6421584645268
 11
346.70149726556519
 21
530.64215846452862
  0
LINE
  8
_0-6_Layer_01
  6
CONTINUOUS
 62
    4
 10
266.70149726556883
 20
714.6421584645268
 11
266.70149726556883
 21
530.64215846452862
  0
LINE
  8
_0-6_Layer_01
  6
CONTINUOUS
 62
    4
 10
258.70149726556701
 20
714.6421584645268
 11
258.70149726556701
 21
530.64215846452862
  0
LINE
  8
_0-6_Layer_01
  6
CONTINUOUS
 62
    4
 10
290.70149726556701
 20
714.6421584645268
 11
290.70149726556701
 21
530.64215846452862
  0
LINE
  8
_0-6_Layer_01
  6
CONTINUOUS
 62
    4
 10
250.70149726556883
 20
714.6421584645268
 11
250.70149726556883
 21
530.64215846452862
  0
LINE
  8
_0-6_Layer_01
  6
CONTINUOUS
 62
    4
 10
242.70149726556701
 20
714.6421584645268
 11
242.70149726556701
 21
530.64215846452862
  0
LINE
  8
_0-6_Layer_01
  6
CONTINUOUS
 62
    4
 10
234.70149726556519
 20
714.6421584645268
 11
234.70149726556519
 21
530.64215846452862
  0
LINE
  8
_0-6_Layer_01
  6
CONTINUOUS
 62
    4
 10
226.70149726556701
 20
714.6421584645268
 11
226.70149726556701
 21
530.64215846452862
  0
LINE
  8
_0-6_Layer_01
  6
CONTINUOUS
 62
    4
 10
282.70149726556519
 20
714.6421584645268
 11
282.70149726556519
 21
530.64215846452862
  0
LINE
  8
_0-6_Layer_01
  6
CONTINUOUS
 62
    4
 10
274.70149726556701
 20
714.6421584645268
 11
274.70149726556701
 21
530.64215846452862
  0
LINE
  8
_0-6_Layer_01
  6
CONTINUOUS
 62
    4
 10
218.70149726556519
 20
714.6421584645268
 11
218.70149726556519
 21
530.64215846452862
  0
LINE
  8
_0-6_Layer_01
  6
CONTINUOUS
 62
    4
 10
210.70149726556701
 20
714.6421584645268
 11
210.70149726556701
 21
530.64215846452862
  0
LINE
  8
_0-6_Layer_01
  6
CONTINUOUS
 62
    4
 10
322.70149726556701
 20
714.6421584645268
 11
322.70149726556701
 21
530.64215846452862
  0
LINE
  8
_0-6_Layer_01
  6
CONTINUOUS
 62
    4
 10
314.70149726556883
 20
714.6421584645268
 11
314.70149726556883
 21
530.64215846452862
  0
LINE
  8
_0-6_Layer_01
  6
CONTINUOUS
 62
    4
 10
306.70149726556701
 20
714.6421584645268
 11
306.70149726556701
 21
530.64215846452862
  0
LINE
  8
_0-6_Layer_01
  6
CONTINUOUS
 62
    4
 10
298.70149726556519
 20
714.6421584645268
 11
298.70149726556519
 21
530.64215846452862
  0
LINE
  8
_0-6_Layer_01
  6
CONTINUOUS
 62
    4
 10
204.70149726556701
 20
722.64215846452862
 11
204.70149726556701
 21
522.6421584645268
  0
LINE
  8
_0-6_Layer_01
  6
CONTINUOUS
 62
    4
 10
196.70149726556883
 20
722.64215846452862
 11
196.70149726556883
 21
522.6421584645268
  0
CIRCLE
  8
_0-3_躯体と製品
  6
CONTINUOUS
 62
    3
 10
222.70149726556701
 20
534.6421584645268
 40
1.25
  0
LINE
  8
_0-3_躯体と製品
  6
CONTINUOUS
 62
    3
 10
226.70149726556701
 20
540.6421584645268
 11
228.90049726558937
 21
540.6421584645268
  0
LINE
  8
_0-3_躯体と製品
  6
CONTINUOUS
 62
    3
 10
216.50249726557377
 20
530.64215846452862
 11
216.50249726557377
 21
540.6421584645268
  0
LINE
  8
_0-3_躯体と製品
  6
CONTINUOUS
 62
    3
 10
215.30249726559123
 20
530.64215846452862
 11
215.30249726559123
 21
540.6421584645268
  0
LINE
  8
_0-3_躯体と製品
  6
CONTINUOUS
 62
    3
 10
228.90049726558937
 20
530.64215846452862
 11
228.90049726558937
 21
540.6421584645268
  0
LINE
  8
_0-3_躯体と製品
  6
CONTINUOUS
 62
    3
 10
215.30249726559123
 20
540.6421584645268
 11
218.70149726556519
 21
540.6421584645268
  0
LINE
  8
_0-3_躯体と製品
  6
CONTINUOUS
 62
    3
 10
218.70149726556519
 20
540.6421584645268
 11
226.70149726556701
 21
540.6421584645268
  0
LINE
  8
_0-6_Layer_01
  6
CONTINUOUS
 62
    4
 10
210.70149726556701
 20
626.1421584645268
 11
204.70149726556701
 21
626.1421584645268
  0
LINE
  8
_0-6_Layer_01
  6
CONTINUOUS
 62
    4
 10
210.70149726556701
 20
619.1421584645268
 11
204.70149726556701
 21
619.1421584645268
  0
LINE
  8
_0-6_Layer_01
  6
CONTINUOUS
 62
    4
 10
258.70149726556701
 20
626.1421584645268
 11
250.70149726556883
 21
626.1421584645268
  0
LINE
  8
_0-6_Layer_01
  6
CONTINUOUS
 62
    4
 10
226.70149726556701
 20
626.1421584645268
 11
218.70149726556519
 21
626.1421584645268
  0
LINE
  8
_0-6_Layer_01
  6
CONTINUOUS
 62
    4
 10
242.70149726556701
 20
626.1421584645268
 11
234.70149726556519
 21
626.1421584645268
  0
LINE
  8
_0-6_Layer_01
  6
CONTINUOUS
 62
    4
 10
258.70149726556701
 20
619.1421584645268
 11
250.70149726556883
 21
619.1421584645268
  0
LINE
  8
_0-6_Layer_01
  6
CONTINUOUS
 62
    4
 10
226.70149726556701
 20
619.1421584645268
 11
218.70149726556519
 21
619.1421584645268
  0
LINE
  8
_0-6_Layer_01
  6
CONTINUOUS
 62
    4
 10
242.70149726556701
 20
619.1421584645268
 11
234.70149726556519
 21
619.1421584645268
  0
CIRCLE
  8
_0-3_躯体と製品
  6
CONTINUOUS
 62
    3
 10
222.70149726556701
 20
710.64215846452862
 40
1.25
  0
LINE
  8
_0-3_躯体と製品
  6
CONTINUOUS
 62
    3
 10
216.50249726557377
 20
714.6421584645268
 11
216.50249726557377
 21
704.6421584645268
  0
LINE
  8
_0-3_躯体と製品
  6
CONTINUOUS
 62
    3
 10
215.30249726559123
 20
714.6421584645268
 11
215.30249726559123
 21
704.6421584645268
  0
LINE
  8
_0-3_躯体と製品
  6
CONTINUOUS
 62
    3
 10
228.90049726558937
 20
714.6421584645268
 11
228.90049726558937
 21
704.6421584645268
  0
LINE
  8
_0-3_躯体と製品
  6
CONTINUOUS
 62
    3
 10
215.30249726559123
 20
704.6421584645268
 11
218.70149726556519
 21
704.6421584645268
  0
LINE
  8
_0-3_躯体と製品
  6
CONTINUOUS
 62
    3
 10
218.70149726556519
 20
704.6421584645268
 11
226.70149726556701
 21
704.6421584645268
  0
LINE
  8
_0-3_躯体と製品
  6
CONTINUOUS
 62
    3
 10
226.70149726556701
 20
704.6421584645268
 11
228.90049726558937
 21
704.6421584645268
  0
LINE
  8
_0-6_Layer_01
  6
CONTINUOUS
 62
    4
 10
306.70149726556701
 20
626.1421584645268
 11
298.70149726556519
 21
626.1421584645268
  0
LINE
  8
_0-6_Layer_01
  6
CONTINUOUS
 62
    4
 10
306.70149726556701
 20
619.1421584645268
 11
298.70149726556519
 21
619.1421584645268
  0
LINE
  8
_0-6_Layer_01
  6
CONTINUOUS
 62
    4
 10
290.70149726556701
 20
626.1421584645268
 11
282.70149726556519
 21
626.1421584645268
  0
LINE
  8
_0-6_Layer_01
  6
CONTINUOUS
 62
    4
 10
290.70149726556701
 20
619.1421584645268
 11
282.70149726556519
 21
619.1421584645268
  0
LINE
  8
_0-6_Layer_01
  6
CONTINUOUS
 62
    4
 10
274.70149726556701
 20
626.1421584645268
 11
266.70149726556883
 21
626.1421584645268
  0
LINE
  8
_0-6_Layer_01
  6
CONTINUOUS
 62
    4
 10
274.70149726556701
 20
619.1421584645268
 11
266.70149726556883
 21
619.1421584645268
  0
LINE
  8
_0-6_Layer_01
  6
CONTINUOUS
 62
    4
 10
338.70149726556701
 20
626.1421584645268
 11
330.70149726556883
 21
626.1421584645268
  0
LINE
  8
_0-6_Layer_01
  6
CONTINUOUS
 62
    4
 10
322.70149726556701
 20
626.1421584645268
 11
314.70149726556883
 21
626.1421584645268
  0
LINE
  8
_0-6_Layer_01
  6
CONTINUOUS
 62
    4
 10
338.70149726556701
 20
619.1421584645268
 11
330.70149726556883
 21
619.1421584645268
  0
LINE
  8
_0-6_Layer_01
  6
CONTINUOUS
 62
    4
 10
322.70149726556701
 20
619.1421584645268
 11
314.70149726556883
 21
619.1421584645268
  0
LINE
  8
_0-6_Layer_01
  6
CONTINUOUS
 62
    4
 10
530.70149726556701
 20
626.1421584645268
 11
522.70149726556883
 21
626.1421584645268
  0
LINE
  8
_0-6_Layer_01
  6
CONTINUOUS
 62
    4
 10
530.70149726556701
 20
619.1421584645268
 11
522.70149726556883
 21
619.1421584645268
  0
LINE
  8
_0-6_Layer_01
  6
CONTINUOUS
 62
    4
 10
490.70149726556519
 20
714.6421584645268
 11
490.70149726556519
 21
530.64215846452862
  0
LINE
  8
_0-6_Layer_01
  6
CONTINUOUS
 62
    4
 10
482.70149726556701
 20
714.6421584645268
 11
482.70149726556701
 21
530.64215846452862
  0
LINE
  8
_0-6_Layer_01
  6
CONTINUOUS
 62
    4
 10
474.70149726556519
 20
714.6421584645268
 11
474.70149726556519
 21
530.64215846452862
  0
LINE
  8
_0-6_Layer_01
  6
CONTINUOUS
 62
    4
 10
466.70149726556701
 20
714.6421584645268
 11
466.70149726556701
 21
530.64215846452862
  0
LINE
  8
_0-6_Layer_01
  6
CONTINUOUS
 62
    4
 10
458.70149726556883
 20
714.6421584645268
 11
458.70149726556883
 21
530.64215846452862
  0
LINE
  8
_0-6_Layer_01
  6
CONTINUOUS
 62
    4
 10
450.70149726556701
 20
714.6421584645268
 11
450.70149726556701
 21
530.64215846452862
  0
LINE
  8
_0-6_Layer_01
  6
CONTINUOUS
 62
    4
 10
442.70149726556883
 20
714.6421584645268
 11
442.70149726556883
 21
530.64215846452862
  0
LINE
  8
_0-6_Layer_01
  6
CONTINUOUS
 62
    4
 10
434.70149726556701
 20
714.6421584645268
 11
434.70149726556701
 21
530.64215846452862
  0
LINE
  8
_0-6_Layer_01
  6
CONTINUOUS
 62
    4
 10
522.70149726556883
 20
714.6421584645268
 11
522.70149726556883
 21
530.64215846452862
  0
LINE
  8
_0-6_Layer_01
  6
CONTINUOUS
 62
    4
 10
514.70149726556701
 20
714.6421584645268
 11
514.70149726556701
 21
530.64215846452862
  0
LINE
  8
_0-6_Layer_01
  6
CONTINUOUS
 62
    4
 10
506.70149726556883
 20
714.6421584645268
 11
506.70149726556883
 21
530.64215846452862
  0
LINE
  8
_0-6_Layer_01
  6
CONTINUOUS
 62
    4
 10
498.70149726556701
 20
714.6421584645268
 11
498.70149726556701
 21
530.64215846452862
  0
LINE
  8
_0-6_Layer_01
  6
CONTINUOUS
 62
    4
 10
426.70149726556519
 20
714.6421584645268
 11
426.70149726556519
 21
530.64215846452862
  0
LINE
  8
_0-6_Layer_01
  6
CONTINUOUS
 62
    4
 10
418.70149726556701
 20
714.6421584645268
 11
418.70149726556701
 21
530.64215846452862
  0
LINE
  8
_0-6_Layer_01
  6
CONTINUOUS
 62
    4
 10
370.70149726556701
 20
714.6421584645268
 11
370.70149726556701
 21
530.64215846452862
  0
LINE
  8
_0-6_Layer_01
  6
CONTINUOUS
 62
    4
 10
362.70149726556519
 20
714.6421584645268
 11
362.70149726556519
 21
530.64215846452862
  0
LINE
  8
_0-6_Layer_01
  6
CONTINUOUS
 62
    4
 10
354.70149726556701
 20
714.6421584645268
 11
354.70149726556701
 21
530.64215846452862
  0
LINE
  8
_0-6_Layer_01
  6
CONTINUOUS
 62
    4
 10
410.70149726556519
 20
714.6421584645268
 11
410.70149726556519
 21
530.64215846452862
  0
LINE
  8
_0-6_Layer_01
  6
CONTINUOUS
 62
    4
 10
402.70149726556701
 20
714.6421584645268
 11
402.70149726556701
 21
530.64215846452862
  0
LINE
  8
_0-6_Layer_01
  6
CONTINUOUS
 62
    4
 10
394.70149726556883
 20
714.6421584645268
 11
394.70149726556883
 21
530.64215846452862
  0
LINE
  8
_0-6_Layer_01
  6
CONTINUOUS
 62
    4
 10
386.70149726556701
 20
714.6421584645268
 11
386.70149726556701
 21
530.64215846452862
  0
LINE
  8
_0-6_Layer_01
  6
CONTINUOUS
 62
    4
 10
378.70149726556883
 20
714.6421584645268
 11
378.70149726556883
 21
530.64215846452862
  0
CIRCLE
  8
_0-3_躯体と製品
  6
CONTINUOUS
 62
    3
 10
494.70149726556883
 20
534.6421584645268
 40
1.25
  0
LINE
  8
_0-3_躯体と製品
  6
CONTINUOUS
 62
    3
 10
487.30249726559123
 20
530.64215846452862
 11
487.30249726559123
 21
540.6421584645268
  0
LINE
  8
_0-3_躯体と製品
  6
CONTINUOUS
 62
    3
 10
488.50249726557377
 20
530.64215846452862
 11
488.50249726557377
 21
540.6421584645268
  0
LINE
  8
_0-3_躯体と製品
  6
CONTINUOUS
 62
    3
 10
487.30249726559123
 20
540.6421584645268
 11
490.70149726556519
 21
540.6421584645268
  0
LINE
  8
_0-3_躯体と製品
  6
CONTINUOUS
 62
    3
 10
490.70149726556519
 20
540.6421584645268
 11
498.70149726556701
 21
540.6421584645268
  0
LINE
  8
_0-3_躯体と製品
  6
CONTINUOUS
 62
    3
 10
498.70149726556701
 20
540.6421584645268
 11
500.90049726558937
 21
540.6421584645268
  0
LINE
  8
_0-3_躯体と製品
  6
CONTINUOUS
 62
    3
 10
500.90049726558937
 20
530.64215846452862
 11
500.90049726558937
 21
540.6421584645268
  0
LINE
  8
_0-6_Layer_01
  6
CONTINUOUS
 62
    4
 10
386.70149726556701
 20
626.1421584645268
 11
378.70149726556883
 21
626.1421584645268
  0
LINE
  8
_0-6_Layer_01
  6
CONTINUOUS
 62
    4
 10
370.70149726556701
 20
626.1421584645268
 11
362.70149726556519
 21
626.1421584645268
  0
LINE
  8
_0-6_Layer_01
  6
CONTINUOUS
 62
    4
 10
386.70149726556701
 20
619.1421584645268
 11
378.70149726556883
 21
619.1421584645268
  0
LINE
  8
_0-6_Layer_01
  6
CONTINUOUS
 62
    4
 10
370.70149726556701
 20
619.1421584645268
 11
362.70149726556519
 21
619.1421584645268
  0
LINE
  8
_0-6_Layer_01
  6
CONTINUOUS
 62
    4
 10
418.70149726556701
 20
626.1421584645268
 11
410.70149726556519
 21
626.1421584645268
  0
LINE
  8
_0-6_Layer_01
  6
CONTINUOUS
 62
    4
 10
402.70149726556701
 20
626.1421584645268
 11
394.70149726556883
 21
626.1421584645268
  0
LINE
  8
_0-6_Layer_01
  6
CONTINUOUS
 62
    4
 10
418.70149726556701
 20
619.1421584645268
 11
410.70149726556519
 21
619.1421584645268
  0
LINE
  8
_0-6_Layer_01
  6
CONTINUOUS
 62
    4
 10
402.70149726556701
 20
619.1421584645268
 11
394.70149726556883
 21
619.1421584645268
  0
LINE
  8
_0-6_Layer_01
  6
CONTINUOUS
 62
    4
 10
434.70149726556701
 20
626.1421584645268
 11
426.70149726556519
 21
626.1421584645268
  0
LINE
  8
_0-6_Layer_01
  6
CONTINUOUS
 62
    4
 10
434.70149726556701
 20
619.1421584645268
 11
426.70149726556519
 21
619.1421584645268
  0
LINE
  8
_0-6_Layer_01
  6
CONTINUOUS
 62
    4
 10
482.70149726556701
 20
626.1421584645268
 11
474.70149726556519
 21
626.1421584645268
  0
LINE
  8
_0-6_Layer_01
  6
CONTINUOUS
 62
    4
 10
466.70149726556701
 20
626.1421584645268
 11
458.70149726556883
 21
626.1421584645268
  0
LINE
  8
_0-6_Layer_01
  6
CONTINUOUS
 62
    4
 10
450.70149726556701
 20
626.1421584645268
 11
442.70149726556883
 21
626.1421584645268
  0
LINE
  8
_0-6_Layer_01
  6
CONTINUOUS
 62
    4
 10
482.70149726556701
 20
619.1421584645268
 11
474.70149726556519
 21
619.1421584645268
  0
LINE
  8
_0-6_Layer_01
  6
CONTINUOUS
 62
    4
 10
466.70149726556701
 20
619.1421584645268
 11
458.70149726556883
 21
619.1421584645268
  0
LINE
  8
_0-6_Layer_01
  6
CONTINUOUS
 62
    4
 10
450.70149726556701
 20
619.1421584645268
 11
442.70149726556883
 21
619.1421584645268
  0
LINE
  8
_0-6_Layer_01
  6
CONTINUOUS
 62
    4
 10
498.70149726556701
 20
626.1421584645268
 11
490.70149726556519
 21
626.1421584645268
  0
LINE
  8
_0-6_Layer_01
  6
CONTINUOUS
 62
    4
 10
514.70149726556701
 20
626.1421584645268
 11
506.70149726556883
 21
626.1421584645268
  0
LINE
  8
_0-6_Layer_01
  6
CONTINUOUS
 62
    4
 10
514.70149726556701
 20
619.1421584645268
 11
506.70149726556883
 21
619.1421584645268
  0
LINE
  8
_0-6_Layer_01
  6
CONTINUOUS
 62
    4
 10
498.70149726556701
 20
619.1421584645268
 11
490.70149726556519
 21
619.1421584645268
  0
CIRCLE
  8
_0-3_躯体と製品
  6
CONTINUOUS
 62
    3
 10
494.70149726556883
 20
710.64215846452862
 40
1.25
  0
LINE
  8
_0-3_躯体と製品
  6
CONTINUOUS
 62
    3
 10
500.90049726558937
 20
714.6421584645268
 11
500.90049726558937
 21
704.6421584645268
  0
LINE
  8
_0-3_躯体と製品
  6
CONTINUOUS
 62
    3
 10
487.30249726559123
 20
704.6421584645268
 11
490.70149726556519
 21
704.6421584645268
  0
LINE
  8
_0-3_躯体と製品
  6
CONTINUOUS
 62
    3
 10
490.70149726556519
 20
704.6421584645268
 11
498.70149726556701
 21
704.6421584645268
  0
LINE
  8
_0-3_躯体と製品
  6
CONTINUOUS
 62
    3
 10
498.70149726556701
 20
704.6421584645268
 11
500.90049726558937
 21
704.6421584645268
  0
LINE
  8
_0-3_躯体と製品
  6
CONTINUOUS
 62
    3
 10
488.50249726557377
 20
714.6421584645268
 11
488.50249726557377
 21
704.6421584645268
  0
LINE
  8
_0-3_躯体と製品
  6
CONTINUOUS
 62
    3
 10
487.30249726559123
 20
714.6421584645268
 11
487.30249726559123
 21
704.6421584645268
  0
LINE
  8
_0-6_Layer_01
  6
CONTINUOUS
 62
    4
 10
562.70149726556701
 20
714.6421584645268
 11
562.70149726556701
 21
530.64215846452862
  0
LINE
  8
_0-6_Layer_01
  6
CONTINUOUS
 62
    4
 10
626.70149726556701
 20
714.6421584645268
 11
626.70149726556701
 21
530.64215846452862
  0
LINE
  8
_0-6_Layer_01
  6
CONTINUOUS
 62
    4
 10
554.70149726556519
 20
714.6421584645268
 11
554.70149726556519
 21
530.64215846452862
  0
LINE
  8
_0-6_Layer_01
  6
CONTINUOUS
 62
    4
 10
618.70149726556519
 20
714.6421584645268
 11
618.70149726556519
 21
530.64215846452862
  0
LINE
  8
_0-6_Layer_01
  6
CONTINUOUS
 62
    4
 10
546.70149726556701
 20
714.6421584645268
 11
546.70149726556701
 21
530.64215846452862
  0
LINE
  8
_0-6_Layer_01
  6
CONTINUOUS
 62
    4
 10
538.70149726556519
 20
714.6421584645268
 11
538.70149726556519
 21
530.64215846452862
  0
LINE
  8
_0-6_Layer_01
  6
CONTINUOUS
 62
    4
 10
650.70149726556883
 20
714.6421584645268
 11
650.70149726556883
 21
530.64215846452862
  0
LINE
  8
_0-6_Layer_01
  6
CONTINUOUS
 62
    4
 10
658.70149726556701
 20
714.6421584645268
 11
658.70149726556701
 21
530.64215846452862
  0
LINE
  8
_0-6_Layer_01
  6
CONTINUOUS
 62
    4
 10
570.70149726556883
 20
714.6421584645268
 11
570.70149726556883
 21
530.64215846452862
  0
LINE
  8
_0-6_Layer_01
  6
CONTINUOUS
 62
    4
 10
530.70149726556701
 20
714.6421584645268
 11
530.70149726556701
 21
530.64215846452862
  0
LINE
  8
_0-6_Layer_01
  6
CONTINUOUS
 62
    4
 10
642.70149726556701
 20
714.6421584645268
 11
642.70149726556701
 21
530.64215846452862
  0
LINE
  8
_0-6_Layer_01
  6
CONTINUOUS
 62
    4
 10
634.70149726556883
 20
714.6421584645268
 11
634.70149726556883
 21
530.64215846452862
  0
LINE
  8
_0-6_Layer_01
  6
CONTINUOUS
 62
    4
 10
602.70149726556883
 20
714.6421584645268
 11
602.70149726556883
 21
530.64215846452862
  0
LINE
  8
_0-6_Layer_01
  6
CONTINUOUS
 62
    4
 10
594.70149726556701
 20
714.6421584645268
 11
594.70149726556701
 21
530.64215846452862
  0
LINE
  8
_0-6_Layer_01
  6
CONTINUOUS
 62
    4
 10
610.70149726556701
 20
714.6421584645268
 11
610.70149726556701
 21
530.64215846452862
  0
LINE
  8
_0-6_Layer_01
  6
CONTINUOUS
 62
    4
 10
666.70149726556883
 20
714.6421584645268
 11
666.70149726556883
 21
530.64215846452862
  0
LINE
  8
_0-6_Layer_01
  6
CONTINUOUS
 62
    4
 10
674.70149726556701
 20
714.6421584645268
 11
674.70149726556701
 21
530.64215846452862
  0
LINE
  8
_0-6_Layer_01
  6
CONTINUOUS
 62
    4
 10
682.70149726556519
 20
714.6421584645268
 11
682.70149726556519
 21
530.64215846452862
  0
LINE
  8
_0-6_Layer_01
  6
CONTINUOUS
 62
    4
 10
706.70149726556701
 20
714.6421584645268
 11
706.70149726556701
 21
530.64215846452862
  0
LINE
  8
_0-6_Layer_01
  6
CONTINUOUS
 62
    4
 10
586.70149726556883
 20
714.6421584645268
 11
586.70149726556883
 21
530.64215846452862
  0
LINE
  8
_0-6_Layer_01
  6
CONTINUOUS
 62
    4
 10
690.70149726556701
 20
714.6421584645268
 11
690.70149726556701
 21
530.64215846452862
  0
LINE
  8
_0-6_Layer_01
  6
CONTINUOUS
 62
    4
 10
698.70149726556519
 20
714.6421584645268
 11
698.70149726556519
 21
530.64215846452862
  0
LINE
  8
_0-6_Layer_01
  6
CONTINUOUS
 62
    4
 10
578.70149726556701
 20
714.6421584645268
 11
578.70149726556701
 21
530.64215846452862
  0
LINE
  8
_0-6_Layer_01
  6
CONTINUOUS
 62
    4
 10
578.70149726556701
 20
626.1421584645268
 11
570.70149726556883
 21
626.1421584645268
  0
LINE
  8
_0-6_Layer_01
  6
CONTINUOUS
 62
    4
 10
578.70149726556701
 20
619.1421584645268
 11
570.70149726556883
 21
619.1421584645268
  0
LINE
  8
_0-6_Layer_01
  6
CONTINUOUS
 62
    4
 10
562.70149726556701
 20
626.1421584645268
 11
554.70149726556519
 21
626.1421584645268
  0
LINE
  8
_0-6_Layer_01
  6
CONTINUOUS
 62
    4
 10
546.70149726556701
 20
626.1421584645268
 11
538.70149726556519
 21
626.1421584645268
  0
LINE
  8
_0-6_Layer_01
  6
CONTINUOUS
 62
    4
 10
562.70149726556701
 20
619.1421584645268
 11
554.70149726556519
 21
619.1421584645268
  0
LINE
  8
_0-6_Layer_01
  6
CONTINUOUS
 62
    4
 10
546.70149726556701
 20
619.1421584645268
 11
538.70149726556519
 21
619.1421584645268
  0
LINE
  8
_0-6_Layer_01
  6
CONTINUOUS
 62
    4
 10
610.70149726556701
 20
626.1421584645268
 11
602.70149726556883
 21
626.1421584645268
  0
LINE
  8
_0-6_Layer_01
  6
CONTINUOUS
 62
    4
 10
610.70149726556701
 20
619.1421584645268
 11
602.70149726556883
 21
619.1421584645268
  0
LINE
  8
_0-6_Layer_01
  6
CONTINUOUS
 62
    4
 10
594.70149726556701
 20
626.1421584645268
 11
586.70149726556883
 21
626.1421584645268
  0
LINE
  8
_0-6_Layer_01
  6
CONTINUOUS
 62
    4
 10
594.70149726556701
 20
619.1421584645268
 11
586.70149726556883
 21
619.1421584645268
  0
LINE
  8
_0-6_Layer_01
  6
CONTINUOUS
 62
    4
 10
626.70149726556701
 20
626.1421584645268
 11
618.70149726556519
 21
626.1421584645268
  0
LINE
  8
_0-6_Layer_01
  6
CONTINUOUS
 62
    4
 10
642.70149726556701
 20
626.1421584645268
 11
634.70149726556883
 21
626.1421584645268
  0
LINE
  8
_0-6_Layer_01
  6
CONTINUOUS
 62
    4
 10
650.70149726556883
 20
626.1421584645268
 11
658.70149726556701
 21
626.1421584645268
  0
LINE
  8
_0-6_Layer_01
  6
CONTINUOUS
 62
    4
 10
642.70149726556701
 20
619.1421584645268
 11
634.70149726556883
 21
619.1421584645268
  0
LINE
  8
_0-6_Layer_01
  6
CONTINUOUS
 62
    4
 10
626.70149726556701
 20
619.1421584645268
 11
618.70149726556519
 21
619.1421584645268
  0
LINE
  8
_0-6_Layer_01
  6
CONTINUOUS
 62
    4
 10
650.70149726556883
 20
619.1421584645268
 11
658.70149726556701
 21
619.1421584645268
  0
LINE
  8
_0-6_Layer_01
  6
CONTINUOUS
 62
    4
 10
682.70149726556519
 20
626.1421584645268
 11
690.70149726556701
 21
626.1421584645268
  0
LINE
  8
_0-6_Layer_01
  6
CONTINUOUS
 62
    4
 10
698.70149726556519
 20
626.1421584645268
 11
706.70149726556701
 21
626.1421584645268
  0
LINE
  8
_0-6_Layer_01
  6
CONTINUOUS
 62
    4
 10
666.70149726556883
 20
626.1421584645268
 11
674.70149726556701
 21
626.1421584645268
  0
LINE
  8
_0-6_Layer_01
  6
CONTINUOUS
 62
    4
 10
682.70149726556519
 20
619.1421584645268
 11
690.70149726556701
 21
619.1421584645268
  0
LINE
  8
_0-6_Layer_01
  6
CONTINUOUS
 62
    4
 10
666.70149726556883
 20
619.1421584645268
 11
674.70149726556701
 21
619.1421584645268
  0
LINE
  8
_0-6_Layer_01
  6
CONTINUOUS
 62
    4
 10
698.70149726556519
 20
619.1421584645268
 11
706.70149726556701
 21
619.1421584645268
  0
ARC
  8
_0-3_躯体と製品
  6
CONTINUOUS
 62
    4
 10
311.80149726557283
 20
415.67305986592146
 40
1.099999999999999
 50
90.000002999880451
 51
180.00000600017779
  0
ARC
  8
_0-3_躯体と製品
  6
CONTINUOUS
 62
    4
 10
311.80149726557283
 20
415.67305986592146
 40
0.4999999999999998
 50
90.000002999880451
 51
180.00000600017779
  0
LINE
  8
_0-3_躯体と製品
  6
CONTINUOUS
 62
    4
 10
307.20249726558541
 20
417.3720598659238
 11
314.20149726556883
 21
417.3720598659238
  0
LINE
  8
_0-3_躯体と製品
  6
CONTINUOUS
 62
    4
 10
311.30149726557465
 20
415.57205986592635
 11
314.20149726556883
 21
415.57205986592635
  0
LINE
  8
_0-3_躯体と製品
  6
CONTINUOUS
 62
    4
 10
311.30149726557465
 20
413.37205986592198
 11
326.10249726558141
 21
413.37205986592198
  0
LINE
  8
_0-3_躯体と製品
  6
CONTINUOUS
 62
    4
 10
311.30149726557465
 20
412.37305986592582
 11
326.10249726558141
 21
412.37305986592582
  0
LINE
  8
_0-3_躯体と製品
  6
CONTINUOUS
 62
    4
 10
311.30149726557465
 20
406.37305986592582
 11
326.10249726558141
 21
406.37305986592582
  0
LINE
  8
_0-3_躯体と製品
  6
CONTINUOUS
 62
    4
 10
311.30149726557465
 20
407.37205986592016
 11
326.10249726558141
 21
407.37205986592016
  0
LINE
  8
_0-3_躯体と製品
  6
CONTINUOUS
 62
    4
 10
247.30149726557283
 20
412.37305986592582
 11
262.10149726559212
 21
412.37305986592582
  0
LINE
  8
_0-3_躯体と製品
  6
CONTINUOUS
 62
    4
 10
247.30149726557283
 20
413.37205986592198
 11
262.10149726559212
 21
413.37205986592198
  0
LINE
  8
_0-3_躯体と製品
  6
CONTINUOUS
 62
    4
 10
247.30149726557283
 20
407.37205986592016
 11
262.10149726559212
 21
407.37205986592016
  0
LINE
  8
_0-3_躯体と製品
  6
CONTINUOUS
 62
    4
 10
247.30149726557283
 20
406.37305986592582
 11
262.10149726559212
 21
406.37305986592582
  0
LINE
  8
_0-3_躯体と製品
  6
CONTINUOUS
 62
    4
 10
230.10249726558141
 20
415.67305986592146
 11
230.10249726558141
 21
402.9720598659278
  0
LINE
  8
_0-3_躯体と製品
  6
CONTINUOUS
 62
    4
 10
230.70249726558541
 20
402.37205986592198
 11
230.70249726558541
 21
415.67305986592146
  0
LINE
  8
_0-3_躯体と製品
  6
CONTINUOUS
 62
    4
 10
247.30149726557283
 20
415.67305986592146
 11
247.30149726557283
 21
402.9720598659278
  0
LINE
  8
_0-3_躯体と製品
  6
CONTINUOUS
 62
    4
 10
231.30249726559305
 20
415.67305986592146
 11
231.30249726559305
 21
402.9720598659278
  0
LINE
  8
_0-3_躯体と製品
  6
CONTINUOUS
 62
    4
 10
246.1014972655903
 20
415.67305986592146
 11
246.1014972655903
 21
402.9720598659278
  0
LINE
  8
_0-3_躯体と製品
  6
CONTINUOUS
 62
    4
 10
246.70149726556883
 20
402.37205986592198
 11
246.70149726556883
 21
415.67305986592146
  0
LINE
  8
_0-3_躯体と製品
  6
CONTINUOUS
 62
    4
 10
215.30149726557465
 20
415.67305986592146
 11
215.30149726557465
 21
402.9720598659278
  0
LINE
  8
_0-3_躯体と製品
  6
CONTINUOUS
 62
    4
 10
214.1014972655903
 20
415.67305986592146
 11
214.1014972655903
 21
402.9720598659278
  0
LINE
  8
_0-3_躯体と製品
  6
CONTINUOUS
 62
    4
 10
214.70149726556883
 20
402.37205986592198
 11
214.70149726556883
 21
415.67305986592146
  0
ARC
  8
_0-3_躯体と製品
  6
CONTINUOUS
 62
    4
 10
230.70249726558541
 20
402.9720598659278
 40
0.5999999999999997
 50
180.00000600017779
 51
0
  0
LINE
  8
_0-3_躯体と製品
  6
CONTINUOUS
 62
    4
 10
215.30149726557465
 20
406.37305986592582
 11
230.10249726558141
 21
406.37305986592582
  0
LINE
  8
_0-3_躯体と製品
  6
CONTINUOUS
 62
    4
 10
215.30149726557465
 20
407.37205986592016
 11
230.10249726558141
 21
407.37205986592016
  0
ARC
  8
_0-3_躯体と製品
  6
CONTINUOUS
 62
    4
 10
214.70149726556883
 20
402.9720598659278
 40
0.5999999999999997
 50
180.00000600017779
 51
0
  0
LINE
  8
_0-3_躯体と製品
  6
CONTINUOUS
 62
    3
 10
214.89949726557279
 20
402.37205986592198
 11
214.89949726557279
 21
403.57205986592635
  0
LINE
  8
_0-3_躯体と製品
  6
CONTINUOUS
 62
    4
 10
231.30249726559305
 20
406.37305986592582
 11
246.1014972655903
 21
406.37305986592582
  0
LINE
  8
_0-3_躯体と製品
  6
CONTINUOUS
 62
    4
 10
231.30249726559305
 20
407.37205986592016
 11
246.1014972655903
 21
407.37205986592016
  0
ARC
  8
_0-3_躯体と製品
  6
CONTINUOUS
 62
    4
 10
246.70149726556883
 20
402.9720598659278
 40
0.5999999999999997
 50
180.00000600017779
 51
0
  0
ARC
  8
_0-3_躯体と製品
  6
CONTINUOUS
 62
    4
 10
231.80149726557465
 20
415.67305986592146
 40
1.099999999999999
 50
90.000002999880451
 51
180.00000600017779
  0
LINE
  8
_0-3_躯体と製品
  6
CONTINUOUS
 62
    4
 10
227.20149726556883
 20
417.3720598659238
 11
234.20149726556701
 21
417.3720598659238
  0
LINE
  8
_0-3_躯体と製品
  6
CONTINUOUS
 62
    4
 10
215.30149726557465
 20
415.57205986592635
 11
218.20149726556883
 21
415.57205986592635
  0
LINE
  8
_0-3_躯体と製品
  6
CONTINUOUS
 62
    4
 10
211.20249726558541
 20
417.3720598659238
 11
218.20149726556883
 21
417.3720598659238
  0
LINE
  8
_0-3_躯体と製品
  6
CONTINUOUS
 62
    4
 10
218.10249726558141
 20
416.17205986592671
 11
215.80149726557283
 21
416.17205986592671
  0
LINE
  8
_0-3_躯体と製品
  6
CONTINUOUS
 62
    4
 10
218.10249726558141
 20
416.77205986592344
 11
215.80149726557283
 21
416.77205986592344
  0
LINE
  8
_0-3_躯体と製品
  6
CONTINUOUS
 62
    4
 10
215.30149726557465
 20
412.37305986592582
 11
230.10249726558141
 21
412.37305986592582
  0
LINE
  8
_0-3_躯体と製品
  6
CONTINUOUS
 62
    4
 10
215.30149726557465
 20
413.37205986592198
 11
230.10249726558141
 21
413.37205986592198
  0
ARC
  8
_0-3_躯体と製品
  6
CONTINUOUS
 62
    4
 10
204.20149726556883
 20
416.07205986592635
 40
0.4999999999999998
 50
269.99999700011949
 51
0
  0
ARC
  8
_0-3_躯体と製品
  6
CONTINUOUS
 62
    4
 10
211.20249726558541
 20
416.07205986592635
 40
0.4999999999999998
 50
180.00000600017779
 51
269.99999700011949
  0
ARC
  8
_0-3_躯体と製品
  6
CONTINUOUS
 62
    4
 10
215.80149726557283
 20
415.67305986592146
 40
0.4999999999999998
 50
90.000002999880451
 51
180.00000600017779
  0
ARC
  8
_0-3_躯体と製品
  6
CONTINUOUS
 62
    4
 10
213.60249726558141
 20
415.67305986592146
 40
0.4999999999999998
 50
0
 51
90.000002999880451
  0
ARC
  8
_0-3_躯体と製品
  6
CONTINUOUS
 62
    4
 10
213.60249726558141
 20
415.67305986592146
 40
1.099999999999999
 50
0
 51
90.000002999880451
  0
ARC
  8
_0-3_躯体と製品
  6
CONTINUOUS
 62
    4
 10
215.80149726557283
 20
415.67305986592146
 40
1.099999999999999
 50
90.000002999880451
 51
180.00000600017779
  0
ARC
  8
_0-3_躯体と製品
  6
CONTINUOUS
 62
    4
 10
204.20149726556883
 20
416.87305986592582
 40
0.4999999999999998
 50
0
 51
90.000002999880451
  0
ARC
  8
_0-3_躯体と製品
  6
CONTINUOUS
 62
    4
 10
211.20249726558541
 20
416.87305986592582
 40
0.4999999999999998
 50
90.000002999880451
 51
180.00000600017779
  0
LINE
  8
_0-3_躯体と製品
  6
CONTINUOUS
 62
    4
 10
210.70149726556883
 20
416.07205986592635
 11
210.70149726556883
 21
416.87305986592582
  0
LINE
  8
_0-3_躯体と製品
  6
CONTINUOUS
 62
    4
 10
211.30149726557283
 20
416.77205986592344
 11
211.30149726557283
 21
416.17205986592671
  0
LINE
  8
_0-3_躯体と製品
  6
CONTINUOUS
 62
    4
 10
211.30149726557283
 20
416.17205986592671
 11
213.60249726558141
 21
416.17205986592671
  0
LINE
  8
_0-3_躯体と製品
  6
CONTINUOUS
 62
    4
 10
211.20249726558541
 20
415.57205986592635
 11
214.1014972655903
 21
415.57205986592635
  0
LINE
  8
_0-3_躯体と製品
  6
CONTINUOUS
 62
    4
 10
211.30149726557283
 20
416.77205986592344
 11
213.60249726558141
 21
416.77205986592344
  0
LINE
  8
_0-3_躯体と製品
  6
CONTINUOUS
 62
    4
 10
204.70149726557065
 20
416.87305986592582
 11
204.70149726557065
 21
416.07205986592635
  0
ARC
  8
_0-3_躯体と製品
  6
CONTINUOUS
 62
    4
 10
229.6014972655903
 20
415.67305986592146
 40
0.4999999999999998
 50
0
 51
90.000002999880451
  0
ARC
  8
_0-3_躯体と製品
  6
CONTINUOUS
 62
    4
 10
227.20149726556883
 20
416.87305986592582
 40
0.4999999999999998
 50
90.000002999880451
 51
180.00000600017779
  0
ARC
  8
_0-3_躯体と製品
  6
CONTINUOUS
 62
    4
 10
227.20149726556883
 20
416.07205986592635
 40
0.4999999999999998
 50
180.00000600017779
 51
269.99999700011949
  0
ARC
  8
_0-3_躯体と製品
  6
CONTINUOUS
 62
    4
 10
229.6014972655903
 20
415.67305986592146
 40
1.099999999999999
 50
0
 51
90.000002999880451
  0
LINE
  8
_0-3_躯体と製品
  6
CONTINUOUS
 62
    4
 10
227.30149726557465
 20
416.17205986592671
 11
229.6014972655903
 21
416.17205986592671
  0
LINE
  8
_0-3_躯体と製品
  6
CONTINUOUS
 62
    4
 10
227.20149726556883
 20
415.57205986592635
 11
230.10249726558141
 21
415.57205986592635
  0
LINE
  8
_0-3_躯体と製品
  6
CONTINUOUS
 62
    4
 10
227.30149726557465
 20
416.77205986592344
 11
227.30149726557465
 21
416.17205986592671
  0
LINE
  8
_0-3_躯体と製品
  6
CONTINUOUS
 62
    4
 10
227.30149726557465
 20
416.77205986592344
 11
229.6014972655903
 21
416.77205986592344
  0
LINE
  8
_0-3_躯体と製品
  6
CONTINUOUS
 62
    4
 10
226.70149726556701
 20
416.07205986592635
 11
226.70149726556701
 21
416.87305986592582
  0
ARC
  8
_0-3_躯体と製品
  6
CONTINUOUS
 62
    4
 10
218.20149726556883
 20
416.87305986592582
 40
0.4999999999999998
 50
0
 51
90.000002999880451
  0
ARC
  8
_0-3_躯体と製品
  6
CONTINUOUS
 62
    4
 10
218.20149726556883
 20
416.07205986592635
 40
0.4999999999999998
 50
269.99999700011949
 51
0
  0
LINE
  8
_0-3_躯体と製品
  6
CONTINUOUS
 62
    4
 10
218.70249726558541
 20
416.87305986592582
 11
218.70249726558541
 21
416.07205986592635
  0
LINE
  8
_0-3_躯体と製品
  6
CONTINUOUS
 62
    4
 10
218.10249726558141
 20
416.77205986592344
 11
218.10249726558141
 21
416.17205986592671
  0
LINE
  8
_0-3_躯体と製品
  6
CONTINUOUS
 62
    4
 10
243.20149726556883
 20
415.57205986592635
 11
246.1014972655903
 21
415.57205986592635
  0
LINE
  8
_0-3_躯体と製品
  6
CONTINUOUS
 62
    4
 10
243.30249726559305
 20
416.77205986592344
 11
245.60149726559212
 21
416.77205986592344
  0
LINE
  8
_0-3_躯体と製品
  6
CONTINUOUS
 62
    4
 10
243.20149726556883
 20
417.3720598659238
 11
250.20249726558541
 21
417.3720598659238
  0
LINE
  8
_0-3_躯体と製品
  6
CONTINUOUS
 62
    4
 10
231.30249726559305
 20
412.37305986592582
 11
246.1014972655903
 21
412.37305986592582
  0
LINE
  8
_0-3_躯体と製品
  6
CONTINUOUS
 62
    4
 10
231.30249726559305
 20
413.37205986592198
 11
246.1014972655903
 21
413.37205986592198
  0
LINE
  8
_0-3_躯体と製品
  6
CONTINUOUS
 62
    4
 10
243.30249726559305
 20
416.17205986592671
 11
245.60149726559212
 21
416.17205986592671
  0
ARC
  8
_0-3_躯体と製品
  6
CONTINUOUS
 62
    4
 10
231.80149726557465
 20
415.67305986592146
 40
0.4999999999999998
 50
90.000002999880451
 51
180.00000600017779
  0
ARC
  8
_0-3_躯体と製品
  6
CONTINUOUS
 62
    4
 10
243.20149726556883
 20
416.87305986592582
 40
0.4999999999999998
 50
90.000002999880451
 51
180.00000600017779
  0
ARC
  8
_0-3_躯体と製品
  6
CONTINUOUS
 62
    4
 10
243.20149726556883
 20
416.07205986592635
 40
0.4999999999999998
 50
180.00000600017779
 51
269.99999700011949
  0
ARC
  8
_0-3_躯体と製品
  6
CONTINUOUS
 62
    4
 10
234.20149726556701
 20
416.07205986592635
 40
0.4999999999999998
 50
269.99999700011949
 51
0
  0
ARC
  8
_0-3_躯体と製品
  6
CONTINUOUS
 62
    4
 10
234.20149726556701
 20
416.87305986592582
 40
0.4999999999999998
 50
0
 51
90.000002999880451
  0
LINE
  8
_0-3_躯体と製品
  6
CONTINUOUS
 62
    4
 10
234.70149726557065
 20
416.87305986592582
 11
234.70149726557065
 21
416.07205986592635
  0
LINE
  8
_0-3_躯体と製品
  6
CONTINUOUS
 62
    4
 10
243.30249726559305
 20
416.77205986592344
 11
243.30249726559305
 21
416.17205986592671
  0
LINE
  8
_0-3_躯体と製品
  6
CONTINUOUS
 62
    4
 10
234.1014972655903
 20
416.17205986592671
 11
231.80149726557465
 21
416.17205986592671
  0
LINE
  8
_0-3_躯体と製品
  6
CONTINUOUS
 62
    4
 10
242.70249726558541
 20
416.07205986592635
 11
242.70249726558541
 21
416.87305986592582
  0
LINE
  8
_0-3_躯体と製品
  6
CONTINUOUS
 62
    4
 10
234.1014972655903
 20
416.77205986592344
 11
234.1014972655903
 21
416.17205986592671
  0
LINE
  8
_0-3_躯体と製品
  6
CONTINUOUS
 62
    4
 10
231.30249726559305
 20
415.57205986592635
 11
234.20149726556701
 21
415.57205986592635
  0
LINE
  8
_0-3_躯体と製品
  6
CONTINUOUS
 62
    4
 10
234.1014972655903
 20
416.77205986592344
 11
231.80149726557465
 21
416.77205986592344
  0
ARC
  8
_0-3_躯体と製品
  6
CONTINUOUS
 62
    4
 10
250.20249726558541
 20
416.07205986592635
 40
0.4999999999999998
 50
269.99999700011949
 51
0
  0
ARC
  8
_0-3_躯体と製品
  6
CONTINUOUS
 62
    4
 10
247.80249726559305
 20
415.67305986592146
 40
0.4999999999999998
 50
90.000002999880451
 51
180.00000600017779
  0
ARC
  8
_0-3_躯体と製品
  6
CONTINUOUS
 62
    4
 10
250.20249726558541
 20
416.87305986592582
 40
0.4999999999999998
 50
0
 51
90.000002999880451
  0
ARC
  8
_0-3_躯体と製品
  6
CONTINUOUS
 62
    4
 10
247.80249726559305
 20
415.67305986592146
 40
1.099999999999999
 50
90.000002999880451
 51
180.00000600017779
  0
ARC
  8
_0-3_躯体と製品
  6
CONTINUOUS
 62
    4
 10
245.60149726559212
 20
415.67305986592146
 40
0.4999999999999998
 50
0
 51
90.000002999880451
  0
ARC
  8
_0-3_躯体と製品
  6
CONTINUOUS
 62
    4
 10
245.60149726559212
 20
415.67305986592146
 40
1.099999999999999
 50
0
 51
90.000002999880451
  0
LINE
  8
_0-3_躯体と製品
  6
CONTINUOUS
 62
    4
 10
250.10149726559212
 20
416.77205986592344
 11
250.10149726559212
 21
416.17205986592671
  0
LINE
  8
_0-3_躯体と製品
  6
CONTINUOUS
 62
    4
 10
250.70149726556883
 20
416.87305986592582
 11
250.70149726556883
 21
416.07205986592635
  0
LINE
  8
_0-3_躯体と製品
  6
CONTINUOUS
 62
    4
 10
250.10149726559212
 20
416.17205986592671
 11
247.80249726559305
 21
416.17205986592671
  0
LINE
  8
_0-3_躯体と製品
  6
CONTINUOUS
 62
    4
 10
250.10149726559212
 20
416.77205986592344
 11
247.80249726559305
 21
416.77205986592344
  0
LINE
  8
_0-3_躯体と製品
  6
CONTINUOUS
 62
    4
 10
247.30149726557283
 20
415.57205986592635
 11
250.20249726558541
 21
415.57205986592635
  0
LINE
  8
_0-3_躯体と製品
  6
CONTINUOUS
 62
    4
 10
262.10149726559212
 20
415.67305986592146
 11
262.10149726559212
 21
402.9720598659278
  0
LINE
  8
_0-3_躯体と製品
  6
CONTINUOUS
 62
    4
 10
262.70149726556701
 20
402.37205986592198
 11
262.70149726556701
 21
415.67305986592146
  0
LINE
  8
_0-3_躯体と製品
  6
CONTINUOUS
 62
    4
 10
263.30149726557647
 20
415.67305986592146
 11
263.30149726557647
 21
402.9720598659278
  0
LINE
  8
_0-3_躯体と製品
  6
CONTINUOUS
 62
    4
 10
294.10149726558848
 20
415.67305986592146
 11
294.10149726558848
 21
402.9720598659278
  0
LINE
  8
_0-3_躯体と製品
  6
CONTINUOUS
 62
    4
 10
294.70149726556883
 20
402.37205986592198
 11
294.70149726556883
 21
415.67305986592146
  0
LINE
  8
_0-3_躯体と製品
  6
CONTINUOUS
 62
    4
 10
279.30249726559305
 20
415.67305986592146
 11
279.30249726559305
 21
402.9720598659278
  0
LINE
  8
_0-3_躯体と製品
  6
CONTINUOUS
 62
    4
 10
295.30149726557283
 20
415.67305986592146
 11
295.30149726557283
 21
402.9720598659278
  0
LINE
  8
_0-3_躯体と製品
  6
CONTINUOUS
 62
    4
 10
278.10249726558141
 20
415.67305986592146
 11
278.10249726558141
 21
402.9720598659278
  0
LINE
  8
_0-3_躯体と製品
  6
CONTINUOUS
 62
    4
 10
278.70249726558541
 20
402.37205986592198
 11
278.70249726558541
 21
415.67305986592146
  0
LINE
  8
_0-3_躯体と製品
  6
CONTINUOUS
 62
    4
 10
311.30149726557465
 20
415.67305986592146
 11
311.30149726557465
 21
402.9720598659278
  0
LINE
  8
_0-3_躯体と製品
  6
CONTINUOUS
 62
    4
 10
310.10149726559212
 20
415.67305986592146
 11
310.10149726559212
 21
402.9720598659278
  0
LINE
  8
_0-3_躯体と製品
  6
CONTINUOUS
 62
    4
 10
310.70149726556701
 20
402.37205986592198
 11
310.70149726556701
 21
415.67305986592146
  0
LINE
  8
_0-3_躯体と製品
  6
CONTINUOUS
 62
    4
 10
279.30249726559305
 20
407.37205986592016
 11
294.10149726558848
 21
407.37205986592016
  0
LINE
  8
_0-3_躯体と製品
  6
CONTINUOUS
 62
    4
 10
279.30249726559305
 20
406.37305986592582
 11
294.10149726558848
 21
406.37305986592582
  0
LINE
  8
_0-3_躯体と製品
  6
CONTINUOUS
 62
    4
 10
263.30149726557647
 20
407.37205986592016
 11
278.10249726558141
 21
407.37205986592016
  0
LINE
  8
_0-3_躯体と製品
  6
CONTINUOUS
 62
    4
 10
263.30149726557647
 20
406.37305986592582
 11
278.10249726558141
 21
406.37305986592582
  0
ARC
  8
_0-3_躯体と製品
  6
CONTINUOUS
 62
    4
 10
262.70149726556701
 20
402.9720598659278
 40
0.5999999999999997
 50
180.00000600017779
 51
0
  0
ARC
  8
_0-3_躯体と製品
  6
CONTINUOUS
 62
    4
 10
278.70249726558541
 20
402.9720598659278
 40
0.5999999999999997
 50
180.00000600017779
 51
0
  0
LINE
  8
_0-3_躯体と製品
  6
CONTINUOUS
 62
    4
 10
295.30149726557283
 20
406.37305986592582
 11
310.10149726559212
 21
406.37305986592582
  0
LINE
  8
_0-3_躯体と製品
  6
CONTINUOUS
 62
    4
 10
295.30149726557283
 20
407.37205986592016
 11
310.10149726559212
 21
407.37205986592016
  0
ARC
  8
_0-3_躯体と製品
  6
CONTINUOUS
 62
    4
 10
294.70149726556883
 20
402.9720598659278
 40
0.5999999999999997
 50
180.00000600017779
 51
0
  0
ARC
  8
_0-3_躯体と製品
  6
CONTINUOUS
 62
    4
 10
310.70149726556701
 20
402.9720598659278
 40
0.5999999999999997
 50
180.00000600017779
 51
0
  0
LINE
  8
_0-3_躯体と製品
  6
CONTINUOUS
 62
    4
 10
279.30249726559305
 20
412.37305986592582
 11
294.10149726558848
 21
412.37305986592582
  0
LINE
  8
_0-3_躯体と製品
  6
CONTINUOUS
 62
    4
 10
279.30249726559305
 20
413.37205986592198
 11
294.10149726558848
 21
413.37205986592198
  0
LINE
  8
_0-3_躯体と製品
  6
CONTINUOUS
 62
    4
 10
263.30149726557647
 20
412.37305986592582
 11
278.10249726558141
 21
412.37305986592582
  0
LINE
  8
_0-3_躯体と製品
  6
CONTINUOUS
 62
    4
 10
263.30149726557647
 20
413.37205986592198
 11
278.10249726558141
 21
413.37205986592198
  0
ARC
  8
_0-3_躯体と製品
  6
CONTINUOUS
 62
    4
 10
261.60249726558141
 20
415.67305986592146
 40
1.099999999999999
 50
0
 51
90.000002999880451
  0
ARC
  8
_0-3_躯体と製品
  6
CONTINUOUS
 62
    4
 10
263.80149726557283
 20
415.67305986592146
 40
1.099999999999999
 50
90.000002999880451
 51
180.00000600017779
  0
ARC
  8
_0-3_躯体と製品
  6
CONTINUOUS
 62
    4
 10
261.60249726558141
 20
415.67305986592146
 40
0.4999999999999998
 50
0
 51
90.000002999880451
  0
ARC
  8
_0-3_躯体と製品
  6
CONTINUOUS
 62
    4
 10
266.20149726556883
 20
416.87305986592582
 40
0.4999999999999998
 50
0
 51
90.000002999880451
  0
ARC
  8
_0-3_躯体と製品
  6
CONTINUOUS
 62
    4
 10
259.20249726558541
 20
416.07205986592635
 40
0.4999999999999998
 50
180.00000600017779
 51
269.99999700011949
  0
ARC
  8
_0-3_躯体と製品
  6
CONTINUOUS
 62
    4
 10
263.80149726557283
 20
415.67305986592146
 40
0.4999999999999998
 50
90.000002999880451
 51
180.00000600017779
  0
ARC
  8
_0-3_躯体と製品
  6
CONTINUOUS
 62
    4
 10
259.20249726558541
 20
416.87305986592582
 40
0.4999999999999998
 50
90.000002999880451
 51
180.00000600017779
  0
ARC
  8
_0-3_躯体と製品
  6
CONTINUOUS
 62
    4
 10
266.20149726556883
 20
416.07205986592635
 40
0.4999999999999998
 50
269.99999700011949
 51
0
  0
LINE
  8
_0-3_躯体と製品
  6
CONTINUOUS
 62
    4
 10
266.10249726558141
 20
416.17205986592671
 11
263.80149726557283
 21
416.17205986592671
  0
LINE
  8
_0-3_躯体と製品
  6
CONTINUOUS
 62
    4
 10
259.20249726558541
 20
415.57205986592635
 11
262.10149726559212
 21
415.57205986592635
  0
LINE
  8
_0-3_躯体と製品
  6
CONTINUOUS
 62
    4
 10
266.10249726558141
 20
416.77205986592344
 11
263.80149726557283
 21
416.77205986592344
  0
LINE
  8
_0-3_躯体と製品
  6
CONTINUOUS
 62
    4
 10
259.30149726557283
 20
416.17205986592671
 11
261.60249726558141
 21
416.17205986592671
  0
LINE
  8
_0-3_躯体と製品
  6
CONTINUOUS
 62
    4
 10
258.70149726556883
 20
416.07205986592635
 11
258.70149726556883
 21
416.87305986592582
  0
LINE
  8
_0-3_躯体と製品
  6
CONTINUOUS
 62
    4
 10
263.30149726557647
 20
415.57205986592635
 11
266.20149726556883
 21
415.57205986592635
  0
LINE
  8
_0-3_躯体と製品
  6
CONTINUOUS
 62
    4
 10
266.10249726558141
 20
416.77205986592344
 11
266.10249726558141
 21
416.17205986592671
  0
LINE
  8
_0-3_躯体と製品
  6
CONTINUOUS
 62
    4
 10
259.30149726557283
 20
416.77205986592344
 11
261.60249726558141
 21
416.77205986592344
  0
LINE
  8
_0-3_躯体と製品
  6
CONTINUOUS
 62
    4
 10
259.30149726557283
 20
416.77205986592344
 11
259.30149726557283
 21
416.17205986592671
  0
LINE
  8
_0-3_躯体と製品
  6
CONTINUOUS
 62
    4
 10
259.20249726558541
 20
417.3720598659238
 11
266.20149726556883
 21
417.3720598659238
  0
LINE
  8
_0-3_躯体と製品
  6
CONTINUOUS
 62
    4
 10
266.70249726558723
 20
416.87305986592582
 11
266.70249726558723
 21
416.07205986592635
  0
ARC
  8
_0-3_躯体と製品
  6
CONTINUOUS
 62
    4
 10
275.20149726556883
 20
416.07205986592635
 40
0.4999999999999998
 50
180.00000600017779
 51
269.99999700011949
  0
ARC
  8
_0-3_躯体と製品
  6
CONTINUOUS
 62
    4
 10
277.6014972655903
 20
415.67305986592146
 40
1.099999999999999
 50
0
 51
90.000002999880451
  0
ARC
  8
_0-3_躯体と製品
  6
CONTINUOUS
 62
    4
 10
279.80149726557465
 20
415.67305986592146
 40
1.099999999999999
 50
90.000002999880451
 51
180.00000600017779
  0
ARC
  8
_0-3_躯体と製品
  6
CONTINUOUS
 62
    4
 10
277.6014972655903
 20
415.67305986592146
 40
0.4999999999999998
 50
0
 51
90.000002999880451
  0
ARC
  8
_0-3_躯体と製品
  6
CONTINUOUS
 62
    4
 10
282.20149726556701
 20
416.87305986592582
 40
0.4999999999999998
 50
0
 51
90.000002999880451
  0
ARC
  8
_0-3_躯体と製品
  6
CONTINUOUS
 62
    4
 10
282.20149726556701
 20
416.07205986592635
 40
0.4999999999999998
 50
269.99999700011949
 51
0
  0
ARC
  8
_0-3_躯体と製品
  6
CONTINUOUS
 62
    4
 10
279.80149726557465
 20
415.67305986592146
 40
0.4999999999999998
 50
90.000002999880451
 51
180.00000600017779
  0
ARC
  8
_0-3_躯体と製品
  6
CONTINUOUS
 62
    4
 10
275.20149726556883
 20
416.87305986592582
 40
0.4999999999999998
 50
90.000002999880451
 51
180.00000600017779
  0
LINE
  8
_0-3_躯体と製品
  6
CONTINUOUS
 62
    4
 10
275.20149726556883
 20
417.3720598659238
 11
282.20149726556701
 21
417.3720598659238
  0
LINE
  8
_0-3_躯体と製品
  6
CONTINUOUS
 62
    4
 10
282.70149726556883
 20
416.87305986592582
 11
282.70149726556883
 21
416.07205986592635
  0
LINE
  8
_0-3_躯体と製品
  6
CONTINUOUS
 62
    4
 10
275.30149726557465
 20
416.17205986592671
 11
277.6014972655903
 21
416.17205986592671
  0
LINE
  8
_0-3_躯体と製品
  6
CONTINUOUS
 62
    4
 10
279.30249726559305
 20
415.57205986592635
 11
282.20149726556701
 21
415.57205986592635
  0
LINE
  8
_0-3_躯体と製品
  6
CONTINUOUS
 62
    4
 10
282.1014972655903
 20
416.17205986592671
 11
279.80149726557465
 21
416.17205986592671
  0
LINE
  8
_0-3_躯体と製品
  6
CONTINUOUS
 62
    4
 10
275.30149726557465
 20
416.77205986592344
 11
275.30149726557465
 21
416.17205986592671
  0
LINE
  8
_0-3_躯体と製品
  6
CONTINUOUS
 62
    4
 10
275.20149726556883
 20
415.57205986592635
 11
278.10249726558141
 21
415.57205986592635
  0
LINE
  8
_0-3_躯体と製品
  6
CONTINUOUS
 62
    4
 10
275.30149726557465
 20
416.77205986592344
 11
277.6014972655903
 21
416.77205986592344
  0
LINE
  8
_0-3_躯体と製品
  6
CONTINUOUS
 62
    4
 10
282.1014972655903
 20
416.77205986592344
 11
279.80149726557465
 21
416.77205986592344
  0
LINE
  8
_0-3_躯体と製品
  6
CONTINUOUS
 62
    4
 10
274.70149726556701
 20
416.07205986592635
 11
274.70149726556701
 21
416.87305986592582
  0
LINE
  8
_0-3_躯体と製品
  6
CONTINUOUS
 62
    4
 10
282.1014972655903
 20
416.77205986592344
 11
282.1014972655903
 21
416.17205986592671
  0
LINE
  8
_0-3_躯体と製品
  6
CONTINUOUS
 62
    4
 10
295.30149726557283
 20
413.37205986592198
 11
310.10149726559212
 21
413.37205986592198
  0
LINE
  8
_0-3_躯体と製品
  6
CONTINUOUS
 62
    4
 10
295.30149726557283
 20
412.37305986592582
 11
310.10149726559212
 21
412.37305986592582
  0
ARC
  8
_0-3_躯体と製品
  6
CONTINUOUS
 62
    4
 10
298.20249726558541
 20
416.07205986592635
 40
0.4999999999999998
 50
269.99999700011949
 51
0
  0
ARC
  8
_0-3_躯体と製品
  6
CONTINUOUS
 62
    4
 10
298.20249726558541
 20
416.87305986592582
 40
0.4999999999999998
 50
0
 51
90.000002999880451
  0
ARC
  8
_0-3_躯体と製品
  6
CONTINUOUS
 62
    4
 10
291.20149726556883
 20
416.87305986592582
 40
0.4999999999999998
 50
90.000002999880451
 51
180.00000600017779
  0
ARC
  8
_0-3_躯体と製品
  6
CONTINUOUS
 62
    4
 10
291.20149726556883
 20
416.07205986592635
 40
0.4999999999999998
 50
180.00000600017779
 51
269.99999700011949
  0
ARC
  8
_0-3_躯体と製品
  6
CONTINUOUS
 62
    4
 10
295.80249726559305
 20
415.67305986592146
 40
0.4999999999999998
 50
90.000002999880451
 51
180.00000600017779
  0
ARC
  8
_0-3_躯体と製品
  6
CONTINUOUS
 62
    4
 10
293.60149726559212
 20
415.67305986592146
 40
1.099999999999999
 50
0
 51
90.000002999880451
  0
ARC
  8
_0-3_躯体と製品
  6
CONTINUOUS
 62
    4
 10
295.80249726559305
 20
415.67305986592146
 40
1.099999999999999
 50
90.000002999880451
 51
180.00000600017779
  0
ARC
  8
_0-3_躯体と製品
  6
CONTINUOUS
 62
    4
 10
293.60149726559212
 20
415.67305986592146
 40
0.4999999999999998
 50
0
 51
90.000002999880451
  0
LINE
  8
_0-3_躯体と製品
  6
CONTINUOUS
 62
    4
 10
290.70249726558541
 20
416.07205986592635
 11
290.70249726558541
 21
416.87305986592582
  0
LINE
  8
_0-3_躯体と製品
  6
CONTINUOUS
 62
    4
 10
298.10149726559212
 20
416.77205986592344
 11
295.80249726559305
 21
416.77205986592344
  0
LINE
  8
_0-3_躯体と製品
  6
CONTINUOUS
 62
    4
 10
291.20149726556883
 20
417.3720598659238
 11
298.20249726558541
 21
417.3720598659238
  0
LINE
  8
_0-3_躯体と製品
  6
CONTINUOUS
 62
    4
 10
291.30249726559305
 20
416.17205986592671
 11
293.60149726559212
 21
416.17205986592671
  0
LINE
  8
_0-3_躯体と製品
  6
CONTINUOUS
 62
    4
 10
291.20149726556883
 20
415.57205986592635
 11
294.10149726558848
 21
415.57205986592635
  0
LINE
  8
_0-3_躯体と製品
  6
CONTINUOUS
 62
    4
 10
291.30249726559305
 20
416.77205986592344
 11
293.60149726559212
 21
416.77205986592344
  0
LINE
  8
_0-3_躯体と製品
  6
CONTINUOUS
 62
    4
 10
291.30249726559305
 20
416.77205986592344
 11
291.30249726559305
 21
416.17205986592671
  0
LINE
  8
_0-3_躯体と製品
  6
CONTINUOUS
 62
    4
 10
295.30149726557283
 20
415.57205986592635
 11
298.20249726558541
 21
415.57205986592635
  0
LINE
  8
_0-3_躯体と製品
  6
CONTINUOUS
 62
    4
 10
298.10149726559212
 20
416.77205986592344
 11
298.10149726559212
 21
416.17205986592671
  0
LINE
  8
_0-3_躯体と製品
  6
CONTINUOUS
 62
    4
 10
298.10149726559212
 20
416.17205986592671
 11
295.80249726559305
 21
416.17205986592671
  0
LINE
  8
_0-3_躯体と製品
  6
CONTINUOUS
 62
    4
 10
298.70149726556519
 20
416.87305986592582
 11
298.70149726556519
 21
416.07205986592635
  0
ARC
  8
_0-3_躯体と製品
  6
CONTINUOUS
 62
    4
 10
309.60249726558322
 20
415.67305986592146
 40
1.099999999999999
 50
0
 51
90.000002999880451
  0
ARC
  8
_0-3_躯体と製品
  6
CONTINUOUS
 62
    4
 10
309.60249726558322
 20
415.67305986592146
 40
0.4999999999999998
 50
0
 51
90.000002999880451
  0
ARC
  8
_0-3_躯体と製品
  6
CONTINUOUS
 62
    4
 10
307.20249726558541
 20
416.07205986592635
 40
0.4999999999999998
 50
180.00000600017779
 51
269.99999700011949
  0
ARC
  8
_0-3_躯体と製品
  6
CONTINUOUS
 62
    4
 10
307.20249726558541
 20
416.87305986592582
 40
0.4999999999999998
 50
90.000002999880451
 51
180.00000600017779
  0
LINE
  8
_0-3_躯体と製品
  6
CONTINUOUS
 62
    4
 10
307.30149726557283
 20
416.17205986592671
 11
309.60249726558322
 21
416.17205986592671
  0
LINE
  8
_0-3_躯体と製品
  6
CONTINUOUS
 62
    4
 10
307.30149726557283
 20
416.77205986592344
 11
309.60249726558322
 21
416.77205986592344
  0
LINE
  8
_0-3_躯体と製品
  6
CONTINUOUS
 62
    4
 10
307.20249726558541
 20
415.57205986592635
 11
310.10149726559212
 21
415.57205986592635
  0
LINE
  8
_0-3_躯体と製品
  6
CONTINUOUS
 62
    4
 10
306.70149726556883
 20
416.07205986592635
 11
306.70149726556883
 21
416.87305986592582
  0
LINE
  8
_0-3_躯体と製品
  6
CONTINUOUS
 62
    4
 10
307.30149726557283
 20
416.77205986592344
 11
307.30149726557283
 21
416.17205986592671
  0
LINE
  8
_0-3_躯体と製品
  6
CONTINUOUS
 62
    4
 10
327.30249726559305
 20
415.67305986592146
 11
327.30249726559305
 21
402.9720598659278
  0
LINE
  8
_0-3_躯体と製品
  6
CONTINUOUS
 62
    4
 10
326.10249726558141
 20
415.67305986592146
 11
326.10249726558141
 21
402.9720598659278
  0
LINE
  8
_0-3_躯体と製品
  6
CONTINUOUS
 62
    4
 10
326.70249726558541
 20
402.37205986592198
 11
326.70249726558541
 21
415.67305986592146
  0
ARC
  8
_0-3_躯体と製品
  6
CONTINUOUS
 62
    4
 10
326.70249726558541
 20
402.9720598659278
 40
0.5999999999999997
 50
180.00000600017779
 51
0
  0
LINE
  8
_0-3_躯体と製品
  6
CONTINUOUS
 62
    4
 10
323.20149726556883
 20
415.57205986592635
 11
326.10249726558141
 21
415.57205986592635
  0
LINE
  8
_0-3_躯体と製品
  6
CONTINUOUS
 62
    4
 10
323.30149726557465
 20
416.17205986592671
 11
325.6014972655903
 21
416.17205986592671
  0
LINE
  8
_0-3_躯体と製品
  6
CONTINUOUS
 62
    4
 10
323.30149726557465
 20
416.77205986592344
 11
325.6014972655903
 21
416.77205986592344
  0
LINE
  8
_0-3_躯体と製品
  6
CONTINUOUS
 62
    4
 10
323.20149726556883
 20
417.3720598659238
 11
330.20149726556701
 21
417.3720598659238
  0
ARC
  8
_0-3_躯体と製品
  6
CONTINUOUS
 62
    4
 10
323.20149726556883
 20
416.07205986592635
 40
0.4999999999999998
 50
180.00000600017779
 51
269.99999700011949
  0
ARC
  8
_0-3_躯体と製品
  6
CONTINUOUS
 62
    4
 10
323.20149726556883
 20
416.87305986592582
 40
0.4999999999999998
 50
90.000002999880451
 51
180.00000600017779
  0
LINE
  8
_0-3_躯体と製品
  6
CONTINUOUS
 62
    4
 10
323.30149726557465
 20
416.77205986592344
 11
323.30149726557465
 21
416.17205986592671
  0
LINE
  8
_0-3_躯体と製品
  6
CONTINUOUS
 62
    4
 10
322.70149726556701
 20
416.07205986592635
 11
322.70149726556701
 21
416.87305986592582
  0
ARC
  8
_0-3_躯体と製品
  6
CONTINUOUS
 62
    4
 10
314.20149726556883
 20
416.87305986592582
 40
0.4999999999999998
 50
0
 51
90.000002999880451
  0
ARC
  8
_0-3_躯体と製品
  6
CONTINUOUS
 62
    4
 10
314.20149726556883
 20
416.07205986592635
 40
0.4999999999999998
 50
269.99999700011949
 51
0
  0
LINE
  8
_0-3_躯体と製品
  6
CONTINUOUS
 62
    4
 10
314.10249726558322
 20
416.17205986592671
 11
311.80149726557283
 21
416.17205986592671
  0
LINE
  8
_0-3_躯体と製品
  6
CONTINUOUS
 62
    4
 10
314.70249726558541
 20
416.87305986592582
 11
314.70249726558541
 21
416.07205986592635
  0
LINE
  8
_0-3_躯体と製品
  6
CONTINUOUS
 62
    4
 10
314.10249726558322
 20
416.77205986592344
 11
314.10249726558322
 21
416.17205986592671
  0
LINE
  8
_0-3_躯体と製品
  6
CONTINUOUS
 62
    4
 10
314.10249726558322
 20
416.77205986592344
 11
311.80149726557283
 21
416.77205986592344
  0
ARC
  8
_0-3_躯体と製品
  6
CONTINUOUS
 62
    4
 10
325.6014972655903
 20
415.67305986592146
 40
1.099999999999999
 50
0
 51
90.000002999880451
  0
ARC
  8
_0-3_躯体と製品
  6
CONTINUOUS
 62
    4
 10
327.80149726557465
 20
415.67305986592146
 40
1.099999999999999
 50
90.000002999880451
 51
180.00000600017779
  0
ARC
  8
_0-3_躯体と製品
  6
CONTINUOUS
 62
    4
 10
325.6014972655903
 20
415.67305986592146
 40
0.4999999999999998
 50
0
 51
90.000002999880451
  0
ARC
  8
_0-3_躯体と製品
  6
CONTINUOUS
 62
    4
 10
330.20149726556701
 20
416.07205986592635
 40
0.4999999999999998
 50
269.99999700011949
 51
0
  0
ARC
  8
_0-3_躯体と製品
  6
CONTINUOUS
 62
    4
 10
330.20149726556701
 20
416.87305986592582
 40
0.4999999999999998
 50
0
 51
90.000002999880451
  0
ARC
  8
_0-3_躯体と製品
  6
CONTINUOUS
 62
    4
 10
327.80149726557465
 20
415.67305986592146
 40
0.4999999999999998
 50
90.000002999880451
 51
180.00000600017779
  0
LINE
  8
_0-3_躯体と製品
  6
CONTINUOUS
 62
    4
 10
330.70149726556883
 20
416.87305986592582
 11
330.70149726556883
 21
416.07205986592635
  0
LINE
  8
_0-3_躯体と製品
  6
CONTINUOUS
 62
    4
 10
330.1014972655903
 20
416.77205986592344
 11
330.1014972655903
 21
416.17205986592671
  0
LINE
  8
_0-3_躯体と製品
  6
CONTINUOUS
 62
    4
 10
327.30249726559305
 20
415.57205986592635
 11
330.20149726556701
 21
415.57205986592635
  0
LINE
  8
_0-3_躯体と製品
  6
CONTINUOUS
 62
    4
 10
330.1014972655903
 20
416.77205986592344
 11
327.80149726557465
 21
416.77205986592344
  0
LINE
  8
_0-3_躯体と製品
  6
CONTINUOUS
 62
    4
 10
330.1014972655903
 20
416.17205986592671
 11
327.80149726557465
 21
416.17205986592671
  0
LINE
  8
_0-3_躯体と製品
  6
CONTINUOUS
 62
    4
 10
101.46961688383635
 20
716.14115846453751
 11
101.46961688383635
 21
529.14315846451609
  0
LINE
  8
_0-3_躯体と製品
  6
CONTINUOUS
 62
    4
 10
114.66961688384254
 20
714.64115846453751
 11
114.66961688384254
 21
530.64315846451609
  0
LINE
  8
_0-3_躯体と製品
  6
CONTINUOUS
 62
    4
 10
114.66961688384254
 20
714.64115846453751
 11
102.96961688383635
 21
714.64115846453751
  0
CIRCLE
  8
_0-3_躯体と製品
  6
CONTINUOUS
 62
    4
 10
108.96961688383635
 20
622.6421584645268
 40
2.4999999999999991
  0
CIRCLE
  8
_0-3_躯体と製品
  6
CONTINUOUS
 62
    4
 10
108.96961688383635
 20
622.6421584645268
 40
3.4999999999999978
  0
LINE
  8
_0-3_躯体と製品
  6
CONTINUOUS
 62
    3
 10
1066.7014972655634
 20
704.6421584645268
 11
1064.5024972655738
 21
704.6421584645268
  0
LINE
  8
_0-3_躯体と製品
  6
CONTINUOUS
 62
    3
 10
1066.7014972655634
 20
540.6421584645268
 11
1064.5024972655738
 21
540.6421584645268
  0
LINE
  8
_0-6_Layer_01
  6
CONTINUOUS
 62
    4
 10
722.70149726556701
 20
714.6421584645268
 11
722.70149726556701
 21
530.64215846452862
  0
LINE
  8
_0-6_Layer_01
  6
CONTINUOUS
 62
    4
 10
730.70149726556883
 20
714.6421584645268
 11
730.70149726556883
 21
530.64215846452862
  0
LINE
  8
_0-6_Layer_01
  6
CONTINUOUS
 62
    4
 10
714.70149726556883
 20
714.6421584645268
 11
714.70149726556883
 21
530.64215846452862
  0
LINE
  8
_0-6_Layer_01
  6
CONTINUOUS
 62
    4
 10
882.70149726556883
 20
714.6421584645268
 11
882.70149726556883
 21
530.64215846452862
  0
LINE
  8
_0-6_Layer_01
  6
CONTINUOUS
 62
    4
 10
786.70149726556701
 20
714.6421584645268
 11
786.70149726556701
 21
530.64215846452862
  0
LINE
  8
_0-6_Layer_01
  6
CONTINUOUS
 62
    4
 10
794.70149726556883
 20
714.6421584645268
 11
794.70149726556883
 21
530.64215846452862
  0
LINE
  8
_0-6_Layer_01
  6
CONTINUOUS
 62
    4
 10
770.70149726556701
 20
714.6421584645268
 11
770.70149726556701
 21
530.64215846452862
  0
LINE
  8
_0-6_Layer_01
  6
CONTINUOUS
 62
    4
 10
778.70149726556883
 20
714.6421584645268
 11
778.70149726556883
 21
530.64215846452862
  0
LINE
  8
_0-6_Layer_01
  6
CONTINUOUS
 62
    4
 10
738.70149726556701
 20
714.6421584645268
 11
738.70149726556701
 21
530.64215846452862
  0
LINE
  8
_0-6_Layer_01
  6
CONTINUOUS
 62
    4
 10
746.70149726556701
 20
714.6421584645268
 11
746.70149726556701
 21
530.64215846452862
  0
LINE
  8
_0-6_Layer_01
  6
CONTINUOUS
 62
    4
 10
754.70149726556701
 20
714.6421584645268
 11
754.70149726556701
 21
530.64215846452862
  0
LINE
  8
_0-6_Layer_01
  6
CONTINUOUS
 62
    4
 10
858.70149726556883
 20
714.6421584645268
 11
858.70149726556883
 21
530.64215846452862
  0
LINE
  8
_0-6_Layer_01
  6
CONTINUOUS
 62
    4
 10
866.70149726556883
 20
714.6421584645268
 11
866.70149726556883
 21
530.64215846452862
  0
LINE
  8
_0-6_Layer_01
  6
CONTINUOUS
 62
    4
 10
874.70149726556701
 20
714.6421584645268
 11
874.70149726556701
 21
530.64215846452862
  0
LINE
  8
_0-6_Layer_01
  6
CONTINUOUS
 62
    4
 10
802.70149726556701
 20
714.6421584645268
 11
802.70149726556701
 21
530.64215846452862
  0
LINE
  8
_0-6_Layer_01
  6
CONTINUOUS
 62
    4
 10
810.70149726556701
 20
714.6421584645268
 11
810.70149726556701
 21
530.64215846452862
  0
LINE
  8
_0-6_Layer_01
  6
CONTINUOUS
 62
    4
 10
818.70149726556701
 20
714.6421584645268
 11
818.70149726556701
 21
530.64215846452862
  0
LINE
  8
_0-6_Layer_01
  6
CONTINUOUS
 62
    4
 10
826.70149726556701
 20
714.6421584645268
 11
826.70149726556701
 21
530.64215846452862
  0
LINE
  8
_0-6_Layer_01
  6
CONTINUOUS
 62
    4
 10
834.70149726556701
 20
714.6421584645268
 11
834.70149726556701
 21
530.64215846452862
  0
LINE
  8
_0-6_Layer_01
  6
CONTINUOUS
 62
    4
 10
842.70149726556883
 20
714.6421584645268
 11
842.70149726556883
 21
530.64215846452862
  0
LINE
  8
_0-6_Layer_01
  6
CONTINUOUS
 62
    4
 10
850.70149726556883
 20
714.6421584645268
 11
850.70149726556883
 21
530.64215846452862
  0
LINE
  8
_0-6_Layer_01
  6
CONTINUOUS
 62
    4
 10
762.70149726556701
 20
714.6421584645268
 11
762.70149726556701
 21
530.64215846452862
  0
LINE
  8
_0-3_躯体と製品
  6
CONTINUOUS
 62
    3
 10
802.70149726556701
 20
540.6421584645268
 11
794.70149726556883
 21
540.6421584645268
  0
LINE
  8
_0-3_躯体と製品
  6
CONTINUOUS
 62
    3
 10
792.50249726557558
 20
530.64215846452862
 11
792.50249726557558
 21
540.6421584645268
  0
LINE
  8
_0-3_躯体と製品
  6
CONTINUOUS
 62
    3
 10
794.70149726556883
 20
540.6421584645268
 11
792.50249726557558
 21
540.6421584645268
  0
CIRCLE
  8
_0-3_躯体と製品
  6
CONTINUOUS
 62
    3
 10
798.70149726556519
 20
534.6421584645268
 40
1.25
  0
LINE
  8
_0-3_躯体と製品
  6
CONTINUOUS
 62
    3
 10
806.10049726557372
 20
540.6421584645268
 11
802.70149726556701
 21
540.6421584645268
  0
LINE
  8
_0-3_躯体と製品
  6
CONTINUOUS
 62
    3
 10
804.90049726558937
 20
530.64215846452862
 11
804.90049726558937
 21
540.6421584645268
  0
LINE
  8
_0-3_躯体と製品
  6
CONTINUOUS
 62
    3
 10
806.10049726557372
 20
530.64215846452862
 11
806.10049726557372
 21
540.6421584645268
  0
LINE
  8
_0-3_躯体と製品
  6
CONTINUOUS
 62
    3
 10
802.70149726556701
 20
704.6421584645268
 11
794.70149726556883
 21
704.6421584645268
  0
LINE
  8
_0-6_Layer_01
  6
CONTINUOUS
 62
    4
 10
794.70149726556883
 20
626.1421584645268
 11
802.70149726556701
 21
626.1421584645268
  0
LINE
  8
_0-6_Layer_01
  6
CONTINUOUS
 62
    4
 10
794.70149726556883
 20
619.1421584645268
 11
802.70149726556701
 21
619.1421584645268
  0
LINE
  8
_0-6_Layer_01
  6
CONTINUOUS
 62
    4
 10
746.70149726556701
 20
626.1421584645268
 11
754.70149726556701
 21
626.1421584645268
  0
LINE
  8
_0-6_Layer_01
  6
CONTINUOUS
 62
    4
 10
746.70149726556701
 20
619.1421584645268
 11
754.70149726556701
 21
619.1421584645268
  0
LINE
  8
_0-6_Layer_01
  6
CONTINUOUS
 62
    4
 10
730.70149726556883
 20
626.1421584645268
 11
738.70149726556701
 21
626.1421584645268
  0
LINE
  8
_0-6_Layer_01
  6
CONTINUOUS
 62
    4
 10
730.70149726556883
 20
619.1421584645268
 11
738.70149726556701
 21
619.1421584645268
  0
LINE
  8
_0-6_Layer_01
  6
CONTINUOUS
 62
    4
 10
714.70149726556883
 20
626.1421584645268
 11
722.70149726556701
 21
626.1421584645268
  0
LINE
  8
_0-6_Layer_01
  6
CONTINUOUS
 62
    4
 10
714.70149726556883
 20
619.1421584645268
 11
722.70149726556701
 21
619.1421584645268
  0
LINE
  8
_0-6_Layer_01
  6
CONTINUOUS
 62
    4
 10
762.70149726556701
 20
626.1421584645268
 11
770.70149726556701
 21
626.1421584645268
  0
LINE
  8
_0-6_Layer_01
  6
CONTINUOUS
 62
    4
 10
778.70149726556883
 20
626.1421584645268
 11
786.70149726556701
 21
626.1421584645268
  0
LINE
  8
_0-6_Layer_01
  6
CONTINUOUS
 62
    4
 10
778.70149726556883
 20
619.1421584645268
 11
786.70149726556701
 21
619.1421584645268
  0
LINE
  8
_0-6_Layer_01
  6
CONTINUOUS
 62
    4
 10
762.70149726556701
 20
619.1421584645268
 11
770.70149726556701
 21
619.1421584645268
  0
LINE
  8
_0-3_躯体と製品
  6
CONTINUOUS
 62
    3
 10
792.50249726557558
 20
714.6421584645268
 11
792.50249726557558
 21
704.6421584645268
  0
LINE
  8
_0-3_躯体と製品
  6
CONTINUOUS
 62
    3
 10
794.70149726556883
 20
704.6421584645268
 11
792.50249726557558
 21
704.6421584645268
  0
LINE
  8
_0-6_Layer_01
  6
CONTINUOUS
 62
    4
 10
810.70149726556701
 20
626.1421584645268
 11
818.70149726556701
 21
626.1421584645268
  0
LINE
  8
_0-6_Layer_01
  6
CONTINUOUS
 62
    4
 10
826.70149726556701
 20
626.1421584645268
 11
834.70149726556701
 21
626.1421584645268
  0
LINE
  8
_0-6_Layer_01
  6
CONTINUOUS
 62
    4
 10
810.70149726556701
 20
619.1421584645268
 11
818.70149726556701
 21
619.1421584645268
  0
LINE
  8
_0-6_Layer_01
  6
CONTINUOUS
 62
    4
 10
826.70149726556701
 20
619.1421584645268
 11
834.70149726556701
 21
619.1421584645268
  0
LINE
  8
_0-6_Layer_01
  6
CONTINUOUS
 62
    4
 10
842.70149726556883
 20
626.1421584645268
 11
850.70149726556883
 21
626.1421584645268
  0
LINE
  8
_0-6_Layer_01
  6
CONTINUOUS
 62
    4
 10
858.70149726556883
 20
626.1421584645268
 11
866.70149726556883
 21
626.1421584645268
  0
LINE
  8
_0-6_Layer_01
  6
CONTINUOUS
 62
    4
 10
874.70149726556701
 20
626.1421584645268
 11
882.70149726556883
 21
626.1421584645268
  0
LINE
  8
_0-6_Layer_01
  6
CONTINUOUS
 62
    4
 10
874.70149726556701
 20
619.1421584645268
 11
882.70149726556883
 21
619.1421584645268
  0
LINE
  8
_0-6_Layer_01
  6
CONTINUOUS
 62
    4
 10
842.70149726556883
 20
619.1421584645268
 11
850.70149726556883
 21
619.1421584645268
  0
LINE
  8
_0-6_Layer_01
  6
CONTINUOUS
 62
    4
 10
858.70149726556883
 20
619.1421584645268
 11
866.70149726556883
 21
619.1421584645268
  0
CIRCLE
  8
_0-3_躯体と製品
  6
CONTINUOUS
 62
    3
 10
798.70149726556519
 20
710.64215846452862
 40
1.25
  0
LINE
  8
_0-3_躯体と製品
  6
CONTINUOUS
 62
    3
 10
806.10049726557372
 20
704.6421584645268
 11
802.70149726556701
 21
704.6421584645268
  0
LINE
  8
_0-3_躯体と製品
  6
CONTINUOUS
 62
    3
 10
804.90049726558937
 20
714.6421584645268
 11
804.90049726558937
 21
704.6421584645268
  0
LINE
  8
_0-3_躯体と製品
  6
CONTINUOUS
 62
    3
 10
806.10049726557372
 20
714.6421584645268
 11
806.10049726557372
 21
704.6421584645268
  0
LINE
  8
_0-6_Layer_01
  6
CONTINUOUS
 62
    4
 10
1026.7014972655634
 20
714.6421584645268
 11
1026.7014972655634
 21
530.64215846452862
  0
LINE
  8
_0-6_Layer_01
  6
CONTINUOUS
 62
    4
 10
1034.7014972655634
 20
714.6421584645268
 11
1034.7014972655634
 21
530.64215846452862
  0
LINE
  8
_0-6_Layer_01
  6
CONTINUOUS
 62
    4
 10
1010.7014972655634
 20
714.6421584645268
 11
1010.7014972655634
 21
530.64215846452862
  0
LINE
  8
_0-6_Layer_01
  6
CONTINUOUS
 62
    4
 10
1018.7014972655634
 20
714.6421584645268
 11
1018.7014972655634
 21
530.64215846452862
  0
LINE
  8
_0-6_Layer_01
  6
CONTINUOUS
 62
    4
 10
1002.7014972655634
 20
714.6421584645268
 11
1002.7014972655634
 21
530.64215846452862
  0
LINE
  8
_0-6_Layer_01
  6
CONTINUOUS
 62
    4
 10
946.70149726556883
 20
714.6421584645268
 11
946.70149726556883
 21
530.64215846452862
  0
LINE
  8
_0-6_Layer_01
  6
CONTINUOUS
 62
    4
 10
954.70149726556338
 20
714.6421584645268
 11
954.70149726556338
 21
530.64215846452862
  0
LINE
  8
_0-6_Layer_01
  6
CONTINUOUS
 62
    4
 10
962.70149726556338
 20
714.6421584645268
 11
962.70149726556338
 21
530.64215846452862
  0
LINE
  8
_0-6_Layer_01
  6
CONTINUOUS
 62
    4
 10
970.70149726556338
 20
714.6421584645268
 11
970.70149726556338
 21
530.64215846452862
  0
LINE
  8
_0-6_Layer_01
  6
CONTINUOUS
 62
    4
 10
978.70149726556338
 20
714.6421584645268
 11
978.70149726556338
 21
530.64215846452862
  0
LINE
  8
_0-6_Layer_01
  6
CONTINUOUS
 62
    4
 10
922.70149726556883
 20
714.6421584645268
 11
922.70149726556883
 21
530.64215846452862
  0
LINE
  8
_0-6_Layer_01
  6
CONTINUOUS
 62
    4
 10
930.70149726556883
 20
714.6421584645268
 11
930.70149726556883
 21
530.64215846452862
  0
LINE
  8
_0-6_Layer_01
  6
CONTINUOUS
 62
    4
 10
938.70149726556701
 20
714.6421584645268
 11
938.70149726556701
 21
530.64215846452862
  0
LINE
  8
_0-6_Layer_01
  6
CONTINUOUS
 62
    4
 10
914.70149726556883
 20
714.6421584645268
 11
914.70149726556883
 21
530.64215846452862
  0
LINE
  8
_0-6_Layer_01
  6
CONTINUOUS
 62
    4
 10
898.70149726556883
 20
714.6421584645268
 11
898.70149726556883
 21
530.64215846452862
  0
LINE
  8
_0-6_Layer_01
  6
CONTINUOUS
 62
    4
 10
906.70149726556883
 20
714.6421584645268
 11
906.70149726556883
 21
530.64215846452862
  0
LINE
  8
_0-6_Layer_01
  6
CONTINUOUS
 62
    4
 10
986.70149726556338
 20
714.6421584645268
 11
986.70149726556338
 21
530.64215846452862
  0
LINE
  8
_0-6_Layer_01
  6
CONTINUOUS
 62
    4
 10
994.70149726556338
 20
714.6421584645268
 11
994.70149726556338
 21
530.64215846452862
  0
LINE
  8
_0-6_Layer_01
  6
CONTINUOUS
 62
    4
 10
1042.7014972655634
 20
714.6421584645268
 11
1042.7014972655634
 21
530.64215846452862
  0
LINE
  8
_0-6_Layer_01
  6
CONTINUOUS
 62
    4
 10
1050.7014972655634
 20
714.6421584645268
 11
1050.7014972655634
 21
530.64215846452862
  0
LINE
  8
_0-6_Layer_01
  6
CONTINUOUS
 62
    4
 10
1058.7014972655634
 20
714.6421584645268
 11
1058.7014972655634
 21
530.64215846452862
  0
LINE
  8
_0-6_Layer_01
  6
CONTINUOUS
 62
    4
 10
890.70149726556701
 20
714.6421584645268
 11
890.70149726556701
 21
530.64215846452862
  0
LINE
  8
_0-3_躯体と製品
  6
CONTINUOUS
 62
    3
 10
1064.5024972655738
 20
530.64215846452862
 11
1064.5024972655738
 21
540.6421584645268
  0
LINE
  8
_0-6_Layer_01
  6
CONTINUOUS
 62
    4
 10
970.70149726556338
 20
626.1421584645268
 11
978.70149726556338
 21
626.1421584645268
  0
LINE
  8
_0-6_Layer_01
  6
CONTINUOUS
 62
    4
 10
970.70149726556338
 20
619.1421584645268
 11
978.70149726556338
 21
619.1421584645268
  0
LINE
  8
_0-6_Layer_01
  6
CONTINUOUS
 62
    4
 10
922.70149726556883
 20
626.1421584645268
 11
930.70149726556883
 21
626.1421584645268
  0
LINE
  8
_0-6_Layer_01
  6
CONTINUOUS
 62
    4
 10
922.70149726556883
 20
619.1421584645268
 11
930.70149726556883
 21
619.1421584645268
  0
LINE
  8
_0-6_Layer_01
  6
CONTINUOUS
 62
    4
 10
906.70149726556883
 20
626.1421584645268
 11
914.70149726556883
 21
626.1421584645268
  0
LINE
  8
_0-6_Layer_01
  6
CONTINUOUS
 62
    4
 10
906.70149726556883
 20
619.1421584645268
 11
914.70149726556883
 21
619.1421584645268
  0
LINE
  8
_0-6_Layer_01
  6
CONTINUOUS
 62
    4
 10
890.70149726556701
 20
619.1421584645268
 11
898.70149726556883
 21
619.1421584645268
  0
LINE
  8
_0-6_Layer_01
  6
CONTINUOUS
 62
    4
 10
890.70149726556701
 20
626.1421584645268
 11
898.70149726556883
 21
626.1421584645268
  0
LINE
  8
_0-6_Layer_01
  6
CONTINUOUS
 62
    4
 10
938.70149726556701
 20
626.1421584645268
 11
946.70149726556883
 21
626.1421584645268
  0
LINE
  8
_0-6_Layer_01
  6
CONTINUOUS
 62
    4
 10
954.70149726556338
 20
626.1421584645268
 11
962.70149726556338
 21
626.1421584645268
  0
LINE
  8
_0-6_Layer_01
  6
CONTINUOUS
 62
    4
 10
938.70149726556701
 20
619.1421584645268
 11
946.70149726556883
 21
619.1421584645268
  0
LINE
  8
_0-6_Layer_01
  6
CONTINUOUS
 62
    4
 10
954.70149726556338
 20
619.1421584645268
 11
962.70149726556338
 21
619.1421584645268
  0
LINE
  8
_0-6_Layer_01
  6
CONTINUOUS
 62
    4
 10
1018.7014972655634
 20
626.1421584645268
 11
1026.7014972655634
 21
626.1421584645268
  0
LINE
  8
_0-6_Layer_01
  6
CONTINUOUS
 62
    4
 10
1018.7014972655634
 20
619.1421584645268
 11
1026.7014972655634
 21
619.1421584645268
  0
LINE
  8
_0-6_Layer_01
  6
CONTINUOUS
 62
    4
 10
1002.7014972655634
 20
626.1421584645268
 11
1010.7014972655634
 21
626.1421584645268
  0
LINE
  8
_0-6_Layer_01
  6
CONTINUOUS
 62
    4
 10
986.70149726556338
 20
626.1421584645268
 11
994.70149726556338
 21
626.1421584645268
  0
LINE
  8
_0-6_Layer_01
  6
CONTINUOUS
 62
    4
 10
1002.7014972655634
 20
619.1421584645268
 11
1010.7014972655634
 21
619.1421584645268
  0
LINE
  8
_0-6_Layer_01
  6
CONTINUOUS
 62
    4
 10
986.70149726556338
 20
619.1421584645268
 11
994.70149726556338
 21
619.1421584645268
  0
LINE
  8
_0-6_Layer_01
  6
CONTINUOUS
 62
    4
 10
1034.7014972655634
 20
626.1421584645268
 11
1042.7014972655634
 21
626.1421584645268
  0
LINE
  8
_0-6_Layer_01
  6
CONTINUOUS
 62
    4
 10
1050.7014972655634
 20
626.1421584645268
 11
1058.7014972655634
 21
626.1421584645268
  0
LINE
  8
_0-6_Layer_01
  6
CONTINUOUS
 62
    4
 10
1034.7014972655634
 20
619.1421584645268
 11
1042.7014972655634
 21
619.1421584645268
  0
LINE
  8
_0-6_Layer_01
  6
CONTINUOUS
 62
    4
 10
1050.7014972655634
 20
619.1421584645268
 11
1058.7014972655634
 21
619.1421584645268
  0
LINE
  8
_0-3_躯体と製品
  6
CONTINUOUS
 62
    3
 10
1064.5024972655738
 20
714.6421584645268
 11
1064.5024972655738
 21
704.6421584645268
  0
LINE
  8
_0-6_Layer_01
  6
CONTINUOUS
 62
    4
 10
1096.7014972655634
 20
722.64215846452862
 11
1096.7014972655634
 21
522.6421584645268
  0
LINE
  8
_0-6_Layer_01
  6
CONTINUOUS
 62
    4
 10
1088.7014972655634
 20
722.64215846452862
 11
1088.7014972655634
 21
522.6421584645268
  0
LINE
  8
_0-6_Layer_01
  6
CONTINUOUS
 62
    4
 10
1082.7014972655634
 20
714.6421584645268
 11
1082.7014972655634
 21
530.64215846452862
  0
LINE
  8
_0-6_Layer_01
  6
CONTINUOUS
 62
    4
 10
1074.7014972655634
 20
714.6421584645268
 11
1074.7014972655634
 21
530.64215846452862
  0
LINE
  8
_0-6_Layer_01
  6
CONTINUOUS
 62
    4
 10
1066.7014972655634
 20
714.6421584645268
 11
1066.7014972655634
 21
530.64215846452862
  0
CIRCLE
  8
_0-3_躯体と製品
  6
CONTINUOUS
 62
    3
 10
1070.7014972655634
 20
534.6421584645268
 40
1.25
  0
LINE
  8
_0-3_躯体と製品
  6
CONTINUOUS
 62
    3
 10
1078.1004972655737
 20
540.6421584645268
 11
1074.7014972655634
 21
540.6421584645268
  0
LINE
  8
_0-3_躯体と製品
  6
CONTINUOUS
 62
    3
 10
1074.7014972655634
 20
540.6421584645268
 11
1066.7014972655634
 21
540.6421584645268
  0
LINE
  8
_0-3_躯体と製品
  6
CONTINUOUS
 62
    3
 10
1076.9004972655839
 20
530.64215846452862
 11
1076.9004972655839
 21
540.6421584645268
  0
LINE
  8
_0-3_躯体と製品
  6
CONTINUOUS
 62
    3
 10
1078.1004972655737
 20
530.64215846452862
 11
1078.1004972655737
 21
540.6421584645268
  0
LINE
  8
_0-6_Layer_01
  6
CONTINUOUS
 62
    4
 10
1066.7014972655634
 20
626.1421584645268
 11
1074.7014972655634
 21
626.1421584645268
  0
LINE
  8
_0-6_Layer_01
  6
CONTINUOUS
 62
    4
 10
1066.7014972655634
 20
619.1421584645268
 11
1074.7014972655634
 21
619.1421584645268
  0
LINE
  8
_0-6_Layer_01
  6
CONTINUOUS
 62
    4
 10
1082.7014972655634
 20
626.1421584645268
 11
1088.7014972655634
 21
626.1421584645268
  0
LINE
  8
_0-6_Layer_01
  6
CONTINUOUS
 62
    4
 10
1082.7014972655634
 20
619.1421584645268
 11
1088.7014972655634
 21
619.1421584645268
  0
CIRCLE
  8
_0-3_躯体と製品
  6
CONTINUOUS
 62
    3
 10
1070.7014972655634
 20
710.64215846452862
 40
1.25
  0
LINE
  8
_0-3_躯体と製品
  6
CONTINUOUS
 62
    3
 10
1078.1004972655737
 20
704.6421584645268
 11
1074.7014972655634
 21
704.6421584645268
  0
LINE
  8
_0-3_躯体と製品
  6
CONTINUOUS
 62
    3
 10
1074.7014972655634
 20
704.6421584645268
 11
1066.7014972655634
 21
704.6421584645268
  0
LINE
  8
_0-3_躯体と製品
  6
CONTINUOUS
 62
    3
 10
1076.9004972655839
 20
714.6421584645268
 11
1076.9004972655839
 21
704.6421584645268
  0
LINE
  8
_0-3_躯体と製品
  6
CONTINUOUS
 62
    3
 10
1078.1004972655737
 20
714.6421584645268
 11
1078.1004972655737
 21
704.6421584645268
  0
ARC
  8
_0-3_躯体と製品
  6
CONTINUOUS
 62
    4
 10
114.96961688383635
 20
529.14315846451609
 40
1.4999999999999989
 50
359.99999700011961
 51
89.999999999999986
  0
ARC
  8
_0-3_躯体と製品
  6
CONTINUOUS
 62
    4
 10
114.96961688383635
 20
524.1421584645268
 40
1.4999999999999989
 50
269.99999399982221
 51
359.99999700011961
  0
ARC
  8
_0-3_躯体と製品
  6
CONTINUOUS
 62
    4
 10
114.96961688383635
 20
529.14315846451609
 40
0.4999999999999998
 50
359.99999700011961
 51
89.999999999999986
  0
ARC
  8
_0-3_躯体と製品
  6
CONTINUOUS
 62
    4
 10
114.96961688383635
 20
524.1421584645268
 40
0.4999999999999998
 50
269.99999399982221
 51
359.99999700011961
  0
LINE
  8
_0-3_躯体と製品
  6
CONTINUOUS
 62
    4
 10
115.47061688384383
 20
529.14315846451609
 11
115.47061688384383
 21
524.1421584645268
  0
ARC
  8
_0-3_躯体と製品
  6
CONTINUOUS
 62
    4
 10
102.96961688383635
 20
529.14315846451609
 40
1.4999999999999989
 50
90
 51
180.00000299988039
  0
LINE
  8
_0-3_躯体と製品
  6
CONTINUOUS
 62
    4
 10
114.66961688384254
 20
530.64315846451609
 11
102.96961688383635
 21
530.64315846451609
  0
LINE
  8
_0-3_躯体と製品
  6
CONTINUOUS
 62
    4
 10
102.96961688383635
 20
529.64415846453448
 11
114.96961688383817
 21
529.64415846453448
  0
LINE
  8
_0-3_躯体と製品
  6
CONTINUOUS
 62
    4
 10
114.96961688383817
 20
523.64415846453448
 11
102.96961688383635
 21
523.64415846453448
  0
LINE
  8
_0-3_躯体と製品
  6
CONTINUOUS
 62
    4
 10
114.96961688383817
 20
522.6421584645268
 11
102.96961688383635
 21
522.6421584645268
  0
ARC
  8
_0-3_躯体と製品
  6
CONTINUOUS
 62
    4
 10
102.96961688383635
 20
524.1421584645268
 40
1.4999999999999989
 50
180.00000299988037
 51
269.99999399982221
  0
ARC
  8
_0-3_躯体と製品
  6
CONTINUOUS
 62
    4
 10
102.96961688383635
 20
524.1421584645268
 40
0.4999999999999998
 50
180.00000299988037
 51
269.99999399982221
  0
ARC
  8
_0-3_躯体と製品
  6
CONTINUOUS
 62
    4
 10
102.96961688383635
 20
529.14315846451609
 40
0.4999999999999998
 50
90
 51
180.00000299988039
  0
LINE
  8
_0-3_躯体と製品
  6
CONTINUOUS
 62
    4
 10
102.46861688384342
 20
524.1421584645268
 11
102.46861688384342
 21
529.14315846451609
  0
LINE
  8
_0-3_躯体と製品
  6
CONTINUOUS
 62
    4
 10
101.46961688383635
 20
524.1421584645268
 11
101.46961688383635
 21
529.14315846451609
  0
LINE
  8
_0-3_躯体と製品
  6
CONTINUOUS
 62
    4
 10
116.46961688383817
 20
529.14315846451609
 11
116.46961688383817
 21
524.1421584645268
  0
LINE
  8
_0-3_躯体と製品
  6
CONTINUOUS
 62
    3
 10
203.00149726558448
 20
402.37205986592562
 11
214.89949726557279
 21
402.37205986592198
  0
LINE
  8
_0-3_躯体と製品
  6
CONTINUOUS
 62
    4
 10
391.30099726556546
 20
407.37205986592016
 11
406.10199726557221
 21
407.37205986592016
  0
LINE
  8
_0-3_躯体と製品
  6
CONTINUOUS
 62
    4
 10
391.30099726556546
 20
406.37305986592582
 11
406.10199726557221
 21
406.37305986592582
  0
LINE
  8
_0-3_躯体と製品
  6
CONTINUOUS
 62
    4
 10
391.30099726556546
 20
412.37305986592582
 11
406.10199726557221
 21
412.37305986592582
  0
LINE
  8
_0-3_躯体と製品
  6
CONTINUOUS
 62
    4
 10
391.30099726556546
 20
413.37205986592198
 11
406.10199726557221
 21
413.37205986592198
  0
LINE
  8
_0-3_躯体と製品
  6
CONTINUOUS
 62
    4
 10
410.1009972655811
 20
416.17205986592671
 11
407.80099726556546
 21
416.17205986592671
  0
LINE
  8
_0-3_躯体と製品
  6
CONTINUOUS
 62
    4
 10
410.1009972655811
 20
416.77205986592344
 11
407.80099726556546
 21
416.77205986592344
  0
LINE
  8
_0-3_躯体と製品
  6
CONTINUOUS
 62
    4
 10
407.30199726558385
 20
415.57205986592635
 11
410.20099726555782
 21
415.57205986592635
  0
LINE
  8
_0-3_躯体と製品
  6
CONTINUOUS
 62
    4
 10
410.1009972655811
 20
416.77205986592344
 11
410.1009972655811
 21
416.17205986592671
  0
LINE
  8
_0-3_躯体と製品
  6
CONTINUOUS
 62
    4
 10
410.70099726555964
 20
416.87305986592582
 11
410.70099726555964
 21
416.07205986592635
  0
ARC
  8
_0-3_躯体と製品
  6
CONTINUOUS
 62
    4
 10
407.80099726556546
 20
415.67305986592146
 40
0.4999999999999998
 50
90.000002999880451
 51
180.00000600017779
  0
ARC
  8
_0-3_躯体と製品
  6
CONTINUOUS
 62
    4
 10
410.20099726555782
 20
416.87305986592582
 40
0.4999999999999998
 50
0
 51
90.000002999880451
  0
ARC
  8
_0-3_躯体と製品
  6
CONTINUOUS
 62
    4
 10
410.20099726555782
 20
416.07205986592635
 40
0.4999999999999998
 50
269.99999700011949
 51
0
  0
ARC
  8
_0-3_躯体と製品
  6
CONTINUOUS
 62
    4
 10
405.6009972655811
 20
415.67305986592146
 40
0.4999999999999998
 50
0
 51
90.000002999880451
  0
ARC
  8
_0-3_躯体と製品
  6
CONTINUOUS
 62
    4
 10
407.80099726556546
 20
415.67305986592146
 40
1.099999999999999
 50
90.000002999880451
 51
180.00000600017779
  0
ARC
  8
_0-3_躯体と製品
  6
CONTINUOUS
 62
    4
 10
405.6009972655811
 20
415.67305986592146
 40
1.099999999999999
 50
0
 51
90.000002999880451
  0
LINE
  8
_0-3_躯体と製品
  6
CONTINUOUS
 62
    4
 10
402.70099726555782
 20
416.07205986592635
 11
402.70099726555782
 21
416.87305986592582
  0
LINE
  8
_0-3_躯体と製品
  6
CONTINUOUS
 62
    4
 10
403.30099726556546
 20
416.77205986592344
 11
403.30099726556546
 21
416.17205986592671
  0
ARC
  8
_0-3_躯体と製品
  6
CONTINUOUS
 62
    4
 10
403.20099726555964
 20
416.87305986592582
 40
0.4999999999999998
 50
90.000002999880451
 51
180.00000600017779
  0
ARC
  8
_0-3_躯体と製品
  6
CONTINUOUS
 62
    4
 10
403.20099726555964
 20
416.07205986592635
 40
0.4999999999999998
 50
180.00000600017779
 51
269.99999700011949
  0
LINE
  8
_0-3_躯体と製品
  6
CONTINUOUS
 62
    4
 10
403.20099726555964
 20
417.3720598659238
 11
410.20099726555782
 21
417.3720598659238
  0
LINE
  8
_0-3_躯体と製品
  6
CONTINUOUS
 62
    4
 10
403.30099726556546
 20
416.77205986592344
 11
405.6009972655811
 21
416.77205986592344
  0
LINE
  8
_0-3_躯体と製品
  6
CONTINUOUS
 62
    4
 10
403.30099726556546
 20
416.17205986592671
 11
405.6009972655811
 21
416.17205986592671
  0
LINE
  8
_0-3_躯体と製品
  6
CONTINUOUS
 62
    4
 10
403.20099726555964
 20
415.57205986592635
 11
406.10199726557221
 21
415.57205986592635
  0
ARC
  8
_0-3_躯体と製品
  6
CONTINUOUS
 62
    4
 10
406.70199726557621
 20
402.9720598659278
 40
0.5999999999999997
 50
180.00000600017779
 51
0
  0
LINE
  8
_0-3_躯体と製品
  6
CONTINUOUS
 62
    4
 10
406.70199726557621
 20
402.37205986592198
 11
406.70199726557621
 21
415.67305986592146
  0
LINE
  8
_0-3_躯体と製品
  6
CONTINUOUS
 62
    4
 10
406.10199726557221
 20
415.67305986592146
 11
406.10199726557221
 21
402.9720598659278
  0
LINE
  8
_0-3_躯体と製品
  6
CONTINUOUS
 62
    4
 10
407.30199726558385
 20
415.67305986592146
 11
407.30199726558385
 21
402.9720598659278
  0
LINE
  8
_0-3_躯体と製品
  6
CONTINUOUS
 62
    4
 10
327.30099726556364
 20
406.37305986592582
 11
342.10099726558292
 21
406.37305986592582
  0
LINE
  8
_0-3_躯体と製品
  6
CONTINUOUS
 62
    4
 10
327.30099726556364
 20
407.37205986592016
 11
342.10099726558292
 21
407.37205986592016
  0
LINE
  8
_0-3_躯体と製品
  6
CONTINUOUS
 62
    4
 10
327.30099726556364
 20
413.37205986592198
 11
342.10099726558292
 21
413.37205986592198
  0
LINE
  8
_0-3_躯体と製品
  6
CONTINUOUS
 62
    4
 10
327.30099726556364
 20
412.37305986592582
 11
342.10099726558292
 21
412.37305986592582
  0
LINE
  8
_0-3_躯体と製品
  6
CONTINUOUS
 62
    4
 10
391.30099726556546
 20
415.57205986592635
 11
394.20099726555964
 21
415.57205986592635
  0
LINE
  8
_0-3_躯体と製品
  6
CONTINUOUS
 62
    4
 10
387.20199726557439
 20
417.3720598659238
 11
394.20099726555964
 21
417.3720598659238
  0
LINE
  8
_0-3_躯体と製品
  6
CONTINUOUS
 62
    4
 10
394.10199726557221
 20
416.77205986592344
 11
391.80099726556364
 21
416.77205986592344
  0
LINE
  8
_0-3_躯体と製品
  6
CONTINUOUS
 62
    4
 10
394.10199726557221
 20
416.17205986592671
 11
391.80099726556364
 21
416.17205986592671
  0
LINE
  8
_0-3_躯体と製品
  6
CONTINUOUS
 62
    4
 10
362.70099726555964
 20
416.87305986592582
 11
362.70099726555964
 21
416.07205986592635
  0
ARC
  8
_0-3_躯体と製品
  6
CONTINUOUS
 62
    4
 10
362.20099726555782
 20
416.07205986592635
 40
0.4999999999999998
 50
269.99999700011949
 51
0
  0
ARC
  8
_0-3_躯体と製品
  6
CONTINUOUS
 62
    4
 10
362.20099726555782
 20
416.87305986592582
 40
0.4999999999999998
 50
0
 51
90.000002999880451
  0
ARC
  8
_0-3_躯体と製品
  6
CONTINUOUS
 62
    4
 10
391.80099726556364
 20
415.67305986592146
 40
0.4999999999999998
 50
90.000002999880451
 51
180.00000600017779
  0
ARC
  8
_0-3_躯体と製品
  6
CONTINUOUS
 62
    4
 10
391.80099726556364
 20
415.67305986592146
 40
1.099999999999999
 50
90.000002999880451
 51
180.00000600017779
  0
LINE
  8
_0-3_躯体と製品
  6
CONTINUOUS
 62
    4
 10
387.30099726556364
 20
416.77205986592344
 11
387.30099726556364
 21
416.17205986592671
  0
LINE
  8
_0-3_躯体と製品
  6
CONTINUOUS
 62
    4
 10
386.70099726555964
 20
416.07205986592635
 11
386.70099726555964
 21
416.87305986592582
  0
LINE
  8
_0-3_躯体と製品
  6
CONTINUOUS
 62
    4
 10
387.20199726557439
 20
415.57205986592635
 11
390.10099726558474
 21
415.57205986592635
  0
LINE
  8
_0-3_躯体と製品
  6
CONTINUOUS
 62
    4
 10
387.30099726556364
 20
416.77205986592344
 11
389.60199726557221
 21
416.77205986592344
  0
LINE
  8
_0-3_躯体と製品
  6
CONTINUOUS
 62
    4
 10
387.30099726556364
 20
416.17205986592671
 11
389.60199726557221
 21
416.17205986592671
  0
ARC
  8
_0-3_躯体と製品
  6
CONTINUOUS
 62
    4
 10
387.20199726557439
 20
416.87305986592582
 40
0.4999999999999998
 50
90.000002999880451
 51
180.00000600017779
  0
ARC
  8
_0-3_躯体と製品
  6
CONTINUOUS
 62
    4
 10
387.20199726557439
 20
416.07205986592635
 40
0.4999999999999998
 50
180.00000600017779
 51
269.99999700011949
  0
ARC
  8
_0-3_躯体と製品
  6
CONTINUOUS
 62
    4
 10
389.60199726557221
 20
415.67305986592146
 40
0.4999999999999998
 50
0
 51
90.000002999880451
  0
ARC
  8
_0-3_躯体と製品
  6
CONTINUOUS
 62
    4
 10
389.60199726557221
 20
415.67305986592146
 40
1.099999999999999
 50
0
 51
90.000002999880451
  0
LINE
  8
_0-3_躯体と製品
  6
CONTINUOUS
 62
    4
 10
378.70099726555782
 20
416.87305986592582
 11
378.70099726555782
 21
416.07205986592635
  0
LINE
  8
_0-3_躯体と製品
  6
CONTINUOUS
 62
    4
 10
378.10099726558292
 20
416.17205986592671
 11
375.80199726558385
 21
416.17205986592671
  0
LINE
  8
_0-3_躯体と製品
  6
CONTINUOUS
 62
    4
 10
378.10099726558292
 20
416.77205986592344
 11
378.10099726558292
 21
416.17205986592671
  0
LINE
  8
_0-3_躯体と製品
  6
CONTINUOUS
 62
    4
 10
375.30099726556546
 20
415.57205986592635
 11
378.20199726557621
 21
415.57205986592635
  0
LINE
  8
_0-3_躯体と製品
  6
CONTINUOUS
 62
    4
 10
371.30199726558385
 20
416.77205986592344
 11
371.30199726558385
 21
416.17205986592671
  0
LINE
  8
_0-3_躯体と製品
  6
CONTINUOUS
 62
    4
 10
371.30199726558385
 20
416.77205986592344
 11
373.60099726558292
 21
416.77205986592344
  0
LINE
  8
_0-3_躯体と製品
  6
CONTINUOUS
 62
    4
 10
371.20099726555782
 20
415.57205986592635
 11
374.1009972655811
 21
415.57205986592635
  0
LINE
  8
_0-3_躯体と製品
  6
CONTINUOUS
 62
    4
 10
371.30199726558385
 20
416.17205986592671
 11
373.60099726558292
 21
416.17205986592671
  0
LINE
  8
_0-3_躯体と製品
  6
CONTINUOUS
 62
    4
 10
371.20099726555782
 20
417.3720598659238
 11
378.20199726557621
 21
417.3720598659238
  0
LINE
  8
_0-3_躯体と製品
  6
CONTINUOUS
 62
    4
 10
378.10099726558292
 20
416.77205986592344
 11
375.80199726558385
 21
416.77205986592344
  0
LINE
  8
_0-3_躯体と製品
  6
CONTINUOUS
 62
    4
 10
370.70199726557621
 20
416.07205986592635
 11
370.70199726557621
 21
416.87305986592582
  0
ARC
  8
_0-3_躯体と製品
  6
CONTINUOUS
 62
    4
 10
373.60099726558292
 20
415.67305986592146
 40
0.4999999999999998
 50
0
 51
90.000002999880451
  0
ARC
  8
_0-3_躯体と製品
  6
CONTINUOUS
 62
    4
 10
375.80199726558385
 20
415.67305986592146
 40
1.099999999999999
 50
90.000002999880451
 51
180.00000600017779
  0
ARC
  8
_0-3_躯体と製品
  6
CONTINUOUS
 62
    4
 10
373.60099726558292
 20
415.67305986592146
 40
1.099999999999999
 50
0
 51
90.000002999880451
  0
ARC
  8
_0-3_躯体と製品
  6
CONTINUOUS
 62
    4
 10
375.80199726558385
 20
415.67305986592146
 40
0.4999999999999998
 50
90.000002999880451
 51
180.00000600017779
  0
ARC
  8
_0-3_躯体と製品
  6
CONTINUOUS
 62
    4
 10
371.20099726555782
 20
416.07205986592635
 40
0.4999999999999998
 50
180.00000600017779
 51
269.99999700011949
  0
ARC
  8
_0-3_躯体と製品
  6
CONTINUOUS
 62
    4
 10
371.20099726555782
 20
416.87305986592582
 40
0.4999999999999998
 50
90.000002999880451
 51
180.00000600017779
  0
ARC
  8
_0-3_躯体と製品
  6
CONTINUOUS
 62
    4
 10
378.20199726557621
 20
416.87305986592582
 40
0.4999999999999998
 50
0
 51
90.000002999880451
  0
ARC
  8
_0-3_躯体と製品
  6
CONTINUOUS
 62
    4
 10
378.20199726557621
 20
416.07205986592635
 40
0.4999999999999998
 50
269.99999700011949
 51
0
  0
LINE
  8
_0-3_躯体と製品
  6
CONTINUOUS
 62
    4
 10
375.30099726556546
 20
412.37305986592582
 11
390.10099726558474
 21
412.37305986592582
  0
LINE
  8
_0-3_躯体と製品
  6
CONTINUOUS
 62
    4
 10
375.30099726556546
 20
413.37205986592198
 11
390.10099726558474
 21
413.37205986592198
  0
ARC
  8
_0-3_躯体と製品
  6
CONTINUOUS
 62
    4
 10
390.70099726555782
 20
402.9720598659278
 40
0.5999999999999997
 50
180.00000600017779
 51
0
  0
ARC
  8
_0-3_躯体と製品
  6
CONTINUOUS
 62
    4
 10
374.70099726555964
 20
402.9720598659278
 40
0.5999999999999997
 50
180.00000600017779
 51
0
  0
LINE
  8
_0-3_躯体と製品
  6
CONTINUOUS
 62
    4
 10
375.30099726556546
 20
407.37205986592016
 11
390.10099726558474
 21
407.37205986592016
  0
LINE
  8
_0-3_躯体と製品
  6
CONTINUOUS
 62
    4
 10
375.30099726556546
 20
406.37305986592582
 11
390.10099726558474
 21
406.37305986592582
  0
LINE
  8
_0-3_躯体と製品
  6
CONTINUOUS
 62
    4
 10
390.70099726555782
 20
402.37205986592198
 11
390.70099726555782
 21
415.67305986592146
  0
LINE
  8
_0-3_躯体と製品
  6
CONTINUOUS
 62
    4
 10
390.10099726558474
 20
415.67305986592146
 11
390.10099726558474
 21
402.9720598659278
  0
LINE
  8
_0-3_躯体と製品
  6
CONTINUOUS
 62
    4
 10
391.30099726556546
 20
415.67305986592146
 11
391.30099726556546
 21
402.9720598659278
  0
LINE
  8
_0-3_躯体と製品
  6
CONTINUOUS
 62
    4
 10
375.30099726556546
 20
415.67305986592146
 11
375.30099726556546
 21
402.9720598659278
  0
LINE
  8
_0-3_躯体と製品
  6
CONTINUOUS
 62
    4
 10
374.70099726555964
 20
402.37205986592198
 11
374.70099726555964
 21
415.67305986592146
  0
LINE
  8
_0-3_躯体と製品
  6
CONTINUOUS
 62
    4
 10
374.1009972655811
 20
415.67305986592146
 11
374.1009972655811
 21
402.9720598659278
  0
LINE
  8
_0-3_躯体と製品
  6
CONTINUOUS
 62
    4
 10
394.10199726557221
 20
416.77205986592344
 11
394.10199726557221
 21
416.17205986592671
  0
LINE
  8
_0-3_躯体と製品
  6
CONTINUOUS
 62
    4
 10
394.70199726557621
 20
416.87305986592582
 11
394.70199726557621
 21
416.07205986592635
  0
ARC
  8
_0-3_躯体と製品
  6
CONTINUOUS
 62
    4
 10
394.20099726555964
 20
416.07205986592635
 40
0.4999999999999998
 50
269.99999700011949
 51
0
  0
ARC
  8
_0-3_躯体と製品
  6
CONTINUOUS
 62
    4
 10
394.20099726555964
 20
416.87305986592582
 40
0.4999999999999998
 50
0
 51
90.000002999880451
  0
LINE
  8
_0-3_躯体と製品
  6
CONTINUOUS
 62
    4
 10
339.20199726557621
 20
417.3720598659238
 11
346.20099726555964
 21
417.3720598659238
  0
LINE
  8
_0-3_躯体と製品
  6
CONTINUOUS
 62
    4
 10
343.30099726556546
 20
415.57205986592635
 11
346.20099726555964
 21
415.57205986592635
  0
ARC
  8
_0-3_躯体と製品
  6
CONTINUOUS
 62
    4
 10
343.80099726556364
 20
415.67305986592146
 40
0.4999999999999998
 50
90.000002999880451
 51
180.00000600017779
  0
ARC
  8
_0-3_躯体と製品
  6
CONTINUOUS
 62
    4
 10
343.80099726556364
 20
415.67305986592146
 40
1.099999999999999
 50
90.000002999880451
 51
180.00000600017779
  0
LINE
  8
_0-3_躯体と製品
  6
CONTINUOUS
 62
    4
 10
343.30099726556546
 20
413.37205986592198
 11
358.10199726557221
 21
413.37205986592198
  0
LINE
  8
_0-3_躯体と製品
  6
CONTINUOUS
 62
    4
 10
343.30099726556546
 20
412.37305986592582
 11
358.10199726557221
 21
412.37305986592582
  0
LINE
  8
_0-3_躯体と製品
  6
CONTINUOUS
 62
    4
 10
343.30099726556546
 20
406.37305986592582
 11
358.10199726557221
 21
406.37305986592582
  0
LINE
  8
_0-3_躯体と製品
  6
CONTINUOUS
 62
    4
 10
343.30099726556546
 20
407.37205986592016
 11
358.10199726557221
 21
407.37205986592016
  0
LINE
  8
_0-3_躯体と製品
  6
CONTINUOUS
 62
    4
 10
339.30099726556364
 20
416.77205986592344
 11
339.30099726556364
 21
416.17205986592671
  0
LINE
  8
_0-3_躯体と製品
  6
CONTINUOUS
 62
    4
 10
339.30099726556364
 20
416.77205986592344
 11
341.60199726557221
 21
416.77205986592344
  0
LINE
  8
_0-3_躯体と製品
  6
CONTINUOUS
 62
    4
 10
338.70099726555964
 20
416.07205986592635
 11
338.70099726555964
 21
416.87305986592582
  0
LINE
  8
_0-3_躯体と製品
  6
CONTINUOUS
 62
    4
 10
339.30099726556364
 20
416.17205986592671
 11
341.60199726557221
 21
416.17205986592671
  0
LINE
  8
_0-3_躯体と製品
  6
CONTINUOUS
 62
    4
 10
339.20199726557621
 20
415.57205986592635
 11
342.10099726558292
 21
415.57205986592635
  0
ARC
  8
_0-3_躯体と製品
  6
CONTINUOUS
 62
    4
 10
339.20199726557621
 20
416.87305986592582
 40
0.4999999999999998
 50
90.000002999880451
 51
180.00000600017779
  0
ARC
  8
_0-3_躯体と製品
  6
CONTINUOUS
 62
    4
 10
339.20199726557621
 20
416.07205986592635
 40
0.4999999999999998
 50
180.00000600017779
 51
269.99999700011949
  0
ARC
  8
_0-3_躯体と製品
  6
CONTINUOUS
 62
    4
 10
341.60199726557221
 20
415.67305986592146
 40
0.4999999999999998
 50
0
 51
90.000002999880451
  0
ARC
  8
_0-3_躯体と製品
  6
CONTINUOUS
 62
    4
 10
341.60199726557221
 20
415.67305986592146
 40
1.099999999999999
 50
0
 51
90.000002999880451
  0
ARC
  8
_0-3_躯体と製品
  6
CONTINUOUS
 62
    4
 10
342.70099726555782
 20
402.9720598659278
 40
0.5999999999999997
 50
180.00000600017779
 51
0
  0
LINE
  8
_0-3_躯体と製品
  6
CONTINUOUS
 62
    4
 10
343.30099726556546
 20
415.67305986592146
 11
343.30099726556546
 21
402.9720598659278
  0
LINE
  8
_0-3_躯体と製品
  6
CONTINUOUS
 62
    4
 10
342.70099726555782
 20
402.37205986592198
 11
342.70099726555782
 21
415.67305986592146
  0
LINE
  8
_0-3_躯体と製品
  6
CONTINUOUS
 62
    4
 10
342.10099726558292
 20
415.67305986592146
 11
342.10099726558292
 21
402.9720598659278
  0
LINE
  8
_0-3_躯体と製品
  6
CONTINUOUS
 62
    4
 10
362.1009972655811
 20
416.77205986592344
 11
362.1009972655811
 21
416.17205986592671
  0
LINE
  8
_0-3_躯体と製品
  6
CONTINUOUS
 62
    4
 10
354.70099726555782
 20
416.07205986592635
 11
354.70099726555782
 21
416.87305986592582
  0
LINE
  8
_0-3_躯体と製品
  6
CONTINUOUS
 62
    4
 10
362.1009972655811
 20
416.77205986592344
 11
359.80099726556546
 21
416.77205986592344
  0
LINE
  8
_0-3_躯体と製品
  6
CONTINUOUS
 62
    4
 10
355.30099726556546
 20
416.77205986592344
 11
357.6009972655811
 21
416.77205986592344
  0
LINE
  8
_0-3_躯体と製品
  6
CONTINUOUS
 62
    4
 10
355.20099726555964
 20
415.57205986592635
 11
358.10199726557221
 21
415.57205986592635
  0
LINE
  8
_0-3_躯体と製品
  6
CONTINUOUS
 62
    4
 10
355.30099726556546
 20
416.77205986592344
 11
355.30099726556546
 21
416.17205986592671
  0
LINE
  8
_0-3_躯体と製品
  6
CONTINUOUS
 62
    4
 10
362.1009972655811
 20
416.17205986592671
 11
359.80099726556546
 21
416.17205986592671
  0
LINE
  8
_0-3_躯体と製品
  6
CONTINUOUS
 62
    4
 10
355.30099726556546
 20
416.17205986592671
 11
357.6009972655811
 21
416.17205986592671
  0
ARC
  8
_0-3_躯体と製品
  6
CONTINUOUS
 62
    4
 10
355.20099726555964
 20
416.87305986592582
 40
0.4999999999999998
 50
90.000002999880451
 51
180.00000600017779
  0
ARC
  8
_0-3_躯体と製品
  6
CONTINUOUS
 62
    4
 10
359.80099726556546
 20
415.67305986592146
 40
0.4999999999999998
 50
90.000002999880451
 51
180.00000600017779
  0
ARC
  8
_0-3_躯体と製品
  6
CONTINUOUS
 62
    4
 10
357.6009972655811
 20
415.67305986592146
 40
0.4999999999999998
 50
0
 51
90.000002999880451
  0
ARC
  8
_0-3_躯体と製品
  6
CONTINUOUS
 62
    4
 10
359.80099726556546
 20
415.67305986592146
 40
1.099999999999999
 50
90.000002999880451
 51
180.00000600017779
  0
ARC
  8
_0-3_躯体と製品
  6
CONTINUOUS
 62
    4
 10
357.6009972655811
 20
415.67305986592146
 40
1.099999999999999
 50
0
 51
90.000002999880451
  0
ARC
  8
_0-3_躯体と製品
  6
CONTINUOUS
 62
    4
 10
355.20099726555964
 20
416.07205986592635
 40
0.4999999999999998
 50
180.00000600017779
 51
269.99999700011949
  0
LINE
  8
_0-3_躯体と製品
  6
CONTINUOUS
 62
    4
 10
346.70199726557621
 20
416.87305986592582
 11
346.70199726557621
 21
416.07205986592635
  0
LINE
  8
_0-3_躯体と製品
  6
CONTINUOUS
 62
    4
 10
346.10199726557221
 20
416.77205986592344
 11
346.10199726557221
 21
416.17205986592671
  0
LINE
  8
_0-3_躯体と製品
  6
CONTINUOUS
 62
    4
 10
346.10199726557221
 20
416.77205986592344
 11
343.80099726556364
 21
416.77205986592344
  0
LINE
  8
_0-3_躯体と製品
  6
CONTINUOUS
 62
    4
 10
346.10199726557221
 20
416.17205986592671
 11
343.80099726556364
 21
416.17205986592671
  0
ARC
  8
_0-3_躯体と製品
  6
CONTINUOUS
 62
    4
 10
346.20099726555964
 20
416.07205986592635
 40
0.4999999999999998
 50
269.99999700011949
 51
0
  0
ARC
  8
_0-3_躯体と製品
  6
CONTINUOUS
 62
    4
 10
346.20099726555964
 20
416.87305986592582
 40
0.4999999999999998
 50
0
 51
90.000002999880451
  0
ARC
  8
_0-3_躯体と製品
  6
CONTINUOUS
 62
    4
 10
358.70199726557621
 20
402.9720598659278
 40
0.5999999999999997
 50
180.00000600017779
 51
0
  0
LINE
  8
_0-3_躯体と製品
  6
CONTINUOUS
 62
    4
 10
358.70199726557621
 20
402.37205986592198
 11
358.70199726557621
 21
415.67305986592146
  0
LINE
  8
_0-3_躯体と製品
  6
CONTINUOUS
 62
    4
 10
358.10199726557221
 20
415.67305986592146
 11
358.10199726557221
 21
402.9720598659278
  0
LINE
  8
_0-3_躯体と製品
  6
CONTINUOUS
 62
    4
 10
359.30199726558567
 20
415.67305986592146
 11
359.30199726558567
 21
402.9720598659278
  0
LINE
  8
_0-3_躯体と製品
  6
CONTINUOUS
 62
    4
 10
359.30199726558567
 20
413.37205986592198
 11
374.1009972655811
 21
413.37205986592198
  0
LINE
  8
_0-3_躯体と製品
  6
CONTINUOUS
 62
    4
 10
359.30199726558567
 20
412.37305986592582
 11
374.1009972655811
 21
412.37305986592582
  0
LINE
  8
_0-3_躯体と製品
  6
CONTINUOUS
 62
    4
 10
359.30199726558567
 20
406.37305986592582
 11
374.1009972655811
 21
406.37305986592582
  0
LINE
  8
_0-3_躯体と製品
  6
CONTINUOUS
 62
    4
 10
359.30199726558567
 20
407.37205986592016
 11
374.1009972655811
 21
407.37205986592016
  0
LINE
  8
_0-3_躯体と製品
  6
CONTINUOUS
 62
    4
 10
359.30199726558567
 20
415.57205986592635
 11
362.20099726555782
 21
415.57205986592635
  0
LINE
  8
_0-3_躯体と製品
  6
CONTINUOUS
 62
    4
 10
355.20099726555964
 20
417.3720598659238
 11
362.20099726555782
 21
417.3720598659238
  0
LINE
  8
_0-3_躯体と製品
  6
CONTINUOUS
 62
    4
 10
471.30049726555444
 20
407.37205986592016
 11
486.10149726556301
 21
407.37205986592016
  0
LINE
  8
_0-3_躯体と製品
  6
CONTINUOUS
 62
    4
 10
471.30049726555444
 20
406.37305986592582
 11
486.10149726556301
 21
406.37305986592582
  0
LINE
  8
_0-3_躯体と製品
  6
CONTINUOUS
 62
    4
 10
471.30049726555444
 20
412.37305986592582
 11
486.10149726556301
 21
412.37305986592582
  0
LINE
  8
_0-3_躯体と製品
  6
CONTINUOUS
 62
    4
 10
471.30049726555444
 20
413.37205986592198
 11
486.10149726556301
 21
413.37205986592198
  0
LINE
  8
_0-3_躯体と製品
  6
CONTINUOUS
 62
    4
 10
490.1004972655719
 20
416.17205986592671
 11
487.80049726555626
 21
416.17205986592671
  0
LINE
  8
_0-3_躯体と製品
  6
CONTINUOUS
 62
    4
 10
490.1004972655719
 20
416.77205986592344
 11
487.80049726555626
 21
416.77205986592344
  0
LINE
  8
_0-3_躯体と製品
  6
CONTINUOUS
 62
    4
 10
487.30149726557465
 20
415.57205986592635
 11
490.20049726554862
 21
415.57205986592635
  0
LINE
  8
_0-3_躯体と製品
  6
CONTINUOUS
 62
    4
 10
490.1004972655719
 20
416.77205986592344
 11
490.1004972655719
 21
416.17205986592671
  0
LINE
  8
_0-3_躯体と製品
  6
CONTINUOUS
 62
    4
 10
490.70049726555044
 20
416.87305986592582
 11
490.70049726555044
 21
416.07205986592635
  0
ARC
  8
_0-3_躯体と製品
  6
CONTINUOUS
 62
    4
 10
487.80049726555626
 20
415.67305986592146
 40
0.4999999999999998
 50
90.000002999880451
 51
180.00000600017779
  0
ARC
  8
_0-3_躯体と製品
  6
CONTINUOUS
 62
    4
 10
490.20049726554862
 20
416.87305986592582
 40
0.4999999999999998
 50
0
 51
90.000002999880451
  0
ARC
  8
_0-3_躯体と製品
  6
CONTINUOUS
 62
    4
 10
490.20049726554862
 20
416.07205986592635
 40
0.4999999999999998
 50
269.99999700011949
 51
0
  0
ARC
  8
_0-3_躯体と製品
  6
CONTINUOUS
 62
    4
 10
485.6004972655719
 20
415.67305986592146
 40
0.4999999999999998
 50
0
 51
90.000002999880451
  0
ARC
  8
_0-3_躯体と製品
  6
CONTINUOUS
 62
    4
 10
487.80049726555626
 20
415.67305986592146
 40
1.099999999999999
 50
90.000002999880451
 51
180.00000600017779
  0
ARC
  8
_0-3_躯体と製品
  6
CONTINUOUS
 62
    4
 10
485.6004972655719
 20
415.67305986592146
 40
1.099999999999999
 50
0
 51
90.000002999880451
  0
LINE
  8
_0-3_躯体と製品
  6
CONTINUOUS
 62
    4
 10
482.70049726554862
 20
416.07205986592635
 11
482.70049726554862
 21
416.87305986592582
  0
LINE
  8
_0-3_躯体と製品
  6
CONTINUOUS
 62
    4
 10
483.30049726555626
 20
416.77205986592344
 11
483.30049726555626
 21
416.17205986592671
  0
ARC
  8
_0-3_躯体と製品
  6
CONTINUOUS
 62
    4
 10
483.20049726555044
 20
416.87305986592582
 40
0.4999999999999998
 50
90.000002999880451
 51
180.00000600017779
  0
ARC
  8
_0-3_躯体と製品
  6
CONTINUOUS
 62
    4
 10
483.20049726555044
 20
416.07205986592635
 40
0.4999999999999998
 50
180.00000600017779
 51
269.99999700011949
  0
LINE
  8
_0-3_躯体と製品
  6
CONTINUOUS
 62
    4
 10
483.20049726555044
 20
417.3720598659238
 11
490.20049726554862
 21
417.3720598659238
  0
LINE
  8
_0-3_躯体と製品
  6
CONTINUOUS
 62
    4
 10
483.30049726555626
 20
416.77205986592344
 11
485.6004972655719
 21
416.77205986592344
  0
LINE
  8
_0-3_躯体と製品
  6
CONTINUOUS
 62
    4
 10
483.30049726555626
 20
416.17205986592671
 11
485.6004972655719
 21
416.17205986592671
  0
LINE
  8
_0-3_躯体と製品
  6
CONTINUOUS
 62
    4
 10
483.20049726555044
 20
415.57205986592635
 11
486.10149726556301
 21
415.57205986592635
  0
ARC
  8
_0-3_躯体と製品
  6
CONTINUOUS
 62
    4
 10
486.70149726556701
 20
402.9720598659278
 40
0.5999999999999997
 50
180.00000600017779
 51
0
  0
LINE
  8
_0-3_躯体と製品
  6
CONTINUOUS
 62
    4
 10
486.70149726556701
 20
402.37205986592198
 11
486.70149726556701
 21
415.67305986592146
  0
LINE
  8
_0-3_躯体と製品
  6
CONTINUOUS
 62
    4
 10
486.10149726556301
 20
415.67305986592146
 11
486.10149726556301
 21
402.9720598659278
  0
LINE
  8
_0-3_躯体と製品
  6
CONTINUOUS
 62
    4
 10
487.30149726557465
 20
415.67305986592146
 11
487.30149726557465
 21
402.9720598659278
  0
LINE
  8
_0-3_躯体と製品
  6
CONTINUOUS
 62
    4
 10
407.30049726555444
 20
406.37305986592582
 11
422.10049726557372
 21
406.37305986592582
  0
LINE
  8
_0-3_躯体と製品
  6
CONTINUOUS
 62
    4
 10
407.30049726555444
 20
407.37205986592016
 11
422.10049726557372
 21
407.37205986592016
  0
LINE
  8
_0-3_躯体と製品
  6
CONTINUOUS
 62
    4
 10
407.30049726555444
 20
413.37205986592198
 11
422.10049726557372
 21
413.37205986592198
  0
LINE
  8
_0-3_躯体と製品
  6
CONTINUOUS
 62
    4
 10
407.30049726555444
 20
412.37305986592582
 11
422.10049726557372
 21
412.37305986592582
  0
LINE
  8
_0-3_躯体と製品
  6
CONTINUOUS
 62
    4
 10
471.30049726555444
 20
415.57205986592635
 11
474.20049726555044
 21
415.57205986592635
  0
LINE
  8
_0-3_躯体と製品
  6
CONTINUOUS
 62
    4
 10
467.20149726556519
 20
417.3720598659238
 11
474.20049726555044
 21
417.3720598659238
  0
LINE
  8
_0-3_躯体と製品
  6
CONTINUOUS
 62
    4
 10
474.10149726556119
 20
416.77205986592344
 11
471.80049726555444
 21
416.77205986592344
  0
LINE
  8
_0-3_躯体と製品
  6
CONTINUOUS
 62
    4
 10
474.10149726556119
 20
416.17205986592671
 11
471.80049726555444
 21
416.17205986592671
  0
LINE
  8
_0-3_躯体と製品
  6
CONTINUOUS
 62
    4
 10
442.70049726555044
 20
416.87305986592582
 11
442.70049726555044
 21
416.07205986592635
  0
ARC
  8
_0-3_躯体と製品
  6
CONTINUOUS
 62
    4
 10
442.20049726554862
 20
416.07205986592635
 40
0.4999999999999998
 50
269.99999700011949
 51
0
  0
ARC
  8
_0-3_躯体と製品
  6
CONTINUOUS
 62
    4
 10
442.20049726554862
 20
416.87305986592582
 40
0.4999999999999998
 50
0
 51
90.000002999880451
  0
ARC
  8
_0-3_躯体と製品
  6
CONTINUOUS
 62
    4
 10
471.80049726555444
 20
415.67305986592146
 40
0.4999999999999998
 50
90.000002999880451
 51
180.00000600017779
  0
ARC
  8
_0-3_躯体と製品
  6
CONTINUOUS
 62
    4
 10
471.80049726555444
 20
415.67305986592146
 40
1.099999999999999
 50
90.000002999880451
 51
180.00000600017779
  0
LINE
  8
_0-3_躯体と製品
  6
CONTINUOUS
 62
    4
 10
467.30049726555444
 20
416.77205986592344
 11
467.30049726555444
 21
416.17205986592671
  0
LINE
  8
_0-3_躯体と製品
  6
CONTINUOUS
 62
    4
 10
466.70049726555226
 20
416.07205986592635
 11
466.70049726555226
 21
416.87305986592582
  0
LINE
  8
_0-3_躯体と製品
  6
CONTINUOUS
 62
    4
 10
467.20149726556519
 20
415.57205986592635
 11
470.1004972655719
 21
415.57205986592635
  0
LINE
  8
_0-3_躯体と製品
  6
CONTINUOUS
 62
    4
 10
467.30049726555444
 20
416.77205986592344
 11
469.60149726556119
 21
416.77205986592344
  0
LINE
  8
_0-3_躯体と製品
  6
CONTINUOUS
 62
    4
 10
467.30049726555444
 20
416.17205986592671
 11
469.60149726556119
 21
416.17205986592671
  0
ARC
  8
_0-3_躯体と製品
  6
CONTINUOUS
 62
    4
 10
467.20149726556519
 20
416.87305986592582
 40
0.4999999999999998
 50
90.000002999880451
 51
180.00000600017779
  0
ARC
  8
_0-3_躯体と製品
  6
CONTINUOUS
 62
    4
 10
467.20149726556519
 20
416.07205986592635
 40
0.4999999999999998
 50
180.00000600017779
 51
269.99999700011949
  0
ARC
  8
_0-3_躯体と製品
  6
CONTINUOUS
 62
    4
 10
469.60149726556119
 20
415.67305986592146
 40
0.4999999999999998
 50
0
 51
90.000002999880451
  0
ARC
  8
_0-3_躯体と製品
  6
CONTINUOUS
 62
    4
 10
469.60149726556119
 20
415.67305986592146
 40
1.099999999999999
 50
0
 51
90.000002999880451
  0
LINE
  8
_0-3_躯体と製品
  6
CONTINUOUS
 62
    4
 10
458.70049726554862
 20
416.87305986592582
 11
458.70049726554862
 21
416.07205986592635
  0
LINE
  8
_0-3_躯体と製品
  6
CONTINUOUS
 62
    4
 10
458.10049726557372
 20
416.17205986592671
 11
455.80149726557465
 21
416.17205986592671
  0
LINE
  8
_0-3_躯体と製品
  6
CONTINUOUS
 62
    4
 10
458.10049726557372
 20
416.77205986592344
 11
458.10049726557372
 21
416.17205986592671
  0
LINE
  8
_0-3_躯体と製品
  6
CONTINUOUS
 62
    4
 10
455.30049726555444
 20
415.57205986592635
 11
458.20149726556701
 21
415.57205986592635
  0
LINE
  8
_0-3_躯体と製品
  6
CONTINUOUS
 62
    4
 10
451.30149726557465
 20
416.77205986592344
 11
451.30149726557465
 21
416.17205986592671
  0
LINE
  8
_0-3_躯体と製品
  6
CONTINUOUS
 62
    4
 10
451.30149726557465
 20
416.77205986592344
 11
453.60049726557372
 21
416.77205986592344
  0
LINE
  8
_0-3_躯体と製品
  6
CONTINUOUS
 62
    4
 10
451.20049726554862
 20
415.57205986592635
 11
454.1004972655719
 21
415.57205986592635
  0
LINE
  8
_0-3_躯体と製品
  6
CONTINUOUS
 62
    4
 10
451.30149726557465
 20
416.17205986592671
 11
453.60049726557372
 21
416.17205986592671
  0
LINE
  8
_0-3_躯体と製品
  6
CONTINUOUS
 62
    4
 10
451.20049726554862
 20
417.3720598659238
 11
458.20149726556701
 21
417.3720598659238
  0
LINE
  8
_0-3_躯体と製品
  6
CONTINUOUS
 62
    4
 10
458.10049726557372
 20
416.77205986592344
 11
455.80149726557465
 21
416.77205986592344
  0
LINE
  8
_0-3_躯体と製品
  6
CONTINUOUS
 62
    4
 10
450.70149726556701
 20
416.07205986592635
 11
450.70149726556701
 21
416.87305986592582
  0
ARC
  8
_0-3_躯体と製品
  6
CONTINUOUS
 62
    4
 10
453.60049726557372
 20
415.67305986592146
 40
0.4999999999999998
 50
0
 51
90.000002999880451
  0
ARC
  8
_0-3_躯体と製品
  6
CONTINUOUS
 62
    4
 10
455.80149726557465
 20
415.67305986592146
 40
1.099999999999999
 50
90.000002999880451
 51
180.00000600017779
  0
ARC
  8
_0-3_躯体と製品
  6
CONTINUOUS
 62
    4
 10
453.60049726557372
 20
415.67305986592146
 40
1.099999999999999
 50
0
 51
90.000002999880451
  0
ARC
  8
_0-3_躯体と製品
  6
CONTINUOUS
 62
    4
 10
455.80149726557465
 20
415.67305986592146
 40
0.4999999999999998
 50
90.000002999880451
 51
180.00000600017779
  0
ARC
  8
_0-3_躯体と製品
  6
CONTINUOUS
 62
    4
 10
451.20049726554862
 20
416.07205986592635
 40
0.4999999999999998
 50
180.00000600017779
 51
269.99999700011949
  0
ARC
  8
_0-3_躯体と製品
  6
CONTINUOUS
 62
    4
 10
451.20049726554862
 20
416.87305986592582
 40
0.4999999999999998
 50
90.000002999880451
 51
180.00000600017779
  0
ARC
  8
_0-3_躯体と製品
  6
CONTINUOUS
 62
    4
 10
458.20149726556701
 20
416.87305986592582
 40
0.4999999999999998
 50
0
 51
90.000002999880451
  0
ARC
  8
_0-3_躯体と製品
  6
CONTINUOUS
 62
    4
 10
458.20149726556701
 20
416.07205986592635
 40
0.4999999999999998
 50
269.99999700011949
 51
0
  0
LINE
  8
_0-3_躯体と製品
  6
CONTINUOUS
 62
    4
 10
455.30049726555444
 20
412.37305986592582
 11
470.1004972655719
 21
412.37305986592582
  0
LINE
  8
_0-3_躯体と製品
  6
CONTINUOUS
 62
    4
 10
455.30049726555444
 20
413.37205986592198
 11
470.1004972655719
 21
413.37205986592198
  0
ARC
  8
_0-3_躯体と製品
  6
CONTINUOUS
 62
    4
 10
470.70049726555044
 20
402.9720598659278
 40
0.5999999999999997
 50
180.00000600017779
 51
0
  0
ARC
  8
_0-3_躯体と製品
  6
CONTINUOUS
 62
    4
 10
454.70049726555044
 20
402.9720598659278
 40
0.5999999999999997
 50
180.00000600017779
 51
0
  0
LINE
  8
_0-3_躯体と製品
  6
CONTINUOUS
 62
    4
 10
455.30049726555444
 20
407.37205986592016
 11
470.1004972655719
 21
407.37205986592016
  0
LINE
  8
_0-3_躯体と製品
  6
CONTINUOUS
 62
    4
 10
455.30049726555444
 20
406.37305986592582
 11
470.1004972655719
 21
406.37305986592582
  0
LINE
  8
_0-3_躯体と製品
  6
CONTINUOUS
 62
    4
 10
470.70049726555044
 20
402.37205986592198
 11
470.70049726555044
 21
415.67305986592146
  0
LINE
  8
_0-3_躯体と製品
  6
CONTINUOUS
 62
    4
 10
470.1004972655719
 20
415.67305986592146
 11
470.1004972655719
 21
402.9720598659278
  0
LINE
  8
_0-3_躯体と製品
  6
CONTINUOUS
 62
    4
 10
471.30049726555444
 20
415.67305986592146
 11
471.30049726555444
 21
402.9720598659278
  0
LINE
  8
_0-3_躯体と製品
  6
CONTINUOUS
 62
    4
 10
455.30049726555444
 20
415.67305986592146
 11
455.30049726555444
 21
402.9720598659278
  0
LINE
  8
_0-3_躯体と製品
  6
CONTINUOUS
 62
    4
 10
454.70049726555044
 20
402.37205986592198
 11
454.70049726555044
 21
415.67305986592146
  0
LINE
  8
_0-3_躯体と製品
  6
CONTINUOUS
 62
    4
 10
454.1004972655719
 20
415.67305986592146
 11
454.1004972655719
 21
402.9720598659278
  0
LINE
  8
_0-3_躯体と製品
  6
CONTINUOUS
 62
    4
 10
474.10149726556119
 20
416.77205986592344
 11
474.10149726556119
 21
416.17205986592671
  0
LINE
  8
_0-3_躯体と製品
  6
CONTINUOUS
 62
    4
 10
474.70149726556519
 20
416.87305986592582
 11
474.70149726556519
 21
416.07205986592635
  0
ARC
  8
_0-3_躯体と製品
  6
CONTINUOUS
 62
    4
 10
474.20049726555044
 20
416.07205986592635
 40
0.4999999999999998
 50
269.99999700011949
 51
0
  0
ARC
  8
_0-3_躯体と製品
  6
CONTINUOUS
 62
    4
 10
474.20049726555044
 20
416.87305986592582
 40
0.4999999999999998
 50
0
 51
90.000002999880451
  0
LINE
  8
_0-3_躯体と製品
  6
CONTINUOUS
 62
    4
 10
419.20149726556883
 20
417.3720598659238
 11
426.20049726555044
 21
417.3720598659238
  0
LINE
  8
_0-3_躯体と製品
  6
CONTINUOUS
 62
    4
 10
423.30049726555444
 20
415.57205986592635
 11
426.20049726555044
 21
415.57205986592635
  0
ARC
  8
_0-3_躯体と製品
  6
CONTINUOUS
 62
    4
 10
423.80049726555444
 20
415.67305986592146
 40
0.4999999999999998
 50
90.000002999880451
 51
180.00000600017779
  0
ARC
  8
_0-3_躯体と製品
  6
CONTINUOUS
 62
    4
 10
423.80049726555444
 20
415.67305986592146
 40
1.099999999999999
 50
90.000002999880451
 51
180.00000600017779
  0
LINE
  8
_0-3_躯体と製品
  6
CONTINUOUS
 62
    4
 10
423.30049726555444
 20
413.37205986592198
 11
438.10149726556301
 21
413.37205986592198
  0
LINE
  8
_0-3_躯体と製品
  6
CONTINUOUS
 62
    4
 10
423.30049726555444
 20
412.37305986592582
 11
438.10149726556301
 21
412.37305986592582
  0
LINE
  8
_0-3_躯体と製品
  6
CONTINUOUS
 62
    4
 10
423.30049726555444
 20
406.37305986592582
 11
438.10149726556301
 21
406.37305986592582
  0
LINE
  8
_0-3_躯体と製品
  6
CONTINUOUS
 62
    4
 10
423.30049726555444
 20
407.37205986592016
 11
438.10149726556301
 21
407.37205986592016
  0
LINE
  8
_0-3_躯体と製品
  6
CONTINUOUS
 62
    4
 10
419.30049726555626
 20
416.77205986592344
 11
419.30049726555626
 21
416.17205986592671
  0
LINE
  8
_0-3_躯体と製品
  6
CONTINUOUS
 62
    4
 10
419.30049726555626
 20
416.77205986592344
 11
421.60149726556483
 21
416.77205986592344
  0
LINE
  8
_0-3_躯体と製品
  6
CONTINUOUS
 62
    4
 10
418.70049726555044
 20
416.07205986592635
 11
418.70049726555044
 21
416.87305986592582
  0
LINE
  8
_0-3_躯体と製品
  6
CONTINUOUS
 62
    4
 10
419.30049726555626
 20
416.17205986592671
 11
421.60149726556483
 21
416.17205986592671
  0
LINE
  8
_0-3_躯体と製品
  6
CONTINUOUS
 62
    4
 10
419.20149726556883
 20
415.57205986592635
 11
422.10049726557372
 21
415.57205986592635
  0
ARC
  8
_0-3_躯体と製品
  6
CONTINUOUS
 62
    4
 10
419.20149726556883
 20
416.87305986592582
 40
0.4999999999999998
 50
90.000002999880451
 51
180.00000600017779
  0
ARC
  8
_0-3_躯体と製品
  6
CONTINUOUS
 62
    4
 10
419.20149726556883
 20
416.07205986592635
 40
0.4999999999999998
 50
180.00000600017779
 51
269.99999700011949
  0
ARC
  8
_0-3_躯体と製品
  6
CONTINUOUS
 62
    4
 10
421.60149726556483
 20
415.67305986592146
 40
0.4999999999999998
 50
0
 51
90.000002999880451
  0
ARC
  8
_0-3_躯体と製品
  6
CONTINUOUS
 62
    4
 10
421.60149726556483
 20
415.67305986592146
 40
1.099999999999999
 50
0
 51
90.000002999880451
  0
ARC
  8
_0-3_躯体と製品
  6
CONTINUOUS
 62
    4
 10
422.70049726554862
 20
402.9720598659278
 40
0.5999999999999997
 50
180.00000600017779
 51
0
  0
LINE
  8
_0-3_躯体と製品
  6
CONTINUOUS
 62
    4
 10
423.30049726555444
 20
415.67305986592146
 11
423.30049726555444
 21
402.9720598659278
  0
LINE
  8
_0-3_躯体と製品
  6
CONTINUOUS
 62
    4
 10
422.70049726554862
 20
402.37205986592198
 11
422.70049726554862
 21
415.67305986592146
  0
LINE
  8
_0-3_躯体と製品
  6
CONTINUOUS
 62
    4
 10
422.10049726557372
 20
415.67305986592146
 11
422.10049726557372
 21
402.9720598659278
  0
LINE
  8
_0-3_躯体と製品
  6
CONTINUOUS
 62
    4
 10
442.1004972655719
 20
416.77205986592344
 11
442.1004972655719
 21
416.17205986592671
  0
LINE
  8
_0-3_躯体と製品
  6
CONTINUOUS
 62
    4
 10
434.70049726554862
 20
416.07205986592635
 11
434.70049726554862
 21
416.87305986592582
  0
LINE
  8
_0-3_躯体と製品
  6
CONTINUOUS
 62
    4
 10
442.1004972655719
 20
416.77205986592344
 11
439.80049726555626
 21
416.77205986592344
  0
LINE
  8
_0-3_躯体と製品
  6
CONTINUOUS
 62
    4
 10
435.30049726555626
 20
416.77205986592344
 11
437.6004972655719
 21
416.77205986592344
  0
LINE
  8
_0-3_躯体と製品
  6
CONTINUOUS
 62
    4
 10
435.20049726555044
 20
415.57205986592635
 11
438.10149726556301
 21
415.57205986592635
  0
LINE
  8
_0-3_躯体と製品
  6
CONTINUOUS
 62
    4
 10
435.30049726555626
 20
416.77205986592344
 11
435.30049726555626
 21
416.17205986592671
  0
LINE
  8
_0-3_躯体と製品
  6
CONTINUOUS
 62
    4
 10
442.1004972655719
 20
416.17205986592671
 11
439.80049726555626
 21
416.17205986592671
  0
LINE
  8
_0-3_躯体と製品
  6
CONTINUOUS
 62
    4
 10
435.30049726555626
 20
416.17205986592671
 11
437.6004972655719
 21
416.17205986592671
  0
ARC
  8
_0-3_躯体と製品
  6
CONTINUOUS
 62
    4
 10
435.20049726555044
 20
416.87305986592582
 40
0.4999999999999998
 50
90.000002999880451
 51
180.00000600017779
  0
ARC
  8
_0-3_躯体と製品
  6
CONTINUOUS
 62
    4
 10
439.80049726555626
 20
415.67305986592146
 40
0.4999999999999998
 50
90.000002999880451
 51
180.00000600017779
  0
ARC
  8
_0-3_躯体と製品
  6
CONTINUOUS
 62
    4
 10
437.6004972655719
 20
415.67305986592146
 40
0.4999999999999998
 50
0
 51
90.000002999880451
  0
ARC
  8
_0-3_躯体と製品
  6
CONTINUOUS
 62
    4
 10
439.80049726555626
 20
415.67305986592146
 40
1.099999999999999
 50
90.000002999880451
 51
180.00000600017779
  0
ARC
  8
_0-3_躯体と製品
  6
CONTINUOUS
 62
    4
 10
437.6004972655719
 20
415.67305986592146
 40
1.099999999999999
 50
0
 51
90.000002999880451
  0
ARC
  8
_0-3_躯体と製品
  6
CONTINUOUS
 62
    4
 10
435.20049726555044
 20
416.07205986592635
 40
0.4999999999999998
 50
180.00000600017779
 51
269.99999700011949
  0
LINE
  8
_0-3_躯体と製品
  6
CONTINUOUS
 62
    4
 10
426.70149726556519
 20
416.87305986592582
 11
426.70149726556519
 21
416.07205986592635
  0
LINE
  8
_0-3_躯体と製品
  6
CONTINUOUS
 62
    4
 10
426.10149726556483
 20
416.77205986592344
 11
426.10149726556483
 21
416.17205986592671
  0
LINE
  8
_0-3_躯体と製品
  6
CONTINUOUS
 62
    4
 10
426.10149726556483
 20
416.77205986592344
 11
423.80049726555444
 21
416.77205986592344
  0
LINE
  8
_0-3_躯体と製品
  6
CONTINUOUS
 62
    4
 10
426.10149726556483
 20
416.17205986592671
 11
423.80049726555444
 21
416.17205986592671
  0
ARC
  8
_0-3_躯体と製品
  6
CONTINUOUS
 62
    4
 10
426.20049726555044
 20
416.07205986592635
 40
0.4999999999999998
 50
269.99999700011949
 51
0
  0
ARC
  8
_0-3_躯体と製品
  6
CONTINUOUS
 62
    4
 10
426.20049726555044
 20
416.87305986592582
 40
0.4999999999999998
 50
0
 51
90.000002999880451
  0
ARC
  8
_0-3_躯体と製品
  6
CONTINUOUS
 62
    4
 10
438.70149726556701
 20
402.9720598659278
 40
0.5999999999999997
 50
180.00000600017779
 51
0
  0
LINE
  8
_0-3_躯体と製品
  6
CONTINUOUS
 62
    4
 10
438.70149726556701
 20
402.37205986592198
 11
438.70149726556701
 21
415.67305986592146
  0
LINE
  8
_0-3_躯体と製品
  6
CONTINUOUS
 62
    4
 10
438.10149726556301
 20
415.67305986592146
 11
438.10149726556301
 21
402.9720598659278
  0
LINE
  8
_0-3_躯体と製品
  6
CONTINUOUS
 62
    4
 10
439.30149726557465
 20
415.67305986592146
 11
439.30149726557465
 21
402.9720598659278
  0
LINE
  8
_0-3_躯体と製品
  6
CONTINUOUS
 62
    4
 10
439.30149726557465
 20
413.37205986592198
 11
454.1004972655719
 21
413.37205986592198
  0
LINE
  8
_0-3_躯体と製品
  6
CONTINUOUS
 62
    4
 10
439.30149726557465
 20
412.37305986592582
 11
454.1004972655719
 21
412.37305986592582
  0
LINE
  8
_0-3_躯体と製品
  6
CONTINUOUS
 62
    4
 10
439.30149726557465
 20
406.37305986592582
 11
454.1004972655719
 21
406.37305986592582
  0
LINE
  8
_0-3_躯体と製品
  6
CONTINUOUS
 62
    4
 10
439.30149726557465
 20
407.37205986592016
 11
454.1004972655719
 21
407.37205986592016
  0
LINE
  8
_0-3_躯体と製品
  6
CONTINUOUS
 62
    4
 10
439.30149726557465
 20
415.57205986592635
 11
442.20049726554862
 21
415.57205986592635
  0
LINE
  8
_0-3_躯体と製品
  6
CONTINUOUS
 62
    4
 10
435.20049726555044
 20
417.3720598659238
 11
442.20049726554862
 21
417.3720598659238
  0
LINE
  8
_0-3_躯体と製品
  6
CONTINUOUS
 62
    4
 10
551.29999726554706
 20
407.37205986592016
 11
566.10099726555563
 21
407.37205986592016
  0
LINE
  8
_0-3_躯体と製品
  6
CONTINUOUS
 62
    4
 10
551.29999726554706
 20
406.37305986592582
 11
566.10099726555563
 21
406.37305986592582
  0
LINE
  8
_0-3_躯体と製品
  6
CONTINUOUS
 62
    4
 10
551.29999726554706
 20
412.37305986592582
 11
566.10099726555563
 21
412.37305986592582
  0
LINE
  8
_0-3_躯体と製品
  6
CONTINUOUS
 62
    4
 10
551.29999726554706
 20
413.37205986592198
 11
566.10099726555563
 21
413.37205986592198
  0
LINE
  8
_0-3_躯体と製品
  6
CONTINUOUS
 62
    4
 10
570.09999726556271
 20
416.17205986592671
 11
567.79999726554706
 21
416.17205986592671
  0
LINE
  8
_0-3_躯体と製品
  6
CONTINUOUS
 62
    4
 10
570.09999726556271
 20
416.77205986592344
 11
567.79999726554706
 21
416.77205986592344
  0
LINE
  8
_0-3_躯体と製品
  6
CONTINUOUS
 62
    4
 10
567.30099726556728
 20
415.57205986592635
 11
570.19999726553942
 21
415.57205986592635
  0
LINE
  8
_0-3_躯体と製品
  6
CONTINUOUS
 62
    4
 10
570.09999726556271
 20
416.77205986592344
 11
570.09999726556271
 21
416.17205986592671
  0
LINE
  8
_0-3_躯体と製品
  6
CONTINUOUS
 62
    4
 10
570.69999726554124
 20
416.87305986592582
 11
570.69999726554124
 21
416.07205986592635
  0
ARC
  8
_0-3_躯体と製品
  6
CONTINUOUS
 62
    4
 10
567.79999726554706
 20
415.67305986592146
 40
0.4999999999999998
 50
90.000002999880451
 51
180.00000600017779
  0
ARC
  8
_0-3_躯体と製品
  6
CONTINUOUS
 62
    4
 10
570.19999726553942
 20
416.87305986592582
 40
0.4999999999999998
 50
0
 51
90.000002999880451
  0
ARC
  8
_0-3_躯体と製品
  6
CONTINUOUS
 62
    4
 10
570.19999726553942
 20
416.07205986592635
 40
0.4999999999999998
 50
269.99999700011949
 51
0
  0
ARC
  8
_0-3_躯体と製品
  6
CONTINUOUS
 62
    4
 10
565.59999726556271
 20
415.67305986592146
 40
0.4999999999999998
 50
0
 51
90.000002999880451
  0
ARC
  8
_0-3_躯体と製品
  6
CONTINUOUS
 62
    4
 10
567.79999726554706
 20
415.67305986592146
 40
1.099999999999999
 50
90.000002999880451
 51
180.00000600017779
  0
ARC
  8
_0-3_躯体と製品
  6
CONTINUOUS
 62
    4
 10
565.59999726556271
 20
415.67305986592146
 40
1.099999999999999
 50
0
 51
90.000002999880451
  0
LINE
  8
_0-3_躯体と製品
  6
CONTINUOUS
 62
    4
 10
562.69999726553942
 20
416.07205986592635
 11
562.69999726553942
 21
416.87305986592582
  0
LINE
  8
_0-3_躯体と製品
  6
CONTINUOUS
 62
    4
 10
563.29999726554706
 20
416.77205986592344
 11
563.29999726554706
 21
416.17205986592671
  0
ARC
  8
_0-3_躯体と製品
  6
CONTINUOUS
 62
    4
 10
563.19999726554124
 20
416.87305986592582
 40
0.4999999999999998
 50
90.000002999880451
 51
180.00000600017779
  0
ARC
  8
_0-3_躯体と製品
  6
CONTINUOUS
 62
    4
 10
563.19999726554124
 20
416.07205986592635
 40
0.4999999999999998
 50
180.00000600017779
 51
269.99999700011949
  0
LINE
  8
_0-3_躯体と製品
  6
CONTINUOUS
 62
    4
 10
563.19999726554124
 20
417.3720598659238
 11
570.19999726553942
 21
417.3720598659238
  0
LINE
  8
_0-3_躯体と製品
  6
CONTINUOUS
 62
    4
 10
563.29999726554706
 20
416.77205986592344
 11
565.59999726556271
 21
416.77205986592344
  0
LINE
  8
_0-3_躯体と製品
  6
CONTINUOUS
 62
    4
 10
563.29999726554706
 20
416.17205986592671
 11
565.59999726556271
 21
416.17205986592671
  0
LINE
  8
_0-3_躯体と製品
  6
CONTINUOUS
 62
    4
 10
563.19999726554124
 20
415.57205986592635
 11
566.10099726555563
 21
415.57205986592635
  0
ARC
  8
_0-3_躯体と製品
  6
CONTINUOUS
 62
    4
 10
566.70099726555964
 20
402.9720598659278
 40
0.5999999999999997
 50
180.00000600017779
 51
0
  0
LINE
  8
_0-3_躯体と製品
  6
CONTINUOUS
 62
    4
 10
566.70099726555964
 20
402.37205986592198
 11
566.70099726555964
 21
415.67305986592146
  0
LINE
  8
_0-3_躯体と製品
  6
CONTINUOUS
 62
    4
 10
566.10099726555563
 20
415.67305986592146
 11
566.10099726555563
 21
402.9720598659278
  0
LINE
  8
_0-3_躯体と製品
  6
CONTINUOUS
 62
    4
 10
567.30099726556728
 20
415.67305986592146
 11
567.30099726556728
 21
402.9720598659278
  0
LINE
  8
_0-3_躯体と製品
  6
CONTINUOUS
 62
    4
 10
487.29999726554524
 20
406.37305986592582
 11
502.09999726556453
 21
406.37305986592582
  0
LINE
  8
_0-3_躯体と製品
  6
CONTINUOUS
 62
    4
 10
487.29999726554524
 20
407.37205986592016
 11
502.09999726556453
 21
407.37205986592016
  0
LINE
  8
_0-3_躯体と製品
  6
CONTINUOUS
 62
    4
 10
487.29999726554524
 20
413.37205986592198
 11
502.09999726556453
 21
413.37205986592198
  0
LINE
  8
_0-3_躯体と製品
  6
CONTINUOUS
 62
    4
 10
487.29999726554524
 20
412.37305986592582
 11
502.09999726556453
 21
412.37305986592582
  0
LINE
  8
_0-3_躯体と製品
  6
CONTINUOUS
 62
    4
 10
551.29999726554706
 20
415.57205986592635
 11
554.19999726554124
 21
415.57205986592635
  0
LINE
  8
_0-3_躯体と製品
  6
CONTINUOUS
 62
    4
 10
547.20099726555782
 20
417.3720598659238
 11
554.19999726554124
 21
417.3720598659238
  0
LINE
  8
_0-3_躯体と製品
  6
CONTINUOUS
 62
    4
 10
554.10099726555563
 20
416.77205986592344
 11
551.79999726554524
 21
416.77205986592344
  0
LINE
  8
_0-3_躯体と製品
  6
CONTINUOUS
 62
    4
 10
554.10099726555563
 20
416.17205986592671
 11
551.79999726554524
 21
416.17205986592671
  0
LINE
  8
_0-3_躯体と製品
  6
CONTINUOUS
 62
    4
 10
522.69999726554124
 20
416.87305986592582
 11
522.69999726554124
 21
416.07205986592635
  0
ARC
  8
_0-3_躯体と製品
  6
CONTINUOUS
 62
    4
 10
522.19999726553942
 20
416.07205986592635
 40
0.4999999999999998
 50
269.99999700011949
 51
0
  0
ARC
  8
_0-3_躯体と製品
  6
CONTINUOUS
 62
    4
 10
522.19999726553942
 20
416.87305986592582
 40
0.4999999999999998
 50
0
 51
90.000002999880451
  0
ARC
  8
_0-3_躯体と製品
  6
CONTINUOUS
 62
    4
 10
551.79999726554524
 20
415.67305986592146
 40
0.4999999999999998
 50
90.000002999880451
 51
180.00000600017779
  0
ARC
  8
_0-3_躯体と製品
  6
CONTINUOUS
 62
    4
 10
551.79999726554524
 20
415.67305986592146
 40
1.099999999999999
 50
90.000002999880451
 51
180.00000600017779
  0
LINE
  8
_0-3_躯体と製品
  6
CONTINUOUS
 62
    4
 10
547.29999726554524
 20
416.77205986592344
 11
547.29999726554524
 21
416.17205986592671
  0
LINE
  8
_0-3_躯体と製品
  6
CONTINUOUS
 62
    4
 10
546.69999726554124
 20
416.07205986592635
 11
546.69999726554124
 21
416.87305986592582
  0
LINE
  8
_0-3_躯体と製品
  6
CONTINUOUS
 62
    4
 10
547.20099726555782
 20
415.57205986592635
 11
550.09999726556453
 21
415.57205986592635
  0
LINE
  8
_0-3_躯体と製品
  6
CONTINUOUS
 62
    4
 10
547.29999726554524
 20
416.77205986592344
 11
549.60099726555563
 21
416.77205986592344
  0
LINE
  8
_0-3_躯体と製品
  6
CONTINUOUS
 62
    4
 10
547.29999726554524
 20
416.17205986592671
 11
549.60099726555563
 21
416.17205986592671
  0
ARC
  8
_0-3_躯体と製品
  6
CONTINUOUS
 62
    4
 10
547.20099726555782
 20
416.87305986592582
 40
0.4999999999999998
 50
90.000002999880451
 51
180.00000600017779
  0
ARC
  8
_0-3_躯体と製品
  6
CONTINUOUS
 62
    4
 10
547.20099726555782
 20
416.07205986592635
 40
0.4999999999999998
 50
180.00000600017779
 51
269.99999700011949
  0
ARC
  8
_0-3_躯体と製品
  6
CONTINUOUS
 62
    4
 10
549.60099726555563
 20
415.67305986592146
 40
0.4999999999999998
 50
0
 51
90.000002999880451
  0
ARC
  8
_0-3_躯体と製品
  6
CONTINUOUS
 62
    4
 10
549.60099726555563
 20
415.67305986592146
 40
1.099999999999999
 50
0
 51
90.000002999880451
  0
LINE
  8
_0-3_躯体と製品
  6
CONTINUOUS
 62
    4
 10
538.69999726553942
 20
416.87305986592582
 11
538.69999726553942
 21
416.07205986592635
  0
LINE
  8
_0-3_躯体と製品
  6
CONTINUOUS
 62
    4
 10
538.09999726556453
 20
416.17205986592671
 11
535.80099726556546
 21
416.17205986592671
  0
LINE
  8
_0-3_躯体と製品
  6
CONTINUOUS
 62
    4
 10
538.09999726556453
 20
416.77205986592344
 11
538.09999726556453
 21
416.17205986592671
  0
LINE
  8
_0-3_躯体と製品
  6
CONTINUOUS
 62
    4
 10
535.29999726554524
 20
415.57205986592635
 11
538.20099726555782
 21
415.57205986592635
  0
LINE
  8
_0-3_躯体と製品
  6
CONTINUOUS
 62
    4
 10
531.30099726556546
 20
416.77205986592344
 11
531.30099726556546
 21
416.17205986592671
  0
LINE
  8
_0-3_躯体と製品
  6
CONTINUOUS
 62
    4
 10
531.30099726556546
 20
416.77205986592344
 11
533.59999726556453
 21
416.77205986592344
  0
LINE
  8
_0-3_躯体と製品
  6
CONTINUOUS
 62
    4
 10
531.19999726553942
 20
415.57205986592635
 11
534.09999726556271
 21
415.57205986592635
  0
LINE
  8
_0-3_躯体と製品
  6
CONTINUOUS
 62
    4
 10
531.30099726556546
 20
416.17205986592671
 11
533.59999726556453
 21
416.17205986592671
  0
LINE
  8
_0-3_躯体と製品
  6
CONTINUOUS
 62
    4
 10
531.19999726553942
 20
417.3720598659238
 11
538.20099726555782
 21
417.3720598659238
  0
LINE
  8
_0-3_躯体と製品
  6
CONTINUOUS
 62
    4
 10
538.09999726556453
 20
416.77205986592344
 11
535.80099726556546
 21
416.77205986592344
  0
LINE
  8
_0-3_躯体と製品
  6
CONTINUOUS
 62
    4
 10
530.70099726555782
 20
416.07205986592635
 11
530.70099726555782
 21
416.87305986592582
  0
ARC
  8
_0-3_躯体と製品
  6
CONTINUOUS
 62
    4
 10
533.59999726556453
 20
415.67305986592146
 40
0.4999999999999998
 50
0
 51
90.000002999880451
  0
ARC
  8
_0-3_躯体と製品
  6
CONTINUOUS
 62
    4
 10
535.80099726556546
 20
415.67305986592146
 40
1.099999999999999
 50
90.000002999880451
 51
180.00000600017779
  0
ARC
  8
_0-3_躯体と製品
  6
CONTINUOUS
 62
    4
 10
533.59999726556453
 20
415.67305986592146
 40
1.099999999999999
 50
0
 51
90.000002999880451
  0
ARC
  8
_0-3_躯体と製品
  6
CONTINUOUS
 62
    4
 10
535.80099726556546
 20
415.67305986592146
 40
0.4999999999999998
 50
90.000002999880451
 51
180.00000600017779
  0
ARC
  8
_0-3_躯体と製品
  6
CONTINUOUS
 62
    4
 10
531.19999726553942
 20
416.07205986592635
 40
0.4999999999999998
 50
180.00000600017779
 51
269.99999700011949
  0
ARC
  8
_0-3_躯体と製品
  6
CONTINUOUS
 62
    4
 10
531.19999726553942
 20
416.87305986592582
 40
0.4999999999999998
 50
90.000002999880451
 51
180.00000600017779
  0
ARC
  8
_0-3_躯体と製品
  6
CONTINUOUS
 62
    4
 10
538.20099726555782
 20
416.87305986592582
 40
0.4999999999999998
 50
0
 51
90.000002999880451
  0
ARC
  8
_0-3_躯体と製品
  6
CONTINUOUS
 62
    4
 10
538.20099726555782
 20
416.07205986592635
 40
0.4999999999999998
 50
269.99999700011949
 51
0
  0
LINE
  8
_0-3_躯体と製品
  6
CONTINUOUS
 62
    4
 10
535.29999726554524
 20
412.37305986592582
 11
550.09999726556453
 21
412.37305986592582
  0
LINE
  8
_0-3_躯体と製品
  6
CONTINUOUS
 62
    4
 10
535.29999726554524
 20
413.37205986592198
 11
550.09999726556453
 21
413.37205986592198
  0
ARC
  8
_0-3_躯体と製品
  6
CONTINUOUS
 62
    4
 10
550.69999726553942
 20
402.9720598659278
 40
0.5999999999999997
 50
180.00000600017779
 51
0
  0
ARC
  8
_0-3_躯体と製品
  6
CONTINUOUS
 62
    4
 10
534.69999726554124
 20
402.9720598659278
 40
0.5999999999999997
 50
180.00000600017779
 51
0
  0
LINE
  8
_0-3_躯体と製品
  6
CONTINUOUS
 62
    4
 10
535.29999726554524
 20
407.37205986592016
 11
550.09999726556453
 21
407.37205986592016
  0
LINE
  8
_0-3_躯体と製品
  6
CONTINUOUS
 62
    4
 10
535.29999726554524
 20
406.37305986592582
 11
550.09999726556453
 21
406.37305986592582
  0
LINE
  8
_0-3_躯体と製品
  6
CONTINUOUS
 62
    4
 10
550.69999726553942
 20
402.37205986592198
 11
550.69999726553942
 21
415.67305986592146
  0
LINE
  8
_0-3_躯体と製品
  6
CONTINUOUS
 62
    4
 10
550.09999726556453
 20
415.67305986592146
 11
550.09999726556453
 21
402.9720598659278
  0
LINE
  8
_0-3_躯体と製品
  6
CONTINUOUS
 62
    4
 10
551.29999726554706
 20
415.67305986592146
 11
551.29999726554706
 21
402.9720598659278
  0
LINE
  8
_0-3_躯体と製品
  6
CONTINUOUS
 62
    4
 10
535.29999726554524
 20
415.67305986592146
 11
535.29999726554524
 21
402.9720598659278
  0
LINE
  8
_0-3_躯体と製品
  6
CONTINUOUS
 62
    4
 10
534.69999726554124
 20
402.37205986592198
 11
534.69999726554124
 21
415.67305986592146
  0
LINE
  8
_0-3_躯体と製品
  6
CONTINUOUS
 62
    4
 10
534.09999726556271
 20
415.67305986592146
 11
534.09999726556271
 21
402.9720598659278
  0
LINE
  8
_0-3_躯体と製品
  6
CONTINUOUS
 62
    4
 10
554.10099726555563
 20
416.77205986592344
 11
554.10099726555563
 21
416.17205986592671
  0
LINE
  8
_0-3_躯体と製品
  6
CONTINUOUS
 62
    4
 10
554.70099726555964
 20
416.87305986592582
 11
554.70099726555964
 21
416.07205986592635
  0
ARC
  8
_0-3_躯体と製品
  6
CONTINUOUS
 62
    4
 10
554.19999726554124
 20
416.07205986592635
 40
0.4999999999999998
 50
269.99999700011949
 51
0
  0
ARC
  8
_0-3_躯体と製品
  6
CONTINUOUS
 62
    4
 10
554.19999726554124
 20
416.87305986592582
 40
0.4999999999999998
 50
0
 51
90.000002999880451
  0
LINE
  8
_0-3_躯体と製品
  6
CONTINUOUS
 62
    4
 10
499.20099726555782
 20
417.3720598659238
 11
506.19999726554124
 21
417.3720598659238
  0
LINE
  8
_0-3_躯体と製品
  6
CONTINUOUS
 62
    4
 10
503.29999726554524
 20
415.57205986592635
 11
506.19999726554124
 21
415.57205986592635
  0
ARC
  8
_0-3_躯体と製品
  6
CONTINUOUS
 62
    4
 10
503.79999726554524
 20
415.67305986592146
 40
0.4999999999999998
 50
90.000002999880451
 51
180.00000600017779
  0
ARC
  8
_0-3_躯体と製品
  6
CONTINUOUS
 62
    4
 10
503.79999726554524
 20
415.67305986592146
 40
1.099999999999999
 50
90.000002999880451
 51
180.00000600017779
  0
LINE
  8
_0-3_躯体と製品
  6
CONTINUOUS
 62
    4
 10
503.29999726554524
 20
413.37205986592198
 11
518.10099726555381
 21
413.37205986592198
  0
LINE
  8
_0-3_躯体と製品
  6
CONTINUOUS
 62
    4
 10
503.29999726554524
 20
412.37305986592582
 11
518.10099726555381
 21
412.37305986592582
  0
LINE
  8
_0-3_躯体と製品
  6
CONTINUOUS
 62
    4
 10
503.29999726554524
 20
406.37305986592582
 11
518.10099726555381
 21
406.37305986592582
  0
LINE
  8
_0-3_躯体と製品
  6
CONTINUOUS
 62
    4
 10
503.29999726554524
 20
407.37205986592016
 11
518.10099726555381
 21
407.37205986592016
  0
LINE
  8
_0-3_躯体と製品
  6
CONTINUOUS
 62
    4
 10
499.29999726554524
 20
416.77205986592344
 11
499.29999726554524
 21
416.17205986592671
  0
LINE
  8
_0-3_躯体と製品
  6
CONTINUOUS
 62
    4
 10
499.29999726554524
 20
416.77205986592344
 11
501.60099726555563
 21
416.77205986592344
  0
LINE
  8
_0-3_躯体と製品
  6
CONTINUOUS
 62
    4
 10
498.69999726554306
 20
416.07205986592635
 11
498.69999726554306
 21
416.87305986592582
  0
LINE
  8
_0-3_躯体と製品
  6
CONTINUOUS
 62
    4
 10
499.29999726554524
 20
416.17205986592671
 11
501.60099726555563
 21
416.17205986592671
  0
LINE
  8
_0-3_躯体と製品
  6
CONTINUOUS
 62
    4
 10
499.20099726555782
 20
415.57205986592635
 11
502.09999726556453
 21
415.57205986592635
  0
ARC
  8
_0-3_躯体と製品
  6
CONTINUOUS
 62
    4
 10
499.20099726555782
 20
416.87305986592582
 40
0.4999999999999998
 50
90.000002999880451
 51
180.00000600017779
  0
ARC
  8
_0-3_躯体と製品
  6
CONTINUOUS
 62
    4
 10
499.20099726555782
 20
416.07205986592635
 40
0.4999999999999998
 50
180.00000600017779
 51
269.99999700011949
  0
ARC
  8
_0-3_躯体と製品
  6
CONTINUOUS
 62
    4
 10
501.60099726555563
 20
415.67305986592146
 40
0.4999999999999998
 50
0
 51
90.000002999880451
  0
ARC
  8
_0-3_躯体と製品
  6
CONTINUOUS
 62
    4
 10
501.60099726555563
 20
415.67305986592146
 40
1.099999999999999
 50
0
 51
90.000002999880451
  0
ARC
  8
_0-3_躯体と製品
  6
CONTINUOUS
 62
    4
 10
502.69999726553942
 20
402.9720598659278
 40
0.5999999999999997
 50
180.00000600017779
 51
0
  0
LINE
  8
_0-3_躯体と製品
  6
CONTINUOUS
 62
    4
 10
503.29999726554524
 20
415.67305986592146
 11
503.29999726554524
 21
402.9720598659278
  0
LINE
  8
_0-3_躯体と製品
  6
CONTINUOUS
 62
    4
 10
502.69999726553942
 20
402.37205986592198
 11
502.69999726553942
 21
415.67305986592146
  0
LINE
  8
_0-3_躯体と製品
  6
CONTINUOUS
 62
    4
 10
502.09999726556453
 20
415.67305986592146
 11
502.09999726556453
 21
402.9720598659278
  0
LINE
  8
_0-3_躯体と製品
  6
CONTINUOUS
 62
    4
 10
522.09999726556271
 20
416.77205986592344
 11
522.09999726556271
 21
416.17205986592671
  0
LINE
  8
_0-3_躯体と製品
  6
CONTINUOUS
 62
    4
 10
514.69999726554124
 20
416.07205986592635
 11
514.69999726554124
 21
416.87305986592582
  0
LINE
  8
_0-3_躯体と製品
  6
CONTINUOUS
 62
    4
 10
522.09999726556271
 20
416.77205986592344
 11
519.79999726554706
 21
416.77205986592344
  0
LINE
  8
_0-3_躯体と製品
  6
CONTINUOUS
 62
    4
 10
515.29999726554706
 20
416.77205986592344
 11
517.59999726556271
 21
416.77205986592344
  0
LINE
  8
_0-3_躯体と製品
  6
CONTINUOUS
 62
    4
 10
515.19999726554124
 20
415.57205986592635
 11
518.10099726555381
 21
415.57205986592635
  0
LINE
  8
_0-3_躯体と製品
  6
CONTINUOUS
 62
    4
 10
515.29999726554706
 20
416.77205986592344
 11
515.29999726554706
 21
416.17205986592671
  0
LINE
  8
_0-3_躯体と製品
  6
CONTINUOUS
 62
    4
 10
522.09999726556271
 20
416.17205986592671
 11
519.79999726554706
 21
416.17205986592671
  0
LINE
  8
_0-3_躯体と製品
  6
CONTINUOUS
 62
    4
 10
515.29999726554706
 20
416.17205986592671
 11
517.59999726556271
 21
416.17205986592671
  0
ARC
  8
_0-3_躯体と製品
  6
CONTINUOUS
 62
    4
 10
515.19999726554124
 20
416.87305986592582
 40
0.4999999999999998
 50
90.000002999880451
 51
180.00000600017779
  0
ARC
  8
_0-3_躯体と製品
  6
CONTINUOUS
 62
    4
 10
519.79999726554706
 20
415.67305986592146
 40
0.4999999999999998
 50
90.000002999880451
 51
180.00000600017779
  0
ARC
  8
_0-3_躯体と製品
  6
CONTINUOUS
 62
    4
 10
517.59999726556271
 20
415.67305986592146
 40
0.4999999999999998
 50
0
 51
90.000002999880451
  0
ARC
  8
_0-3_躯体と製品
  6
CONTINUOUS
 62
    4
 10
519.79999726554706
 20
415.67305986592146
 40
1.099999999999999
 50
90.000002999880451
 51
180.00000600017779
  0
ARC
  8
_0-3_躯体と製品
  6
CONTINUOUS
 62
    4
 10
517.59999726556271
 20
415.67305986592146
 40
1.099999999999999
 50
0
 51
90.000002999880451
  0
ARC
  8
_0-3_躯体と製品
  6
CONTINUOUS
 62
    4
 10
515.19999726554124
 20
416.07205986592635
 40
0.4999999999999998
 50
180.00000600017779
 51
269.99999700011949
  0
LINE
  8
_0-3_躯体と製品
  6
CONTINUOUS
 62
    4
 10
506.70099726555782
 20
416.87305986592582
 11
506.70099726555782
 21
416.07205986592635
  0
LINE
  8
_0-3_躯体と製品
  6
CONTINUOUS
 62
    4
 10
506.10099726555381
 20
416.77205986592344
 11
506.10099726555381
 21
416.17205986592671
  0
LINE
  8
_0-3_躯体と製品
  6
CONTINUOUS
 62
    4
 10
506.10099726555381
 20
416.77205986592344
 11
503.79999726554524
 21
416.77205986592344
  0
LINE
  8
_0-3_躯体と製品
  6
CONTINUOUS
 62
    4
 10
506.10099726555381
 20
416.17205986592671
 11
503.79999726554524
 21
416.17205986592671
  0
ARC
  8
_0-3_躯体と製品
  6
CONTINUOUS
 62
    4
 10
506.19999726554124
 20
416.07205986592635
 40
0.4999999999999998
 50
269.99999700011949
 51
0
  0
ARC
  8
_0-3_躯体と製品
  6
CONTINUOUS
 62
    4
 10
506.19999726554124
 20
416.87305986592582
 40
0.4999999999999998
 50
0
 51
90.000002999880451
  0
ARC
  8
_0-3_躯体と製品
  6
CONTINUOUS
 62
    4
 10
518.70099726555782
 20
402.9720598659278
 40
0.5999999999999997
 50
180.00000600017779
 51
0
  0
LINE
  8
_0-3_躯体と製品
  6
CONTINUOUS
 62
    4
 10
518.70099726555782
 20
402.37205986592198
 11
518.70099726555782
 21
415.67305986592146
  0
LINE
  8
_0-3_躯体と製品
  6
CONTINUOUS
 62
    4
 10
518.10099726555381
 20
415.67305986592146
 11
518.10099726555381
 21
402.9720598659278
  0
LINE
  8
_0-3_躯体と製品
  6
CONTINUOUS
 62
    4
 10
519.30099726556546
 20
415.67305986592146
 11
519.30099726556546
 21
402.9720598659278
  0
LINE
  8
_0-3_躯体と製品
  6
CONTINUOUS
 62
    4
 10
519.30099726556546
 20
413.37205986592198
 11
534.09999726556271
 21
413.37205986592198
  0
LINE
  8
_0-3_躯体と製品
  6
CONTINUOUS
 62
    4
 10
519.30099726556546
 20
412.37305986592582
 11
534.09999726556271
 21
412.37305986592582
  0
LINE
  8
_0-3_躯体と製品
  6
CONTINUOUS
 62
    4
 10
519.30099726556546
 20
406.37305986592582
 11
534.09999726556271
 21
406.37305986592582
  0
LINE
  8
_0-3_躯体と製品
  6
CONTINUOUS
 62
    4
 10
519.30099726556546
 20
407.37205986592016
 11
534.09999726556271
 21
407.37205986592016
  0
LINE
  8
_0-3_躯体と製品
  6
CONTINUOUS
 62
    4
 10
519.30099726556546
 20
415.57205986592635
 11
522.19999726553942
 21
415.57205986592635
  0
LINE
  8
_0-3_躯体と製品
  6
CONTINUOUS
 62
    4
 10
515.19999726554124
 20
417.3720598659238
 11
522.19999726553942
 21
417.3720598659238
  0
LINE
  8
_0-3_躯体と製品
  6
CONTINUOUS
 62
    4
 10
631.29949726553969
 20
407.37205986592016
 11
646.10049726554644
 21
407.37205986592016
  0
LINE
  8
_0-3_躯体と製品
  6
CONTINUOUS
 62
    4
 10
631.29949726553969
 20
406.37305986592582
 11
646.10049726554644
 21
406.37305986592582
  0
LINE
  8
_0-3_躯体と製品
  6
CONTINUOUS
 62
    4
 10
631.29949726553969
 20
412.37305986592582
 11
646.10049726554644
 21
412.37305986592582
  0
LINE
  8
_0-3_躯体と製品
  6
CONTINUOUS
 62
    4
 10
631.29949726553969
 20
413.37205986592198
 11
646.10049726554644
 21
413.37205986592198
  0
LINE
  8
_0-3_躯体と製品
  6
CONTINUOUS
 62
    4
 10
650.09949726555533
 20
416.17205986592671
 11
647.79949726553605
 21
416.17205986592671
  0
LINE
  8
_0-3_躯体と製品
  6
CONTINUOUS
 62
    4
 10
650.09949726555533
 20
416.77205986592344
 11
647.79949726553605
 21
416.77205986592344
  0
LINE
  8
_0-3_躯体と製品
  6
CONTINUOUS
 62
    4
 10
647.30049726555626
 20
415.57205986592635
 11
650.19949726553023
 21
415.57205986592635
  0
LINE
  8
_0-3_躯体と製品
  6
CONTINUOUS
 62
    4
 10
650.09949726555533
 20
416.77205986592344
 11
650.09949726555533
 21
416.17205986592671
  0
LINE
  8
_0-3_躯体と製品
  6
CONTINUOUS
 62
    4
 10
650.69949726553205
 20
416.87305986592582
 11
650.69949726553205
 21
416.07205986592635
  0
ARC
  8
_0-3_躯体と製品
  6
CONTINUOUS
 62
    4
 10
647.79949726553605
 20
415.67305986592146
 40
0.4999999999999998
 50
90.000002999880451
 51
180.00000600017779
  0
ARC
  8
_0-3_躯体と製品
  6
CONTINUOUS
 62
    4
 10
650.19949726553023
 20
416.87305986592582
 40
0.4999999999999998
 50
0
 51
90.000002999880451
  0
ARC
  8
_0-3_躯体と製品
  6
CONTINUOUS
 62
    4
 10
650.19949726553023
 20
416.07205986592635
 40
0.4999999999999998
 50
269.99999700011949
 51
0
  0
ARC
  8
_0-3_躯体と製品
  6
CONTINUOUS
 62
    4
 10
645.59949726555533
 20
415.67305986592146
 40
0.4999999999999998
 50
0
 51
90.000002999880451
  0
ARC
  8
_0-3_躯体と製品
  6
CONTINUOUS
 62
    4
 10
647.79949726553605
 20
415.67305986592146
 40
1.099999999999999
 50
90.000002999880451
 51
180.00000600017779
  0
ARC
  8
_0-3_躯体と製品
  6
CONTINUOUS
 62
    4
 10
645.59949726555533
 20
415.67305986592146
 40
1.099999999999999
 50
0
 51
90.000002999880451
  0
LINE
  8
_0-3_躯体と製品
  6
CONTINUOUS
 62
    4
 10
642.69949726553023
 20
416.07205986592635
 11
642.69949726553023
 21
416.87305986592582
  0
LINE
  8
_0-3_躯体と製品
  6
CONTINUOUS
 62
    4
 10
643.29949726553969
 20
416.77205986592344
 11
643.29949726553969
 21
416.17205986592671
  0
ARC
  8
_0-3_躯体と製品
  6
CONTINUOUS
 62
    4
 10
643.19949726553205
 20
416.87305986592582
 40
0.4999999999999998
 50
90.000002999880451
 51
180.00000600017779
  0
ARC
  8
_0-3_躯体と製品
  6
CONTINUOUS
 62
    4
 10
643.19949726553205
 20
416.07205986592635
 40
0.4999999999999998
 50
180.00000600017779
 51
269.99999700011949
  0
LINE
  8
_0-3_躯体と製品
  6
CONTINUOUS
 62
    4
 10
643.19949726553205
 20
417.3720598659238
 11
650.19949726553023
 21
417.3720598659238
  0
LINE
  8
_0-3_躯体と製品
  6
CONTINUOUS
 62
    4
 10
643.29949726553969
 20
416.77205986592344
 11
645.59949726555533
 21
416.77205986592344
  0
LINE
  8
_0-3_躯体と製品
  6
CONTINUOUS
 62
    4
 10
643.29949726553969
 20
416.17205986592671
 11
645.59949726555533
 21
416.17205986592671
  0
LINE
  8
_0-3_躯体と製品
  6
CONTINUOUS
 62
    4
 10
643.19949726553205
 20
415.57205986592635
 11
646.10049726554644
 21
415.57205986592635
  0
ARC
  8
_0-3_躯体と製品
  6
CONTINUOUS
 62
    4
 10
646.70049726554862
 20
402.9720598659278
 40
0.5999999999999997
 50
180.00000600017779
 51
0
  0
LINE
  8
_0-3_躯体と製品
  6
CONTINUOUS
 62
    4
 10
646.70049726554862
 20
402.37205986592198
 11
646.70049726554862
 21
415.67305986592146
  0
LINE
  8
_0-3_躯体と製品
  6
CONTINUOUS
 62
    4
 10
646.10049726554644
 20
415.67305986592146
 11
646.10049726554644
 21
402.9720598659278
  0
LINE
  8
_0-3_躯体と製品
  6
CONTINUOUS
 62
    4
 10
647.30049726555626
 20
415.67305986592146
 11
647.30049726555626
 21
402.9720598659278
  0
LINE
  8
_0-3_躯体と製品
  6
CONTINUOUS
 62
    4
 10
567.29949726553605
 20
406.37305986592582
 11
582.09949726555533
 21
406.37305986592582
  0
LINE
  8
_0-3_躯体と製品
  6
CONTINUOUS
 62
    4
 10
567.29949726553605
 20
407.37205986592016
 11
582.09949726555533
 21
407.37205986592016
  0
LINE
  8
_0-3_躯体と製品
  6
CONTINUOUS
 62
    4
 10
567.29949726553605
 20
413.37205986592198
 11
582.09949726555533
 21
413.37205986592198
  0
LINE
  8
_0-3_躯体と製品
  6
CONTINUOUS
 62
    4
 10
567.29949726553605
 20
412.37305986592582
 11
582.09949726555533
 21
412.37305986592582
  0
LINE
  8
_0-3_躯体と製品
  6
CONTINUOUS
 62
    4
 10
631.29949726553969
 20
415.57205986592635
 11
634.19949726553205
 21
415.57205986592635
  0
LINE
  8
_0-3_躯体と製品
  6
CONTINUOUS
 62
    4
 10
627.20049726554862
 20
417.3720598659238
 11
634.19949726553205
 21
417.3720598659238
  0
LINE
  8
_0-3_躯体と製品
  6
CONTINUOUS
 62
    4
 10
634.10049726554462
 20
416.77205986592344
 11
631.79949726553605
 21
416.77205986592344
  0
LINE
  8
_0-3_躯体と製品
  6
CONTINUOUS
 62
    4
 10
634.10049726554462
 20
416.17205986592671
 11
631.79949726553605
 21
416.17205986592671
  0
LINE
  8
_0-3_躯体と製品
  6
CONTINUOUS
 62
    4
 10
602.69949726553205
 20
416.87305986592582
 11
602.69949726553205
 21
416.07205986592635
  0
ARC
  8
_0-3_躯体と製品
  6
CONTINUOUS
 62
    4
 10
602.19949726553023
 20
416.07205986592635
 40
0.4999999999999998
 50
269.99999700011949
 51
0
  0
ARC
  8
_0-3_躯体と製品
  6
CONTINUOUS
 62
    4
 10
602.19949726553023
 20
416.87305986592582
 40
0.4999999999999998
 50
0
 51
90.000002999880451
  0
ARC
  8
_0-3_躯体と製品
  6
CONTINUOUS
 62
    4
 10
631.79949726553605
 20
415.67305986592146
 40
0.4999999999999998
 50
90.000002999880451
 51
180.00000600017779
  0
ARC
  8
_0-3_躯体と製品
  6
CONTINUOUS
 62
    4
 10
631.79949726553605
 20
415.67305986592146
 40
1.099999999999999
 50
90.000002999880451
 51
180.00000600017779
  0
LINE
  8
_0-3_躯体と製品
  6
CONTINUOUS
 62
    4
 10
627.29949726553605
 20
416.77205986592344
 11
627.29949726553605
 21
416.17205986592671
  0
LINE
  8
_0-3_躯体と製品
  6
CONTINUOUS
 62
    4
 10
626.69949726553205
 20
416.07205986592635
 11
626.69949726553205
 21
416.87305986592582
  0
LINE
  8
_0-3_躯体と製品
  6
CONTINUOUS
 62
    4
 10
627.20049726554862
 20
415.57205986592635
 11
630.09949726555533
 21
415.57205986592635
  0
LINE
  8
_0-3_躯体と製品
  6
CONTINUOUS
 62
    4
 10
627.29949726553605
 20
416.77205986592344
 11
629.60049726554462
 21
416.77205986592344
  0
LINE
  8
_0-3_躯体と製品
  6
CONTINUOUS
 62
    4
 10
627.29949726553605
 20
416.17205986592671
 11
629.60049726554462
 21
416.17205986592671
  0
ARC
  8
_0-3_躯体と製品
  6
CONTINUOUS
 62
    4
 10
627.20049726554862
 20
416.87305986592582
 40
0.4999999999999998
 50
90.000002999880451
 51
180.00000600017779
  0
ARC
  8
_0-3_躯体と製品
  6
CONTINUOUS
 62
    4
 10
627.20049726554862
 20
416.07205986592635
 40
0.4999999999999998
 50
180.00000600017779
 51
269.99999700011949
  0
ARC
  8
_0-3_躯体と製品
  6
CONTINUOUS
 62
    4
 10
629.60049726554462
 20
415.67305986592146
 40
0.4999999999999998
 50
0
 51
90.000002999880451
  0
ARC
  8
_0-3_躯体と製品
  6
CONTINUOUS
 62
    4
 10
629.60049726554462
 20
415.67305986592146
 40
1.099999999999999
 50
0
 51
90.000002999880451
  0
LINE
  8
_0-3_躯体と製品
  6
CONTINUOUS
 62
    4
 10
618.69949726553023
 20
416.87305986592582
 11
618.69949726553023
 21
416.07205986592635
  0
LINE
  8
_0-3_躯体と製品
  6
CONTINUOUS
 62
    4
 10
618.09949726555715
 20
416.17205986592671
 11
615.80049726555808
 21
416.17205986592671
  0
LINE
  8
_0-3_躯体と製品
  6
CONTINUOUS
 62
    4
 10
618.09949726555715
 20
416.77205986592344
 11
618.09949726555715
 21
416.17205986592671
  0
LINE
  8
_0-3_躯体と製品
  6
CONTINUOUS
 62
    4
 10
615.29949726553605
 20
415.57205986592635
 11
618.20049726554862
 21
415.57205986592635
  0
LINE
  8
_0-3_躯体と製品
  6
CONTINUOUS
 62
    4
 10
611.30049726555808
 20
416.77205986592344
 11
611.30049726555808
 21
416.17205986592671
  0
LINE
  8
_0-3_躯体と製品
  6
CONTINUOUS
 62
    4
 10
611.30049726555808
 20
416.77205986592344
 11
613.59949726555715
 21
416.77205986592344
  0
LINE
  8
_0-3_躯体と製品
  6
CONTINUOUS
 62
    4
 10
611.19949726553023
 20
415.57205986592635
 11
614.09949726555351
 21
415.57205986592635
  0
LINE
  8
_0-3_躯体と製品
  6
CONTINUOUS
 62
    4
 10
611.30049726555808
 20
416.17205986592671
 11
613.59949726555715
 21
416.17205986592671
  0
LINE
  8
_0-3_躯体と製品
  6
CONTINUOUS
 62
    4
 10
611.19949726553023
 20
417.3720598659238
 11
618.20049726554862
 21
417.3720598659238
  0
LINE
  8
_0-3_躯体と製品
  6
CONTINUOUS
 62
    4
 10
618.09949726555715
 20
416.77205986592344
 11
615.80049726555808
 21
416.77205986592344
  0
LINE
  8
_0-3_躯体と製品
  6
CONTINUOUS
 62
    4
 10
610.70049726554862
 20
416.07205986592635
 11
610.70049726554862
 21
416.87305986592582
  0
ARC
  8
_0-3_躯体と製品
  6
CONTINUOUS
 62
    4
 10
613.59949726555715
 20
415.67305986592146
 40
0.4999999999999998
 50
0
 51
90.000002999880451
  0
ARC
  8
_0-3_躯体と製品
  6
CONTINUOUS
 62
    4
 10
615.80049726555808
 20
415.67305986592146
 40
1.099999999999999
 50
90.000002999880451
 51
180.00000600017779
  0
ARC
  8
_0-3_躯体と製品
  6
CONTINUOUS
 62
    4
 10
613.59949726555715
 20
415.67305986592146
 40
1.099999999999999
 50
0
 51
90.000002999880451
  0
ARC
  8
_0-3_躯体と製品
  6
CONTINUOUS
 62
    4
 10
615.80049726555808
 20
415.67305986592146
 40
0.4999999999999998
 50
90.000002999880451
 51
180.00000600017779
  0
ARC
  8
_0-3_躯体と製品
  6
CONTINUOUS
 62
    4
 10
611.19949726553023
 20
416.07205986592635
 40
0.4999999999999998
 50
180.00000600017779
 51
269.99999700011949
  0
ARC
  8
_0-3_躯体と製品
  6
CONTINUOUS
 62
    4
 10
611.19949726553023
 20
416.87305986592582
 40
0.4999999999999998
 50
90.000002999880451
 51
180.00000600017779
  0
ARC
  8
_0-3_躯体と製品
  6
CONTINUOUS
 62
    4
 10
618.20049726554862
 20
416.87305986592582
 40
0.4999999999999998
 50
0
 51
90.000002999880451
  0
ARC
  8
_0-3_躯体と製品
  6
CONTINUOUS
 62
    4
 10
618.20049726554862
 20
416.07205986592635
 40
0.4999999999999998
 50
269.99999700011949
 51
0
  0
LINE
  8
_0-3_躯体と製品
  6
CONTINUOUS
 62
    4
 10
615.29949726553605
 20
412.37305986592582
 11
630.09949726555533
 21
412.37305986592582
  0
LINE
  8
_0-3_躯体と製品
  6
CONTINUOUS
 62
    4
 10
615.29949726553605
 20
413.37205986592198
 11
630.09949726555533
 21
413.37205986592198
  0
ARC
  8
_0-3_躯体と製品
  6
CONTINUOUS
 62
    4
 10
630.69949726553023
 20
402.9720598659278
 40
0.5999999999999997
 50
180.00000600017779
 51
0
  0
ARC
  8
_0-3_躯体と製品
  6
CONTINUOUS
 62
    4
 10
614.69949726553205
 20
402.9720598659278
 40
0.5999999999999997
 50
180.00000600017779
 51
0
  0
LINE
  8
_0-3_躯体と製品
  6
CONTINUOUS
 62
    4
 10
615.29949726553605
 20
407.37205986592016
 11
630.09949726555533
 21
407.37205986592016
  0
LINE
  8
_0-3_躯体と製品
  6
CONTINUOUS
 62
    4
 10
615.29949726553605
 20
406.37305986592582
 11
630.09949726555533
 21
406.37305986592582
  0
LINE
  8
_0-3_躯体と製品
  6
CONTINUOUS
 62
    4
 10
630.69949726553023
 20
402.37205986592198
 11
630.69949726553023
 21
415.67305986592146
  0
LINE
  8
_0-3_躯体と製品
  6
CONTINUOUS
 62
    4
 10
630.09949726555533
 20
415.67305986592146
 11
630.09949726555533
 21
402.9720598659278
  0
LINE
  8
_0-3_躯体と製品
  6
CONTINUOUS
 62
    4
 10
631.29949726553969
 20
415.67305986592146
 11
631.29949726553969
 21
402.9720598659278
  0
LINE
  8
_0-3_躯体と製品
  6
CONTINUOUS
 62
    4
 10
615.29949726553605
 20
415.67305986592146
 11
615.29949726553605
 21
402.9720598659278
  0
LINE
  8
_0-3_躯体と製品
  6
CONTINUOUS
 62
    4
 10
614.69949726553205
 20
402.37205986592198
 11
614.69949726553205
 21
415.67305986592146
  0
LINE
  8
_0-3_躯体と製品
  6
CONTINUOUS
 62
    4
 10
614.09949726555351
 20
415.67305986592146
 11
614.09949726555351
 21
402.9720598659278
  0
LINE
  8
_0-3_躯体と製品
  6
CONTINUOUS
 62
    4
 10
634.10049726554462
 20
416.77205986592344
 11
634.10049726554462
 21
416.17205986592671
  0
LINE
  8
_0-3_躯体と製品
  6
CONTINUOUS
 62
    4
 10
634.70049726554862
 20
416.87305986592582
 11
634.70049726554862
 21
416.07205986592635
  0
ARC
  8
_0-3_躯体と製品
  6
CONTINUOUS
 62
    4
 10
634.19949726553205
 20
416.07205986592635
 40
0.4999999999999998
 50
269.99999700011949
 51
0
  0
ARC
  8
_0-3_躯体と製品
  6
CONTINUOUS
 62
    4
 10
634.19949726553205
 20
416.87305986592582
 40
0.4999999999999998
 50
0
 51
90.000002999880451
  0
LINE
  8
_0-3_躯体と製品
  6
CONTINUOUS
 62
    4
 10
579.20049726554862
 20
417.3720598659238
 11
586.19949726553205
 21
417.3720598659238
  0
LINE
  8
_0-3_躯体と製品
  6
CONTINUOUS
 62
    4
 10
583.29949726553969
 20
415.57205986592635
 11
586.19949726553205
 21
415.57205986592635
  0
ARC
  8
_0-3_躯体と製品
  6
CONTINUOUS
 62
    4
 10
583.79949726553605
 20
415.67305986592146
 40
0.4999999999999998
 50
90.000002999880451
 51
180.00000600017779
  0
ARC
  8
_0-3_躯体と製品
  6
CONTINUOUS
 62
    4
 10
583.79949726553605
 20
415.67305986592146
 40
1.099999999999999
 50
90.000002999880451
 51
180.00000600017779
  0
LINE
  8
_0-3_躯体と製品
  6
CONTINUOUS
 62
    4
 10
583.29949726553969
 20
413.37205986592198
 11
598.10049726554644
 21
413.37205986592198
  0
LINE
  8
_0-3_躯体と製品
  6
CONTINUOUS
 62
    4
 10
583.29949726553969
 20
412.37305986592582
 11
598.10049726554644
 21
412.37305986592582
  0
LINE
  8
_0-3_躯体と製品
  6
CONTINUOUS
 62
    4
 10
583.29949726553969
 20
406.37305986592582
 11
598.10049726554644
 21
406.37305986592582
  0
LINE
  8
_0-3_躯体と製品
  6
CONTINUOUS
 62
    4
 10
583.29949726553969
 20
407.37205986592016
 11
598.10049726554644
 21
407.37205986592016
  0
LINE
  8
_0-3_躯体と製品
  6
CONTINUOUS
 62
    4
 10
579.29949726553423
 20
416.77205986592344
 11
579.29949726553423
 21
416.17205986592671
  0
LINE
  8
_0-3_躯体と製品
  6
CONTINUOUS
 62
    4
 10
579.29949726553423
 20
416.77205986592344
 11
581.60049726554462
 21
416.77205986592344
  0
LINE
  8
_0-3_躯体と製品
  6
CONTINUOUS
 62
    4
 10
578.69949726553205
 20
416.07205986592635
 11
578.69949726553205
 21
416.87305986592582
  0
LINE
  8
_0-3_躯体と製品
  6
CONTINUOUS
 62
    4
 10
579.29949726553423
 20
416.17205986592671
 11
581.60049726554462
 21
416.17205986592671
  0
LINE
  8
_0-3_躯体と製品
  6
CONTINUOUS
 62
    4
 10
579.20049726554862
 20
415.57205986592635
 11
582.09949726555533
 21
415.57205986592635
  0
ARC
  8
_0-3_躯体と製品
  6
CONTINUOUS
 62
    4
 10
579.20049726554862
 20
416.87305986592582
 40
0.4999999999999998
 50
90.000002999880451
 51
180.00000600017779
  0
ARC
  8
_0-3_躯体と製品
  6
CONTINUOUS
 62
    4
 10
579.20049726554862
 20
416.07205986592635
 40
0.4999999999999998
 50
180.00000600017779
 51
269.99999700011949
  0
ARC
  8
_0-3_躯体と製品
  6
CONTINUOUS
 62
    4
 10
581.60049726554462
 20
415.67305986592146
 40
0.4999999999999998
 50
0
 51
90.000002999880451
  0
ARC
  8
_0-3_躯体と製品
  6
CONTINUOUS
 62
    4
 10
581.60049726554462
 20
415.67305986592146
 40
1.099999999999999
 50
0
 51
90.000002999880451
  0
ARC
  8
_0-3_躯体と製品
  6
CONTINUOUS
 62
    4
 10
582.69949726553023
 20
402.9720598659278
 40
0.5999999999999997
 50
180.00000600017779
 51
0
  0
LINE
  8
_0-3_躯体と製品
  6
CONTINUOUS
 62
    4
 10
583.29949726553969
 20
415.67305986592146
 11
583.29949726553969
 21
402.9720598659278
  0
LINE
  8
_0-3_躯体と製品
  6
CONTINUOUS
 62
    4
 10
582.69949726553023
 20
402.37205986592198
 11
582.69949726553023
 21
415.67305986592146
  0
LINE
  8
_0-3_躯体と製品
  6
CONTINUOUS
 62
    4
 10
582.09949726555533
 20
415.67305986592146
 11
582.09949726555533
 21
402.9720598659278
  0
LINE
  8
_0-3_躯体と製品
  6
CONTINUOUS
 62
    4
 10
602.09949726555351
 20
416.77205986592344
 11
602.09949726555351
 21
416.17205986592671
  0
LINE
  8
_0-3_躯体と製品
  6
CONTINUOUS
 62
    4
 10
594.69949726553023
 20
416.07205986592635
 11
594.69949726553023
 21
416.87305986592582
  0
LINE
  8
_0-3_躯体と製品
  6
CONTINUOUS
 62
    4
 10
602.09949726555351
 20
416.77205986592344
 11
599.79949726553969
 21
416.77205986592344
  0
LINE
  8
_0-3_躯体と製品
  6
CONTINUOUS
 62
    4
 10
595.29949726553969
 20
416.77205986592344
 11
597.59949726555351
 21
416.77205986592344
  0
LINE
  8
_0-3_躯体と製品
  6
CONTINUOUS
 62
    4
 10
595.19949726553205
 20
415.57205986592635
 11
598.10049726554644
 21
415.57205986592635
  0
LINE
  8
_0-3_躯体と製品
  6
CONTINUOUS
 62
    4
 10
595.29949726553969
 20
416.77205986592344
 11
595.29949726553969
 21
416.17205986592671
  0
LINE
  8
_0-3_躯体と製品
  6
CONTINUOUS
 62
    4
 10
602.09949726555351
 20
416.17205986592671
 11
599.79949726553969
 21
416.17205986592671
  0
LINE
  8
_0-3_躯体と製品
  6
CONTINUOUS
 62
    4
 10
595.29949726553969
 20
416.17205986592671
 11
597.59949726555351
 21
416.17205986592671
  0
ARC
  8
_0-3_躯体と製品
  6
CONTINUOUS
 62
    4
 10
595.19949726553205
 20
416.87305986592582
 40
0.4999999999999998
 50
90.000002999880451
 51
180.00000600017779
  0
ARC
  8
_0-3_躯体と製品
  6
CONTINUOUS
 62
    4
 10
599.79949726553969
 20
415.67305986592146
 40
0.4999999999999998
 50
90.000002999880451
 51
180.00000600017779
  0
ARC
  8
_0-3_躯体と製品
  6
CONTINUOUS
 62
    4
 10
597.59949726555351
 20
415.67305986592146
 40
0.4999999999999998
 50
0
 51
90.000002999880451
  0
ARC
  8
_0-3_躯体と製品
  6
CONTINUOUS
 62
    4
 10
599.79949726553969
 20
415.67305986592146
 40
1.099999999999999
 50
90.000002999880451
 51
180.00000600017779
  0
ARC
  8
_0-3_躯体と製品
  6
CONTINUOUS
 62
    4
 10
597.59949726555351
 20
415.67305986592146
 40
1.099999999999999
 50
0
 51
90.000002999880451
  0
ARC
  8
_0-3_躯体と製品
  6
CONTINUOUS
 62
    4
 10
595.19949726553205
 20
416.07205986592635
 40
0.4999999999999998
 50
180.00000600017779
 51
269.99999700011949
  0
LINE
  8
_0-3_躯体と製品
  6
CONTINUOUS
 62
    4
 10
586.70049726554862
 20
416.87305986592582
 11
586.70049726554862
 21
416.07205986592635
  0
LINE
  8
_0-3_躯体と製品
  6
CONTINUOUS
 62
    4
 10
586.10049726554462
 20
416.77205986592344
 11
586.10049726554462
 21
416.17205986592671
  0
LINE
  8
_0-3_躯体と製品
  6
CONTINUOUS
 62
    4
 10
586.10049726554462
 20
416.77205986592344
 11
583.79949726553605
 21
416.77205986592344
  0
LINE
  8
_0-3_躯体と製品
  6
CONTINUOUS
 62
    4
 10
586.10049726554462
 20
416.17205986592671
 11
583.79949726553605
 21
416.17205986592671
  0
ARC
  8
_0-3_躯体と製品
  6
CONTINUOUS
 62
    4
 10
586.19949726553205
 20
416.07205986592635
 40
0.4999999999999998
 50
269.99999700011949
 51
0
  0
ARC
  8
_0-3_躯体と製品
  6
CONTINUOUS
 62
    4
 10
586.19949726553205
 20
416.87305986592582
 40
0.4999999999999998
 50
0
 51
90.000002999880451
  0
ARC
  8
_0-3_躯体と製品
  6
CONTINUOUS
 62
    4
 10
598.70049726555044
 20
402.9720598659278
 40
0.5999999999999997
 50
180.00000600017779
 51
0
  0
LINE
  8
_0-3_躯体と製品
  6
CONTINUOUS
 62
    4
 10
598.70049726555044
 20
402.37205986592198
 11
598.70049726555044
 21
415.67305986592146
  0
LINE
  8
_0-3_躯体と製品
  6
CONTINUOUS
 62
    4
 10
598.10049726554644
 20
415.67305986592146
 11
598.10049726554644
 21
402.9720598659278
  0
LINE
  8
_0-3_躯体と製品
  6
CONTINUOUS
 62
    4
 10
599.30049726555626
 20
415.67305986592146
 11
599.30049726555626
 21
402.9720598659278
  0
LINE
  8
_0-3_躯体と製品
  6
CONTINUOUS
 62
    4
 10
599.30049726555626
 20
413.37205986592198
 11
614.09949726555351
 21
413.37205986592198
  0
LINE
  8
_0-3_躯体と製品
  6
CONTINUOUS
 62
    4
 10
599.30049726555626
 20
412.37305986592582
 11
614.09949726555351
 21
412.37305986592582
  0
LINE
  8
_0-3_躯体と製品
  6
CONTINUOUS
 62
    4
 10
599.30049726555626
 20
406.37305986592582
 11
614.09949726555351
 21
406.37305986592582
  0
LINE
  8
_0-3_躯体と製品
  6
CONTINUOUS
 62
    4
 10
599.30049726555626
 20
407.37205986592016
 11
614.09949726555351
 21
407.37205986592016
  0
LINE
  8
_0-3_躯体と製品
  6
CONTINUOUS
 62
    4
 10
599.30049726555626
 20
415.57205986592635
 11
602.19949726553023
 21
415.57205986592635
  0
LINE
  8
_0-3_躯体と製品
  6
CONTINUOUS
 62
    4
 10
595.19949726553205
 20
417.3720598659238
 11
602.19949726553023
 21
417.3720598659238
  0
LINE
  8
_0-3_躯体と製品
  6
CONTINUOUS
 62
    4
 10
711.29899726552867
 20
407.37205986592016
 11
726.09999726553724
 21
407.37205986592016
  0
LINE
  8
_0-3_躯体と製品
  6
CONTINUOUS
 62
    4
 10
711.29899726552867
 20
406.37305986592582
 11
726.09999726553724
 21
406.37305986592582
  0
LINE
  8
_0-3_躯体と製品
  6
CONTINUOUS
 62
    4
 10
711.29899726552867
 20
412.37305986592582
 11
726.09999726553724
 21
412.37305986592582
  0
LINE
  8
_0-3_躯体と製品
  6
CONTINUOUS
 62
    4
 10
711.29899726552867
 20
413.37205986592198
 11
726.09999726553724
 21
413.37205986592198
  0
LINE
  8
_0-3_躯体と製品
  6
CONTINUOUS
 62
    4
 10
730.09899726554613
 20
416.17205986592671
 11
727.79899726552867
 21
416.17205986592671
  0
LINE
  8
_0-3_躯体と製品
  6
CONTINUOUS
 62
    4
 10
730.09899726554613
 20
416.77205986592344
 11
727.79899726552867
 21
416.77205986592344
  0
LINE
  8
_0-3_躯体と製品
  6
CONTINUOUS
 62
    4
 10
727.29999726554706
 20
415.57205986592635
 11
730.19899726552103
 21
415.57205986592635
  0
LINE
  8
_0-3_躯体と製品
  6
CONTINUOUS
 62
    4
 10
730.09899726554613
 20
416.77205986592344
 11
730.09899726554613
 21
416.17205986592671
  0
LINE
  8
_0-3_躯体と製品
  6
CONTINUOUS
 62
    4
 10
730.69899726552285
 20
416.87305986592582
 11
730.69899726552285
 21
416.07205986592635
  0
ARC
  8
_0-3_躯体と製品
  6
CONTINUOUS
 62
    4
 10
727.79899726552867
 20
415.67305986592146
 40
0.4999999999999998
 50
90.000002999880451
 51
180.00000600017779
  0
ARC
  8
_0-3_躯体と製品
  6
CONTINUOUS
 62
    4
 10
730.19899726552103
 20
416.87305986592582
 40
0.4999999999999998
 50
0
 51
90.000002999880451
  0
ARC
  8
_0-3_躯体と製品
  6
CONTINUOUS
 62
    4
 10
730.19899726552103
 20
416.07205986592635
 40
0.4999999999999998
 50
269.99999700011949
 51
0
  0
ARC
  8
_0-3_躯体と製品
  6
CONTINUOUS
 62
    4
 10
725.59899726554613
 20
415.67305986592146
 40
0.4999999999999998
 50
0
 51
90.000002999880451
  0
ARC
  8
_0-3_躯体と製品
  6
CONTINUOUS
 62
    4
 10
727.79899726552867
 20
415.67305986592146
 40
1.099999999999999
 50
90.000002999880451
 51
180.00000600017779
  0
ARC
  8
_0-3_躯体と製品
  6
CONTINUOUS
 62
    4
 10
725.59899726554613
 20
415.67305986592146
 40
1.099999999999999
 50
0
 51
90.000002999880451
  0
LINE
  8
_0-3_躯体と製品
  6
CONTINUOUS
 62
    4
 10
722.69899726552103
 20
416.07205986592635
 11
722.69899726552103
 21
416.87305986592582
  0
LINE
  8
_0-3_躯体と製品
  6
CONTINUOUS
 62
    4
 10
723.29899726552867
 20
416.77205986592344
 11
723.29899726552867
 21
416.17205986592671
  0
ARC
  8
_0-3_躯体と製品
  6
CONTINUOUS
 62
    4
 10
723.19899726552467
 20
416.87305986592582
 40
0.4999999999999998
 50
90.000002999880451
 51
180.00000600017779
  0
ARC
  8
_0-3_躯体と製品
  6
CONTINUOUS
 62
    4
 10
723.19899726552467
 20
416.07205986592635
 40
0.4999999999999998
 50
180.00000600017779
 51
269.99999700011949
  0
LINE
  8
_0-3_躯体と製品
  6
CONTINUOUS
 62
    4
 10
723.19899726552467
 20
417.3720598659238
 11
730.19899726552103
 21
417.3720598659238
  0
LINE
  8
_0-3_躯体と製品
  6
CONTINUOUS
 62
    4
 10
723.29899726552867
 20
416.77205986592344
 11
725.59899726554613
 21
416.77205986592344
  0
LINE
  8
_0-3_躯体と製品
  6
CONTINUOUS
 62
    4
 10
723.29899726552867
 20
416.17205986592671
 11
725.59899726554613
 21
416.17205986592671
  0
LINE
  8
_0-3_躯体と製品
  6
CONTINUOUS
 62
    4
 10
723.19899726552467
 20
415.57205986592635
 11
726.09999726553724
 21
415.57205986592635
  0
ARC
  8
_0-3_躯体と製品
  6
CONTINUOUS
 62
    4
 10
726.69999726553942
 20
402.9720598659278
 40
0.5999999999999997
 50
180.00000600017779
 51
0
  0
LINE
  8
_0-3_躯体と製品
  6
CONTINUOUS
 62
    4
 10
726.69999726553942
 20
402.37205986592198
 11
726.69999726553942
 21
415.67305986592146
  0
LINE
  8
_0-3_躯体と製品
  6
CONTINUOUS
 62
    4
 10
726.09999726553724
 20
415.67305986592146
 11
726.09999726553724
 21
402.9720598659278
  0
LINE
  8
_0-3_躯体と製品
  6
CONTINUOUS
 62
    4
 10
727.29999726554706
 20
415.67305986592146
 11
727.29999726554706
 21
402.9720598659278
  0
LINE
  8
_0-3_躯体と製品
  6
CONTINUOUS
 62
    4
 10
647.29899726552685
 20
406.37305986592582
 11
662.09899726554613
 21
406.37305986592582
  0
LINE
  8
_0-3_躯体と製品
  6
CONTINUOUS
 62
    4
 10
647.29899726552685
 20
407.37205986592016
 11
662.09899726554613
 21
407.37205986592016
  0
LINE
  8
_0-3_躯体と製品
  6
CONTINUOUS
 62
    4
 10
647.29899726552685
 20
413.37205986592198
 11
662.09899726554613
 21
413.37205986592198
  0
LINE
  8
_0-3_躯体と製品
  6
CONTINUOUS
 62
    4
 10
647.29899726552685
 20
412.37305986592582
 11
662.09899726554613
 21
412.37305986592582
  0
LINE
  8
_0-3_躯体と製品
  6
CONTINUOUS
 62
    4
 10
711.29899726552867
 20
415.57205986592635
 11
714.19899726552467
 21
415.57205986592635
  0
LINE
  8
_0-3_躯体と製品
  6
CONTINUOUS
 62
    4
 10
707.19999726553942
 20
417.3720598659238
 11
714.19899726552467
 21
417.3720598659238
  0
LINE
  8
_0-3_躯体と製品
  6
CONTINUOUS
 62
    4
 10
714.09999726553542
 20
416.77205986592344
 11
711.79899726552867
 21
416.77205986592344
  0
LINE
  8
_0-3_躯体と製品
  6
CONTINUOUS
 62
    4
 10
714.09999726553542
 20
416.17205986592671
 11
711.79899726552867
 21
416.17205986592671
  0
LINE
  8
_0-3_躯体と製品
  6
CONTINUOUS
 62
    4
 10
682.69899726552285
 20
416.87305986592582
 11
682.69899726552285
 21
416.07205986592635
  0
ARC
  8
_0-3_躯体と製品
  6
CONTINUOUS
 62
    4
 10
682.19899726552103
 20
416.07205986592635
 40
0.4999999999999998
 50
269.99999700011949
 51
0
  0
ARC
  8
_0-3_躯体と製品
  6
CONTINUOUS
 62
    4
 10
682.19899726552103
 20
416.87305986592582
 40
0.4999999999999998
 50
0
 51
90.000002999880451
  0
ARC
  8
_0-3_躯体と製品
  6
CONTINUOUS
 62
    4
 10
711.79899726552867
 20
415.67305986592146
 40
0.4999999999999998
 50
90.000002999880451
 51
180.00000600017779
  0
ARC
  8
_0-3_躯体と製品
  6
CONTINUOUS
 62
    4
 10
711.79899726552867
 20
415.67305986592146
 40
1.099999999999999
 50
90.000002999880451
 51
180.00000600017779
  0
LINE
  8
_0-3_躯体と製品
  6
CONTINUOUS
 62
    4
 10
707.29899726552867
 20
416.77205986592344
 11
707.29899726552867
 21
416.17205986592671
  0
LINE
  8
_0-3_躯体と製品
  6
CONTINUOUS
 62
    4
 10
706.69899726552467
 20
416.07205986592635
 11
706.69899726552467
 21
416.87305986592582
  0
LINE
  8
_0-3_躯体と製品
  6
CONTINUOUS
 62
    4
 10
707.19999726553942
 20
415.57205986592635
 11
710.09899726554613
 21
415.57205986592635
  0
LINE
  8
_0-3_躯体と製品
  6
CONTINUOUS
 62
    4
 10
707.29899726552867
 20
416.77205986592344
 11
709.59999726553542
 21
416.77205986592344
  0
LINE
  8
_0-3_躯体と製品
  6
CONTINUOUS
 62
    4
 10
707.29899726552867
 20
416.17205986592671
 11
709.59999726553542
 21
416.17205986592671
  0
ARC
  8
_0-3_躯体と製品
  6
CONTINUOUS
 62
    4
 10
707.19999726553942
 20
416.87305986592582
 40
0.4999999999999998
 50
90.000002999880451
 51
180.00000600017779
  0
ARC
  8
_0-3_躯体と製品
  6
CONTINUOUS
 62
    4
 10
707.19999726553942
 20
416.07205986592635
 40
0.4999999999999998
 50
180.00000600017779
 51
269.99999700011949
  0
ARC
  8
_0-3_躯体と製品
  6
CONTINUOUS
 62
    4
 10
709.59999726553542
 20
415.67305986592146
 40
0.4999999999999998
 50
0
 51
90.000002999880451
  0
ARC
  8
_0-3_躯体と製品
  6
CONTINUOUS
 62
    4
 10
709.59999726553542
 20
415.67305986592146
 40
1.099999999999999
 50
0
 51
90.000002999880451
  0
LINE
  8
_0-3_躯体と製品
  6
CONTINUOUS
 62
    4
 10
698.69899726552103
 20
416.87305986592582
 11
698.69899726552103
 21
416.07205986592635
  0
LINE
  8
_0-3_躯体と製品
  6
CONTINUOUS
 62
    4
 10
698.09899726554613
 20
416.17205986592671
 11
695.79999726554888
 21
416.17205986592671
  0
LINE
  8
_0-3_躯体と製品
  6
CONTINUOUS
 62
    4
 10
698.09899726554613
 20
416.77205986592344
 11
698.09899726554613
 21
416.17205986592671
  0
LINE
  8
_0-3_躯体と製品
  6
CONTINUOUS
 62
    4
 10
695.29899726552685
 20
415.57205986592635
 11
698.19999726553942
 21
415.57205986592635
  0
LINE
  8
_0-3_躯体と製品
  6
CONTINUOUS
 62
    4
 10
691.29999726554706
 20
416.77205986592344
 11
691.29999726554706
 21
416.17205986592671
  0
LINE
  8
_0-3_躯体と製品
  6
CONTINUOUS
 62
    4
 10
691.29999726554706
 20
416.77205986592344
 11
693.59899726554613
 21
416.77205986592344
  0
LINE
  8
_0-3_躯体と製品
  6
CONTINUOUS
 62
    4
 10
691.19899726552103
 20
415.57205986592635
 11
694.09899726554613
 21
415.57205986592635
  0
LINE
  8
_0-3_躯体と製品
  6
CONTINUOUS
 62
    4
 10
691.29999726554706
 20
416.17205986592671
 11
693.59899726554613
 21
416.17205986592671
  0
LINE
  8
_0-3_躯体と製品
  6
CONTINUOUS
 62
    4
 10
691.19899726552103
 20
417.3720598659238
 11
698.19999726553942
 21
417.3720598659238
  0
LINE
  8
_0-3_躯体と製品
  6
CONTINUOUS
 62
    4
 10
698.09899726554613
 20
416.77205986592344
 11
695.79999726554888
 21
416.77205986592344
  0
LINE
  8
_0-3_躯体と製品
  6
CONTINUOUS
 62
    4
 10
690.69999726553942
 20
416.07205986592635
 11
690.69999726553942
 21
416.87305986592582
  0
ARC
  8
_0-3_躯体と製品
  6
CONTINUOUS
 62
    4
 10
693.59899726554613
 20
415.67305986592146
 40
0.4999999999999998
 50
0
 51
90.000002999880451
  0
ARC
  8
_0-3_躯体と製品
  6
CONTINUOUS
 62
    4
 10
695.79999726554888
 20
415.67305986592146
 40
1.099999999999999
 50
90.000002999880451
 51
180.00000600017779
  0
ARC
  8
_0-3_躯体と製品
  6
CONTINUOUS
 62
    4
 10
693.59899726554613
 20
415.67305986592146
 40
1.099999999999999
 50
0
 51
90.000002999880451
  0
ARC
  8
_0-3_躯体と製品
  6
CONTINUOUS
 62
    4
 10
695.79999726554888
 20
415.67305986592146
 40
0.4999999999999998
 50
90.000002999880451
 51
180.00000600017779
  0
ARC
  8
_0-3_躯体と製品
  6
CONTINUOUS
 62
    4
 10
691.19899726552103
 20
416.07205986592635
 40
0.4999999999999998
 50
180.00000600017779
 51
269.99999700011949
  0
ARC
  8
_0-3_躯体と製品
  6
CONTINUOUS
 62
    4
 10
691.19899726552103
 20
416.87305986592582
 40
0.4999999999999998
 50
90.000002999880451
 51
180.00000600017779
  0
ARC
  8
_0-3_躯体と製品
  6
CONTINUOUS
 62
    4
 10
698.19999726553942
 20
416.87305986592582
 40
0.4999999999999998
 50
0
 51
90.000002999880451
  0
ARC
  8
_0-3_躯体と製品
  6
CONTINUOUS
 62
    4
 10
698.19999726553942
 20
416.07205986592635
 40
0.4999999999999998
 50
269.99999700011949
 51
0
  0
LINE
  8
_0-3_躯体と製品
  6
CONTINUOUS
 62
    4
 10
695.29899726552685
 20
412.37305986592582
 11
710.09899726554613
 21
412.37305986592582
  0
LINE
  8
_0-3_躯体と製品
  6
CONTINUOUS
 62
    4
 10
695.29899726552685
 20
413.37205986592198
 11
710.09899726554613
 21
413.37205986592198
  0
ARC
  8
_0-3_躯体と製品
  6
CONTINUOUS
 62
    4
 10
710.69899726552103
 20
402.9720598659278
 40
0.5999999999999997
 50
180.00000600017779
 51
0
  0
ARC
  8
_0-3_躯体と製品
  6
CONTINUOUS
 62
    4
 10
694.69899726552285
 20
402.9720598659278
 40
0.5999999999999997
 50
180.00000600017779
 51
0
  0
LINE
  8
_0-3_躯体と製品
  6
CONTINUOUS
 62
    4
 10
695.29899726552685
 20
407.37205986592016
 11
710.09899726554613
 21
407.37205986592016
  0
LINE
  8
_0-3_躯体と製品
  6
CONTINUOUS
 62
    4
 10
695.29899726552685
 20
406.37305986592582
 11
710.09899726554613
 21
406.37305986592582
  0
LINE
  8
_0-3_躯体と製品
  6
CONTINUOUS
 62
    4
 10
710.69899726552103
 20
402.37205986592198
 11
710.69899726552103
 21
415.67305986592146
  0
LINE
  8
_0-3_躯体と製品
  6
CONTINUOUS
 62
    4
 10
710.09899726554613
 20
415.67305986592146
 11
710.09899726554613
 21
402.9720598659278
  0
LINE
  8
_0-3_躯体と製品
  6
CONTINUOUS
 62
    4
 10
711.29899726552867
 20
415.67305986592146
 11
711.29899726552867
 21
402.9720598659278
  0
LINE
  8
_0-3_躯体と製品
  6
CONTINUOUS
 62
    4
 10
695.29899726552685
 20
415.67305986592146
 11
695.29899726552685
 21
402.9720598659278
  0
LINE
  8
_0-3_躯体と製品
  6
CONTINUOUS
 62
    4
 10
694.69899726552285
 20
402.37205986592198
 11
694.69899726552285
 21
415.67305986592146
  0
LINE
  8
_0-3_躯体と製品
  6
CONTINUOUS
 62
    4
 10
694.09899726554613
 20
415.67305986592146
 11
694.09899726554613
 21
402.9720598659278
  0
LINE
  8
_0-3_躯体と製品
  6
CONTINUOUS
 62
    4
 10
714.09999726553542
 20
416.77205986592344
 11
714.09999726553542
 21
416.17205986592671
  0
LINE
  8
_0-3_躯体と製品
  6
CONTINUOUS
 62
    4
 10
714.69999726553942
 20
416.87305986592582
 11
714.69999726553942
 21
416.07205986592635
  0
ARC
  8
_0-3_躯体と製品
  6
CONTINUOUS
 62
    4
 10
714.19899726552467
 20
416.07205986592635
 40
0.4999999999999998
 50
269.99999700011949
 51
0
  0
ARC
  8
_0-3_躯体と製品
  6
CONTINUOUS
 62
    4
 10
714.19899726552467
 20
416.87305986592582
 40
0.4999999999999998
 50
0
 51
90.000002999880451
  0
LINE
  8
_0-3_躯体と製品
  6
CONTINUOUS
 62
    4
 10
659.19999726553942
 20
417.3720598659238
 11
666.19899726552103
 21
417.3720598659238
  0
LINE
  8
_0-3_躯体と製品
  6
CONTINUOUS
 62
    4
 10
663.29899726552867
 20
415.57205986592635
 11
666.19899726552103
 21
415.57205986592635
  0
ARC
  8
_0-3_躯体と製品
  6
CONTINUOUS
 62
    4
 10
663.79899726552867
 20
415.67305986592146
 40
0.4999999999999998
 50
90.000002999880451
 51
180.00000600017779
  0
ARC
  8
_0-3_躯体と製品
  6
CONTINUOUS
 62
    4
 10
663.79899726552867
 20
415.67305986592146
 40
1.099999999999999
 50
90.000002999880451
 51
180.00000600017779
  0
LINE
  8
_0-3_躯体と製品
  6
CONTINUOUS
 62
    4
 10
663.29899726552867
 20
413.37205986592198
 11
678.09999726553724
 21
413.37205986592198
  0
LINE
  8
_0-3_躯体と製品
  6
CONTINUOUS
 62
    4
 10
663.29899726552867
 20
412.37305986592582
 11
678.09999726553724
 21
412.37305986592582
  0
LINE
  8
_0-3_躯体と製品
  6
CONTINUOUS
 62
    4
 10
663.29899726552867
 20
406.37305986592582
 11
678.09999726553724
 21
406.37305986592582
  0
LINE
  8
_0-3_躯体と製品
  6
CONTINUOUS
 62
    4
 10
663.29899726552867
 20
407.37205986592016
 11
678.09999726553724
 21
407.37205986592016
  0
LINE
  8
_0-3_躯体と製品
  6
CONTINUOUS
 62
    4
 10
659.29899726552867
 20
416.77205986592344
 11
659.29899726552867
 21
416.17205986592671
  0
LINE
  8
_0-3_躯体と製品
  6
CONTINUOUS
 62
    4
 10
659.29899726552867
 20
416.77205986592344
 11
661.59999726553542
 21
416.77205986592344
  0
LINE
  8
_0-3_躯体と製品
  6
CONTINUOUS
 62
    4
 10
658.69899726552103
 20
416.07205986592635
 11
658.69899726552103
 21
416.87305986592582
  0
LINE
  8
_0-3_躯体と製品
  6
CONTINUOUS
 62
    4
 10
659.29899726552867
 20
416.17205986592671
 11
661.59999726553542
 21
416.17205986592671
  0
LINE
  8
_0-3_躯体と製品
  6
CONTINUOUS
 62
    4
 10
659.19999726553942
 20
415.57205986592635
 11
662.09899726554613
 21
415.57205986592635
  0
ARC
  8
_0-3_躯体と製品
  6
CONTINUOUS
 62
    4
 10
659.19999726553942
 20
416.87305986592582
 40
0.4999999999999998
 50
90.000002999880451
 51
180.00000600017779
  0
ARC
  8
_0-3_躯体と製品
  6
CONTINUOUS
 62
    4
 10
659.19999726553942
 20
416.07205986592635
 40
0.4999999999999998
 50
180.00000600017779
 51
269.99999700011949
  0
ARC
  8
_0-3_躯体と製品
  6
CONTINUOUS
 62
    4
 10
661.59999726553542
 20
415.67305986592146
 40
0.4999999999999998
 50
0
 51
90.000002999880451
  0
ARC
  8
_0-3_躯体と製品
  6
CONTINUOUS
 62
    4
 10
661.59999726553542
 20
415.67305986592146
 40
1.099999999999999
 50
0
 51
90.000002999880451
  0
ARC
  8
_0-3_躯体と製品
  6
CONTINUOUS
 62
    4
 10
662.69899726552103
 20
402.9720598659278
 40
0.5999999999999997
 50
180.00000600017779
 51
0
  0
LINE
  8
_0-3_躯体と製品
  6
CONTINUOUS
 62
    4
 10
663.29899726552867
 20
415.67305986592146
 11
663.29899726552867
 21
402.9720598659278
  0
LINE
  8
_0-3_躯体と製品
  6
CONTINUOUS
 62
    4
 10
662.69899726552103
 20
402.37205986592198
 11
662.69899726552103
 21
415.67305986592146
  0
LINE
  8
_0-3_躯体と製品
  6
CONTINUOUS
 62
    4
 10
662.09899726554613
 20
415.67305986592146
 11
662.09899726554613
 21
402.9720598659278
  0
LINE
  8
_0-3_躯体と製品
  6
CONTINUOUS
 62
    4
 10
682.09899726554613
 20
416.77205986592344
 11
682.09899726554613
 21
416.17205986592671
  0
LINE
  8
_0-3_躯体と製品
  6
CONTINUOUS
 62
    4
 10
674.69899726551921
 20
416.07205986592635
 11
674.69899726551921
 21
416.87305986592582
  0
LINE
  8
_0-3_躯体と製品
  6
CONTINUOUS
 62
    4
 10
682.09899726554613
 20
416.77205986592344
 11
679.79899726553049
 21
416.77205986592344
  0
LINE
  8
_0-3_躯体と製品
  6
CONTINUOUS
 62
    4
 10
675.29899726553049
 20
416.77205986592344
 11
677.59899726554613
 21
416.77205986592344
  0
LINE
  8
_0-3_躯体と製品
  6
CONTINUOUS
 62
    4
 10
675.19899726552285
 20
415.57205986592635
 11
678.09999726553724
 21
415.57205986592635
  0
LINE
  8
_0-3_躯体と製品
  6
CONTINUOUS
 62
    4
 10
675.29899726553049
 20
416.77205986592344
 11
675.29899726553049
 21
416.17205986592671
  0
LINE
  8
_0-3_躯体と製品
  6
CONTINUOUS
 62
    4
 10
682.09899726554613
 20
416.17205986592671
 11
679.79899726553049
 21
416.17205986592671
  0
LINE
  8
_0-3_躯体と製品
  6
CONTINUOUS
 62
    4
 10
675.29899726553049
 20
416.17205986592671
 11
677.59899726554613
 21
416.17205986592671
  0
ARC
  8
_0-3_躯体と製品
  6
CONTINUOUS
 62
    4
 10
675.19899726552285
 20
416.87305986592582
 40
0.4999999999999998
 50
90.000002999880451
 51
180.00000600017779
  0
ARC
  8
_0-3_躯体と製品
  6
CONTINUOUS
 62
    4
 10
679.79899726553049
 20
415.67305986592146
 40
0.4999999999999998
 50
90.000002999880451
 51
180.00000600017779
  0
ARC
  8
_0-3_躯体と製品
  6
CONTINUOUS
 62
    4
 10
677.59899726554613
 20
415.67305986592146
 40
0.4999999999999998
 50
0
 51
90.000002999880451
  0
ARC
  8
_0-3_躯体と製品
  6
CONTINUOUS
 62
    4
 10
679.79899726553049
 20
415.67305986592146
 40
1.099999999999999
 50
90.000002999880451
 51
180.00000600017779
  0
ARC
  8
_0-3_躯体と製品
  6
CONTINUOUS
 62
    4
 10
677.59899726554613
 20
415.67305986592146
 40
1.099999999999999
 50
0
 51
90.000002999880451
  0
ARC
  8
_0-3_躯体と製品
  6
CONTINUOUS
 62
    4
 10
675.19899726552285
 20
416.07205986592635
 40
0.4999999999999998
 50
180.00000600017779
 51
269.99999700011949
  0
LINE
  8
_0-3_躯体と製品
  6
CONTINUOUS
 62
    4
 10
666.69999726553942
 20
416.87305986592582
 11
666.69999726553942
 21
416.07205986592635
  0
LINE
  8
_0-3_躯体と製品
  6
CONTINUOUS
 62
    4
 10
666.09999726553542
 20
416.77205986592344
 11
666.09999726553542
 21
416.17205986592671
  0
LINE
  8
_0-3_躯体と製品
  6
CONTINUOUS
 62
    4
 10
666.09999726553542
 20
416.77205986592344
 11
663.79899726552867
 21
416.77205986592344
  0
LINE
  8
_0-3_躯体と製品
  6
CONTINUOUS
 62
    4
 10
666.09999726553542
 20
416.17205986592671
 11
663.79899726552867
 21
416.17205986592671
  0
ARC
  8
_0-3_躯体と製品
  6
CONTINUOUS
 62
    4
 10
666.19899726552103
 20
416.07205986592635
 40
0.4999999999999998
 50
269.99999700011949
 51
0
  0
ARC
  8
_0-3_躯体と製品
  6
CONTINUOUS
 62
    4
 10
666.19899726552103
 20
416.87305986592582
 40
0.4999999999999998
 50
0
 51
90.000002999880451
  0
ARC
  8
_0-3_躯体と製品
  6
CONTINUOUS
 62
    4
 10
678.69999726554124
 20
402.9720598659278
 40
0.5999999999999997
 50
180.00000600017779
 51
0
  0
LINE
  8
_0-3_躯体と製品
  6
CONTINUOUS
 62
    4
 10
678.69999726554124
 20
402.37205986592198
 11
678.69999726554124
 21
415.67305986592146
  0
LINE
  8
_0-3_躯体と製品
  6
CONTINUOUS
 62
    4
 10
678.09999726553724
 20
415.67305986592146
 11
678.09999726553724
 21
402.9720598659278
  0
LINE
  8
_0-3_躯体と製品
  6
CONTINUOUS
 62
    4
 10
679.29999726554706
 20
415.67305986592146
 11
679.29999726554706
 21
402.9720598659278
  0
LINE
  8
_0-3_躯体と製品
  6
CONTINUOUS
 62
    4
 10
679.29999726554706
 20
413.37205986592198
 11
694.09899726554613
 21
413.37205986592198
  0
LINE
  8
_0-3_躯体と製品
  6
CONTINUOUS
 62
    4
 10
679.29999726554706
 20
412.37305986592582
 11
694.09899726554613
 21
412.37305986592582
  0
LINE
  8
_0-3_躯体と製品
  6
CONTINUOUS
 62
    4
 10
679.29999726554706
 20
406.37305986592582
 11
694.09899726554613
 21
406.37305986592582
  0
LINE
  8
_0-3_躯体と製品
  6
CONTINUOUS
 62
    4
 10
679.29999726554706
 20
407.37205986592016
 11
694.09899726554613
 21
407.37205986592016
  0
LINE
  8
_0-3_躯体と製品
  6
CONTINUOUS
 62
    4
 10
679.29999726554706
 20
415.57205986592635
 11
682.19899726552103
 21
415.57205986592635
  0
LINE
  8
_0-3_躯体と製品
  6
CONTINUOUS
 62
    4
 10
675.19899726552285
 20
417.3720598659238
 11
682.19899726552103
 21
417.3720598659238
  0
LINE
  8
_0-3_躯体と製品
  6
CONTINUOUS
 62
    4
 10
791.29849726551947
 20
407.37205986592016
 11
806.09949726552622
 21
407.37205986592016
  0
LINE
  8
_0-3_躯体と製品
  6
CONTINUOUS
 62
    4
 10
791.29849726551947
 20
406.37305986592582
 11
806.09949726552622
 21
406.37305986592582
  0
LINE
  8
_0-3_躯体と製品
  6
CONTINUOUS
 62
    4
 10
791.29849726551947
 20
412.37305986592582
 11
806.09949726552622
 21
412.37305986592582
  0
LINE
  8
_0-3_躯体と製品
  6
CONTINUOUS
 62
    4
 10
791.29849726551947
 20
413.37205986592198
 11
806.09949726552622
 21
413.37205986592198
  0
LINE
  8
_0-3_躯体と製品
  6
CONTINUOUS
 62
    4
 10
810.09849726553512
 20
416.17205986592671
 11
807.79849726552129
 21
416.17205986592671
  0
LINE
  8
_0-3_躯体と製品
  6
CONTINUOUS
 62
    4
 10
810.09849726553512
 20
416.77205986592344
 11
807.79849726552129
 21
416.77205986592344
  0
LINE
  8
_0-3_躯体と製品
  6
CONTINUOUS
 62
    4
 10
807.29949726553969
 20
415.57205986592635
 11
810.19849726551365
 21
415.57205986592635
  0
LINE
  8
_0-3_躯体と製品
  6
CONTINUOUS
 62
    4
 10
810.09849726553512
 20
416.77205986592344
 11
810.09849726553512
 21
416.17205986592671
  0
LINE
  8
_0-3_躯体と製品
  6
CONTINUOUS
 62
    4
 10
810.69849726551365
 20
416.87305986592582
 11
810.69849726551365
 21
416.07205986592635
  0
ARC
  8
_0-3_躯体と製品
  6
CONTINUOUS
 62
    4
 10
807.79849726552129
 20
415.67305986592146
 40
0.4999999999999998
 50
90.000002999880451
 51
180.00000600017779
  0
ARC
  8
_0-3_躯体と製品
  6
CONTINUOUS
 62
    4
 10
810.19849726551365
 20
416.87305986592582
 40
0.4999999999999998
 50
0
 51
90.000002999880451
  0
ARC
  8
_0-3_躯体と製品
  6
CONTINUOUS
 62
    4
 10
810.19849726551365
 20
416.07205986592635
 40
0.4999999999999998
 50
269.99999700011949
 51
0
  0
ARC
  8
_0-3_躯体と製品
  6
CONTINUOUS
 62
    4
 10
805.59849726553512
 20
415.67305986592146
 40
0.4999999999999998
 50
0
 51
90.000002999880451
  0
ARC
  8
_0-3_躯体と製品
  6
CONTINUOUS
 62
    4
 10
807.79849726552129
 20
415.67305986592146
 40
1.099999999999999
 50
90.000002999880451
 51
180.00000600017779
  0
ARC
  8
_0-3_躯体と製品
  6
CONTINUOUS
 62
    4
 10
805.59849726553512
 20
415.67305986592146
 40
1.099999999999999
 50
0
 51
90.000002999880451
  0
LINE
  8
_0-3_躯体と製品
  6
CONTINUOUS
 62
    4
 10
802.69849726551365
 20
416.07205986592635
 11
802.69849726551365
 21
416.87305986592582
  0
LINE
  8
_0-3_躯体と製品
  6
CONTINUOUS
 62
    4
 10
803.29849726551947
 20
416.77205986592344
 11
803.29849726551947
 21
416.17205986592671
  0
ARC
  8
_0-3_躯体と製品
  6
CONTINUOUS
 62
    4
 10
803.19849726551365
 20
416.87305986592582
 40
0.4999999999999998
 50
90.000002999880451
 51
180.00000600017779
  0
ARC
  8
_0-3_躯体と製品
  6
CONTINUOUS
 62
    4
 10
803.19849726551365
 20
416.07205986592635
 40
0.4999999999999998
 50
180.00000600017779
 51
269.99999700011949
  0
LINE
  8
_0-3_躯体と製品
  6
CONTINUOUS
 62
    4
 10
803.19849726551365
 20
417.3720598659238
 11
810.19849726551365
 21
417.3720598659238
  0
LINE
  8
_0-3_躯体と製品
  6
CONTINUOUS
 62
    4
 10
803.29849726551947
 20
416.77205986592344
 11
805.59849726553512
 21
416.77205986592344
  0
LINE
  8
_0-3_躯体と製品
  6
CONTINUOUS
 62
    4
 10
803.29849726551947
 20
416.17205986592671
 11
805.59849726553512
 21
416.17205986592671
  0
LINE
  8
_0-3_躯体と製品
  6
CONTINUOUS
 62
    4
 10
803.19849726551365
 20
415.57205986592635
 11
806.09949726552622
 21
415.57205986592635
  0
ARC
  8
_0-3_躯体と製品
  6
CONTINUOUS
 62
    4
 10
806.69949726553023
 20
402.9720598659278
 40
0.5999999999999997
 50
180.00000600017779
 51
0
  0
LINE
  8
_0-3_躯体と製品
  6
CONTINUOUS
 62
    4
 10
806.69949726553023
 20
402.37205986592198
 11
806.69949726553023
 21
415.67305986592146
  0
LINE
  8
_0-3_躯体と製品
  6
CONTINUOUS
 62
    4
 10
806.09949726552622
 20
415.67305986592146
 11
806.09949726552622
 21
402.9720598659278
  0
LINE
  8
_0-3_躯体と製品
  6
CONTINUOUS
 62
    4
 10
807.29949726553969
 20
415.67305986592146
 11
807.29949726553969
 21
402.9720598659278
  0
LINE
  8
_0-3_躯体と製品
  6
CONTINUOUS
 62
    4
 10
727.29849726551765
 20
406.37305986592582
 11
742.09849726553693
 21
406.37305986592582
  0
LINE
  8
_0-3_躯体と製品
  6
CONTINUOUS
 62
    4
 10
727.29849726551765
 20
407.37205986592016
 11
742.09849726553693
 21
407.37205986592016
  0
LINE
  8
_0-3_躯体と製品
  6
CONTINUOUS
 62
    4
 10
727.29849726551765
 20
413.37205986592198
 11
742.09849726553693
 21
413.37205986592198
  0
LINE
  8
_0-3_躯体と製品
  6
CONTINUOUS
 62
    4
 10
727.29849726551765
 20
412.37305986592582
 11
742.09849726553693
 21
412.37305986592582
  0
LINE
  8
_0-3_躯体と製品
  6
CONTINUOUS
 62
    4
 10
791.29849726551947
 20
415.57205986592635
 11
794.19849726551547
 21
415.57205986592635
  0
LINE
  8
_0-3_躯体と製品
  6
CONTINUOUS
 62
    4
 10
787.19949726553023
 20
417.3720598659238
 11
794.19849726551547
 21
417.3720598659238
  0
LINE
  8
_0-3_躯体と製品
  6
CONTINUOUS
 62
    4
 10
794.09949726552622
 20
416.77205986592344
 11
791.79849726551947
 21
416.77205986592344
  0
LINE
  8
_0-3_躯体と製品
  6
CONTINUOUS
 62
    4
 10
794.09949726552622
 20
416.17205986592671
 11
791.79849726551947
 21
416.17205986592671
  0
LINE
  8
_0-3_躯体と製品
  6
CONTINUOUS
 62
    4
 10
762.69849726551547
 20
416.87305986592582
 11
762.69849726551547
 21
416.07205986592635
  0
ARC
  8
_0-3_躯体と製品
  6
CONTINUOUS
 62
    4
 10
762.19849726551365
 20
416.07205986592635
 40
0.4999999999999998
 50
269.99999700011949
 51
0
  0
ARC
  8
_0-3_躯体と製品
  6
CONTINUOUS
 62
    4
 10
762.19849726551365
 20
416.87305986592582
 40
0.4999999999999998
 50
0
 51
90.000002999880451
  0
ARC
  8
_0-3_躯体と製品
  6
CONTINUOUS
 62
    4
 10
791.79849726551947
 20
415.67305986592146
 40
0.4999999999999998
 50
90.000002999880451
 51
180.00000600017779
  0
ARC
  8
_0-3_躯体と製品
  6
CONTINUOUS
 62
    4
 10
791.79849726551947
 20
415.67305986592146
 40
1.099999999999999
 50
90.000002999880451
 51
180.00000600017779
  0
LINE
  8
_0-3_躯体と製品
  6
CONTINUOUS
 62
    4
 10
787.29849726551947
 20
416.77205986592344
 11
787.29849726551947
 21
416.17205986592671
  0
LINE
  8
_0-3_躯体と製品
  6
CONTINUOUS
 62
    4
 10
786.69849726551547
 20
416.07205986592635
 11
786.69849726551547
 21
416.87305986592582
  0
LINE
  8
_0-3_躯体と製品
  6
CONTINUOUS
 62
    4
 10
787.19949726553023
 20
415.57205986592635
 11
790.09849726553693
 21
415.57205986592635
  0
LINE
  8
_0-3_躯体と製品
  6
CONTINUOUS
 62
    4
 10
787.29849726551947
 20
416.77205986592344
 11
789.59949726552622
 21
416.77205986592344
  0
LINE
  8
_0-3_躯体と製品
  6
CONTINUOUS
 62
    4
 10
787.29849726551947
 20
416.17205986592671
 11
789.59949726552622
 21
416.17205986592671
  0
ARC
  8
_0-3_躯体と製品
  6
CONTINUOUS
 62
    4
 10
787.19949726553023
 20
416.87305986592582
 40
0.4999999999999998
 50
90.000002999880451
 51
180.00000600017779
  0
ARC
  8
_0-3_躯体と製品
  6
CONTINUOUS
 62
    4
 10
787.19949726553023
 20
416.07205986592635
 40
0.4999999999999998
 50
180.00000600017779
 51
269.99999700011949
  0
ARC
  8
_0-3_躯体と製品
  6
CONTINUOUS
 62
    4
 10
789.59949726552622
 20
415.67305986592146
 40
0.4999999999999998
 50
0
 51
90.000002999880451
  0
ARC
  8
_0-3_躯体と製品
  6
CONTINUOUS
 62
    4
 10
789.59949726552622
 20
415.67305986592146
 40
1.099999999999999
 50
0
 51
90.000002999880451
  0
LINE
  8
_0-3_躯体と製品
  6
CONTINUOUS
 62
    4
 10
778.69849726551365
 20
416.87305986592582
 11
778.69849726551365
 21
416.07205986592635
  0
LINE
  8
_0-3_躯体と製品
  6
CONTINUOUS
 62
    4
 10
778.09849726553512
 20
416.17205986592671
 11
775.79949726553787
 21
416.17205986592671
  0
LINE
  8
_0-3_躯体と製品
  6
CONTINUOUS
 62
    4
 10
778.09849726553512
 20
416.77205986592344
 11
778.09849726553512
 21
416.17205986592671
  0
LINE
  8
_0-3_躯体と製品
  6
CONTINUOUS
 62
    4
 10
775.29849726551765
 20
415.57205986592635
 11
778.19949726553023
 21
415.57205986592635
  0
LINE
  8
_0-3_躯体と製品
  6
CONTINUOUS
 62
    4
 10
771.29949726553605
 20
416.77205986592344
 11
771.29949726553605
 21
416.17205986592671
  0
LINE
  8
_0-3_躯体と製品
  6
CONTINUOUS
 62
    4
 10
771.29949726553605
 20
416.77205986592344
 11
773.59849726553512
 21
416.77205986592344
  0
LINE
  8
_0-3_躯体と製品
  6
CONTINUOUS
 62
    4
 10
771.19849726551365
 20
415.57205986592635
 11
774.09849726553512
 21
415.57205986592635
  0
LINE
  8
_0-3_躯体と製品
  6
CONTINUOUS
 62
    4
 10
771.29949726553605
 20
416.17205986592671
 11
773.59849726553512
 21
416.17205986592671
  0
LINE
  8
_0-3_躯体と製品
  6
CONTINUOUS
 62
    4
 10
771.19849726551365
 20
417.3720598659238
 11
778.19949726553023
 21
417.3720598659238
  0
LINE
  8
_0-3_躯体と製品
  6
CONTINUOUS
 62
    4
 10
778.09849726553512
 20
416.77205986592344
 11
775.79949726553787
 21
416.77205986592344
  0
LINE
  8
_0-3_躯体と製品
  6
CONTINUOUS
 62
    4
 10
770.69949726553023
 20
416.07205986592635
 11
770.69949726553023
 21
416.87305986592582
  0
ARC
  8
_0-3_躯体と製品
  6
CONTINUOUS
 62
    4
 10
773.59849726553512
 20
415.67305986592146
 40
0.4999999999999998
 50
0
 51
90.000002999880451
  0
ARC
  8
_0-3_躯体と製品
  6
CONTINUOUS
 62
    4
 10
775.79949726553787
 20
415.67305986592146
 40
1.099999999999999
 50
90.000002999880451
 51
180.00000600017779
  0
ARC
  8
_0-3_躯体と製品
  6
CONTINUOUS
 62
    4
 10
773.59849726553512
 20
415.67305986592146
 40
1.099999999999999
 50
0
 51
90.000002999880451
  0
ARC
  8
_0-3_躯体と製品
  6
CONTINUOUS
 62
    4
 10
775.79949726553787
 20
415.67305986592146
 40
0.4999999999999998
 50
90.000002999880451
 51
180.00000600017779
  0
ARC
  8
_0-3_躯体と製品
  6
CONTINUOUS
 62
    4
 10
771.19849726551365
 20
416.07205986592635
 40
0.4999999999999998
 50
180.00000600017779
 51
269.99999700011949
  0
ARC
  8
_0-3_躯体と製品
  6
CONTINUOUS
 62
    4
 10
771.19849726551365
 20
416.87305986592582
 40
0.4999999999999998
 50
90.000002999880451
 51
180.00000600017779
  0
ARC
  8
_0-3_躯体と製品
  6
CONTINUOUS
 62
    4
 10
778.19949726553023
 20
416.87305986592582
 40
0.4999999999999998
 50
0
 51
90.000002999880451
  0
ARC
  8
_0-3_躯体と製品
  6
CONTINUOUS
 62
    4
 10
778.19949726553023
 20
416.07205986592635
 40
0.4999999999999998
 50
269.99999700011949
 51
0
  0
LINE
  8
_0-3_躯体と製品
  6
CONTINUOUS
 62
    4
 10
775.29849726551765
 20
412.37305986592582
 11
790.09849726553693
 21
412.37305986592582
  0
LINE
  8
_0-3_躯体と製品
  6
CONTINUOUS
 62
    4
 10
775.29849726551765
 20
413.37205986592198
 11
790.09849726553693
 21
413.37205986592198
  0
ARC
  8
_0-3_躯体と製品
  6
CONTINUOUS
 62
    4
 10
790.69849726551183
 20
402.9720598659278
 40
0.5999999999999997
 50
180.00000600017779
 51
0
  0
ARC
  8
_0-3_躯体と製品
  6
CONTINUOUS
 62
    4
 10
774.69849726551365
 20
402.9720598659278
 40
0.5999999999999997
 50
180.00000600017779
 51
0
  0
LINE
  8
_0-3_躯体と製品
  6
CONTINUOUS
 62
    4
 10
775.29849726551765
 20
407.37205986592016
 11
790.09849726553693
 21
407.37205986592016
  0
LINE
  8
_0-3_躯体と製品
  6
CONTINUOUS
 62
    4
 10
775.29849726551765
 20
406.37305986592582
 11
790.09849726553693
 21
406.37305986592582
  0
LINE
  8
_0-3_躯体と製品
  6
CONTINUOUS
 62
    4
 10
790.69849726551183
 20
402.37205986592198
 11
790.69849726551183
 21
415.67305986592146
  0
LINE
  8
_0-3_躯体と製品
  6
CONTINUOUS
 62
    4
 10
790.09849726553693
 20
415.67305986592146
 11
790.09849726553693
 21
402.9720598659278
  0
LINE
  8
_0-3_躯体と製品
  6
CONTINUOUS
 62
    4
 10
791.29849726551947
 20
415.67305986592146
 11
791.29849726551947
 21
402.9720598659278
  0
LINE
  8
_0-3_躯体と製品
  6
CONTINUOUS
 62
    4
 10
775.29849726551765
 20
415.67305986592146
 11
775.29849726551765
 21
402.9720598659278
  0
LINE
  8
_0-3_躯体と製品
  6
CONTINUOUS
 62
    4
 10
774.69849726551365
 20
402.37205986592198
 11
774.69849726551365
 21
415.67305986592146
  0
LINE
  8
_0-3_躯体と製品
  6
CONTINUOUS
 62
    4
 10
774.09849726553512
 20
415.67305986592146
 11
774.09849726553512
 21
402.9720598659278
  0
LINE
  8
_0-3_躯体と製品
  6
CONTINUOUS
 62
    4
 10
794.09949726552622
 20
416.77205986592344
 11
794.09949726552622
 21
416.17205986592671
  0
LINE
  8
_0-3_躯体と製品
  6
CONTINUOUS
 62
    4
 10
794.69949726553023
 20
416.87305986592582
 11
794.69949726553023
 21
416.07205986592635
  0
ARC
  8
_0-3_躯体と製品
  6
CONTINUOUS
 62
    4
 10
794.19849726551547
 20
416.07205986592635
 40
0.4999999999999998
 50
269.99999700011949
 51
0
  0
ARC
  8
_0-3_躯体と製品
  6
CONTINUOUS
 62
    4
 10
794.19849726551547
 20
416.87305986592582
 40
0.4999999999999998
 50
0
 51
90.000002999880451
  0
LINE
  8
_0-3_躯体と製品
  6
CONTINUOUS
 62
    4
 10
739.19949726553023
 20
417.3720598659238
 11
746.19849726551547
 21
417.3720598659238
  0
LINE
  8
_0-3_躯体と製品
  6
CONTINUOUS
 62
    4
 10
743.29849726551947
 20
415.57205986592635
 11
746.19849726551547
 21
415.57205986592635
  0
ARC
  8
_0-3_躯体と製品
  6
CONTINUOUS
 62
    4
 10
743.79849726551947
 20
415.67305986592146
 40
0.4999999999999998
 50
90.000002999880451
 51
180.00000600017779
  0
ARC
  8
_0-3_躯体と製品
  6
CONTINUOUS
 62
    4
 10
743.79849726551947
 20
415.67305986592146
 40
1.099999999999999
 50
90.000002999880451
 51
180.00000600017779
  0
LINE
  8
_0-3_躯体と製品
  6
CONTINUOUS
 62
    4
 10
743.29849726551947
 20
413.37205986592198
 11
758.09949726552622
 21
413.37205986592198
  0
LINE
  8
_0-3_躯体と製品
  6
CONTINUOUS
 62
    4
 10
743.29849726551947
 20
412.37305986592582
 11
758.09949726552622
 21
412.37305986592582
  0
LINE
  8
_0-3_躯体と製品
  6
CONTINUOUS
 62
    4
 10
743.29849726551947
 20
406.37305986592582
 11
758.09949726552622
 21
406.37305986592582
  0
LINE
  8
_0-3_躯体と製品
  6
CONTINUOUS
 62
    4
 10
743.29849726551947
 20
407.37205986592016
 11
758.09949726552622
 21
407.37205986592016
  0
LINE
  8
_0-3_躯体と製品
  6
CONTINUOUS
 62
    4
 10
739.29849726551947
 20
416.77205986592344
 11
739.29849726551947
 21
416.17205986592671
  0
LINE
  8
_0-3_躯体と製品
  6
CONTINUOUS
 62
    4
 10
739.29849726551947
 20
416.77205986592344
 11
741.59949726552622
 21
416.77205986592344
  0
LINE
  8
_0-3_躯体と製品
  6
CONTINUOUS
 62
    4
 10
738.69849726551547
 20
416.07205986592635
 11
738.69849726551547
 21
416.87305986592582
  0
LINE
  8
_0-3_躯体と製品
  6
CONTINUOUS
 62
    4
 10
739.29849726551947
 20
416.17205986592671
 11
741.59949726552622
 21
416.17205986592671
  0
LINE
  8
_0-3_躯体と製品
  6
CONTINUOUS
 62
    4
 10
739.19949726553023
 20
415.57205986592635
 11
742.09849726553693
 21
415.57205986592635
  0
ARC
  8
_0-3_躯体と製品
  6
CONTINUOUS
 62
    4
 10
739.19949726553023
 20
416.87305986592582
 40
0.4999999999999998
 50
90.000002999880451
 51
180.00000600017779
  0
ARC
  8
_0-3_躯体と製品
  6
CONTINUOUS
 62
    4
 10
739.19949726553023
 20
416.07205986592635
 40
0.4999999999999998
 50
180.00000600017779
 51
269.99999700011949
  0
ARC
  8
_0-3_躯体と製品
  6
CONTINUOUS
 62
    4
 10
741.59949726552622
 20
415.67305986592146
 40
0.4999999999999998
 50
0
 51
90.000002999880451
  0
ARC
  8
_0-3_躯体と製品
  6
CONTINUOUS
 62
    4
 10
741.59949726552622
 20
415.67305986592146
 40
1.099999999999999
 50
0
 51
90.000002999880451
  0
ARC
  8
_0-3_躯体と製品
  6
CONTINUOUS
 62
    4
 10
742.69849726551183
 20
402.9720598659278
 40
0.5999999999999997
 50
180.00000600017779
 51
0
  0
LINE
  8
_0-3_躯体と製品
  6
CONTINUOUS
 62
    4
 10
743.29849726551947
 20
415.67305986592146
 11
743.29849726551947
 21
402.9720598659278
  0
LINE
  8
_0-3_躯体と製品
  6
CONTINUOUS
 62
    4
 10
742.69849726551183
 20
402.37205986592198
 11
742.69849726551183
 21
415.67305986592146
  0
LINE
  8
_0-3_躯体と製品
  6
CONTINUOUS
 62
    4
 10
742.09849726553693
 20
415.67305986592146
 11
742.09849726553693
 21
402.9720598659278
  0
LINE
  8
_0-3_躯体と製品
  6
CONTINUOUS
 62
    4
 10
762.09849726553512
 20
416.77205986592344
 11
762.09849726553512
 21
416.17205986592671
  0
LINE
  8
_0-3_躯体と製品
  6
CONTINUOUS
 62
    4
 10
754.69849726551365
 20
416.07205986592635
 11
754.69849726551365
 21
416.87305986592582
  0
LINE
  8
_0-3_躯体と製品
  6
CONTINUOUS
 62
    4
 10
762.09849726553512
 20
416.77205986592344
 11
759.79849726551947
 21
416.77205986592344
  0
LINE
  8
_0-3_躯体と製品
  6
CONTINUOUS
 62
    4
 10
755.29849726551947
 20
416.77205986592344
 11
757.59849726553512
 21
416.77205986592344
  0
LINE
  8
_0-3_躯体と製品
  6
CONTINUOUS
 62
    4
 10
755.19849726551547
 20
415.57205986592635
 11
758.09949726552622
 21
415.57205986592635
  0
LINE
  8
_0-3_躯体と製品
  6
CONTINUOUS
 62
    4
 10
755.29849726551947
 20
416.77205986592344
 11
755.29849726551947
 21
416.17205986592671
  0
LINE
  8
_0-3_躯体と製品
  6
CONTINUOUS
 62
    4
 10
762.09849726553512
 20
416.17205986592671
 11
759.79849726551947
 21
416.17205986592671
  0
LINE
  8
_0-3_躯体と製品
  6
CONTINUOUS
 62
    4
 10
755.29849726551947
 20
416.17205986592671
 11
757.59849726553512
 21
416.17205986592671
  0
ARC
  8
_0-3_躯体と製品
  6
CONTINUOUS
 62
    4
 10
755.19849726551547
 20
416.87305986592582
 40
0.4999999999999998
 50
90.000002999880451
 51
180.00000600017779
  0
ARC
  8
_0-3_躯体と製品
  6
CONTINUOUS
 62
    4
 10
759.79849726551947
 20
415.67305986592146
 40
0.4999999999999998
 50
90.000002999880451
 51
180.00000600017779
  0
ARC
  8
_0-3_躯体と製品
  6
CONTINUOUS
 62
    4
 10
757.59849726553512
 20
415.67305986592146
 40
0.4999999999999998
 50
0
 51
90.000002999880451
  0
ARC
  8
_0-3_躯体と製品
  6
CONTINUOUS
 62
    4
 10
759.79849726551947
 20
415.67305986592146
 40
1.099999999999999
 50
90.000002999880451
 51
180.00000600017779
  0
ARC
  8
_0-3_躯体と製品
  6
CONTINUOUS
 62
    4
 10
757.59849726553512
 20
415.67305986592146
 40
1.099999999999999
 50
0
 51
90.000002999880451
  0
ARC
  8
_0-3_躯体と製品
  6
CONTINUOUS
 62
    4
 10
755.19849726551547
 20
416.07205986592635
 40
0.4999999999999998
 50
180.00000600017779
 51
269.99999700011949
  0
LINE
  8
_0-3_躯体と製品
  6
CONTINUOUS
 62
    4
 10
746.69949726553023
 20
416.87305986592582
 11
746.69949726553023
 21
416.07205986592635
  0
LINE
  8
_0-3_躯体と製品
  6
CONTINUOUS
 62
    4
 10
746.09949726552622
 20
416.77205986592344
 11
746.09949726552622
 21
416.17205986592671
  0
LINE
  8
_0-3_躯体と製品
  6
CONTINUOUS
 62
    4
 10
746.09949726552622
 20
416.77205986592344
 11
743.79849726551947
 21
416.77205986592344
  0
LINE
  8
_0-3_躯体と製品
  6
CONTINUOUS
 62
    4
 10
746.09949726552622
 20
416.17205986592671
 11
743.79849726551947
 21
416.17205986592671
  0
ARC
  8
_0-3_躯体と製品
  6
CONTINUOUS
 62
    4
 10
746.19849726551547
 20
416.07205986592635
 40
0.4999999999999998
 50
269.99999700011949
 51
0
  0
ARC
  8
_0-3_躯体と製品
  6
CONTINUOUS
 62
    4
 10
746.19849726551547
 20
416.87305986592582
 40
0.4999999999999998
 50
0
 51
90.000002999880451
  0
ARC
  8
_0-3_躯体と製品
  6
CONTINUOUS
 62
    4
 10
758.69949726552841
 20
402.9720598659278
 40
0.5999999999999997
 50
180.00000600017779
 51
0
  0
LINE
  8
_0-3_躯体と製品
  6
CONTINUOUS
 62
    4
 10
758.69949726552841
 20
402.37205986592198
 11
758.69949726552841
 21
415.67305986592146
  0
LINE
  8
_0-3_躯体と製品
  6
CONTINUOUS
 62
    4
 10
758.09949726552622
 20
415.67305986592146
 11
758.09949726552622
 21
402.9720598659278
  0
LINE
  8
_0-3_躯体と製品
  6
CONTINUOUS
 62
    4
 10
759.29949726553969
 20
415.67305986592146
 11
759.29949726553969
 21
402.9720598659278
  0
LINE
  8
_0-3_躯体と製品
  6
CONTINUOUS
 62
    4
 10
759.29949726553969
 20
413.37205986592198
 11
774.09849726553512
 21
413.37205986592198
  0
LINE
  8
_0-3_躯体と製品
  6
CONTINUOUS
 62
    4
 10
759.29949726553969
 20
412.37305986592582
 11
774.09849726553512
 21
412.37305986592582
  0
LINE
  8
_0-3_躯体と製品
  6
CONTINUOUS
 62
    4
 10
759.29949726553969
 20
406.37305986592582
 11
774.09849726553512
 21
406.37305986592582
  0
LINE
  8
_0-3_躯体と製品
  6
CONTINUOUS
 62
    4
 10
759.29949726553969
 20
407.37205986592016
 11
774.09849726553512
 21
407.37205986592016
  0
LINE
  8
_0-3_躯体と製品
  6
CONTINUOUS
 62
    4
 10
759.29949726553969
 20
415.57205986592635
 11
762.19849726551365
 21
415.57205986592635
  0
LINE
  8
_0-3_躯体と製品
  6
CONTINUOUS
 62
    4
 10
755.19849726551547
 20
417.3720598659238
 11
762.19849726551365
 21
417.3720598659238
  0
LINE
  8
_0-3_躯体と製品
  6
CONTINUOUS
 62
    4
 10
871.29799726551028
 20
407.37205986592016
 11
886.09899726551703
 21
407.37205986592016
  0
LINE
  8
_0-3_躯体と製品
  6
CONTINUOUS
 62
    4
 10
871.29799726551028
 20
406.37305986592582
 11
886.09899726551703
 21
406.37305986592582
  0
LINE
  8
_0-3_躯体と製品
  6
CONTINUOUS
 62
    4
 10
871.29799726551028
 20
412.37305986592582
 11
886.09899726551703
 21
412.37305986592582
  0
LINE
  8
_0-3_躯体と製品
  6
CONTINUOUS
 62
    4
 10
871.29799726551028
 20
413.37205986592198
 11
886.09899726551703
 21
413.37205986592198
  0
LINE
  8
_0-3_躯体と製品
  6
CONTINUOUS
 62
    4
 10
890.0979972655241
 20
416.17205986592671
 11
887.79799726551028
 21
416.17205986592671
  0
LINE
  8
_0-3_躯体と製品
  6
CONTINUOUS
 62
    4
 10
890.0979972655241
 20
416.77205986592344
 11
887.79799726551028
 21
416.77205986592344
  0
LINE
  8
_0-3_躯体と製品
  6
CONTINUOUS
 62
    4
 10
887.29899726552867
 20
415.57205986592635
 11
890.19799726550445
 21
415.57205986592635
  0
LINE
  8
_0-3_躯体と製品
  6
CONTINUOUS
 62
    4
 10
890.0979972655241
 20
416.77205986592344
 11
890.0979972655241
 21
416.17205986592671
  0
LINE
  8
_0-3_躯体と製品
  6
CONTINUOUS
 62
    4
 10
890.69799726550445
 20
416.87305986592582
 11
890.69799726550445
 21
416.07205986592635
  0
ARC
  8
_0-3_躯体と製品
  6
CONTINUOUS
 62
    4
 10
887.79799726551028
 20
415.67305986592146
 40
0.4999999999999998
 50
90.000002999880451
 51
180.00000600017779
  0
ARC
  8
_0-3_躯体と製品
  6
CONTINUOUS
 62
    4
 10
890.19799726550445
 20
416.87305986592582
 40
0.4999999999999998
 50
0
 51
90.000002999880451
  0
ARC
  8
_0-3_躯体と製品
  6
CONTINUOUS
 62
    4
 10
890.19799726550445
 20
416.07205986592635
 40
0.4999999999999998
 50
269.99999700011949
 51
0
  0
ARC
  8
_0-3_躯体と製品
  6
CONTINUOUS
 62
    4
 10
885.5979972655241
 20
415.67305986592146
 40
0.4999999999999998
 50
0
 51
90.000002999880451
  0
ARC
  8
_0-3_躯体と製品
  6
CONTINUOUS
 62
    4
 10
887.79799726551028
 20
415.67305986592146
 40
1.099999999999999
 50
90.000002999880451
 51
180.00000600017779
  0
ARC
  8
_0-3_躯体と製品
  6
CONTINUOUS
 62
    4
 10
885.5979972655241
 20
415.67305986592146
 40
1.099999999999999
 50
0
 51
90.000002999880451
  0
LINE
  8
_0-3_躯体と製品
  6
CONTINUOUS
 62
    4
 10
882.69799726550445
 20
416.07205986592635
 11
882.69799726550445
 21
416.87305986592582
  0
LINE
  8
_0-3_躯体と製品
  6
CONTINUOUS
 62
    4
 10
883.29799726551028
 20
416.77205986592344
 11
883.29799726551028
 21
416.17205986592671
  0
ARC
  8
_0-3_躯体と製品
  6
CONTINUOUS
 62
    4
 10
883.19799726550445
 20
416.87305986592582
 40
0.4999999999999998
 50
90.000002999880451
 51
180.00000600017779
  0
ARC
  8
_0-3_躯体と製品
  6
CONTINUOUS
 62
    4
 10
883.19799726550445
 20
416.07205986592635
 40
0.4999999999999998
 50
180.00000600017779
 51
269.99999700011949
  0
LINE
  8
_0-3_躯体と製品
  6
CONTINUOUS
 62
    4
 10
883.19799726550445
 20
417.3720598659238
 11
890.19799726550445
 21
417.3720598659238
  0
LINE
  8
_0-3_躯体と製品
  6
CONTINUOUS
 62
    4
 10
883.29799726551028
 20
416.77205986592344
 11
885.5979972655241
 21
416.77205986592344
  0
LINE
  8
_0-3_躯体と製品
  6
CONTINUOUS
 62
    4
 10
883.29799726551028
 20
416.17205986592671
 11
885.5979972655241
 21
416.17205986592671
  0
LINE
  8
_0-3_躯体と製品
  6
CONTINUOUS
 62
    4
 10
883.19799726550445
 20
415.57205986592635
 11
886.09899726551703
 21
415.57205986592635
  0
ARC
  8
_0-3_躯体と製品
  6
CONTINUOUS
 62
    4
 10
886.69899726552103
 20
402.9720598659278
 40
0.5999999999999997
 50
180.00000600017779
 51
0
  0
LINE
  8
_0-3_躯体と製品
  6
CONTINUOUS
 62
    4
 10
886.69899726552103
 20
402.37205986592198
 11
886.69899726552103
 21
415.67305986592146
  0
LINE
  8
_0-3_躯体と製品
  6
CONTINUOUS
 62
    4
 10
886.09899726551703
 20
415.67305986592146
 11
886.09899726551703
 21
402.9720598659278
  0
LINE
  8
_0-3_躯体と製品
  6
CONTINUOUS
 62
    4
 10
887.29899726552867
 20
415.67305986592146
 11
887.29899726552867
 21
402.9720598659278
  0
LINE
  8
_0-3_躯体と製品
  6
CONTINUOUS
 62
    4
 10
807.29799726550846
 20
406.37305986592582
 11
822.09799726552774
 21
406.37305986592582
  0
LINE
  8
_0-3_躯体と製品
  6
CONTINUOUS
 62
    4
 10
807.29799726550846
 20
407.37205986592016
 11
822.09799726552774
 21
407.37205986592016
  0
LINE
  8
_0-3_躯体と製品
  6
CONTINUOUS
 62
    4
 10
807.29799726550846
 20
413.37205986592198
 11
822.09799726552774
 21
413.37205986592198
  0
LINE
  8
_0-3_躯体と製品
  6
CONTINUOUS
 62
    4
 10
807.29799726550846
 20
412.37305986592582
 11
822.09799726552774
 21
412.37305986592582
  0
LINE
  8
_0-3_躯体と製品
  6
CONTINUOUS
 62
    4
 10
871.29799726551028
 20
415.57205986592635
 11
874.19799726550627
 21
415.57205986592635
  0
LINE
  8
_0-3_躯体と製品
  6
CONTINUOUS
 62
    4
 10
867.19899726552285
 20
417.3720598659238
 11
874.19799726550627
 21
417.3720598659238
  0
LINE
  8
_0-3_躯体と製品
  6
CONTINUOUS
 62
    4
 10
874.09899726551703
 20
416.77205986592344
 11
871.79799726550846
 21
416.77205986592344
  0
LINE
  8
_0-3_躯体と製品
  6
CONTINUOUS
 62
    4
 10
874.09899726551703
 20
416.17205986592671
 11
871.79799726550846
 21
416.17205986592671
  0
LINE
  8
_0-3_躯体と製品
  6
CONTINUOUS
 62
    4
 10
842.69799726550445
 20
416.87305986592582
 11
842.69799726550445
 21
416.07205986592635
  0
ARC
  8
_0-3_躯体と製品
  6
CONTINUOUS
 62
    4
 10
842.19799726550445
 20
416.07205986592635
 40
0.4999999999999998
 50
269.99999700011949
 51
0
  0
ARC
  8
_0-3_躯体と製品
  6
CONTINUOUS
 62
    4
 10
842.19799726550445
 20
416.87305986592582
 40
0.4999999999999998
 50
0
 51
90.000002999880451
  0
ARC
  8
_0-3_躯体と製品
  6
CONTINUOUS
 62
    4
 10
871.79799726550846
 20
415.67305986592146
 40
0.4999999999999998
 50
90.000002999880451
 51
180.00000600017779
  0
ARC
  8
_0-3_躯体と製品
  6
CONTINUOUS
 62
    4
 10
871.79799726550846
 20
415.67305986592146
 40
1.099999999999999
 50
90.000002999880451
 51
180.00000600017779
  0
LINE
  8
_0-3_躯体と製品
  6
CONTINUOUS
 62
    4
 10
867.29799726550846
 20
416.77205986592344
 11
867.29799726550846
 21
416.17205986592671
  0
LINE
  8
_0-3_躯体と製品
  6
CONTINUOUS
 62
    4
 10
866.69799726550445
 20
416.07205986592635
 11
866.69799726550445
 21
416.87305986592582
  0
LINE
  8
_0-3_躯体と製品
  6
CONTINUOUS
 62
    4
 10
867.19899726552285
 20
415.57205986592635
 11
870.09799726552956
 21
415.57205986592635
  0
LINE
  8
_0-3_躯体と製品
  6
CONTINUOUS
 62
    4
 10
867.29799726550846
 20
416.77205986592344
 11
869.59899726551703
 21
416.77205986592344
  0
LINE
  8
_0-3_躯体と製品
  6
CONTINUOUS
 62
    4
 10
867.29799726550846
 20
416.17205986592671
 11
869.59899726551703
 21
416.17205986592671
  0
ARC
  8
_0-3_躯体と製品
  6
CONTINUOUS
 62
    4
 10
867.19899726552285
 20
416.87305986592582
 40
0.4999999999999998
 50
90.000002999880451
 51
180.00000600017779
  0
ARC
  8
_0-3_躯体と製品
  6
CONTINUOUS
 62
    4
 10
867.19899726552285
 20
416.07205986592635
 40
0.4999999999999998
 50
180.00000600017779
 51
269.99999700011949
  0
ARC
  8
_0-3_躯体と製品
  6
CONTINUOUS
 62
    4
 10
869.59899726551703
 20
415.67305986592146
 40
0.4999999999999998
 50
0
 51
90.000002999880451
  0
ARC
  8
_0-3_躯体と製品
  6
CONTINUOUS
 62
    4
 10
869.59899726551703
 20
415.67305986592146
 40
1.099999999999999
 50
0
 51
90.000002999880451
  0
LINE
  8
_0-3_躯体と製品
  6
CONTINUOUS
 62
    4
 10
858.69799726550264
 20
416.87305986592582
 11
858.69799726550264
 21
416.07205986592635
  0
LINE
  8
_0-3_躯体と製品
  6
CONTINUOUS
 62
    4
 10
858.09799726552956
 20
416.17205986592671
 11
855.79899726552867
 21
416.17205986592671
  0
LINE
  8
_0-3_躯体と製品
  6
CONTINUOUS
 62
    4
 10
858.09799726552956
 20
416.77205986592344
 11
858.09799726552956
 21
416.17205986592671
  0
LINE
  8
_0-3_躯体と製品
  6
CONTINUOUS
 62
    4
 10
855.29799726550846
 20
415.57205986592635
 11
858.19899726552285
 21
415.57205986592635
  0
LINE
  8
_0-3_躯体と製品
  6
CONTINUOUS
 62
    4
 10
851.29899726552867
 20
416.77205986592344
 11
851.29899726552867
 21
416.17205986592671
  0
LINE
  8
_0-3_躯体と製品
  6
CONTINUOUS
 62
    4
 10
851.29899726552867
 20
416.77205986592344
 11
853.59799726552956
 21
416.77205986592344
  0
LINE
  8
_0-3_躯体と製品
  6
CONTINUOUS
 62
    4
 10
851.19799726550445
 20
415.57205986592635
 11
854.09799726552592
 21
415.57205986592635
  0
LINE
  8
_0-3_躯体と製品
  6
CONTINUOUS
 62
    4
 10
851.29899726552867
 20
416.17205986592671
 11
853.59799726552956
 21
416.17205986592671
  0
LINE
  8
_0-3_躯体と製品
  6
CONTINUOUS
 62
    4
 10
851.19799726550445
 20
417.3720598659238
 11
858.19899726552285
 21
417.3720598659238
  0
LINE
  8
_0-3_躯体と製品
  6
CONTINUOUS
 62
    4
 10
858.09799726552956
 20
416.77205986592344
 11
855.79899726552867
 21
416.77205986592344
  0
LINE
  8
_0-3_躯体と製品
  6
CONTINUOUS
 62
    4
 10
850.69899726552103
 20
416.07205986592635
 11
850.69899726552103
 21
416.87305986592582
  0
ARC
  8
_0-3_躯体と製品
  6
CONTINUOUS
 62
    4
 10
853.59799726552956
 20
415.67305986592146
 40
0.4999999999999998
 50
0
 51
90.000002999880451
  0
ARC
  8
_0-3_躯体と製品
  6
CONTINUOUS
 62
    4
 10
855.79899726552867
 20
415.67305986592146
 40
1.099999999999999
 50
90.000002999880451
 51
180.00000600017779
  0
ARC
  8
_0-3_躯体と製品
  6
CONTINUOUS
 62
    4
 10
853.59799726552956
 20
415.67305986592146
 40
1.099999999999999
 50
0
 51
90.000002999880451
  0
ARC
  8
_0-3_躯体と製品
  6
CONTINUOUS
 62
    4
 10
855.79899726552867
 20
415.67305986592146
 40
0.4999999999999998
 50
90.000002999880451
 51
180.00000600017779
  0
ARC
  8
_0-3_躯体と製品
  6
CONTINUOUS
 62
    4
 10
851.19799726550445
 20
416.07205986592635
 40
0.4999999999999998
 50
180.00000600017779
 51
269.99999700011949
  0
ARC
  8
_0-3_躯体と製品
  6
CONTINUOUS
 62
    4
 10
851.19799726550445
 20
416.87305986592582
 40
0.4999999999999998
 50
90.000002999880451
 51
180.00000600017779
  0
ARC
  8
_0-3_躯体と製品
  6
CONTINUOUS
 62
    4
 10
858.19899726552285
 20
416.87305986592582
 40
0.4999999999999998
 50
0
 51
90.000002999880451
  0
ARC
  8
_0-3_躯体と製品
  6
CONTINUOUS
 62
    4
 10
858.19899726552285
 20
416.07205986592635
 40
0.4999999999999998
 50
269.99999700011949
 51
0
  0
LINE
  8
_0-3_躯体と製品
  6
CONTINUOUS
 62
    4
 10
855.29799726550846
 20
412.37305986592582
 11
870.09799726552956
 21
412.37305986592582
  0
LINE
  8
_0-3_躯体と製品
  6
CONTINUOUS
 62
    4
 10
855.29799726550846
 20
413.37205986592198
 11
870.09799726552956
 21
413.37205986592198
  0
ARC
  8
_0-3_躯体と製品
  6
CONTINUOUS
 62
    4
 10
870.69799726550264
 20
402.9720598659278
 40
0.5999999999999997
 50
180.00000600017779
 51
0
  0
ARC
  8
_0-3_躯体と製品
  6
CONTINUOUS
 62
    4
 10
854.69799726550445
 20
402.9720598659278
 40
0.5999999999999997
 50
180.00000600017779
 51
0
  0
LINE
  8
_0-3_躯体と製品
  6
CONTINUOUS
 62
    4
 10
855.29799726550846
 20
407.37205986592016
 11
870.09799726552956
 21
407.37205986592016
  0
LINE
  8
_0-3_躯体と製品
  6
CONTINUOUS
 62
    4
 10
855.29799726550846
 20
406.37305986592582
 11
870.09799726552956
 21
406.37305986592582
  0
LINE
  8
_0-3_躯体と製品
  6
CONTINUOUS
 62
    4
 10
870.69799726550264
 20
402.37205986592198
 11
870.69799726550264
 21
415.67305986592146
  0
LINE
  8
_0-3_躯体と製品
  6
CONTINUOUS
 62
    4
 10
870.09799726552956
 20
415.67305986592146
 11
870.09799726552956
 21
402.9720598659278
  0
LINE
  8
_0-3_躯体と製品
  6
CONTINUOUS
 62
    4
 10
871.29799726551028
 20
415.67305986592146
 11
871.29799726551028
 21
402.9720598659278
  0
LINE
  8
_0-3_躯体と製品
  6
CONTINUOUS
 62
    4
 10
855.29799726550846
 20
415.67305986592146
 11
855.29799726550846
 21
402.9720598659278
  0
LINE
  8
_0-3_躯体と製品
  6
CONTINUOUS
 62
    4
 10
854.69799726550445
 20
402.37205986592198
 11
854.69799726550445
 21
415.67305986592146
  0
LINE
  8
_0-3_躯体と製品
  6
CONTINUOUS
 62
    4
 10
854.09799726552592
 20
415.67305986592146
 11
854.09799726552592
 21
402.9720598659278
  0
LINE
  8
_0-3_躯体と製品
  6
CONTINUOUS
 62
    4
 10
874.09899726551703
 20
416.77205986592344
 11
874.09899726551703
 21
416.17205986592671
  0
LINE
  8
_0-3_躯体と製品
  6
CONTINUOUS
 62
    4
 10
874.69899726552103
 20
416.87305986592582
 11
874.69899726552103
 21
416.07205986592635
  0
ARC
  8
_0-3_躯体と製品
  6
CONTINUOUS
 62
    4
 10
874.19799726550627
 20
416.07205986592635
 40
0.4999999999999998
 50
269.99999700011949
 51
0
  0
ARC
  8
_0-3_躯体と製品
  6
CONTINUOUS
 62
    4
 10
874.19799726550627
 20
416.87305986592582
 40
0.4999999999999998
 50
0
 51
90.000002999880451
  0
LINE
  8
_0-3_躯体と製品
  6
CONTINUOUS
 62
    4
 10
819.19899726552103
 20
417.3720598659238
 11
826.19799726550627
 21
417.3720598659238
  0
LINE
  8
_0-3_躯体と製品
  6
CONTINUOUS
 62
    4
 10
823.29799726551028
 20
415.57205986592635
 11
826.19799726550627
 21
415.57205986592635
  0
ARC
  8
_0-3_躯体と製品
  6
CONTINUOUS
 62
    4
 10
823.79799726550846
 20
415.67305986592146
 40
0.4999999999999998
 50
90.000002999880451
 51
180.00000600017779
  0
ARC
  8
_0-3_躯体と製品
  6
CONTINUOUS
 62
    4
 10
823.79799726550846
 20
415.67305986592146
 40
1.099999999999999
 50
90.000002999880451
 51
180.00000600017779
  0
LINE
  8
_0-3_躯体と製品
  6
CONTINUOUS
 62
    4
 10
823.29799726551028
 20
413.37205986592198
 11
838.09899726551521
 21
413.37205986592198
  0
LINE
  8
_0-3_躯体と製品
  6
CONTINUOUS
 62
    4
 10
823.29799726551028
 20
412.37305986592582
 11
838.09899726551521
 21
412.37305986592582
  0
LINE
  8
_0-3_躯体と製品
  6
CONTINUOUS
 62
    4
 10
823.29799726551028
 20
406.37305986592582
 11
838.09899726551521
 21
406.37305986592582
  0
LINE
  8
_0-3_躯体と製品
  6
CONTINUOUS
 62
    4
 10
823.29799726551028
 20
407.37205986592016
 11
838.09899726551521
 21
407.37205986592016
  0
LINE
  8
_0-3_躯体と製品
  6
CONTINUOUS
 62
    4
 10
819.29799726550846
 20
416.77205986592344
 11
819.29799726550846
 21
416.17205986592671
  0
LINE
  8
_0-3_躯体と製品
  6
CONTINUOUS
 62
    4
 10
819.29799726550846
 20
416.77205986592344
 11
821.59899726551703
 21
416.77205986592344
  0
LINE
  8
_0-3_躯体と製品
  6
CONTINUOUS
 62
    4
 10
818.69799726550445
 20
416.07205986592635
 11
818.69799726550445
 21
416.87305986592582
  0
LINE
  8
_0-3_躯体と製品
  6
CONTINUOUS
 62
    4
 10
819.29799726550846
 20
416.17205986592671
 11
821.59899726551703
 21
416.17205986592671
  0
LINE
  8
_0-3_躯体と製品
  6
CONTINUOUS
 62
    4
 10
819.19899726552103
 20
415.57205986592635
 11
822.09799726552774
 21
415.57205986592635
  0
ARC
  8
_0-3_躯体と製品
  6
CONTINUOUS
 62
    4
 10
819.19899726552103
 20
416.87305986592582
 40
0.4999999999999998
 50
90.000002999880451
 51
180.00000600017779
  0
ARC
  8
_0-3_躯体と製品
  6
CONTINUOUS
 62
    4
 10
819.19899726552103
 20
416.07205986592635
 40
0.4999999999999998
 50
180.00000600017779
 51
269.99999700011949
  0
ARC
  8
_0-3_躯体と製品
  6
CONTINUOUS
 62
    4
 10
821.59899726551703
 20
415.67305986592146
 40
0.4999999999999998
 50
0
 51
90.000002999880451
  0
ARC
  8
_0-3_躯体と製品
  6
CONTINUOUS
 62
    4
 10
821.59899726551703
 20
415.67305986592146
 40
1.099999999999999
 50
0
 51
90.000002999880451
  0
ARC
  8
_0-3_躯体と製品
  6
CONTINUOUS
 62
    4
 10
822.69799726550264
 20
402.9720598659278
 40
0.5999999999999997
 50
180.00000600017779
 51
0
  0
LINE
  8
_0-3_躯体と製品
  6
CONTINUOUS
 62
    4
 10
823.29799726551028
 20
415.67305986592146
 11
823.29799726551028
 21
402.9720598659278
  0
LINE
  8
_0-3_躯体と製品
  6
CONTINUOUS
 62
    4
 10
822.69799726550264
 20
402.37205986592198
 11
822.69799726550264
 21
415.67305986592146
  0
LINE
  8
_0-3_躯体と製品
  6
CONTINUOUS
 62
    4
 10
822.09799726552774
 20
415.67305986592146
 11
822.09799726552774
 21
402.9720598659278
  0
LINE
  8
_0-3_躯体と製品
  6
CONTINUOUS
 62
    4
 10
842.09799726552774
 20
416.77205986592344
 11
842.09799726552774
 21
416.17205986592671
  0
LINE
  8
_0-3_躯体と製品
  6
CONTINUOUS
 62
    4
 10
834.69799726550445
 20
416.07205986592635
 11
834.69799726550445
 21
416.87305986592582
  0
LINE
  8
_0-3_躯体と製品
  6
CONTINUOUS
 62
    4
 10
842.09799726552774
 20
416.77205986592344
 11
839.79799726551028
 21
416.77205986592344
  0
LINE
  8
_0-3_躯体と製品
  6
CONTINUOUS
 62
    4
 10
835.29799726551028
 20
416.77205986592344
 11
837.59799726552774
 21
416.77205986592344
  0
LINE
  8
_0-3_躯体と製品
  6
CONTINUOUS
 62
    4
 10
835.19799726550627
 20
415.57205986592635
 11
838.09899726551521
 21
415.57205986592635
  0
LINE
  8
_0-3_躯体と製品
  6
CONTINUOUS
 62
    4
 10
835.29799726551028
 20
416.77205986592344
 11
835.29799726551028
 21
416.17205986592671
  0
LINE
  8
_0-3_躯体と製品
  6
CONTINUOUS
 62
    4
 10
842.09799726552774
 20
416.17205986592671
 11
839.79799726551028
 21
416.17205986592671
  0
LINE
  8
_0-3_躯体と製品
  6
CONTINUOUS
 62
    4
 10
835.29799726551028
 20
416.17205986592671
 11
837.59799726552774
 21
416.17205986592671
  0
ARC
  8
_0-3_躯体と製品
  6
CONTINUOUS
 62
    4
 10
835.19799726550627
 20
416.87305986592582
 40
0.4999999999999998
 50
90.000002999880451
 51
180.00000600017779
  0
ARC
  8
_0-3_躯体と製品
  6
CONTINUOUS
 62
    4
 10
839.79799726551028
 20
415.67305986592146
 40
0.4999999999999998
 50
90.000002999880451
 51
180.00000600017779
  0
ARC
  8
_0-3_躯体と製品
  6
CONTINUOUS
 62
    4
 10
837.59799726552774
 20
415.67305986592146
 40
0.4999999999999998
 50
0
 51
90.000002999880451
  0
ARC
  8
_0-3_躯体と製品
  6
CONTINUOUS
 62
    4
 10
839.79799726551028
 20
415.67305986592146
 40
1.099999999999999
 50
90.000002999880451
 51
180.00000600017779
  0
ARC
  8
_0-3_躯体と製品
  6
CONTINUOUS
 62
    4
 10
837.59799726552774
 20
415.67305986592146
 40
1.099999999999999
 50
0
 51
90.000002999880451
  0
ARC
  8
_0-3_躯体と製品
  6
CONTINUOUS
 62
    4
 10
835.19799726550627
 20
416.07205986592635
 40
0.4999999999999998
 50
180.00000600017779
 51
269.99999700011949
  0
LINE
  8
_0-3_躯体と製品
  6
CONTINUOUS
 62
    4
 10
826.69899726552103
 20
416.87305986592582
 11
826.69899726552103
 21
416.07205986592635
  0
LINE
  8
_0-3_躯体と製品
  6
CONTINUOUS
 62
    4
 10
826.09899726551703
 20
416.77205986592344
 11
826.09899726551703
 21
416.17205986592671
  0
LINE
  8
_0-3_躯体と製品
  6
CONTINUOUS
 62
    4
 10
826.09899726551703
 20
416.77205986592344
 11
823.79799726550846
 21
416.77205986592344
  0
LINE
  8
_0-3_躯体と製品
  6
CONTINUOUS
 62
    4
 10
826.09899726551703
 20
416.17205986592671
 11
823.79799726550846
 21
416.17205986592671
  0
ARC
  8
_0-3_躯体と製品
  6
CONTINUOUS
 62
    4
 10
826.19799726550627
 20
416.07205986592635
 40
0.4999999999999998
 50
269.99999700011949
 51
0
  0
ARC
  8
_0-3_躯体と製品
  6
CONTINUOUS
 62
    4
 10
826.19799726550627
 20
416.87305986592582
 40
0.4999999999999998
 50
0
 51
90.000002999880451
  0
ARC
  8
_0-3_躯体と製品
  6
CONTINUOUS
 62
    4
 10
838.69899726552103
 20
402.9720598659278
 40
0.5999999999999997
 50
180.00000600017779
 51
0
  0
LINE
  8
_0-3_躯体と製品
  6
CONTINUOUS
 62
    4
 10
838.69899726552103
 20
402.37205986592198
 11
838.69899726552103
 21
415.67305986592146
  0
LINE
  8
_0-3_躯体と製品
  6
CONTINUOUS
 62
    4
 10
838.09899726551521
 20
415.67305986592146
 11
838.09899726551521
 21
402.9720598659278
  0
LINE
  8
_0-3_躯体と製品
  6
CONTINUOUS
 62
    4
 10
839.29899726552867
 20
415.67305986592146
 11
839.29899726552867
 21
402.9720598659278
  0
LINE
  8
_0-3_躯体と製品
  6
CONTINUOUS
 62
    4
 10
839.29899726552867
 20
413.37205986592198
 11
854.09799726552592
 21
413.37205986592198
  0
LINE
  8
_0-3_躯体と製品
  6
CONTINUOUS
 62
    4
 10
839.29899726552867
 20
412.37305986592582
 11
854.09799726552592
 21
412.37305986592582
  0
LINE
  8
_0-3_躯体と製品
  6
CONTINUOUS
 62
    4
 10
839.29899726552867
 20
406.37305986592582
 11
854.09799726552592
 21
406.37305986592582
  0
LINE
  8
_0-3_躯体と製品
  6
CONTINUOUS
 62
    4
 10
839.29899726552867
 20
407.37205986592016
 11
854.09799726552592
 21
407.37205986592016
  0
LINE
  8
_0-3_躯体と製品
  6
CONTINUOUS
 62
    4
 10
839.29899726552867
 20
415.57205986592635
 11
842.19799726550445
 21
415.57205986592635
  0
LINE
  8
_0-3_躯体と製品
  6
CONTINUOUS
 62
    4
 10
835.19799726550627
 20
417.3720598659238
 11
842.19799726550445
 21
417.3720598659238
  0
LINE
  8
_0-3_躯体と製品
  6
CONTINUOUS
 62
    4
 10
951.2974972654938
 20
407.37205986592016
 11
966.09849726550419
 21
407.37205986592016
  0
LINE
  8
_0-3_躯体と製品
  6
CONTINUOUS
 62
    4
 10
951.2974972654938
 20
406.37305986592582
 11
966.09849726550419
 21
406.37305986592582
  0
LINE
  8
_0-3_躯体と製品
  6
CONTINUOUS
 62
    4
 10
951.2974972654938
 20
412.37305986592582
 11
966.09849726550419
 21
412.37305986592582
  0
LINE
  8
_0-3_躯体と製品
  6
CONTINUOUS
 62
    4
 10
951.2974972654938
 20
413.37205986592198
 11
966.09849726550419
 21
413.37205986592198
  0
LINE
  8
_0-3_躯体と製品
  6
CONTINUOUS
 62
    4
 10
970.09749726551308
 20
416.17205986592671
 11
967.7974972654938
 21
416.17205986592671
  0
LINE
  8
_0-3_躯体と製品
  6
CONTINUOUS
 62
    4
 10
970.09749726551308
 20
416.77205986592344
 11
967.7974972654938
 21
416.77205986592344
  0
LINE
  8
_0-3_躯体と製品
  6
CONTINUOUS
 62
    4
 10
967.29849726551402
 20
415.57205986592635
 11
970.19749726549344
 21
415.57205986592635
  0
LINE
  8
_0-3_躯体と製品
  6
CONTINUOUS
 62
    4
 10
970.09749726551308
 20
416.77205986592344
 11
970.09749726551308
 21
416.17205986592671
  0
LINE
  8
_0-3_躯体と製品
  6
CONTINUOUS
 62
    4
 10
970.69749726549344
 20
416.87305986592582
 11
970.69749726549344
 21
416.07205986592635
  0
ARC
  8
_0-3_躯体と製品
  6
CONTINUOUS
 62
    4
 10
967.7974972654938
 20
415.67305986592146
 40
0.4999999999999998
 50
90.000002999880451
 51
180.00000600017779
  0
ARC
  8
_0-3_躯体と製品
  6
CONTINUOUS
 62
    4
 10
970.19749726549344
 20
416.87305986592582
 40
0.4999999999999998
 50
0
 51
90.000002999880451
  0
ARC
  8
_0-3_躯体と製品
  6
CONTINUOUS
 62
    4
 10
970.19749726549344
 20
416.07205986592635
 40
0.4999999999999998
 50
269.99999700011949
 51
0
  0
ARC
  8
_0-3_躯体と製品
  6
CONTINUOUS
 62
    4
 10
965.59749726551308
 20
415.67305986592146
 40
0.4999999999999998
 50
0
 51
90.000002999880451
  0
ARC
  8
_0-3_躯体と製品
  6
CONTINUOUS
 62
    4
 10
967.7974972654938
 20
415.67305986592146
 40
1.099999999999999
 50
90.000002999880451
 51
180.00000600017779
  0
ARC
  8
_0-3_躯体と製品
  6
CONTINUOUS
 62
    4
 10
965.59749726551308
 20
415.67305986592146
 40
1.099999999999999
 50
0
 51
90.000002999880451
  0
LINE
  8
_0-3_躯体と製品
  6
CONTINUOUS
 62
    4
 10
962.69749726549344
 20
416.07205986592635
 11
962.69749726549344
 21
416.87305986592582
  0
LINE
  8
_0-3_躯体と製品
  6
CONTINUOUS
 62
    4
 10
963.29749726550472
 20
416.77205986592344
 11
963.29749726550472
 21
416.17205986592671
  0
ARC
  8
_0-3_躯体と製品
  6
CONTINUOUS
 62
    4
 10
963.19749726549344
 20
416.87305986592582
 40
0.4999999999999998
 50
90.000002999880451
 51
180.00000600017779
  0
ARC
  8
_0-3_躯体と製品
  6
CONTINUOUS
 62
    4
 10
963.19749726549344
 20
416.07205986592635
 40
0.4999999999999998
 50
180.00000600017779
 51
269.99999700011949
  0
LINE
  8
_0-3_躯体と製品
  6
CONTINUOUS
 62
    4
 10
963.19749726549344
 20
417.3720598659238
 11
970.19749726549344
 21
417.3720598659238
  0
LINE
  8
_0-3_躯体と製品
  6
CONTINUOUS
 62
    4
 10
963.29749726550472
 20
416.77205986592344
 11
965.59749726551308
 21
416.77205986592344
  0
LINE
  8
_0-3_躯体と製品
  6
CONTINUOUS
 62
    4
 10
963.29749726550472
 20
416.17205986592671
 11
965.59749726551308
 21
416.17205986592671
  0
LINE
  8
_0-3_躯体と製品
  6
CONTINUOUS
 62
    4
 10
963.19749726549344
 20
415.57205986592635
 11
966.09849726550419
 21
415.57205986592635
  0
ARC
  8
_0-3_躯体と製品
  6
CONTINUOUS
 62
    4
 10
966.69849726550456
 20
402.9720598659278
 40
0.5999999999999997
 50
180.00000600017779
 51
0
  0
LINE
  8
_0-3_躯体と製品
  6
CONTINUOUS
 62
    4
 10
966.69849726550456
 20
402.37205986592198
 11
966.69849726550456
 21
415.67305986592146
  0
LINE
  8
_0-3_躯体と製品
  6
CONTINUOUS
 62
    4
 10
966.09849726550419
 20
415.67305986592146
 11
966.09849726550419
 21
402.9720598659278
  0
LINE
  8
_0-3_躯体と製品
  6
CONTINUOUS
 62
    4
 10
967.29849726551402
 20
415.67305986592146
 11
967.29849726551402
 21
402.9720598659278
  0
LINE
  8
_0-3_躯体と製品
  6
CONTINUOUS
 62
    4
 10
887.29749726549926
 20
406.37305986592582
 11
902.09749726552036
 21
406.37305986592582
  0
LINE
  8
_0-3_躯体と製品
  6
CONTINUOUS
 62
    4
 10
887.29749726549926
 20
407.37205986592016
 11
902.09749726552036
 21
407.37205986592016
  0
LINE
  8
_0-3_躯体と製品
  6
CONTINUOUS
 62
    4
 10
887.29749726549926
 20
413.37205986592198
 11
902.09749726552036
 21
413.37205986592198
  0
LINE
  8
_0-3_躯体と製品
  6
CONTINUOUS
 62
    4
 10
887.29749726549926
 20
412.37305986592582
 11
902.09749726552036
 21
412.37305986592582
  0
LINE
  8
_0-3_躯体と製品
  6
CONTINUOUS
 62
    4
 10
951.2974972654938
 20
415.57205986592635
 11
954.19749726549344
 21
415.57205986592635
  0
LINE
  8
_0-3_躯体と製品
  6
CONTINUOUS
 62
    4
 10
947.19849726551365
 20
417.3720598659238
 11
954.19749726549344
 21
417.3720598659238
  0
LINE
  8
_0-3_躯体と製品
  6
CONTINUOUS
 62
    4
 10
954.09849726550419
 20
416.77205986592344
 11
951.7974972654938
 21
416.77205986592344
  0
LINE
  8
_0-3_躯体と製品
  6
CONTINUOUS
 62
    4
 10
954.09849726550419
 20
416.17205986592671
 11
951.7974972654938
 21
416.17205986592671
  0
LINE
  8
_0-3_躯体と製品
  6
CONTINUOUS
 62
    4
 10
922.69749726549526
 20
416.87305986592582
 11
922.69749726549526
 21
416.07205986592635
  0
ARC
  8
_0-3_躯体と製品
  6
CONTINUOUS
 62
    4
 10
922.19749726549344
 20
416.07205986592635
 40
0.4999999999999998
 50
269.99999700011949
 51
0
  0
ARC
  8
_0-3_躯体と製品
  6
CONTINUOUS
 62
    4
 10
922.19749726549344
 20
416.87305986592582
 40
0.4999999999999998
 50
0
 51
90.000002999880451
  0
ARC
  8
_0-3_躯体と製品
  6
CONTINUOUS
 62
    4
 10
951.7974972654938
 20
415.67305986592146
 40
0.4999999999999998
 50
90.000002999880451
 51
180.00000600017779
  0
ARC
  8
_0-3_躯体と製品
  6
CONTINUOUS
 62
    4
 10
951.7974972654938
 20
415.67305986592146
 40
1.099999999999999
 50
90.000002999880451
 51
180.00000600017779
  0
LINE
  8
_0-3_躯体と製品
  6
CONTINUOUS
 62
    4
 10
947.2974972654938
 20
416.77205986592344
 11
947.2974972654938
 21
416.17205986592671
  0
LINE
  8
_0-3_躯体と製品
  6
CONTINUOUS
 62
    4
 10
946.69749726549526
 20
416.07205986592635
 11
946.69749726549526
 21
416.87305986592582
  0
LINE
  8
_0-3_躯体と製品
  6
CONTINUOUS
 62
    4
 10
947.19849726551365
 20
415.57205986592635
 11
950.09749726551308
 21
415.57205986592635
  0
LINE
  8
_0-3_躯体と製品
  6
CONTINUOUS
 62
    4
 10
947.2974972654938
 20
416.77205986592344
 11
949.59849726550419
 21
416.77205986592344
  0
LINE
  8
_0-3_躯体と製品
  6
CONTINUOUS
 62
    4
 10
947.2974972654938
 20
416.17205986592671
 11
949.59849726550419
 21
416.17205986592671
  0
ARC
  8
_0-3_躯体と製品
  6
CONTINUOUS
 62
    4
 10
947.19849726551365
 20
416.87305986592582
 40
0.4999999999999998
 50
90.000002999880451
 51
180.00000600017779
  0
ARC
  8
_0-3_躯体と製品
  6
CONTINUOUS
 62
    4
 10
947.19849726551365
 20
416.07205986592635
 40
0.4999999999999998
 50
180.00000600017779
 51
269.99999700011949
  0
ARC
  8
_0-3_躯体と製品
  6
CONTINUOUS
 62
    4
 10
949.59849726550419
 20
415.67305986592146
 40
0.4999999999999998
 50
0
 51
90.000002999880451
  0
ARC
  8
_0-3_躯体と製品
  6
CONTINUOUS
 62
    4
 10
949.59849726550419
 20
415.67305986592146
 40
1.099999999999999
 50
0
 51
90.000002999880451
  0
LINE
  8
_0-3_躯体と製品
  6
CONTINUOUS
 62
    4
 10
938.69749726549344
 20
416.87305986592582
 11
938.69749726549344
 21
416.07205986592635
  0
LINE
  8
_0-3_躯体と製品
  6
CONTINUOUS
 62
    4
 10
938.09749726552036
 20
416.17205986592671
 11
935.79849726552129
 21
416.17205986592671
  0
LINE
  8
_0-3_躯体と製品
  6
CONTINUOUS
 62
    4
 10
938.09749726552036
 20
416.77205986592344
 11
938.09749726552036
 21
416.17205986592671
  0
LINE
  8
_0-3_躯体と製品
  6
CONTINUOUS
 62
    4
 10
935.29749726549926
 20
415.57205986592635
 11
938.19849726551365
 21
415.57205986592635
  0
LINE
  8
_0-3_躯体と製品
  6
CONTINUOUS
 62
    4
 10
931.29849726551947
 20
416.77205986592344
 11
931.29849726551947
 21
416.17205986592671
  0
LINE
  8
_0-3_躯体と製品
  6
CONTINUOUS
 62
    4
 10
931.29849726551947
 20
416.77205986592344
 11
933.59749726551854
 21
416.77205986592344
  0
LINE
  8
_0-3_躯体と製品
  6
CONTINUOUS
 62
    4
 10
931.19749726549344
 20
415.57205986592635
 11
934.09749726551672
 21
415.57205986592635
  0
LINE
  8
_0-3_躯体と製品
  6
CONTINUOUS
 62
    4
 10
931.29849726551947
 20
416.17205986592671
 11
933.59749726551854
 21
416.17205986592671
  0
LINE
  8
_0-3_躯体と製品
  6
CONTINUOUS
 62
    4
 10
931.19749726549344
 20
417.3720598659238
 11
938.19849726551365
 21
417.3720598659238
  0
LINE
  8
_0-3_躯体と製品
  6
CONTINUOUS
 62
    4
 10
938.09749726552036
 20
416.77205986592344
 11
935.79849726552129
 21
416.77205986592344
  0
LINE
  8
_0-3_躯体と製品
  6
CONTINUOUS
 62
    4
 10
930.69849726551365
 20
416.07205986592635
 11
930.69849726551365
 21
416.87305986592582
  0
ARC
  8
_0-3_躯体と製品
  6
CONTINUOUS
 62
    4
 10
933.59749726551854
 20
415.67305986592146
 40
0.4999999999999998
 50
0
 51
90.000002999880451
  0
ARC
  8
_0-3_躯体と製品
  6
CONTINUOUS
 62
    4
 10
935.79849726552129
 20
415.67305986592146
 40
1.099999999999999
 50
90.000002999880451
 51
180.00000600017779
  0
ARC
  8
_0-3_躯体と製品
  6
CONTINUOUS
 62
    4
 10
933.59749726551854
 20
415.67305986592146
 40
1.099999999999999
 50
0
 51
90.000002999880451
  0
ARC
  8
_0-3_躯体と製品
  6
CONTINUOUS
 62
    4
 10
935.79849726552129
 20
415.67305986592146
 40
0.4999999999999998
 50
90.000002999880451
 51
180.00000600017779
  0
ARC
  8
_0-3_躯体と製品
  6
CONTINUOUS
 62
    4
 10
931.19749726549344
 20
416.07205986592635
 40
0.4999999999999998
 50
180.00000600017779
 51
269.99999700011949
  0
ARC
  8
_0-3_躯体と製品
  6
CONTINUOUS
 62
    4
 10
931.19749726549344
 20
416.87305986592582
 40
0.4999999999999998
 50
90.000002999880451
 51
180.00000600017779
  0
ARC
  8
_0-3_躯体と製品
  6
CONTINUOUS
 62
    4
 10
938.19849726551365
 20
416.87305986592582
 40
0.4999999999999998
 50
0
 51
90.000002999880451
  0
ARC
  8
_0-3_躯体と製品
  6
CONTINUOUS
 62
    4
 10
938.19849726551365
 20
416.07205986592635
 40
0.4999999999999998
 50
269.99999700011949
 51
0
  0
LINE
  8
_0-3_躯体と製品
  6
CONTINUOUS
 62
    4
 10
935.29749726549926
 20
412.37305986592582
 11
950.09749726551308
 21
412.37305986592582
  0
LINE
  8
_0-3_躯体と製品
  6
CONTINUOUS
 62
    4
 10
935.29749726549926
 20
413.37205986592198
 11
950.09749726551308
 21
413.37205986592198
  0
ARC
  8
_0-3_躯体と製品
  6
CONTINUOUS
 62
    4
 10
950.69749726549344
 20
402.9720598659278
 40
0.5999999999999997
 50
180.00000600017779
 51
0
  0
ARC
  8
_0-3_躯体と製品
  6
CONTINUOUS
 62
    4
 10
934.69749726549526
 20
402.9720598659278
 40
0.5999999999999997
 50
180.00000600017779
 51
0
  0
LINE
  8
_0-3_躯体と製品
  6
CONTINUOUS
 62
    4
 10
935.29749726549926
 20
407.37205986592016
 11
950.09749726551308
 21
407.37205986592016
  0
LINE
  8
_0-3_躯体と製品
  6
CONTINUOUS
 62
    4
 10
935.29749726549926
 20
406.37305986592582
 11
950.09749726551308
 21
406.37305986592582
  0
LINE
  8
_0-3_躯体と製品
  6
CONTINUOUS
 62
    4
 10
950.69749726549344
 20
402.37205986592198
 11
950.69749726549344
 21
415.67305986592146
  0
LINE
  8
_0-3_躯体と製品
  6
CONTINUOUS
 62
    4
 10
950.09749726551308
 20
415.67305986592146
 11
950.09749726551308
 21
402.9720598659278
  0
LINE
  8
_0-3_躯体と製品
  6
CONTINUOUS
 62
    4
 10
951.2974972654938
 20
415.67305986592146
 11
951.2974972654938
 21
402.9720598659278
  0
LINE
  8
_0-3_躯体と製品
  6
CONTINUOUS
 62
    4
 10
935.29749726549926
 20
415.67305986592146
 11
935.29749726549926
 21
402.9720598659278
  0
LINE
  8
_0-3_躯体と製品
  6
CONTINUOUS
 62
    4
 10
934.69749726549526
 20
402.37205986592198
 11
934.69749726549526
 21
415.67305986592146
  0
LINE
  8
_0-3_躯体と製品
  6
CONTINUOUS
 62
    4
 10
934.09749726551672
 20
415.67305986592146
 11
934.09749726551672
 21
402.9720598659278
  0
LINE
  8
_0-3_躯体と製品
  6
CONTINUOUS
 62
    4
 10
954.09849726550419
 20
416.77205986592344
 11
954.09849726550419
 21
416.17205986592671
  0
LINE
  8
_0-3_躯体と製品
  6
CONTINUOUS
 62
    4
 10
954.69849726551365
 20
416.87305986592582
 11
954.69849726551365
 21
416.07205986592635
  0
ARC
  8
_0-3_躯体と製品
  6
CONTINUOUS
 62
    4
 10
954.19749726549344
 20
416.07205986592635
 40
0.4999999999999998
 50
269.99999700011949
 51
0
  0
ARC
  8
_0-3_躯体と製品
  6
CONTINUOUS
 62
    4
 10
954.19749726549344
 20
416.87305986592582
 40
0.4999999999999998
 50
0
 51
90.000002999880451
  0
LINE
  8
_0-3_躯体と製品
  6
CONTINUOUS
 62
    4
 10
899.19849726551365
 20
417.3720598659238
 11
906.19749726549526
 21
417.3720598659238
  0
LINE
  8
_0-3_躯体と製品
  6
CONTINUOUS
 62
    4
 10
903.2974972655029
 20
415.57205986592635
 11
906.19749726549526
 21
415.57205986592635
  0
ARC
  8
_0-3_躯体と製品
  6
CONTINUOUS
 62
    4
 10
903.79749726549926
 20
415.67305986592146
 40
0.4999999999999998
 50
90.000002999880451
 51
180.00000600017779
  0
ARC
  8
_0-3_躯体と製品
  6
CONTINUOUS
 62
    4
 10
903.79749726549926
 20
415.67305986592146
 40
1.099999999999999
 50
90.000002999880451
 51
180.00000600017779
  0
LINE
  8
_0-3_躯体と製品
  6
CONTINUOUS
 62
    4
 10
903.2974972655029
 20
413.37205986592198
 11
918.09849726550965
 21
413.37205986592198
  0
LINE
  8
_0-3_躯体と製品
  6
CONTINUOUS
 62
    4
 10
903.2974972655029
 20
412.37305986592582
 11
918.09849726550965
 21
412.37305986592582
  0
LINE
  8
_0-3_躯体と製品
  6
CONTINUOUS
 62
    4
 10
903.2974972655029
 20
406.37305986592582
 11
918.09849726550965
 21
406.37305986592582
  0
LINE
  8
_0-3_躯体と製品
  6
CONTINUOUS
 62
    4
 10
903.2974972655029
 20
407.37205986592016
 11
918.09849726550965
 21
407.37205986592016
  0
LINE
  8
_0-3_躯体と製品
  6
CONTINUOUS
 62
    4
 10
899.29749726549926
 20
416.77205986592344
 11
899.29749726549926
 21
416.17205986592671
  0
LINE
  8
_0-3_躯体と製品
  6
CONTINUOUS
 62
    4
 10
899.29749726549926
 20
416.77205986592344
 11
901.59849726550783
 21
416.77205986592344
  0
LINE
  8
_0-3_躯体と製品
  6
CONTINUOUS
 62
    4
 10
898.69749726549526
 20
416.07205986592635
 11
898.69749726549526
 21
416.87305986592582
  0
LINE
  8
_0-3_躯体と製品
  6
CONTINUOUS
 62
    4
 10
899.29749726549926
 20
416.17205986592671
 11
901.59849726550783
 21
416.17205986592671
  0
LINE
  8
_0-3_躯体と製品
  6
CONTINUOUS
 62
    4
 10
899.19849726551365
 20
415.57205986592635
 11
902.09749726552036
 21
415.57205986592635
  0
ARC
  8
_0-3_躯体と製品
  6
CONTINUOUS
 62
    4
 10
899.19849726551365
 20
416.87305986592582
 40
0.4999999999999998
 50
90.000002999880451
 51
180.00000600017779
  0
ARC
  8
_0-3_躯体と製品
  6
CONTINUOUS
 62
    4
 10
899.19849726551365
 20
416.07205986592635
 40
0.4999999999999998
 50
180.00000600017779
 51
269.99999700011949
  0
ARC
  8
_0-3_躯体と製品
  6
CONTINUOUS
 62
    4
 10
901.59849726550783
 20
415.67305986592146
 40
0.4999999999999998
 50
0
 51
90.000002999880451
  0
ARC
  8
_0-3_躯体と製品
  6
CONTINUOUS
 62
    4
 10
901.59849726550783
 20
415.67305986592146
 40
1.099999999999999
 50
0
 51
90.000002999880451
  0
ARC
  8
_0-3_躯体と製品
  6
CONTINUOUS
 62
    4
 10
902.69749726549344
 20
402.9720598659278
 40
0.5999999999999997
 50
180.00000600017779
 51
0
  0
LINE
  8
_0-3_躯体と製品
  6
CONTINUOUS
 62
    4
 10
903.2974972655029
 20
415.67305986592146
 11
903.2974972655029
 21
402.9720598659278
  0
LINE
  8
_0-3_躯体と製品
  6
CONTINUOUS
 62
    4
 10
902.69749726549344
 20
402.37205986592198
 11
902.69749726549344
 21
415.67305986592146
  0
LINE
  8
_0-3_躯体と製品
  6
CONTINUOUS
 62
    4
 10
902.09749726552036
 20
415.67305986592146
 11
902.09749726552036
 21
402.9720598659278
  0
LINE
  8
_0-3_躯体と製品
  6
CONTINUOUS
 62
    4
 10
922.09749726551672
 20
416.77205986592344
 11
922.09749726551672
 21
416.17205986592671
  0
LINE
  8
_0-3_躯体と製品
  6
CONTINUOUS
 62
    4
 10
914.69749726549344
 20
416.07205986592635
 11
914.69749726549344
 21
416.87305986592582
  0
LINE
  8
_0-3_躯体と製品
  6
CONTINUOUS
 62
    4
 10
922.09749726551672
 20
416.77205986592344
 11
919.79749726550108
 21
416.77205986592344
  0
LINE
  8
_0-3_躯体と製品
  6
CONTINUOUS
 62
    4
 10
915.29749726550108
 20
416.77205986592344
 11
917.59749726551672
 21
416.77205986592344
  0
LINE
  8
_0-3_躯体と製品
  6
CONTINUOUS
 62
    4
 10
915.19749726549526
 20
415.57205986592635
 11
918.09849726550965
 21
415.57205986592635
  0
LINE
  8
_0-3_躯体と製品
  6
CONTINUOUS
 62
    4
 10
915.29749726550108
 20
416.77205986592344
 11
915.29749726550108
 21
416.17205986592671
  0
LINE
  8
_0-3_躯体と製品
  6
CONTINUOUS
 62
    4
 10
922.09749726551672
 20
416.17205986592671
 11
919.79749726550108
 21
416.17205986592671
  0
LINE
  8
_0-3_躯体と製品
  6
CONTINUOUS
 62
    4
 10
915.29749726550108
 20
416.17205986592671
 11
917.59749726551672
 21
416.17205986592671
  0
ARC
  8
_0-3_躯体と製品
  6
CONTINUOUS
 62
    4
 10
915.19749726549526
 20
416.87305986592582
 40
0.4999999999999998
 50
90.000002999880451
 51
180.00000600017779
  0
ARC
  8
_0-3_躯体と製品
  6
CONTINUOUS
 62
    4
 10
919.79749726550108
 20
415.67305986592146
 40
0.4999999999999998
 50
90.000002999880451
 51
180.00000600017779
  0
ARC
  8
_0-3_躯体と製品
  6
CONTINUOUS
 62
    4
 10
917.59749726551672
 20
415.67305986592146
 40
0.4999999999999998
 50
0
 51
90.000002999880451
  0
ARC
  8
_0-3_躯体と製品
  6
CONTINUOUS
 62
    4
 10
919.79749726550108
 20
415.67305986592146
 40
1.099999999999999
 50
90.000002999880451
 51
180.00000600017779
  0
ARC
  8
_0-3_躯体と製品
  6
CONTINUOUS
 62
    4
 10
917.59749726551672
 20
415.67305986592146
 40
1.099999999999999
 50
0
 51
90.000002999880451
  0
ARC
  8
_0-3_躯体と製品
  6
CONTINUOUS
 62
    4
 10
915.19749726549526
 20
416.07205986592635
 40
0.4999999999999998
 50
180.00000600017779
 51
269.99999700011949
  0
LINE
  8
_0-3_躯体と製品
  6
CONTINUOUS
 62
    4
 10
906.69849726551183
 20
416.87305986592582
 11
906.69849726551183
 21
416.07205986592635
  0
LINE
  8
_0-3_躯体と製品
  6
CONTINUOUS
 62
    4
 10
906.09849726550783
 20
416.77205986592344
 11
906.09849726550783
 21
416.17205986592671
  0
LINE
  8
_0-3_躯体と製品
  6
CONTINUOUS
 62
    4
 10
906.09849726550783
 20
416.77205986592344
 11
903.79749726549926
 21
416.77205986592344
  0
LINE
  8
_0-3_躯体と製品
  6
CONTINUOUS
 62
    4
 10
906.09849726550783
 20
416.17205986592671
 11
903.79749726549926
 21
416.17205986592671
  0
ARC
  8
_0-3_躯体と製品
  6
CONTINUOUS
 62
    4
 10
906.19749726549526
 20
416.07205986592635
 40
0.4999999999999998
 50
269.99999700011949
 51
0
  0
ARC
  8
_0-3_躯体と製品
  6
CONTINUOUS
 62
    4
 10
906.19749726549526
 20
416.87305986592582
 40
0.4999999999999998
 50
0
 51
90.000002999880451
  0
ARC
  8
_0-3_躯体と製品
  6
CONTINUOUS
 62
    4
 10
918.69849726551365
 20
402.9720598659278
 40
0.5999999999999997
 50
180.00000600017779
 51
0
  0
LINE
  8
_0-3_躯体と製品
  6
CONTINUOUS
 62
    4
 10
918.69849726551365
 20
402.37205986592198
 11
918.69849726551365
 21
415.67305986592146
  0
LINE
  8
_0-3_躯体と製品
  6
CONTINUOUS
 62
    4
 10
918.09849726550965
 20
415.67305986592146
 11
918.09849726550965
 21
402.9720598659278
  0
LINE
  8
_0-3_躯体と製品
  6
CONTINUOUS
 62
    4
 10
919.29849726551947
 20
415.67305986592146
 11
919.29849726551947
 21
402.9720598659278
  0
LINE
  8
_0-3_躯体と製品
  6
CONTINUOUS
 62
    4
 10
919.29849726551947
 20
413.37205986592198
 11
934.09749726551672
 21
413.37205986592198
  0
LINE
  8
_0-3_躯体と製品
  6
CONTINUOUS
 62
    4
 10
919.29849726551947
 20
412.37305986592582
 11
934.09749726551672
 21
412.37305986592582
  0
LINE
  8
_0-3_躯体と製品
  6
CONTINUOUS
 62
    4
 10
919.29849726551947
 20
406.37305986592582
 11
934.09749726551672
 21
406.37305986592582
  0
LINE
  8
_0-3_躯体と製品
  6
CONTINUOUS
 62
    4
 10
919.29849726551947
 20
407.37205986592016
 11
934.09749726551672
 21
407.37205986592016
  0
LINE
  8
_0-3_躯体と製品
  6
CONTINUOUS
 62
    4
 10
919.29849726551947
 20
415.57205986592635
 11
922.19749726549344
 21
415.57205986592635
  0
LINE
  8
_0-3_躯体と製品
  6
CONTINUOUS
 62
    4
 10
915.19749726549526
 20
417.3720598659238
 11
922.19749726549344
 21
417.3720598659238
  0
LINE
  8
_0-3_躯体と製品
  6
CONTINUOUS
 62
    4
 10
1031.2969972654937
 20
407.37205986592016
 11
1046.0979972654932
 21
407.37205986592016
  0
LINE
  8
_0-3_躯体と製品
  6
CONTINUOUS
 62
    4
 10
1031.2969972654937
 20
406.37305986592582
 11
1046.0979972654932
 21
406.37305986592582
  0
LINE
  8
_0-3_躯体と製品
  6
CONTINUOUS
 62
    4
 10
1031.2969972654937
 20
412.37305986592582
 11
1046.0979972654932
 21
412.37305986592582
  0
LINE
  8
_0-3_躯体と製品
  6
CONTINUOUS
 62
    4
 10
1031.2969972654937
 20
413.37205986592198
 11
1046.0979972654932
 21
413.37205986592198
  0
LINE
  8
_0-3_躯体と製品
  6
CONTINUOUS
 62
    4
 10
1050.0969972655039
 20
416.17205986592671
 11
1047.7969972654937
 21
416.17205986592671
  0
LINE
  8
_0-3_躯体と製品
  6
CONTINUOUS
 62
    4
 10
1050.0969972655039
 20
416.77205986592344
 11
1047.7969972654937
 21
416.77205986592344
  0
LINE
  8
_0-3_躯体と製品
  6
CONTINUOUS
 62
    4
 10
1047.2979972655048
 20
415.57205986592635
 11
1050.1969972654842
 21
415.57205986592635
  0
LINE
  8
_0-3_躯体と製品
  6
CONTINUOUS
 62
    4
 10
1050.0969972655039
 20
416.77205986592344
 11
1050.0969972655039
 21
416.17205986592671
  0
LINE
  8
_0-3_躯体と製品
  6
CONTINUOUS
 62
    4
 10
1050.6969972654842
 20
416.87305986592582
 11
1050.6969972654842
 21
416.07205986592635
  0
ARC
  8
_0-3_躯体と製品
  6
CONTINUOUS
 62
    4
 10
1047.7969972654937
 20
415.67305986592146
 40
0.4999999999999998
 50
90.000002999880451
 51
180.00000600017779
  0
ARC
  8
_0-3_躯体と製品
  6
CONTINUOUS
 62
    4
 10
1050.1969972654842
 20
416.87305986592582
 40
0.4999999999999998
 50
0
 51
90.000002999880451
  0
ARC
  8
_0-3_躯体と製品
  6
CONTINUOUS
 62
    4
 10
1050.1969972654842
 20
416.07205986592635
 40
0.4999999999999998
 50
269.99999700011949
 51
0
  0
ARC
  8
_0-3_躯体と製品
  6
CONTINUOUS
 62
    4
 10
1045.5969972655039
 20
415.67305986592146
 40
0.4999999999999998
 50
0
 51
90.000002999880451
  0
ARC
  8
_0-3_躯体と製品
  6
CONTINUOUS
 62
    4
 10
1047.7969972654937
 20
415.67305986592146
 40
1.099999999999999
 50
90.000002999880451
 51
180.00000600017779
  0
ARC
  8
_0-3_躯体と製品
  6
CONTINUOUS
 62
    4
 10
1045.5969972655039
 20
415.67305986592146
 40
1.099999999999999
 50
0
 51
90.000002999880451
  0
LINE
  8
_0-3_躯体と製品
  6
CONTINUOUS
 62
    4
 10
1042.6969972654842
 20
416.07205986592635
 11
1042.6969972654842
 21
416.87305986592582
  0
LINE
  8
_0-3_躯体と製品
  6
CONTINUOUS
 62
    4
 10
1043.2969972654937
 20
416.77205986592344
 11
1043.2969972654937
 21
416.17205986592671
  0
ARC
  8
_0-3_躯体と製品
  6
CONTINUOUS
 62
    4
 10
1043.1969972654842
 20
416.87305986592582
 40
0.4999999999999998
 50
90.000002999880451
 51
180.00000600017779
  0
ARC
  8
_0-3_躯体と製品
  6
CONTINUOUS
 62
    4
 10
1043.1969972654842
 20
416.07205986592635
 40
0.4999999999999998
 50
180.00000600017779
 51
269.99999700011949
  0
LINE
  8
_0-3_躯体と製品
  6
CONTINUOUS
 62
    4
 10
1043.1969972654842
 20
417.3720598659238
 11
1050.1969972654842
 21
417.3720598659238
  0
LINE
  8
_0-3_躯体と製品
  6
CONTINUOUS
 62
    4
 10
1043.2969972654937
 20
416.77205986592344
 11
1045.5969972655039
 21
416.77205986592344
  0
LINE
  8
_0-3_躯体と製品
  6
CONTINUOUS
 62
    4
 10
1043.2969972654937
 20
416.17205986592671
 11
1045.5969972655039
 21
416.17205986592671
  0
LINE
  8
_0-3_躯体と製品
  6
CONTINUOUS
 62
    4
 10
1043.1969972654842
 20
415.57205986592635
 11
1046.0979972654932
 21
415.57205986592635
  0
ARC
  8
_0-3_躯体と製品
  6
CONTINUOUS
 62
    4
 10
1046.6979972655045
 20
402.9720598659278
 40
0.5999999999999997
 50
180.00000600017779
 51
0
  0
LINE
  8
_0-3_躯体と製品
  6
CONTINUOUS
 62
    4
 10
1046.6979972655045
 20
402.37205986592198
 11
1046.6979972655045
 21
415.67305986592146
  0
LINE
  8
_0-3_躯体と製品
  6
CONTINUOUS
 62
    4
 10
1046.0979972654932
 20
415.67305986592146
 11
1046.0979972654932
 21
402.9720598659278
  0
LINE
  8
_0-3_躯体と製品
  6
CONTINUOUS
 62
    4
 10
1047.2979972655048
 20
415.67305986592146
 11
1047.2979972655048
 21
402.9720598659278
  0
LINE
  8
_0-3_躯体と製品
  6
CONTINUOUS
 62
    4
 10
967.29699726548461
 20
406.37305986592582
 11
982.09699726550389
 21
406.37305986592582
  0
LINE
  8
_0-3_躯体と製品
  6
CONTINUOUS
 62
    4
 10
967.29699726548461
 20
407.37205986592016
 11
982.09699726550389
 21
407.37205986592016
  0
LINE
  8
_0-3_躯体と製品
  6
CONTINUOUS
 62
    4
 10
967.29699726548461
 20
413.37205986592198
 11
982.09699726550389
 21
413.37205986592198
  0
LINE
  8
_0-3_躯体と製品
  6
CONTINUOUS
 62
    4
 10
967.29699726548461
 20
412.37305986592582
 11
982.09699726550389
 21
412.37305986592582
  0
LINE
  8
_0-3_躯体と製品
  6
CONTINUOUS
 62
    4
 10
1031.2969972654937
 20
415.57205986592635
 11
1034.1969972654842
 21
415.57205986592635
  0
LINE
  8
_0-3_躯体と製品
  6
CONTINUOUS
 62
    4
 10
1027.1979972655045
 20
417.3720598659238
 11
1034.1969972654842
 21
417.3720598659238
  0
LINE
  8
_0-3_躯体と製品
  6
CONTINUOUS
 62
    4
 10
1034.0979972654932
 20
416.77205986592344
 11
1031.7969972654846
 21
416.77205986592344
  0
LINE
  8
_0-3_躯体と製品
  6
CONTINUOUS
 62
    4
 10
1034.0979972654932
 20
416.17205986592671
 11
1031.7969972654846
 21
416.17205986592671
  0
LINE
  8
_0-3_躯体と製品
  6
CONTINUOUS
 62
    4
 10
1002.6969972654842
 20
416.87305986592582
 11
1002.6969972654842
 21
416.07205986592635
  0
ARC
  8
_0-3_躯体と製品
  6
CONTINUOUS
 62
    4
 10
1002.1969972654842
 20
416.07205986592635
 40
0.4999999999999998
 50
269.99999700011949
 51
0
  0
ARC
  8
_0-3_躯体と製品
  6
CONTINUOUS
 62
    4
 10
1002.1969972654842
 20
416.87305986592582
 40
0.4999999999999998
 50
0
 51
90.000002999880451
  0
ARC
  8
_0-3_躯体と製品
  6
CONTINUOUS
 62
    4
 10
1031.7969972654846
 20
415.67305986592146
 40
0.4999999999999998
 50
90.000002999880451
 51
180.00000600017779
  0
ARC
  8
_0-3_躯体と製品
  6
CONTINUOUS
 62
    4
 10
1031.7969972654846
 20
415.67305986592146
 40
1.099999999999999
 50
90.000002999880451
 51
180.00000600017779
  0
LINE
  8
_0-3_躯体と製品
  6
CONTINUOUS
 62
    4
 10
1027.2969972654846
 20
416.77205986592344
 11
1027.2969972654846
 21
416.17205986592671
  0
LINE
  8
_0-3_躯体と製品
  6
CONTINUOUS
 62
    4
 10
1026.6969972654842
 20
416.07205986592635
 11
1026.6969972654842
 21
416.87305986592582
  0
LINE
  8
_0-3_躯体と製品
  6
CONTINUOUS
 62
    4
 10
1027.1979972655045
 20
415.57205986592635
 11
1030.0969972655039
 21
415.57205986592635
  0
LINE
  8
_0-3_躯体と製品
  6
CONTINUOUS
 62
    4
 10
1027.2969972654846
 20
416.77205986592344
 11
1029.5979972654932
 21
416.77205986592344
  0
LINE
  8
_0-3_躯体と製品
  6
CONTINUOUS
 62
    4
 10
1027.2969972654846
 20
416.17205986592671
 11
1029.5979972654932
 21
416.17205986592671
  0
ARC
  8
_0-3_躯体と製品
  6
CONTINUOUS
 62
    4
 10
1027.1979972655045
 20
416.87305986592582
 40
0.4999999999999998
 50
90.000002999880451
 51
180.00000600017779
  0
ARC
  8
_0-3_躯体と製品
  6
CONTINUOUS
 62
    4
 10
1027.1979972655045
 20
416.07205986592635
 40
0.4999999999999998
 50
180.00000600017779
 51
269.99999700011949
  0
ARC
  8
_0-3_躯体と製品
  6
CONTINUOUS
 62
    4
 10
1029.5979972654932
 20
415.67305986592146
 40
0.4999999999999998
 50
0
 51
90.000002999880451
  0
ARC
  8
_0-3_躯体と製品
  6
CONTINUOUS
 62
    4
 10
1029.5979972654932
 20
415.67305986592146
 40
1.099999999999999
 50
0
 51
90.000002999880451
  0
LINE
  8
_0-3_躯体と製品
  6
CONTINUOUS
 62
    4
 10
1018.6969972654842
 20
416.87305986592582
 11
1018.6969972654842
 21
416.07205986592635
  0
LINE
  8
_0-3_躯体と製品
  6
CONTINUOUS
 62
    4
 10
1018.0969972655039
 20
416.17205986592671
 11
1015.7979972655048
 21
416.17205986592671
  0
LINE
  8
_0-3_躯体と製品
  6
CONTINUOUS
 62
    4
 10
1018.0969972655039
 20
416.77205986592344
 11
1018.0969972655039
 21
416.17205986592671
  0
LINE
  8
_0-3_躯体と製品
  6
CONTINUOUS
 62
    4
 10
1015.2969972654846
 20
415.57205986592635
 11
1018.1979972655045
 21
415.57205986592635
  0
LINE
  8
_0-3_躯体と製品
  6
CONTINUOUS
 62
    4
 10
1011.2979972655048
 20
416.77205986592344
 11
1011.2979972655048
 21
416.17205986592671
  0
LINE
  8
_0-3_躯体と製品
  6
CONTINUOUS
 62
    4
 10
1011.2979972655048
 20
416.77205986592344
 11
1013.5969972655039
 21
416.77205986592344
  0
LINE
  8
_0-3_躯体と製品
  6
CONTINUOUS
 62
    4
 10
1011.1969972654842
 20
415.57205986592635
 11
1014.0969972655039
 21
415.57205986592635
  0
LINE
  8
_0-3_躯体と製品
  6
CONTINUOUS
 62
    4
 10
1011.2979972655048
 20
416.17205986592671
 11
1013.5969972655039
 21
416.17205986592671
  0
LINE
  8
_0-3_躯体と製品
  6
CONTINUOUS
 62
    4
 10
1011.1969972654842
 20
417.3720598659238
 11
1018.1979972655045
 21
417.3720598659238
  0
LINE
  8
_0-3_躯体と製品
  6
CONTINUOUS
 62
    4
 10
1018.0969972655039
 20
416.77205986592344
 11
1015.7979972655048
 21
416.77205986592344
  0
LINE
  8
_0-3_躯体と製品
  6
CONTINUOUS
 62
    4
 10
1010.6979972655045
 20
416.07205986592635
 11
1010.6979972655045
 21
416.87305986592582
  0
ARC
  8
_0-3_躯体と製品
  6
CONTINUOUS
 62
    4
 10
1013.5969972655039
 20
415.67305986592146
 40
0.4999999999999998
 50
0
 51
90.000002999880451
  0
ARC
  8
_0-3_躯体と製品
  6
CONTINUOUS
 62
    4
 10
1015.7979972655048
 20
415.67305986592146
 40
1.099999999999999
 50
90.000002999880451
 51
180.00000600017779
  0
ARC
  8
_0-3_躯体と製品
  6
CONTINUOUS
 62
    4
 10
1013.5969972655039
 20
415.67305986592146
 40
1.099999999999999
 50
0
 51
90.000002999880451
  0
ARC
  8
_0-3_躯体と製品
  6
CONTINUOUS
 62
    4
 10
1015.7979972655048
 20
415.67305986592146
 40
0.4999999999999998
 50
90.000002999880451
 51
180.00000600017779
  0
ARC
  8
_0-3_躯体と製品
  6
CONTINUOUS
 62
    4
 10
1011.1969972654842
 20
416.07205986592635
 40
0.4999999999999998
 50
180.00000600017779
 51
269.99999700011949
  0
ARC
  8
_0-3_躯体と製品
  6
CONTINUOUS
 62
    4
 10
1011.1969972654842
 20
416.87305986592582
 40
0.4999999999999998
 50
90.000002999880451
 51
180.00000600017779
  0
ARC
  8
_0-3_躯体と製品
  6
CONTINUOUS
 62
    4
 10
1018.1979972655045
 20
416.87305986592582
 40
0.4999999999999998
 50
0
 51
90.000002999880451
  0
ARC
  8
_0-3_躯体と製品
  6
CONTINUOUS
 62
    4
 10
1018.1979972655045
 20
416.07205986592635
 40
0.4999999999999998
 50
269.99999700011949
 51
0
  0
LINE
  8
_0-3_躯体と製品
  6
CONTINUOUS
 62
    4
 10
1015.2969972654846
 20
412.37305986592582
 11
1030.0969972655039
 21
412.37305986592582
  0
LINE
  8
_0-3_躯体と製品
  6
CONTINUOUS
 62
    4
 10
1015.2969972654846
 20
413.37205986592198
 11
1030.0969972655039
 21
413.37205986592198
  0
ARC
  8
_0-3_躯体と製品
  6
CONTINUOUS
 62
    4
 10
1030.6969972654842
 20
402.9720598659278
 40
0.5999999999999997
 50
180.00000600017779
 51
0
  0
ARC
  8
_0-3_躯体と製品
  6
CONTINUOUS
 62
    4
 10
1014.6969972654842
 20
402.9720598659278
 40
0.5999999999999997
 50
180.00000600017779
 51
0
  0
LINE
  8
_0-3_躯体と製品
  6
CONTINUOUS
 62
    4
 10
1015.2969972654846
 20
407.37205986592016
 11
1030.0969972655039
 21
407.37205986592016
  0
LINE
  8
_0-3_躯体と製品
  6
CONTINUOUS
 62
    4
 10
1015.2969972654846
 20
406.37305986592582
 11
1030.0969972655039
 21
406.37305986592582
  0
LINE
  8
_0-3_躯体と製品
  6
CONTINUOUS
 62
    4
 10
1030.6969972654842
 20
402.37205986592198
 11
1030.6969972654842
 21
415.67305986592146
  0
LINE
  8
_0-3_躯体と製品
  6
CONTINUOUS
 62
    4
 10
1030.0969972655039
 20
415.67305986592146
 11
1030.0969972655039
 21
402.9720598659278
  0
LINE
  8
_0-3_躯体と製品
  6
CONTINUOUS
 62
    4
 10
1031.2969972654937
 20
415.67305986592146
 11
1031.2969972654937
 21
402.9720598659278
  0
LINE
  8
_0-3_躯体と製品
  6
CONTINUOUS
 62
    4
 10
1015.2969972654846
 20
415.67305986592146
 11
1015.2969972654846
 21
402.9720598659278
  0
LINE
  8
_0-3_躯体と製品
  6
CONTINUOUS
 62
    4
 10
1014.6969972654842
 20
402.37205986592198
 11
1014.6969972654842
 21
415.67305986592146
  0
LINE
  8
_0-3_躯体と製品
  6
CONTINUOUS
 62
    4
 10
1014.0969972655039
 20
415.67305986592146
 11
1014.0969972655039
 21
402.9720598659278
  0
LINE
  8
_0-3_躯体と製品
  6
CONTINUOUS
 62
    4
 10
1034.0979972654932
 20
416.77205986592344
 11
1034.0979972654932
 21
416.17205986592671
  0
LINE
  8
_0-3_躯体と製品
  6
CONTINUOUS
 62
    4
 10
1034.6979972655045
 20
416.87305986592582
 11
1034.6979972655045
 21
416.07205986592635
  0
ARC
  8
_0-3_躯体と製品
  6
CONTINUOUS
 62
    4
 10
1034.1969972654842
 20
416.07205986592635
 40
0.4999999999999998
 50
269.99999700011949
 51
0
  0
ARC
  8
_0-3_躯体と製品
  6
CONTINUOUS
 62
    4
 10
1034.1969972654842
 20
416.87305986592582
 40
0.4999999999999998
 50
0
 51
90.000002999880451
  0
LINE
  8
_0-3_躯体と製品
  6
CONTINUOUS
 62
    4
 10
979.19799726550445
 20
417.3720598659238
 11
986.19699726548424
 21
417.3720598659238
  0
LINE
  8
_0-3_躯体と製品
  6
CONTINUOUS
 62
    4
 10
983.2969972654937
 20
415.57205986592635
 11
986.19699726548424
 21
415.57205986592635
  0
ARC
  8
_0-3_躯体と製品
  6
CONTINUOUS
 62
    4
 10
983.79699726548461
 20
415.67305986592146
 40
0.4999999999999998
 50
90.000002999880451
 51
180.00000600017779
  0
ARC
  8
_0-3_躯体と製品
  6
CONTINUOUS
 62
    4
 10
983.79699726548461
 20
415.67305986592146
 40
1.099999999999999
 50
90.000002999880451
 51
180.00000600017779
  0
LINE
  8
_0-3_躯体と製品
  6
CONTINUOUS
 62
    4
 10
983.2969972654937
 20
413.37205986592198
 11
998.09799726549318
 21
413.37205986592198
  0
LINE
  8
_0-3_躯体と製品
  6
CONTINUOUS
 62
    4
 10
983.2969972654937
 20
412.37305986592582
 11
998.09799726549318
 21
412.37305986592582
  0
LINE
  8
_0-3_躯体と製品
  6
CONTINUOUS
 62
    4
 10
983.2969972654937
 20
406.37305986592582
 11
998.09799726549318
 21
406.37305986592582
  0
LINE
  8
_0-3_躯体と製品
  6
CONTINUOUS
 62
    4
 10
983.2969972654937
 20
407.37205986592016
 11
998.09799726549318
 21
407.37205986592016
  0
LINE
  8
_0-3_躯体と製品
  6
CONTINUOUS
 62
    4
 10
979.29699726548461
 20
416.77205986592344
 11
979.29699726548461
 21
416.17205986592671
  0
LINE
  8
_0-3_躯体と製品
  6
CONTINUOUS
 62
    4
 10
979.29699726548461
 20
416.77205986592344
 11
981.59799726549318
 21
416.77205986592344
  0
LINE
  8
_0-3_躯体と製品
  6
CONTINUOUS
 62
    4
 10
978.69699726548424
 20
416.07205986592635
 11
978.69699726548424
 21
416.87305986592582
  0
LINE
  8
_0-3_躯体と製品
  6
CONTINUOUS
 62
    4
 10
979.29699726548461
 20
416.17205986592671
 11
981.59799726549318
 21
416.17205986592671
  0
LINE
  8
_0-3_躯体と製品
  6
CONTINUOUS
 62
    4
 10
979.19799726550445
 20
415.57205986592635
 11
982.09699726550389
 21
415.57205986592635
  0
ARC
  8
_0-3_躯体と製品
  6
CONTINUOUS
 62
    4
 10
979.19799726550445
 20
416.87305986592582
 40
0.4999999999999998
 50
90.000002999880451
 51
180.00000600017779
  0
ARC
  8
_0-3_躯体と製品
  6
CONTINUOUS
 62
    4
 10
979.19799726550445
 20
416.07205986592635
 40
0.4999999999999998
 50
180.00000600017779
 51
269.99999700011949
  0
ARC
  8
_0-3_躯体と製品
  6
CONTINUOUS
 62
    4
 10
981.59799726549318
 20
415.67305986592146
 40
0.4999999999999998
 50
0
 51
90.000002999880451
  0
ARC
  8
_0-3_躯体と製品
  6
CONTINUOUS
 62
    4
 10
981.59799726549318
 20
415.67305986592146
 40
1.099999999999999
 50
0
 51
90.000002999880451
  0
ARC
  8
_0-3_躯体と製品
  6
CONTINUOUS
 62
    4
 10
982.69699726548424
 20
402.9720598659278
 40
0.5999999999999997
 50
180.00000600017779
 51
0
  0
LINE
  8
_0-3_躯体と製品
  6
CONTINUOUS
 62
    4
 10
983.2969972654937
 20
415.67305986592146
 11
983.2969972654937
 21
402.9720598659278
  0
LINE
  8
_0-3_躯体と製品
  6
CONTINUOUS
 62
    4
 10
982.69699726548424
 20
402.37205986592198
 11
982.69699726548424
 21
415.67305986592146
  0
LINE
  8
_0-3_躯体と製品
  6
CONTINUOUS
 62
    4
 10
982.09699726550389
 20
415.67305986592146
 11
982.09699726550389
 21
402.9720598659278
  0
LINE
  8
_0-3_躯体と製品
  6
CONTINUOUS
 62
    4
 10
1002.0969972655039
 20
416.77205986592344
 11
1002.0969972655039
 21
416.17205986592671
  0
LINE
  8
_0-3_躯体と製品
  6
CONTINUOUS
 62
    4
 10
994.69699726548424
 20
416.07205986592635
 11
994.69699726548424
 21
416.87305986592582
  0
LINE
  8
_0-3_躯体と製品
  6
CONTINUOUS
 62
    4
 10
1002.0969972655039
 20
416.77205986592344
 11
999.7969972654937
 21
416.77205986592344
  0
LINE
  8
_0-3_躯体と製品
  6
CONTINUOUS
 62
    4
 10
995.2969972654937
 20
416.77205986592344
 11
997.59699726550389
 21
416.77205986592344
  0
LINE
  8
_0-3_躯体と製品
  6
CONTINUOUS
 62
    4
 10
995.19699726548424
 20
415.57205986592635
 11
998.09799726549318
 21
415.57205986592635
  0
LINE
  8
_0-3_躯体と製品
  6
CONTINUOUS
 62
    4
 10
995.2969972654937
 20
416.77205986592344
 11
995.2969972654937
 21
416.17205986592671
  0
LINE
  8
_0-3_躯体と製品
  6
CONTINUOUS
 62
    4
 10
1002.0969972655039
 20
416.17205986592671
 11
999.7969972654937
 21
416.17205986592671
  0
LINE
  8
_0-3_躯体と製品
  6
CONTINUOUS
 62
    4
 10
995.2969972654937
 20
416.17205986592671
 11
997.59699726550389
 21
416.17205986592671
  0
ARC
  8
_0-3_躯体と製品
  6
CONTINUOUS
 62
    4
 10
995.19699726548424
 20
416.87305986592582
 40
0.4999999999999998
 50
90.000002999880451
 51
180.00000600017779
  0
ARC
  8
_0-3_躯体と製品
  6
CONTINUOUS
 62
    4
 10
999.7969972654937
 20
415.67305986592146
 40
0.4999999999999998
 50
90.000002999880451
 51
180.00000600017779
  0
ARC
  8
_0-3_躯体と製品
  6
CONTINUOUS
 62
    4
 10
997.59699726550389
 20
415.67305986592146
 40
0.4999999999999998
 50
0
 51
90.000002999880451
  0
ARC
  8
_0-3_躯体と製品
  6
CONTINUOUS
 62
    4
 10
999.7969972654937
 20
415.67305986592146
 40
1.099999999999999
 50
90.000002999880451
 51
180.00000600017779
  0
ARC
  8
_0-3_躯体と製品
  6
CONTINUOUS
 62
    4
 10
997.59699726550389
 20
415.67305986592146
 40
1.099999999999999
 50
0
 51
90.000002999880451
  0
ARC
  8
_0-3_躯体と製品
  6
CONTINUOUS
 62
    4
 10
995.19699726548424
 20
416.07205986592635
 40
0.4999999999999998
 50
180.00000600017779
 51
269.99999700011949
  0
LINE
  8
_0-3_躯体と製品
  6
CONTINUOUS
 62
    4
 10
986.69799726550445
 20
416.87305986592582
 11
986.69799726550445
 21
416.07205986592635
  0
LINE
  8
_0-3_躯体と製品
  6
CONTINUOUS
 62
    4
 10
986.09799726549318
 20
416.77205986592344
 11
986.09799726549318
 21
416.17205986592671
  0
LINE
  8
_0-3_躯体と製品
  6
CONTINUOUS
 62
    4
 10
986.09799726549318
 20
416.77205986592344
 11
983.79699726548461
 21
416.77205986592344
  0
LINE
  8
_0-3_躯体と製品
  6
CONTINUOUS
 62
    4
 10
986.09799726549318
 20
416.17205986592671
 11
983.79699726548461
 21
416.17205986592671
  0
ARC
  8
_0-3_躯体と製品
  6
CONTINUOUS
 62
    4
 10
986.19699726548424
 20
416.07205986592635
 40
0.4999999999999998
 50
269.99999700011949
 51
0
  0
ARC
  8
_0-3_躯体と製品
  6
CONTINUOUS
 62
    4
 10
986.19699726548424
 20
416.87305986592582
 40
0.4999999999999998
 50
0
 51
90.000002999880451
  0
ARC
  8
_0-3_躯体と製品
  6
CONTINUOUS
 62
    4
 10
998.69799726550445
 20
402.9720598659278
 40
0.5999999999999997
 50
180.00000600017779
 51
0
  0
LINE
  8
_0-3_躯体と製品
  6
CONTINUOUS
 62
    4
 10
998.69799726550445
 20
402.37205986592198
 11
998.69799726550445
 21
415.67305986592146
  0
LINE
  8
_0-3_躯体と製品
  6
CONTINUOUS
 62
    4
 10
998.09799726549318
 20
415.67305986592146
 11
998.09799726549318
 21
402.9720598659278
  0
LINE
  8
_0-3_躯体と製品
  6
CONTINUOUS
 62
    4
 10
999.29799726550482
 20
415.67305986592146
 11
999.29799726550482
 21
402.9720598659278
  0
LINE
  8
_0-3_躯体と製品
  6
CONTINUOUS
 62
    4
 10
999.29799726550482
 20
413.37205986592198
 11
1014.0969972655039
 21
413.37205986592198
  0
LINE
  8
_0-3_躯体と製品
  6
CONTINUOUS
 62
    4
 10
999.29799726550482
 20
412.37305986592582
 11
1014.0969972655039
 21
412.37305986592582
  0
LINE
  8
_0-3_躯体と製品
  6
CONTINUOUS
 62
    4
 10
999.29799726550482
 20
406.37305986592582
 11
1014.0969972655039
 21
406.37305986592582
  0
LINE
  8
_0-3_躯体と製品
  6
CONTINUOUS
 62
    4
 10
999.29799726550482
 20
407.37205986592016
 11
1014.0969972655039
 21
407.37205986592016
  0
LINE
  8
_0-3_躯体と製品
  6
CONTINUOUS
 62
    4
 10
999.29799726550482
 20
415.57205986592635
 11
1002.1969972654842
 21
415.57205986592635
  0
LINE
  8
_0-3_躯体と製品
  6
CONTINUOUS
 62
    4
 10
995.19699726548424
 20
417.3720598659238
 11
1002.1969972654842
 21
417.3720598659238
  0
LINE
  8
_0-3_躯体と製品
  6
CONTINUOUS
 62
    4
 10
1047.2964972654736
 20
406.37305986592582
 11
1062.0964972654947
 21
406.37305986592582
  0
LINE
  8
_0-3_躯体と製品
  6
CONTINUOUS
 62
    4
 10
1047.2964972654736
 20
407.37205986592016
 11
1062.0964972654947
 21
407.37205986592016
  0
LINE
  8
_0-3_躯体と製品
  6
CONTINUOUS
 62
    4
 10
1047.2964972654736
 20
413.37205986592198
 11
1062.0964972654947
 21
413.37205986592198
  0
LINE
  8
_0-3_躯体と製品
  6
CONTINUOUS
 62
    4
 10
1047.2964972654736
 20
412.37305986592582
 11
1062.0964972654947
 21
412.37305986592582
  0
LINE
  8
_0-3_躯体と製品
  6
CONTINUOUS
 62
    4
 10
1059.1974972654934
 20
417.3720598659238
 11
1066.1964972654732
 21
417.3720598659238
  0
LINE
  8
_0-3_躯体と製品
  6
CONTINUOUS
 62
    4
 10
1063.2964972654845
 20
415.57205986592635
 11
1066.1964972654732
 21
415.57205986592635
  0
ARC
  8
_0-3_躯体と製品
  6
CONTINUOUS
 62
    4
 10
1063.7964972654736
 20
415.67305986592146
 40
0.4999999999999998
 50
90.000002999880451
 51
180.00000600017779
  0
ARC
  8
_0-3_躯体と製品
  6
CONTINUOUS
 62
    4
 10
1063.7964972654736
 20
415.67305986592146
 40
1.099999999999999
 50
90.000002999880451
 51
180.00000600017779
  0
LINE
  8
_0-3_躯体と製品
  6
CONTINUOUS
 62
    4
 10
1059.2964972654845
 20
416.77205986592344
 11
1059.2964972654845
 21
416.17205986592671
  0
LINE
  8
_0-3_躯体と製品
  6
CONTINUOUS
 62
    4
 10
1059.2964972654845
 20
416.77205986592344
 11
1061.597497265484
 21
416.77205986592344
  0
LINE
  8
_0-3_躯体と製品
  6
CONTINUOUS
 62
    4
 10
1058.6964972654732
 20
416.07205986592635
 11
1058.6964972654732
 21
416.87305986592582
  0
LINE
  8
_0-3_躯体と製品
  6
CONTINUOUS
 62
    4
 10
1059.2964972654845
 20
416.17205986592671
 11
1061.597497265484
 21
416.17205986592671
  0
LINE
  8
_0-3_躯体と製品
  6
CONTINUOUS
 62
    4
 10
1059.1974972654934
 20
415.57205986592635
 11
1062.0964972654947
 21
415.57205986592635
  0
ARC
  8
_0-3_躯体と製品
  6
CONTINUOUS
 62
    4
 10
1059.1974972654934
 20
416.87305986592582
 40
0.4999999999999998
 50
90.000002999880451
 51
180.00000600017779
  0
ARC
  8
_0-3_躯体と製品
  6
CONTINUOUS
 62
    4
 10
1059.1974972654934
 20
416.07205986592635
 40
0.4999999999999998
 50
180.00000600017779
 51
269.99999700011949
  0
ARC
  8
_0-3_躯体と製品
  6
CONTINUOUS
 62
    4
 10
1061.597497265484
 20
415.67305986592146
 40
0.4999999999999998
 50
0
 51
90.000002999880451
  0
ARC
  8
_0-3_躯体と製品
  6
CONTINUOUS
 62
    4
 10
1061.597497265484
 20
415.67305986592146
 40
1.099999999999999
 50
0
 51
90.000002999880451
  0
ARC
  8
_0-3_躯体と製品
  6
CONTINUOUS
 62
    4
 10
1062.6964972654732
 20
402.9720598659278
 40
0.5999999999999997
 50
180.00000600017779
 51
0
  0
LINE
  8
_0-3_躯体と製品
  6
CONTINUOUS
 62
    4
 10
1063.2964972654845
 20
415.67305986592146
 11
1063.2964972654845
 21
402.9720598659278
  0
LINE
  8
_0-3_躯体と製品
  6
CONTINUOUS
 62
    4
 10
1062.6964972654732
 20
402.37205986592198
 11
1062.6964972654732
 21
415.67305986592146
  0
LINE
  8
_0-3_躯体と製品
  6
CONTINUOUS
 62
    4
 10
1062.0964972654947
 20
415.67305986592146
 11
1062.0964972654947
 21
402.9720598659278
  0
LINE
  8
_0-3_躯体と製品
  6
CONTINUOUS
 62
    4
 10
1066.6974972654934
 20
416.87305986592582
 11
1066.6974972654934
 21
416.07205986592635
  0
LINE
  8
_0-3_躯体と製品
  6
CONTINUOUS
 62
    4
 10
1066.097497265484
 20
416.77205986592344
 11
1066.097497265484
 21
416.17205986592671
  0
LINE
  8
_0-3_躯体と製品
  6
CONTINUOUS
 62
    4
 10
1066.097497265484
 20
416.77205986592344
 11
1063.7964972654736
 21
416.77205986592344
  0
LINE
  8
_0-3_躯体と製品
  6
CONTINUOUS
 62
    4
 10
1066.097497265484
 20
416.17205986592671
 11
1063.7964972654736
 21
416.17205986592671
  0
ARC
  8
_0-3_躯体と製品
  6
CONTINUOUS
 62
    4
 10
1066.1964972654732
 20
416.07205986592635
 40
0.4999999999999998
 50
269.99999700011949
 51
0
  0
ARC
  8
_0-3_躯体と製品
  6
CONTINUOUS
 62
    4
 10
1066.1964972654732
 20
416.87305986592582
 40
0.4999999999999998
 50
0
 51
90.000002999880451
  0
LINE
  8
_0-3_躯体と製品
  6
CONTINUOUS
 62
    3
 10
1090.4014972655441
 20
403.57205986592635
 11
1078.503497265554
 21
403.57205986592635
  0
LINE
  8
_0-3_躯体と製品
  6
CONTINUOUS
 62
    3
 10
1090.4014972655441
 20
402.37205986592562
 11
1078.503497265554
 21
402.37205986592198
  0
LINE
  8
_0-3_躯体と製品
  6
CONTINUOUS
 62
    3
 10
1078.503497265554
 20
402.37205986592198
 11
1078.503497265554
 21
403.57205986592635
  0
LINE
  8
_0-3_躯体と製品
  6
CONTINUOUS
 62
    3
 10
1092.1004972655337
 20
413.87305986592582
 11
1090.9004972655548
 21
413.87305986592582
  0
LINE
  8
_0-3_躯体と製品
  6
CONTINUOUS
 62
    4
 10
1089.3014972655437
 20
416.77205986592344
 11
1089.3014972655437
 21
416.17205986592671
  0
LINE
  8
_0-3_躯体と製品
  6
CONTINUOUS
 62
    4
 10
1089.3014972655437
 20
416.77205986592344
 11
1091.6014972655539
 21
416.77205986592344
  0
LINE
  8
_0-3_躯体と製品
  6
CONTINUOUS
 62
    4
 10
1089.3014972655437
 20
416.17205986592671
 11
1091.6014972655539
 21
416.17205986592671
  0
ARC
  8
_0-3_躯体と製品
  6
CONTINUOUS
 62
    4
 10
1091.6014972655539
 20
415.67305986592146
 40
1.099999999999999
 50
359.99999399982221
 51
89.999997000119549
  0
ARC
  8
_0-3_躯体と製品
  6
CONTINUOUS
 62
    4
 10
1091.6014972655539
 20
415.67305986592146
 40
0.4999999999999998
 50
359.99999399982221
 51
89.999997000119549
  0
ARC
  8
_0-3_躯体と製品
  6
CONTINUOUS
 62
    3
 10
1090.4014972655441
 20
404.07205986592635
 40
1.6999999999999991
 50
270.00000299988039
 51
359.99999399982221
  0
ARC
  8
_0-3_躯体と製品
  6
CONTINUOUS
 62
    3
 10
1090.4014972655441
 20
404.07205986592635
 40
0.4999999999999998
 50
270.00000299988039
 51
359.99999399982221
  0
ARC
  8
_0-3_躯体と製品
  6
CONTINUOUS
 62
    4
 10
1092.7004972655432
 20
402.9720598659278
 40
0.5999999999999997
 50
180
 51
359.99999399982221
  0
LINE
  8
_0-3_躯体と製品
  6
CONTINUOUS
 62
    3
 10
1090.9004972655548
 20
404.07205986592635
 11
1090.9004972655548
 21
413.87305986592582
  0
LINE
  8
_0-3_躯体と製品
  6
CONTINUOUS
 62
    3
 10
1092.1004972655337
 20
404.07205986592635
 11
1092.1004972655337
 21
413.87305986592582
  0
LINE
  8
_0-3_躯体と製品
  6
CONTINUOUS
 62
    4
 10
1092.7004972655432
 20
402.37205986592198
 11
1092.7004972655432
 21
415.67305986592146
  0
LINE
  8
_0-3_躯体と製品
  6
CONTINUOUS
 62
    4
 10
1092.1004972655337
 20
415.67305986592146
 11
1092.1004972655337
 21
402.9720598659278
  0
LINE
  8
_0-3_躯体と製品
  6
CONTINUOUS
 62
    4
 10
1093.3004972655544
 20
415.67305986592146
 11
1093.3004972655544
 21
402.9720598659278
  0
LINE
  8
_0-3_躯体と製品
  6
CONTINUOUS
 62
    4
 10
1092.1004972655337
 20
406.37305986592582
 11
1079.3014972655437
 21
406.37305986592582
  0
LINE
  8
_0-3_躯体と製品
  6
CONTINUOUS
 62
    4
 10
1092.1004972655337
 20
407.37205986592016
 11
1079.3014972655437
 21
407.37205986592016
  0
LINE
  8
_0-3_躯体と製品
  6
CONTINUOUS
 62
    4
 10
1092.1004972655337
 20
413.37205986592198
 11
1079.3014972655437
 21
413.37205986592198
  0
LINE
  8
_0-3_躯体と製品
  6
CONTINUOUS
 62
    4
 10
1092.1004972655337
 20
412.37305986592582
 11
1079.3014972655437
 21
412.37305986592582
  0
LINE
  8
_0-3_躯体と製品
  6
CONTINUOUS
 62
    4
 10
1092.1004972655337
 20
413.37205986592198
 11
1087.927497265553
 21
413.37205986592198
  0
LINE
  8
_0-3_躯体と製品
  6
CONTINUOUS
 62
    4
 10
1092.1004972655337
 20
415.57205986592635
 11
1089.2014972655634
 21
415.57205986592635
  0
LINE
  8
_0-3_躯体と製品
  6
CONTINUOUS
 62
    4
 10
1088.7014972655634
 20
416.87305986592582
 11
1088.7014972655634
 21
416.07205986592635
  0
ARC
  8
_0-3_躯体と製品
  6
CONTINUOUS
 62
    4
 10
1089.2014972655634
 20
416.87305986592582
 40
0.4999999999999998
 50
89.999997000119535
 51
180
  0
ARC
  8
_0-3_躯体と製品
  6
CONTINUOUS
 62
    4
 10
1089.2014972655634
 20
416.07205986592635
 40
0.4999999999999998
 50
180
 51
270.00000299988039
  0
LINE
  8
_0-3_躯体と製品
  6
CONTINUOUS
 62
    4
 10
1096.1014972655539
 20
416.77205986592344
 11
1093.8014972655437
 21
416.77205986592344
  0
LINE
  8
_0-3_躯体と製品
  6
CONTINUOUS
 62
    4
 10
1096.1014972655539
 20
416.17205986592671
 11
1093.8014972655437
 21
416.17205986592671
  0
LINE
  8
_0-3_躯体と製品
  6
CONTINUOUS
 62
    4
 10
1094.3254972655432
 20
412.37305986592582
 11
1093.8914972655639
 21
414.82205986592453
  0
LINE
  8
_0-3_躯体と製品
  6
CONTINUOUS
 62
    4
 10
1093.8914972655639
 20
414.82205986592453
 11
1093.3004972655544
 21
414.82205986592453
  0
LINE
  8
_0-3_躯体と製品
  6
CONTINUOUS
 62
    4
 10
1095.0014972655536
 20
412.37305986592582
 11
1093.3004972655544
 21
412.37305986592582
  0
LINE
  8
_0-3_躯体と製品
  6
CONTINUOUS
 62
    4
 10
1096.2014972655634
 20
415.57205986592635
 11
1093.3004972655544
 21
415.57205986592635
  0
ARC
  8
_0-3_躯体と製品
  6
CONTINUOUS
 62
    4
 10
1093.8014972655437
 20
415.67305986592146
 40
0.4999999999999998
 50
89.999997000119535
 51
180
  0
ARC
  8
_0-3_躯体と製品
  6
CONTINUOUS
 62
    4
 10
1093.8014972655437
 20
415.67305986592146
 40
1.099999999999999
 50
89.999997000119535
 51
180
  0
LINE
  8
_0-3_躯体と製品
  6
CONTINUOUS
 62
    4
 10
1094.3254972655432
 20
407.37205986592016
 11
1093.8914972655639
 21
404.92205986592489
  0
LINE
  8
_0-3_躯体と製品
  6
CONTINUOUS
 62
    4
 10
1093.8914972655639
 20
404.92205986592489
 11
1093.3004972655544
 21
404.92205986592489
  0
LINE
  8
_0-3_躯体と製品
  6
CONTINUOUS
 62
    4
 10
1095.0014972655536
 20
407.37205986592016
 11
1093.3004972655544
 21
407.37205986592016
  0
LINE
  8
_0-3_躯体と製品
  6
CONTINUOUS
 62
    4
 10
1096.2014972655634
 20
417.3720598659238
 11
1089.2014972655634
 21
417.3720598659238
  0
LINE
  8
_0-3_躯体と製品
  6
CONTINUOUS
 62
    4
 10
1096.1014972655539
 20
416.77205986592344
 11
1096.1014972655539
 21
416.17205986592671
  0
LINE
  8
_0-3_躯体と製品
  6
CONTINUOUS
 62
    4
 10
1096.7014972655634
 20
416.07205986592635
 11
1096.7014972655634
 21
416.87305986592582
  0
ARC
  8
_0-3_躯体と製品
  6
CONTINUOUS
 62
    4
 10
1096.2014972655634
 20
416.07205986592635
 40
0.4999999999999998
 50
270.00000299988039
 51
359.99999399982221
  0
ARC
  8
_0-3_躯体と製品
  6
CONTINUOUS
 62
    4
 10
1096.2014972655634
 20
416.87305986592582
 40
0.4999999999999998
 50
359.99999399982221
 51
89.999997000119549
  0
LINE
  8
_0-3_躯体と製品
  6
CONTINUOUS
 62
    4
 10
1096.7014972655634
 20
410.67205986592489
 11
1096.7014972655634
 21
409.0730598659211
  0
ARC
  8
_0-3_躯体と製品
  6
CONTINUOUS
 62
    4
 10
1095.0014972655536
 20
409.0730598659211
 40
1.6999999999999991
 50
270.00000299988039
 51
359.99999399982221
  0
ARC
  8
_0-3_躯体と製品
  6
CONTINUOUS
 62
    4
 10
1095.0014972655536
 20
410.67205986592489
 40
1.6999999999999991
 50
359.99999399982221
 51
89.999997000119549
  0
ARC
  8
_0-3_躯体と製品
  6
CONTINUOUS
 62
    4
 10
1082.1964972654732
 20
416.87305986592582
 40
0.4999999999999998
 50
0
 51
90.000002999880451
  0
ARC
  8
_0-3_躯体と製品
  6
CONTINUOUS
 62
    4
 10
1082.1964972654732
 20
416.07205986592635
 40
0.4999999999999998
 50
269.99999700011949
 51
0
  0
LINE
  8
_0-3_躯体と製品
  6
CONTINUOUS
 62
    4
 10
1082.097497265484
 20
416.17205986592671
 11
1079.7964972654736
 21
416.17205986592671
  0
LINE
  8
_0-3_躯体と製品
  6
CONTINUOUS
 62
    4
 10
1082.097497265484
 20
416.77205986592344
 11
1079.7964972654736
 21
416.77205986592344
  0
LINE
  8
_0-3_躯体と製品
  6
CONTINUOUS
 62
    4
 10
1082.097497265484
 20
416.77205986592344
 11
1082.097497265484
 21
416.17205986592671
  0
LINE
  8
_0-3_躯体と製品
  6
CONTINUOUS
 62
    4
 10
1082.6974972654934
 20
416.87305986592582
 11
1082.6974972654934
 21
416.07205986592635
  0
LINE
  8
_0-3_躯体と製品
  6
CONTINUOUS
 62
    4
 10
1078.0964972654947
 20
415.67305986592146
 11
1078.0964972654947
 21
402.9720598659278
  0
LINE
  8
_0-3_躯体と製品
  6
CONTINUOUS
 62
    4
 10
1078.6964972654732
 20
402.37205986592198
 11
1078.6964972654732
 21
415.67305986592146
  0
LINE
  8
_0-3_躯体と製品
  6
CONTINUOUS
 62
    4
 10
1079.2964972654845
 20
415.67305986592146
 11
1079.2964972654845
 21
402.9720598659278
  0
ARC
  8
_0-3_躯体と製品
  6
CONTINUOUS
 62
    4
 10
1078.6964972654732
 20
402.9720598659278
 40
0.5999999999999997
 50
180.00000600017779
 51
0
  0
ARC
  8
_0-3_躯体と製品
  6
CONTINUOUS
 62
    4
 10
1077.597497265484
 20
415.67305986592146
 40
1.099999999999999
 50
0
 51
90.000002999880451
  0
ARC
  8
_0-3_躯体と製品
  6
CONTINUOUS
 62
    4
 10
1077.597497265484
 20
415.67305986592146
 40
0.4999999999999998
 50
0
 51
90.000002999880451
  0
ARC
  8
_0-3_躯体と製品
  6
CONTINUOUS
 62
    4
 10
1075.1974972654934
 20
416.07205986592635
 40
0.4999999999999998
 50
180.00000600017779
 51
269.99999700011949
  0
ARC
  8
_0-3_躯体と製品
  6
CONTINUOUS
 62
    4
 10
1075.1974972654934
 20
416.87305986592582
 40
0.4999999999999998
 50
90.000002999880451
 51
180.00000600017779
  0
LINE
  8
_0-3_躯体と製品
  6
CONTINUOUS
 62
    4
 10
1075.1974972654934
 20
415.57205986592635
 11
1078.0964972654947
 21
415.57205986592635
  0
LINE
  8
_0-3_躯体と製品
  6
CONTINUOUS
 62
    4
 10
1075.2964972654736
 20
416.17205986592671
 11
1077.597497265484
 21
416.17205986592671
  0
LINE
  8
_0-3_躯体と製品
  6
CONTINUOUS
 62
    4
 10
1074.6964972654732
 20
416.07205986592635
 11
1074.6964972654732
 21
416.87305986592582
  0
LINE
  8
_0-3_躯体と製品
  6
CONTINUOUS
 62
    4
 10
1075.2964972654736
 20
416.77205986592344
 11
1077.597497265484
 21
416.77205986592344
  0
LINE
  8
_0-3_躯体と製品
  6
CONTINUOUS
 62
    4
 10
1075.2964972654736
 20
416.77205986592344
 11
1075.2964972654736
 21
416.17205986592671
  0
ARC
  8
_0-3_躯体と製品
  6
CONTINUOUS
 62
    4
 10
1079.7964972654736
 20
415.67305986592146
 40
1.099999999999999
 50
90.000002999880451
 51
180.00000600017779
  0
ARC
  8
_0-3_躯体と製品
  6
CONTINUOUS
 62
    4
 10
1079.7964972654736
 20
415.67305986592146
 40
0.4999999999999998
 50
90.000002999880451
 51
180.00000600017779
  0
LINE
  8
_0-3_躯体と製品
  6
CONTINUOUS
 62
    4
 10
1079.2964972654845
 20
415.57205986592635
 11
1082.1964972654732
 21
415.57205986592635
  0
LINE
  8
_0-3_躯体と製品
  6
CONTINUOUS
 62
    4
 10
1075.1974972654934
 20
417.3720598659238
 11
1082.1964972654732
 21
417.3720598659238
  0
LINE
  8
_0-3_躯体と製品
  6
CONTINUOUS
 62
    4
 10
1063.2964972654736
 20
412.37305986592582
 11
1078.0964972654947
 21
412.37305986592582
  0
LINE
  8
_0-3_躯体と製品
  6
CONTINUOUS
 62
    4
 10
1063.2964972654736
 20
413.37205986592198
 11
1078.0964972654947
 21
413.37205986592198
  0
LINE
  8
_0-3_躯体と製品
  6
CONTINUOUS
 62
    4
 10
1063.2964972654736
 20
407.37205986592016
 11
1078.0964972654947
 21
407.37205986592016
  0
LINE
  8
_0-3_躯体と製品
  6
CONTINUOUS
 62
    4
 10
1063.2964972654736
 20
406.37305986592582
 11
1078.0964972654947
 21
406.37305986592582
  0
INSERT
  2
-001-_D2
  8
_0-4_文字-記号
 10
-9052.8856444314861
 20
-8051.46296622921
 41
1
 42
1
 50
0
  0
INSERT
  2
-002-_D3
  8
_0-4_文字-記号
 10
-9052.8856444314861
 20
-8051.46296622921
 41
1
 42
1
 50
0
  0
INSERT
  2
-003-_D4
  8
_0-4_文字-記号
 10
-9052.8856444314861
 20
-8051.46296622921
 41
1
 42
1
 50
0
  0
TEXT
  8
_0-4_文字-記号
 62
    7
 10
98.540555772851803
 20
174.63885202413439
 40
12
 41
1
 50
0
  1
品　　　　名
  0
TEXT
  8
_0-4_文字-記号
 62
    7
 10
36.519503382920448
 20
138.72735514835495
 40
12
 41
1
 50
0
  1
床換気口：ベースピット ＳＵＳ-９０
  0
TEXT
  8
_0-4_文字-記号
 62
    7
 10
323.88522573211048
 20
174.63885202413439
 40
12
 41
1
 50
0
  1
規　　　　格
  0
TEXT
  8
_0-4_文字-記号
 62
    7
 10
485.41616449147841
 20
131.18334664669965
 40
12
 41
1
 50
0
  1
ＳＵＳ３０４
  0
TEXT
  8
_0-4_文字-記号
 62
    7
 10
486.09098193905811
 20
174.63885202413439
 40
12
 41
1
 50
0
  1
材　　　　質
  0
LINE
  8
_0-4_文字-記号
  6
CONTINUOUS
 62
    7
 10
19.531381487597173
 20
191.7050563777957
 11
19.531381487597173
 21
104.88446685703002
  0
LINE
  8
_0-4_文字-記号
  6
CONTINUOUS
 62
    7
 10
19.531381487597173
 20
191.7050563777957
 11
609.31194754675562
 21
191.7050563777957
  0
LINE
  8
_0-4_文字-記号
  6
CONTINUOUS
 62
    7
 10
19.531381487597173
 20
168.30505637779788
 11
609.31194754675562
 21
168.30505637779788
  0
LINE
  8
_0-4_文字-記号
  6
CONTINUOUS
 62
    7
 10
19.531381487597173
 20
104.88446685703002
 11
609.31194754675562
 21
104.88446685703002
  0
LINE
  8
_0-4_文字-記号
  6
CONTINUOUS
 62
    7
 10
288.21194754671524
 20
191.7050563777957
 11
288.21194754671524
 21
104.88446685703002
  0
LINE
  8
_0-4_文字-記号
  6
CONTINUOUS
 62
    7
 10
448.76194754673634
 20
191.7050563777957
 11
448.76194754673634
 21
104.88446685703002
  0
LINE
  8
_0-4_文字-記号
  6
CONTINUOUS
 62
    7
 10
19.531381487597173
 20
167.13505637779599
 11
609.31194754675562
 21
167.13505637779599
  0
TEXT
  8
_0-4_文字-記号
 62
    7
 10
36.519503382920448
 20
117.88482886718521
 40
12
 41
1
 50
0
  1
（ステンレス製・グレーチング）
  0
INSERT
  2
-004-_D5
  8
_0-2_寸法
 10
-9052.8856444314861
 20
-8051.46296622921
 41
1
 42
1
 50
0
  0
INSERT
  2
-005-_D6
  8
_0-2_寸法
 10
-9052.8856444314861
 20
-8051.46296622921
 41
1
 42
1
 50
0
  0
LINE
  8
_0-4_文字-記号
  6
CONTINUOUS
 62
    7
 10
369.58568810484576
 20
722.64215846452862
 11
386.64313107218732
 21
752.18651633119407
  0
LINE
  8
_0-4_文字-記号
  6
CONTINUOUS
 62
    7
 10
386.64313107218732
 20
752.18651633119407
 11
402.11997489100759
 21
752.18651633119407
  0
LINE
  8
_0-4_文字-記号
  6
CONTINUOUS
 62
    7
 10
798.70149726556519
 20
710.64215846452862
 11
822.31854109200322
 21
751.54807829649508
  0
LINE
  8
_0-4_文字-記号
  6
CONTINUOUS
 62
    7
 10
822.31854109200322
 20
751.54807829649508
 11
837.79538491082167
 21
751.54807829649508
  0
TEXT
  8
_0-4_文字-記号
 62
    7
 10
839.79448175737889
 20
747.09342795852899
 40
10
 41
1
 50
0
  1
固定金具
  0
TEXT
  8
_0-4_文字-記号
 62
    7
 10
701.89217408184959
 20
219.67670557841666
 40
10
 41
1
 50
0
  1
仕上材
  0
LINE
  8
_0-4_文字-記号
  6
CONTINUOUS
 62
    7
 10
798.5488692361323
 20
159.88296685703062
 11
762.16815487313033
 21
222.89621254945996
  0
LINE
  8
_0-4_文字-記号
  6
CONTINUOUS
 62
    7
 10
762.16815487313033
 20
222.89621254945996
 11
740.9788937145513
 21
222.89621254945996
  0
TEXT
  8
_0-4_文字-記号
 62
    7
 10
655.71143078289424
 20
191.3158734113149
 40
10
 41
1
 50
0
  1
捨貼材
  0
TEXT
  8
_0-4_文字-記号
 62
    7
 10
724.88993926460171
 20
244.71440521998375
 40
10
 41
1
 50
0
  1
ＥＸＰゴム
  0
LINE
  8
_0-4_文字-記号
  6
CONTINUOUS
 62
    7
 10
861.7529225558701
 20
159.8826335237045
 11
810.32536115496259
 21
249.72374449436029
  0
LINE
  8
_0-4_文字-記号
  6
CONTINUOUS
 62
    7
 10
810.32536115496259
 20
249.72374449436029
 11
788.17723938655581
 21
249.72374449436029
  0
LINE
  8
_0-4_文字-記号
  6
CONTINUOUS
 62
    7
 10
761.58176412953981
 20
121.54930019036419
 11
718.87871632049428
 21
195.51314863371954
  0
LINE
  8
_0-4_文字-記号
  6
CONTINUOUS
 62
    7
 10
718.87871632049428
 20
195.51314863371954
 11
693.13735257472763
 21
195.51314863371954
  0
LINE
  8
_0-3_躯体と製品
  6
CONTINUOUS
 62
    3
 10
912.04142255585066
 20
121.54930019036419
 11
688.03942255586117
 21
121.54930019036419
  0
LINE
  8
_0-3_躯体と製品
  6
CONTINUOUS
 62
    3
 10
912.04142255585066
 20
113.21763352370635
 11
688.03942255586117
 21
113.21763352370635
  0
LINE
  8
_0-3_躯体と製品
  6
CONTINUOUS
 62
    4
 10
845.08458922250975
 20
159.88296685703244
 11
688.03942255586117
 21
159.88296685703244
  0
LINE
  8
_0-3_躯体と製品
  6
CONTINUOUS
 62
    4
 10
848.41792255584187
 20
129.88263352370359
 11
875.08458922250975
 21
129.88263352370359
  0
ARC
  8
_0-3_躯体と製品
  6
CONTINUOUS
 62
    4
 10
875.08458922250884
 20
133.21596685703844
 40
3.3333333333348492
 50
270.00000000001563
 51
0.0000000000156483
  0
LINE
  8
_0-3_躯体と製品
  6
CONTINUOUS
 62
    4
 10
878.41792255584369
 20
133.21596685703935
 11
878.41792255584369
 21
156.54930019037238
  0
ARC
  8
_0-3_躯体と製品
  6
CONTINUOUS
 62
    4
 10
875.08458922251066
 20
156.54930019037147
 40
3.3333333333330297
 50
0.0000000000156357
 51
90.000000000015646
  0
LINE
  8
_0-3_躯体と製品
  6
CONTINUOUS
 62
    4
 10
875.08458922250975
 20
159.8826335237045
 11
848.41792255584187
 21
159.8826335237045
  0
ARC
  8
_0-3_躯体と製品
  6
CONTINUOUS
 62
    4
 10
848.41792255584187
 20
156.54930019037238
 40
3.3333333333321198
 50
90
 51
180
  0
LINE
  8
_0-3_躯体と製品
  6
CONTINUOUS
 62
    4
 10
845.08458922250975
 20
156.54930019037238
 11
845.08458922250975
 21
133.21596685703571
  0
LINE
  8
_0-3_躯体と製品
  6
CONTINUOUS
 62
    4
 10
845.08458922250975
 20
133.21596685703571
 11
848.41792255584187
 21
129.88263352370359
  0
LINE
  8
_0-3_躯体と製品
  6
CONTINUOUS
 62
    4
 10
845.08458922250975
 20
159.8826335237045
 11
845.08458922250975
 21
129.88263352370359
  0
LINE
  8
_0-3_躯体と製品
  6
CONTINUOUS
 62
    4
 10
912.04142255585066
 20
104.88446685703002
 11
688.03942255586117
 21
104.88446685703002
  0
LINE
  8
_0-3_躯体と製品
  6
CONTINUOUS
 62
    4
 10
912.04142255585066
 20
104.88446685703002
 11
912.04142255585066
 21
129.88296685703335
  0
LINE
  8
_0-3_躯体と製品
  6
CONTINUOUS
 62
    4
 10
912.04142255585066
 20
129.88296685703335
 11
688.03942255586117
 21
129.88296685703335
  0
LINE
  8
_0-4_文字-記号
  6
CONTINUOUS
 62
    7
 10
891.08057282336631
 20
131.07526860633334
 11
915.7087343905423
 21
88.418041474944403
  0
LINE
  8
_0-4_文字-記号
  6
CONTINUOUS
 62
    7
 10
915.7087343905423
 20
88.418041474944403
 11
928.63435176687381
 21
88.418041474944403
  0
TEXT
  8
_0-4_文字-記号
 62
    7
 10
930.46801467848672
 20
83.017123273056313
 40
10
 41
1
 50
0
  1
調整パッキン
  0
LINE
  8
_0-6_Layer_01
  6
CONTINUOUS
 62
    3
 10
878.41625588914212
 20
157.71630019037366
 11
878.41625588914212
 21
159.05130019037279
  0
INSERT
  2
-006-_D7
  8
_0-2_寸法
 10
-9052.8856444314861
 20
-8051.46296622921
 41
1
 42
1
 50
0
  0
LINE
  8
_0-4_文字-記号
  6
CONTINUOUS
 62
    7
 10
1068.4187558891845
 20
159.88296685703244
 11
1090.8435947027338
 21
198.72392703365222
  0
LINE
  8
_0-4_文字-記号
  6
CONTINUOUS
 62
    7
 10
1090.8435947027338
 20
198.72392703365222
 11
1109.1066791650337
 21
198.72392703365222
  0
TEXT
  8
_0-4_文字-記号
 62
    7
 10
1111.6070087433145
 20
194.11106964378268
 40
10
 41
1
 50
0
  1
床換気口
  0
LINE
  8
_0-2_寸法
  6
CONTINUOUS
 62
    4
 10
878.41625588914212
 20
167.38463352370673
 11
878.41625588914212
 21
239.72866529866769
  0
LINE
  8
_0-2_寸法
  6
CONTINUOUS
 62
    4
 10
878.41625588914212
 20
239.72866529866769
 11
1117.4179225558837
 21
239.72866529866769
  0
INSERT
  2
-000-_Dot
  8
_0-2_寸法
 10
878.41625588914212
 20
239.72866529866769
 41
4.9999999999999991
 42
4.9999999999999991
 50
180
  0
TEXT
  8
_0-2_寸法
 62
    7
 10
989.92723718937305
 20
247.9117039561479
 40
10
 41
1
 50
0
  1
900
  0
LINE
  8
_0-4_文字-記号
  6
CONTINUOUS
 62
    7
 10
888.04199689328016
 20
136.88296685703972
 11
917.53756969366623
 21
187.97079754566039
  0
LINE
  8
_0-4_文字-記号
  6
CONTINUOUS
 62
    7
 10
917.53756969366623
 20
187.97079754566039
 11
936.60853496874552
 21
187.97079754566039
  0
TEXT
  8
_0-4_文字-記号
 62
    7
 10
939.13114653928642
 20
183.78312619557619
 40
10
 41
1
 50
0
  1
固定金具
  0
LINE
  8
_0-4_文字-記号
  6
CONTINUOUS
 62
    7
 10
609.31194754675562
 20
191.7050563777957
 11
609.31194754675562
 21
104.88446685703002
  0
INSERT
  2
-007-_D8
  8
_0-4_文字-記号
 10
-9052.8856444314861
 20
-8051.46296622921
 41
1
 42
1
 50
0
  0
INSERT
  2
-008-_D9
  8
_0-4_文字-記号
 10
-9052.8856444314861
 20
-8051.46296622921
 41
1
 42
1
 50
0
  0
TEXT
  8
_0-4_文字-記号
 62
    7
 10
319.96090673100116
 20
131.08361667732879
 40
12
 41
1
 50
0
  1
９００×２００
  0
TEXT
  8
_0-4_文字-記号
 62
    7
 10
404.11907173756481
 20
747.73186599322798
 40
10
 41
1
 50
0
  1
床換気口 ９００×２００
  0
ENDSEC
  0
EOF
