  0
SECTION
  2
HEADER
  9
$ACADVER
  1
AC1009
  9
$INSBASE
 10
0
 20
0
 30
0
  9
$EXTMIN
 10
0
 20
0
  9
$EXTMAX
 10
1682
 20
1188
  9
$LIMMIN
 10
0
 20
0
  9
$LIMMAX
 10
1682
 20
1188
  9
$LTSCALE
 40
2
  0
ENDSEC
  0
SECTION
  2
TABLES
  0
TABLE
  2
LTYPE
 70
     9
  0
LTYPE
  2
CONTINUOUS
 70
    64
  3
実線
 72
    65
 73
     0
 40
0.0
  0
LTYPE
  2
DASHED1
 70
    64
  3
--  --  --  --  --  --  --  --  
 72
    65
 73
     2
 40
2.5
 49
1.25
 49
-1.25
  0
LTYPE
  2
DASHED2
 70
    64
  3
----    ----    ----    ----    
 72
    65
 73
     2
 40
5.0
 49
2.5
 49
-2.5
  0
LTYPE
  2
DASHED3
 70
    64
  3
------  ------  ------  ------  
 72
    65
 73
     2
 40
5.0
 49
3.75
 49
-1.25
  0
LTYPE
  2
CENTER1
 70
    64
  3
----- - ----- - ----- - ----- - 
 72
    65
 73
     4
 40
10.0
 49
6.25
 49
-1.25
 49
1.25
 49
-1.25
  0
LTYPE
  2
CENTER2
 70
    64
  3
----------  --  ----------  --  
 72
    65
 73
     4
 40
20.0
 49
12.5
 49
-2.5
 49
2.5
 49
-2.5
  0
LTYPE
  2
PHANTOM1
 70
    64
  3
--- - - --- - - --- - - --- - - 
 72
    65
 73
     6
 40
10.0
 49
3.25
 49
-1.25
 49
1.25
 49
-1.25
 49
1.25
 49
-1.25
  0
LTYPE
  2
PHANTOM2
 70
    64
  3
--------  -  -  --------  -  -  
 72
    65
 73
     6
 40
20.0
 49
10.0
 49
-2.5
 49
1.25
 49
-2.5
 49
1.25
 49
-2.5
  0
LTYPE
  2
DOT
 70
    64
  3
-   -   -   -   -   -   -   -   
 72
    65
 73
     2
 40
2.5
 49
0.625
 49
-1.875
  0
LTYPE
  2
DUMMY
 70
    64
  3
ダミー
 72
    65
 73
     0
 40
0.0
  0
LTYPE
  2
RAND1
 70
    64
  3
ランダム線1
 72
    65
 73
     4
 40
10.0
 49
1.0
 49
-2.0
 49
3.0
 49
-4.0
  0
LTYPE
  2
RAND2
 70
    64
  3
ランダム線2
 72
    65
 73
     4
 40
14.0
 49
2.0
 49
-3.0
 49
4.0
 49
-5.0
  0
LTYPE
  2
RAND3
 70
    64
  3
ランダム線3
 72
    65
 73
     4
 40
18.0
 49
3.0
 49
-4.0
 49
5.0
 49
-6.0
  0
LTYPE
  2
RAND4
 70
    64
  3
ランダム線4
 72
    65
 73
     4
 40
22.0
 49
4.0
 49
-5.0
 49
6.0
 49
-7.0
  0
LTYPE
  2
RAND5
 70
    64
  3
ランダム線5
 72
    65
 73
     4
 40
26.0
 49
5.0
 49
-6.0
 49
7.0
 49
-8.0
  0
LTYPE
  2
LONG1
 70
    64
  3
----------  --  ----------  --  
 72
    65
 73
     4
 40
40.0
 49
32.5
 49
-2.5
 49
2.5
 49
-2.5
  0
LTYPE
  2
LONG2
 70
    64
  3
--------  -  -  --------  -  -  
 72
    65
 73
     6
 40
40.0
 49
30.0
 49
-2.5
 49
1.25
 49
-2.5
 49
1.25
 49
-2.5
  0
LTYPE
  2
LONG3
 70
    64
  3
+++++++++++++++..+++++++++++++++
 72
    65
 73
     2
 40
40.0
 49
37.5
 49
-2.5
  0
LTYPE
  2
LONG4
 70
    64
  3
+++++++++++++++..+++++++++++++++
 72
    65
 73
     2
 40
80.0
 49
75.0
 49
-5.0
  0
LTYPE
  2
LONG5
 70
    64
  3
----------  --  ----------  --  
 72
    65
 73
     4
 40
60.0
 49
37.5
 49
-7.5
 49
7.5
 49
-7.5
  0
LTYPE
  2
dashed
 70
   64
  3
-------   -------------   ------
 72
   65
 73
    2
 40
7.5
 49
6
 49
-1.5
  0
LTYPE
  2
dashed_spaced
 70
   64
  3
----        --------        ----
 72
   65
 73
    2
 40
12
 49
6
 49
-6
  0
LTYPE
  2
long_dashed_dotted
 70
   64
  3
------------- --- --------------
 72
   65
 73
    4
 40
15.25
 49
12
 49
-1.5
 49
0.25
 49
-1.5
  0
LTYPE
  2
long_dashed_double-dotted
 70
   64
  3
----------- --- --- ------------
 72
   65
 73
    6
 40
17
 49
12
 49
-1.5
 49
0.25
 49
-1.5
 49
0.25
 49
-1.5
  0
LTYPE
  2
long_dashed_triplicate-dotted
 70
   64
  3
--------- --- --- --- ----------
 72
   65
 73
    8
 40
18.75
 49
12
 49
-1.5
 49
0.25
 49
-1.5
 49
0.25
 49
-1.5
 49
0.25
 49
-1.5
  0
LTYPE
  2
dotted
 70
   64
  3
   -       -       -       -    
 72
   65
 73
    2
 40
1.75
 49
0.25
 49
-1.5
  0
LTYPE
  2
chain
 70
   64
  3
-------------- -- --------------
 72
   65
 73
    4
 40
18.5
 49
12
 49
-1.5
 49
3.5
 49
-1.5
  0
LTYPE
  2
chain_double_dash
 70
   64
  3
------------ -- -- -------------
 72
   65
 73
    6
 40
23.5
 49
12
 49
-1.5
 49
3.5
 49
-1.5
 49
3.5
 49
-1.5
  0
LTYPE
  2
dashed_dotted
 70
   64
  3
-----------     -     ----------
 72
   65
 73
    4
 40
9.25
 49
6
 49
-1.5
 49
0.25
 49
-1.5
  0
LTYPE
  2
double-dashed_dotted
 70
   64
  3
------   -----------   -   -----
 72
   65
 73
    6
 40
16.75
 49
6
 49
-1.5
 49
6
 49
-1.5
 49
0.25
 49
-1.5
  0
LTYPE
  2
dashed_double-dotted
 70
   64
  3
---------    -    -    ---------
 72
   65
 73
    6
 40
11
 49
6
 49
-1.5
 49
0.25
 49
-1.5
 49
0.25
 49
-1.5
  0
LTYPE
  2
double-dashed_double-dotted
 70
   64
  3
-----   ---------   -   -   ----
 72
   65
 73
    8
 40
18.5
 49
6
 49
-1.5
 49
6
 49
-1.5
 49
0.25
 49
-1.5
 49
0.25
 49
-1.5
  0
LTYPE
  2
dashed_triplicate-dotted
 70
   64
  3
-------    -    -    -    ------
 72
   65
 73
    8
 40
12.75
 49
6
 49
-1.5
 49
0.25
 49
-1.5
 49
0.25
 49
-1.5
 49
0.25
 49
-1.5
  0
LTYPE
  2
double-dashed_triplicate-dotted
 70
   64
  3
-----  ---------  -  -  -  -----
 72
   65
 73
   10
 40
20.25
 49
6
 49
-1.5
 49
6
 49
-1.5
 49
0.25
 49
-1.5
 49
0.25
 49
-1.5
 49
0.25
 49
-1.5
  0
LTYPE
  2
undefined
 70
   64
  3
--------------------------------
 72
   65
 73
    0
 40
0
  0
ENDTAB
  0
TABLE
  2
STYLE
  5
3
100
AcDbSymbolTable
 70
     1
  0
STYLE
  5
10
100
AcDbSymbolTableRecord
100
AcDbTextStyleTableRecord
  2
STANDARD
 70
     0
 40
0.0
 41
1.0
 50
0.0
 71
     0
 42
0.2
  3
txt
  4
bigfont.shx
  0
STYLE
  5
26
100
AcDbSymbolTableRecord
100
AcDbTextStyleTableRecord
  2
TATEGAKI
 70
    68
 40
0.0
 41
1.0
 50
0.0
 71
     0
 42
1.0
  3
txt
  4
bigfont.shx
  0
ENDTAB
  0
TABLE
  2
LAYER
 70
    6
  0
LAYER
  2
_0-0_0
 70
   64
 62
    7
  6
CONTINUOUS
  0
LAYER
  2
_0-2_寸法
 70
   64
 62
    7
  6
CONTINUOUS
  0
LAYER
  2
_0-3_躯体と製品
 70
   64
 62
    7
  6
CONTINUOUS
  0
LAYER
  2
_0-4_文字-記号
 70
   64
 62
    7
  6
CONTINUOUS
  0
LAYER
  2
_0-5_中心線
 70
   64
 62
    7
  6
CONTINUOUS
  0
LAYER
  2
ADD_LINE
 70
   64
 62
    7
  6
CONTINUOUS
  0
ENDTAB
  0
ENDSEC
  0
SECTION
  2
BLOCKS
  0
BLOCK
  2
-000-_Dot
 70
   64
 10
0
 20
0
 30
0
  0
CIRCLE
  8
_0-0_0
  6
CONTINUOUS
 62
    7
 10
0
 20
0
 40
0.25
  0
LINE
  8
_0-0_0
  6
CONTINUOUS
 62
    7
 10
0.25
 20
0
 11
-0.25
 21
0
  0
LINE
  8
_0-0_0
  6
CONTINUOUS
 62
    7
 10
-0.5
 20
0
 11
-1
 21
0
  0
ENDBLK
  0
BLOCK
  2
-001-_D10
 70
   64
 10
0
 20
0
 30
0
  0
LINE
  8
_0-2_寸法
  6
CONTINUOUS
 62
    4
 10
2919.6756515703132
 20
1337.376873400063
 11
3059.7769204175652
 21
1337.376873400063
  0
LINE
  8
_0-2_寸法
  6
CONTINUOUS
 62
    4
 10
3035.0015904175648
 20
1377.376873400063
 11
3059.7769204175652
 21
1377.376873400063
  0
LINE
  8
_0-2_寸法
  6
CONTINUOUS
 62
    4
 10
3059.7769204175652
 20
1338.376873400063
 11
3059.7769204175652
 21
1376.376873400063
  0
INSERT
  2
-000-_Dot
  8
_0-2_寸法
 10
3059.7769204175652
 20
1337.376873400063
 41
1
 42
1
 50
270
  0
INSERT
  2
-000-_Dot
  8
_0-2_寸法
 10
3059.7769204175652
 20
1377.376873400063
 41
1
 42
1
 50
90
  0
TEXT
  8
_0-2_寸法
 62
    7
 10
3056.7769204175638
 20
1353.376873400063
 40
8
 41
1
 50
90
  1
40
  0
POINT
  8
_0-1_Defpoints
 62
    7
 10
2919.6756515703132
 20
1337.376873400063
  0
POINT
  8
_0-1_Defpoints
 62
    7
 10
3035.0015904175648
 20
1377.376873400063
  0
POINT
  8
_0-1_Defpoints
 62
    7
 10
3059.7769204175652
 20
1377.376873400063
  0
ENDBLK
  0
BLOCK
  2
-002-_D11
 70
   64
 10
0
 20
0
 30
0
  0
LINE
  8
_0-2_寸法
  6
CONTINUOUS
 62
    4
 10
2593.927232588831
 20
1005.378394006904
 11
2649.4388548594011
 21
1005.378394006904
  0
LINE
  8
_0-2_寸法
  6
CONTINUOUS
 62
    4
 10
2593.927232588831
 20
1405.37839400691
 11
2649.4388548594011
 21
1405.37839400691
  0
LINE
  8
_0-2_寸法
  6
CONTINUOUS
 62
    4
 10
2649.4388548594011
 20
1006.378394006904
 11
2649.4388548594011
 21
1404.3783940069111
  0
INSERT
  2
-000-_Dot
  8
_0-2_寸法
 10
2649.4388548594011
 20
1005.378394006904
 41
1
 42
1
 50
270
  0
INSERT
  2
-000-_Dot
  8
_0-2_寸法
 10
2649.4388548594011
 20
1405.37839400691
 41
1
 42
1
 50
90
  0
TEXT
  8
_0-2_寸法
 62
    7
 10
2646.4388548594011
 20
1195.378394006907
 40
8
 41
1
 50
90
  1
～500
  0
POINT
  8
_0-1_Defpoints
 62
    7
 10
2593.927232588831
 20
1005.378394006904
  0
POINT
  8
_0-1_Defpoints
 62
    7
 10
2593.927232588831
 20
1405.37839400691
  0
POINT
  8
_0-1_Defpoints
 62
    7
 10
2649.4388548594011
 20
1405.37839400691
  0
ENDBLK
  0
BLOCK
  2
-003-_D12
 70
   64
 10
0
 20
0
 30
0
  0
LINE
  8
_0-2_寸法
  6
CONTINUOUS
 62
    4
 10
2385.3523007291528
 20
1416.8768734000571
 11
2385.3523007291528
 21
1447.7392007703691
  0
LINE
  8
_0-2_寸法
  6
CONTINUOUS
 62
    4
 10
2545.3523007291528
 20
1416.8768734000571
 11
2545.3523007291528
 21
1447.7392007703691
  0
LINE
  8
_0-2_寸法
  6
CONTINUOUS
 62
    4
 10
2386.3523007291528
 20
1447.7392007703691
 11
2544.3523007291528
 21
1447.7392007703691
  0
INSERT
  2
-000-_Dot
  8
_0-2_寸法
 10
2385.3523007291528
 20
1447.7392007703691
 41
1
 42
1
 50
180
  0
INSERT
  2
-000-_Dot
  8
_0-2_寸法
 10
2545.3523007291528
 20
1447.7392007703691
 41
1
 42
1
 50
0
  0
TEXT
  8
_0-2_寸法
 62
    7
 10
2459.3523007291528
 20
1450.7392007703691
 40
8
 41
1
 50
0
  1
160
  0
POINT
  8
_0-1_Defpoints
 62
    7
 10
2385.3523007291528
 20
1416.8768734000571
  0
POINT
  8
_0-1_Defpoints
 62
    7
 10
2545.3523007291528
 20
1416.8768734000571
  0
POINT
  8
_0-1_Defpoints
 62
    7
 10
2545.3523007291528
 20
1447.7392007703691
  0
ENDBLK
  0
BLOCK
  2
-004-_D13
 70
   64
 10
0
 20
0
 30
0
  0
LINE
  8
_0-2_寸法
  6
CONTINUOUS
 62
    4
 10
2379.3523007291528
 20
1416.8768734000571
 11
2379.3523007291528
 21
1447.7392007703691
  0
LINE
  8
_0-2_寸法
  6
CONTINUOUS
 62
    4
 10
2385.3523007291528
 20
1416.8768734000571
 11
2385.3523007291528
 21
1447.7392007703691
  0
LINE
  8
_0-2_寸法
  6
CONTINUOUS
 62
    4
 10
2378.3523007291528
 20
1447.7392007703691
 11
2377.3523007291528
 21
1447.7392007703691
  0
LINE
  8
_0-2_寸法
  6
CONTINUOUS
 62
    4
 10
2386.3523007291528
 20
1447.7392007703691
 11
2387.3523007291528
 21
1447.7392007703691
  0
LINE
  8
_0-2_寸法
  6
CONTINUOUS
 62
    4
 10
2379.3523007291528
 20
1447.7392007703691
 11
2385.3523007291528
 21
1447.7392007703691
  0
INSERT
  2
-000-_Dot
  8
_0-2_寸法
 10
2379.3523007291528
 20
1447.7392007703691
 41
1
 42
1
 50
0
  0
INSERT
  2
-000-_Dot
  8
_0-2_寸法
 10
2385.3523007291528
 20
1447.7392007703691
 41
1
 42
1
 50
180
  0
TEXT
  8
_0-2_寸法
 62
    7
 10
2380.3523007291528
 20
1450.7392007703691
 40
8
 41
1
 50
0
  1
6
  0
POINT
  8
_0-1_Defpoints
 62
    7
 10
2379.3523007291528
 20
1416.8768734000571
  0
POINT
  8
_0-1_Defpoints
 62
    7
 10
2385.3523007291528
 20
1416.8768734000571
  0
POINT
  8
_0-1_Defpoints
 62
    7
 10
2385.3523007291528
 20
1447.7392007703691
  0
ENDBLK
  0
BLOCK
  2
-005-_D14
 70
   64
 10
0
 20
0
 30
0
  0
LINE
  8
_0-2_寸法
  6
CONTINUOUS
 62
    4
 10
2213.3523007291528
 20
1416.8768734000571
 11
2213.3523007291528
 21
1447.7392007703691
  0
LINE
  8
_0-2_寸法
  6
CONTINUOUS
 62
    4
 10
2219.3523007291528
 20
1416.8768734000571
 11
2219.3523007291528
 21
1447.7392007703691
  0
LINE
  8
_0-2_寸法
  6
CONTINUOUS
 62
    4
 10
2212.3523007291528
 20
1447.7392007703691
 11
2211.3523007291528
 21
1447.7392007703691
  0
LINE
  8
_0-2_寸法
  6
CONTINUOUS
 62
    4
 10
2220.3523007291528
 20
1447.7392007703691
 11
2221.3523007291528
 21
1447.7392007703691
  0
LINE
  8
_0-2_寸法
  6
CONTINUOUS
 62
    4
 10
2213.3523007291528
 20
1447.7392007703691
 11
2219.3523007291528
 21
1447.7392007703691
  0
INSERT
  2
-000-_Dot
  8
_0-2_寸法
 10
2213.3523007291528
 20
1447.7392007703691
 41
1
 42
1
 50
0
  0
INSERT
  2
-000-_Dot
  8
_0-2_寸法
 10
2219.3523007291528
 20
1447.7392007703691
 41
1
 42
1
 50
180
  0
TEXT
  8
_0-2_寸法
 62
    7
 10
2214.3523007291528
 20
1450.7392007703691
 40
8
 41
1
 50
0
  1
6
  0
POINT
  8
_0-1_Defpoints
 62
    7
 10
2213.3523007291528
 20
1416.8768734000571
  0
POINT
  8
_0-1_Defpoints
 62
    7
 10
2219.3523007291528
 20
1416.8768734000571
  0
POINT
  8
_0-1_Defpoints
 62
    7
 10
2219.3523007291528
 20
1447.7392007703691
  0
ENDBLK
  0
BLOCK
  2
-006-_D15
 70
   64
 10
0
 20
0
 30
0
  0
LINE
  8
_0-2_寸法
  6
CONTINUOUS
 62
    4
 10
2219.3523007291528
 20
1416.8768734000571
 11
2219.3523007291528
 21
1447.7392007703691
  0
LINE
  8
_0-2_寸法
  6
CONTINUOUS
 62
    4
 10
2379.3523007291528
 20
1416.8768734000571
 11
2379.3523007291528
 21
1447.7392007703691
  0
LINE
  8
_0-2_寸法
  6
CONTINUOUS
 62
    4
 10
2220.3523007291528
 20
1447.7392007703691
 11
2378.3523007291528
 21
1447.7392007703691
  0
INSERT
  2
-000-_Dot
  8
_0-2_寸法
 10
2219.3523007291528
 20
1447.7392007703691
 41
1
 42
1
 50
180
  0
INSERT
  2
-000-_Dot
  8
_0-2_寸法
 10
2379.3523007291528
 20
1447.7392007703691
 41
1
 42
1
 50
0
  0
TEXT
  8
_0-2_寸法
 62
    7
 10
2293.3523007291528
 20
1450.7392007703691
 40
8
 41
1
 50
0
  1
160
  0
POINT
  8
_0-1_Defpoints
 62
    7
 10
2219.3523007291528
 20
1416.8768734000571
  0
POINT
  8
_0-1_Defpoints
 62
    7
 10
2379.3523007291528
 20
1416.8768734000571
  0
POINT
  8
_0-1_Defpoints
 62
    7
 10
2379.3523007291528
 20
1447.7392007703691
  0
ENDBLK
  0
BLOCK
  2
-007-_D16
 70
   64
 10
0
 20
0
 30
0
  0
LINE
  8
_0-2_寸法
  6
CONTINUOUS
 62
    4
 10
2545.3523007291528
 20
1416.8768734000571
 11
2545.3523007291528
 21
1447.7392007703691
  0
LINE
  8
_0-2_寸法
  6
CONTINUOUS
 62
    4
 10
2551.3523007291528
 20
1416.8768734000571
 11
2551.3523007291528
 21
1447.7392007703691
  0
LINE
  8
_0-2_寸法
  6
CONTINUOUS
 62
    4
 10
2544.3523007291528
 20
1447.7392007703691
 11
2543.3523007291528
 21
1447.7392007703691
  0
LINE
  8
_0-2_寸法
  6
CONTINUOUS
 62
    4
 10
2552.3523007291528
 20
1447.7392007703691
 11
2553.3523007291528
 21
1447.7392007703691
  0
LINE
  8
_0-2_寸法
  6
CONTINUOUS
 62
    4
 10
2545.3523007291528
 20
1447.7392007703691
 11
2551.3523007291528
 21
1447.7392007703691
  0
INSERT
  2
-000-_Dot
  8
_0-2_寸法
 10
2545.3523007291528
 20
1447.7392007703691
 41
1
 42
1
 50
0
  0
INSERT
  2
-000-_Dot
  8
_0-2_寸法
 10
2551.3523007291528
 20
1447.7392007703691
 41
1
 42
1
 50
180
  0
TEXT
  8
_0-2_寸法
 62
    7
 10
2546.3523007291528
 20
1450.7392007703691
 40
8
 41
1
 50
0
  1
6
  0
POINT
  8
_0-1_Defpoints
 62
    7
 10
2545.3523007291528
 20
1416.8768734000571
  0
POINT
  8
_0-1_Defpoints
 62
    7
 10
2551.3523007291528
 20
1416.8768734000571
  0
POINT
  8
_0-1_Defpoints
 62
    7
 10
2551.3523007291528
 20
1447.7392007703691
  0
ENDBLK
  0
BLOCK
  2
-008-_D17
 70
   64
 10
0
 20
0
 30
0
  0
LINE
  8
_0-2_寸法
  6
CONTINUOUS
 62
    4
 10
2593.927232588831
 20
1337.378394006904
 11
2618.7025625888309
 21
1337.378394006904
  0
LINE
  8
_0-2_寸法
  6
CONTINUOUS
 62
    4
 10
2593.927232588831
 20
1377.378394006904
 11
2618.7025625888309
 21
1377.378394006904
  0
LINE
  8
_0-2_寸法
  6
CONTINUOUS
 62
    4
 10
2618.7025625888309
 20
1338.378394006904
 11
2618.7025625888309
 21
1376.378394006904
  0
INSERT
  2
-000-_Dot
  8
_0-2_寸法
 10
2618.7025625888309
 20
1337.378394006904
 41
1
 42
1
 50
270
  0
INSERT
  2
-000-_Dot
  8
_0-2_寸法
 10
2618.7025625888309
 20
1377.378394006904
 41
1
 42
1
 50
90
  0
TEXT
  8
_0-2_寸法
 62
    7
 10
2615.70256258883
 20
1353.378394006905
 40
8
 41
1
 50
90
  1
40
  0
POINT
  8
_0-1_Defpoints
 62
    7
 10
2593.927232588831
 20
1337.378394006904
  0
POINT
  8
_0-1_Defpoints
 62
    7
 10
2593.927232588831
 20
1377.378394006904
  0
POINT
  8
_0-1_Defpoints
 62
    7
 10
2618.7025625888309
 20
1377.378394006904
  0
ENDBLK
  0
BLOCK
  2
-009-_D18
 70
   64
 10
0
 20
0
 30
0
  0
LINE
  8
_0-2_寸法
  6
CONTINUOUS
 62
    4
 10
2593.927232588831
 20
1377.378394006904
 11
2618.7025625888309
 21
1377.378394006904
  0
LINE
  8
_0-2_寸法
  6
CONTINUOUS
 62
    4
 10
2593.927232588831
 20
1405.37839400691
 11
2618.7025625888309
 21
1405.37839400691
  0
LINE
  8
_0-2_寸法
  6
CONTINUOUS
 62
    4
 10
2618.7025625888309
 20
1378.378394006904
 11
2618.7025625888309
 21
1404.3783940069111
  0
INSERT
  2
-000-_Dot
  8
_0-2_寸法
 10
2618.7025625888309
 20
1377.378394006904
 41
1
 42
1
 50
270
  0
INSERT
  2
-000-_Dot
  8
_0-2_寸法
 10
2618.7025625888309
 20
1405.37839400691
 41
1
 42
1
 50
90
  0
TEXT
  8
_0-2_寸法
 62
    7
 10
2615.70256258883
 20
1387.3783940069079
 40
8
 41
1
 50
90
  1
28
  0
POINT
  8
_0-1_Defpoints
 62
    7
 10
2593.927232588831
 20
1377.378394006904
  0
POINT
  8
_0-1_Defpoints
 62
    7
 10
2593.927232588831
 20
1405.37839400691
  0
POINT
  8
_0-1_Defpoints
 62
    7
 10
2618.7025625888309
 20
1405.37839400691
  0
ENDBLK
  0
BLOCK
  2
-010-_D19
 70
   64
 10
0
 20
0
 30
0
  0
LINE
  8
_0-2_寸法
  6
CONTINUOUS
 62
    4
 10
2552.3523007291528
 20
1447.7392007703691
 11
2591.9309292247531
 21
1447.7392007703691
  0
INSERT
  2
-000-_Dot
  8
_0-2_寸法
 10
2551.3523007291528
 20
1447.7392007703691
 41
1
 42
1
 50
180
  0
TEXT
  8
_0-2_寸法
 62
    7
 10
2566.141614976953
 20
1450.7392007703691
 40
8
 41
1
 50
0
  1
160
  0
POINT
  8
_0-1_Defpoints
 62
    7
 10
2551.3523007291528
 20
1447.7392007703691
  0
POINT
  8
_0-1_Defpoints
 62
    7
 10
2591.9309292247531
 20
1447.7392007703691
  0
POINT
  8
_0-1_Defpoints
 62
    7
 10
2591.9309292247531
 20
1447.7392007703691
  0
ENDBLK
  0
BLOCK
  2
-011-_D20
 70
   64
 10
0
 20
0
 30
0
  0
LINE
  8
_0-2_寸法
  6
CONTINUOUS
 62
    4
 10
2173.0757913767388
 20
1447.7392007703691
 11
2212.3523007291528
 21
1447.7392007703691
  0
INSERT
  2
-000-_Dot
  8
_0-2_寸法
 10
2213.3523007291528
 20
1447.7392007703691
 41
1
 42
1
 50
0
  0
TEXT
  8
_0-2_寸法
 62
    7
 10
2186.7140460529449
 20
1450.7392007703691
 40
8
 41
1
 50
0
  1
160
  0
POINT
  8
_0-1_Defpoints
 62
    7
 10
2173.0757913767388
 20
1447.7392007703691
  0
POINT
  8
_0-1_Defpoints
 62
    7
 10
2213.3523007291528
 20
1447.7392007703691
  0
POINT
  8
_0-1_Defpoints
 62
    7
 10
2213.3523007291528
 20
1447.7392007703691
  0
ENDBLK
  0
BLOCK
  2
-012-_D21
 70
   64
 10
0
 20
0
 30
0
  0
LINE
  8
_0-2_寸法
  6
CONTINUOUS
 62
    4
 10
3035.0015904175648
 20
1377.376873400063
 11
3059.7769204175652
 21
1377.376873400063
  0
LINE
  8
_0-2_寸法
  6
CONTINUOUS
 62
    4
 10
3035.0015904175648
 20
1405.376873400063
 11
3059.7769204175652
 21
1405.376873400063
  0
LINE
  8
_0-2_寸法
  6
CONTINUOUS
 62
    4
 10
3059.7769204175652
 20
1378.376873400063
 11
3059.7769204175652
 21
1404.376873400063
  0
INSERT
  2
-000-_Dot
  8
_0-2_寸法
 10
3059.7769204175652
 20
1377.376873400063
 41
1
 42
1
 50
270
  0
INSERT
  2
-000-_Dot
  8
_0-2_寸法
 10
3059.7769204175652
 20
1405.376873400063
 41
1
 42
1
 50
90
  0
TEXT
  8
_0-2_寸法
 62
    7
 10
3056.7769204175652
 20
1387.376873400063
 40
8
 41
1
 50
90
  1
28
  0
POINT
  8
_0-1_Defpoints
 62
    7
 10
3035.0015904175648
 20
1377.376873400063
  0
POINT
  8
_0-1_Defpoints
 62
    7
 10
3035.0015904175648
 20
1405.376873400063
  0
POINT
  8
_0-1_Defpoints
 62
    7
 10
3059.7769204175652
 20
1405.376873400063
  0
ENDBLK
  0
BLOCK
  2
-013-_D22
 70
   64
 10
0
 20
0
 30
0
  0
LINE
  8
_0-2_寸法
  6
CONTINUOUS
 62
    4
 10
3035.0015904175648
 20
1005.376873400057
 11
3099.7769204175652
 21
1005.376873400057
  0
LINE
  8
_0-2_寸法
  6
CONTINUOUS
 62
    4
 10
3035.0015904175648
 20
1405.376873400063
 11
3099.7769204175661
 21
1405.376873400063
  0
LINE
  8
_0-2_寸法
  6
CONTINUOUS
 62
    4
 10
3099.7769204175652
 20
1006.376873400057
 11
3099.7769204175661
 21
1404.376873400063
  0
INSERT
  2
-000-_Dot
  8
_0-2_寸法
 10
3099.7769204175652
 20
1005.376873400057
 41
1
 42
1
 50
270
  0
INSERT
  2
-000-_Dot
  8
_0-2_寸法
 10
3099.7769204175661
 20
1405.376873400063
 41
1
 42
1
 50
90
  0
TEXT
  8
_0-2_寸法
 62
    7
 10
3096.7769204175652
 20
1195.376873400061
 40
8
 41
1
 50
90
  1
～500
  0
POINT
  8
_0-1_Defpoints
 62
    7
 10
3035.0015904175648
 20
1005.376873400057
  0
POINT
  8
_0-1_Defpoints
 62
    7
 10
3035.0015904175648
 20
1405.376873400063
  0
POINT
  8
_0-1_Defpoints
 62
    7
 10
3099.7769204175661
 20
1405.376873400063
  0
ENDBLK
  0
BLOCK
  2
-014-_D24
 70
   64
 10
0
 20
0
 30
0
  0
LINE
  8
_0-2_寸法
  6
CONTINUOUS
 62
    4
 10
2777.6756515703369
 20
938.03556392822497
 11
2876.675651570336
 21
938.03556392822497
  0
INSERT
  2
-000-_Dot
  8
_0-2_寸法
 10
2877.6756515703369
 20
938.03556392822497
 41
1
 42
1
 50
0
  0
TEXT
  8
_0-2_寸法
 62
    7
 10
2819.1756515703369
 20
941.03556392822497
 40
8
 41
1
 50
0
  1
@500
  0
POINT
  8
_0-1_Defpoints
 62
    7
 10
2777.6756515703369
 20
938.03556392822497
  0
POINT
  8
_0-1_Defpoints
 62
    7
 10
2877.6756515703369
 20
938.03556392822497
  0
POINT
  8
_0-1_Defpoints
 62
    7
 10
2877.6756515703369
 20
938.03556392822497
  0
ENDBLK
  0
BLOCK
  2
-015-_D25
 70
   64
 10
0
 20
0
 30
0
  0
LINE
  8
_0-2_寸法
  6
CONTINUOUS
 62
    4
 10
2878.6756515703369
 20
938.03556392822497
 11
2977.675651570336
 21
938.03556392822497
  0
INSERT
  2
-000-_Dot
  8
_0-2_寸法
 10
2877.6756515703369
 20
938.03556392822497
 41
1
 42
1
 50
180
  0
TEXT
  8
_0-2_寸法
 62
    7
 10
2920.1756515703369
 20
941.03556392822497
 40
8
 41
1
 50
0
  1
@500
  0
POINT
  8
_0-1_Defpoints
 62
    7
 10
2877.6756515703369
 20
938.03556392822497
  0
POINT
  8
_0-1_Defpoints
 62
    7
 10
2977.675651570336
 20
938.03556392822497
  0
POINT
  8
_0-1_Defpoints
 62
    7
 10
2977.675651570336
 20
938.03556392822497
  0
ENDBLK
  0
BLOCK
  2
-016-_D26
 70
   64
 10
0
 20
0
 30
0
  0
LINE
  8
_0-2_寸法
  6
CONTINUOUS
 62
    4
 10
2246.3772455576618
 20
938.03556392822895
 11
2375.3772455576609
 21
938.03556392822895
  0
INSERT
  2
-000-_Dot
  8
_0-2_寸法
 10
2376.3772455576609
 20
938.03556392822895
 41
1
 42
1
 50
0
  0
TEXT
  8
_0-2_寸法
 62
    7
 10
2302.8772455576609
 20
941.03556392822895
 40
8
 41
1
 50
0
  1
@900
  0
POINT
  8
_0-1_Defpoints
 62
    7
 10
2246.3772455576618
 20
938.03556392822895
  0
POINT
  8
_0-1_Defpoints
 62
    7
 10
2376.3772455576609
 20
938.03556392822895
  0
POINT
  8
_0-1_Defpoints
 62
    7
 10
2376.3772455576609
 20
938.03556392822895
  0
ENDBLK
  0
BLOCK
  2
-017-_D27
 70
   64
 10
0
 20
0
 30
0
  0
LINE
  8
_0-2_寸法
  6
CONTINUOUS
 62
    4
 10
2377.3772455576618
 20
938.03556392822895
 11
2506.3772455576618
 21
938.03556392822895
  0
INSERT
  2
-000-_Dot
  8
_0-2_寸法
 10
2376.3772455576609
 20
938.03556392822895
 41
1
 42
1
 50
180
  0
TEXT
  8
_0-2_寸法
 62
    7
 10
2433.8772455576618
 20
941.03556392822895
 40
8
 41
1
 50
0
  1
@900
  0
POINT
  8
_0-1_Defpoints
 62
    7
 10
2376.3772455576609
 20
938.03556392822895
  0
POINT
  8
_0-1_Defpoints
 62
    7
 10
2506.3772455576618
 20
938.03556392822895
  0
POINT
  8
_0-1_Defpoints
 62
    7
 10
2506.3772455576618
 20
938.03556392822895
  0
ENDBLK
  0
ENDSEC
  0
SECTION
  2
ENTITIES
  0
ARC
  8
_0-3_躯体と製品
  6
CONTINUOUS
 62
    7
 10
1034.3296463061297
 20
655.7691121141869
 40
3.249999999995798
 50
90.000002999934651
 51
180.00000000007415
  0
LINE
  8
_0-3_躯体と製品
  6
CONTINUOUS
 62
    7
 10
1031.0796463061338
 20
655.76911211418269
 11
1031.0796463061338
 21
648.01911211418269
  0
LINE
  8
_0-3_躯体と製品
  6
CONTINUOUS
 62
    7
 10
1031.0796463061338
 20
648.01911211418269
 11
1131.0796463061338
 21
648.01911211418269
  0
LINE
  8
_0-3_躯体と製品
  6
CONTINUOUS
 62
    7
 10
1131.0796463061338
 20
648.01911211418269
 11
1131.0796463061338
 21
655.76911211418269
  0
ARC
  8
_0-3_躯体と製品
  6
CONTINUOUS
 62
    7
 10
1127.8296463061338
 20
655.76911211418269
 40
3.2500000000000044
 50
0.0000000000000816
 51
89.999999999999929
  0
LINE
  8
_0-3_躯体と製品
  6
CONTINUOUS
 62
    7
 10
1127.8296463061338
 20
659.01911211418269
 11
1081.0796463061338
 21
659.01911211418269
  0
LINE
  8
_0-3_躯体と製品
  6
CONTINUOUS
 62
    7
 10
1081.0796463061338
 20
659.01911211418269
 11
1034.3296463061338
 21
659.01911211418269
  0
LINE
  8
_0-5_中心線
  6
CENTER1
 62
    7
 10
1081.0796463061347
 20
256.35070790503835
 11
1081.0796463061338
 21
712.28121784826249
  0
LINE
  8
_0-5_中心線
  6
CENTER1
 62
    7
 10
1053.3296463061629
 20
646.61911211418055
 11
1053.3296463061629
 21
669.54286211418162
  0
LINE
  8
_0-5_中心線
  6
CENTER1
 62
    7
 10
1108.8296463061047
 20
646.61911211418055
 11
1108.8296463061047
 21
669.54286211418162
  0
INSERT
  2
-013-_D22
  8
_0-2_寸法
 10
-1796.5960052642022
 20
-676.3577612858744
 41
1
 42
1
 50
0
  0
TEXT
  8
_0-4_文字-記号
 62
    7
 10
378.6932484716508
 20
858.95924703470155
 40
12
 41
1
 50
0
  1
露出防水仕様
  0
LINE
  8
_0-5_中心線
  6
CENTER1
 62
    7
 10
579.78124029345872
 20
256.3507079050421
 11
579.78124029345872
 21
674.05904410377366
  0
ARC
  8
_0-3_躯体と製品
  6
CONTINUOUS
 62
    7
 10
533.03124029345452
 20
655.76911211419076
 40
3.249999999995798
 50
90.000002999934651
 51
180.00000000007415
  0
LINE
  8
_0-3_躯体と製品
  6
CONTINUOUS
 62
    7
 10
529.78124029345872
 20
655.76911211418656
 11
529.78124029345872
 21
648.01911211418565
  0
LINE
  8
_0-3_躯体と製品
  6
CONTINUOUS
 62
    7
 10
529.78124029345872
 20
648.01911211418565
 11
629.78124029345872
 21
648.01911211418565
  0
LINE
  8
_0-3_躯体と製品
  6
CONTINUOUS
 62
    7
 10
629.78124029345872
 20
648.01911211418565
 11
629.78124029345872
 21
655.76911211418656
  0
ARC
  8
_0-3_躯体と製品
  6
CONTINUOUS
 62
    7
 10
626.53124029345872
 20
655.76911211418656
 40
3.2500000000000044
 50
0.0000000000000816
 51
89.999999999999929
  0
LINE
  8
_0-3_躯体と製品
  6
CONTINUOUS
 62
    7
 10
626.53124029345872
 20
659.01911211418656
 11
579.78124029345872
 21
659.01911211418656
  0
LINE
  8
_0-3_躯体と製品
  6
CONTINUOUS
 62
    7
 10
579.78124029345872
 20
659.01911211418656
 11
533.03124029345872
 21
659.01911211418656
  0
LINE
  8
_0-4_文字-記号
  6
CONTINUOUS
 62
    7
 10
711.88761447848492
 20
661.01911211418565
 11
723.05356647848566
 21
641.67911611418549
  0
LINE
  8
_0-4_文字-記号
  6
CONTINUOUS
 62
    7
 10
723.05356647848566
 20
641.67911611418549
 11
749.25774347848483
 21
641.67911611418549
  0
TEXT
  8
_0-4_文字-記号
 62
    7
 10
725.32736047848493
 20
644.06855111418554
 40
8
 41
0.8
 50
0
  1
根太鋼
  0
LINE
  8
_0-4_文字-記号
  6
CONTINUOUS
 62
    7
 10
571.78124029344372
 20
500.51911211419065
 11
549.90922561658999
 21
515.91387211419055
  0
LINE
  8
_0-4_文字-記号
  6
CONTINUOUS
 62
    7
 10
549.90922561658999
 20
515.91387211419055
 11
518.52951047634269
 21
515.91387211419055
  0
TEXT
  8
_0-4_文字-記号
 62
    7
 10
520.06338738056593
 20
518.46794211419069
 40
8
 41
0.8
 50
0
  1
支持脚
  0
LINE
  8
_0-4_文字-記号
  6
CONTINUOUS
 62
    7
 10
615.43767192094583
 20
648.01911211418565
 11
626.60362392094703
 21
628.67911611418549
  0
LINE
  8
_0-4_文字-記号
  6
CONTINUOUS
 62
    7
 10
626.60362392094703
 20
628.67911611418549
 11
667.83312492094683
 21
628.67911611418549
  0
TEXT
  8
_0-4_文字-記号
 62
    7
 10
628.87741792094585
 20
631.06855111418668
 40
8
 41
0.8
 50
0
  1
受け金具
  0
TEXT
  8
_0-4_文字-記号
 62
    7
 10
376.78546091991666
 20
839.30245103435664
 40
12
 41
1
 50
0
  1
基本ピッチ：支持脚 ９００×根太鋼 ５００（再生木材）
  0
TEXT
  8
_0-4_文字-記号
 62
    7
 10
464.04473521239879
 20
818.27539236827056
 40
12
 41
1
 50
0
  1
支持脚 ９００×根太鋼 ６００（天然木材）
  0
LINE
  8
_0-3_躯体と製品
  6
CONTINUOUS
 62
    7
 10
376.47364591061978
 20
701.01911211418269
 11
795.32878375863265
 21
701.01911211418269
  0
LINE
  8
_0-3_躯体と製品
  6
CONTINUOUS
 62
    7
 10
795.32529313963596
 20
661.01911211418269
 11
599.78124029345872
 21
661.01911211418064
  0
LINE
  8
_0-3_躯体と製品
  6
CONTINUOUS
 62
    7
 10
599.78124029345872
 20
662.61911211418669
 11
795.32543276439492
 21
662.61911211418169
  0
INSERT
  2
-003-_D12
  8
_0-2_寸法
 10
-1796.5960052642022
 20
-676.3577612858744
 41
1
 42
1
 50
0
  0
INSERT
  2
-004-_D13
  8
_0-2_寸法
 10
-1796.5960052642022
 20
-676.3577612858744
 41
1
 42
1
 50
0
  0
INSERT
  2
-005-_D14
  8
_0-2_寸法
 10
-1796.5960052642022
 20
-676.3577612858744
 41
1
 42
1
 50
0
  0
INSERT
  2
-006-_D15
  8
_0-2_寸法
 10
-1796.5960052642022
 20
-676.3577612858744
 41
1
 42
1
 50
0
  0
LINE
  8
_0-3_躯体と製品
  6
CONTINUOUS
 62
    7
 10
376.47015529162081
 20
661.01911211418269
 11
559.78124029345872
 21
661.01911211418064
  0
LINE
  8
_0-3_躯体と製品
  6
CONTINUOUS
 62
    7
 10
559.78124029345872
 20
662.61911211418669
 11
376.47029491638068
 21
662.6191121141735
  0
INSERT
  2
-007-_D16
  8
_0-2_寸法
 10
-1796.5960052642022
 20
-676.3577612858744
 41
1
 42
1
 50
0
  0
INSERT
  2
-008-_D17
  8
_0-2_寸法
 10
-1796.5960052642022
 20
-676.3577612858744
 41
1
 42
1
 50
0
  0
INSERT
  2
-009-_D18
  8
_0-2_寸法
 10
-1796.5960052642022
 20
-676.3577612858744
 41
1
 42
1
 50
0
  0
INSERT
  2
-010-_D19
  8
_0-2_寸法
 10
-1796.5960052642022
 20
-676.3577612858744
 41
1
 42
1
 50
0
  0
INSERT
  2
-011-_D20
  8
_0-2_寸法
 10
-1796.5960052642022
 20
-676.3577612858744
 41
1
 42
1
 50
0
  0
LINE
  8
_0-4_文字-記号
  6
CONTINUOUS
 62
    7
 10
589.71416820975082
 20
707.92432221713466
 11
614.57628031202375
 21
750.98676356174565
  0
LINE
  8
_0-4_文字-記号
  6
CONTINUOUS
 62
    7
 10
614.57628031202375
 20
750.98676356174565
 11
648.66174456417775
 21
750.98676356174565
  0
TEXT
  8
_0-4_文字-記号
 62
    7
 10
617.21314531202461
 20
753.54083356174465
 40
8
 41
0.8
 50
0
  1
固定金具
  0
LINE
  8
_0-3_躯体と製品
  6
CONTINUOUS
 62
    7
 10
559.78124029345872
 20
666.01911211418565
 11
599.78124029345872
 21
666.01911211418565
  0
LINE
  8
_0-3_躯体と製品
  6
CONTINUOUS
 62
    7
 10
599.78124029345872
 20
666.01911211418565
 11
599.78124029345872
 21
659.01911211418656
  0
LINE
  8
_0-3_躯体と製品
  6
CONTINUOUS
 62
    7
 10
599.78124029345872
 20
659.01911211418656
 11
559.78124029345872
 21
659.01911211418656
  0
LINE
  8
_0-3_躯体と製品
  6
CONTINUOUS
 62
    7
 10
559.78124029345872
 20
659.01911211418656
 11
559.78124029345872
 21
666.01911211418565
  0
LINE
  8
_0-3_躯体と製品
  6
CONTINUOUS
 62
    7
 10
413.75629546495065
 20
702.0191121141886
 11
376.47373317609481
 21
702.0191121141886
  0
LINE
  8
_0-3_躯体と製品
  6
CONTINUOUS
 62
    7
 10
376.47608934391792
 20
729.0191121141886
 11
415.75629546495065
 21
729.0191121141886
  0
ARC
  8
_0-3_躯体と製品
  6
CONTINUOUS
 62
    7
 10
415.75629546495065
 20
728.0191121141886
 40
0.9999999999999998
 50
0
 51
90
  0
LINE
  8
_0-3_躯体と製品
  6
CONTINUOUS
 62
    7
 10
416.75629546495065
 20
728.0191121141886
 11
416.75629546495065
 21
723.5191121141886
  0
LINE
  8
_0-3_躯体と製品
  6
CONTINUOUS
 62
    7
 10
416.75629546495065
 20
723.5191121141886
 11
412.75629546495065
 21
723.5191121141886
  0
ARC
  8
_0-3_躯体と製品
  6
CONTINUOUS
 62
    7
 10
412.75629546495065
 20
720.5191121141886
 40
3
 50
90
 51
180
  0
LINE
  8
_0-3_躯体と製品
  6
CONTINUOUS
 62
    7
 10
409.75629546495065
 20
720.5191121141886
 11
409.75629546495065
 21
709.5191121141886
  0
ARC
  8
_0-3_躯体と製品
  6
CONTINUOUS
 62
    7
 10
412.75629546495065
 20
709.5191121141886
 40
3
 50
180
 51
270
  0
LINE
  8
_0-3_躯体と製品
  6
CONTINUOUS
 62
    7
 10
412.75629546495065
 20
706.5191121141886
 11
416.75629546495065
 21
706.5191121141886
  0
LINE
  8
_0-3_躯体と製品
  6
CONTINUOUS
 62
    7
 10
416.75629546495065
 20
706.5191121141886
 11
416.75629546495065
 21
704.5191121141886
  0
ARC
  8
_0-3_躯体と製品
  6
CONTINUOUS
 62
    7
 10
415.25629546495065
 20
704.5191121141886
 40
1.5
 50
270
 51
0
  0
LINE
  8
_0-3_躯体と製品
  6
CONTINUOUS
 62
    7
 10
415.25629546495065
 20
703.0191121141886
 11
413.75629546495065
 21
703.0191121141886
  0
LINE
  8
_0-3_躯体と製品
  6
CONTINUOUS
 62
    7
 10
413.75629546495065
 20
703.0191121141886
 11
413.75629546495065
 21
701.5191121141886
  0
ARC
  8
_0-3_躯体と製品
  6
CONTINUOUS
 62
    7
 10
413.25629546495065
 20
701.5191121141886
 40
0.4999999999999999
 50
270
 51
0
  0
LINE
  8
_0-3_躯体と製品
  6
CONTINUOUS
 62
    7
 10
413.25629546495065
 20
701.0191121141886
 11
376.47364591061978
 21
701.0191121141886
  0
LINE
  8
_0-3_躯体と製品
  6
CONTINUOUS
 62
    7
 10
376.47600207844289
 20
728.0191121141886
 11
415.75629546495065
 21
728.0191121141886
  0
LINE
  8
_0-3_躯体と製品
  6
CONTINUOUS
 62
    7
 10
415.75629546495065
 20
728.0191121141886
 11
415.75629546495065
 21
723.5191121141886
  0
LINE
  8
_0-3_躯体と製品
  6
CONTINUOUS
 62
    7
 10
376.4754784855927
 20
722.0191121141886
 11
379.25629546495065
 21
722.0191121141886
  0
LINE
  8
_0-3_躯体と製品
  6
CONTINUOUS
 62
    7
 10
379.25629546495065
 20
722.0191121141886
 11
379.75629546495065
 21
721.5191121141886
  0
LINE
  8
_0-3_躯体と製品
  6
CONTINUOUS
 62
    7
 10
379.75629546495065
 20
721.5191121141886
 11
379.75629546495065
 21
708.5191121141886
  0
LINE
  8
_0-3_躯体と製品
  6
CONTINUOUS
 62
    7
 10
379.75629546495065
 20
708.5191121141886
 11
379.25629546495065
 21
708.0191121141886
  0
LINE
  8
_0-3_躯体と製品
  6
CONTINUOUS
 62
    7
 10
379.25629546495065
 20
708.0191121141886
 11
376.47425676894363
 21
708.0191121141886
  0
LINE
  8
_0-3_躯体と製品
  6
CONTINUOUS
 62
    7
 10
404.25629546495065
 20
706.5191121141886
 11
384.75629546495065
 21
706.5191121141886
  0
LINE
  8
_0-3_躯体と製品
  6
CONTINUOUS
 62
    7
 10
384.75629546495065
 20
706.5191121141886
 11
384.25629546495065
 21
707.0191121141886
  0
LINE
  8
_0-3_躯体と製品
  6
CONTINUOUS
 62
    7
 10
384.25629546495065
 20
707.0191121141886
 11
384.25629546495065
 21
723.0191121141886
  0
LINE
  8
_0-3_躯体と製品
  6
CONTINUOUS
 62
    7
 10
384.25629546495065
 20
723.0191121141886
 11
384.75629546495065
 21
723.5191121141886
  0
LINE
  8
_0-3_躯体と製品
  6
CONTINUOUS
 62
    7
 10
384.75629546495065
 20
723.5191121141886
 11
404.25629546495065
 21
723.5191121141886
  0
LINE
  8
_0-3_躯体と製品
  6
CONTINUOUS
 62
    7
 10
404.25629546495065
 20
723.5191121141886
 11
404.75629546495065
 21
723.0191121141886
  0
LINE
  8
_0-3_躯体と製品
  6
CONTINUOUS
 62
    7
 10
404.75629546495065
 20
723.0191121141886
 11
404.75629546495065
 21
707.0191121141886
  0
LINE
  8
_0-3_躯体と製品
  6
CONTINUOUS
 62
    7
 10
404.75629546495065
 20
707.0191121141886
 11
404.25629546495065
 21
706.5191121141886
  0
LINE
  8
_0-3_躯体と製品
  6
CONTINUOUS
 62
    7
 10
410.25629546495065
 20
721.0191121141886
 11
410.25629546495065
 21
709.81911211418856
  0
ARC
  8
_0-3_躯体と製品
  6
CONTINUOUS
 62
    7
 10
413.25629546495065
 20
709.81911211418856
 40
3
 50
180
 51
270
  0
LINE
  8
_0-3_躯体と製品
  6
CONTINUOUS
 62
    7
 10
413.25629546495065
 20
706.81911211418856
 11
413.25629546495065
 21
706.5191121141886
  0
LINE
  8
_0-3_躯体と製品
  6
CONTINUOUS
 62
    7
 10
413.25629546495065
 20
706.5191121141886
 11
414.25629546495065
 21
706.5191121141886
  0
LINE
  8
_0-3_躯体と製品
  6
CONTINUOUS
 62
    7
 10
414.25629546495065
 20
706.5191121141886
 11
414.25629546495065
 21
706.81911211418856
  0
LINE
  8
_0-3_躯体と製品
  6
CONTINUOUS
 62
    7
 10
414.25629546495065
 20
706.81911211418856
 11
415.25629546495065
 21
706.81911211418856
  0
LINE
  8
_0-3_躯体と製品
  6
CONTINUOUS
 62
    7
 10
415.25629546495065
 20
706.81911211418856
 11
415.25629546495065
 21
706.5191121141886
  0
LINE
  8
_0-3_躯体と製品
  6
CONTINUOUS
 62
    7
 10
415.25629546495065
 20
706.5191121141886
 11
416.05629546495084
 21
706.5191121141886
  0
LINE
  8
_0-3_躯体と製品
  6
CONTINUOUS
 62
    7
 10
416.05629546495084
 20
706.5191121141886
 11
416.05629546495084
 21
706.81911211418856
  0
LINE
  8
_0-3_躯体と製品
  6
CONTINUOUS
 62
    7
 10
416.05629546495084
 20
706.81911211418856
 11
416.45629546495002
 21
706.81911211418856
  0
ARC
  8
_0-3_躯体と製品
  6
CONTINUOUS
 62
    7
 10
416.45629546495036
 20
706.51911211418826
 40
0.3000000000002842
 50
0.0000000000629749
 51
90.000000000067331
  0
LINE
  8
_0-3_躯体と製品
  6
CONTINUOUS
 62
    7
 10
416.75629546495065
 20
706.5191121141886
 11
416.75629546495065
 21
703.0191121141886
  0
LINE
  8
_0-3_躯体と製品
  6
CONTINUOUS
 62
    7
 10
416.75629546495065
 20
703.0191121141886
 11
415.25629546495065
 21
703.0191121141886
  0
ARC
  8
_0-3_躯体と製品
  6
CONTINUOUS
 62
    7
 10
415.25629546495065
 20
702.5191121141886
 40
0.4999999999999999
 50
90
 51
180
  0
LINE
  8
_0-3_躯体と製品
  6
CONTINUOUS
 62
    7
 10
414.75629546495065
 20
702.5191121141886
 11
414.75629546495065
 21
701.5191121141886
  0
ARC
  8
_0-3_躯体と製品
  6
CONTINUOUS
 62
    7
 10
415.25629546495065
 20
701.5191121141886
 40
0.4999999999999999
 50
180
 51
270
  0
LINE
  8
_0-3_躯体と製品
  6
CONTINUOUS
 62
    7
 10
415.25629546495065
 20
701.0191121141886
 11
418.75629546495065
 21
701.0191121141886
  0
LINE
  8
_0-3_躯体と製品
  6
CONTINUOUS
 62
    7
 10
418.75629546495065
 20
701.0191121141886
 11
418.75629546495065
 21
701.31911211418856
  0
LINE
  8
_0-3_躯体と製品
  6
CONTINUOUS
 62
    7
 10
418.75629546495065
 20
701.31911211418856
 11
420.75629546495065
 21
701.31911211418856
  0
LINE
  8
_0-3_躯体と製品
  6
CONTINUOUS
 62
    7
 10
420.75629546495065
 20
701.31911211418856
 11
420.75629546495065
 21
701.0191121141886
  0
LINE
  8
_0-3_躯体と製品
  6
CONTINUOUS
 62
    7
 10
420.75629546495065
 20
701.0191121141886
 11
422.95629546495093
 21
701.0191121141886
  0
ARC
  8
_0-3_躯体と製品
  6
CONTINUOUS
 62
    7
 10
422.95629546495093
 20
701.5191121141886
 40
0.4999999999999999
 50
270
 51
0.0000000000000127
  0
LINE
  8
_0-3_躯体と製品
  6
CONTINUOUS
 62
    7
 10
423.45629546495093
 20
701.5191121141886
 11
423.45629546495093
 21
702.5191121141886
  0
ARC
  8
_0-3_躯体と製品
  6
CONTINUOUS
 62
    7
 10
422.95629546495093
 20
702.5191121141886
 40
0.4999999999999999
 50
0.0000000000000052
 51
90.000000000000014
  0
LINE
  8
_0-3_躯体と製品
  6
CONTINUOUS
 62
    7
 10
422.95629546495093
 20
703.0191121141886
 11
422.75629546495065
 21
703.0191121141886
  0
LINE
  8
_0-3_躯体と製品
  6
CONTINUOUS
 62
    7
 10
422.75629546495065
 20
703.0191121141886
 11
422.75629546495065
 21
706.5191121141886
  0
ARC
  8
_0-3_躯体と製品
  6
CONTINUOUS
 62
    7
 10
423.05629546495072
 20
706.51911211418849
 40
0.3000000000000568
 50
89.999999999976126
 51
179.99999999998047
  0
LINE
  8
_0-3_躯体と製品
  6
CONTINUOUS
 62
    7
 10
423.05629546495084
 20
706.81911211418856
 11
423.45629546495093
 21
706.81911211418856
  0
LINE
  8
_0-3_躯体と製品
  6
CONTINUOUS
 62
    7
 10
423.45629546495093
 20
706.81911211418856
 11
423.45629546495093
 21
706.5191121141886
  0
LINE
  8
_0-3_躯体と製品
  6
CONTINUOUS
 62
    7
 10
423.45629546495093
 20
706.5191121141886
 11
424.25629546495065
 21
706.5191121141886
  0
LINE
  8
_0-3_躯体と製品
  6
CONTINUOUS
 62
    7
 10
424.25629546495065
 20
706.5191121141886
 11
424.25629546495065
 21
706.81911211418856
  0
LINE
  8
_0-3_躯体と製品
  6
CONTINUOUS
 62
    7
 10
424.25629546495065
 20
706.81911211418856
 11
425.25629546495065
 21
706.81911211418856
  0
LINE
  8
_0-3_躯体と製品
  6
CONTINUOUS
 62
    7
 10
425.25629546495065
 20
706.81911211418856
 11
425.25629546495065
 21
706.5191121141886
  0
LINE
  8
_0-3_躯体と製品
  6
CONTINUOUS
 62
    7
 10
425.25629546495065
 20
706.5191121141886
 11
426.25629546495065
 21
706.5191121141886
  0
LINE
  8
_0-3_躯体と製品
  6
CONTINUOUS
 62
    7
 10
426.25629546495065
 20
706.5191121141886
 11
426.25629546495065
 21
706.81911211418856
  0
LINE
  8
_0-3_躯体と製品
  6
CONTINUOUS
 62
    7
 10
426.25629546495065
 20
706.81911211418856
 11
426.45629546495093
 21
706.81911211418856
  0
ARC
  8
_0-3_躯体と製品
  6
CONTINUOUS
 62
    7
 10
426.45629546495081
 20
707.6191121141884
 40
0.7999999999998292
 50
270.00000000000733
 51
0.0000000000089691
  0
LINE
  8
_0-3_躯体と製品
  6
CONTINUOUS
 62
    7
 10
427.25629546495065
 20
707.61911211418851
 11
427.25629546495065
 21
710.5191121141886
  0
LINE
  8
_0-3_躯体と製品
  6
CONTINUOUS
 62
    7
 10
427.25629546495065
 20
710.5191121141886
 11
426.75629546495065
 21
710.5191121141886
  0
ARC
  8
_0-3_躯体と製品
  6
CONTINUOUS
 62
    7
 10
426.75629546495065
 20
710.0191121141886
 40
0.4999999999999999
 50
90
 51
180
  0
LINE
  8
_0-3_躯体と製品
  6
CONTINUOUS
 62
    7
 10
426.25629546495065
 20
710.0191121141886
 11
426.25629546495065
 21
709.5191121141886
  0
ARC
  8
_0-3_躯体と製品
  6
CONTINUOUS
 62
    7
 10
425.75629546495065
 20
709.5191121141886
 40
0.4999999999999999
 50
270
 51
0
  0
LINE
  8
_0-3_躯体と製品
  6
CONTINUOUS
 62
    7
 10
425.75629546495065
 20
709.0191121141886
 11
420.05629546495084
 21
709.0191121141886
  0
LINE
  8
_0-3_躯体と製品
  6
CONTINUOUS
 62
    7
 10
420.05629546495084
 20
709.0191121141886
 11
419.75629546495065
 21
708.71911211418865
  0
LINE
  8
_0-3_躯体と製品
  6
CONTINUOUS
 62
    7
 10
419.75629546495065
 20
708.71911211418865
 11
419.45629546495093
 21
709.0191121141886
  0
LINE
  8
_0-3_躯体と製品
  6
CONTINUOUS
 62
    7
 10
419.45629546495093
 20
709.0191121141886
 11
412.75629546495065
 21
709.0191121141886
  0
ARC
  8
_0-3_躯体と製品
  6
CONTINUOUS
 62
    7
 10
412.75629546495065
 20
709.5191121141886
 40
0.4999999999999999
 50
180
 51
270
  0
LINE
  8
_0-3_躯体と製品
  6
CONTINUOUS
 62
    7
 10
412.25629546495065
 20
709.5191121141886
 11
412.25629546495065
 21
715.21911211418865
  0
LINE
  8
_0-3_躯体と製品
  6
CONTINUOUS
 62
    7
 10
412.25629546495065
 20
715.21911211418865
 11
411.95629546495093
 21
715.5191121141886
  0
LINE
  8
_0-3_躯体と製品
  6
CONTINUOUS
 62
    7
 10
411.95629546495093
 20
715.5191121141886
 11
412.25629546495065
 21
715.81911211418856
  0
LINE
  8
_0-3_躯体と製品
  6
CONTINUOUS
 62
    7
 10
412.25629546495065
 20
715.81911211418856
 11
412.25629546495065
 21
721.0191121141886
  0
LINE
  8
_0-3_躯体と製品
  6
CONTINUOUS
 62
    7
 10
412.25629546495065
 20
721.0191121141886
 11
410.25629546495065
 21
721.0191121141886
  0
LINE
  8
_0-3_躯体と製品
  6
CONTINUOUS
 62
    7
 10
579.75629546495065
 20
702.0191121141886
 11
425.75629546495065
 21
702.0191121141886
  0
LINE
  8
_0-3_躯体と製品
  6
CONTINUOUS
 62
    7
 10
579.25629546495065
 20
701.0191121141886
 11
426.25629546495065
 21
701.0191121141886
  0
ARC
  8
_0-3_躯体と製品
  6
CONTINUOUS
 62
    7
 10
426.25629546495065
 20
701.5191121141886
 40
0.4999999999999999
 50
180
 51
270
  0
LINE
  8
_0-3_躯体と製品
  6
CONTINUOUS
 62
    7
 10
425.75629546495065
 20
701.5191121141886
 11
425.75629546495065
 21
703.0191121141886
  0
LINE
  8
_0-3_躯体と製品
  6
CONTINUOUS
 62
    7
 10
425.75629546495065
 20
703.0191121141886
 11
424.25629546495065
 21
703.0191121141886
  0
ARC
  8
_0-3_躯体と製品
  6
CONTINUOUS
 62
    7
 10
424.25629546495065
 20
704.5191121141886
 40
1.4999999999999856
 50
179.99999999999943
 51
270.00000000000057
  0
LINE
  8
_0-3_躯体と製品
  6
CONTINUOUS
 62
    7
 10
422.75629546495065
 20
704.5191121141886
 11
422.75629546495065
 21
706.5191121141886
  0
LINE
  8
_0-3_躯体と製品
  6
CONTINUOUS
 62
    7
 10
422.75629546495065
 20
706.5191121141886
 11
426.75629546495065
 21
706.5191121141886
  0
ARC
  8
_0-3_躯体と製品
  6
CONTINUOUS
 62
    7
 10
426.75629546495065
 20
709.5191121141886
 40
3
 50
270
 51
0.0000000000000127
  0
LINE
  8
_0-3_躯体と製品
  6
CONTINUOUS
 62
    7
 10
429.75629546495065
 20
709.5191121141886
 11
429.75629546495065
 21
720.5191121141886
  0
ARC
  8
_0-3_躯体と製品
  6
CONTINUOUS
 62
    7
 10
426.75629546495065
 20
720.5191121141886
 40
3
 50
0.0000000000000052
 51
90.000000000000014
  0
LINE
  8
_0-3_躯体と製品
  6
CONTINUOUS
 62
    7
 10
426.75629546495065
 20
723.5191121141886
 11
422.75629546495065
 21
723.5191121141886
  0
LINE
  8
_0-3_躯体と製品
  6
CONTINUOUS
 62
    7
 10
422.75629546495065
 20
723.5191121141886
 11
422.75629546495065
 21
728.0191121141886
  0
ARC
  8
_0-3_躯体と製品
  6
CONTINUOUS
 62
    7
 10
423.75629546495065
 20
728.0191121141886
 40
0.9999999999999998
 50
89.999999999999986
 51
180
  0
LINE
  8
_0-3_躯体と製品
  6
CONTINUOUS
 62
    7
 10
423.75629546495065
 20
729.0191121141886
 11
581.75629546495065
 21
729.0191121141886
  0
ARC
  8
_0-3_躯体と製品
  6
CONTINUOUS
 62
    7
 10
581.75629546495065
 20
728.0191121141886
 40
0.9999999999999998
 50
0
 51
90
  0
LINE
  8
_0-3_躯体と製品
  6
CONTINUOUS
 62
    7
 10
582.75629546495065
 20
728.0191121141886
 11
582.75629546495065
 21
723.5191121141886
  0
LINE
  8
_0-3_躯体と製品
  6
CONTINUOUS
 62
    7
 10
582.75629546495065
 20
723.5191121141886
 11
578.75629546495065
 21
723.5191121141886
  0
ARC
  8
_0-3_躯体と製品
  6
CONTINUOUS
 62
    7
 10
578.75629546495065
 20
720.5191121141886
 40
3
 50
90
 51
180
  0
LINE
  8
_0-3_躯体と製品
  6
CONTINUOUS
 62
    7
 10
575.75629546495065
 20
720.5191121141886
 11
575.75629546495065
 21
709.5191121141886
  0
ARC
  8
_0-3_躯体と製品
  6
CONTINUOUS
 62
    7
 10
578.75629546495065
 20
709.5191121141886
 40
3
 50
180
 51
270
  0
LINE
  8
_0-3_躯体と製品
  6
CONTINUOUS
 62
    7
 10
578.75629546495065
 20
706.5191121141886
 11
582.75629546495065
 21
706.5191121141886
  0
LINE
  8
_0-3_躯体と製品
  6
CONTINUOUS
 62
    7
 10
582.75629546495065
 20
706.5191121141886
 11
582.75629546495065
 21
704.5191121141886
  0
ARC
  8
_0-3_躯体と製品
  6
CONTINUOUS
 62
    7
 10
581.25629546495065
 20
704.5191121141886
 40
1.5
 50
270
 51
0
  0
LINE
  8
_0-3_躯体と製品
  6
CONTINUOUS
 62
    7
 10
581.25629546495065
 20
703.0191121141886
 11
579.75629546495065
 21
703.0191121141886
  0
LINE
  8
_0-3_躯体と製品
  6
CONTINUOUS
 62
    7
 10
579.75629546495065
 20
703.0191121141886
 11
579.75629546495065
 21
701.5191121141886
  0
LINE
  8
_0-3_躯体と製品
  6
CONTINUOUS
 62
    7
 10
579.75629546495065
 20
701.5191121141886
 11
579.25629546495065
 21
701.0191121141886
  0
LINE
  8
_0-3_躯体と製品
  6
CONTINUOUS
 62
    7
 10
423.75629546495065
 20
723.5191121141886
 11
423.75629546495065
 21
728.0191121141886
  0
LINE
  8
_0-3_躯体と製品
  6
CONTINUOUS
 62
    7
 10
423.75629546495065
 20
728.0191121141886
 11
581.75629546495065
 21
728.0191121141886
  0
LINE
  8
_0-3_躯体と製品
  6
CONTINUOUS
 62
    7
 10
581.75629546495065
 20
728.0191121141886
 11
581.75629546495065
 21
723.5191121141886
  0
LINE
  8
_0-3_躯体と製品
  6
CONTINUOUS
 62
    7
 10
460.25629546495065
 20
708.0191121141886
 11
467.25629546495065
 21
708.0191121141886
  0
LINE
  8
_0-3_躯体と製品
  6
CONTINUOUS
 62
    7
 10
467.25629546495065
 20
708.0191121141886
 11
467.75629546495065
 21
708.5191121141886
  0
LINE
  8
_0-3_躯体と製品
  6
CONTINUOUS
 62
    7
 10
467.75629546495065
 20
708.5191121141886
 11
467.75629546495065
 21
721.5191121141886
  0
LINE
  8
_0-3_躯体と製品
  6
CONTINUOUS
 62
    7
 10
467.75629546495065
 20
721.5191121141886
 11
467.25629546495065
 21
722.0191121141886
  0
LINE
  8
_0-3_躯体と製品
  6
CONTINUOUS
 62
    7
 10
467.25629546495065
 20
722.0191121141886
 11
460.25629546495065
 21
722.0191121141886
  0
LINE
  8
_0-3_躯体と製品
  6
CONTINUOUS
 62
    7
 10
460.25629546495065
 20
722.0191121141886
 11
459.75629546495065
 21
721.5191121141886
  0
LINE
  8
_0-3_躯体と製品
  6
CONTINUOUS
 62
    7
 10
459.75629546495065
 20
721.5191121141886
 11
459.75629546495065
 21
708.5191121141886
  0
LINE
  8
_0-3_躯体と製品
  6
CONTINUOUS
 62
    7
 10
459.75629546495065
 20
708.5191121141886
 11
460.25629546495065
 21
708.0191121141886
  0
LINE
  8
_0-3_躯体と製品
  6
CONTINUOUS
 62
    7
 10
472.75629546495065
 20
706.5191121141886
 11
499.75629546495065
 21
706.5191121141886
  0
LINE
  8
_0-3_躯体と製品
  6
CONTINUOUS
 62
    7
 10
499.75629546495065
 20
706.5191121141886
 11
500.25629546495065
 21
707.0191121141886
  0
LINE
  8
_0-3_躯体と製品
  6
CONTINUOUS
 62
    7
 10
500.25629546495065
 20
707.0191121141886
 11
500.25629546495065
 21
723.0191121141886
  0
LINE
  8
_0-3_躯体と製品
  6
CONTINUOUS
 62
    7
 10
500.25629546495065
 20
723.0191121141886
 11
499.75629546495065
 21
723.5191121141886
  0
LINE
  8
_0-3_躯体と製品
  6
CONTINUOUS
 62
    7
 10
499.75629546495065
 20
723.5191121141886
 11
472.75629546495065
 21
723.5191121141886
  0
LINE
  8
_0-3_躯体と製品
  6
CONTINUOUS
 62
    7
 10
472.75629546495065
 20
723.5191121141886
 11
472.25629546495065
 21
723.0191121141886
  0
LINE
  8
_0-3_躯体と製品
  6
CONTINUOUS
 62
    7
 10
472.25629546495065
 20
723.0191121141886
 11
472.25629546495065
 21
707.0191121141886
  0
LINE
  8
_0-3_躯体と製品
  6
CONTINUOUS
 62
    7
 10
472.25629546495065
 20
707.0191121141886
 11
472.75629546495065
 21
706.5191121141886
  0
LINE
  8
_0-3_躯体と製品
  6
CONTINUOUS
 62
    7
 10
435.25629546495065
 20
706.5191121141886
 11
454.75629546495065
 21
706.5191121141886
  0
LINE
  8
_0-3_躯体と製品
  6
CONTINUOUS
 62
    7
 10
454.75629546495065
 20
706.5191121141886
 11
455.25629546495065
 21
707.0191121141886
  0
LINE
  8
_0-3_躯体と製品
  6
CONTINUOUS
 62
    7
 10
455.25629546495065
 20
707.0191121141886
 11
455.25629546495065
 21
723.0191121141886
  0
LINE
  8
_0-3_躯体と製品
  6
CONTINUOUS
 62
    7
 10
455.25629546495065
 20
723.0191121141886
 11
454.75629546495065
 21
723.5191121141886
  0
LINE
  8
_0-3_躯体と製品
  6
CONTINUOUS
 62
    7
 10
454.75629546495065
 20
723.5191121141886
 11
435.25629546495065
 21
723.5191121141886
  0
LINE
  8
_0-3_躯体と製品
  6
CONTINUOUS
 62
    7
 10
435.25629546495065
 20
723.5191121141886
 11
434.75629546495065
 21
723.0191121141886
  0
LINE
  8
_0-3_躯体と製品
  6
CONTINUOUS
 62
    7
 10
434.75629546495065
 20
723.0191121141886
 11
434.75629546495065
 21
707.0191121141886
  0
LINE
  8
_0-3_躯体と製品
  6
CONTINUOUS
 62
    7
 10
434.75629546495065
 20
707.0191121141886
 11
435.25629546495065
 21
706.5191121141886
  0
LINE
  8
_0-3_躯体と製品
  6
CONTINUOUS
 62
    7
 10
545.25629546495065
 20
708.0191121141886
 11
538.25629546495065
 21
708.0191121141886
  0
LINE
  8
_0-3_躯体と製品
  6
CONTINUOUS
 62
    7
 10
538.25629546495065
 20
708.0191121141886
 11
537.75629546495065
 21
708.5191121141886
  0
LINE
  8
_0-3_躯体と製品
  6
CONTINUOUS
 62
    7
 10
537.75629546495065
 20
708.5191121141886
 11
537.75629546495065
 21
721.5191121141886
  0
LINE
  8
_0-3_躯体と製品
  6
CONTINUOUS
 62
    7
 10
537.75629546495065
 20
721.5191121141886
 11
538.25629546495065
 21
722.0191121141886
  0
LINE
  8
_0-3_躯体と製品
  6
CONTINUOUS
 62
    7
 10
538.25629546495065
 20
722.0191121141886
 11
545.25629546495065
 21
722.0191121141886
  0
LINE
  8
_0-3_躯体と製品
  6
CONTINUOUS
 62
    7
 10
545.25629546495065
 20
722.0191121141886
 11
545.75629546495065
 21
721.5191121141886
  0
LINE
  8
_0-3_躯体と製品
  6
CONTINUOUS
 62
    7
 10
545.75629546495065
 20
721.5191121141886
 11
545.75629546495065
 21
708.5191121141886
  0
LINE
  8
_0-3_躯体と製品
  6
CONTINUOUS
 62
    7
 10
545.75629546495065
 20
708.5191121141886
 11
545.25629546495065
 21
708.0191121141886
  0
LINE
  8
_0-3_躯体と製品
  6
CONTINUOUS
 62
    7
 10
532.75629546495065
 20
706.5191121141886
 11
505.75629546495065
 21
706.5191121141886
  0
LINE
  8
_0-3_躯体と製品
  6
CONTINUOUS
 62
    7
 10
505.75629546495065
 20
706.5191121141886
 11
505.25629546495065
 21
707.0191121141886
  0
LINE
  8
_0-3_躯体と製品
  6
CONTINUOUS
 62
    7
 10
505.25629546495065
 20
707.0191121141886
 11
505.25629546495065
 21
723.0191121141886
  0
LINE
  8
_0-3_躯体と製品
  6
CONTINUOUS
 62
    7
 10
505.25629546495065
 20
723.0191121141886
 11
505.75629546495065
 21
723.5191121141886
  0
LINE
  8
_0-3_躯体と製品
  6
CONTINUOUS
 62
    7
 10
505.75629546495065
 20
723.5191121141886
 11
532.75629546495065
 21
723.5191121141886
  0
LINE
  8
_0-3_躯体と製品
  6
CONTINUOUS
 62
    7
 10
532.75629546495065
 20
723.5191121141886
 11
533.25629546495065
 21
723.0191121141886
  0
LINE
  8
_0-3_躯体と製品
  6
CONTINUOUS
 62
    7
 10
533.25629546495065
 20
723.0191121141886
 11
533.25629546495065
 21
707.0191121141886
  0
LINE
  8
_0-3_躯体と製品
  6
CONTINUOUS
 62
    7
 10
533.25629546495065
 20
707.0191121141886
 11
532.75629546495065
 21
706.5191121141886
  0
LINE
  8
_0-3_躯体と製品
  6
CONTINUOUS
 62
    7
 10
570.25629546495065
 20
706.5191121141886
 11
550.75629546495065
 21
706.5191121141886
  0
LINE
  8
_0-3_躯体と製品
  6
CONTINUOUS
 62
    7
 10
550.75629546495065
 20
706.5191121141886
 11
550.25629546495065
 21
707.0191121141886
  0
LINE
  8
_0-3_躯体と製品
  6
CONTINUOUS
 62
    7
 10
550.25629546495065
 20
707.0191121141886
 11
550.25629546495065
 21
723.0191121141886
  0
LINE
  8
_0-3_躯体と製品
  6
CONTINUOUS
 62
    7
 10
550.25629546495065
 20
723.0191121141886
 11
550.75629546495065
 21
723.5191121141886
  0
LINE
  8
_0-3_躯体と製品
  6
CONTINUOUS
 62
    7
 10
550.75629546495065
 20
723.5191121141886
 11
570.25629546495065
 21
723.5191121141886
  0
LINE
  8
_0-3_躯体と製品
  6
CONTINUOUS
 62
    7
 10
570.25629546495065
 20
723.5191121141886
 11
570.75629546495065
 21
723.0191121141886
  0
LINE
  8
_0-3_躯体と製品
  6
CONTINUOUS
 62
    7
 10
570.75629546495065
 20
723.0191121141886
 11
570.75629546495065
 21
707.0191121141886
  0
LINE
  8
_0-3_躯体と製品
  6
CONTINUOUS
 62
    7
 10
570.75629546495065
 20
707.0191121141886
 11
570.25629546495065
 21
706.5191121141886
  0
LINE
  8
_0-3_躯体と製品
  6
CONTINUOUS
 62
    7
 10
576.25629546495065
 20
721.0191121141886
 11
576.25629546495065
 21
709.81911211418856
  0
ARC
  8
_0-3_躯体と製品
  6
CONTINUOUS
 62
    7
 10
579.25629546495065
 20
709.81911211418856
 40
3
 50
180
 51
270
  0
LINE
  8
_0-3_躯体と製品
  6
CONTINUOUS
 62
    7
 10
579.25629546495065
 20
706.81911211418856
 11
579.25629546495065
 21
706.5191121141886
  0
LINE
  8
_0-3_躯体と製品
  6
CONTINUOUS
 62
    7
 10
579.25629546495065
 20
706.5191121141886
 11
580.25629546495065
 21
706.5191121141886
  0
LINE
  8
_0-3_躯体と製品
  6
CONTINUOUS
 62
    7
 10
580.25629546495065
 20
706.5191121141886
 11
580.25629546495065
 21
706.81911211418856
  0
LINE
  8
_0-3_躯体と製品
  6
CONTINUOUS
 62
    7
 10
580.25629546495065
 20
706.81911211418856
 11
581.25629546495065
 21
706.81911211418856
  0
LINE
  8
_0-3_躯体と製品
  6
CONTINUOUS
 62
    7
 10
581.25629546495065
 20
706.81911211418856
 11
581.25629546495065
 21
706.5191121141886
  0
LINE
  8
_0-3_躯体と製品
  6
CONTINUOUS
 62
    7
 10
581.25629546495065
 20
706.5191121141886
 11
582.05629546495084
 21
706.5191121141886
  0
LINE
  8
_0-3_躯体と製品
  6
CONTINUOUS
 62
    7
 10
582.05629546495084
 20
706.5191121141886
 11
582.05629546495084
 21
706.81911211418856
  0
LINE
  8
_0-3_躯体と製品
  6
CONTINUOUS
 62
    7
 10
582.05629546495084
 20
706.81911211418856
 11
582.45629546495093
 21
706.81911211418856
  0
ARC
  8
_0-3_躯体と製品
  6
CONTINUOUS
 62
    7
 10
582.45629546495081
 20
706.51911211418872
 40
0.2999999999998294
 50
359.99999999997613
 51
89.999999999980474
  0
LINE
  8
_0-3_躯体と製品
  6
CONTINUOUS
 62
    7
 10
582.75629546495065
 20
706.5191121141886
 11
582.75629546495065
 21
703.0191121141886
  0
LINE
  8
_0-3_躯体と製品
  6
CONTINUOUS
 62
    7
 10
582.75629546495065
 20
703.0191121141886
 11
581.25629546495065
 21
703.0191121141886
  0
ARC
  8
_0-3_躯体と製品
  6
CONTINUOUS
 62
    7
 10
581.25629546495065
 20
702.5191121141886
 40
0.4999999999999999
 50
90
 51
180
  0
LINE
  8
_0-3_躯体と製品
  6
CONTINUOUS
 62
    7
 10
580.75629546495065
 20
702.5191121141886
 11
580.75629546495065
 21
701.5191121141886
  0
ARC
  8
_0-3_躯体と製品
  6
CONTINUOUS
 62
    7
 10
581.25629546495065
 20
701.5191121141886
 40
0.4999999999999999
 50
180
 51
270
  0
LINE
  8
_0-3_躯体と製品
  6
CONTINUOUS
 62
    7
 10
581.25629546495065
 20
701.0191121141886
 11
584.75629546495065
 21
701.0191121141886
  0
LINE
  8
_0-3_躯体と製品
  6
CONTINUOUS
 62
    7
 10
584.75629546495065
 20
701.0191121141886
 11
584.75629546495065
 21
701.31911211418856
  0
LINE
  8
_0-3_躯体と製品
  6
CONTINUOUS
 62
    7
 10
584.75629546495065
 20
701.31911211418856
 11
586.75629546495065
 21
701.31911211418856
  0
LINE
  8
_0-3_躯体と製品
  6
CONTINUOUS
 62
    7
 10
586.75629546495065
 20
701.31911211418856
 11
586.75629546495065
 21
701.0191121141886
  0
LINE
  8
_0-3_躯体と製品
  6
CONTINUOUS
 62
    7
 10
586.75629546495065
 20
701.0191121141886
 11
588.95629546495093
 21
701.0191121141886
  0
ARC
  8
_0-3_躯体と製品
  6
CONTINUOUS
 62
    7
 10
588.95629546495047
 20
701.51911211418815
 40
0.4999999999995452
 50
270.00000000005213
 51
0.0000000000521229
  0
LINE
  8
_0-3_躯体と製品
  6
CONTINUOUS
 62
    7
 10
589.45629546495002
 20
701.5191121141886
 11
589.45629546495002
 21
702.5191121141886
  0
ARC
  8
_0-3_躯体と製品
  6
CONTINUOUS
 62
    7
 10
588.95629546495047
 20
702.51911211418906
 40
0.4999999999995452
 50
359.99999999994787
 51
89.999999999947903
  0
LINE
  8
_0-3_躯体と製品
  6
CONTINUOUS
 62
    7
 10
588.95629546495093
 20
703.0191121141886
 11
588.75629546495065
 21
703.0191121141886
  0
LINE
  8
_0-3_躯体と製品
  6
CONTINUOUS
 62
    7
 10
588.75629546495065
 20
703.0191121141886
 11
588.75629546495065
 21
706.5191121141886
  0
ARC
  8
_0-3_躯体と製品
  6
CONTINUOUS
 62
    7
 10
589.05629546495072
 20
706.51911211418849
 40
0.3000000000000568
 50
89.999999999976126
 51
179.99999999998047
  0
LINE
  8
_0-3_躯体と製品
  6
CONTINUOUS
 62
    7
 10
589.05629546495084
 20
706.81911211418856
 11
589.45629546495002
 21
706.81911211418856
  0
LINE
  8
_0-3_躯体と製品
  6
CONTINUOUS
 62
    7
 10
589.45629546495002
 20
706.81911211418856
 11
589.45629546495002
 21
706.5191121141886
  0
LINE
  8
_0-3_躯体と製品
  6
CONTINUOUS
 62
    7
 10
589.45629546495002
 20
706.5191121141886
 11
590.25629546495065
 21
706.5191121141886
  0
LINE
  8
_0-3_躯体と製品
  6
CONTINUOUS
 62
    7
 10
590.25629546495065
 20
706.5191121141886
 11
590.25629546495065
 21
706.81911211418856
  0
LINE
  8
_0-3_躯体と製品
  6
CONTINUOUS
 62
    7
 10
590.25629546495065
 20
706.81911211418856
 11
591.25629546495065
 21
706.81911211418856
  0
LINE
  8
_0-3_躯体と製品
  6
CONTINUOUS
 62
    7
 10
591.25629546495065
 20
706.81911211418856
 11
591.25629546495065
 21
706.5191121141886
  0
LINE
  8
_0-3_躯体と製品
  6
CONTINUOUS
 62
    7
 10
591.25629546495065
 20
706.5191121141886
 11
592.25629546495065
 21
706.5191121141886
  0
LINE
  8
_0-3_躯体と製品
  6
CONTINUOUS
 62
    7
 10
592.25629546495065
 20
706.5191121141886
 11
592.25629546495065
 21
706.81911211418856
  0
LINE
  8
_0-3_躯体と製品
  6
CONTINUOUS
 62
    7
 10
592.25629546495065
 20
706.81911211418856
 11
592.45629546495093
 21
706.81911211418856
  0
ARC
  8
_0-3_躯体と製品
  6
CONTINUOUS
 62
    7
 10
592.45629546495081
 20
707.6191121141884
 40
0.7999999999998292
 50
270.00000000000733
 51
0.0000000000089691
  0
LINE
  8
_0-3_躯体と製品
  6
CONTINUOUS
 62
    7
 10
593.25629546495065
 20
707.61911211418851
 11
593.25629546495065
 21
710.5191121141886
  0
LINE
  8
_0-3_躯体と製品
  6
CONTINUOUS
 62
    7
 10
593.25629546495065
 20
710.5191121141886
 11
592.75629546495065
 21
710.5191121141886
  0
ARC
  8
_0-3_躯体と製品
  6
CONTINUOUS
 62
    7
 10
592.75629546495065
 20
710.0191121141886
 40
0.4999999999999999
 50
90
 51
180
  0
LINE
  8
_0-3_躯体と製品
  6
CONTINUOUS
 62
    7
 10
592.25629546495065
 20
710.0191121141886
 11
592.25629546495065
 21
709.5191121141886
  0
ARC
  8
_0-3_躯体と製品
  6
CONTINUOUS
 62
    7
 10
591.75629546495065
 20
709.5191121141886
 40
0.4999999999999999
 50
270
 51
0
  0
LINE
  8
_0-3_躯体と製品
  6
CONTINUOUS
 62
    7
 10
591.75629546495065
 20
709.0191121141886
 11
586.05629546495084
 21
709.0191121141886
  0
LINE
  8
_0-3_躯体と製品
  6
CONTINUOUS
 62
    7
 10
586.05629546495084
 20
709.0191121141886
 11
585.75629546495065
 21
708.71911211418865
  0
LINE
  8
_0-3_躯体と製品
  6
CONTINUOUS
 62
    7
 10
585.75629546495065
 20
708.71911211418865
 11
585.45629546495093
 21
709.0191121141886
  0
LINE
  8
_0-3_躯体と製品
  6
CONTINUOUS
 62
    7
 10
585.45629546495093
 20
709.0191121141886
 11
578.75629546495065
 21
709.0191121141886
  0
ARC
  8
_0-3_躯体と製品
  6
CONTINUOUS
 62
    7
 10
578.75629546495065
 20
709.5191121141886
 40
0.4999999999999999
 50
180
 51
270
  0
LINE
  8
_0-3_躯体と製品
  6
CONTINUOUS
 62
    7
 10
578.25629546495065
 20
709.5191121141886
 11
578.25629546495065
 21
715.21911211418865
  0
LINE
  8
_0-3_躯体と製品
  6
CONTINUOUS
 62
    7
 10
578.25629546495065
 20
715.21911211418865
 11
577.95629546495093
 21
715.5191121141886
  0
LINE
  8
_0-3_躯体と製品
  6
CONTINUOUS
 62
    7
 10
577.95629546495093
 20
715.5191121141886
 11
578.25629546495065
 21
715.81911211418856
  0
LINE
  8
_0-3_躯体と製品
  6
CONTINUOUS
 62
    7
 10
578.25629546495065
 20
715.81911211418856
 11
578.25629546495065
 21
721.0191121141886
  0
LINE
  8
_0-3_躯体と製品
  6
CONTINUOUS
 62
    7
 10
578.25629546495065
 20
721.0191121141886
 11
576.25629546495065
 21
721.0191121141886
  0
LINE
  8
_0-3_躯体と製品
  6
CONTINUOUS
 62
    7
 10
745.75629546495065
 20
702.0191121141886
 11
591.75629546495065
 21
702.0191121141886
  0
LINE
  8
_0-3_躯体と製品
  6
CONTINUOUS
 62
    7
 10
745.25629546495065
 20
701.0191121141886
 11
592.25629546495065
 21
701.0191121141886
  0
ARC
  8
_0-3_躯体と製品
  6
CONTINUOUS
 62
    7
 10
592.25629546495065
 20
701.5191121141886
 40
0.4999999999999999
 50
180
 51
270
  0
LINE
  8
_0-3_躯体と製品
  6
CONTINUOUS
 62
    7
 10
591.75629546495065
 20
701.5191121141886
 11
591.75629546495065
 21
703.0191121141886
  0
LINE
  8
_0-3_躯体と製品
  6
CONTINUOUS
 62
    7
 10
591.75629546495065
 20
703.0191121141886
 11
590.25629546495065
 21
703.0191121141886
  0
ARC
  8
_0-3_躯体と製品
  6
CONTINUOUS
 62
    7
 10
590.25629546495065
 20
704.5191121141886
 40
1.4999999999999856
 50
179.99999999999943
 51
270.00000000000057
  0
LINE
  8
_0-3_躯体と製品
  6
CONTINUOUS
 62
    7
 10
588.75629546495065
 20
704.5191121141886
 11
588.75629546495065
 21
706.5191121141886
  0
LINE
  8
_0-3_躯体と製品
  6
CONTINUOUS
 62
    7
 10
588.75629546495065
 20
706.5191121141886
 11
592.75629546495065
 21
706.5191121141886
  0
ARC
  8
_0-3_躯体と製品
  6
CONTINUOUS
 62
    7
 10
592.75629546495065
 20
709.5191121141886
 40
3
 50
270
 51
0.0000000000000127
  0
LINE
  8
_0-3_躯体と製品
  6
CONTINUOUS
 62
    7
 10
595.75629546495065
 20
709.5191121141886
 11
595.75629546495065
 21
720.5191121141886
  0
ARC
  8
_0-3_躯体と製品
  6
CONTINUOUS
 62
    7
 10
592.75629546495065
 20
720.5191121141886
 40
3
 50
0.0000000000000052
 51
90.000000000000014
  0
LINE
  8
_0-3_躯体と製品
  6
CONTINUOUS
 62
    7
 10
592.75629546495065
 20
723.5191121141886
 11
588.75629546495065
 21
723.5191121141886
  0
LINE
  8
_0-3_躯体と製品
  6
CONTINUOUS
 62
    7
 10
588.75629546495065
 20
723.5191121141886
 11
588.75629546495065
 21
728.0191121141886
  0
ARC
  8
_0-3_躯体と製品
  6
CONTINUOUS
 62
    7
 10
589.75629546495065
 20
728.0191121141886
 40
0.9999999999999998
 50
89.999999999999986
 51
180
  0
LINE
  8
_0-3_躯体と製品
  6
CONTINUOUS
 62
    7
 10
589.75629546495065
 20
729.0191121141886
 11
747.75629546495065
 21
729.0191121141886
  0
ARC
  8
_0-3_躯体と製品
  6
CONTINUOUS
 62
    7
 10
747.75629546495065
 20
728.0191121141886
 40
0.9999999999999998
 50
0
 51
90
  0
LINE
  8
_0-3_躯体と製品
  6
CONTINUOUS
 62
    7
 10
748.75629546495065
 20
728.0191121141886
 11
748.75629546495065
 21
723.5191121141886
  0
LINE
  8
_0-3_躯体と製品
  6
CONTINUOUS
 62
    7
 10
748.75629546495065
 20
723.5191121141886
 11
744.75629546495065
 21
723.5191121141886
  0
ARC
  8
_0-3_躯体と製品
  6
CONTINUOUS
 62
    7
 10
744.75629546495065
 20
720.5191121141886
 40
3
 50
90
 51
180
  0
LINE
  8
_0-3_躯体と製品
  6
CONTINUOUS
 62
    7
 10
741.75629546495065
 20
720.5191121141886
 11
741.75629546495065
 21
709.5191121141886
  0
ARC
  8
_0-3_躯体と製品
  6
CONTINUOUS
 62
    7
 10
744.75629546495065
 20
709.5191121141886
 40
3
 50
180
 51
270
  0
LINE
  8
_0-3_躯体と製品
  6
CONTINUOUS
 62
    7
 10
744.75629546495065
 20
706.5191121141886
 11
748.75629546495065
 21
706.5191121141886
  0
LINE
  8
_0-3_躯体と製品
  6
CONTINUOUS
 62
    7
 10
748.75629546495065
 20
706.5191121141886
 11
748.75629546495065
 21
704.5191121141886
  0
ARC
  8
_0-3_躯体と製品
  6
CONTINUOUS
 62
    7
 10
747.25629546495065
 20
704.5191121141886
 40
1.5
 50
270
 51
0
  0
LINE
  8
_0-3_躯体と製品
  6
CONTINUOUS
 62
    7
 10
747.25629546495065
 20
703.0191121141886
 11
745.75629546495065
 21
703.0191121141886
  0
LINE
  8
_0-3_躯体と製品
  6
CONTINUOUS
 62
    7
 10
745.75629546495065
 20
703.0191121141886
 11
745.75629546495065
 21
701.5191121141886
  0
LINE
  8
_0-3_躯体と製品
  6
CONTINUOUS
 62
    7
 10
745.75629546495065
 20
701.5191121141886
 11
745.25629546495065
 21
701.0191121141886
  0
LINE
  8
_0-3_躯体と製品
  6
CONTINUOUS
 62
    7
 10
589.75629546495065
 20
723.5191121141886
 11
589.75629546495065
 21
728.0191121141886
  0
LINE
  8
_0-3_躯体と製品
  6
CONTINUOUS
 62
    7
 10
589.75629546495065
 20
728.0191121141886
 11
747.75629546495065
 21
728.0191121141886
  0
LINE
  8
_0-3_躯体と製品
  6
CONTINUOUS
 62
    7
 10
747.75629546495065
 20
728.0191121141886
 11
747.75629546495065
 21
723.5191121141886
  0
LINE
  8
_0-3_躯体と製品
  6
CONTINUOUS
 62
    7
 10
626.25629546495065
 20
708.0191121141886
 11
633.25629546495065
 21
708.0191121141886
  0
LINE
  8
_0-3_躯体と製品
  6
CONTINUOUS
 62
    7
 10
633.25629546495065
 20
708.0191121141886
 11
633.75629546495065
 21
708.5191121141886
  0
LINE
  8
_0-3_躯体と製品
  6
CONTINUOUS
 62
    7
 10
633.75629546495065
 20
708.5191121141886
 11
633.75629546495065
 21
721.5191121141886
  0
LINE
  8
_0-3_躯体と製品
  6
CONTINUOUS
 62
    7
 10
633.75629546495065
 20
721.5191121141886
 11
633.25629546495065
 21
722.0191121141886
  0
LINE
  8
_0-3_躯体と製品
  6
CONTINUOUS
 62
    7
 10
633.25629546495065
 20
722.0191121141886
 11
626.25629546495065
 21
722.0191121141886
  0
LINE
  8
_0-3_躯体と製品
  6
CONTINUOUS
 62
    7
 10
626.25629546495065
 20
722.0191121141886
 11
625.75629546495065
 21
721.5191121141886
  0
LINE
  8
_0-3_躯体と製品
  6
CONTINUOUS
 62
    7
 10
625.75629546495065
 20
721.5191121141886
 11
625.75629546495065
 21
708.5191121141886
  0
LINE
  8
_0-3_躯体と製品
  6
CONTINUOUS
 62
    7
 10
625.75629546495065
 20
708.5191121141886
 11
626.25629546495065
 21
708.0191121141886
  0
LINE
  8
_0-3_躯体と製品
  6
CONTINUOUS
 62
    7
 10
638.75629546495065
 20
706.5191121141886
 11
665.75629546495065
 21
706.5191121141886
  0
LINE
  8
_0-3_躯体と製品
  6
CONTINUOUS
 62
    7
 10
665.75629546495065
 20
706.5191121141886
 11
666.25629546495065
 21
707.0191121141886
  0
LINE
  8
_0-3_躯体と製品
  6
CONTINUOUS
 62
    7
 10
666.25629546495065
 20
707.0191121141886
 11
666.25629546495065
 21
723.0191121141886
  0
LINE
  8
_0-3_躯体と製品
  6
CONTINUOUS
 62
    7
 10
666.25629546495065
 20
723.0191121141886
 11
665.75629546495065
 21
723.5191121141886
  0
LINE
  8
_0-3_躯体と製品
  6
CONTINUOUS
 62
    7
 10
665.75629546495065
 20
723.5191121141886
 11
638.75629546495065
 21
723.5191121141886
  0
LINE
  8
_0-3_躯体と製品
  6
CONTINUOUS
 62
    7
 10
638.75629546495065
 20
723.5191121141886
 11
638.25629546495065
 21
723.0191121141886
  0
LINE
  8
_0-3_躯体と製品
  6
CONTINUOUS
 62
    7
 10
638.25629546495065
 20
723.0191121141886
 11
638.25629546495065
 21
707.0191121141886
  0
LINE
  8
_0-3_躯体と製品
  6
CONTINUOUS
 62
    7
 10
638.25629546495065
 20
707.0191121141886
 11
638.75629546495065
 21
706.5191121141886
  0
LINE
  8
_0-3_躯体と製品
  6
CONTINUOUS
 62
    7
 10
601.25629546495065
 20
706.5191121141886
 11
620.75629546495065
 21
706.5191121141886
  0
LINE
  8
_0-3_躯体と製品
  6
CONTINUOUS
 62
    7
 10
620.75629546495065
 20
706.5191121141886
 11
621.25629546495065
 21
707.0191121141886
  0
LINE
  8
_0-3_躯体と製品
  6
CONTINUOUS
 62
    7
 10
621.25629546495065
 20
707.0191121141886
 11
621.25629546495065
 21
723.0191121141886
  0
LINE
  8
_0-3_躯体と製品
  6
CONTINUOUS
 62
    7
 10
621.25629546495065
 20
723.0191121141886
 11
620.75629546495065
 21
723.5191121141886
  0
LINE
  8
_0-3_躯体と製品
  6
CONTINUOUS
 62
    7
 10
620.75629546495065
 20
723.5191121141886
 11
601.25629546495065
 21
723.5191121141886
  0
LINE
  8
_0-3_躯体と製品
  6
CONTINUOUS
 62
    7
 10
601.25629546495065
 20
723.5191121141886
 11
600.75629546495065
 21
723.0191121141886
  0
LINE
  8
_0-3_躯体と製品
  6
CONTINUOUS
 62
    7
 10
600.75629546495065
 20
723.0191121141886
 11
600.75629546495065
 21
707.0191121141886
  0
LINE
  8
_0-3_躯体と製品
  6
CONTINUOUS
 62
    7
 10
600.75629546495065
 20
707.0191121141886
 11
601.25629546495065
 21
706.5191121141886
  0
LINE
  8
_0-3_躯体と製品
  6
CONTINUOUS
 62
    7
 10
711.25629546495065
 20
708.0191121141886
 11
704.25629546495065
 21
708.0191121141886
  0
LINE
  8
_0-3_躯体と製品
  6
CONTINUOUS
 62
    7
 10
704.25629546495065
 20
708.0191121141886
 11
703.75629546495065
 21
708.5191121141886
  0
LINE
  8
_0-3_躯体と製品
  6
CONTINUOUS
 62
    7
 10
703.75629546495065
 20
708.5191121141886
 11
703.75629546495065
 21
721.5191121141886
  0
LINE
  8
_0-3_躯体と製品
  6
CONTINUOUS
 62
    7
 10
703.75629546495065
 20
721.5191121141886
 11
704.25629546495065
 21
722.0191121141886
  0
LINE
  8
_0-3_躯体と製品
  6
CONTINUOUS
 62
    7
 10
704.25629546495065
 20
722.0191121141886
 11
711.25629546495065
 21
722.0191121141886
  0
LINE
  8
_0-3_躯体と製品
  6
CONTINUOUS
 62
    7
 10
711.25629546495065
 20
722.0191121141886
 11
711.75629546495065
 21
721.5191121141886
  0
LINE
  8
_0-3_躯体と製品
  6
CONTINUOUS
 62
    7
 10
711.75629546495065
 20
721.5191121141886
 11
711.75629546495065
 21
708.5191121141886
  0
LINE
  8
_0-3_躯体と製品
  6
CONTINUOUS
 62
    7
 10
711.75629546495065
 20
708.5191121141886
 11
711.25629546495065
 21
708.0191121141886
  0
LINE
  8
_0-3_躯体と製品
  6
CONTINUOUS
 62
    7
 10
698.75629546495065
 20
706.5191121141886
 11
671.75629546495065
 21
706.5191121141886
  0
LINE
  8
_0-3_躯体と製品
  6
CONTINUOUS
 62
    7
 10
671.75629546495065
 20
706.5191121141886
 11
671.25629546495065
 21
707.0191121141886
  0
LINE
  8
_0-3_躯体と製品
  6
CONTINUOUS
 62
    7
 10
671.25629546495065
 20
707.0191121141886
 11
671.25629546495065
 21
723.0191121141886
  0
LINE
  8
_0-3_躯体と製品
  6
CONTINUOUS
 62
    7
 10
671.25629546495065
 20
723.0191121141886
 11
671.75629546495065
 21
723.5191121141886
  0
LINE
  8
_0-3_躯体と製品
  6
CONTINUOUS
 62
    7
 10
671.75629546495065
 20
723.5191121141886
 11
698.75629546495065
 21
723.5191121141886
  0
LINE
  8
_0-3_躯体と製品
  6
CONTINUOUS
 62
    7
 10
698.75629546495065
 20
723.5191121141886
 11
699.25629546495065
 21
723.0191121141886
  0
LINE
  8
_0-3_躯体と製品
  6
CONTINUOUS
 62
    7
 10
699.25629546495065
 20
723.0191121141886
 11
699.25629546495065
 21
707.0191121141886
  0
LINE
  8
_0-3_躯体と製品
  6
CONTINUOUS
 62
    7
 10
699.25629546495065
 20
707.0191121141886
 11
698.75629546495065
 21
706.5191121141886
  0
LINE
  8
_0-3_躯体と製品
  6
CONTINUOUS
 62
    7
 10
736.25629546495065
 20
706.5191121141886
 11
716.75629546495065
 21
706.5191121141886
  0
LINE
  8
_0-3_躯体と製品
  6
CONTINUOUS
 62
    7
 10
716.75629546495065
 20
706.5191121141886
 11
716.25629546495065
 21
707.0191121141886
  0
LINE
  8
_0-3_躯体と製品
  6
CONTINUOUS
 62
    7
 10
716.25629546495065
 20
707.0191121141886
 11
716.25629546495065
 21
723.0191121141886
  0
LINE
  8
_0-3_躯体と製品
  6
CONTINUOUS
 62
    7
 10
716.25629546495065
 20
723.0191121141886
 11
716.75629546495065
 21
723.5191121141886
  0
LINE
  8
_0-3_躯体と製品
  6
CONTINUOUS
 62
    7
 10
716.75629546495065
 20
723.5191121141886
 11
736.25629546495065
 21
723.5191121141886
  0
LINE
  8
_0-3_躯体と製品
  6
CONTINUOUS
 62
    7
 10
736.25629546495065
 20
723.5191121141886
 11
736.75629546495065
 21
723.0191121141886
  0
LINE
  8
_0-3_躯体と製品
  6
CONTINUOUS
 62
    7
 10
736.75629546495065
 20
723.0191121141886
 11
736.75629546495065
 21
707.0191121141886
  0
LINE
  8
_0-3_躯体と製品
  6
CONTINUOUS
 62
    7
 10
736.75629546495065
 20
707.0191121141886
 11
736.25629546495065
 21
706.5191121141886
  0
LINE
  8
_0-3_躯体と製品
  6
CONTINUOUS
 62
    7
 10
742.25629546495065
 20
721.0191121141886
 11
742.25629546495065
 21
709.81911211418856
  0
ARC
  8
_0-3_躯体と製品
  6
CONTINUOUS
 62
    7
 10
745.25629546495065
 20
709.81911211418856
 40
3
 50
180
 51
270
  0
LINE
  8
_0-3_躯体と製品
  6
CONTINUOUS
 62
    7
 10
745.25629546495065
 20
706.81911211418856
 11
745.25629546495065
 21
706.5191121141886
  0
LINE
  8
_0-3_躯体と製品
  6
CONTINUOUS
 62
    7
 10
745.25629546495065
 20
706.5191121141886
 11
746.25629546495065
 21
706.5191121141886
  0
LINE
  8
_0-3_躯体と製品
  6
CONTINUOUS
 62
    7
 10
746.25629546495065
 20
706.5191121141886
 11
746.25629546495065
 21
706.81911211418856
  0
LINE
  8
_0-3_躯体と製品
  6
CONTINUOUS
 62
    7
 10
746.25629546495065
 20
706.81911211418856
 11
747.25629546495065
 21
706.81911211418856
  0
LINE
  8
_0-3_躯体と製品
  6
CONTINUOUS
 62
    7
 10
747.25629546495065
 20
706.81911211418856
 11
747.25629546495065
 21
706.5191121141886
  0
LINE
  8
_0-3_躯体と製品
  6
CONTINUOUS
 62
    7
 10
747.25629546495065
 20
706.5191121141886
 11
748.05629546495084
 21
706.5191121141886
  0
LINE
  8
_0-3_躯体と製品
  6
CONTINUOUS
 62
    7
 10
748.05629546495084
 20
706.5191121141886
 11
748.05629546495084
 21
706.81911211418856
  0
LINE
  8
_0-3_躯体と製品
  6
CONTINUOUS
 62
    7
 10
748.05629546495084
 20
706.81911211418856
 11
748.45629546495093
 21
706.81911211418856
  0
ARC
  8
_0-3_躯体と製品
  6
CONTINUOUS
 62
    7
 10
748.45629546495081
 20
706.51911211418872
 40
0.2999999999998294
 50
359.99999999997613
 51
89.999999999980474
  0
LINE
  8
_0-3_躯体と製品
  6
CONTINUOUS
 62
    7
 10
748.75629546495065
 20
706.5191121141886
 11
748.75629546495065
 21
703.0191121141886
  0
LINE
  8
_0-3_躯体と製品
  6
CONTINUOUS
 62
    7
 10
748.75629546495065
 20
703.0191121141886
 11
747.25629546495065
 21
703.0191121141886
  0
ARC
  8
_0-3_躯体と製品
  6
CONTINUOUS
 62
    7
 10
747.25629546495065
 20
702.5191121141886
 40
0.4999999999999999
 50
90
 51
180
  0
LINE
  8
_0-3_躯体と製品
  6
CONTINUOUS
 62
    7
 10
746.75629546495065
 20
702.5191121141886
 11
746.75629546495065
 21
701.5191121141886
  0
ARC
  8
_0-3_躯体と製品
  6
CONTINUOUS
 62
    7
 10
747.25629546495065
 20
701.5191121141886
 40
0.4999999999999999
 50
180
 51
270
  0
LINE
  8
_0-3_躯体と製品
  6
CONTINUOUS
 62
    7
 10
747.25629546495065
 20
701.0191121141886
 11
750.75629546495065
 21
701.0191121141886
  0
LINE
  8
_0-3_躯体と製品
  6
CONTINUOUS
 62
    7
 10
750.75629546495065
 20
701.0191121141886
 11
750.75629546495065
 21
701.31911211418856
  0
LINE
  8
_0-3_躯体と製品
  6
CONTINUOUS
 62
    7
 10
750.75629546495065
 20
701.31911211418856
 11
752.75629546495065
 21
701.31911211418856
  0
LINE
  8
_0-3_躯体と製品
  6
CONTINUOUS
 62
    7
 10
752.75629546495065
 20
701.31911211418856
 11
752.75629546495065
 21
701.0191121141886
  0
LINE
  8
_0-3_躯体と製品
  6
CONTINUOUS
 62
    7
 10
752.75629546495065
 20
701.0191121141886
 11
754.95629546495093
 21
701.0191121141886
  0
ARC
  8
_0-3_躯体と製品
  6
CONTINUOUS
 62
    7
 10
754.95629546495093
 20
701.5191121141886
 40
0.4999999999999999
 50
270
 51
0.0000000000000127
  0
LINE
  8
_0-3_躯体と製品
  6
CONTINUOUS
 62
    7
 10
755.45629546495093
 20
701.5191121141886
 11
755.45629546495093
 21
702.5191121141886
  0
ARC
  8
_0-3_躯体と製品
  6
CONTINUOUS
 62
    7
 10
754.95629546495093
 20
702.5191121141886
 40
0.4999999999999999
 50
0.0000000000000052
 51
90.000000000000014
  0
LINE
  8
_0-3_躯体と製品
  6
CONTINUOUS
 62
    7
 10
754.95629546495093
 20
703.0191121141886
 11
754.75629546495065
 21
703.0191121141886
  0
LINE
  8
_0-3_躯体と製品
  6
CONTINUOUS
 62
    7
 10
754.75629546495065
 20
703.0191121141886
 11
754.75629546495065
 21
706.5191121141886
  0
ARC
  8
_0-3_躯体と製品
  6
CONTINUOUS
 62
    7
 10
755.05629546495072
 20
706.51911211418849
 40
0.3000000000000568
 50
89.999999999976126
 51
179.99999999998047
  0
LINE
  8
_0-3_躯体と製品
  6
CONTINUOUS
 62
    7
 10
755.05629546495084
 20
706.81911211418856
 11
755.45629546495093
 21
706.81911211418856
  0
LINE
  8
_0-3_躯体と製品
  6
CONTINUOUS
 62
    7
 10
755.45629546495093
 20
706.81911211418856
 11
755.45629546495093
 21
706.5191121141886
  0
LINE
  8
_0-3_躯体と製品
  6
CONTINUOUS
 62
    7
 10
755.45629546495093
 20
706.5191121141886
 11
756.25629546495065
 21
706.5191121141886
  0
LINE
  8
_0-3_躯体と製品
  6
CONTINUOUS
 62
    7
 10
756.25629546495065
 20
706.5191121141886
 11
756.25629546495065
 21
706.81911211418856
  0
LINE
  8
_0-3_躯体と製品
  6
CONTINUOUS
 62
    7
 10
756.25629546495065
 20
706.81911211418856
 11
757.25629546495065
 21
706.81911211418856
  0
LINE
  8
_0-3_躯体と製品
  6
CONTINUOUS
 62
    7
 10
757.25629546495065
 20
706.81911211418856
 11
757.25629546495065
 21
706.5191121141886
  0
LINE
  8
_0-3_躯体と製品
  6
CONTINUOUS
 62
    7
 10
757.25629546495065
 20
706.5191121141886
 11
758.25629546495065
 21
706.5191121141886
  0
LINE
  8
_0-3_躯体と製品
  6
CONTINUOUS
 62
    7
 10
758.25629546495065
 20
706.5191121141886
 11
758.25629546495065
 21
706.81911211418856
  0
LINE
  8
_0-3_躯体と製品
  6
CONTINUOUS
 62
    7
 10
758.25629546495065
 20
706.81911211418856
 11
758.45629546495093
 21
706.81911211418856
  0
ARC
  8
_0-3_躯体と製品
  6
CONTINUOUS
 62
    7
 10
758.45629546495081
 20
707.6191121141884
 40
0.7999999999998292
 50
270.00000000000733
 51
0.0000000000089691
  0
LINE
  8
_0-3_躯体と製品
  6
CONTINUOUS
 62
    7
 10
759.25629546495065
 20
707.61911211418851
 11
759.25629546495065
 21
710.5191121141886
  0
LINE
  8
_0-3_躯体と製品
  6
CONTINUOUS
 62
    7
 10
759.25629546495065
 20
710.5191121141886
 11
758.75629546495065
 21
710.5191121141886
  0
ARC
  8
_0-3_躯体と製品
  6
CONTINUOUS
 62
    7
 10
758.75629546495065
 20
710.0191121141886
 40
0.4999999999999999
 50
90
 51
180
  0
LINE
  8
_0-3_躯体と製品
  6
CONTINUOUS
 62
    7
 10
758.25629546495065
 20
710.0191121141886
 11
758.25629546495065
 21
709.5191121141886
  0
ARC
  8
_0-3_躯体と製品
  6
CONTINUOUS
 62
    7
 10
757.75629546495065
 20
709.5191121141886
 40
0.4999999999999999
 50
270
 51
0
  0
LINE
  8
_0-3_躯体と製品
  6
CONTINUOUS
 62
    7
 10
757.75629546495065
 20
709.0191121141886
 11
752.05629546495084
 21
709.0191121141886
  0
LINE
  8
_0-3_躯体と製品
  6
CONTINUOUS
 62
    7
 10
752.05629546495084
 20
709.0191121141886
 11
751.75629546495065
 21
708.71911211418865
  0
LINE
  8
_0-3_躯体と製品
  6
CONTINUOUS
 62
    7
 10
751.75629546495065
 20
708.71911211418865
 11
751.45629546495093
 21
709.0191121141886
  0
LINE
  8
_0-3_躯体と製品
  6
CONTINUOUS
 62
    7
 10
751.45629546495093
 20
709.0191121141886
 11
744.75629546495065
 21
709.0191121141886
  0
ARC
  8
_0-3_躯体と製品
  6
CONTINUOUS
 62
    7
 10
744.75629546495065
 20
709.5191121141886
 40
0.4999999999999999
 50
180
 51
270
  0
LINE
  8
_0-3_躯体と製品
  6
CONTINUOUS
 62
    7
 10
744.25629546495065
 20
709.5191121141886
 11
744.25629546495065
 21
715.21911211418865
  0
LINE
  8
_0-3_躯体と製品
  6
CONTINUOUS
 62
    7
 10
744.25629546495065
 20
715.21911211418865
 11
743.95629546495093
 21
715.5191121141886
  0
LINE
  8
_0-3_躯体と製品
  6
CONTINUOUS
 62
    7
 10
743.95629546495093
 20
715.5191121141886
 11
744.25629546495065
 21
715.81911211418856
  0
LINE
  8
_0-3_躯体と製品
  6
CONTINUOUS
 62
    7
 10
744.25629546495065
 20
715.81911211418856
 11
744.25629546495065
 21
721.0191121141886
  0
LINE
  8
_0-3_躯体と製品
  6
CONTINUOUS
 62
    7
 10
744.25629546495065
 20
721.0191121141886
 11
742.25629546495065
 21
721.0191121141886
  0
LINE
  8
_0-3_躯体と製品
  6
CONTINUOUS
 62
    7
 10
795.32887102410768
 20
702.0191121141886
 11
757.75629546495065
 21
702.0191121141886
  0
LINE
  8
_0-3_躯体と製品
  6
CONTINUOUS
 62
    7
 10
795.32878375863265
 20
701.0191121141886
 11
758.25629546495065
 21
701.0191121141886
  0
ARC
  8
_0-3_躯体と製品
  6
CONTINUOUS
 62
    7
 10
758.25629546495065
 20
701.5191121141886
 40
0.4999999999999999
 50
180
 51
270
  0
LINE
  8
_0-3_躯体と製品
  6
CONTINUOUS
 62
    7
 10
757.75629546495065
 20
701.5191121141886
 11
757.75629546495065
 21
703.0191121141886
  0
LINE
  8
_0-3_躯体と製品
  6
CONTINUOUS
 62
    7
 10
757.75629546495065
 20
703.0191121141886
 11
756.25629546495065
 21
703.0191121141886
  0
ARC
  8
_0-3_躯体と製品
  6
CONTINUOUS
 62
    7
 10
756.25629546495065
 20
704.5191121141886
 40
1.4999999999999856
 50
179.99999999999943
 51
270.00000000000057
  0
LINE
  8
_0-3_躯体と製品
  6
CONTINUOUS
 62
    7
 10
754.75629546495065
 20
704.5191121141886
 11
754.75629546495065
 21
706.5191121141886
  0
LINE
  8
_0-3_躯体と製品
  6
CONTINUOUS
 62
    7
 10
754.75629546495065
 20
706.5191121141886
 11
758.75629546495065
 21
706.5191121141886
  0
ARC
  8
_0-3_躯体と製品
  6
CONTINUOUS
 62
    7
 10
758.75629546495065
 20
709.5191121141886
 40
3
 50
270
 51
0.0000000000000127
  0
LINE
  8
_0-3_躯体と製品
  6
CONTINUOUS
 62
    7
 10
761.75629546495065
 20
709.5191121141886
 11
761.75629546495065
 21
720.5191121141886
  0
ARC
  8
_0-3_躯体と製品
  6
CONTINUOUS
 62
    7
 10
758.75629546495065
 20
720.5191121141886
 40
3
 50
0.0000000000000052
 51
90.000000000000014
  0
LINE
  8
_0-3_躯体と製品
  6
CONTINUOUS
 62
    7
 10
758.75629546495065
 20
723.5191121141886
 11
754.75629546495065
 21
723.5191121141886
  0
LINE
  8
_0-3_躯体と製品
  6
CONTINUOUS
 62
    7
 10
754.75629546495065
 20
723.5191121141886
 11
754.75629546495065
 21
728.0191121141886
  0
ARC
  8
_0-3_躯体と製品
  6
CONTINUOUS
 62
    7
 10
755.75629546495065
 20
728.0191121141886
 40
0.9999999999999998
 50
89.999999999999986
 51
180
  0
LINE
  8
_0-3_躯体と製品
  6
CONTINUOUS
 62
    7
 10
755.75629546495065
 20
729.0191121141886
 11
795.3312271919317
 21
729.0191121141886
  0
LINE
  8
_0-3_躯体と製品
  6
CONTINUOUS
 62
    7
 10
755.75629546495065
 20
723.5191121141886
 11
755.75629546495065
 21
728.0191121141886
  0
LINE
  8
_0-3_躯体と製品
  6
CONTINUOUS
 62
    7
 10
755.75629546495065
 20
728.0191121141886
 11
795.33113992645804
 21
728.0191121141886
  0
LINE
  8
_0-3_躯体と製品
  6
CONTINUOUS
 62
    7
 10
795.33061633360785
 20
722.0191121141886
 11
792.25629546495065
 21
722.0191121141886
  0
LINE
  8
_0-3_躯体と製品
  6
CONTINUOUS
 62
    7
 10
792.25629546495065
 20
722.0191121141886
 11
791.75629546495065
 21
721.5191121141886
  0
LINE
  8
_0-3_躯体と製品
  6
CONTINUOUS
 62
    7
 10
791.75629546495065
 20
721.5191121141886
 11
791.75629546495065
 21
708.5191121141886
  0
LINE
  8
_0-3_躯体と製品
  6
CONTINUOUS
 62
    7
 10
791.75629546495065
 20
708.5191121141886
 11
792.25629546495065
 21
708.0191121141886
  0
LINE
  8
_0-3_躯体と製品
  6
CONTINUOUS
 62
    7
 10
792.25629546495065
 20
708.0191121141886
 11
795.32939461695787
 21
708.0191121141886
  0
LINE
  8
_0-3_躯体と製品
  6
CONTINUOUS
 62
    7
 10
767.25629546495065
 20
706.5191121141886
 11
786.75629546495065
 21
706.5191121141886
  0
LINE
  8
_0-3_躯体と製品
  6
CONTINUOUS
 62
    7
 10
786.75629546495065
 20
706.5191121141886
 11
787.25629546495065
 21
707.0191121141886
  0
LINE
  8
_0-3_躯体と製品
  6
CONTINUOUS
 62
    7
 10
787.25629546495065
 20
707.0191121141886
 11
787.25629546495065
 21
723.0191121141886
  0
LINE
  8
_0-3_躯体と製品
  6
CONTINUOUS
 62
    7
 10
787.25629546495065
 20
723.0191121141886
 11
786.75629546495065
 21
723.5191121141886
  0
LINE
  8
_0-3_躯体と製品
  6
CONTINUOUS
 62
    7
 10
786.75629546495065
 20
723.5191121141886
 11
767.25629546495065
 21
723.5191121141886
  0
LINE
  8
_0-3_躯体と製品
  6
CONTINUOUS
 62
    7
 10
767.25629546495065
 20
723.5191121141886
 11
766.75629546495065
 21
723.0191121141886
  0
LINE
  8
_0-3_躯体と製品
  6
CONTINUOUS
 62
    7
 10
766.75629546495065
 20
723.0191121141886
 11
766.75629546495065
 21
707.0191121141886
  0
LINE
  8
_0-3_躯体と製品
  6
CONTINUOUS
 62
    7
 10
766.75629546495065
 20
707.0191121141886
 11
767.25629546495065
 21
706.5191121141886
  0
LINE
  8
_0-5_中心線
  6
CENTER1
 62
    7
 10
585.75629546494974
 20
693.0191121141886
 11
585.75629546494974
 21
715.94286211418967
  0
ARC
  8
_0-3_躯体と製品
  6
CONTINUOUS
 62
    7
 10
586.30329546492135
 20
707.23111211419075
 40
4.8189999999969126
 50
48.111754999089271
 51
96.517442000071412
  0
ARC
  8
_0-3_躯体と製品
  6
CONTINUOUS
 62
    7
 10
585.20929546496802
 20
707.23111211418529
 40
4.8190000000167297
 50
83.482563001149714
 51
131.88825099941889
  0
LINE
  8
_0-3_躯体と製品
  6
CONTINUOUS
 62
    7
 10
581.75629546495065
 20
709.2191121142007
 11
581.75629546495065
 21
709.66811211419349
  0
LINE
  8
_0-3_躯体と製品
  6
CONTINUOUS
 62
    7
 10
581.75629546495065
 20
709.66811211419349
 11
581.99129546496579
 21
710.81911211420652
  0
LINE
  8
_0-3_躯体と製品
  6
CONTINUOUS
 62
    7
 10
581.99129546496579
 20
710.81911211420652
 11
585.75629546495065
 21
710.81911211420652
  0
LINE
  8
_0-3_躯体と製品
  6
CONTINUOUS
 62
    7
 10
585.75629546495065
 20
710.81911211420652
 11
589.52129546496462
 21
710.81911211420652
  0
LINE
  8
_0-3_躯体と製品
  6
CONTINUOUS
 62
    7
 10
589.52129546496462
 20
710.81911211420652
 11
589.75629546495065
 21
709.66811211419349
  0
LINE
  8
_0-3_躯体と製品
  6
CONTINUOUS
 62
    7
 10
589.75629546495065
 20
709.66811211419349
 11
589.75629546497976
 21
709.2191121142007
  0
ARC
  8
_0-3_躯体と製品
  6
CONTINUOUS
 62
    7
 10
589.55629547020339
 20
709.21911210896496
 40
0.1999999947763173
 50
269.99999850005975
 51
0.0000014999402189
  0
LINE
  8
_0-3_躯体と製品
  6
CONTINUOUS
 62
    7
 10
589.55629546496766
 20
709.0191121141886
 11
585.75629546495065
 21
709.0191121141886
  0
LINE
  8
_0-3_躯体と製品
  6
CONTINUOUS
 62
    7
 10
585.75629546495065
 20
709.0191121141886
 11
581.95629545448492
 21
709.0191121141886
  0
ARC
  8
_0-3_躯体と製品
  6
CONTINUOUS
 62
    7
 10
581.95629546495354
 20
709.21911211419149
 40
0.200000000002911
 50
180.00000600059477
 51
269.99999700095339
  0
LINE
  8
_0-5_中心線
  6
CENTER1
 62
    7
 10
751.75629546495065
 20
693.0191121141886
 11
751.75629546495065
 21
715.94286211418967
  0
ARC
  8
_0-3_躯体と製品
  6
CONTINUOUS
 62
    7
 10
752.30329546492135
 20
707.23111211419075
 40
4.8189999999969126
 50
48.111754999089271
 51
96.517442000071412
  0
ARC
  8
_0-3_躯体と製品
  6
CONTINUOUS
 62
    7
 10
751.20929546496802
 20
707.23111211418529
 40
4.8190000000167297
 50
83.482563001149714
 51
131.88825099941889
  0
LINE
  8
_0-3_躯体と製品
  6
CONTINUOUS
 62
    7
 10
747.75629546495065
 20
709.2191121142007
 11
747.75629546495065
 21
709.66811211419349
  0
LINE
  8
_0-3_躯体と製品
  6
CONTINUOUS
 62
    7
 10
747.75629546495065
 20
709.66811211419349
 11
747.99129546496579
 21
710.81911211420652
  0
LINE
  8
_0-3_躯体と製品
  6
CONTINUOUS
 62
    7
 10
747.99129546496579
 20
710.81911211420652
 11
751.75629546495065
 21
710.81911211420652
  0
LINE
  8
_0-3_躯体と製品
  6
CONTINUOUS
 62
    7
 10
751.75629546495065
 20
710.81911211420652
 11
755.52129546496462
 21
710.81911211420652
  0
LINE
  8
_0-3_躯体と製品
  6
CONTINUOUS
 62
    7
 10
755.52129546496462
 20
710.81911211420652
 11
755.75629546495065
 21
709.66811211419349
  0
LINE
  8
_0-3_躯体と製品
  6
CONTINUOUS
 62
    7
 10
755.75629546495065
 20
709.66811211419349
 11
755.75629546497976
 21
709.2191121142007
  0
ARC
  8
_0-3_躯体と製品
  6
CONTINUOUS
 62
    7
 10
755.55629547020408
 20
709.21911210896428
 40
0.1999999947756352
 50
269.99999850025517
 51
0.0000015001356338
  0
LINE
  8
_0-3_躯体と製品
  6
CONTINUOUS
 62
    7
 10
755.55629546496903
 20
709.0191121141886
 11
751.75629546495065
 21
709.0191121141886
  0
LINE
  8
_0-3_躯体と製品
  6
CONTINUOUS
 62
    7
 10
751.75629546495065
 20
709.0191121141886
 11
747.95629545448492
 21
709.0191121141886
  0
ARC
  8
_0-3_躯体と製品
  6
CONTINUOUS
 62
    7
 10
747.95629546495354
 20
709.21911211419149
 40
0.200000000002911
 50
180.00000600059477
 51
269.99999700095339
  0
LINE
  8
_0-5_中心線
  6
CENTER1
 62
    7
 10
419.75629546494974
 20
693.0191121141886
 11
419.75629546494974
 21
715.94286211418967
  0
ARC
  8
_0-3_躯体と製品
  6
CONTINUOUS
 62
    7
 10
420.30329546492135
 20
707.23111211419075
 40
4.8189999999969126
 50
48.111754999089271
 51
96.517442000071412
  0
ARC
  8
_0-3_躯体と製品
  6
CONTINUOUS
 62
    7
 10
419.20929546496808
 20
707.23111211418529
 40
4.8190000000167297
 50
83.482563001149714
 51
131.88825099941889
  0
LINE
  8
_0-3_躯体と製品
  6
CONTINUOUS
 62
    7
 10
415.75629546495065
 20
709.2191121142007
 11
415.75629546495065
 21
709.66811211419349
  0
LINE
  8
_0-3_躯体と製品
  6
CONTINUOUS
 62
    7
 10
415.75629546495065
 20
709.66811211419349
 11
415.99129546496579
 21
710.81911211420652
  0
LINE
  8
_0-3_躯体と製品
  6
CONTINUOUS
 62
    7
 10
415.99129546496579
 20
710.81911211420652
 11
419.75629546495065
 21
710.81911211420652
  0
LINE
  8
_0-3_躯体と製品
  6
CONTINUOUS
 62
    7
 10
419.75629546495065
 20
710.81911211420652
 11
423.52129546496462
 21
710.81911211420652
  0
LINE
  8
_0-3_躯体と製品
  6
CONTINUOUS
 62
    7
 10
423.52129546496462
 20
710.81911211420652
 11
423.75629546495065
 21
709.66811211419349
  0
LINE
  8
_0-3_躯体と製品
  6
CONTINUOUS
 62
    7
 10
423.75629546495065
 20
709.66811211419349
 11
423.75629546497976
 21
709.2191121142007
  0
ARC
  8
_0-3_躯体と製品
  6
CONTINUOUS
 62
    7
 10
423.55629547020413
 20
709.21911210896428
 40
0.1999999947756352
 50
269.99999850025517
 51
0.0000015001356338
  0
LINE
  8
_0-3_躯体と製品
  6
CONTINUOUS
 62
    7
 10
423.55629546496903
 20
709.0191121141886
 11
419.75629546495065
 21
709.0191121141886
  0
LINE
  8
_0-3_躯体と製品
  6
CONTINUOUS
 62
    7
 10
419.75629546495065
 20
709.0191121141886
 11
415.95629545448492
 21
709.0191121141886
  0
ARC
  8
_0-3_躯体と製品
  6
CONTINUOUS
 62
    7
 10
415.95629546495354
 20
709.21911211419149
 40
0.200000000002911
 50
180.00000600059477
 51
269.99999700095339
  0
LINE
  8
_0-3_躯体と製品
  6
CONTINUOUS
 62
    7
 10
1113.0796463061338
 20
664.01911211418269
 11
1118.0796463061338
 21
664.01911211418269
  0
LINE
  8
_0-3_躯体と製品
  6
CONTINUOUS
 62
    7
 10
1118.0796463061338
 20
664.01911211418269
 11
1118.0796463061338
 21
661.01911211418269
  0
LINE
  8
_0-3_躯体と製品
  6
CONTINUOUS
 62
    7
 10
1118.0796463061338
 20
661.01911211418269
 11
1044.0796463061338
 21
661.01911211418269
  0
LINE
  8
_0-3_躯体と製品
  6
CONTINUOUS
 62
    7
 10
1044.0796463061338
 20
661.01911211418269
 11
1044.0796463061338
 21
664.01911211418269
  0
LINE
  8
_0-3_躯体と製品
  6
CONTINUOUS
 62
    7
 10
1044.0796463061338
 20
664.01911211418269
 11
1049.0796463061338
 21
664.01911211418269
  0
LINE
  8
_0-3_躯体と製品
  6
CONTINUOUS
 62
    7
 10
1049.0796463061338
 20
664.01911211418269
 11
1049.0796463061338
 21
666.01911211418269
  0
LINE
  8
_0-3_躯体と製品
  6
CONTINUOUS
 62
    7
 10
1049.0796463061338
 20
666.01911211418269
 11
1042.0796463061338
 21
666.01911211418269
  0
LINE
  8
_0-3_躯体と製品
  6
CONTINUOUS
 62
    7
 10
1042.0796463061338
 20
666.01911211418269
 11
1042.0796463061338
 21
659.01911211418269
  0
LINE
  8
_0-3_躯体と製品
  6
CONTINUOUS
 62
    7
 10
1042.0796463061338
 20
659.01911211418269
 11
1120.0796463061338
 21
659.01911211418269
  0
LINE
  8
_0-3_躯体と製品
  6
CONTINUOUS
 62
    7
 10
1120.0796463061338
 20
659.01911211418269
 11
1120.0796463061338
 21
666.01911211418269
  0
LINE
  8
_0-3_躯体と製品
  6
CONTINUOUS
 62
    7
 10
1120.0796463061338
 20
666.01911211418269
 11
1113.0796463061338
 21
666.01911211418269
  0
LINE
  8
_0-3_躯体と製品
  6
CONTINUOUS
 62
    7
 10
1113.0796463061338
 20
666.01911211418269
 11
1113.0796463061338
 21
664.01911211418269
  0
LINE
  8
_0-3_躯体と製品
  6
CONTINUOUS
 62
    7
 10
1089.0796463061197
 20
682.51911211418269
 11
1089.0796463061197
 21
671.02104012978157
  0
LINE
  8
_0-3_躯体と製品
  6
CONTINUOUS
 62
    7
 10
1087.5796463061197
 20
684.01911211418269
 11
1087.5796463061197
 21
671.02104012978157
  0
LINE
  8
_0-3_躯体と製品
  6
CONTINUOUS
 62
    7
 10
1073.0796463061188
 20
682.51911211418269
 11
1074.5796463061179
 21
684.01911211418269
  0
LINE
  8
_0-3_躯体と製品
  6
CONTINUOUS
 62
    7
 10
1073.0796463061188
 20
671.02104012978157
 11
1073.0796463061188
 21
682.51911211418269
  0
LINE
  8
_0-3_躯体と製品
  6
CONTINUOUS
 62
    7
 10
1073.0796463061188
 20
682.51911211418269
 11
1089.0796463061197
 21
682.51911211418269
  0
LINE
  8
_0-3_躯体と製品
  6
CONTINUOUS
 62
    7
 10
1089.0796463061197
 20
682.51911211418269
 11
1087.5796463061197
 21
684.01911211418269
  0
LINE
  8
_0-3_躯体と製品
  6
CONTINUOUS
 62
    7
 10
1087.5796463061197
 20
684.01911211418269
 11
1074.5796463061179
 21
684.01911211418269
  0
LINE
  8
_0-3_躯体と製品
  6
CONTINUOUS
 62
    7
 10
1074.5796463061179
 20
684.01911211418269
 11
1074.5796463061179
 21
671.02104012978157
  0
LINE
  8
_0-3_躯体と製品
  6
CONTINUOUS
 62
    7
 10
1099.479646306128
 20
663.11911211418055
 11
1099.479646306128
 21
698.91911211417664
  0
ARC
  8
_0-3_躯体と製品
  6
CONTINUOUS
 62
    7
 10
1098.9796463192179
 20
698.91911212726654
 40
0.499999986910098
 50
359.99999850000768
 51
90.000001499888128
  0
LINE
  8
_0-3_躯体と製品
  6
CONTINUOUS
 62
    7
 10
1098.9796463061289
 20
699.41911211417664
 11
1081.0796463061338
 21
699.41911211417664
  0
LINE
  8
_0-3_躯体と製品
  6
CONTINUOUS
 62
    7
 10
1081.0796463061338
 20
699.41911211417664
 11
1063.1796462799607
 21
699.41911211417664
  0
ARC
  8
_0-3_躯体と製品
  6
CONTINUOUS
 62
    7
 10
1063.1796462799598
 20
698.91911214035645
 40
0.4999999738201959
 50
89.999999999895834
 51
180.00000299998476
  0
LINE
  8
_0-3_躯体と製品
  6
CONTINUOUS
 62
    7
 10
1062.6796463061396
 20
698.91911211417664
 11
1062.6796463061337
 21
663.11911211418055
  0
ARC
  8
_0-3_躯体と製品
  6
CONTINUOUS
 62
    7
 10
1060.5796463061342
 20
663.11911211418101
 40
2.0999999999995107
 50
269.99999999998914
 51
359.99999999998602
  0
LINE
  8
_0-3_躯体と製品
  6
CONTINUOUS
 62
    7
 10
1060.5796463061338
 20
661.01911211418155
 11
1044.0796463061338
 21
661.01911211418269
  0
LINE
  8
_0-3_躯体と製品
  6
CONTINUOUS
 62
    7
 10
1044.0796463061338
 20
661.01911211418269
 11
1044.0796463061338
 21
662.61911211418169
  0
LINE
  8
_0-3_躯体と製品
  6
CONTINUOUS
 62
    7
 10
1044.0796463061338
 20
662.61911211418169
 11
1060.5796463061338
 21
662.61911211418169
  0
ARC
  8
_0-3_躯体と製品
  6
CONTINUOUS
 62
    7
 10
1060.5796463192237
 20
663.11911210109167
 40
0.4999999869099843
 50
269.9999984999946
 51
0.0000014998750991
  0
LINE
  8
_0-3_躯体と製品
  6
CONTINUOUS
 62
    7
 10
1061.0796463061338
 20
663.11911211418055
 11
1061.0796463061397
 21
698.91911211417664
  0
ARC
  8
_0-3_躯体と製品
  6
CONTINUOUS
 62
    7
 10
1063.1796463061396
 20
698.91911211417664
 40
2.0999999999999086
 50
89.999999999999986
 51
180
  0
LINE
  8
_0-3_躯体と製品
  6
CONTINUOUS
 62
    7
 10
1063.1796463061396
 20
701.01911211417655
 11
1081.0796463061338
 21
701.01911211418269
  0
LINE
  8
_0-3_躯体と製品
  6
CONTINUOUS
 62
    7
 10
1081.0796463061338
 20
701.01911211418269
 11
1098.9796463061307
 21
701.01911211417655
  0
ARC
  8
_0-3_躯体と製品
  6
CONTINUOUS
 62
    7
 10
1098.9796463061307
 20
698.91911211417357
 40
2.1000000000029817
 50
0.0000000000838266
 51
90.000000000003013
  0
LINE
  8
_0-3_躯体と製品
  6
CONTINUOUS
 62
    7
 10
1101.0796463061338
 20
698.91911211417664
 11
1101.0796463061338
 21
663.11911206182162
  0
ARC
  8
_0-3_躯体と製品
  6
CONTINUOUS
 62
    7
 10
1101.579646319223
 20
663.11911212727091
 40
0.5000000130892234
 50
180.00000749993578
 51
269.99999850008601
  0
LINE
  8
_0-3_躯体と製品
  6
CONTINUOUS
 62
    7
 10
1101.5796463061338
 20
662.61911211418169
 11
1118.0796463061338
 21
662.61911211418169
  0
LINE
  8
_0-3_躯体と製品
  6
CONTINUOUS
 62
    7
 10
1118.0796463061338
 20
662.61911211418169
 11
1118.0796463061338
 21
661.01911211418269
  0
LINE
  8
_0-3_躯体と製品
  6
CONTINUOUS
 62
    7
 10
1118.0796463061338
 20
661.01911211418269
 11
1101.5796463061338
 21
661.01911211418155
  0
ARC
  8
_0-3_躯体と製品
  6
CONTINUOUS
 62
    7
 10
1101.5796463061336
 20
663.11911211418123
 40
2.0999999999997359
 50
180.00000599997699
 51
270.00000000000506
  0
ARC
  8
_0-3_躯体と製品
  6
CONTINUOUS
 62
    7
 10
1053.8766463061338
 20
660.83111211418429
 40
4.8189999999953264
 50
48.11175499908326
 51
96.517442000065401
  0
ARC
  8
_0-3_躯体と製品
  6
CONTINUOUS
 62
    7
 10
1052.7826463061822
 20
660.8311121141777
 40
4.8190000000170672
 50
83.482563001162276
 51
131.88825099943148
  0
LINE
  8
_0-3_躯体と製品
  6
CONTINUOUS
 62
    7
 10
1049.3296463061638
 20
662.81911211419265
 11
1049.3296463061638
 21
663.26811211418567
  0
LINE
  8
_0-3_躯体と製品
  6
CONTINUOUS
 62
    7
 10
1049.3296463061638
 20
663.26811211418567
 11
1049.5646463061789
 21
664.4191121141987
  0
LINE
  8
_0-3_躯体と製品
  6
CONTINUOUS
 62
    7
 10
1049.5646463061789
 20
664.4191121141987
 11
1053.3296463061638
 21
664.4191121141987
  0
LINE
  8
_0-3_躯体と製品
  6
CONTINUOUS
 62
    7
 10
1053.3296463061638
 20
664.4191121141987
 11
1057.0946463061778
 21
664.4191121141987
  0
LINE
  8
_0-3_躯体と製品
  6
CONTINUOUS
 62
    7
 10
1057.0946463061778
 20
664.4191121141987
 11
1057.3296463061638
 21
663.26811211418567
  0
LINE
  8
_0-3_躯体と製品
  6
CONTINUOUS
 62
    7
 10
1057.3296463061638
 20
663.26811211418567
 11
1057.3296463061929
 21
662.81911211419265
  0
ARC
  8
_0-3_躯体と製品
  6
CONTINUOUS
 62
    7
 10
1057.1296463114172
 20
662.81911210895748
 40
0.1999999947757489
 50
269.99999849989695
 51
0.0000014997773739
  0
LINE
  8
_0-3_躯体と製品
  6
CONTINUOUS
 62
    7
 10
1057.1296463061808
 20
662.61911211418169
 11
1053.3296463061638
 21
662.61911211418169
  0
LINE
  8
_0-3_躯体と製品
  6
CONTINUOUS
 62
    7
 10
1053.3296463061638
 20
662.61911211418169
 11
1049.5296462956976
 21
662.61911211418169
  0
ARC
  8
_0-3_躯体と製品
  6
CONTINUOUS
 62
    7
 10
1049.5296463061661
 20
662.81911211418389
 40
0.2000000000022289
 50
180.00000600065991
 51
269.99999700101853
  0
ARC
  8
_0-3_躯体と製品
  6
CONTINUOUS
 62
    7
 10
1109.3766463060754
 20
660.8311121141827
 40
4.8189999999969126
 50
48.111754999089271
 51
96.517442000071412
  0
ARC
  8
_0-3_躯体と製品
  6
CONTINUOUS
 62
    7
 10
1108.2826463061235
 20
660.83111211417872
 40
4.8190000000160103
 50
83.482563001166298
 51
131.88825099943548
  0
LINE
  8
_0-3_躯体と製品
  6
CONTINUOUS
 62
    7
 10
1104.829646306106
 20
662.81911211419265
 11
1104.829646306106
 21
663.26811211418567
  0
LINE
  8
_0-3_躯体と製品
  6
CONTINUOUS
 62
    7
 10
1104.829646306106
 20
663.26811211418567
 11
1105.0646463061207
 21
664.4191121141987
  0
LINE
  8
_0-3_躯体と製品
  6
CONTINUOUS
 62
    7
 10
1105.0646463061207
 20
664.4191121141987
 11
1108.829646306106
 21
664.4191121141987
  0
LINE
  8
_0-3_躯体と製品
  6
CONTINUOUS
 62
    7
 10
1108.829646306106
 20
664.4191121141987
 11
1112.59464630612
 21
664.4191121141987
  0
LINE
  8
_0-3_躯体と製品
  6
CONTINUOUS
 62
    7
 10
1112.59464630612
 20
664.4191121141987
 11
1112.8296463061047
 21
663.26811211418567
  0
LINE
  8
_0-3_躯体と製品
  6
CONTINUOUS
 62
    7
 10
1112.8296463061047
 20
663.26811211418567
 11
1112.8296463061338
 21
662.81911211419265
  0
ARC
  8
_0-3_躯体と製品
  6
CONTINUOUS
 62
    7
 10
1112.6296463113588
 20
662.8191121089568
 40
0.1999999947750668
 50
269.99999850009232
 51
0.0000014999727888
  0
LINE
  8
_0-3_躯体と製品
  6
CONTINUOUS
 62
    7
 10
1112.629646306123
 20
662.61911211418169
 11
1108.829646306106
 21
662.61911211418169
  0
LINE
  8
_0-3_躯体と製品
  6
CONTINUOUS
 62
    7
 10
1108.829646306106
 20
662.61911211418169
 11
1105.0296462956398
 21
662.61911211418169
  0
ARC
  8
_0-3_躯体と製品
  6
CONTINUOUS
 62
    7
 10
1105.0296463061081
 20
662.81911211418389
 40
0.2000000000022289
 50
180.00000600065991
 51
269.99999700101853
  0
LINE
  8
_0-5_中心線
  6
CENTER1
 62
    7
 10
1072.0796463061338
 20
689.04838211237961
 11
1072.0796463061338
 21
713.35721422650067
  0
ARC
  8
_0-3_躯体と製品
  6
CONTINUOUS
 62
    7
 10
1071.5326463061647
 20
707.23111211418484
 40
4.8189999999968052
 50
83.482557999946295
 51
131.88824500092844
  0
ARC
  8
_0-3_躯体と製品
  6
CONTINUOUS
 62
    7
 10
1072.6266463061165
 20
707.23111211417927
 40
4.8190000000166453
 50
48.11174900058424
 51
96.517436998853427
  0
LINE
  8
_0-3_躯体と製品
  6
CONTINUOUS
 62
    7
 10
1075.9058973921369
 20
710.51911211418269
 11
1075.8446463061177
 21
710.8191121141997
  0
LINE
  8
_0-3_躯体と製品
  6
CONTINUOUS
 62
    7
 10
1075.8446463061177
 20
710.8191121141997
 11
1072.0796463061329
 21
710.8191121141997
  0
LINE
  8
_0-3_躯体と製品
  6
CONTINUOUS
 62
    7
 10
1072.0796463061329
 20
710.8191121141997
 11
1068.3146463061198
 21
710.8191121141997
  0
LINE
  8
_0-3_躯体と製品
  6
CONTINUOUS
 62
    7
 10
1068.3146463061198
 20
710.8191121141997
 11
1068.2533952201079
 21
710.51911211418269
  0
TEXT
  8
_0-4_文字-記号
 62
    7
 10
1033.438389306134
 20
691.18645211417856
 40
8
 41
0.8
 50
0
  1
根太鋼
  0
LINE
  8
_0-4_文字-記号
  6
CONTINUOUS
 62
    7
 10
1061.0796463061338
 20
681.0191121141786
 11
1055.8573373061326
 21
688.79701811417954
  0
LINE
  8
_0-4_文字-記号
  6
CONTINUOUS
 62
    7
 10
1055.8573373061326
 20
688.79701811417954
 11
1030.6243223061338
 21
688.79701811417954
  0
INSERT
  2
-012-_D21
  8
_0-2_寸法
 10
-1796.5960052642022
 20
-676.3577612858744
 41
1
 42
1
 50
0
  0
LINE
  8
_0-3_躯体と製品
  6
CONTINUOUS
 62
    7
 10
1073.8296463061338
 20
697.67334811418255
 11
1073.2796463061336
 21
697.35580811418254
  0
LINE
  8
_0-3_躯体と製品
  6
CONTINUOUS
 62
    7
 10
1070.879646306134
 20
697.2853381141806
 11
1073.2796463061336
 21
697.99089311418061
  0
LINE
  8
_0-3_躯体と製品
  6
CONTINUOUS
 62
    7
 10
1070.3296463061329
 20
696.96779311418049
 11
1070.879646306134
 21
697.2853381141806
  0
LINE
  8
_0-3_躯体と製品
  6
CONTINUOUS
 62
    7
 10
1070.879646306134
 20
697.2853381141806
 11
1070.879646306134
 21
698.06136311418163
  0
LINE
  8
_0-3_躯体と製品
  6
CONTINUOUS
 62
    7
 10
1073.2796463061336
 20
695.16866811418049
 11
1073.8296463061338
 21
694.85112811418253
  0
LINE
  8
_0-3_躯体と製品
  6
CONTINUOUS
 62
    7
 10
1072.0796463061338
 20
694.49834811418168
 11
1073.8296463061338
 21
694.85112811418253
  0
LINE
  8
_0-3_躯体と製品
  6
CONTINUOUS
 62
    7
 10
1073.8296463061338
 20
694.85112811418253
 11
1073.2796463061336
 21
694.53358311418265
  0
LINE
  8
_0-3_躯体と製品
  6
CONTINUOUS
 62
    7
 10
1073.2796463061336
 20
696.57978311418151
 11
1073.8296463061338
 21
696.26223811418163
  0
ARC
  8
_0-3_躯体と製品
  6
CONTINUOUS
 62
    7
 10
1076.6039463061338
 20
691.03008811418249
 40
4.5414449999999427
 50
137.0538000000181
 51
175.02121999999079
  0
ARC
  8
_0-3_躯体と製品
  6
CONTINUOUS
 62
    7
 10
1072.0984463061327
 20
690.10072311418071
 40
1.3236349999999331
 50
90.813543000016367
 51
157.0408700000134
  0
LINE
  8
_0-3_躯体と製品
  6
CONTINUOUS
 62
    7
 10
1073.2796463061336
 20
694.12422311418163
 11
1070.879646306134
 21
694.12422311418163
  0
LINE
  8
_0-3_躯体と製品
  6
CONTINUOUS
 62
    7
 10
1070.879646306134
 20
696.65025311418253
 11
1073.2796463061336
 21
697.35580811418254
  0
LINE
  8
_0-3_躯体と製品
  6
CONTINUOUS
 62
    7
 10
1073.2796463061336
 20
697.35580811418254
 11
1073.2796463061336
 21
696.57978311418151
  0
LINE
  8
_0-3_躯体と製品
  6
CONTINUOUS
 62
    7
 10
1073.2796463061336
 20
696.57978311418151
 11
1070.879646306134
 21
695.87422311418163
  0
LINE
  8
_0-3_躯体と製品
  6
CONTINUOUS
 62
    7
 10
1070.879646306134
 20
695.87422311418163
 11
1070.3296463061329
 21
695.55668311418162
  0
LINE
  8
_0-3_躯体と製品
  6
CONTINUOUS
 62
    7
 10
1073.2796463061336
 20
695.94469311418061
 11
1073.8296463061338
 21
696.26223811418163
  0
LINE
  8
_0-3_躯体と製品
  6
CONTINUOUS
 62
    7
 10
1073.8296463061338
 20
696.26223811418163
 11
1070.3296463061329
 21
695.55668311418162
  0
LINE
  8
_0-3_躯体と製品
  6
CONTINUOUS
 62
    7
 10
1070.3296463061329
 20
695.55668311418162
 11
1070.879646306134
 21
695.23913811418151
  0
LINE
  8
_0-3_躯体と製品
  6
CONTINUOUS
 62
    7
 10
1070.879646306134
 20
695.23913811418151
 11
1073.2796463061336
 21
695.94469311418061
  0
LINE
  8
_0-3_躯体と製品
  6
CONTINUOUS
 62
    7
 10
1073.2796463061336
 20
695.94469311418061
 11
1073.2796463061336
 21
695.16866811418049
  0
LINE
  8
_0-3_躯体と製品
  6
CONTINUOUS
 62
    7
 10
1073.2796463061336
 20
695.16866811418049
 11
1072.0796463061338
 21
694.49834811418168
  0
LINE
  8
_0-3_躯体と製品
  6
CONTINUOUS
 62
    7
 10
1072.0796463061338
 20
694.49834811418168
 11
1073.2796463061336
 21
694.53358311418265
  0
LINE
  8
_0-3_躯体と製品
  6
CONTINUOUS
 62
    7
 10
1073.2796463061336
 20
694.53358311418265
 11
1073.2796463061336
 21
690.61704311418157
  0
LINE
  8
_0-3_躯体と製品
  6
CONTINUOUS
 62
    7
 10
1073.2796463061336
 20
690.61704311418157
 11
1072.0796463061338
 21
689.9242231141825
  0
LINE
  8
_0-3_躯体と製品
  6
CONTINUOUS
 62
    7
 10
1072.0796463061338
 20
691.45140811418355
 11
1072.0796463061338
 21
689.9242231141825
  0
LINE
  8
_0-3_躯体と製品
  6
CONTINUOUS
 62
    7
 10
1072.0796463061338
 20
689.9242231141825
 11
1070.879646306134
 21
690.61704311418157
  0
LINE
  8
_0-3_躯体と製品
  6
CONTINUOUS
 62
    7
 10
1070.879646306134
 20
690.61704311418157
 11
1070.879646306134
 21
696.65025311418253
  0
LINE
  8
_0-3_躯体と製品
  6
CONTINUOUS
 62
    7
 10
1070.879646306134
 20
696.65025311418253
 11
1070.3296463061329
 21
696.96779311418049
  0
LINE
  8
_0-3_躯体と製品
  6
CONTINUOUS
 62
    7
 10
1070.3296463061329
 20
696.96779311418049
 11
1073.8296463061338
 21
697.67334811418255
  0
LINE
  8
_0-3_躯体と製品
  6
CONTINUOUS
 62
    7
 10
1073.8296463061338
 20
697.67334811418255
 11
1073.2796463061336
 21
697.99089311418061
  0
LINE
  8
_0-3_躯体と製品
  6
CONTINUOUS
 62
    7
 10
1073.2796463061336
 20
697.99089311418061
 11
1073.2796463061336
 21
698.7669181141805
  0
LINE
  8
_0-4_文字-記号
  6
CONTINUOUS
 62
    7
 10
1031.61581805475
 20
729.0191121141886
 11
1017.400490519628
 21
753.64078118062957
  0
LINE
  8
_0-4_文字-記号
  6
CONTINUOUS
 62
    7
 10
1017.400490519628
 20
753.64078118062957
 11
974.22430095491063
 21
753.64078118062957
  0
TEXT
  8
_0-4_文字-記号
 62
    7
 10
983.3708337941348
 20
754.90256592759556
 40
8
 41
0.8
 50
0
  1
デッキ材
  0
LINE
  8
_0-3_躯体と製品
  6
CONTINUOUS
 62
    7
 10
904.52047392966779
 20
701.0191121141886
 11
1233.4055851533626
 21
701.0191121141886
  0
LINE
  8
_0-3_躯体と製品
  6
CONTINUOUS
 62
    7
 10
904.52047392966779
 20
729.0191121141886
 11
1233.4055851533626
 21
729.0191121141886
  0
LINE
  8
_0-3_躯体と製品
  6
CONTINUOUS
 62
    3
 10
1056.0796463061338
 20
710.51911211418269
 11
1106.0796463061338
 21
710.51911211418269
  0
LINE
  8
_0-3_躯体と製品
  6
CONTINUOUS
 62
    3
 10
1056.0796463061338
 20
715.51911211418269
 11
1078.6796463061337
 21
715.51911211418269
  0
LINE
  8
_0-3_躯体と製品
  6
CONTINUOUS
 62
    3
 10
1083.4796463061339
 20
715.51911211418269
 11
1106.0796463061338
 21
715.51911211418269
  0
LINE
  8
_0-3_躯体と製品
  6
CONTINUOUS
 62
    3
 10
1056.0796463061338
 20
715.81911211418264
 11
1078.6984701261758
 21
715.81911211418264
  0
LINE
  8
_0-3_躯体と製品
  6
CONTINUOUS
 62
    3
 10
1083.4608224860917
 20
715.81911211418264
 11
1106.0796463061338
 21
715.81911211418264
  0
LINE
  8
_0-3_躯体と製品
  6
CONTINUOUS
 62
    3
 10
1056.0796463061338
 20
715.21911211418251
 11
1078.6984701261758
 21
715.21911211418251
  0
LINE
  8
_0-3_躯体と製品
  6
CONTINUOUS
 62
    3
 10
1083.4608224860917
 20
715.21911211418251
 11
1106.0796463061338
 21
715.21911211418251
  0
LINE
  8
_0-3_躯体と製品
  6
CONTINUOUS
 62
    3
 10
1056.0796463061338
 20
701.01911211418269
 11
1106.0796463061338
 21
701.01911211418269
  0
LINE
  8
_0-3_躯体と製品
  6
CONTINUOUS
 62
    3
 10
1106.0796463061338
 20
701.01911211418269
 11
1106.0796463061338
 21
722.01911211418269
  0
LINE
  8
_0-3_躯体と製品
  6
CONTINUOUS
 62
    3
 10
1106.0796463061338
 20
722.01911211418269
 11
1056.0796463061338
 21
722.01911211418269
  0
LINE
  8
_0-3_躯体と製品
  6
CONTINUOUS
 62
    3
 10
1056.0796463061338
 20
722.01911211418269
 11
1056.0796463061338
 21
701.01911211418269
  0
LINE
  8
_0-3_躯体と製品
  6
CONTINUOUS
 62
    3
 10
1056.0796463061338
 20
706.81911211418264
 11
1106.0796463061338
 21
706.81911211418264
  0
LINE
  8
_0-3_躯体と製品
  6
CONTINUOUS
 62
    3
 10
1056.0796463061338
 20
706.51911211418269
 11
1106.0796463061338
 21
706.51911211418269
  0
LINE
  8
_0-3_躯体と製品
  6
CONTINUOUS
 62
    3
 10
1056.0796463061338
 20
703.01911211418269
 11
1106.0796463061338
 21
703.01911211418269
  0
LINE
  8
_0-3_躯体と製品
  6
CONTINUOUS
 62
    7
 10
904.52047392966779
 20
723.5191121141886
 11
1233.4055851533626
 21
723.5191121141886
  0
LINE
  8
_0-3_躯体と製品
  6
CONTINUOUS
 62
    7
 10
904.52047392966779
 20
706.5191121141886
 11
1056.0796463061338
 21
706.5191121141886
  0
LINE
  8
_0-3_躯体と製品
  6
CONTINUOUS
 62
    7
 10
1106.0796463061338
 20
706.5191121141886
 11
1233.4055851533626
 21
706.5191121141886
  0
LINE
  8
_0-3_躯体と製品
  6
CONTINUOUS
 62
    7
 10
904.52047392966779
 20
703.0191121141886
 11
1056.0796463061338
 21
703.0191121141886
  0
LINE
  8
_0-3_躯体と製品
  6
CONTINUOUS
 62
    7
 10
1106.0796463061338
 20
703.0191121141886
 11
1233.4055851533626
 21
703.0191121141886
  0
CIRCLE
  8
_0-3_躯体と製品
  6
CONTINUOUS
 62
    3
 10
1081.0796463061338
 20
715.51911211418269
 40
2.399999999999999
  0
LINE
  8
_0-3_躯体と製品
  6
CONTINUOUS
 62
    7
 10
1073.8296463061338
 20
699.08445811418369
 11
1073.2796463061336
 21
698.76691811418368
  0
LINE
  8
_0-3_躯体と製品
  6
CONTINUOUS
 62
    7
 10
1070.879646306134
 20
698.69644811418152
 11
1073.2796463061336
 21
699.40200311418153
  0
LINE
  8
_0-3_躯体と製品
  6
CONTINUOUS
 62
    7
 10
1070.3296463061329
 20
698.37890311418164
 11
1070.879646306134
 21
698.69644811418152
  0
LINE
  8
_0-3_躯体と製品
  6
CONTINUOUS
 62
    7
 10
1070.879646306134
 20
698.69644811418152
 11
1070.879646306134
 21
699.41911211417664
  0
LINE
  8
_0-3_躯体と製品
  6
CONTINUOUS
 62
    7
 10
1070.879646306134
 20
698.06136311418368
 11
1073.2796463061336
 21
698.76691811418368
  0
LINE
  8
_0-3_躯体と製品
  6
CONTINUOUS
 62
    7
 10
1070.879646306134
 20
698.06136311418368
 11
1070.3296463061329
 21
698.37890311418164
  0
LINE
  8
_0-3_躯体と製品
  6
CONTINUOUS
 62
    7
 10
1070.3296463061329
 20
698.37890311418164
 11
1073.8296463061338
 21
699.08445811418369
  0
LINE
  8
_0-3_躯体と製品
  6
CONTINUOUS
 62
    7
 10
1073.8296463061338
 20
699.08445811418369
 11
1073.2796463061336
 21
699.40200311418153
  0
LINE
  8
_0-3_躯体と製品
  6
CONTINUOUS
 62
    7
 10
1073.2796463061336
 20
699.40200311418153
 11
1073.2796463061336
 21
699.41911211417664
  0
LINE
  8
_0-5_中心線
  6
CENTER1
 62
    7
 10
1090.0796463061338
 20
689.04838211237961
 11
1090.0796463061338
 21
713.35721422650067
  0
ARC
  8
_0-3_躯体と製品
  6
CONTINUOUS
 62
    7
 10
1089.5326463061638
 20
707.23111211418484
 40
4.8189999999968052
 50
83.482557999946295
 51
131.88824500092844
  0
ARC
  8
_0-3_躯体と製品
  6
CONTINUOUS
 62
    7
 10
1090.6266463061156
 20
707.23111211417927
 40
4.8190000000166453
 50
48.11174900058424
 51
96.517436998853427
  0
LINE
  8
_0-3_躯体と製品
  6
CONTINUOUS
 62
    7
 10
1093.9058973921369
 20
710.51911211418269
 11
1093.8446463061177
 21
710.8191121141997
  0
LINE
  8
_0-3_躯体と製品
  6
CONTINUOUS
 62
    7
 10
1093.8446463061177
 20
710.8191121141997
 11
1090.0796463061329
 21
710.8191121141997
  0
LINE
  8
_0-3_躯体と製品
  6
CONTINUOUS
 62
    7
 10
1090.0796463061329
 20
710.8191121141997
 11
1086.3146463061198
 21
710.8191121141997
  0
LINE
  8
_0-3_躯体と製品
  6
CONTINUOUS
 62
    7
 10
1086.3146463061198
 20
710.8191121141997
 11
1086.2533952201079
 21
710.51911211418269
  0
LINE
  8
_0-3_躯体と製品
  6
CONTINUOUS
 62
    7
 10
1091.8296463061338
 20
697.67334811418255
 11
1091.2796463061336
 21
697.35580811418254
  0
LINE
  8
_0-3_躯体と製品
  6
CONTINUOUS
 62
    7
 10
1088.879646306134
 20
697.2853381141806
 11
1091.2796463061336
 21
697.99089311418061
  0
LINE
  8
_0-3_躯体と製品
  6
CONTINUOUS
 62
    7
 10
1088.3296463061329
 20
696.96779311418049
 11
1088.879646306134
 21
697.2853381141806
  0
LINE
  8
_0-3_躯体と製品
  6
CONTINUOUS
 62
    7
 10
1088.879646306134
 20
697.2853381141806
 11
1088.879646306134
 21
698.06136311418163
  0
LINE
  8
_0-3_躯体と製品
  6
CONTINUOUS
 62
    7
 10
1091.2796463061336
 20
695.16866811418049
 11
1091.8296463061338
 21
694.85112811418253
  0
LINE
  8
_0-3_躯体と製品
  6
CONTINUOUS
 62
    7
 10
1090.0796463061338
 20
694.49834811418168
 11
1091.8296463061338
 21
694.85112811418253
  0
LINE
  8
_0-3_躯体と製品
  6
CONTINUOUS
 62
    7
 10
1091.8296463061338
 20
694.85112811418253
 11
1091.2796463061336
 21
694.53358311418265
  0
LINE
  8
_0-3_躯体と製品
  6
CONTINUOUS
 62
    7
 10
1091.2796463061336
 20
696.57978311418151
 11
1091.8296463061338
 21
696.26223811418163
  0
ARC
  8
_0-3_躯体と製品
  6
CONTINUOUS
 62
    7
 10
1094.6039463061329
 20
691.03008811418249
 40
4.5414449999999427
 50
137.0538000000181
 51
175.02121999999079
  0
ARC
  8
_0-3_躯体と製品
  6
CONTINUOUS
 62
    7
 10
1090.0984463061327
 20
690.10072311418071
 40
1.3236349999999331
 50
90.813543000016367
 51
157.0408700000134
  0
LINE
  8
_0-3_躯体と製品
  6
CONTINUOUS
 62
    7
 10
1091.2796463061336
 20
694.12422311418163
 11
1088.879646306134
 21
694.12422311418163
  0
LINE
  8
_0-3_躯体と製品
  6
CONTINUOUS
 62
    7
 10
1088.879646306134
 20
696.65025311418253
 11
1091.2796463061336
 21
697.35580811418254
  0
LINE
  8
_0-3_躯体と製品
  6
CONTINUOUS
 62
    7
 10
1091.2796463061336
 20
697.35580811418254
 11
1091.2796463061336
 21
696.57978311418151
  0
LINE
  8
_0-3_躯体と製品
  6
CONTINUOUS
 62
    7
 10
1091.2796463061336
 20
696.57978311418151
 11
1088.879646306134
 21
695.87422311418163
  0
LINE
  8
_0-3_躯体と製品
  6
CONTINUOUS
 62
    7
 10
1088.879646306134
 20
695.87422311418163
 11
1088.3296463061329
 21
695.55668311418162
  0
LINE
  8
_0-3_躯体と製品
  6
CONTINUOUS
 62
    7
 10
1091.2796463061336
 20
695.94469311418061
 11
1091.8296463061338
 21
696.26223811418163
  0
LINE
  8
_0-3_躯体と製品
  6
CONTINUOUS
 62
    7
 10
1091.8296463061338
 20
696.26223811418163
 11
1088.3296463061329
 21
695.55668311418162
  0
LINE
  8
_0-3_躯体と製品
  6
CONTINUOUS
 62
    7
 10
1088.3296463061329
 20
695.55668311418162
 11
1088.879646306134
 21
695.23913811418151
  0
LINE
  8
_0-3_躯体と製品
  6
CONTINUOUS
 62
    7
 10
1088.879646306134
 20
695.23913811418151
 11
1091.2796463061336
 21
695.94469311418061
  0
LINE
  8
_0-3_躯体と製品
  6
CONTINUOUS
 62
    7
 10
1091.2796463061336
 20
695.94469311418061
 11
1091.2796463061336
 21
695.16866811418049
  0
LINE
  8
_0-3_躯体と製品
  6
CONTINUOUS
 62
    7
 10
1091.2796463061336
 20
695.16866811418049
 11
1090.0796463061338
 21
694.49834811418168
  0
LINE
  8
_0-3_躯体と製品
  6
CONTINUOUS
 62
    7
 10
1090.0796463061338
 20
694.49834811418168
 11
1091.2796463061336
 21
694.53358311418265
  0
LINE
  8
_0-3_躯体と製品
  6
CONTINUOUS
 62
    7
 10
1091.2796463061336
 20
694.53358311418265
 11
1091.2796463061336
 21
690.61704311418157
  0
LINE
  8
_0-3_躯体と製品
  6
CONTINUOUS
 62
    7
 10
1091.2796463061336
 20
690.61704311418157
 11
1090.0796463061338
 21
689.9242231141825
  0
LINE
  8
_0-3_躯体と製品
  6
CONTINUOUS
 62
    7
 10
1090.0796463061338
 20
691.45140811418355
 11
1090.0796463061338
 21
689.9242231141825
  0
LINE
  8
_0-3_躯体と製品
  6
CONTINUOUS
 62
    7
 10
1090.0796463061338
 20
689.9242231141825
 11
1088.879646306134
 21
690.61704311418157
  0
LINE
  8
_0-3_躯体と製品
  6
CONTINUOUS
 62
    7
 10
1088.879646306134
 20
690.61704311418157
 11
1088.879646306134
 21
696.65025311418253
  0
LINE
  8
_0-3_躯体と製品
  6
CONTINUOUS
 62
    7
 10
1088.879646306134
 20
696.65025311418253
 11
1088.3296463061329
 21
696.96779311418049
  0
LINE
  8
_0-3_躯体と製品
  6
CONTINUOUS
 62
    7
 10
1088.3296463061329
 20
696.96779311418049
 11
1091.8296463061338
 21
697.67334811418255
  0
LINE
  8
_0-3_躯体と製品
  6
CONTINUOUS
 62
    7
 10
1091.8296463061338
 20
697.67334811418255
 11
1091.2796463061336
 21
697.99089311418061
  0
LINE
  8
_0-3_躯体と製品
  6
CONTINUOUS
 62
    7
 10
1091.2796463061336
 20
697.99089311418061
 11
1091.2796463061336
 21
698.7669181141805
  0
LINE
  8
_0-3_躯体と製品
  6
CONTINUOUS
 62
    7
 10
1091.8296463061338
 20
699.08445811418369
 11
1091.2796463061336
 21
698.76691811418368
  0
LINE
  8
_0-3_躯体と製品
  6
CONTINUOUS
 62
    7
 10
1088.879646306134
 20
698.69644811418152
 11
1091.2796463061336
 21
699.40200311418153
  0
LINE
  8
_0-3_躯体と製品
  6
CONTINUOUS
 62
    7
 10
1088.3296463061329
 20
698.37890311418164
 11
1088.879646306134
 21
698.69644811418152
  0
LINE
  8
_0-3_躯体と製品
  6
CONTINUOUS
 62
    7
 10
1088.879646306134
 20
698.69644811418152
 11
1088.879646306134
 21
699.41911211417664
  0
LINE
  8
_0-3_躯体と製品
  6
CONTINUOUS
 62
    7
 10
1088.879646306134
 20
698.06136311418368
 11
1091.2796463061336
 21
698.76691811418368
  0
LINE
  8
_0-3_躯体と製品
  6
CONTINUOUS
 62
    7
 10
1088.879646306134
 20
698.06136311418368
 11
1088.3296463061329
 21
698.37890311418164
  0
LINE
  8
_0-3_躯体と製品
  6
CONTINUOUS
 62
    7
 10
1088.3296463061329
 20
698.37890311418164
 11
1091.8296463061338
 21
699.08445811418369
  0
LINE
  8
_0-3_躯体と製品
  6
CONTINUOUS
 62
    7
 10
1091.8296463061338
 20
699.08445811418369
 11
1091.2796463061336
 21
699.40200311418153
  0
LINE
  8
_0-3_躯体と製品
  6
CONTINUOUS
 62
    7
 10
1091.2796463061336
 20
699.40200311418153
 11
1091.2796463061336
 21
699.41911211417664
  0
INSERT
  2
-001-_D10
  8
_0-2_寸法
 10
-1796.5960052642022
 20
-676.3577612858744
 41
1
 42
1
 50
0
  0
INSERT
  2
-002-_D11
  8
_0-2_寸法
 10
-1796.5960052642022
 20
-676.3577612858744
 41
1
 42
1
 50
0
  0
LINE
  8
_0-4_文字-記号
  6
CONTINUOUS
 62
    7
 10
1073.0796463061197
 20
500.51911211419156
 11
1051.207631629266
 21
515.91387211419169
  0
LINE
  8
_0-4_文字-記号
  6
CONTINUOUS
 62
    7
 10
1051.207631629266
 20
515.91387211419169
 11
1019.8279164890187
 21
515.91387211419169
  0
TEXT
  8
_0-4_文字-記号
 62
    7
 10
1021.3617933932419
 20
518.46794211419069
 40
8
 41
0.8
 50
0
  1
支持脚
  0
LINE
  8
_0-4_文字-記号
  6
CONTINUOUS
 62
    7
 10
1116.7360779336218
 20
648.01911211418769
 11
1127.9020299336216
 21
628.67911611418754
  0
LINE
  8
_0-4_文字-記号
  6
CONTINUOUS
 62
    7
 10
1127.9020299336216
 20
628.67911611418754
 11
1169.1315309336219
 21
628.67911611418754
  0
TEXT
  8
_0-4_文字-記号
 62
    7
 10
1130.1758239336218
 20
631.06855111418758
 40
8
 41
0.8
 50
0
  1
受け金具
  0
LINE
  8
_0-3_躯体と製品
  6
CONTINUOUS
 62
    7
 10
1069.0796463061338
 20
640.71911211419751
 11
1093.0796463061338
 21
640.71911211419751
  0
ARC
  8
_0-3_躯体と製品
  6
CONTINUOUS
 62
    7
 10
1069.0796463061338
 20
645.71911211419751
 40
5
 50
216.86989900037977
 51
323.13010699988541
  0
LINE
  8
_0-3_躯体と製品
  6
CONTINUOUS
 62
    7
 10
1065.0796463061338
 20
648.01911211420065
 11
1065.0796463061338
 21
642.71911211419751
  0
LINE
  8
_0-3_躯体と製品
  6
CONTINUOUS
 62
    7
 10
1097.0796463061338
 20
648.01911211420065
 11
1097.0796463061338
 21
642.71911211419751
  0
LINE
  8
_0-3_躯体と製品
  6
CONTINUOUS
 62
    7
 10
1089.0796463061338
 20
642.73811211419866
 11
1089.0796463061338
 21
648.01911211420065
  0
LINE
  8
_0-3_躯体と製品
  6
CONTINUOUS
 62
    7
 10
1089.0796463061338
 20
642.71911211419751
 11
1089.0796463061338
 21
648.01911211420065
  0
LINE
  8
_0-3_躯体と製品
  6
CONTINUOUS
 62
    7
 10
1073.0796463061338
 20
642.73811211419866
 11
1073.0796463061338
 21
648.01911211420065
  0
LINE
  8
_0-3_躯体と製品
  6
CONTINUOUS
 62
    7
 10
1073.0796463061338
 20
642.71911211419751
 11
1073.0796463061338
 21
648.01911211420065
  0
ARC
  8
_0-3_躯体と製品
  6
CONTINUOUS
 62
    7
 10
1093.0796463061338
 20
645.71911211419751
 40
5
 50
216.86989900037977
 51
323.13010699988541
  0
ARC
  8
_0-3_躯体と製品
  6
CONTINUOUS
 62
    7
 10
1081.0796463061338
 20
657.71911211419751
 40
17
 50
241.92751499983854
 51
298.0724910004493
  0
LINE
  8
_0-3_躯体と製品
  6
CONTINUOUS
 62
    7
 10
1089.0796463061197
 20
354.6191121141826
 11
1089.0796463061188
 21
640.71911211419751
  0
LINE
  8
_0-3_躯体と製品
  6
CONTINUOUS
 62
    7
 10
1087.5796463061047
 20
354.6191121141826
 11
1087.5796463061047
 21
640.71911211419751
  0
LINE
  8
_0-3_躯体と製品
  6
CONTINUOUS
 62
    7
 10
1074.579646306132
 20
354.6191121141826
 11
1074.5796463061347
 21
640.71911211419751
  0
LINE
  8
_0-3_躯体と製品
  6
CONTINUOUS
 62
    7
 10
1073.0796463061197
 20
354.6191121141826
 11
1073.0796463061188
 21
640.71911211419751
  0
LINE
  8
_0-3_躯体と製品
  6
CONTINUOUS
 62
    7
 10
1081.0785349462208
 20
662.01911211418269
 11
1080.5011846770308
 21
661.01911211418269
  0
LINE
  8
_0-3_躯体と製品
  6
CONTINUOUS
 62
    7
 10
1082.8105857537889
 20
662.01911211418269
 11
1082.2332354845998
 21
661.01911211418269
  0
LINE
  8
_0-3_躯体と製品
  6
CONTINUOUS
 62
    7
 10
1066.0796471963326
 20
661.01911211418269
 11
1066.0796471963326
 21
662.01911211418269
  0
LINE
  8
_0-3_躯体と製品
  6
CONTINUOUS
 62
    7
 10
1066.0796471963326
 20
662.01911211418269
 11
1096.0796471963326
 21
662.01911211418269
  0
LINE
  8
_0-3_躯体と製品
  6
CONTINUOUS
 62
    7
 10
1096.0796471963326
 20
662.01911211418269
 11
1096.0796471963326
 21
661.01911211418269
  0
ARC
  8
_0-3_躯体と製品
  6
CONTINUOUS
 62
    7
 10
1069.079648086547
 20
666.02104012978157
 40
5
 50
36.869899000379768
 51
143.13010699988519
  0
LINE
  8
_0-3_躯体と製品
  6
CONTINUOUS
 62
    7
 10
1093.079648086547
 20
671.02104012978157
 11
1069.079648086547
 21
671.02104012978157
  0
ARC
  8
_0-3_躯体と製品
  6
CONTINUOUS
 62
    7
 10
1069.079648086547
 20
667.02104012978157
 40
5
 50
216.86989300011481
 51
323.13010099962031
  0
LINE
  8
_0-3_躯体と製品
  6
CONTINUOUS
 62
    7
 10
1093.079648086547
 20
662.02104012978157
 11
1069.079648086547
 21
662.02104012978157
  0
LINE
  8
_0-3_躯体と製品
  6
CONTINUOUS
 62
    7
 10
1065.079648086547
 20
664.02104012978157
 11
1065.079648086547
 21
669.02104012978157
  0
LINE
  8
_0-3_躯体と製品
  6
CONTINUOUS
 62
    7
 10
1089.0796478432967
 20
664.02104045411465
 11
1089.0796478432967
 21
669.02103980544871
  0
LINE
  8
_0-3_躯体と製品
  6
CONTINUOUS
 62
    7
 10
1073.0796470224227
 20
664.02104069730649
 11
1073.0796470224227
 21
669.02103956225756
  0
LINE
  8
_0-3_躯体と製品
  6
CONTINUOUS
 62
    7
 10
1097.079648086547
 20
664.02104012978157
 11
1097.079648086547
 21
669.02104012978157
  0
ARC
  8
_0-3_躯体と製品
  6
CONTINUOUS
 62
    7
 10
1081.079648086547
 20
654.02104012978157
 40
17
 50
61.927514999838628
 51
118.07249100044911
  0
ARC
  8
_0-3_躯体と製品
  6
CONTINUOUS
 62
    7
 10
1093.079648086547
 20
666.02104012978157
 40
5
 50
36.869899000379768
 51
143.13010699988519
  0
ARC
  8
_0-3_躯体と製品
  6
CONTINUOUS
 62
    7
 10
1081.079648086547
 20
679.02104012978157
 40
17
 50
241.92750899955081
 51
298.07248500016141
  0
ARC
  8
_0-3_躯体と製品
  6
CONTINUOUS
 62
    7
 10
1093.079648086547
 20
667.02104012978157
 40
5
 50
216.86989300011481
 51
323.13010099962031
  0
LINE
  8
_0-3_躯体と製品
  6
CONTINUOUS
 62
    7
 10
573.2812402934569
 20
354.6191106308595
 11
573.28124029345872
 21
640.71911211418251
  0
LINE
  8
_0-3_躯体と製品
  6
CONTINUOUS
 62
    7
 10
571.78124029344463
 20
354.5748559845465
 11
571.78124029344372
 21
640.76337007891652
  0
LINE
  8
_0-3_躯体と製品
  6
CONTINUOUS
 62
    7
 10
586.28124029342962
 20
354.6191106308595
 11
586.28124029342962
 21
640.71911211418251
  0
LINE
  8
_0-3_躯体と製品
  6
CONTINUOUS
 62
    7
 10
587.78124029344463
 20
354.57484836337267
 11
587.78124029344372
 21
640.7633700789147
  0
LINE
  8
_0-3_躯体と製品
  6
CONTINUOUS
 62
    7
 10
579.78124029345872
 20
642.71668960460852
 11
579.78124029345872
 21
648.01911211418565
  0
LINE
  8
_0-3_躯体と製品
  6
CONTINUOUS
 62
    7
 10
593.63764675399671
 20
648.01911211418565
 11
593.63764675399989
 21
642.7190877294845
  0
LINE
  8
_0-3_躯体と製品
  6
CONTINUOUS
 62
    7
 10
565.92483383290573
 20
648.01911211419451
 11
565.92483383290892
 21
642.71908772949359
  0
ARC
  8
_0-3_躯体と製品
  6
CONTINUOUS
 62
    7
 10
572.85303706318882
 20
653.71911211421661
 40
13.00000000003377
 50
237.7957724959906
 51
302.20422750392947
  0
ARC
  8
_0-3_躯体と製品
  6
CONTINUOUS
 62
    7
 10
586.70944352372771
 20
653.71911211420365
 40
13.00000000002024
 50
237.79577249605677
 51
302.20422750394278
  0
LINE
  8
_0-3_躯体と製品
  6
CONTINUOUS
 62
    7
 10
572.85303706317973
 20
640.71911211418251
 11
586.70944352372771
 21
640.71911211418251
  0
TEXT
  8
_0-4_文字-記号
 62
    7
 10
602.18675064927766
 20
453.97304970723553
 40
8
 41
0.8
 50
0
  1
Ｍ１６
  0
LINE
  8
_0-4_文字-記号
  6
CONTINUOUS
 62
    7
 10
587.78124029344372
 20
444.9325961113525
 11
599.30872787560793
 21
453.04629333368462
  0
LINE
  8
_0-4_文字-記号
  6
CONTINUOUS
 62
    7
 10
599.30872787560793
 20
453.04629333368462
 11
623.73798252711276
 21
453.04629333368462
  0
TEXT
  8
_0-4_文字-記号
 62
    7
 10
1103.4851566619527
 20
453.97304970723553
 40
8
 41
0.8
 50
0
  1
Ｍ１６
  0
LINE
  8
_0-4_文字-記号
  6
CONTINUOUS
 62
    7
 10
1089.0796463061197
 20
444.9325961113525
 11
1100.607133888283
 21
453.04629333368462
  0
LINE
  8
_0-4_文字-記号
  6
CONTINUOUS
 62
    7
 10
1100.607133888283
 20
453.04629333368462
 11
1125.0363885397878
 21
453.04629333368462
  0
TEXT
  8
_0-4_文字-記号
 62
    7
 10
1048.0479644620978
 20
225.28927764235061
 40
10
 41
0.8
 50
0
  1
（根太ピッチ）
  0
INSERT
  2
-014-_D24
  8
_0-2_寸法
 10
-1796.5960052642022
 20
-676.3577612858744
 41
1
 42
1
 50
0
  0
INSERT
  2
-015-_D25
  8
_0-2_寸法
 10
-1796.5960052642022
 20
-676.3577612858744
 41
1
 42
1
 50
0
  0
TEXT
  8
_0-4_文字-記号
 62
    7
 10
542.44789196012471
 20
225.28927764235448
 40
10
 41
0.8
 50
0
  1
（支持脚ピッチ）
  0
INSERT
  2
-016-_D26
  8
_0-2_寸法
 10
-1796.5960052642022
 20
-676.3577612858744
 41
1
 42
1
 50
0
  0
INSERT
  2
-017-_D27
  8
_0-2_寸法
 10
-1796.5960052642022
 20
-676.3577612858744
 41
1
 42
1
 50
0
  0
LINE
  8
_0-3_躯体と製品
  6
CONTINUOUS
 62
    7
 10
782.75629546495065
 20
319.01911211418258
 11
376.80618512193496
 21
319.01911211418303
  0
LINE
  8
_0-3_躯体と製品
  6
CONTINUOUS
 62
    7
 10
782.75629546495065
 20
323.01911211418314
 11
376.80618512193496
 21
323.01911211418337
  0
LINE
  8
_0-3_躯体と製品
  6
CONTINUOUS
 62
    7
 10
679.78124029345963
 20
329.01911211418258
 11
479.78124029345872
 21
329.01911211418258
  0
LINE
  8
_0-3_躯体と製品
  6
CONTINUOUS
 62
    7
 10
480.2467152934596
 20
299.01911211418292
 11
500.2467152934596
 21
319.01911211418303
  0
LINE
  8
_0-3_躯体と製品
  6
CONTINUOUS
 62
    7
 10
474.58986529345884
 20
299.01911211418292
 11
494.58986529345884
 21
319.01911211418303
  0
LINE
  8
_0-3_躯体と製品
  6
CONTINUOUS
 62
    7
 10
468.93301029346003
 20
299.01911211418292
 11
488.93301029346003
 21
319.01911211418303
  0
LINE
  8
_0-3_躯体と製品
  6
CONTINUOUS
 62
    7
 10
648.33714029345902
 20
299.01911211418292
 11
668.33714029345902
 21
319.01911211418303
  0
LINE
  8
_0-3_躯体と製品
  6
CONTINUOUS
 62
    7
 10
642.68028529345884
 20
299.01911211418292
 11
662.68028529345975
 21
319.01911211418303
  0
LINE
  8
_0-3_躯体と製品
  6
CONTINUOUS
 62
    7
 10
653.99399529345874
 20
299.01911211418292
 11
673.99399529345874
 21
319.01911211418303
  0
LINE
  8
_0-3_躯体と製品
  6
CONTINUOUS
 62
    7
 10
1233.4055851533626
 20
323.01911211418337
 11
904.52047392966779
 21
323.01911211418337
  0
LINE
  8
_0-3_躯体と製品
  6
CONTINUOUS
 62
    7
 10
1233.4055851533626
 20
319.01911211418303
 11
904.52047392966779
 21
319.01911211418303
  0
LINE
  8
_0-3_躯体と製品
  6
CONTINUOUS
 62
    7
 10
994.0796713061336
 20
319.01911211418303
 11
994.0796713061336
 21
323.01911211418337
  0
LINE
  8
_0-3_躯体と製品
  6
CONTINUOUS
 62
    7
 10
997.0796713061336
 20
319.01911211418303
 11
997.0796713061336
 21
323.01911211418337
  0
LINE
  8
_0-3_躯体と製品
  6
CONTINUOUS
 62
    7
 10
982.0796713061336
 20
319.01911211418303
 11
982.0796713061336
 21
323.01911211418337
  0
LINE
  8
_0-3_躯体と製品
  6
CONTINUOUS
 62
    7
 10
985.0796713061336
 20
319.01911211418303
 11
985.0796713061336
 21
323.01911211418337
  0
LINE
  8
_0-3_躯体と製品
  6
CONTINUOUS
 62
    7
 10
988.07967130613497
 20
319.01911211418303
 11
988.07967130613497
 21
323.01911211418337
  0
LINE
  8
_0-3_躯体と製品
  6
CONTINUOUS
 62
    7
 10
991.0796713061336
 20
319.01911211418303
 11
991.0796713061336
 21
323.01911211418337
  0
LINE
  8
_0-3_躯体と製品
  6
CONTINUOUS
 62
    7
 10
1033.079671306135
 20
319.01911211418303
 11
1033.079671306135
 21
323.01911211418337
  0
LINE
  8
_0-3_躯体と製品
  6
CONTINUOUS
 62
    7
 10
1036.0796713061336
 20
319.01911211418303
 11
1036.0796713061336
 21
323.01911211418337
  0
LINE
  8
_0-3_躯体と製品
  6
CONTINUOUS
 62
    7
 10
1039.0796713061336
 20
319.01911211418303
 11
1039.0796713061336
 21
323.01911211418337
  0
LINE
  8
_0-3_躯体と製品
  6
CONTINUOUS
 62
    7
 10
1042.0796713061336
 20
319.01911211418303
 11
1042.0796713061336
 21
323.01911211418337
  0
LINE
  8
_0-3_躯体と製品
  6
CONTINUOUS
 62
    7
 10
1024.0796713061336
 20
319.01911211418303
 11
1024.0796713061336
 21
323.01911211418337
  0
LINE
  8
_0-3_躯体と製品
  6
CONTINUOUS
 62
    7
 10
1027.0796713061336
 20
319.01911211418303
 11
1027.0796713061336
 21
323.01911211418337
  0
LINE
  8
_0-3_躯体と製品
  6
CONTINUOUS
 62
    7
 10
1030.079671306135
 20
319.01911211418303
 11
1030.079671306135
 21
323.01911211418337
  0
LINE
  8
_0-3_躯体と製品
  6
CONTINUOUS
 62
    7
 10
1012.079671306135
 20
319.01911211418303
 11
1012.079671306135
 21
323.01911211418337
  0
LINE
  8
_0-3_躯体と製品
  6
CONTINUOUS
 62
    7
 10
1015.079671306135
 20
319.01911211418303
 11
1015.079671306135
 21
323.01911211418337
  0
LINE
  8
_0-3_躯体と製品
  6
CONTINUOUS
 62
    7
 10
1018.079671306135
 20
319.01911211418303
 11
1018.079671306135
 21
323.01911211418337
  0
LINE
  8
_0-3_躯体と製品
  6
CONTINUOUS
 62
    7
 10
1021.079671306135
 20
319.01911211418303
 11
1021.079671306135
 21
323.01911211418337
  0
LINE
  8
_0-3_躯体と製品
  6
CONTINUOUS
 62
    7
 10
1003.079671306135
 20
319.01911211418303
 11
1003.079671306135
 21
323.01911211418337
  0
LINE
  8
_0-3_躯体と製品
  6
CONTINUOUS
 62
    7
 10
1006.0796713061336
 20
319.01911211418303
 11
1006.0796713061336
 21
323.01911211418337
  0
LINE
  8
_0-3_躯体と製品
  6
CONTINUOUS
 62
    7
 10
1009.0796713061336
 20
319.01911211418303
 11
1009.0796713061336
 21
323.01911211418337
  0
LINE
  8
_0-3_躯体と製品
  6
CONTINUOUS
 62
    7
 10
1000.0796713061336
 20
319.01911211418303
 11
1000.0796713061336
 21
323.01911211418337
  0
LINE
  8
_0-3_躯体と製品
  6
CONTINUOUS
 62
    7
 10
1090.0796713061336
 20
319.01911211418303
 11
1090.0796713061336
 21
323.01911211418337
  0
LINE
  8
_0-3_躯体と製品
  6
CONTINUOUS
 62
    7
 10
1087.0796713061336
 20
319.01911211418303
 11
1087.0796713061336
 21
323.01911211418337
  0
LINE
  8
_0-3_躯体と製品
  6
CONTINUOUS
 62
    7
 10
1084.0796713061336
 20
319.01911211418303
 11
1084.0796713061336
 21
323.01911211418337
  0
LINE
  8
_0-3_躯体と製品
  6
CONTINUOUS
 62
    7
 10
1075.0796713061336
 20
319.01911211418303
 11
1075.0796713061336
 21
323.01911211418337
  0
LINE
  8
_0-3_躯体と製品
  6
CONTINUOUS
 62
    7
 10
1081.079671306135
 20
319.01911211418303
 11
1081.079671306135
 21
323.01911211418337
  0
LINE
  8
_0-3_躯体と製品
  6
CONTINUOUS
 62
    7
 10
1078.079671306135
 20
319.01911211418303
 11
1078.079671306135
 21
323.01911211418337
  0
LINE
  8
_0-3_躯体と製品
  6
CONTINUOUS
 62
    7
 10
1066.0796713061336
 20
319.01911211418303
 11
1066.0796713061336
 21
323.01911211418337
  0
LINE
  8
_0-3_躯体と製品
  6
CONTINUOUS
 62
    7
 10
1069.0796713061336
 20
319.01911211418303
 11
1069.0796713061336
 21
323.01911211418337
  0
LINE
  8
_0-3_躯体と製品
  6
CONTINUOUS
 62
    7
 10
1072.079671306135
 20
319.01911211418303
 11
1072.079671306135
 21
323.01911211418337
  0
LINE
  8
_0-3_躯体と製品
  6
CONTINUOUS
 62
    7
 10
1054.0796713061336
 20
319.01911211418303
 11
1054.0796713061336
 21
323.01911211418337
  0
LINE
  8
_0-3_躯体と製品
  6
CONTINUOUS
 62
    7
 10
1057.0796713061336
 20
319.01911211418303
 11
1057.0796713061336
 21
323.01911211418337
  0
LINE
  8
_0-3_躯体と製品
  6
CONTINUOUS
 62
    7
 10
1060.079671306135
 20
319.01911211418303
 11
1060.079671306135
 21
323.01911211418337
  0
LINE
  8
_0-3_躯体と製品
  6
CONTINUOUS
 62
    7
 10
1063.079671306135
 20
319.01911211418303
 11
1063.079671306135
 21
323.01911211418337
  0
LINE
  8
_0-3_躯体と製品
  6
CONTINUOUS
 62
    7
 10
1045.0796713061336
 20
319.01911211418303
 11
1045.0796713061336
 21
323.01911211418337
  0
LINE
  8
_0-3_躯体と製品
  6
CONTINUOUS
 62
    7
 10
1048.079671306135
 20
319.01911211418303
 11
1048.079671306135
 21
323.01911211418337
  0
LINE
  8
_0-3_躯体と製品
  6
CONTINUOUS
 62
    7
 10
1051.0796713061336
 20
319.01911211418303
 11
1051.0796713061336
 21
323.01911211418337
  0
LINE
  8
_0-3_躯体と製品
  6
CONTINUOUS
 62
    7
 10
1135.0796713061336
 20
319.01911211418303
 11
1135.0796713061336
 21
323.01911211418337
  0
LINE
  8
_0-3_躯体と製品
  6
CONTINUOUS
 62
    7
 10
1132.0796713061336
 20
319.01911211418303
 11
1132.0796713061336
 21
323.01911211418337
  0
LINE
  8
_0-3_躯体と製品
  6
CONTINUOUS
 62
    7
 10
1129.0796713061336
 20
319.01911211418303
 11
1129.0796713061336
 21
323.01911211418337
  0
LINE
  8
_0-3_躯体と製品
  6
CONTINUOUS
 62
    7
 10
1126.079671306135
 20
319.01911211418303
 11
1126.079671306135
 21
323.01911211418337
  0
LINE
  8
_0-3_躯体と製品
  6
CONTINUOUS
 62
    7
 10
1123.079671306135
 20
319.01911211418303
 11
1123.079671306135
 21
323.01911211418337
  0
LINE
  8
_0-3_躯体と製品
  6
CONTINUOUS
 62
    7
 10
1120.0796713061336
 20
319.01911211418303
 11
1120.0796713061336
 21
323.01911211418337
  0
LINE
  8
_0-3_躯体と製品
  6
CONTINUOUS
 62
    7
 10
1117.079671306135
 20
319.01911211418303
 11
1117.079671306135
 21
323.01911211418337
  0
LINE
  8
_0-3_躯体と製品
  6
CONTINUOUS
 62
    7
 10
1114.0796713061336
 20
319.01911211418303
 11
1114.0796713061336
 21
323.01911211418337
  0
LINE
  8
_0-3_躯体と製品
  6
CONTINUOUS
 62
    7
 10
1111.0796713061336
 20
319.01911211418303
 11
1111.0796713061336
 21
323.01911211418337
  0
LINE
  8
_0-3_躯体と製品
  6
CONTINUOUS
 62
    7
 10
1108.079671306135
 20
319.01911211418303
 11
1108.079671306135
 21
323.01911211418337
  0
LINE
  8
_0-3_躯体と製品
  6
CONTINUOUS
 62
    7
 10
1105.079671306135
 20
319.01911211418303
 11
1105.079671306135
 21
323.01911211418337
  0
LINE
  8
_0-3_躯体と製品
  6
CONTINUOUS
 62
    7
 10
1102.0796713061336
 20
319.01911211418303
 11
1102.0796713061336
 21
323.01911211418337
  0
LINE
  8
_0-3_躯体と製品
  6
CONTINUOUS
 62
    7
 10
1099.0796713061336
 20
319.01911211418303
 11
1099.0796713061336
 21
323.01911211418337
  0
LINE
  8
_0-3_躯体と製品
  6
CONTINUOUS
 62
    7
 10
1096.0796713061336
 20
319.01911211418303
 11
1096.0796713061336
 21
323.01911211418337
  0
LINE
  8
_0-3_躯体と製品
  6
CONTINUOUS
 62
    7
 10
1093.079671306135
 20
319.01911211418303
 11
1093.079671306135
 21
323.01911211418337
  0
LINE
  8
_0-3_躯体と製品
  6
CONTINUOUS
 62
    7
 10
1180.0796713061336
 20
319.01911211418303
 11
1180.0796713061336
 21
323.01911211418337
  0
LINE
  8
_0-3_躯体と製品
  6
CONTINUOUS
 62
    7
 10
1177.0796713061336
 20
319.01911211418303
 11
1177.0796713061336
 21
323.01911211418337
  0
LINE
  8
_0-3_躯体と製品
  6
CONTINUOUS
 62
    7
 10
1174.0796713061336
 20
319.01911211418303
 11
1174.0796713061336
 21
323.01911211418337
  0
LINE
  8
_0-3_躯体と製品
  6
CONTINUOUS
 62
    7
 10
1171.079671306135
 20
319.01911211418303
 11
1171.079671306135
 21
323.01911211418337
  0
LINE
  8
_0-3_躯体と製品
  6
CONTINUOUS
 62
    7
 10
1168.079671306135
 20
319.01911211418303
 11
1168.079671306135
 21
323.01911211418337
  0
LINE
  8
_0-3_躯体と製品
  6
CONTINUOUS
 62
    7
 10
1165.079671306135
 20
319.01911211418303
 11
1165.079671306135
 21
323.01911211418337
  0
LINE
  8
_0-3_躯体と製品
  6
CONTINUOUS
 62
    7
 10
1162.079671306135
 20
319.01911211418303
 11
1162.079671306135
 21
323.01911211418337
  0
LINE
  8
_0-3_躯体と製品
  6
CONTINUOUS
 62
    7
 10
1159.0796713061336
 20
319.01911211418303
 11
1159.0796713061336
 21
323.01911211418337
  0
LINE
  8
_0-3_躯体と製品
  6
CONTINUOUS
 62
    7
 10
1156.079671306135
 20
319.01911211418303
 11
1156.079671306135
 21
323.01911211418337
  0
LINE
  8
_0-3_躯体と製品
  6
CONTINUOUS
 62
    7
 10
1153.079671306135
 20
319.01911211418303
 11
1153.079671306135
 21
323.01911211418337
  0
LINE
  8
_0-3_躯体と製品
  6
CONTINUOUS
 62
    7
 10
1150.0796713061336
 20
319.01911211418303
 11
1150.0796713061336
 21
323.01911211418337
  0
LINE
  8
_0-3_躯体と製品
  6
CONTINUOUS
 62
    7
 10
1147.0796713061336
 20
319.01911211418303
 11
1147.0796713061336
 21
323.01911211418337
  0
LINE
  8
_0-3_躯体と製品
  6
CONTINUOUS
 62
    7
 10
1144.0796713061327
 20
319.01911211418303
 11
1144.0796713061327
 21
323.01911211418337
  0
LINE
  8
_0-3_躯体と製品
  6
CONTINUOUS
 62
    7
 10
1141.0796713061336
 20
319.01911211418303
 11
1141.0796713061336
 21
323.01911211418337
  0
LINE
  8
_0-3_躯体と製品
  6
CONTINUOUS
 62
    7
 10
1138.079671306135
 20
319.01911211418303
 11
1138.079671306135
 21
323.01911211418337
  0
LINE
  8
_0-3_躯体と製品
  6
CONTINUOUS
 62
    7
 10
1210.079671306135
 20
319.01911211418303
 11
1210.079671306135
 21
323.01911211418337
  0
LINE
  8
_0-3_躯体と製品
  6
CONTINUOUS
 62
    7
 10
1207.0796713061336
 20
319.01911211418303
 11
1207.0796713061336
 21
323.01911211418337
  0
LINE
  8
_0-3_躯体と製品
  6
CONTINUOUS
 62
    7
 10
1204.0796713061327
 20
319.01911211418303
 11
1204.0796713061327
 21
323.01911211418337
  0
LINE
  8
_0-3_躯体と製品
  6
CONTINUOUS
 62
    7
 10
1201.079671306135
 20
319.01911211418303
 11
1201.079671306135
 21
323.01911211418337
  0
LINE
  8
_0-3_躯体と製品
  6
CONTINUOUS
 62
    7
 10
1198.0796713061359
 20
319.01911211418303
 11
1198.0796713061359
 21
323.01911211418337
  0
LINE
  8
_0-3_躯体と製品
  6
CONTINUOUS
 62
    7
 10
1195.0796713061336
 20
319.01911211418303
 11
1195.0796713061336
 21
323.01911211418337
  0
LINE
  8
_0-3_躯体と製品
  6
CONTINUOUS
 62
    7
 10
1192.0796713061336
 20
319.01911211418303
 11
1192.0796713061336
 21
323.01911211418337
  0
LINE
  8
_0-3_躯体と製品
  6
CONTINUOUS
 62
    7
 10
1189.0796713061327
 20
319.01911211418303
 11
1189.0796713061327
 21
323.01911211418337
  0
LINE
  8
_0-3_躯体と製品
  6
CONTINUOUS
 62
    7
 10
1186.0796713061336
 20
319.01911211418303
 11
1186.0796713061336
 21
323.01911211418337
  0
LINE
  8
_0-3_躯体と製品
  6
CONTINUOUS
 62
    7
 10
1183.079671306135
 20
319.01911211418303
 11
1183.079671306135
 21
323.01911211418337
  0
LINE
  8
_0-3_躯体と製品
  6
CONTINUOUS
 62
    7
 10
1231.0796713061336
 20
319.01911211418303
 11
1231.0796713061336
 21
323.01911211418337
  0
LINE
  8
_0-3_躯体と製品
  6
CONTINUOUS
 62
    7
 10
1228.079671306135
 20
319.01911211418303
 11
1228.079671306135
 21
323.01911211418337
  0
LINE
  8
_0-3_躯体と製品
  6
CONTINUOUS
 62
    7
 10
1225.0796713061336
 20
319.01911211418303
 11
1225.0796713061336
 21
323.01911211418337
  0
LINE
  8
_0-3_躯体と製品
  6
CONTINUOUS
 62
    7
 10
1222.079671306135
 20
319.01911211418303
 11
1222.079671306135
 21
323.01911211418337
  0
LINE
  8
_0-3_躯体と製品
  6
CONTINUOUS
 62
    7
 10
1219.0796713061336
 20
319.01911211418303
 11
1219.0796713061336
 21
323.01911211418337
  0
LINE
  8
_0-3_躯体と製品
  6
CONTINUOUS
 62
    7
 10
1216.0796713061336
 20
319.01911211418303
 11
1216.0796713061336
 21
323.01911211418337
  0
LINE
  8
_0-3_躯体と製品
  6
CONTINUOUS
 62
    7
 10
1213.079671306135
 20
319.01911211418303
 11
1213.079671306135
 21
323.01911211418337
  0
LINE
  8
_0-3_躯体と製品
  6
CONTINUOUS
 62
    7
 10
955.0796713061336
 20
319.01911211418303
 11
955.0796713061336
 21
323.01911211418337
  0
LINE
  8
_0-3_躯体と製品
  6
CONTINUOUS
 62
    7
 10
958.0796713061336
 20
319.01911211418303
 11
958.0796713061336
 21
323.01911211418337
  0
LINE
  8
_0-3_躯体と製品
  6
CONTINUOUS
 62
    7
 10
943.0796713061336
 20
319.01911211418303
 11
943.0796713061336
 21
323.01911211418337
  0
LINE
  8
_0-3_躯体と製品
  6
CONTINUOUS
 62
    7
 10
946.0796713061336
 20
319.01911211418303
 11
946.0796713061336
 21
323.01911211418337
  0
LINE
  8
_0-3_躯体と製品
  6
CONTINUOUS
 62
    7
 10
949.07967130613497
 20
319.01911211418303
 11
949.07967130613497
 21
323.01911211418337
  0
LINE
  8
_0-3_躯体と製品
  6
CONTINUOUS
 62
    7
 10
952.0796713061336
 20
319.01911211418303
 11
952.0796713061336
 21
323.01911211418337
  0
LINE
  8
_0-3_躯体と製品
  6
CONTINUOUS
 62
    7
 10
973.0796713061336
 20
319.01911211418303
 11
973.0796713061336
 21
323.01911211418337
  0
LINE
  8
_0-3_躯体と製品
  6
CONTINUOUS
 62
    7
 10
976.07967130613497
 20
319.01911211418303
 11
976.07967130613497
 21
323.01911211418337
  0
LINE
  8
_0-3_躯体と製品
  6
CONTINUOUS
 62
    7
 10
979.07967130613497
 20
319.01911211418303
 11
979.07967130613497
 21
323.01911211418337
  0
LINE
  8
_0-3_躯体と製品
  6
CONTINUOUS
 62
    7
 10
964.07967130613497
 20
319.01911211418303
 11
964.07967130613497
 21
323.01911211418337
  0
LINE
  8
_0-3_躯体と製品
  6
CONTINUOUS
 62
    7
 10
967.07967130613497
 20
319.01911211418303
 11
967.07967130613497
 21
323.01911211418337
  0
LINE
  8
_0-3_躯体と製品
  6
CONTINUOUS
 62
    7
 10
970.0796713061336
 20
319.01911211418303
 11
970.0796713061336
 21
323.01911211418337
  0
LINE
  8
_0-3_躯体と製品
  6
CONTINUOUS
 62
    7
 10
961.0796713061336
 20
319.01911211418303
 11
961.0796713061336
 21
323.01911211418337
  0
LINE
  8
_0-3_躯体と製品
  6
CONTINUOUS
 62
    7
 10
916.0796713061336
 20
319.01911211418303
 11
916.0796713061336
 21
323.01911211418337
  0
LINE
  8
_0-3_躯体と製品
  6
CONTINUOUS
 62
    7
 10
919.07967130613497
 20
319.01911211418303
 11
919.07967130613497
 21
323.01911211418337
  0
LINE
  8
_0-3_躯体と製品
  6
CONTINUOUS
 62
    7
 10
907.0796713061336
 20
319.01911211418303
 11
907.0796713061336
 21
323.01911211418337
  0
LINE
  8
_0-3_躯体と製品
  6
CONTINUOUS
 62
    7
 10
910.07967130613497
 20
319.01911211418303
 11
910.07967130613497
 21
323.01911211418337
  0
LINE
  8
_0-3_躯体と製品
  6
CONTINUOUS
 62
    7
 10
913.0796713061336
 20
319.01911211418303
 11
913.0796713061336
 21
323.01911211418337
  0
LINE
  8
_0-3_躯体と製品
  6
CONTINUOUS
 62
    7
 10
934.0796713061336
 20
319.01911211418303
 11
934.0796713061336
 21
323.01911211418337
  0
LINE
  8
_0-3_躯体と製品
  6
CONTINUOUS
 62
    7
 10
937.0796713061336
 20
319.01911211418303
 11
937.0796713061336
 21
323.01911211418337
  0
LINE
  8
_0-3_躯体と製品
  6
CONTINUOUS
 62
    7
 10
940.07967130613497
 20
319.01911211418303
 11
940.07967130613497
 21
323.01911211418337
  0
LINE
  8
_0-3_躯体と製品
  6
CONTINUOUS
 62
    7
 10
925.07967130613497
 20
319.01911211418303
 11
925.07967130613497
 21
323.01911211418337
  0
LINE
  8
_0-3_躯体と製品
  6
CONTINUOUS
 62
    7
 10
928.07967130613497
 20
319.01911211418303
 11
928.07967130613497
 21
323.01911211418337
  0
LINE
  8
_0-3_躯体と製品
  6
CONTINUOUS
 62
    7
 10
931.0796713061336
 20
319.01911211418303
 11
931.0796713061336
 21
323.01911211418337
  0
LINE
  8
_0-3_躯体と製品
  6
CONTINUOUS
 62
    7
 10
922.07967130613497
 20
319.01911211418303
 11
922.07967130613497
 21
323.01911211418337
  0
LINE
  8
_0-3_躯体と製品
  6
CONTINUOUS
 62
    7
 10
492.78124029345872
 20
319.01911211418258
 11
492.78124029345872
 21
323.01911211418314
  0
LINE
  8
_0-3_躯体と製品
  6
CONTINUOUS
 62
    7
 10
495.78124029345872
 20
319.01911211418258
 11
495.78124029345872
 21
323.01911211418314
  0
LINE
  8
_0-3_躯体と製品
  6
CONTINUOUS
 62
    7
 10
480.78124029345963
 20
319.01911211418258
 11
480.78124029345963
 21
323.01911211418314
  0
LINE
  8
_0-3_躯体と製品
  6
CONTINUOUS
 62
    7
 10
483.78124029345872
 20
319.01911211418258
 11
483.78124029345872
 21
323.01911211418314
  0
LINE
  8
_0-3_躯体と製品
  6
CONTINUOUS
 62
    7
 10
486.78124029345963
 20
319.01911211418258
 11
486.78124029345963
 21
323.01911211418314
  0
LINE
  8
_0-3_躯体と製品
  6
CONTINUOUS
 62
    7
 10
489.78124029345963
 20
319.01911211418258
 11
489.78124029345963
 21
323.01911211418314
  0
LINE
  8
_0-3_躯体と製品
  6
CONTINUOUS
 62
    7
 10
531.78124029345963
 20
319.01911211418258
 11
531.78124029345963
 21
323.01911211418314
  0
LINE
  8
_0-3_躯体と製品
  6
CONTINUOUS
 62
    7
 10
534.78124029345963
 20
319.01911211418258
 11
534.78124029345963
 21
323.01911211418314
  0
LINE
  8
_0-3_躯体と製品
  6
CONTINUOUS
 62
    7
 10
537.78124029345872
 20
319.01911211418258
 11
537.78124029345872
 21
323.01911211418314
  0
LINE
  8
_0-3_躯体と製品
  6
CONTINUOUS
 62
    7
 10
540.78124029345872
 20
319.01911211418258
 11
540.78124029345872
 21
323.01911211418314
  0
LINE
  8
_0-3_躯体と製品
  6
CONTINUOUS
 62
    7
 10
522.78124029345872
 20
319.01911211418258
 11
522.78124029345872
 21
323.01911211418314
  0
LINE
  8
_0-3_躯体と製品
  6
CONTINUOUS
 62
    7
 10
525.78124029345963
 20
319.01911211418258
 11
525.78124029345963
 21
323.01911211418314
  0
LINE
  8
_0-3_躯体と製品
  6
CONTINUOUS
 62
    7
 10
528.78124029345872
 20
319.01911211418258
 11
528.78124029345872
 21
323.01911211418314
  0
LINE
  8
_0-3_躯体と製品
  6
CONTINUOUS
 62
    7
 10
510.78124029345872
 20
319.01911211418258
 11
510.78124029345872
 21
323.01911211418314
  0
LINE
  8
_0-3_躯体と製品
  6
CONTINUOUS
 62
    7
 10
513.78124029345963
 20
319.01911211418258
 11
513.78124029345963
 21
323.01911211418314
  0
LINE
  8
_0-3_躯体と製品
  6
CONTINUOUS
 62
    7
 10
516.78124029345963
 20
319.01911211418258
 11
516.78124029345963
 21
323.01911211418314
  0
LINE
  8
_0-3_躯体と製品
  6
CONTINUOUS
 62
    7
 10
519.78124029345872
 20
319.01911211418258
 11
519.78124029345872
 21
323.01911211418314
  0
LINE
  8
_0-3_躯体と製品
  6
CONTINUOUS
 62
    7
 10
501.78124029345963
 20
319.01911211418258
 11
501.78124029345963
 21
323.01911211418314
  0
LINE
  8
_0-3_躯体と製品
  6
CONTINUOUS
 62
    7
 10
504.78124029345872
 20
319.01911211418258
 11
504.78124029345872
 21
323.01911211418314
  0
LINE
  8
_0-3_躯体と製品
  6
CONTINUOUS
 62
    7
 10
507.78124029345872
 20
319.01911211418258
 11
507.78124029345872
 21
323.01911211418314
  0
LINE
  8
_0-3_躯体と製品
  6
CONTINUOUS
 62
    7
 10
498.78124029345872
 20
319.01911211418258
 11
498.78124029345872
 21
323.01911211418314
  0
LINE
  8
_0-3_躯体と製品
  6
CONTINUOUS
 62
    7
 10
588.78124029345872
 20
319.01911211418258
 11
588.78124029345872
 21
323.01911211418314
  0
LINE
  8
_0-3_躯体と製品
  6
CONTINUOUS
 62
    7
 10
585.78124029345872
 20
319.01911211418258
 11
585.78124029345872
 21
323.01911211418314
  0
LINE
  8
_0-3_躯体と製品
  6
CONTINUOUS
 62
    7
 10
582.78124029345872
 20
319.01911211418258
 11
582.78124029345872
 21
323.01911211418314
  0
LINE
  8
_0-3_躯体と製品
  6
CONTINUOUS
 62
    7
 10
573.78124029345963
 20
319.01911211418258
 11
573.78124029345963
 21
323.01911211418314
  0
LINE
  8
_0-3_躯体と製品
  6
CONTINUOUS
 62
    7
 10
576.78124029345963
 20
319.01911211418258
 11
576.78124029345963
 21
323.01911211418314
  0
LINE
  8
_0-3_躯体と製品
  6
CONTINUOUS
 62
    7
 10
564.78124029345963
 20
319.01911211418258
 11
564.78124029345963
 21
323.01911211418314
  0
LINE
  8
_0-3_躯体と製品
  6
CONTINUOUS
 62
    7
 10
567.78124029345872
 20
319.01911211418258
 11
567.78124029345872
 21
323.01911211418314
  0
LINE
  8
_0-3_躯体と製品
  6
CONTINUOUS
 62
    7
 10
570.78124029345963
 20
319.01911211418258
 11
570.78124029345963
 21
323.01911211418314
  0
LINE
  8
_0-3_躯体と製品
  6
CONTINUOUS
 62
    7
 10
552.78124029345872
 20
319.01911211418258
 11
552.78124029345872
 21
323.01911211418314
  0
LINE
  8
_0-3_躯体と製品
  6
CONTINUOUS
 62
    7
 10
555.78124029345872
 20
319.01911211418258
 11
555.78124029345872
 21
323.01911211418314
  0
LINE
  8
_0-3_躯体と製品
  6
CONTINUOUS
 62
    7
 10
558.78124029345963
 20
319.01911211418258
 11
558.78124029345963
 21
323.01911211418314
  0
LINE
  8
_0-3_躯体と製品
  6
CONTINUOUS
 62
    7
 10
561.78124029345963
 20
319.01911211418258
 11
561.78124029345963
 21
323.01911211418314
  0
LINE
  8
_0-3_躯体と製品
  6
CONTINUOUS
 62
    7
 10
543.78124029345872
 20
319.01911211418258
 11
543.78124029345872
 21
323.01911211418314
  0
LINE
  8
_0-3_躯体と製品
  6
CONTINUOUS
 62
    7
 10
546.78124029345963
 20
319.01911211418258
 11
546.78124029345963
 21
323.01911211418314
  0
LINE
  8
_0-3_躯体と製品
  6
CONTINUOUS
 62
    7
 10
549.78124029345872
 20
319.01911211418258
 11
549.78124029345872
 21
323.01911211418314
  0
LINE
  8
_0-3_躯体と製品
  6
CONTINUOUS
 62
    7
 10
633.78124029345872
 20
319.01911211418258
 11
633.78124029345872
 21
323.01911211418314
  0
LINE
  8
_0-3_躯体と製品
  6
CONTINUOUS
 62
    7
 10
630.78124029345963
 20
319.01911211418258
 11
630.78124029345963
 21
323.01911211418314
  0
LINE
  8
_0-3_躯体と製品
  6
CONTINUOUS
 62
    7
 10
627.78124029345872
 20
319.01911211418258
 11
627.78124029345872
 21
323.01911211418314
  0
LINE
  8
_0-3_躯体と製品
  6
CONTINUOUS
 62
    7
 10
624.78124029345872
 20
319.01911211418258
 11
624.78124029345872
 21
323.01911211418314
  0
LINE
  8
_0-3_躯体と製品
  6
CONTINUOUS
 62
    7
 10
621.78124029345963
 20
319.01911211418258
 11
621.78124029345963
 21
323.01911211418314
  0
LINE
  8
_0-3_躯体と製品
  6
CONTINUOUS
 62
    7
 10
618.78124029345963
 20
319.01911211418258
 11
618.78124029345963
 21
323.01911211418314
  0
LINE
  8
_0-3_躯体と製品
  6
CONTINUOUS
 62
    7
 10
615.78124029345872
 20
319.01911211418258
 11
615.78124029345872
 21
323.01911211418314
  0
LINE
  8
_0-3_躯体と製品
  6
CONTINUOUS
 62
    7
 10
612.78124029345872
 20
319.01911211418258
 11
612.78124029345872
 21
323.01911211418314
  0
LINE
  8
_0-3_躯体と製品
  6
CONTINUOUS
 62
    7
 10
609.78124029345963
 20
319.01911211418258
 11
609.78124029345963
 21
323.01911211418314
  0
LINE
  8
_0-3_躯体と製品
  6
CONTINUOUS
 62
    7
 10
606.78124029345963
 20
319.01911211418258
 11
606.78124029345963
 21
323.01911211418314
  0
LINE
  8
_0-3_躯体と製品
  6
CONTINUOUS
 62
    7
 10
603.78124029345872
 20
319.01911211418258
 11
603.78124029345872
 21
323.01911211418314
  0
LINE
  8
_0-3_躯体と製品
  6
CONTINUOUS
 62
    7
 10
600.78124029345872
 20
319.01911211418258
 11
600.78124029345872
 21
323.01911211418314
  0
LINE
  8
_0-3_躯体と製品
  6
CONTINUOUS
 62
    7
 10
597.78124029345872
 20
319.01911211418258
 11
597.78124029345872
 21
323.01911211418314
  0
LINE
  8
_0-3_躯体と製品
  6
CONTINUOUS
 62
    7
 10
594.78124029345872
 20
319.01911211418258
 11
594.78124029345872
 21
323.01911211418314
  0
LINE
  8
_0-3_躯体と製品
  6
CONTINUOUS
 62
    7
 10
591.78124029345963
 20
319.01911211418258
 11
591.78124029345963
 21
323.01911211418314
  0
LINE
  8
_0-3_躯体と製品
  6
CONTINUOUS
 62
    7
 10
678.78124029345872
 20
319.01911211418258
 11
678.78124029345872
 21
323.01911211418314
  0
LINE
  8
_0-3_躯体と製品
  6
CONTINUOUS
 62
    7
 10
675.78124029345963
 20
319.01911211418258
 11
675.78124029345963
 21
323.01911211418314
  0
LINE
  8
_0-3_躯体と製品
  6
CONTINUOUS
 62
    7
 10
672.78124029345872
 20
319.01911211418258
 11
672.78124029345872
 21
323.01911211418314
  0
LINE
  8
_0-3_躯体と製品
  6
CONTINUOUS
 62
    7
 10
669.78124029345872
 20
319.01911211418258
 11
669.78124029345872
 21
323.01911211418314
  0
LINE
  8
_0-3_躯体と製品
  6
CONTINUOUS
 62
    7
 10
666.78124029345963
 20
319.01911211418258
 11
666.78124029345963
 21
323.01911211418314
  0
LINE
  8
_0-3_躯体と製品
  6
CONTINUOUS
 62
    7
 10
663.78124029345963
 20
319.01911211418258
 11
663.78124029345963
 21
323.01911211418314
  0
LINE
  8
_0-3_躯体と製品
  6
CONTINUOUS
 62
    7
 10
660.78124029345872
 20
319.01911211418258
 11
660.78124029345872
 21
323.01911211418314
  0
LINE
  8
_0-3_躯体と製品
  6
CONTINUOUS
 62
    7
 10
657.78124029345872
 20
319.01911211418258
 11
657.78124029345872
 21
323.01911211418314
  0
LINE
  8
_0-3_躯体と製品
  6
CONTINUOUS
 62
    7
 10
654.78124029345963
 20
319.01911211418258
 11
654.78124029345963
 21
323.01911211418314
  0
LINE
  8
_0-3_躯体と製品
  6
CONTINUOUS
 62
    7
 10
651.78124029345963
 20
319.01911211418258
 11
651.78124029345963
 21
323.01911211418314
  0
LINE
  8
_0-3_躯体と製品
  6
CONTINUOUS
 62
    7
 10
648.78124029345963
 20
319.01911211418258
 11
648.78124029345963
 21
323.01911211418314
  0
LINE
  8
_0-3_躯体と製品
  6
CONTINUOUS
 62
    7
 10
645.78124029345963
 20
319.01911211418258
 11
645.78124029345963
 21
323.01911211418314
  0
LINE
  8
_0-3_躯体と製品
  6
CONTINUOUS
 62
    7
 10
642.78124029345872
 20
319.01911211418258
 11
642.78124029345872
 21
323.01911211418314
  0
LINE
  8
_0-3_躯体と製品
  6
CONTINUOUS
 62
    7
 10
639.78124029345872
 20
319.01911211418258
 11
639.78124029345872
 21
323.01911211418314
  0
LINE
  8
_0-3_躯体と製品
  6
CONTINUOUS
 62
    7
 10
636.78124029345963
 20
319.01911211418258
 11
636.78124029345963
 21
323.01911211418314
  0
LINE
  8
_0-3_躯体と製品
  6
CONTINUOUS
 62
    7
 10
708.78124029345872
 20
319.01911211418258
 11
708.78124029345872
 21
323.01911211418314
  0
LINE
  8
_0-3_躯体と製品
  6
CONTINUOUS
 62
    7
 10
705.78124029345963
 20
319.01911211418258
 11
705.78124029345963
 21
323.01911211418314
  0
LINE
  8
_0-3_躯体と製品
  6
CONTINUOUS
 62
    7
 10
702.78124029345872
 20
319.01911211418258
 11
702.78124029345872
 21
323.01911211418314
  0
LINE
  8
_0-3_躯体と製品
  6
CONTINUOUS
 62
    7
 10
699.78124029345963
 20
319.01911211418258
 11
699.78124029345963
 21
323.01911211418314
  0
LINE
  8
_0-3_躯体と製品
  6
CONTINUOUS
 62
    7
 10
696.78124029345963
 20
319.01911211418258
 11
696.78124029345963
 21
323.01911211418314
  0
LINE
  8
_0-3_躯体と製品
  6
CONTINUOUS
 62
    7
 10
693.78124029345963
 20
319.01911211418258
 11
693.78124029345963
 21
323.01911211418314
  0
LINE
  8
_0-3_躯体と製品
  6
CONTINUOUS
 62
    7
 10
690.78124029345963
 20
319.01911211418258
 11
690.78124029345963
 21
323.01911211418314
  0
LINE
  8
_0-3_躯体と製品
  6
CONTINUOUS
 62
    7
 10
687.78124029345872
 20
319.01911211418258
 11
687.78124029345872
 21
323.01911211418314
  0
LINE
  8
_0-3_躯体と製品
  6
CONTINUOUS
 62
    7
 10
684.78124029345872
 20
319.01911211418258
 11
684.78124029345872
 21
323.01911211418314
  0
LINE
  8
_0-3_躯体と製品
  6
CONTINUOUS
 62
    7
 10
681.78124029345963
 20
319.01911211418258
 11
681.78124029345963
 21
323.01911211418314
  0
LINE
  8
_0-3_躯体と製品
  6
CONTINUOUS
 62
    7
 10
729.78124029345872
 20
319.01911211418258
 11
729.78124029345872
 21
323.01911211418314
  0
LINE
  8
_0-3_躯体と製品
  6
CONTINUOUS
 62
    7
 10
726.78124029345963
 20
319.01911211418258
 11
726.78124029345963
 21
323.01911211418314
  0
LINE
  8
_0-3_躯体と製品
  6
CONTINUOUS
 62
    7
 10
723.78124029345963
 20
319.01911211418258
 11
723.78124029345963
 21
323.01911211418314
  0
LINE
  8
_0-3_躯体と製品
  6
CONTINUOUS
 62
    7
 10
720.78124029345872
 20
319.01911211418258
 11
720.78124029345872
 21
323.01911211418314
  0
LINE
  8
_0-3_躯体と製品
  6
CONTINUOUS
 62
    7
 10
717.78124029345872
 20
319.01911211418258
 11
717.78124029345872
 21
323.01911211418314
  0
LINE
  8
_0-3_躯体と製品
  6
CONTINUOUS
 62
    7
 10
714.78124029345963
 20
319.01911211418258
 11
714.78124029345963
 21
323.01911211418314
  0
LINE
  8
_0-3_躯体と製品
  6
CONTINUOUS
 62
    7
 10
711.78124029345963
 20
319.01911211418258
 11
711.78124029345963
 21
323.01911211418314
  0
LINE
  8
_0-3_躯体と製品
  6
CONTINUOUS
 62
    7
 10
453.78124029345872
 20
319.01911211418258
 11
453.78124029345872
 21
323.01911211418314
  0
LINE
  8
_0-3_躯体と製品
  6
CONTINUOUS
 62
    7
 10
456.78124029345872
 20
319.01911211418258
 11
456.78124029345872
 21
323.01911211418314
  0
LINE
  8
_0-3_躯体と製品
  6
CONTINUOUS
 62
    7
 10
441.78124029345963
 20
319.01911211418258
 11
441.78124029345963
 21
323.01911211418314
  0
LINE
  8
_0-3_躯体と製品
  6
CONTINUOUS
 62
    7
 10
444.78124029345872
 20
319.01911211418258
 11
444.78124029345872
 21
323.01911211418314
  0
LINE
  8
_0-3_躯体と製品
  6
CONTINUOUS
 62
    7
 10
447.78124029345963
 20
319.01911211418258
 11
447.78124029345963
 21
323.01911211418314
  0
LINE
  8
_0-3_躯体と製品
  6
CONTINUOUS
 62
    7
 10
450.78124029345872
 20
319.01911211418258
 11
450.78124029345872
 21
323.01911211418314
  0
LINE
  8
_0-3_躯体と製品
  6
CONTINUOUS
 62
    7
 10
471.78124029345872
 20
319.01911211418258
 11
471.78124029345872
 21
323.01911211418314
  0
LINE
  8
_0-3_躯体と製品
  6
CONTINUOUS
 62
    7
 10
474.78124029345872
 20
319.01911211418258
 11
474.78124029345872
 21
323.01911211418314
  0
LINE
  8
_0-3_躯体と製品
  6
CONTINUOUS
 62
    7
 10
477.78124029345963
 20
319.01911211418258
 11
477.78124029345963
 21
323.01911211418314
  0
LINE
  8
_0-3_躯体と製品
  6
CONTINUOUS
 62
    7
 10
462.78124029345963
 20
319.01911211418258
 11
462.78124029345963
 21
323.01911211418314
  0
LINE
  8
_0-3_躯体と製品
  6
CONTINUOUS
 62
    7
 10
465.78124029345963
 20
319.01911211418258
 11
465.78124029345963
 21
323.01911211418314
  0
LINE
  8
_0-3_躯体と製品
  6
CONTINUOUS
 62
    7
 10
468.78124029345872
 20
319.01911211418258
 11
468.78124029345872
 21
323.01911211418314
  0
LINE
  8
_0-3_躯体と製品
  6
CONTINUOUS
 62
    7
 10
459.78124029345872
 20
319.01911211418258
 11
459.78124029345872
 21
323.01911211418314
  0
LINE
  8
_0-3_躯体と製品
  6
CONTINUOUS
 62
    7
 10
414.78124029345872
 20
319.01911211418258
 11
414.78124029345872
 21
323.01911211418314
  0
LINE
  8
_0-3_躯体と製品
  6
CONTINUOUS
 62
    7
 10
417.78124029345963
 20
319.01911211418258
 11
417.78124029345963
 21
323.01911211418314
  0
LINE
  8
_0-3_躯体と製品
  6
CONTINUOUS
 62
    7
 10
405.78124029345963
 20
319.01911211418258
 11
405.78124029345963
 21
323.01911211418314
  0
LINE
  8
_0-3_躯体と製品
  6
CONTINUOUS
 62
    7
 10
408.78124029345963
 20
319.01911211418258
 11
408.78124029345963
 21
323.01911211418314
  0
LINE
  8
_0-3_躯体と製品
  6
CONTINUOUS
 62
    7
 10
411.78124029345872
 20
319.01911211418258
 11
411.78124029345872
 21
323.01911211418314
  0
LINE
  8
_0-3_躯体と製品
  6
CONTINUOUS
 62
    7
 10
432.78124029345963
 20
319.01911211418258
 11
432.78124029345963
 21
323.01911211418314
  0
LINE
  8
_0-3_躯体と製品
  6
CONTINUOUS
 62
    7
 10
435.78124029345872
 20
319.01911211418258
 11
435.78124029345872
 21
323.01911211418314
  0
LINE
  8
_0-3_躯体と製品
  6
CONTINUOUS
 62
    7
 10
438.78124029345963
 20
319.01911211418258
 11
438.78124029345963
 21
323.01911211418314
  0
LINE
  8
_0-3_躯体と製品
  6
CONTINUOUS
 62
    7
 10
423.78124029345963
 20
319.01911211418258
 11
423.78124029345963
 21
323.01911211418314
  0
LINE
  8
_0-3_躯体と製品
  6
CONTINUOUS
 62
    7
 10
426.78124029345872
 20
319.01911211418258
 11
426.78124029345872
 21
323.01911211418314
  0
LINE
  8
_0-3_躯体と製品
  6
CONTINUOUS
 62
    7
 10
429.78124029345872
 20
319.01911211418258
 11
429.78124029345872
 21
323.01911211418314
  0
LINE
  8
_0-3_躯体と製品
  6
CONTINUOUS
 62
    7
 10
420.78124029345963
 20
319.01911211418258
 11
420.78124029345963
 21
323.01911211418314
  0
LINE
  8
_0-3_躯体と製品
  6
CONTINUOUS
 62
    7
 10
738.78124029345963
 20
319.01911211418258
 11
738.78124029345963
 21
323.01911211418314
  0
LINE
  8
_0-3_躯体と製品
  6
CONTINUOUS
 62
    7
 10
735.78124029345963
 20
319.01911211418258
 11
735.78124029345963
 21
323.01911211418314
  0
LINE
  8
_0-3_躯体と製品
  6
CONTINUOUS
 62
    7
 10
732.78124029345872
 20
319.01911211418258
 11
732.78124029345872
 21
323.01911211418314
  0
LINE
  8
_0-3_躯体と製品
  6
CONTINUOUS
 62
    7
 10
759.78124029345963
 20
319.01911211418258
 11
759.78124029345963
 21
323.01911211418314
  0
LINE
  8
_0-3_躯体と製品
  6
CONTINUOUS
 62
    7
 10
756.78124029345963
 20
319.01911211418258
 11
756.78124029345963
 21
323.01911211418314
  0
LINE
  8
_0-3_躯体と製品
  6
CONTINUOUS
 62
    7
 10
753.78124029345872
 20
319.01911211418258
 11
753.78124029345872
 21
323.01911211418314
  0
LINE
  8
_0-3_躯体と製品
  6
CONTINUOUS
 62
    7
 10
750.78124029345963
 20
319.01911211418258
 11
750.78124029345963
 21
323.01911211418314
  0
LINE
  8
_0-3_躯体と製品
  6
CONTINUOUS
 62
    7
 10
747.78124029345872
 20
319.01911211418258
 11
747.78124029345872
 21
323.01911211418314
  0
LINE
  8
_0-3_躯体と製品
  6
CONTINUOUS
 62
    7
 10
744.78124029345872
 20
319.01911211418258
 11
744.78124029345872
 21
323.01911211418314
  0
LINE
  8
_0-3_躯体と製品
  6
CONTINUOUS
 62
    7
 10
741.78124029345963
 20
319.01911211418258
 11
741.78124029345963
 21
323.01911211418314
  0
LINE
  8
_0-3_躯体と製品
  6
CONTINUOUS
 62
    7
 10
768.78124029345963
 20
319.01911211418258
 11
768.78124029345963
 21
323.01911211418314
  0
LINE
  8
_0-3_躯体と製品
  6
CONTINUOUS
 62
    7
 10
765.78124029345872
 20
319.01911211418258
 11
765.78124029345872
 21
323.01911211418314
  0
LINE
  8
_0-3_躯体と製品
  6
CONTINUOUS
 62
    7
 10
762.78124029345872
 20
319.01911211418258
 11
762.78124029345872
 21
323.01911211418314
  0
LINE
  8
_0-3_躯体と製品
  6
CONTINUOUS
 62
    7
 10
780.78124029345963
 20
319.01911211418258
 11
780.78124029345963
 21
323.01911211418314
  0
LINE
  8
_0-3_躯体と製品
  6
CONTINUOUS
 62
    7
 10
777.78124029345872
 20
319.01911211418258
 11
777.78124029345872
 21
323.01911211418314
  0
LINE
  8
_0-3_躯体と製品
  6
CONTINUOUS
 62
    7
 10
774.78124029345872
 20
319.01911211418258
 11
774.78124029345872
 21
323.01911211418314
  0
LINE
  8
_0-3_躯体と製品
  6
CONTINUOUS
 62
    7
 10
771.78124029345963
 20
319.01911211418258
 11
771.78124029345963
 21
323.01911211418314
  0
LINE
  8
_0-3_躯体と製品
  6
CONTINUOUS
 62
    7
 10
384.78124029345872
 20
319.01911211418258
 11
384.78124029345872
 21
323.01911211418314
  0
LINE
  8
_0-3_躯体と製品
  6
CONTINUOUS
 62
    7
 10
387.78124029345872
 20
319.01911211418258
 11
387.78124029345872
 21
323.01911211418314
  0
LINE
  8
_0-3_躯体と製品
  6
CONTINUOUS
 62
    7
 10
378.78124029345963
 20
319.01911211418258
 11
378.78124029345963
 21
323.01911211418314
  0
LINE
  8
_0-3_躯体と製品
  6
CONTINUOUS
 62
    7
 10
381.78124029345872
 20
319.01911211418258
 11
381.78124029345872
 21
323.01911211418314
  0
LINE
  8
_0-3_躯体と製品
  6
CONTINUOUS
 62
    7
 10
402.78124029345872
 20
319.01911211418258
 11
402.78124029345872
 21
323.01911211418314
  0
LINE
  8
_0-3_躯体と製品
  6
CONTINUOUS
 62
    7
 10
393.78124029345963
 20
319.01911211418258
 11
393.78124029345963
 21
323.01911211418314
  0
LINE
  8
_0-3_躯体と製品
  6
CONTINUOUS
 62
    7
 10
396.78124029345872
 20
319.01911211418258
 11
396.78124029345872
 21
323.01911211418314
  0
LINE
  8
_0-3_躯体と製品
  6
CONTINUOUS
 62
    7
 10
399.78124029345872
 20
319.01911211418258
 11
399.78124029345872
 21
323.01911211418314
  0
LINE
  8
_0-3_躯体と製品
  6
CONTINUOUS
 62
    7
 10
390.78124029345872
 20
319.01911211418258
 11
390.78124029345872
 21
323.01911211418314
  0
LINE
  8
_0-4_文字-記号
  6
CONTINUOUS
 62
    7
 10
538.70782482496861
 20
320.28147764978303
 11
518.61594296608291
 21
285.48131745052024
  0
LINE
  8
_0-4_文字-記号
  6
CONTINUOUS
 62
    7
 10
518.61594296608291
 20
285.48131745052024
 11
465.24132253438984
 21
285.48131745052024
  0
TEXT
  8
_0-4_文字-記号
 62
    7
 10
470.10725905442587
 20
287.87075245052029
 40
8
 41
0.8
 50
0
  1
防水層（別途）
  0
LINE
  8
_0-4_文字-記号
  6
CONTINUOUS
 62
    7
 10
508.08098802651284
 20
325.78883923318858
 11
495.82806764358384
 21
347.01151987751859
  0
LINE
  8
_0-4_文字-記号
  6
CONTINUOUS
 62
    7
 10
495.82806764358384
 20
347.01151987751859
 11
385.38179437742383
 21
347.01151987751859
  0
TEXT
  8
_0-4_文字-記号
 62
    7
 10
385.85132005835885
 20
349.5655898775176
 40
8
 41
0.8
 50
0
  1
アスファルト系成形板等（別途）
  0
LINE
  8
_0-3_躯体と製品
  6
CONTINUOUS
 62
    7
 10
993.05950630613461
 20
299.01911211418292
 11
1013.0595063061346
 21
319.01911211418303
  0
LINE
  8
_0-3_躯体と製品
  6
CONTINUOUS
 62
    7
 10
987.40265130613489
 20
299.01911211418292
 11
1007.4026513061349
 21
319.01911211418303
  0
LINE
  8
_0-3_躯体と製品
  6
CONTINUOUS
 62
    7
 10
998.71636130613479
 20
299.01911211418292
 11
1018.7163613061348
 21
319.01911211418303
  0
LINE
  8
_0-3_躯体と製品
  6
CONTINUOUS
 62
    7
 10
1168.635436306135
 20
299.01911211418292
 11
1188.635436306135
 21
319.01911211418303
  0
LINE
  8
_0-3_躯体と製品
  6
CONTINUOUS
 62
    7
 10
1162.9785813061349
 20
299.01911211418292
 11
1182.9785813061349
 21
319.01911211418303
  0
LINE
  8
_0-3_躯体と製品
  6
CONTINUOUS
 62
    7
 10
1157.321731306135
 20
299.01911211418292
 11
1177.321731306135
 21
319.01911211418303
  0
LINE
  8
_0-3_躯体と製品
  6
CONTINUOUS
 62
    7
 10
479.78124029345872
 20
323.01911211418337
 11
479.78124029345872
 21
329.01911211418258
  0
LINE
  8
_0-3_躯体と製品
  6
CONTINUOUS
 62
    7
 10
679.78124029345963
 20
323.01911211418314
 11
679.78124029345963
 21
329.01911211418258
  0
LINE
  8
_0-3_躯体と製品
  6
CONTINUOUS
 62
    7
 10
1181.0796463061347
 20
329.01911211418258
 11
981.07964630613469
 21
329.01911211418258
  0
LINE
  8
_0-3_躯体と製品
  6
CONTINUOUS
 62
    7
 10
1181.0796463061347
 20
323.01911211418337
 11
1181.0796463061347
 21
329.01911211418258
  0
LINE
  8
_0-3_躯体と製品
  6
CONTINUOUS
 62
    7
 10
981.07964630613469
 20
323.01911211418337
 11
981.07964630613469
 21
329.01911211418258
  0
LINE
  8
_0-4_文字-記号
  6
CONTINUOUS
 62
    7
 10
553.25064951953163
 20
330.6191121141826
 11
529.86784687309364
 21
371.11931432117058
  0
LINE
  8
_0-4_文字-記号
  6
CONTINUOUS
 62
    7
 10
529.86784687309364
 20
371.11931432117058
 11
484.71856871722275
 21
371.11931432117058
  0
TEXT
  8
_0-4_文字-記号
 62
    7
 10
487.8680943981567
 20
373.67338432117049
 40
8
 41
0.8
 50
0
  1
ベース金具
  0
ARC
  8
_0-3_躯体と製品
  6
CONTINUOUS
 62
    7
 10
1069.079648086547
 20
350.6191121141826
 40
5
 50
216.86989300011481
 51
323.1301009996202
  0
LINE
  8
_0-3_躯体と製品
  6
CONTINUOUS
 62
    7
 10
1093.0796480865456
 20
345.61911211418362
 11
1069.079648086547
 21
345.61911211418362
  0
ARC
  8
_0-3_躯体と製品
  6
CONTINUOUS
 62
    7
 10
1069.079648086547
 20
349.61911211418351
 40
5
 50
36.869899000379831
 51
143.13010699988519
  0
LINE
  8
_0-3_躯体と製品
  6
CONTINUOUS
 62
    7
 10
1093.0796480865456
 20
354.6191121141826
 11
1069.079648086547
 21
354.6191121141826
  0
LINE
  8
_0-3_躯体と製品
  6
CONTINUOUS
 62
    7
 10
1066.0796471963326
 20
345.61911211418362
 11
1096.0796471963326
 21
345.61911211418362
  0
LINE
  8
_0-3_躯体と製品
  6
CONTINUOUS
 62
    7
 10
1096.0796471963326
 20
345.61911211418362
 11
1096.0796471963326
 21
342.6191121141826
  0
LINE
  8
_0-3_躯体と製品
  6
CONTINUOUS
 62
    7
 10
1096.0796471963326
 20
342.6191121141826
 11
1066.0796471963326
 21
342.6191121141826
  0
LINE
  8
_0-3_躯体と製品
  6
CONTINUOUS
 62
    7
 10
1066.0796471963326
 20
342.6191121141826
 11
1066.0796471963326
 21
345.61911211418362
  0
LINE
  8
_0-3_躯体と製品
  6
CONTINUOUS
 62
    7
 10
1069.0796463061329
 20
342.6191121141826
 11
1093.0796463061329
 21
342.6191121141826
  0
ARC
  8
_0-3_躯体と製品
  6
CONTINUOUS
 62
    7
 10
1069.0796463061329
 20
337.6191121141826
 40
5
 50
36.869893000114772
 51
143.1301009996202
  0
LINE
  8
_0-3_躯体と製品
  6
CONTINUOUS
 62
    7
 10
1065.079648086547
 20
352.6191121141826
 11
1065.079648086547
 21
347.61911211418362
  0
LINE
  8
_0-3_躯体と製品
  6
CONTINUOUS
 62
    7
 10
1065.0796463061329
 20
332.6191121141826
 11
1065.0796463061329
 21
340.6191121141826
  0
LINE
  8
_0-3_躯体と製品
  6
CONTINUOUS
 62
    7
 10
1089.0796478432967
 20
352.61911178984951
 11
1089.0796478432967
 21
347.61911243851659
  0
LINE
  8
_0-3_躯体と製品
  6
CONTINUOUS
 62
    7
 10
1073.0796470224227
 20
352.61911154665859
 11
1073.0796470224227
 21
347.61911268170763
  0
LINE
  8
_0-3_躯体と製品
  6
CONTINUOUS
 62
    7
 10
1097.079648086547
 20
352.6191121141826
 11
1097.079648086547
 21
347.61911211418362
  0
ARC
  8
_0-3_躯体と製品
  6
CONTINUOUS
 62
    7
 10
1081.079648086547
 20
362.6191121141826
 40
17
 50
241.92750899955081
 51
298.0724850001626
  0
ARC
  8
_0-3_躯体と製品
  6
CONTINUOUS
 62
    7
 10
1093.0796480865456
 20
350.6191121141826
 40
5
 50
216.86989300011481
 51
323.1301009996202
  0
ARC
  8
_0-3_躯体と製品
  6
CONTINUOUS
 62
    7
 10
1081.079648086547
 20
337.61911211418362
 40
17
 50
61.92751499983742
 51
118.0724910004492
  0
ARC
  8
_0-3_躯体と製品
  6
CONTINUOUS
 62
    7
 10
1093.0796480865456
 20
349.61911211418351
 40
5
 50
36.869899000379831
 51
143.13010699988519
  0
LINE
  8
_0-3_躯体と製品
  6
CONTINUOUS
 62
    7
 10
1078.0796480865606
 20
345.61911211418362
 11
1081.0796480865606
 21
342.6191121141826
  0
LINE
  8
_0-3_躯体と製品
  6
CONTINUOUS
 62
    7
 10
1081.0796471963326
 20
345.61911211418362
 11
1084.0796471963326
 21
342.6191121141826
  0
LINE
  8
_0-3_躯体と製品
  6
CONTINUOUS
 62
    7
 10
1097.0796463061329
 20
332.6191121141826
 11
1097.0796463061329
 21
340.6191121141826
  0
LINE
  8
_0-3_躯体と製品
  6
CONTINUOUS
 62
    7
 10
1089.0796463061329
 20
340.60011211418259
 11
1089.0796463061329
 21
332.6191121141826
  0
LINE
  8
_0-3_躯体と製品
  6
CONTINUOUS
 62
    7
 10
1089.0796463061329
 20
340.6191121141826
 11
1089.0796463061329
 21
332.6191121141826
  0
LINE
  8
_0-3_躯体と製品
  6
CONTINUOUS
 62
    7
 10
1073.0796463061329
 20
340.60011211418259
 11
1073.0796463061329
 21
332.6191121141826
  0
LINE
  8
_0-3_躯体と製品
  6
CONTINUOUS
 62
    7
 10
1073.0796463061329
 20
340.6191121141826
 11
1073.0796463061329
 21
332.6191121141826
  0
ARC
  8
_0-3_躯体と製品
  6
CONTINUOUS
 62
    7
 10
1093.0796463061329
 20
337.6191121141826
 40
5
 50
36.869893000114772
 51
143.1301009996202
  0
ARC
  8
_0-3_躯体と製品
  6
CONTINUOUS
 62
    7
 10
1081.0796463061329
 20
325.61911211418362
 40
17
 50
61.927508999550831
 51
118.0724850001626
  0
LINE
  8
_0-3_躯体と製品
  6
CONTINUOUS
 62
    7
 10
579.78113279347781
 20
352.62150694808156
 11
579.78113279347781
 21
347.61911243851955
  0
LINE
  8
_0-3_躯体と製品
  6
CONTINUOUS
 62
    7
 10
593.63764675400989
 20
347.61911243851762
 11
593.6376467540149
 21
352.61910882320262
  0
LINE
  8
_0-3_躯体と製品
  6
CONTINUOUS
 62
    7
 10
565.92483383291892
 20
347.61911243851762
 11
565.92483383292392
 21
352.61910882320262
  0
ARC
  8
_0-3_躯体と製品
  6
CONTINUOUS
 62
    7
 10
572.85298331319791
 20
358.61892413563851
 40
12.99981202145571
 50
237.79553064651958
 51
302.20446935351112
  0
ARC
  8
_0-3_躯体と製品
  6
CONTINUOUS
 62
    7
 10
586.7093897737459
 20
358.61929652645154
 40
13.00018441226911
 50
237.79600443851331
 51
302.2039955614577
  0
LINE
  8
_0-3_躯体と製品
  6
CONTINUOUS
 62
    7
 10
575.28304309201303
 20
354.61911211418351
 11
584.27922249494486
 21
354.61911211418351
  0
ARC
  8
_0-3_躯体と製品
  6
CONTINUOUS
 62
    7
 10
572.85298331320064
 20
341.6194408789886
 40
12.99966975187105
 50
57.795135702609059
 51
122.20486429742169
  0
ARC
  8
_0-3_躯体と製品
  6
CONTINUOUS
 62
    7
 10
586.70938977374271
 20
341.61906849298862
 40
13.000042137871899
 50
57.795609499798822
 51
122.20439050020119
  0
LINE
  8
_0-3_躯体と製品
  6
CONTINUOUS
 62
    7
 10
579.78124029345872
 20
340.62153462375761
 11
579.78124029345872
 21
332.6191121141826
  0
LINE
  8
_0-3_躯体と製品
  6
CONTINUOUS
 62
    7
 10
593.63764675399489
 20
332.6191121141826
 11
593.63764675399989
 21
340.61913649888061
  0
LINE
  8
_0-3_躯体と製品
  6
CONTINUOUS
 62
    7
 10
565.92483383290391
 20
332.6191121141826
 11
565.92483383290892
 21
340.61913649887163
  0
ARC
  8
_0-3_躯体と製品
  6
CONTINUOUS
 62
    7
 10
572.85303706318882
 20
329.61911211414963
 40
13.00000000003377
 50
57.795772496073575
 51
122.2042275040186
  0
ARC
  8
_0-3_躯体と製品
  6
CONTINUOUS
 62
    7
 10
586.70944352372771
 20
329.61911211416259
 40
13.00000000002024
 50
57.795772496042851
 51
122.20422750395709
  0
LINE
  8
_0-3_躯体と製品
  6
CONTINUOUS
 62
    7
 10
576.78124029347373
 20
345.6191121141826
 11
579.78124029347373
 21
342.6191121141826
  0
LINE
  8
_0-3_躯体と製品
  6
CONTINUOUS
 62
    7
 10
579.78123940324576
 20
345.6191121141826
 11
582.78123940324576
 21
342.6191121141826
  0
LINE
  8
_0-3_躯体と製品
  6
CONTINUOUS
 62
    7
 10
564.78123940324576
 20
345.6191121141826
 11
594.78123940324576
 21
345.6191121141826
  0
LINE
  8
_0-3_躯体と製品
  6
CONTINUOUS
 62
    7
 10
594.78123940324576
 20
345.6191121141826
 11
594.78123940324576
 21
342.6191121141826
  0
LINE
  8
_0-3_躯体と製品
  6
CONTINUOUS
 62
    7
 10
594.78123940324576
 20
342.6191121141826
 11
564.78123940324576
 21
342.6191121141826
  0
LINE
  8
_0-3_躯体と製品
  6
CONTINUOUS
 62
    7
 10
564.78123940324576
 20
342.6191121141826
 11
564.78123940324576
 21
345.6191121141826
  0
LINE
  8
_0-3_躯体と製品
  6
CONTINUOUS
 62
    7
 10
586.70938977374271
 20
354.6191106308595
 11
572.85298331320064
 21
354.6191106308595
  0
LINE
  8
_0-0_0
  6
CONTINUOUS
 62
    7
 10
1079.5796463061347
 20
329.01911211418258
 11
1079.5796463061347
 21
330.6191121141826
  0
LINE
  8
_0-0_0
  6
CONTINUOUS
 62
    7
 10
1082.5796463061347
 20
329.01911211418258
 11
1082.5796463061347
 21
330.6191121141826
  0
LINE
  8
_0-0_0
  6
CONTINUOUS
 62
    7
 10
1121.0796463061338
 20
329.01911211418258
 11
1121.0796463061338
 21
330.6191121141826
  0
LINE
  8
_0-0_0
  6
CONTINUOUS
 62
    7
 10
1041.0796463061338
 20
329.01911211418258
 11
1121.0796463061338
 21
329.01911211418258
  0
LINE
  8
_0-0_0
  6
CONTINUOUS
 62
    7
 10
1041.0796463061338
 20
330.6191121141826
 11
1041.0796463061338
 21
329.01911211418258
  0
LINE
  8
_0-0_0
  6
CONTINUOUS
 62
    7
 10
1121.0796463061338
 20
330.6191121141826
 11
1041.0796463061338
 21
330.6191121141826
  0
LINE
  8
_0-0_0
  6
CONTINUOUS
 62
    7
 10
1115.0796463061347
 20
332.6191121141826
 11
1047.0796463061338
 21
332.6191121141826
  0
ARC
  8
_0-0_0
  6
CONTINUOUS
 62
    7
 10
1115.0796463061347
 20
330.6191121141826
 40
2
 50
0
 51
90
  0
ARC
  8
_0-0_0
  6
CONTINUOUS
 62
    7
 10
1047.0796463061338
 20
330.6191121141826
 40
2
 50
90
 51
180
  0
LINE
  8
_0-0_0
  6
CONTINUOUS
 62
    7
 10
578.28124029345872
 20
329.01911211418258
 11
578.28124029345872
 21
330.6191121141826
  0
LINE
  8
_0-0_0
  6
CONTINUOUS
 62
    7
 10
581.28124029345963
 20
329.01911211418258
 11
581.28124029345963
 21
330.6191121141826
  0
LINE
  8
_0-0_0
  6
CONTINUOUS
 62
    7
 10
619.78124029345872
 20
329.01911211418258
 11
619.78124029345872
 21
330.6191121141826
  0
LINE
  8
_0-0_0
  6
CONTINUOUS
 62
    7
 10
539.78124029345872
 20
329.01911211418258
 11
619.78124029345872
 21
329.01911211418258
  0
LINE
  8
_0-0_0
  6
CONTINUOUS
 62
    7
 10
539.78124029345872
 20
330.6191121141826
 11
539.78124029345872
 21
329.01911211418258
  0
LINE
  8
_0-0_0
  6
CONTINUOUS
 62
    7
 10
619.78124029345872
 20
330.6191121141826
 11
539.78124029345872
 21
330.6191121141826
  0
LINE
  8
_0-0_0
  6
CONTINUOUS
 62
    7
 10
613.78124029345963
 20
332.6191121141826
 11
545.78124029345963
 21
332.6191121141826
  0
ARC
  8
_0-0_0
  6
CONTINUOUS
 62
    7
 10
613.78124029345963
 20
330.6191121141826
 40
2
 50
0
 51
90
  0
ARC
  8
_0-0_0
  6
CONTINUOUS
 62
    7
 10
545.78124029345963
 20
330.6191121141826
 40
2
 50
90
 51
180
  0
LINE
  8
_0-3_躯体と製品
  6
CONTINUOUS
 62
    7
 10
579.78124029345872
 20
319.01911211418258
 11
579.78124029345872
 21
323.01911211418314
  0
LINE
  8
_0-4_文字-記号
  6
CONTINUOUS
 62
    7
 10
1040.0062308376437
 20
320.28147764978348
 11
1019.9143489787566
 21
285.48131745052069
  0
LINE
  8
_0-4_文字-記号
  6
CONTINUOUS
 62
    7
 10
1019.9143489787566
 20
285.48131745052069
 11
966.5397285470649
 21
285.48131745052069
  0
TEXT
  8
_0-4_文字-記号
 62
    7
 10
971.40566506710184
 20
287.87075245052074
 40
8
 41
0.8
 50
0
  1
防水層（別途）
  0
LINE
  8
_0-4_文字-記号
  6
CONTINUOUS
 62
    7
 10
1009.3793940391879
 20
325.78883923318961
 11
997.1264736562589
 21
347.01151987751859
  0
LINE
  8
_0-4_文字-記号
  6
CONTINUOUS
 62
    7
 10
997.1264736562589
 20
347.01151987751859
 11
886.68020039009889
 21
347.01151987751859
  0
TEXT
  8
_0-4_文字-記号
 62
    7
 10
887.14972607103391
 20
349.56558987751851
 40
8
 41
0.8
 50
0
  1
アスファルト系成形板等（別途）
  0
LINE
  8
_0-4_文字-記号
  6
CONTINUOUS
 62
    7
 10
1054.5490555322067
 20
330.61911211418362
 11
1031.1662528857678
 21
371.11931432117058
  0
LINE
  8
_0-4_文字-記号
  6
CONTINUOUS
 62
    7
 10
1031.1662528857678
 20
371.11931432117058
 11
986.01697472989781
 21
371.11931432117058
  0
TEXT
  8
_0-4_文字-記号
 62
    7
 10
989.16650041083176
 20
373.67338432117049
 40
8
 41
0.8
 50
0
  1
ベース金具
  0
ENDSEC
  0
EOF
