  0
SECTION
  2
HEADER
  9
$ACADVER
  1
AC1009
  9
$INSBASE
 10
0
 20
0
 30
0
  9
$EXTMIN
 10
0
 20
0
  9
$EXTMAX
 10
841
 20
594
  9
$LIMMIN
 10
0
 20
0
  9
$LIMMAX
 10
841
 20
594
  9
$LTSCALE
 40
1
  0
ENDSEC
  0
SECTION
  2
TABLES
  0
TABLE
  2
LTYPE
 70
     9
  0
LTYPE
  2
CONTINUOUS
 70
    64
  3
実線
 72
    65
 73
     0
 40
0.0
  0
LTYPE
  2
DASHED1
 70
    64
  3
--  --  --  --  --  --  --  --  
 72
    65
 73
     2
 40
2.5
 49
1.25
 49
-1.25
  0
LTYPE
  2
DASHED2
 70
    64
  3
----    ----    ----    ----    
 72
    65
 73
     2
 40
5.0
 49
2.5
 49
-2.5
  0
LTYPE
  2
DASHED3
 70
    64
  3
------  ------  ------  ------  
 72
    65
 73
     2
 40
5.0
 49
3.75
 49
-1.25
  0
LTYPE
  2
CENTER1
 70
    64
  3
----- - ----- - ----- - ----- - 
 72
    65
 73
     4
 40
10.0
 49
6.25
 49
-1.25
 49
1.25
 49
-1.25
  0
LTYPE
  2
CENTER2
 70
    64
  3
----------  --  ----------  --  
 72
    65
 73
     4
 40
20.0
 49
12.5
 49
-2.5
 49
2.5
 49
-2.5
  0
LTYPE
  2
PHANTOM1
 70
    64
  3
--- - - --- - - --- - - --- - - 
 72
    65
 73
     6
 40
10.0
 49
3.25
 49
-1.25
 49
1.25
 49
-1.25
 49
1.25
 49
-1.25
  0
LTYPE
  2
PHANTOM2
 70
    64
  3
--------  -  -  --------  -  -  
 72
    65
 73
     6
 40
20.0
 49
10.0
 49
-2.5
 49
1.25
 49
-2.5
 49
1.25
 49
-2.5
  0
LTYPE
  2
DOT
 70
    64
  3
-   -   -   -   -   -   -   -   
 72
    65
 73
     2
 40
2.5
 49
0.625
 49
-1.875
  0
LTYPE
  2
DUMMY
 70
    64
  3
ダミー
 72
    65
 73
     0
 40
0.0
  0
LTYPE
  2
RAND1
 70
    64
  3
ランダム線1
 72
    65
 73
     4
 40
10.0
 49
1.0
 49
-2.0
 49
3.0
 49
-4.0
  0
LTYPE
  2
RAND2
 70
    64
  3
ランダム線2
 72
    65
 73
     4
 40
14.0
 49
2.0
 49
-3.0
 49
4.0
 49
-5.0
  0
LTYPE
  2
RAND3
 70
    64
  3
ランダム線3
 72
    65
 73
     4
 40
18.0
 49
3.0
 49
-4.0
 49
5.0
 49
-6.0
  0
LTYPE
  2
RAND4
 70
    64
  3
ランダム線4
 72
    65
 73
     4
 40
22.0
 49
4.0
 49
-5.0
 49
6.0
 49
-7.0
  0
LTYPE
  2
RAND5
 70
    64
  3
ランダム線5
 72
    65
 73
     4
 40
26.0
 49
5.0
 49
-6.0
 49
7.0
 49
-8.0
  0
LTYPE
  2
LONG1
 70
    64
  3
----------  --  ----------  --  
 72
    65
 73
     4
 40
40.0
 49
32.5
 49
-2.5
 49
2.5
 49
-2.5
  0
LTYPE
  2
LONG2
 70
    64
  3
--------  -  -  --------  -  -  
 72
    65
 73
     6
 40
40.0
 49
30.0
 49
-2.5
 49
1.25
 49
-2.5
 49
1.25
 49
-2.5
  0
LTYPE
  2
LONG3
 70
    64
  3
+++++++++++++++..+++++++++++++++
 72
    65
 73
     2
 40
40.0
 49
37.5
 49
-2.5
  0
LTYPE
  2
LONG4
 70
    64
  3
+++++++++++++++..+++++++++++++++
 72
    65
 73
     2
 40
80.0
 49
75.0
 49
-5.0
  0
LTYPE
  2
LONG5
 70
    64
  3
----------  --  ----------  --  
 72
    65
 73
     4
 40
60.0
 49
37.5
 49
-7.5
 49
7.5
 49
-7.5
  0
LTYPE
  2
dashed
 70
   64
  3
-------   -------------   ------
 72
   65
 73
    2
 40
7.5
 49
6
 49
-1.5
  0
LTYPE
  2
dashed_spaced
 70
   64
  3
----        --------        ----
 72
   65
 73
    2
 40
12
 49
6
 49
-6
  0
LTYPE
  2
long_dashed_dotted
 70
   64
  3
------------- --- --------------
 72
   65
 73
    4
 40
15.25
 49
12
 49
-1.5
 49
0.25
 49
-1.5
  0
LTYPE
  2
long_dashed_double-dotted
 70
   64
  3
----------- --- --- ------------
 72
   65
 73
    6
 40
17
 49
12
 49
-1.5
 49
0.25
 49
-1.5
 49
0.25
 49
-1.5
  0
LTYPE
  2
long_dashed_triplicate-dotted
 70
   64
  3
--------- --- --- --- ----------
 72
   65
 73
    8
 40
18.75
 49
12
 49
-1.5
 49
0.25
 49
-1.5
 49
0.25
 49
-1.5
 49
0.25
 49
-1.5
  0
LTYPE
  2
dotted
 70
   64
  3
   -       -       -       -    
 72
   65
 73
    2
 40
1.75
 49
0.25
 49
-1.5
  0
LTYPE
  2
chain
 70
   64
  3
-------------- -- --------------
 72
   65
 73
    4
 40
18.5
 49
12
 49
-1.5
 49
3.5
 49
-1.5
  0
LTYPE
  2
chain_double_dash
 70
   64
  3
------------ -- -- -------------
 72
   65
 73
    6
 40
23.5
 49
12
 49
-1.5
 49
3.5
 49
-1.5
 49
3.5
 49
-1.5
  0
LTYPE
  2
dashed_dotted
 70
   64
  3
-----------     -     ----------
 72
   65
 73
    4
 40
9.25
 49
6
 49
-1.5
 49
0.25
 49
-1.5
  0
LTYPE
  2
double-dashed_dotted
 70
   64
  3
------   -----------   -   -----
 72
   65
 73
    6
 40
16.75
 49
6
 49
-1.5
 49
6
 49
-1.5
 49
0.25
 49
-1.5
  0
LTYPE
  2
dashed_double-dotted
 70
   64
  3
---------    -    -    ---------
 72
   65
 73
    6
 40
11
 49
6
 49
-1.5
 49
0.25
 49
-1.5
 49
0.25
 49
-1.5
  0
LTYPE
  2
double-dashed_double-dotted
 70
   64
  3
-----   ---------   -   -   ----
 72
   65
 73
    8
 40
18.5
 49
6
 49
-1.5
 49
6
 49
-1.5
 49
0.25
 49
-1.5
 49
0.25
 49
-1.5
  0
LTYPE
  2
dashed_triplicate-dotted
 70
   64
  3
-------    -    -    -    ------
 72
   65
 73
    8
 40
12.75
 49
6
 49
-1.5
 49
0.25
 49
-1.5
 49
0.25
 49
-1.5
 49
0.25
 49
-1.5
  0
LTYPE
  2
double-dashed_triplicate-dotted
 70
   64
  3
-----  ---------  -  -  -  -----
 72
   65
 73
   10
 40
20.25
 49
6
 49
-1.5
 49
6
 49
-1.5
 49
0.25
 49
-1.5
 49
0.25
 49
-1.5
 49
0.25
 49
-1.5
  0
LTYPE
  2
undefined
 70
   64
  3
--------------------------------
 72
   65
 73
    0
 40
0
  0
LTYPE
  2
PLINE2
 70
   64
  3
------     -----------     -----
 72
   65
 73
    2
 40
3
 49
2.1000000000000001
 49
-0.9
  0
LTYPE
  2
_
 70
   64
  3
                                
 72
   65
 73
    0
 40
0
  0
LTYPE
  2
__19
 70
   64
  3
                                
 72
   65
 73
    0
 40
0
  0
LTYPE
  2
__20
 70
   64
  3
                                
 72
   65
 73
    0
 40
0
  0
LTYPE
  2
__21
 70
   64
  3
                                
 72
   65
 73
    0
 40
0
  0
LTYPE
  2
__22
 70
   64
  3
                                
 72
   65
 73
    0
 40
0
  0
LTYPE
  2
__23
 70
   64
  3
                                
 72
   65
 73
    0
 40
0
  0
LTYPE
  2
__24
 70
   64
  3
                                
 72
   65
 73
    0
 40
0
  0
LTYPE
  2
__25
 70
   64
  3
                                
 72
   65
 73
    0
 40
0
  0
LTYPE
  2
__26
 70
   64
  3
                                
 72
   65
 73
    0
 40
0
  0
LTYPE
  2
__27
 70
   64
  3
                                
 72
   65
 73
    0
 40
0
  0
LTYPE
  2
__28
 70
   64
  3
                                
 72
   65
 73
    0
 40
0
  0
LTYPE
  2
__29
 70
   64
  3
                                
 72
   65
 73
    0
 40
0
  0
LTYPE
  2
__30
 70
   64
  3
                                
 72
   65
 73
    0
 40
0
  0
LTYPE
  2
__31
 70
   64
  3
                                
 72
   65
 73
    0
 40
0
  0
LTYPE
  2
__32
 70
   64
  3
                                
 72
   65
 73
    0
 40
0
  0
ENDTAB
  0
TABLE
  2
STYLE
  5
3
100
AcDbSymbolTable
 70
     1
  0
STYLE
  5
10
100
AcDbSymbolTableRecord
100
AcDbTextStyleTableRecord
  2
STANDARD
 70
     0
 40
0.0
 41
1.0
 50
0.0
 71
     0
 42
0.2
  3
txt
  4
bigfont.shx
  0
STYLE
  5
26
100
AcDbSymbolTableRecord
100
AcDbTextStyleTableRecord
  2
TATEGAKI
 70
    68
 40
0.0
 41
1.0
 50
0.0
 71
     0
 42
1.0
  3
txt
  4
bigfont.shx
  0
ENDTAB
  0
TABLE
  2
LAYER
 70
    2
  0
LAYER
  2
_0-7__0-0_
 70
   64
 62
    7
  6
CONTINUOUS
  0
LAYER
  2
ADD_LINE
 70
   64
 62
    7
  6
CONTINUOUS
  0
ENDTAB
  0
ENDSEC
  0
SECTION
  2
BLOCKS
  0
BLOCK
  2
-000-Viewport-1
 70
   64
 10
0
 20
0
 30
0
  0
TEXT
  8
_0-2_文字-記号
 62
    7
 10
614.86625600000002
 20
-1044.531203
 40
12
 41
1.1499999999999999
 50
0
  1
標準納まり図
  0
TEXT
  8
_0-2_文字-記号
 62
    7
 10
614.86625600000002
 20
-1016.386933
 40
12
 41
1.1500000000000001
 50
0
  1
サニーデッキNAW　　ｔ30×ｗ164.5
  0
TEXT
  8
_0-2_文字-記号
 62
    7
 10
721.45791299999996
 20
-1044.531203
 40
12
 41
1.1500000000000001
 50
0
  1
基本ピッチ：支持脚 ９００×根太鋼 ５００
  0
LINE
  8
_0-3_躯体と製品
  6
CONTINUOUS
 62
    7
 10
745.504865
 20
-1178.4258649999999
 11
745.50485400000002
 21
-1172.825865
  0
LINE
  8
_0-3_躯体と製品
  6
CONTINUOUS
 62
    7
 10
745.50485400000002
 20
-1172.825865
 11
785.50485400000002
 21
-1172.825865
  0
LINE
  8
_0-3_躯体と製品
  6
CONTINUOUS
 62
    7
 10
785.50485400000002
 20
-1172.825865
 11
785.504865
 21
-1178.4258649999999
  0
LINE
  8
_0-3_躯体と製品
  6
CONTINUOUS
 62
    7
 10
760.45196199999998
 20
-1254.2258650000001
 11
760.45196199999998
 21
-1193.4258950000001
  0
LINE
  8
_0-3_躯体と製品
  6
CONTINUOUS
 62
    7
 10
770.55796199999997
 20
-1254.2258650000001
 11
770.55796199999997
 21
-1193.4258950000001
  0
LINE
  8
_0-3_躯体と製品
  6
CONTINUOUS
 62
    7
 10
759.50496199999998
 20
-1254.2258650000001
 11
759.50496199999998
 21
-1193.4258950000001
  0
LINE
  8
_0-3_躯体と製品
  6
CONTINUOUS
 62
    7
 10
771.50496199999998
 20
-1254.2258650000001
 11
771.50496199999998
 21
-1193.4258950000001
  0
LINE
  8
_0-3_躯体と製品
  6
CONTINUOUS
 62
    7
 10
776.45491200000004
 20
-1192.6258849999999
 11
776.45491200000004
 21
-1189.4258950000001
  0
LINE
  8
_0-3_躯体と製品
  6
CONTINUOUS
 62
    7
 10
770.97993199999996
 20
-1191.925835
 11
770.97993199999996
 21
-1189.4258950000001
  0
LINE
  8
_0-3_躯体と製品
  6
CONTINUOUS
 62
    7
 10
718.75496199999998
 20
-1178.4258649999999
 11
812.25496199999998
 21
-1178.4258649999999
  0
LINE
  8
_0-3_躯体と製品
  6
CONTINUOUS
 62
    7
 10
815.50496199999998
 20
-1181.6758649999999
 11
815.50496199999998
 21
-1189.4258950000001
  0
LINE
  8
_0-3_躯体と製品
  6
CONTINUOUS
 62
    7
 10
756.70877499999995
 20
-1193.4258950000001
 11
773.72850300000005
 21
-1193.4258950000001
  0
LINE
  8
_0-3_躯体と製品
  6
CONTINUOUS
 62
    7
 10
774.83242600000005
 20
-1193.2285509999999
 11
776.454972
 21
-1192.625855
  0
LINE
  8
_0-3_躯体と製品
  6
CONTINUOUS
 62
    7
 10
765.50496199999998
 20
-1189.4258950000001
 11
815.50496199999998
 21
-1189.4258950000001
  0
ARC
  8
_0-3_躯体と製品
  6
CONTINUOUS
 62
    7
 10
765.50496199999998
 20
-1182.684015
 40
10.741879000000001
 50
270
 51
300.64285999999902
  0
ARC
  8
_0-3_躯体と製品
  6
CONTINUOUS
 62
    7
 10
812.25496199999998
 20
-1181.6758649999999
 40
3.25
 50
0
 51
90
  0
ARC
  8
_0-3_躯体と製品
  6
CONTINUOUS
 62
    7
 10
773.71748200000002
 20
-1190.1779449999999
 40
3.2479689999999999
 50
212.559340000004
 51
327.440659999996
  0
LINE
  8
_0-3_躯体と製品
  6
CONTINUOUS
 62
    7
 10
754.55501200000003
 20
-1192.6258849999999
 11
754.55501200000003
 21
-1189.4258950000001
  0
LINE
  8
_0-3_躯体と製品
  6
CONTINUOUS
 62
    7
 10
760.02999199999999
 20
-1191.925835
 11
760.02999199999999
 21
-1189.4258950000001
  0
LINE
  8
_0-3_躯体と製品
  6
CONTINUOUS
 62
    7
 10
715.50496199999998
 20
-1181.6758649999999
 11
715.50496199999998
 21
-1189.4258950000001
  0
LINE
  8
_0-3_躯体と製品
  6
CONTINUOUS
 62
    7
 10
756.17749700000002
 20
-1193.2285509999999
 11
754.55495199999996
 21
-1192.625855
  0
LINE
  8
_0-3_躯体と製品
  6
CONTINUOUS
 62
    7
 10
765.50496199999998
 20
-1189.4258950000001
 11
715.50496199999998
 21
-1189.4258950000001
  0
ARC
  8
_0-3_躯体と製品
  6
CONTINUOUS
 62
    7
 10
765.50496199999998
 20
-1182.684015
 40
10.741879000000001
 50
239.35714000000098
 51
269.99999999999994
  0
ARC
  8
_0-3_躯体と製品
  6
CONTINUOUS
 62
    7
 10
718.75496199999998
 20
-1181.6758649999999
 40
3.25
 50
90
 51
180
  0
ARC
  8
_0-3_躯体と製品
  6
CONTINUOUS
 62
    7
 10
757.29244200000005
 20
-1190.1779449999999
 40
3.2479689999999999
 50
212.559340000004
 51
327.440659999996
  0
LINE
  8
_0-3_躯体と製品
  6
CONTINUOUS
 62
    7
 10
767.20493799999997
 20
-1190.4259280000001
 11
766.40232300000002
 21
-1191.830046
  0
LINE
  8
_0-3_躯体と製品
  6
CONTINUOUS
 62
    7
 10
766.40232300000002
 20
-1191.830046
 11
765.82783800000004
 21
-1193.341651
  0
LINE
  8
_0-3_躯体と製品
  6
CONTINUOUS
 62
    7
 10
765.82783800000004
 20
-1193.341651
 11
765.50485800000001
 21
-1194.9259280000001
  0
LINE
  8
_0-3_躯体と製品
  6
CONTINUOUS
 62
    7
 10
765.50485800000001
 20
-1194.9259280000001
 11
764.98381300000005
 21
-1194.509239
  0
LINE
  8
_0-3_躯体と製品
  6
CONTINUOUS
 62
    7
 10
764.98381300000005
 20
-1194.509239
 11
764.33464300000003
 21
-1194.518926
  0
LINE
  8
_0-3_躯体と製品
  6
CONTINUOUS
 62
    7
 10
764.33464300000003
 20
-1194.518926
 11
763.80493799999999
 21
-1194.9259280000001
  0
ARC
  8
_0-3_躯体と製品
  6
CONTINUOUS
 62
    7
 10
765.50533299999995
 20
-1181.425804
 40
6
 50
90
 51
127.46625999999898
  0
ARC
  8
_0-3_躯体と製品
  6
CONTINUOUS
 62
    7
 10
765.50533299999995
 20
-1181.425804
 40
5.9999989999999999
 50
52.533730000002997
 51
90
  0
LINE
  8
_0-3_躯体と製品
  6
CONTINUOUS
 62
    7
 10
765.92502300000001
 20
-1175.4405019999999
 11
765.92502300000001
 21
-1175.8435750000001
  0
LINE
  8
_0-3_躯体と製品
  6
CONTINUOUS
 62
    7
 10
765.08502799999997
 20
-1175.440544
 11
765.08502799999997
 21
-1175.8435750000001
  0
LINE
  8
_0-3_躯体と製品
  6
CONTINUOUS
 62
    7
 10
765.92502300000001
 20
-1175.8435750000001
 11
765.08502799999997
 21
-1175.8435750000001
  0
LINE
  8
_0-3_躯体と製品
  6
CONTINUOUS
 62
    7
 10
763.80493799999999
 20
-1190.4259280000001
 11
763.80493799999999
 21
-1194.9258669999999
  0
LINE
  8
_0-3_躯体と製品
  6
CONTINUOUS
 62
    7
 10
767.20493799999997
 20
-1194.9258669999999
 11
767.20493799999997
 21
-1190.4258669999999
  0
LINE
  8
_0-3_躯体と製品
  6
CONTINUOUS
 62
    7
 10
767.20493799999997
 20
-1190.4259320000001
 11
765.50494300000003
 21
-1196.4258669999999
  0
LINE
  8
_0-3_躯体と製品
  6
CONTINUOUS
 62
    7
 10
767.20493799999997
 20
-1194.9259280000001
 11
765.50494300000003
 21
-1196.4258649999999
  0
LINE
  8
_0-3_躯体と製品
  6
CONTINUOUS
 62
    7
 10
765.50494300000003
 20
-1196.4258649999999
 11
763.80493799999999
 21
-1194.9258669999999
  0
LINE
  8
_0-3_躯体と製品
  6
CONTINUOUS
 62
    7
 10
767.70503299999996
 20
-1175.8435710000001
 11
765.92502300000001
 21
-1178.4258689999999
  0
LINE
  8
_0-3_躯体と製品
  6
CONTINUOUS
 62
    7
 10
765.08502799999997
 20
-1178.4258689999999
 11
763.30502799999999
 21
-1175.8438149999999
  0
LINE
  8
_0-3_躯体と製品
  6
CONTINUOUS
 62
    7
 10
765.08502799999997
 20
-1175.8435750000001
 11
765.08502799999997
 21
-1178.4258649999999
  0
LINE
  8
_0-3_躯体と製品
  6
CONTINUOUS
 62
    7
 10
765.92502300000001
 20
-1175.8435750000001
 11
765.92502300000001
 21
-1178.4258649999999
  0
LINE
  8
_0-3_躯体と製品
  6
CONTINUOUS
 62
    7
 10
761.96763299999998
 20
-1178.4258649999999
 11
769.04334300000005
 21
-1178.4258649999999
  0
LINE
  8
_0-3_躯体と製品
  6
CONTINUOUS
 62
    7
 10
767.20493799999997
 20
-1190.4259280000001
 11
763.80493799999999
 21
-1190.4259280000001
  0
LINE
  8
_0-3_躯体と製品
  6
CONTINUOUS
 62
    7
 10
764.00496699999997
 20
-1189.4258950000001
 11
764.00493300000005
 21
-1190.4259280000001
  0
LINE
  8
_0-3_躯体と製品
  6
CONTINUOUS
 62
    7
 10
767.00496099999998
 20
-1189.4258950000001
 11
767.00493300000005
 21
-1190.4258669999999
  0
LINE
  8
_0-3_躯体と製品
  6
CONTINUOUS
 62
    7
 10
769.50536299999999
 20
-1177.625824
 11
769.043363
 21
-1178.425831
  0
LINE
  8
_0-3_躯体と製品
  6
CONTINUOUS
 62
    7
 10
769.155618
 20
-1176.663673
 11
769.505628
 21
-1177.6256599999999
  0
LINE
  8
_0-3_躯体と製品
  6
CONTINUOUS
 62
    7
 10
761.85529799999995
 20
-1176.663857
 11
761.50533299999995
 21
-1177.6257290000001
  0
LINE
  8
_0-3_躯体と製品
  6
CONTINUOUS
 62
    7
 10
761.50550799999996
 20
-1177.6256490000001
 11
761.95308299999999
 21
-1178.4006770000001
  0
LINE
  8
_0-3_躯体と製品
  6
CONTINUOUS
 62
    7
 10
761.50533299999995
 20
-1177.625816
 11
769.50533299999995
 21
-1177.625816
  0
LINE
  8
_0-3_躯体と製品
  6
CONTINUOUS
 62
    7
 10
750.50494400000002
 20
-1254.2258650000001
 11
780.50494400000002
 21
-1254.2258650000001
  0
LINE
  8
_0-3_躯体と製品
  6
CONTINUOUS
 62
    7
 10
780.50494400000002
 20
-1254.2258650000001
 11
780.50494400000002
 21
-1257.4258649999999
  0
LINE
  8
_0-3_躯体と製品
  6
CONTINUOUS
 62
    7
 10
780.50494400000002
 20
-1257.4258649999999
 11
750.50494400000002
 21
-1257.4258649999999
  0
LINE
  8
_0-3_躯体と製品
  6
CONTINUOUS
 62
    7
 10
750.50494400000002
 20
-1257.4258649999999
 11
750.50494400000002
 21
-1254.2258650000001
  0
LINE
  8
_0-3_躯体と製品
  6
PLINE2
 62
    7
 10
759.50496199999998
 20
-1257.4258649999999
 11
759.50496199999998
 21
-1292.4258649999999
  0
LINE
  8
_0-3_躯体と製品
  6
PLINE2
 62
    7
 10
759.50496199999998
 20
-1292.4258649999999
 11
771.50496199999998
 21
-1292.4258649999999
  0
LINE
  8
_0-3_躯体と製品
  6
PLINE2
 62
    7
 10
771.50496199999998
 20
-1292.4258649999999
 11
771.50496199999998
 21
-1257.4258649999999
  0
LINE
  8
_0-3_躯体と製品
  6
CONTINUOUS
 62
    3
 10
905.50493500000005
 20
-1174.825865
 11
785.50485800000001
 21
-1174.825865
  0
LINE
  8
_0-3_躯体と製品
  6
CONTINUOUS
 62
    3
 10
905.50493500000005
 20
-1176.4258649999999
 11
785.50486100000001
 21
-1176.4258649999999
  0
LINE
  8
_0-3_躯体と製品
  6
CONTINUOUS
 62
    3
 10
625.50493500000005
 20
-1174.825865
 11
745.50485800000001
 21
-1174.825865
  0
LINE
  8
_0-3_躯体と製品
  6
CONTINUOUS
 62
    3
 10
625.50493500000005
 20
-1176.4258649999999
 11
745.50486100000001
 21
-1176.4258649999999
  0
LINE
  8
_0-3_躯体と製品
  6
CONTINUOUS
 62
    4
 10
905.50494400000002
 20
-1257.4258649999999
 11
625.50494400000002
 21
-1257.4258649999999
  0
LINE
  8
_0-3_躯体と製品
  6
CONTINUOUS
 62
    3
 10
625.50493100000006
 20
-1147.4258649999999
 11
905.50493100000006
 21
-1147.4258649999999
  0
LINE
  8
_0-3_躯体と製品
  6
PLINE2
 62
    7
 10
758.504954
 20
-1257.4258649999999
 11
758.504954
 21
-1293.1308650000001
  0
LINE
  8
_0-3_躯体と製品
  6
PLINE2
 62
    7
 10
758.504954
 20
-1293.1308650000001
 11
765.504954
 21
-1297.173865
  0
LINE
  8
_0-3_躯体と製品
  6
PLINE2
 62
    7
 10
765.504954
 20
-1297.173865
 11
772.504954
 21
-1293.1308650000001
  0
LINE
  8
_0-3_躯体と製品
  6
PLINE2
 62
    7
 10
772.504954
 20
-1293.1308650000001
 11
772.504954
 21
-1257.4258649999999
  0
LINE
  8
_0-5_中心線
  6
CENTER1
 62
    7
 10
1186.8864140000001
 20
-1324.0093220000001
 11
1186.8864140000001
 21
-1127.8433520000001
  0
LINE
  8
_0-3_躯体と製品
  6
CONTINUOUS
 62
    7
 10
1140.1364140000001
 20
-1178.4258649999999
 11
1233.6364140000001
 21
-1178.4258649999999
  0
LINE
  8
_0-3_躯体と製品
  6
CONTINUOUS
 62
    7
 10
1236.8864140000001
 20
-1181.6758649999999
 11
1236.8864140000001
 21
-1189.4258950000001
  0
ARC
  8
_0-3_躯体と製品
  6
CONTINUOUS
 62
    7
 10
1233.6364140000001
 20
-1181.6758649999999
 40
3.25
 50
0
 51
90
  0
LINE
  8
_0-3_躯体と製品
  6
CONTINUOUS
 62
    7
 10
1136.8864140000001
 20
-1181.6758649999999
 11
1136.8864140000001
 21
-1189.4258950000001
  0
LINE
  8
_0-3_躯体と製品
  6
CONTINUOUS
 62
    7
 10
1236.8864140000001
 20
-1189.4258950000001
 11
1136.8864140000001
 21
-1189.4258950000001
  0
ARC
  8
_0-3_躯体と製品
  6
CONTINUOUS
 62
    7
 10
1140.1364140000001
 20
-1181.6758649999999
 40
3.25
 50
90
 51
180
  0
LINE
  8
_0-3_躯体と製品
  6
CONTINUOUS
 62
    7
 10
1171.8863960000001
 20
-1254.2258650000001
 11
1201.8863960000001
 21
-1254.2258650000001
  0
LINE
  8
_0-3_躯体と製品
  6
CONTINUOUS
 62
    7
 10
1201.8863960000001
 20
-1254.2258650000001
 11
1201.8863960000001
 21
-1257.4258649999999
  0
LINE
  8
_0-3_躯体と製品
  6
CONTINUOUS
 62
    7
 10
1201.8863960000001
 20
-1257.4258649999999
 11
1171.8863960000001
 21
-1257.4258649999999
  0
LINE
  8
_0-3_躯体と製品
  6
CONTINUOUS
 62
    7
 10
1171.8863960000001
 20
-1257.4258649999999
 11
1171.8863960000001
 21
-1254.2258650000001
  0
LINE
  8
_0-3_躯体と製品
  6
CONTINUOUS
 62
    4
 10
1026.8864140000001
 20
-1257.4258649999999
 11
1346.8864140000001
 21
-1257.4258649999999
  0
LINE
  8
_0-2_文字-記号
  6
CONTINUOUS
 62
    7
 10
1221.821531
 20
-1186.811048
 11
1232.9874830000001
 21
-1206.151044
  0
LINE
  8
_0-2_文字-記号
  6
CONTINUOUS
 62
    7
 10
1232.9874830000001
 20
-1206.151044
 11
1274.2169839999999
 21
-1206.151044
  0
TEXT
  8
_0-2_文字-記号
 62
    7
 10
1235.2612770000001
 20
-1205.1676090000001
 40
10
 41
0.9199999999999999
 50
0
  1
受け金具
  0
LINE
  8
_0-3_躯体と製品
  6
CONTINUOUS
 62
    7
 10
1192.8864229999999
 20
-1254.2258650000001
 11
1192.8864229999999
 21
-1193.4258950000001
  0
LINE
  8
_0-3_躯体と製品
  6
CONTINUOUS
 62
    7
 10
1191.3864229999999
 20
-1254.2258650000001
 11
1191.3864229999999
 21
-1193.425604
  0
LINE
  8
_0-3_躯体と製品
  6
CONTINUOUS
 62
    7
 10
1182.3864229999999
 20
-1254.2258650000001
 11
1182.3864229999999
 21
-1193.425604
  0
LINE
  8
_0-3_躯体と製品
  6
CONTINUOUS
 62
    7
 10
1180.8864229999999
 20
-1254.2258650000001
 11
1180.8864229999999
 21
-1193.4258950000001
  0
LINE
  8
_0-3_躯体と製品
  6
PLINE2
 62
    7
 10
1191.3864289999999
 20
-1292.4258649999999
 11
1191.3864289999999
 21
-1257.4258649999999
  0
LINE
  8
_0-3_躯体と製品
  6
PLINE2
 62
    7
 10
1192.8864289999999
 20
-1290.9258649999999
 11
1192.8864289999999
 21
-1257.4258649999999
  0
LINE
  8
_0-3_躯体と製品
  6
PLINE2
 62
    7
 10
1180.8864289999999
 20
-1290.9258649999999
 11
1180.8864289999999
 21
-1257.4258649999999
  0
LINE
  8
_0-3_躯体と製品
  6
PLINE2
 62
    7
 10
1182.3864289999999
 20
-1292.4258649999999
 11
1182.3864289999999
 21
-1257.4258649999999
  0
LINE
  8
_0-3_躯体と製品
  6
PLINE2
 62
    7
 10
1191.3864289999999
 20
-1292.4258649999999
 11
1192.8864289999999
 21
-1290.9258649999999
  0
LINE
  8
_0-3_躯体と製品
  6
PLINE2
 62
    7
 10
1192.8864289999999
 20
-1290.9258649999999
 11
1180.8864289999999
 21
-1290.9258649999999
  0
LINE
  8
_0-3_躯体と製品
  6
PLINE2
 62
    7
 10
1180.8864289999999
 20
-1290.9258649999999
 11
1182.3864289999999
 21
-1292.4258649999999
  0
LINE
  8
_0-3_躯体と製品
  6
PLINE2
 62
    7
 10
1182.3864289999999
 20
-1292.4258649999999
 11
1191.3864289999999
 21
-1292.4258649999999
  0
LINE
  8
_0-3_躯体と製品
  6
PLINE2
 62
    7
 10
1179.8864289999999
 20
-1257.4258649999999
 11
1179.8864289999999
 21
-1293.1308650000001
  0
LINE
  8
_0-3_躯体と製品
  6
PLINE2
 62
    7
 10
1179.8864289999999
 20
-1293.1308650000001
 11
1186.8864289999999
 21
-1297.173865
  0
LINE
  8
_0-3_躯体と製品
  6
PLINE2
 62
    7
 10
1186.8864289999999
 20
-1297.173865
 11
1193.8864289999999
 21
-1293.1308650000001
  0
LINE
  8
_0-3_躯体と製品
  6
PLINE2
 62
    7
 10
1193.8864289999999
 20
-1293.1308650000001
 11
1193.8864289999999
 21
-1257.4258649999999
  0
LINE
  8
_0-3_躯体と製品
  6
CONTINUOUS
 62
    3
 10
1064.287671
 20
-1277.4258649999999
 11
1084.287671
 21
-1257.4258649999999
  0
LINE
  8
_0-3_躯体と製品
  6
CONTINUOUS
 62
    3
 10
1058.6308160000001
 20
-1277.4258649999999
 11
1078.6308160000001
 21
-1257.4258649999999
  0
LINE
  8
_0-3_躯体と製品
  6
CONTINUOUS
 62
    3
 10
1069.944526
 20
-1277.4258649999999
 11
1089.944526
 21
-1257.4258649999999
  0
LINE
  8
_0-3_躯体と製品
  6
CONTINUOUS
 62
    3
 10
1239.863601
 20
-1277.4258649999999
 11
1259.863601
 21
-1257.4258649999999
  0
LINE
  8
_0-3_躯体と製品
  6
CONTINUOUS
 62
    3
 10
1234.2067460000001
 20
-1277.4258649999999
 11
1254.2067460000001
 21
-1257.4258649999999
  0
LINE
  8
_0-3_躯体と製品
  6
CONTINUOUS
 62
    3
 10
1228.549896
 20
-1277.4258649999999
 11
1248.549896
 21
-1257.4258649999999
  0
LINE
  8
_0-3_躯体と製品
  6
CONTINUOUS
 62
    7
 10
1218.8864140000001
 20
-1173.4258649999999
 11
1223.8864140000001
 21
-1173.4258649999999
  0
LINE
  8
_0-3_躯体と製品
  6
CONTINUOUS
 62
    7
 10
1223.8864140000001
 20
-1173.4258649999999
 11
1223.8864140000001
 21
-1176.4258649999999
  0
LINE
  8
_0-3_躯体と製品
  6
CONTINUOUS
 62
    7
 10
1223.8864140000001
 20
-1176.4258649999999
 11
1149.8864140000001
 21
-1176.4258649999999
  0
LINE
  8
_0-3_躯体と製品
  6
CONTINUOUS
 62
    7
 10
1149.8864140000001
 20
-1176.4258649999999
 11
1149.8864140000001
 21
-1173.4258649999999
  0
LINE
  8
_0-3_躯体と製品
  6
CONTINUOUS
 62
    7
 10
1149.8864140000001
 20
-1173.4258649999999
 11
1154.8864140000001
 21
-1173.4258649999999
  0
LINE
  8
_0-3_躯体と製品
  6
CONTINUOUS
 62
    7
 10
1154.8864140000001
 20
-1173.4258649999999
 11
1154.8864140000001
 21
-1171.4258649999999
  0
LINE
  8
_0-3_躯体と製品
  6
CONTINUOUS
 62
    7
 10
1154.8864140000001
 20
-1171.4258649999999
 11
1147.8864140000001
 21
-1171.4258649999999
  0
LINE
  8
_0-3_躯体と製品
  6
CONTINUOUS
 62
    7
 10
1147.8864140000001
 20
-1171.4258649999999
 11
1147.8864140000001
 21
-1178.4258649999999
  0
LINE
  8
_0-3_躯体と製品
  6
CONTINUOUS
 62
    7
 10
1147.8864140000001
 20
-1178.4258649999999
 11
1225.8864140000001
 21
-1178.4258649999999
  0
LINE
  8
_0-3_躯体と製品
  6
CONTINUOUS
 62
    7
 10
1225.8864140000001
 20
-1178.4258649999999
 11
1225.8864140000001
 21
-1171.4258649999999
  0
LINE
  8
_0-3_躯体と製品
  6
CONTINUOUS
 62
    7
 10
1225.8864140000001
 20
-1171.4258649999999
 11
1218.8864140000001
 21
-1171.4258649999999
  0
LINE
  8
_0-3_躯体と製品
  6
CONTINUOUS
 62
    7
 10
1218.8864140000001
 20
-1171.4258649999999
 11
1218.8864140000001
 21
-1173.4258649999999
  0
ARC
  8
_0-3_躯体と製品
  6
CONTINUOUS
 62
    7
 10
1195.098414
 20
-1172.673865
 40
4.2480000000000002
 50
49.869772999028598
 51
130.11991899997
  0
LINE
  8
_0-3_躯体と製品
  6
CONTINUOUS
 62
    7
 10
1192.361414
 20
-1174.4268649999999
 11
1192.361414
 21
-1169.424865
  0
LINE
  8
_0-3_躯体と製品
  6
CONTINUOUS
 62
    7
 10
1197.8364140000001
 20
-1169.4258649999999
 11
1197.8364140000001
 21
-1174.4258649999999
  0
ARC
  8
_0-3_躯体と製品
  6
CONTINUOUS
 62
    7
 10
1195.098414
 20
-1171.1778650000001
 40
4.2480000000000002
 50
229.880080999423
 51
310.13022700036402
  0
LINE
  8
_0-3_躯体と製品
  6
CONTINUOUS
 62
    7
 10
1192.8864140000001
 20
-1162.9258649999999
 11
1192.8864140000001
 21
-1168.4258649999999
  0
LINE
  8
_0-3_躯体と製品
  6
CONTINUOUS
 62
    7
 10
1188.618414
 20
-1175.4258649999999
 11
1188.0410810000001
 21
-1176.4258649999999
  0
LINE
  8
_0-3_躯体と製品
  6
CONTINUOUS
 62
    7
 10
1186.8864140000001
 20
-1175.4258649999999
 11
1186.3090810000001
 21
-1176.4258649999999
  0
LINE
  8
_0-3_躯体と製品
  6
CONTINUOUS
 62
    7
 10
1191.3864140000001
 20
-1161.4258649999999
 11
1191.3864140000001
 21
-1168.4258649999999
  0
LINE
  8
_0-3_躯体と製品
  6
CONTINUOUS
 62
    7
 10
1180.8864140000001
 20
-1162.9258649999999
 11
1182.3864140000001
 21
-1161.4258649999999
  0
LINE
  8
_0-3_躯体と製品
  6
CONTINUOUS
 62
    7
 10
1181.4114139999999
 20
-1174.4268649999999
 11
1181.4114139999999
 21
-1169.424865
  0
LINE
  8
_0-3_躯体と製品
  6
CONTINUOUS
 62
    7
 10
1175.936414
 20
-1169.4258649999999
 11
1175.936414
 21
-1174.4258649999999
  0
ARC
  8
_0-3_躯体と製品
  6
CONTINUOUS
 62
    7
 10
1178.6744140000001
 20
-1172.673865
 40
4.2480000000000002
 50
49.880087000610089
 51
130.13023300101398
  0
ARC
  8
_0-3_躯体と製品
  6
CONTINUOUS
 62
    7
 10
1178.6744140000001
 20
-1171.1778650000001
 40
4.2480000000000002
 50
229.86976699959499
 51
310.11991299999897
  0
ARC
  8
_0-3_躯体と製品
  6
CONTINUOUS
 62
    7
 10
1186.8854140000001
 20
-1183.9188650000001
 40
15.493
 50
69.301553000273202
 51
110.690226999031
  0
LINE
  8
_0-3_躯体と製品
  6
CONTINUOUS
 62
    7
 10
1180.8864140000001
 20
-1168.4258649999999
 11
1180.8864140000001
 21
-1162.9258649999999
  0
LINE
  8
_0-3_躯体と製品
  6
CONTINUOUS
 62
    7
 10
1180.8864140000001
 20
-1162.9258649999999
 11
1192.8864140000001
 21
-1162.9258649999999
  0
LINE
  8
_0-3_躯体と製品
  6
CONTINUOUS
 62
    7
 10
1192.8864140000001
 20
-1162.9258649999999
 11
1191.3864140000001
 21
-1161.4258649999999
  0
LINE
  8
_0-3_躯体と製品
  6
CONTINUOUS
 62
    7
 10
1191.3864140000001
 20
-1161.4258649999999
 11
1182.3864140000001
 21
-1161.4258649999999
  0
LINE
  8
_0-3_躯体と製品
  6
CONTINUOUS
 62
    7
 10
1182.3864140000001
 20
-1161.4258649999999
 11
1182.3864140000001
 21
-1168.4258649999999
  0
ARC
  8
_0-3_躯体と製品
  6
CONTINUOUS
 62
    7
 10
1186.8854140000001
 20
-1159.932865
 40
15.493
 50
249.30977300096899
 51
290.69844699972703
  0
LINE
  8
_0-3_躯体と製品
  6
CONTINUOUS
 62
    7
 10
1178.6734140000001
 20
-1168.4258649999999
 11
1195.0974140000001
 21
-1168.4258649999999
  0
LINE
  8
_0-3_躯体と製品
  6
CONTINUOUS
 62
    7
 10
1197.6364140000001
 20
-1176.4258649999999
 11
1197.6364140000001
 21
-1175.4258649999999
  0
LINE
  8
_0-3_躯体と製品
  6
CONTINUOUS
 62
    7
 10
1197.6364140000001
 20
-1175.4258649999999
 11
1176.1364140000001
 21
-1175.4258649999999
  0
LINE
  8
_0-3_躯体と製品
  6
CONTINUOUS
 62
    7
 10
1176.1364140000001
 20
-1175.4258649999999
 11
1176.1364140000001
 21
-1176.4258649999999
  0
LINE
  8
_0-3_躯体と製品
  6
CONTINUOUS
 62
    3
 10
1205.2864139999999
 20
-1174.325865
 11
1205.2864139999999
 21
-1149.5258650000001
  0
ARC
  8
_0-3_躯体と製品
  6
CONTINUOUS
 62
    3
 10
1204.7864139999999
 20
-1149.5258650000001
 40
0.5
 50
359.99999850005997
 51
90.000001499940325
  0
LINE
  8
_0-3_躯体と製品
  6
CONTINUOUS
 62
    3
 10
1204.7864139999999
 20
-1149.0258650000001
 11
1168.986414
 21
-1149.0258650000001
  0
ARC
  8
_0-3_躯体と製品
  6
CONTINUOUS
 62
    3
 10
1168.986414
 20
-1149.5258650000001
 40
0.5
 50
89.999999999061998
 51
180.00000299915101
  0
LINE
  8
_0-3_躯体と製品
  6
CONTINUOUS
 62
    3
 10
1168.486414
 20
-1149.5258650000001
 11
1168.486414
 21
-1174.325865
  0
ARC
  8
_0-3_躯体と製品
  6
CONTINUOUS
 62
    3
 10
1166.3864140000001
 20
-1174.325865
 40
2.1000000000000001
 50
269.99999999960301
 51
359.99999999960301
  0
LINE
  8
_0-3_躯体と製品
  6
CONTINUOUS
 62
    3
 10
1166.3864140000001
 20
-1176.4258649999999
 11
1149.8864140000001
 21
-1176.4258649999999
  0
LINE
  8
_0-3_躯体と製品
  6
CONTINUOUS
 62
    3
 10
1149.8864140000001
 20
-1176.4258649999999
 11
1149.8864140000001
 21
-1174.825865
  0
LINE
  8
_0-3_躯体と製品
  6
CONTINUOUS
 62
    3
 10
1149.8864140000001
 20
-1174.825865
 11
1166.3864140000001
 21
-1174.825865
  0
ARC
  8
_0-3_躯体と製品
  6
CONTINUOUS
 62
    3
 10
1166.3864140000001
 20
-1174.325865
 40
0.5
 50
269.99999850005997
 51
0.0000014999402623
  0
LINE
  8
_0-3_躯体と製品
  6
CONTINUOUS
 62
    3
 10
1166.8864140000001
 20
-1174.325865
 11
1166.8864140000001
 21
-1149.5258650000001
  0
ARC
  8
_0-3_躯体と製品
  6
CONTINUOUS
 62
    3
 10
1168.986414
 20
-1149.5258650000001
 40
2.1000000000000001
 50
90.000000000396994
 51
180.00000000039702
  0
LINE
  8
_0-3_躯体と製品
  6
CONTINUOUS
 62
    3
 10
1168.986414
 20
-1147.4258649999999
 11
1204.7864139999999
 21
-1147.4258649999999
  0
ARC
  8
_0-3_躯体と製品
  6
CONTINUOUS
 62
    3
 10
1204.7864139999999
 20
-1149.5258650000001
 40
2.1000000000000001
 50
359.99999999964598
 51
89.999999999559506
  0
LINE
  8
_0-3_躯体と製品
  6
CONTINUOUS
 62
    3
 10
1206.8864140000001
 20
-1149.5258650000001
 11
1206.8864140000001
 21
-1174.325865
  0
ARC
  8
_0-3_躯体と製品
  6
CONTINUOUS
 62
    3
 10
1207.3864140000001
 20
-1174.325865
 40
0.5
 50
180.00000750147299
 51
269.999998501623
  0
LINE
  8
_0-3_躯体と製品
  6
CONTINUOUS
 62
    3
 10
1207.3864140000001
 20
-1174.825865
 11
1223.8864140000001
 21
-1174.825865
  0
LINE
  8
_0-3_躯体と製品
  6
CONTINUOUS
 62
    3
 10
1223.8864140000001
 20
-1174.825865
 11
1223.8864140000001
 21
-1176.4258649999999
  0
LINE
  8
_0-3_躯体と製品
  6
CONTINUOUS
 62
    3
 10
1223.8864140000001
 20
-1176.4258649999999
 11
1207.3864140000001
 21
-1176.4258649999999
  0
ARC
  8
_0-3_躯体と製品
  6
CONTINUOUS
 62
    3
 10
1207.3864140000001
 20
-1174.325865
 40
2.1000000000000001
 50
180.00000600034201
 51
270.00000000037198
  0
LINE
  8
_0-5_中心線
  6
CENTER1
 62
    7
 10
1159.1364140000001
 20
-1190.825865
 11
1159.1364140000001
 21
-1167.9021150000001
  0
ARC
  8
_0-3_躯体と製品
  6
CONTINUOUS
 62
    7
 10
1159.6834140000001
 20
-1176.613865
 40
4.819
 50
48.111754998678002
 51
96.517441999660306
  0
ARC
  8
_0-3_躯体と製品
  6
CONTINUOUS
 62
    7
 10
1158.589414
 20
-1176.613865
 40
4.819
 50
83.482563001156294
 51
131.88825099942494
  0
LINE
  8
_0-3_躯体と製品
  6
CONTINUOUS
 62
    7
 10
1155.1364140000001
 20
-1174.625865
 11
1155.1364140000001
 21
-1174.1768649999999
  0
LINE
  8
_0-3_躯体と製品
  6
CONTINUOUS
 62
    7
 10
1155.1364140000001
 20
-1174.1768649999999
 11
1155.371414
 21
-1173.0258650000001
  0
LINE
  8
_0-3_躯体と製品
  6
CONTINUOUS
 62
    7
 10
1155.371414
 20
-1173.0258650000001
 11
1162.9014139999999
 21
-1173.0258650000001
  0
LINE
  8
_0-3_躯体と製品
  6
CONTINUOUS
 62
    7
 10
1162.9014139999999
 20
-1173.0258650000001
 11
1163.1364140000001
 21
-1174.1768649999999
  0
LINE
  8
_0-3_躯体と製品
  6
CONTINUOUS
 62
    7
 10
1163.1364140000001
 20
-1174.1768649999999
 11
1163.1364140000001
 21
-1174.625865
  0
ARC
  8
_0-3_躯体と製品
  6
CONTINUOUS
 62
    7
 10
1162.936414
 20
-1174.625865
 40
0.2
 50
269.99999850007293
 51
0.0000014999271966
  0
LINE
  8
_0-3_躯体と製品
  6
CONTINUOUS
 62
    7
 10
1162.936414
 20
-1174.825865
 11
1155.3364140000001
 21
-1174.825865
  0
ARC
  8
_0-3_躯体と製品
  6
CONTINUOUS
 62
    7
 10
1155.3364140000001
 20
-1174.625865
 40
0.2
 50
180.000006000621
 51
269.99999700092701
  0
LINE
  8
_0-5_中心線
  6
CENTER1
 62
    7
 10
1214.6364140000001
 20
-1190.825865
 11
1214.6364140000001
 21
-1167.9021150000001
  0
ARC
  8
_0-3_躯体と製品
  6
CONTINUOUS
 62
    7
 10
1215.1834140000001
 20
-1176.613865
 40
4.819
 50
48.111754998678002
 51
96.517441999660306
  0
ARC
  8
_0-3_躯体と製品
  6
CONTINUOUS
 62
    7
 10
1214.089414
 20
-1176.613865
 40
4.819
 50
83.482563001156294
 51
131.88825099942494
  0
LINE
  8
_0-3_躯体と製品
  6
CONTINUOUS
 62
    7
 10
1210.6364140000001
 20
-1174.625865
 11
1210.6364140000001
 21
-1174.1768649999999
  0
LINE
  8
_0-3_躯体と製品
  6
CONTINUOUS
 62
    7
 10
1210.6364140000001
 20
-1174.1768649999999
 11
1210.871414
 21
-1173.0258650000001
  0
LINE
  8
_0-3_躯体と製品
  6
CONTINUOUS
 62
    7
 10
1210.871414
 20
-1173.0258650000001
 11
1218.4014139999999
 21
-1173.0258650000001
  0
LINE
  8
_0-3_躯体と製品
  6
CONTINUOUS
 62
    7
 10
1218.4014139999999
 20
-1173.0258650000001
 11
1218.6364140000001
 21
-1174.1768649999999
  0
LINE
  8
_0-3_躯体と製品
  6
CONTINUOUS
 62
    7
 10
1218.6364140000001
 20
-1174.1768649999999
 11
1218.6364140000001
 21
-1174.625865
  0
ARC
  8
_0-3_躯体と製品
  6
CONTINUOUS
 62
    7
 10
1218.436414
 20
-1174.625865
 40
0.2
 50
269.99999850007293
 51
0.0000014999271966
  0
LINE
  8
_0-3_躯体と製品
  6
CONTINUOUS
 62
    7
 10
1218.436414
 20
-1174.825865
 11
1210.8364140000001
 21
-1174.825865
  0
ARC
  8
_0-3_躯体と製品
  6
CONTINUOUS
 62
    7
 10
1210.8364140000001
 20
-1174.625865
 40
0.2
 50
180.000006000621
 51
269.99999700092701
  0
LINE
  8
_0-1_0
  6
CONTINUOUS
 62
    7
 10
1166.8864140000001
 20
-1131.4258649999999
 11
1206.8864140000001
 21
-1131.4258649999999
  0
LINE
  8
_0-1_0
  6
CONTINUOUS
 62
    7
 10
1166.8864140000001
 20
-1138.2258650000001
 11
1206.8864140000001
 21
-1138.2258650000001
  0
LINE
  8
_0-1_0
  6
CONTINUOUS
 62
    7
 10
1166.8864140000001
 20
-1139.4258649999999
 11
1206.8864140000001
 21
-1139.4258649999999
  0
LINE
  8
_0-1_0
  6
CONTINUOUS
 62
    7
 10
1166.8864140000001
 20
-1146.2258650000001
 11
1206.8864140000001
 21
-1146.2258650000001
  0
LINE
  8
_0-1_0
  6
CONTINUOUS
 62
    7
 10
1166.8864140000001
 20
-1147.4258649999999
 11
1206.8864140000001
 21
-1147.4258649999999
  0
LINE
  8
_0-1_0
  6
CONTINUOUS
 62
    7
 10
1206.8864140000001
 20
-1147.4258649999999
 11
1206.8864140000001
 21
-1131.4258649999999
  0
LINE
  8
_0-1_0
  6
CONTINUOUS
 62
    7
 10
1206.8864140000001
 20
-1131.4258649999999
 11
1166.8864140000001
 21
-1131.4258649999999
  0
LINE
  8
_0-1_0
  6
CONTINUOUS
 62
    7
 10
1166.8864140000001
 20
-1131.4258649999999
 11
1166.8864140000001
 21
-1147.4258649999999
  0
LINE
  8
_0-5_中心線
  6
CENTER1
 62
    7
 10
1186.8864140000001
 20
-1163.1252340000001
 11
1186.8864140000001
 21
-1141.3878279999999
  0
TEXT
  8
_0-2_文字-記号
 62
    7
 10
1154.7781989999999
 20
-1341.835077
 40
10
 41
0.9200000000000001
 50
0
  1
（根太ピッチ）
  0
LINE
  8
_0-4_寸法
  6
CONTINUOUS
 62
    4
 10
1086.8864140000001
 20
-1318.3676399999999
 11
1186.8864140000001
 21
-1318.3676399999999
  0
TEXT
  8
_0-4_寸法
 62
    7
 10
1126.0264140000002
 20
-1316.54764
 40
10.359999999999999
 41
1
 50
0
  1
@500
  0
LINE
  8
_0-1_0
  6
CONTINUOUS
 62
    7
 10
0
 20
0
 11
0
 21
0
  0
LINE
  8
_0-1_0
  6
CONTINUOUS
 62
    7
 10
0
 20
0
 11
0
 21
0
  0
POINT
  8
_0-1_0
 62
    7
 10
0
 20
0
  0
POINT
  8
_0-4_寸法
 62
    4
 10
1186.8864140000001
 20
-1318.3676399999999
  0
LINE
  8
_0-4_寸法
  6
CONTINUOUS
 62
    4
 10
1186.8864140000001
 20
-1318.3676399999999
 11
1286.8864140000001
 21
-1318.3676399999999
  0
TEXT
  8
_0-4_寸法
 62
    7
 10
1227.0264140000002
 20
-1316.54764
 40
10.359999999999999
 41
1
 50
0
  1
@500
  0
LINE
  8
_0-1_0
  6
CONTINUOUS
 62
    7
 10
0
 20
0
 11
0
 21
0
  0
LINE
  8
_0-1_0
  6
CONTINUOUS
 62
    7
 10
0
 20
0
 11
0
 21
0
  0
POINT
  8
_0-4_寸法
 62
    4
 10
1186.8864140000001
 20
-1318.3676399999999
  0
POINT
  8
_0-1_0
 62
    7
 10
0
 20
0
  0
LINE
  8
_0-3_躯体と製品
  6
CONTINUOUS
 62
    4
 10
1026.8864140000001
 20
-1117.4258649999999
 11
1346.8864140000001
 21
-1117.4258649999999
  0
LINE
  8
_0-3_躯体と製品
  6
CONTINUOUS
 62
    4
 10
1026.8864140000001
 20
-1139.425872
 11
1166.8864140000001
 21
-1139.425872
  0
LINE
  8
_0-3_躯体と製品
  6
CONTINUOUS
 62
    4
 10
1206.8864140000001
 20
-1139.4258649999999
 11
1346.8864140000001
 21
-1139.4258649999999
  0
LINE
  8
_0-3_躯体と製品
  6
CONTINUOUS
 62
    4
 10
1026.8864140000001
 20
-1122.4258649999999
 11
1346.8864140000001
 21
-1122.4258649999999
  0
LINE
  8
_0-3_躯体と製品
  6
CONTINUOUS
 62
    4
 10
1026.8864140000001
 20
-1147.4258649999999
 11
1346.8864140000001
 21
-1147.4258649999999
  0
ARC
  8
_0-3_躯体と製品
  6
CONTINUOUS
 62
    7
 10
1186.339414
 20
-1148.0138649999999
 40
4.819
 50
83.482558000339679
 51
131.88824500132199
  0
ARC
  8
_0-3_躯体と製品
  6
CONTINUOUS
 62
    7
 10
1187.4334140000001
 20
-1148.0138649999999
 40
4.819
 50
48.111749000575315
 51
96.517436998843692
  0
ARC
  8
_0-3_躯体と製品
  6
CONTINUOUS
 62
    7
 10
1190.686414
 20
-1146.0258650000001
 40
0.2
 50
270.00000600061992
 51
359.99999700092695
  0
LINE
  8
_0-3_躯体と製品
  6
CONTINUOUS
 62
    7
 10
1190.8864140000001
 20
-1146.0258650000001
 11
1190.8864140000001
 21
-1145.576865
  0
LINE
  8
_0-3_躯体と製品
  6
CONTINUOUS
 62
    7
 10
1190.8864140000001
 20
-1145.576865
 11
1190.6514139999999
 21
-1144.4258649999999
  0
LINE
  8
_0-3_躯体と製品
  6
CONTINUOUS
 62
    7
 10
1190.6514139999999
 20
-1144.4258649999999
 11
1183.121414
 21
-1144.4258649999999
  0
LINE
  8
_0-3_躯体と製品
  6
CONTINUOUS
 62
    7
 10
1183.121414
 20
-1144.4258649999999
 11
1182.8864140000001
 21
-1145.576865
  0
LINE
  8
_0-3_躯体と製品
  6
CONTINUOUS
 62
    7
 10
1182.8864140000001
 20
-1145.576865
 11
1182.8864140000001
 21
-1146.0258650000001
  0
ARC
  8
_0-3_躯体と製品
  6
CONTINUOUS
 62
    7
 10
1183.0864140000001
 20
-1146.0258650000001
 40
0.2
 50
180.000000000847
 51
270.00000300070099
  0
LINE
  8
_0-3_躯体と製品
  6
CONTINUOUS
 62
    7
 10
1188.6364140000001
 20
-1151.4767400000001
 11
1188.0864140000001
 21
-1151.7942800000001
  0
LINE
  8
_0-3_躯体と製品
  6
CONTINUOUS
 62
    7
 10
1185.686414
 20
-1151.86475
 11
1188.0864140000001
 21
-1151.159195
  0
LINE
  8
_0-3_躯体と製品
  6
CONTINUOUS
 62
    7
 10
1185.1364140000001
 20
-1152.1822950000001
 11
1185.686414
 21
-1151.86475
  0
LINE
  8
_0-3_躯体と製品
  6
CONTINUOUS
 62
    7
 10
1185.686414
 20
-1151.86475
 11
1185.686414
 21
-1151.0887250000001
  0
LINE
  8
_0-3_躯体と製品
  6
CONTINUOUS
 62
    7
 10
1188.0864140000001
 20
-1153.9814200000001
 11
1188.6364140000001
 21
-1154.2989600000001
  0
LINE
  8
_0-3_躯体と製品
  6
CONTINUOUS
 62
    7
 10
1186.8864140000001
 20
-1154.65174
 11
1188.6364140000001
 21
-1154.2989600000001
  0
LINE
  8
_0-3_躯体と製品
  6
CONTINUOUS
 62
    7
 10
1188.6364140000001
 20
-1154.2989600000001
 11
1188.0864140000001
 21
-1154.616505
  0
LINE
  8
_0-3_躯体と製品
  6
CONTINUOUS
 62
    7
 10
1188.0864140000001
 20
-1152.570305
 11
1188.6364140000001
 21
-1152.8878500000001
  0
ARC
  8
_0-3_躯体と製品
  6
CONTINUOUS
 62
    7
 10
1191.4107140000001
 20
-1158.1199999999999
 40
4.5414450000000004
 50
137.05379999971399
 51
175.02121999885199
  0
ARC
  8
_0-3_躯体と製品
  6
CONTINUOUS
 62
    7
 10
1186.9052139999999
 20
-1159.0493650000001
 40
1.3236349999999999
 50
90.813542998860513
 51
157.04087000111704
  0
LINE
  8
_0-3_躯体と製品
  6
CONTINUOUS
 62
    7
 10
1188.0864140000001
 20
-1155.0258650000001
 11
1185.686414
 21
-1155.0258650000001
  0
LINE
  8
_0-3_躯体と製品
  6
CONTINUOUS
 62
    7
 10
1185.686414
 20
-1152.4998350000001
 11
1188.0864140000001
 21
-1151.7942800000001
  0
LINE
  8
_0-3_躯体と製品
  6
CONTINUOUS
 62
    7
 10
1188.0864140000001
 20
-1151.7942800000001
 11
1188.0864140000001
 21
-1152.570305
  0
LINE
  8
_0-3_躯体と製品
  6
CONTINUOUS
 62
    7
 10
1188.0864140000001
 20
-1152.570305
 11
1185.686414
 21
-1153.2758650000001
  0
LINE
  8
_0-3_躯体と製品
  6
CONTINUOUS
 62
    7
 10
1185.686414
 20
-1153.2758650000001
 11
1185.1364140000001
 21
-1153.5934050000001
  0
LINE
  8
_0-3_躯体と製品
  6
CONTINUOUS
 62
    7
 10
1188.0864140000001
 20
-1153.205395
 11
1188.6364140000001
 21
-1152.8878500000001
  0
LINE
  8
_0-3_躯体と製品
  6
CONTINUOUS
 62
    7
 10
1188.6364140000001
 20
-1152.8878500000001
 11
1185.1364140000001
 21
-1153.5934050000001
  0
LINE
  8
_0-3_躯体と製品
  6
CONTINUOUS
 62
    7
 10
1185.1364140000001
 20
-1153.5934050000001
 11
1185.686414
 21
-1153.91095
  0
LINE
  8
_0-3_躯体と製品
  6
CONTINUOUS
 62
    7
 10
1185.686414
 20
-1153.91095
 11
1188.0864140000001
 21
-1153.205395
  0
LINE
  8
_0-3_躯体と製品
  6
CONTINUOUS
 62
    7
 10
1188.0864140000001
 20
-1153.205395
 11
1188.0864140000001
 21
-1153.9814200000001
  0
LINE
  8
_0-3_躯体と製品
  6
CONTINUOUS
 62
    7
 10
1188.0864140000001
 20
-1153.9814200000001
 11
1186.8864140000001
 21
-1154.65174
  0
LINE
  8
_0-3_躯体と製品
  6
CONTINUOUS
 62
    7
 10
1186.8864140000001
 20
-1154.65174
 11
1188.0864140000001
 21
-1154.616505
  0
LINE
  8
_0-3_躯体と製品
  6
CONTINUOUS
 62
    7
 10
1188.0864140000001
 20
-1154.616505
 11
1188.0864140000001
 21
-1158.5330449999999
  0
LINE
  8
_0-3_躯体と製品
  6
CONTINUOUS
 62
    7
 10
1188.0864140000001
 20
-1158.5330449999999
 11
1186.8864140000001
 21
-1159.2258650000001
  0
LINE
  8
_0-3_躯体と製品
  6
CONTINUOUS
 62
    7
 10
1186.8864140000001
 20
-1157.69868
 11
1186.8864140000001
 21
-1159.2258650000001
  0
LINE
  8
_0-3_躯体と製品
  6
CONTINUOUS
 62
    7
 10
1186.8864140000001
 20
-1159.2258650000001
 11
1185.686414
 21
-1158.5330449999999
  0
LINE
  8
_0-3_躯体と製品
  6
CONTINUOUS
 62
    7
 10
1185.686414
 20
-1158.5330449999999
 11
1185.686414
 21
-1152.4998350000001
  0
LINE
  8
_0-3_躯体と製品
  6
CONTINUOUS
 62
    7
 10
1185.686414
 20
-1152.4998350000001
 11
1185.1364140000001
 21
-1152.1822950000001
  0
LINE
  8
_0-3_躯体と製品
  6
CONTINUOUS
 62
    7
 10
1185.1364140000001
 20
-1152.1822950000001
 11
1188.6364140000001
 21
-1151.4767400000001
  0
LINE
  8
_0-3_躯体と製品
  6
CONTINUOUS
 62
    7
 10
1188.6364140000001
 20
-1151.4767400000001
 11
1188.0864140000001
 21
-1151.159195
  0
LINE
  8
_0-3_躯体と製品
  6
CONTINUOUS
 62
    7
 10
1188.0864140000001
 20
-1151.159195
 11
1188.0864140000001
 21
-1150.3831700000001
  0
LINE
  8
_0-3_躯体と製品
  6
CONTINUOUS
 62
    7
 10
1188.6364140000001
 20
-1150.0656300000001
 11
1188.0864140000001
 21
-1150.3831700000001
  0
LINE
  8
_0-3_躯体と製品
  6
CONTINUOUS
 62
    7
 10
1185.686414
 20
-1150.45364
 11
1188.0864140000001
 21
-1149.7480849999999
  0
LINE
  8
_0-3_躯体と製品
  6
CONTINUOUS
 62
    7
 10
1185.1364140000001
 20
-1150.7711850000001
 11
1185.686414
 21
-1150.45364
  0
LINE
  8
_0-3_躯体と製品
  6
CONTINUOUS
 62
    7
 10
1185.686414
 20
-1150.45364
 11
1185.686414
 21
-1149.6776150000001
  0
LINE
  8
_0-3_躯体と製品
  6
CONTINUOUS
 62
    7
 10
1185.686414
 20
-1151.0887250000001
 11
1188.0864140000001
 21
-1150.3831700000001
  0
LINE
  8
_0-3_躯体と製品
  6
CONTINUOUS
 62
    7
 10
1185.686414
 20
-1151.0887250000001
 11
1185.1364140000001
 21
-1150.7711850000001
  0
LINE
  8
_0-3_躯体と製品
  6
CONTINUOUS
 62
    7
 10
1185.1364140000001
 20
-1150.7711850000001
 11
1188.6364140000001
 21
-1150.0656300000001
  0
LINE
  8
_0-3_躯体と製品
  6
CONTINUOUS
 62
    7
 10
1188.6364140000001
 20
-1150.0656300000001
 11
1188.0864140000001
 21
-1149.7480849999999
  0
LINE
  8
_0-3_躯体と製品
  6
CONTINUOUS
 62
    7
 10
1188.0864140000001
 20
-1149.7480849999999
 11
1188.0864140000001
 21
-1149.0258650000001
  0
LINE
  8
_0-3_躯体と製品
  6
CONTINUOUS
 62
    7
 10
1185.686414
 20
-1149.0425299999999
 11
1185.743101
 21
-1149.0258650000001
  0
LINE
  8
_0-3_躯体と製品
  6
CONTINUOUS
 62
    7
 10
1185.1364140000001
 20
-1149.3600750000001
 11
1185.686414
 21
-1149.0425299999999
  0
LINE
  8
_0-3_躯体と製品
  6
CONTINUOUS
 62
    7
 10
1185.686414
 20
-1149.0425299999999
 11
1185.686414
 21
-1149.0258650000001
  0
LINE
  8
_0-3_躯体と製品
  6
CONTINUOUS
 62
    7
 10
1185.686414
 20
-1149.6776150000001
 11
1187.9033919999999
 21
-1149.0258650000001
  0
LINE
  8
_0-3_躯体と製品
  6
CONTINUOUS
 62
    7
 10
1185.686414
 20
-1149.6776150000001
 11
1185.1364140000001
 21
-1149.3600750000001
  0
LINE
  8
_0-3_躯体と製品
  6
CONTINUOUS
 62
    7
 10
1185.1364140000001
 20
-1149.3600750000001
 11
1186.7943069999999
 21
-1149.0258650000001
  0
LINE
  8
_0-2_文字-記号
  6
CONTINUOUS
 62
    7
 10
1120.501297
 20
-1129.6306179999999
 11
1135.8923520000001
 21
-1091.673352
  0
LINE
  8
_0-2_文字-記号
  6
CONTINUOUS
 62
    7
 10
1135.8923520000001
 20
-1091.673352
 11
1154.9621629999999
 21
-1091.673352
  0
TEXT
  8
_0-2_文字-記号
 62
    7
 10
1157.6932360000001
 20
-1097.3037280000001
 40
10
 41
0.9199999999999999
 50
0
  1
デッキ材
  0
LINE
  8
_0-2_文字-記号
  6
CONTINUOUS
 62
    7
 10
1206.8864140000001
 20
-1159.895986
 11
1213.9722830000001
 21
-1158.6229000000001
  0
LINE
  8
_0-2_文字-記号
  6
CONTINUOUS
 62
    7
 10
1213.9722830000001
 20
-1158.6229000000001
 11
1233.042095
 21
-1158.6229000000001
  0
TEXT
  8
_0-2_文字-記号
 62
    7
 10
1235.7731679999999
 20
-1165.544576
 40
10
 41
0.9200000000000001
 50
0
  1
根太鋼
  0
TEXT
  8
_0-2_文字-記号
 62
    7
 10
1121.002262
 20
-1221.0182179999999
 40
10
 41
0.9200000000000001
 50
0
  1
支持脚
  0
LINE
  8
_0-2_文字-記号
  6
CONTINUOUS
 62
    7
 10
1119.291481
 20
-1222.1662879999999
 11
1180.8863859999999
 21
-1222.1662879999999
  0
ARC
  8
_0-3_躯体と製品
  6
CONTINUOUS
 62
    7
 10
1195.098414
 20
-1189.177895
 40
4.2480000000000002
 50
229.88008100003
 51
310.13022700097099
  0
LINE
  8
_0-3_躯体と製品
  6
CONTINUOUS
 62
    7
 10
1192.361414
 20
-1189.4258950000001
 11
1192.361414
 21
-1192.4268950000001
  0
LINE
  8
_0-3_躯体と製品
  6
CONTINUOUS
 62
    7
 10
1197.8364140000001
 20
-1192.4258950000001
 11
1197.8364140000001
 21
-1189.4258950000001
  0
LINE
  8
_0-3_躯体と製品
  6
CONTINUOUS
 62
    7
 10
1181.4114139999999
 20
-1189.4258950000001
 11
1181.4114139999999
 21
-1192.4268950000001
  0
LINE
  8
_0-3_躯体と製品
  6
CONTINUOUS
 62
    7
 10
1175.936414
 20
-1192.4258950000001
 11
1175.936414
 21
-1189.4258950000001
  0
ARC
  8
_0-3_躯体と製品
  6
CONTINUOUS
 62
    7
 10
1178.6744140000001
 20
-1189.177895
 40
4.2480000000000002
 50
229.86976699898602
 51
310.11991299939001
  0
ARC
  8
_0-3_躯体と製品
  6
CONTINUOUS
 62
    7
 10
1186.8854140000001
 20
-1177.9328949999999
 40
15.493
 50
249.30977300096899
 51
290.69844699972703
  0
LINE
  8
_0-3_躯体と製品
  6
CONTINUOUS
 62
    7
 10
1178.6734140000001
 20
-1193.4258950000001
 11
1195.0974140000001
 21
-1193.4258950000001
  0
LINE
  8
_0-5_中心線
  6
CENTER1
 62
    7
 10
765.504952
 20
-1323.4958670000001
 11
765.50493400000005
 21
-1171.6641090000001
  0
LINE
  8
_0-3_躯体と製品
  6
CONTINUOUS
 62
    3
 10
673.47127399999999
 20
-1277.4258649999999
 11
693.47127399999999
 21
-1257.4258649999999
  0
LINE
  8
_0-3_躯体と製品
  6
CONTINUOUS
 62
    3
 10
667.81441900000004
 20
-1277.4258649999999
 11
687.81441900000004
 21
-1257.4258649999999
  0
LINE
  8
_0-3_躯体と製品
  6
CONTINUOUS
 62
    3
 10
679.12812899999994
 20
-1277.4258649999999
 11
699.12812899999994
 21
-1257.4258649999999
  0
LINE
  8
_0-3_躯体と製品
  6
CONTINUOUS
 62
    3
 10
849.04720399999997
 20
-1277.4258649999999
 11
869.04720399999997
 21
-1257.4258649999999
  0
LINE
  8
_0-3_躯体と製品
  6
CONTINUOUS
 62
    3
 10
843.39034900000001
 20
-1277.4258649999999
 11
863.39034900000001
 21
-1257.4258649999999
  0
LINE
  8
_0-3_躯体と製品
  6
CONTINUOUS
 62
    3
 10
837.73349900000005
 20
-1277.4258649999999
 11
857.73349900000005
 21
-1257.4258649999999
  0
TEXT
  8
_0-2_文字-記号
 62
    7
 10
729.29506900000001
 20
-1343.7265520000001
 40
10
 41
0.9199999999999999
 50
0
  1
（支持脚ピッチ）
  0
LINE
  8
_0-4_寸法
  6
CONTINUOUS
 62
    4
 10
635.50495100000001
 20
-1318.3676399999999
 11
765.50495100000001
 21
-1318.3676399999999
  0
TEXT
  8
_0-4_寸法
 62
    7
 10
689.64495099999999
 20
-1316.54764
 40
10.359999999999999
 41
1
 50
0
  1
@900
  0
LINE
  8
_0-1_0
  6
CONTINUOUS
 62
    7
 10
0
 20
0
 11
0
 21
0
  0
LINE
  8
_0-1_0
  6
CONTINUOUS
 62
    7
 10
0
 20
0
 11
0
 21
0
  0
POINT
  8
_0-1_0
 62
    7
 10
0
 20
0
  0
POINT
  8
_0-4_寸法
 62
    4
 10
765.50495100000001
 20
-1318.3676399999999
  0
LINE
  8
_0-4_寸法
  6
CONTINUOUS
 62
    4
 10
765.50495100000001
 20
-1318.3676399999999
 11
895.50495100000001
 21
-1318.3676399999999
  0
TEXT
  8
_0-4_寸法
 62
    7
 10
820.64495099999999
 20
-1316.54764
 40
10.359999999999999
 41
1
 50
0
  1
@900
  0
LINE
  8
_0-1_0
  6
CONTINUOUS
 62
    7
 10
0
 20
0
 11
0
 21
0
  0
LINE
  8
_0-1_0
  6
CONTINUOUS
 62
    7
 10
0
 20
0
 11
0
 21
0
  0
POINT
  8
_0-4_寸法
 62
    4
 10
765.50495100000001
 20
-1318.3676399999999
  0
POINT
  8
_0-1_0
 62
    7
 10
0
 20
0
  0
LINE
  8
_0-2_文字-記号
  6
CONTINUOUS
 62
    7
 10
800.44005000000004
 20
-1186.811048
 11
811.60600199999999
 21
-1206.151044
  0
LINE
  8
_0-2_文字-記号
  6
CONTINUOUS
 62
    7
 10
811.60600199999999
 20
-1206.151044
 11
852.83550300000002
 21
-1206.151044
  0
TEXT
  8
_0-2_文字-記号
 62
    7
 10
813.87979600000006
 20
-1205.1676090000001
 40
10
 41
0.9199999999999999
 50
0
  1
受け金具
  0
TEXT
  8
_0-2_文字-記号
 62
    7
 10
699.62081000000001
 20
-1221.0182649999999
 40
10
 41
0.9200000000000001
 50
0
  1
支持脚
  0
LINE
  8
_0-2_文字-記号
  6
CONTINUOUS
 62
    7
 10
697.91002900000001
 20
-1222.1663349999999
 11
759.50493400000005
 21
-1222.1663349999999
  0
ARC
  8
_0-3_躯体と製品
  6
CONTINUOUS
 62
    4
 10
834.45493299999998
 20
-1128.3424110000001
 40
1
 50
129.99999899999801
 51
180
  0
LINE
  8
_0-3_躯体と製品
  6
CONTINUOUS
 62
    4
 10
833.45493299999998
 20
-1140.9258649999999
 11
833.45493299999998
 21
-1128.3424110000001
  0
ARC
  8
_0-3_躯体と製品
  6
CONTINUOUS
 62
    4
 10
832.45493299999998
 20
-1140.9258649999999
 40
1
 50
270
 51
0
  0
LINE
  8
_0-3_躯体と製品
  6
CONTINUOUS
 62
    4
 10
833.81214599999998
 20
-1127.5763669999999
 11
837.84558600000003
 21
-1124.1919089999999
  0
ARC
  8
_0-3_躯体と製品
  6
CONTINUOUS
 62
    4
 10
837.20279800000003
 20
-1123.4258649999999
 40
1
 50
309.99999899999801
 51
89.999999999999972
  0
ARC
  8
_0-3_躯体と製品
  6
CONTINUOUS
 62
    4
 10
851.75493300000005
 20
-1121.4933530000001
 40
1
 50
180
 51
265.999818
  0
ARC
  8
_0-3_躯体と製品
  6
CONTINUOUS
 62
    4
 10
864.05494399999998
 20
-1124.358377
 40
1
 50
359.99985999999899
 51
85.999817999999536
  0
LINE
  8
_0-3_躯体と製品
  6
CONTINUOUS
 62
    4
 10
851.68517399999996
 20
-1122.4909170000001
 11
864.12470299999995
 21
-1123.360813
  0
ARC
  8
_0-3_躯体と製品
  6
CONTINUOUS
 62
    4
 10
684.25493300000005
 20
-1121.4933530000001
 40
1
 50
180
 51
265.99981500000098
  0
ARC
  8
_0-3_躯体と製品
  6
CONTINUOUS
 62
    4
 10
696.55494699999997
 20
-1124.3583779999999
 40
1
 50
359.99984799999498
 51
85.999815000001135
  0
LINE
  8
_0-3_躯体と製品
  6
CONTINUOUS
 62
    4
 10
684.18517399999996
 20
-1122.4909170000001
 11
696.62470599999995
 21
-1123.3608139999999
  0
ARC
  8
_0-3_躯体と製品
  6
CONTINUOUS
 62
    4
 10
666.95493299999998
 20
-1128.3424110000001
 40
1
 50
129.99999899999801
 51
180
  0
LINE
  8
_0-3_躯体と製品
  6
CONTINUOUS
 62
    4
 10
665.95493299999998
 20
-1140.9258649999999
 11
665.95493299999998
 21
-1128.3424110000001
  0
ARC
  8
_0-3_躯体と製品
  6
CONTINUOUS
 62
    4
 10
664.95493299999998
 20
-1140.9258649999999
 40
1
 50
270
 51
0
  0
LINE
  8
_0-3_躯体と製品
  6
CONTINUOUS
 62
    4
 10
666.31214599999998
 20
-1127.5763669999999
 11
670.34558600000003
 21
-1124.1919089999999
  0
ARC
  8
_0-3_躯体と製品
  6
CONTINUOUS
 62
    4
 10
669.70279800000003
 20
-1123.4258649999999
 40
1
 50
309.99999899999801
 51
89.999999999999972
  0
ARC
  8
_0-3_躯体と製品
  6
CONTINUOUS
 62
    4
 10
843.25493300000005
 20
-1145.9258649999999
 40
1.5
 50
270
 51
318.189685000005
  0
ARC
  8
_0-3_躯体と製品
  6
CONTINUOUS
 62
    4
 10
845.75493300000005
 20
-1119.4258649999999
 40
1
 50
0
 51
90
  0
ARC
  8
_0-3_躯体と製品
  6
CONTINUOUS
 62
    4
 10
843.25493300000005
 20
-1140.9258729999999
 40
1.5
 50
0
 51
90
  0
ARC
  8
_0-3_躯体と製品
  6
CONTINUOUS
 62
    4
 10
843.25493300000005
 20
-1145.9258649999999
 40
1.5
 50
318.189685000005
 51
0
  0
LINE
  8
_0-3_躯体と製品
  6
CONTINUOUS
 62
    4
 10
844.75493300000005
 20
-1145.9258649999999
 11
844.75493300000005
 21
-1140.9258729999999
  0
LINE
  8
_0-3_躯体と製品
  6
CONTINUOUS
 62
    4
 10
811.00493300000005
 20
-1122.4258649999999
 11
837.20279800000003
 21
-1122.4258649999999
  0
LINE
  8
_0-3_躯体と製品
  6
CONTINUOUS
 62
    4
 10
851.75493300000005
 20
-1122.495795
 11
851.75493300000005
 21
-1119.4258649999999
  0
ARC
  8
_0-3_躯体と製品
  6
CONTINUOUS
 62
    4
 10
852.75493300000005
 20
-1119.4258649999999
 40
1
 50
90
 51
180
  0
ARC
  8
_0-3_躯体と製品
  6
CONTINUOUS
 62
    4
 10
859.25493300000005
 20
-1140.9258809999999
 40
1.5
 50
90
 51
180
  0
LINE
  8
_0-3_躯体と製品
  6
CONTINUOUS
 62
    4
 10
803.00493300000005
 20
-1141.9258649999999
 11
832.45493299999998
 21
-1141.9258649999999
  0
LINE
  8
_0-3_躯体と製品
  6
CONTINUOUS
 62
    4
 10
838.954927
 20
-1139.4258649999999
 11
843.25493300000005
 21
-1139.4258729999999
  0
LINE
  8
_0-3_躯体と製品
  6
CONTINUOUS
 62
    4
 10
847.75493300000005
 20
-1123.9258649999999
 11
847.75493300000005
 21
-1118.9258649999999
  0
ARC
  8
_0-3_躯体と製品
  6
CONTINUOUS
 62
    4
 10
852.25493300000005
 20
-1118.9258649999999
 40
1.5
 50
90
 51
180
  0
LINE
  8
_0-3_躯体と製品
  6
CONTINUOUS
 62
    4
 10
850.75493300000005
 20
-1118.9258649999999
 11
850.75493300000005
 21
-1121.4933530000001
  0
ARC
  8
_0-3_躯体と製品
  6
CONTINUOUS
 62
    4
 10
859.25493300000005
 20
-1145.9258649999999
 40
1.5
 50
221.810314999995
 51
270
  0
ARC
  8
_0-3_躯体と製品
  6
CONTINUOUS
 62
    4
 10
859.25493300000005
 20
-1145.9258649999999
 40
1.5
 50
180
 51
221.810314999995
  0
LINE
  8
_0-3_躯体と製品
  6
CONTINUOUS
 62
    4
 10
857.75493300000005
 20
-1145.9258649999999
 11
857.75493300000005
 21
-1140.9258809999999
  0
ARC
  8
_0-3_躯体と製品
  6
CONTINUOUS
 62
    4
 10
863.55491099999995
 20
-1137.925864
 40
1.5
 50
270.00022400000199
 51
359.99984799999504
  0
LINE
  8
_0-3_躯体と製品
  6
CONTINUOUS
 62
    4
 10
863.55491700000005
 20
-1139.425864
 11
859.25493300000005
 21
-1139.4258809999999
  0
LINE
  8
_0-3_躯体と製品
  6
CONTINUOUS
 62
    4
 10
865.05491099999995
 20
-1137.925868
 11
865.05494399999998
 21
-1124.358379
  0
LINE
  8
_0-3_躯体と製品
  6
CONTINUOUS
 62
    4
 10
846.75493300000005
 20
-1123.4258649999999
 11
846.75493300000005
 21
-1119.4258649999999
  0
LINE
  8
_0-3_躯体と製品
  6
CONTINUOUS
 62
    4
 10
905.50493200000005
 20
-1117.4258649999999
 11
852.25493300000005
 21
-1117.4258649999999
  0
LINE
  8
_0-3_躯体と製品
  6
CONTINUOUS
 62
    4
 10
852.75493300000005
 20
-1118.4258649999999
 11
905.50493200000005
 21
-1118.4258649999999
  0
LINE
  8
_0-3_躯体と製品
  6
CONTINUOUS
 62
    4
 10
859.25493300000005
 20
-1147.4258649999999
 11
905.50493200000005
 21
-1147.4258649999999
  0
LINE
  8
_0-3_躯体と製品
  6
CONTINUOUS
 62
    4
 10
858.13689899999997
 20
-1146.9258649999999
 11
905.50493200000005
 21
-1146.9258649999999
  0
LINE
  8
_0-3_躯体と製品
  6
CONTINUOUS
 62
    4
 10
690.63689999999997
 20
-1146.9258649999999
 11
844.37296700000002
 21
-1146.9258649999999
  0
LINE
  8
_0-3_躯体と製品
  6
CONTINUOUS
 62
    4
 10
685.25493300000005
 20
-1118.4258649999999
 11
845.75493300000005
 21
-1118.4258649999999
  0
ARC
  8
_0-3_躯体と製品
  6
CONTINUOUS
 62
    4
 10
846.25493300000005
 20
-1118.9258649999999
 40
1.5
 50
0
 51
90
  0
LINE
  8
_0-3_躯体と製品
  6
CONTINUOUS
 62
    4
 10
684.75493400000005
 20
-1117.4258649999999
 11
846.25493300000005
 21
-1117.4258649999999
  0
LINE
  8
_0-3_躯体と製品
  6
CONTINUOUS
 62
    4
 10
691.75493300000005
 20
-1147.4258649999999
 11
843.25493300000005
 21
-1147.4258649999999
  0
ARC
  8
_0-3_躯体と製品
  6
CONTINUOUS
 62
    7
 10
846.75493300000005
 20
-1145.4258649999999
 40
2
 50
180
 51
270
  0
LINE
  8
_0-3_躯体と製品
  6
CONTINUOUS
 62
    7
 10
846.75493300000005
 20
-1147.4258649999999
 11
855.75493300000005
 21
-1147.4258649999999
  0
ARC
  8
_0-3_躯体と製品
  6
CONTINUOUS
 62
    7
 10
855.75493300000005
 20
-1145.4258649999999
 40
2
 50
270
 51
0
  0
LINE
  8
_0-3_躯体と製品
  6
CONTINUOUS
 62
    7
 10
844.75493300000005
 20
-1140.4258649999999
 11
844.75493300000005
 21
-1145.4258649999999
  0
LINE
  8
_0-3_躯体と製品
  6
CONTINUOUS
 62
    7
 10
845.75493300000005
 20
-1145.4258649999999
 11
845.75493300000005
 21
-1140.4258649999999
  0
ARC
  8
_0-3_躯体と製品
  6
CONTINUOUS
 62
    7
 10
846.75493300000005
 20
-1145.4258649999999
 40
1
 50
180
 51
270
  0
LINE
  8
_0-3_躯体と製品
  6
CONTINUOUS
 62
    7
 10
855.75493300000005
 20
-1146.4258649999999
 11
846.75493300000005
 21
-1146.4258649999999
  0
LINE
  8
_0-3_躯体と製品
  6
CONTINUOUS
 62
    7
 10
856.75493300000005
 20
-1140.4258649999999
 11
856.75493300000005
 21
-1145.4258649999999
  0
ARC
  8
_0-3_躯体と製品
  6
CONTINUOUS
 62
    7
 10
855.75493300000005
 20
-1145.4258649999999
 40
1
 50
270
 51
0
  0
LINE
  8
_0-3_躯体と製品
  6
CONTINUOUS
 62
    7
 10
857.75493300000005
 20
-1145.4258649999999
 11
857.75493300000005
 21
-1140.4258649999999
  0
ARC
  8
_0-3_躯体と製品
  6
CONTINUOUS
 62
    7
 10
858.75493300000005
 20
-1140.4258649999999
 40
1
 50
90
 51
180
  0
ARC
  8
_0-3_躯体と製品
  6
CONTINUOUS
 62
    7
 10
843.75493300000005
 20
-1140.4258649999999
 40
1
 50
0
 51
90
  0
ARC
  8
_0-3_躯体と製品
  6
CONTINUOUS
 62
    7
 10
858.75493300000005
 20
-1140.4258649999999
 40
2
 50
90
 51
180
  0
ARC
  8
_0-3_躯体と製品
  6
CONTINUOUS
 62
    7
 10
843.75493300000005
 20
-1140.4258649999999
 40
2
 50
0
 51
90
  0
LINE
  8
_0-3_躯体と製品
  6
CONTINUOUS
 62
    7
 10
864.75493300000005
 20
-1131.4258649999999
 11
863.75493300000005
 21
-1131.4258649999999
  0
LINE
  8
_0-3_躯体と製品
  6
CONTINUOUS
 62
    7
 10
864.75493300000005
 20
-1137.4258649999999
 11
864.75493300000005
 21
-1131.4258649999999
  0
ARC
  8
_0-3_躯体と製品
  6
CONTINUOUS
 62
    7
 10
862.75493300000005
 20
-1137.4258649999999
 40
2
 50
270
 51
0
  0
LINE
  8
_0-3_躯体と製品
  6
CONTINUOUS
 62
    7
 10
862.75493300000005
 20
-1138.4258649999999
 11
858.75493300000005
 21
-1138.4258649999999
  0
LINE
  8
_0-3_躯体と製品
  6
CONTINUOUS
 62
    7
 10
863.75493300000005
 20
-1131.4258649999999
 11
863.75493300000005
 21
-1137.4258649999999
  0
ARC
  8
_0-3_躯体と製品
  6
CONTINUOUS
 62
    7
 10
862.75493300000005
 20
-1137.4258649999999
 40
1
 50
270
 51
0
  0
LINE
  8
_0-3_躯体と製品
  6
CONTINUOUS
 62
    7
 10
858.75493300000005
 20
-1139.4258649999999
 11
862.75493300000005
 21
-1139.4258649999999
  0
LINE
  8
_0-3_躯体と製品
  6
CONTINUOUS
 62
    7
 10
838.75493300000005
 20
-1139.4258649999999
 11
838.75493300000005
 21
-1138.4258649999999
  0
LINE
  8
_0-3_躯体と製品
  6
CONTINUOUS
 62
    7
 10
843.75493300000005
 20
-1138.4258649999999
 11
838.75493300000005
 21
-1138.4258649999999
  0
LINE
  8
_0-3_躯体と製品
  6
CONTINUOUS
 62
    7
 10
838.75493300000005
 20
-1139.4258649999999
 11
843.75493300000005
 21
-1139.4258649999999
  0
ARC
  8
_0-3_躯体と製品
  6
CONTINUOUS
 62
    4
 10
838.95492899999999
 20
-1137.9258649999999
 40
1.5
 50
180.000265999996
 51
269.99989799999997
  0
LINE
  8
_0-3_躯体と製品
  6
CONTINUOUS
 62
    4
 10
837.45489199999997
 20
-1129.925872
 11
837.45492899999999
 21
-1137.925872
  0
LINE
  8
_0-3_躯体と製品
  6
CONTINUOUS
 62
    4
 10
696.05491099999995
 20
-1139.4258649999999
 11
691.75493300000005
 21
-1139.4258649999999
  0
ARC
  8
_0-3_躯体と製品
  6
CONTINUOUS
 62
    4
 10
733.00493300000005
 20
-1123.4258649999999
 40
1
 50
90
 51
180
  0
ARC
  8
_0-3_躯体と製品
  6
CONTINUOUS
 62
    4
 10
728.00493300000005
 20
-1125.4258649999999
 40
1
 50
0
 51
90
  0
ARC
  8
_0-3_躯体と製品
  6
CONTINUOUS
 62
    4
 10
722.00493300000005
 20
-1123.4258649999999
 40
1
 50
180
 51
270
  0
LINE
  8
_0-3_躯体と製品
  6
CONTINUOUS
 62
    4
 10
722.00493300000005
 20
-1124.4258649999999
 11
728.00493300000005
 21
-1124.4258649999999
  0
LINE
  8
_0-3_躯体と製品
  6
CONTINUOUS
 62
    4
 10
684.25493300000005
 20
-1122.495795
 11
684.25493300000005
 21
-1119.4258649999999
  0
LINE
  8
_0-3_躯体と製品
  6
CONTINUOUS
 62
    4
 10
733.00493300000005
 20
-1122.4258649999999
 11
763.00493300000005
 21
-1122.4258649999999
  0
LINE
  8
_0-3_躯体と製品
  6
CONTINUOUS
 62
    4
 10
763.00493300000005
 20
-1141.9258649999999
 11
733.00493300000005
 21
-1141.9258649999999
  0
ARC
  8
_0-3_躯体と製品
  6
CONTINUOUS
 62
    4
 10
728.00493300000005
 20
-1140.9258649999999
 40
1
 50
270
 51
0
  0
ARC
  8
_0-3_躯体と製品
  6
CONTINUOUS
 62
    4
 10
733.00493300000005
 20
-1140.9258649999999
 40
1
 50
180
 51
270
  0
ARC
  8
_0-3_躯体と製品
  6
CONTINUOUS
 62
    4
 10
803.00493300000005
 20
-1140.9258649999999
 40
1
 50
180
 51
270
  0
ARC
  8
_0-3_躯体と製品
  6
CONTINUOUS
 62
    4
 10
811.00493300000005
 20
-1123.4258649999999
 40
1
 50
90
 51
180
  0
ARC
  8
_0-3_躯体と製品
  6
CONTINUOUS
 62
    4
 10
684.75493400000005
 20
-1118.9258649999999
 40
1.5
 50
90
 51
180
  0
LINE
  8
_0-3_躯体と製品
  6
CONTINUOUS
 62
    4
 10
683.25492999999994
 20
-1121.4933510000001
 11
683.25493400000005
 21
-1118.9258649999999
  0
LINE
  8
_0-3_躯体と製品
  6
CONTINUOUS
 62
    4
 10
764.00493300000005
 20
-1123.4258649999999
 11
764.00493300000005
 21
-1140.9258649999999
  0
LINE
  8
_0-3_躯体と製品
  6
CONTINUOUS
 62
    4
 10
802.00493300000005
 20
-1140.9258649999999
 11
802.00493300000005
 21
-1125.4258649999999
  0
LINE
  8
_0-3_躯体と製品
  6
CONTINUOUS
 62
    4
 10
799.00493300000005
 20
-1123.4258649999999
 11
799.00493300000005
 21
-1140.9258649999999
  0
ARC
  8
_0-3_躯体と製品
  6
CONTINUOUS
 62
    4
 10
685.25493300000005
 20
-1119.4258649999999
 40
1
 50
90
 51
180
  0
ARC
  8
_0-3_躯体と製品
  6
CONTINUOUS
 62
    4
 10
691.75493300000005
 20
-1140.9258649999999
 40
1.5
 50
90
 51
180
  0
ARC
  8
_0-3_躯体と製品
  6
CONTINUOUS
 62
    4
 10
691.75493300000005
 20
-1145.9258649999999
 40
1.5
 50
221.810314999995
 51
270
  0
ARC
  8
_0-3_躯体と製品
  6
CONTINUOUS
 62
    4
 10
691.75493300000005
 20
-1145.9258649999999
 40
1.5
 50
180
 51
221.810314999995
  0
LINE
  8
_0-3_躯体と製品
  6
CONTINUOUS
 62
    4
 10
690.25493300000005
 20
-1145.9258649999999
 11
690.25493300000005
 21
-1140.9258649999999
  0
LINE
  8
_0-3_躯体と製品
  6
CONTINUOUS
 62
    4
 10
720.00493300000005
 20
-1122.4258649999999
 11
702.55493300000001
 21
-1122.4258649999999
  0
LINE
  8
_0-3_躯体と製品
  6
CONTINUOUS
 62
    4
 10
702.55493300000001
 20
-1141.9258649999999
 11
728.00493300000005
 21
-1141.9258649999999
  0
LINE
  8
_0-3_躯体と製品
  6
CONTINUOUS
 62
    4
 10
732.00493300000005
 20
-1140.9258649999999
 11
732.00493300000005
 21
-1123.4258649999999
  0
ARC
  8
_0-3_躯体と製品
  6
CONTINUOUS
 62
    4
 10
720.00493300000005
 20
-1123.4258649999999
 40
1
 50
0
 51
90
  0
LINE
  8
_0-3_躯体と製品
  6
CONTINUOUS
 62
    4
 10
729.00493300000005
 20
-1125.4258649999999
 11
729.00493300000005
 21
-1140.9258649999999
  0
ARC
  8
_0-3_躯体と製品
  6
CONTINUOUS
 62
    4
 10
803.00493300000005
 20
-1125.4258649999999
 40
1
 50
90
 51
180
  0
ARC
  8
_0-3_躯体と製品
  6
CONTINUOUS
 62
    4
 10
763.00493300000005
 20
-1140.9258649999999
 40
1
 50
270
 51
0
  0
ARC
  8
_0-3_躯体と製品
  6
CONTINUOUS
 62
    4
 10
768.00493300000005
 20
-1123.4258649999999
 40
1
 50
90
 51
180
  0
LINE
  8
_0-3_躯体と製品
  6
CONTINUOUS
 62
    4
 10
767.00493300000005
 20
-1140.9258649999999
 11
767.00493300000005
 21
-1123.4258649999999
  0
ARC
  8
_0-3_躯体と製品
  6
CONTINUOUS
 62
    4
 10
768.00493300000005
 20
-1140.9258649999999
 40
1
 50
180
 51
270
  0
ARC
  8
_0-3_躯体と製品
  6
CONTINUOUS
 62
    4
 10
763.00493300000005
 20
-1123.4258649999999
 40
1
 50
0
 51
90
  0
ARC
  8
_0-3_躯体と製品
  6
CONTINUOUS
 62
    4
 10
798.00493300000005
 20
-1123.4258649999999
 40
1
 50
0
 51
90
  0
ARC
  8
_0-3_躯体と製品
  6
CONTINUOUS
 62
    4
 10
798.00493300000005
 20
-1140.9258649999999
 40
1
 50
270
 51
0
  0
LINE
  8
_0-3_躯体と製品
  6
CONTINUOUS
 62
    4
 10
798.00493300000005
 20
-1141.9258649999999
 11
768.00493300000005
 21
-1141.9258649999999
  0
LINE
  8
_0-3_躯体と製品
  6
CONTINUOUS
 62
    4
 10
768.00493300000005
 20
-1122.4258649999999
 11
798.00493300000005
 21
-1122.4258649999999
  0
LINE
  8
_0-3_躯体と製品
  6
CONTINUOUS
 62
    4
 10
803.00493300000005
 20
-1124.4258649999999
 11
809.00493300000005
 21
-1124.4258649999999
  0
ARC
  8
_0-3_躯体と製品
  6
CONTINUOUS
 62
    4
 10
809.00493300000005
 20
-1123.4258649999999
 40
1
 50
270
 51
0
  0
ARC
  8
_0-3_躯体と製品
  6
CONTINUOUS
 62
    4
 10
702.55493300000001
 20
-1123.4258649999999
 40
1
 50
90
 51
180
  0
LINE
  8
_0-3_躯体と製品
  6
CONTINUOUS
 62
    4
 10
701.55493300000001
 20
-1140.9258649999999
 11
701.55493300000001
 21
-1123.4258649999999
  0
ARC
  8
_0-3_躯体と製品
  6
CONTINUOUS
 62
    4
 10
702.55493300000001
 20
-1140.9258649999999
 40
1
 50
180
 51
270
  0
ARC
  8
_0-3_躯体と製品
  6
CONTINUOUS
 62
    4
 10
696.05491099999995
 20
-1137.925864
 40
1.5
 50
270
 51
359.99984799999498
  0
LINE
  8
_0-3_躯体と製品
  6
CONTINUOUS
 62
    4
 10
697.55494699999997
 20
-1124.358381
 11
697.55491099999995
 21
-1137.925868
  0
ARC
  8
_0-3_躯体と製品
  6
CONTINUOUS
 62
    4
 10
900.00493300000005
 20
-1123.4258649999999
 40
1
 50
90
 51
180
  0
ARC
  8
_0-3_躯体と製品
  6
CONTINUOUS
 62
    4
 10
895.00493300000005
 20
-1125.4258649999999
 40
1
 50
0
 51
90
  0
ARC
  8
_0-3_躯体と製品
  6
CONTINUOUS
 62
    4
 10
889.00493300000005
 20
-1123.4258649999999
 40
1
 50
180
 51
270
  0
LINE
  8
_0-3_躯体と製品
  6
CONTINUOUS
 62
    4
 10
889.00493300000005
 20
-1124.4258649999999
 11
895.00493300000005
 21
-1124.4258649999999
  0
LINE
  8
_0-3_躯体と製品
  6
CONTINUOUS
 62
    4
 10
900.00493300000005
 20
-1122.4258649999999
 11
905.50493200000005
 21
-1122.4258649999999
  0
LINE
  8
_0-3_躯体と製品
  6
CONTINUOUS
 62
    4
 10
905.50493200000005
 20
-1141.9258649999999
 11
900.00493300000005
 21
-1141.9258649999999
  0
ARC
  8
_0-3_躯体と製品
  6
CONTINUOUS
 62
    4
 10
895.00493300000005
 20
-1140.9258649999999
 40
1
 50
270
 51
0
  0
ARC
  8
_0-3_躯体と製品
  6
CONTINUOUS
 62
    4
 10
900.00493300000005
 20
-1140.9258649999999
 40
1
 50
180
 51
270
  0
LINE
  8
_0-3_躯体と製品
  6
CONTINUOUS
 62
    4
 10
887.00493300000005
 20
-1122.4258649999999
 11
870.05493300000001
 21
-1122.4258649999999
  0
LINE
  8
_0-3_躯体と製品
  6
CONTINUOUS
 62
    4
 10
870.05493300000001
 20
-1141.9258649999999
 11
895.00493300000005
 21
-1141.9258649999999
  0
LINE
  8
_0-3_躯体と製品
  6
CONTINUOUS
 62
    4
 10
899.00493300000005
 20
-1140.9258649999999
 11
899.00493300000005
 21
-1123.4258649999999
  0
ARC
  8
_0-3_躯体と製品
  6
CONTINUOUS
 62
    4
 10
887.00493300000005
 20
-1123.4258649999999
 40
1
 50
0
 51
90
  0
LINE
  8
_0-3_躯体と製品
  6
CONTINUOUS
 62
    4
 10
896.00493300000005
 20
-1125.4258649999999
 11
896.00493300000005
 21
-1140.9258649999999
  0
ARC
  8
_0-3_躯体と製品
  6
CONTINUOUS
 62
    4
 10
870.05493300000001
 20
-1123.4258649999999
 40
1
 50
90
 51
180
  0
LINE
  8
_0-3_躯体と製品
  6
CONTINUOUS
 62
    4
 10
869.05493300000001
 20
-1140.9258649999999
 11
869.05493300000001
 21
-1123.4258649999999
  0
ARC
  8
_0-3_躯体と製品
  6
CONTINUOUS
 62
    4
 10
870.05493300000001
 20
-1140.9258649999999
 40
1
 50
180
 51
270
  0
LINE
  8
_0-3_躯体と製品
  6
CONTINUOUS
 62
    4
 10
838.95489499999996
 20
-1128.4258649999999
 11
849.15493600000002
 21
-1128.4258649999999
  0
ARC
  8
_0-3_躯体と製品
  6
CONTINUOUS
 62
    4
 10
850.15493700000002
 20
-1125.9258649999999
 40
1
 50
0
 51
30.000000000000501
  0
ARC
  8
_0-3_躯体と製品
  6
CONTINUOUS
 62
    4
 10
848.75493300000005
 20
-1123.9258649999999
 40
1
 50
180
 51
270
  0
ARC
  8
_0-3_躯体と製品
  6
CONTINUOUS
 62
    4
 10
849.15493600000002
 20
-1126.4258649999999
 40
2
 50
270
 51
0
  0
LINE
  8
_0-3_躯体と製品
  6
CONTINUOUS
 62
    4
 10
851.15493700000002
 20
-1125.9258649999999
 11
851.15493600000002
 21
-1126.4258649999999
  0
LINE
  8
_0-3_躯体と製品
  6
CONTINUOUS
 62
    4
 10
848.80912000000001
 20
-1125.4258649999999
 11
851.02096200000005
 21
-1125.4258649999999
  0
ARC
  8
_0-3_躯体と製品
  6
CONTINUOUS
 62
    4
 10
850.15493700000002
 20
-1125.9258649999999
 40
1
 50
30.000000000000501
 51
90.000000000000014
  0
LINE
  8
_0-3_躯体と製品
  6
CONTINUOUS
 62
    4
 10
848.80912000000001
 20
-1124.9258649999999
 11
850.15493700000002
 21
-1124.9258649999999
  0
ARC
  8
_0-3_躯体と製品
  6
CONTINUOUS
 62
    4
 10
848.75493300000005
 20
-1123.4258649999999
 40
2
 50
180
 51
270
  0
ARC
  8
_0-3_躯体と製品
  6
CONTINUOUS
 62
    4
 10
838.95489499999996
 20
-1129.9258649999999
 40
1.5
 50
90
 51
180.00024899998701
  0
ARC
  8
_0-3_躯体と製品
  6
CONTINUOUS
 62
    4
 10
675.75493300000005
 20
-1145.9258649999999
 40
1.5
 50
270
 51
318.189685000005
  0
ARC
  8
_0-3_躯体と製品
  6
CONTINUOUS
 62
    4
 10
678.25493300000005
 20
-1119.4258649999999
 40
1
 50
0
 51
90
  0
ARC
  8
_0-3_躯体と製品
  6
CONTINUOUS
 62
    4
 10
675.75493300000005
 20
-1140.9258729999999
 40
1.5
 50
0
 51
90
  0
ARC
  8
_0-3_躯体と製品
  6
CONTINUOUS
 62
    4
 10
675.75493300000005
 20
-1145.9258649999999
 40
1.5
 50
318.189685000005
 51
0
  0
LINE
  8
_0-3_躯体と製品
  6
CONTINUOUS
 62
    4
 10
677.25493300000005
 20
-1145.9258649999999
 11
677.25493300000005
 21
-1140.9258729999999
  0
LINE
  8
_0-3_躯体と製品
  6
CONTINUOUS
 62
    4
 10
644.00493300000005
 20
-1122.4258649999999
 11
669.70279800000003
 21
-1122.4258649999999
  0
LINE
  8
_0-3_躯体と製品
  6
CONTINUOUS
 62
    4
 10
636.00493300000005
 20
-1141.9258649999999
 11
664.95493299999998
 21
-1141.9258649999999
  0
LINE
  8
_0-3_躯体と製品
  6
CONTINUOUS
 62
    4
 10
671.454927
 20
-1139.4258649999999
 11
675.75493300000005
 21
-1139.4258729999999
  0
LINE
  8
_0-3_躯体と製品
  6
CONTINUOUS
 62
    4
 10
680.25493300000005
 20
-1123.9258649999999
 11
680.25493300000005
 21
-1118.9258649999999
  0
LINE
  8
_0-3_躯体と製品
  6
CONTINUOUS
 62
    4
 10
690.25493300000005
 20
-1145.9258649999999
 11
690.25493300000005
 21
-1140.9258809999999
  0
LINE
  8
_0-3_躯体と製品
  6
CONTINUOUS
 62
    4
 10
679.25493300000005
 20
-1123.4258649999999
 11
679.25493300000005
 21
-1119.4258649999999
  0
ARC
  8
_0-3_躯体と製品
  6
CONTINUOUS
 62
    4
 10
678.75493300000005
 20
-1118.9258649999999
 40
1.5
 50
0
 51
90
  0
ARC
  8
_0-3_躯体と製品
  6
CONTINUOUS
 62
    7
 10
679.25493300000005
 20
-1145.4258649999999
 40
2
 50
180
 51
270
  0
LINE
  8
_0-3_躯体と製品
  6
CONTINUOUS
 62
    7
 10
679.25493300000005
 20
-1147.4258649999999
 11
688.25493300000005
 21
-1147.4258649999999
  0
ARC
  8
_0-3_躯体と製品
  6
CONTINUOUS
 62
    7
 10
688.25493300000005
 20
-1145.4258649999999
 40
2
 50
270
 51
0
  0
LINE
  8
_0-3_躯体と製品
  6
CONTINUOUS
 62
    7
 10
677.25493300000005
 20
-1140.4258649999999
 11
677.25493300000005
 21
-1145.4258649999999
  0
LINE
  8
_0-3_躯体と製品
  6
CONTINUOUS
 62
    7
 10
678.25493300000005
 20
-1145.4258649999999
 11
678.25493300000005
 21
-1140.4258649999999
  0
ARC
  8
_0-3_躯体と製品
  6
CONTINUOUS
 62
    7
 10
679.25493300000005
 20
-1145.4258649999999
 40
1
 50
180
 51
270
  0
LINE
  8
_0-3_躯体と製品
  6
CONTINUOUS
 62
    7
 10
688.25493300000005
 20
-1146.4258649999999
 11
679.25493300000005
 21
-1146.4258649999999
  0
LINE
  8
_0-3_躯体と製品
  6
CONTINUOUS
 62
    7
 10
689.25493300000005
 20
-1140.4258649999999
 11
689.25493300000005
 21
-1145.4258649999999
  0
ARC
  8
_0-3_躯体と製品
  6
CONTINUOUS
 62
    7
 10
688.25493300000005
 20
-1145.4258649999999
 40
1
 50
270
 51
0
  0
LINE
  8
_0-3_躯体と製品
  6
CONTINUOUS
 62
    7
 10
690.25493300000005
 20
-1145.4258649999999
 11
690.25493300000005
 21
-1140.4258649999999
  0
ARC
  8
_0-3_躯体と製品
  6
CONTINUOUS
 62
    7
 10
691.25493300000005
 20
-1140.4258649999999
 40
1
 50
90
 51
180
  0
ARC
  8
_0-3_躯体と製品
  6
CONTINUOUS
 62
    7
 10
676.25493300000005
 20
-1140.4258649999999
 40
1
 50
0
 51
90
  0
ARC
  8
_0-3_躯体と製品
  6
CONTINUOUS
 62
    7
 10
691.25493300000005
 20
-1140.4258649999999
 40
2
 50
90
 51
180
  0
ARC
  8
_0-3_躯体と製品
  6
CONTINUOUS
 62
    7
 10
676.25493300000005
 20
-1140.4258649999999
 40
2
 50
0
 51
90
  0
LINE
  8
_0-3_躯体と製品
  6
CONTINUOUS
 62
    7
 10
697.25493300000005
 20
-1131.4258649999999
 11
696.25493300000005
 21
-1131.4258649999999
  0
LINE
  8
_0-3_躯体と製品
  6
CONTINUOUS
 62
    7
 10
697.25493300000005
 20
-1137.4258649999999
 11
697.25493300000005
 21
-1131.4258649999999
  0
ARC
  8
_0-3_躯体と製品
  6
CONTINUOUS
 62
    7
 10
695.25493300000005
 20
-1137.4258649999999
 40
2
 50
270
 51
0
  0
LINE
  8
_0-3_躯体と製品
  6
CONTINUOUS
 62
    7
 10
695.25493300000005
 20
-1138.4258649999999
 11
691.25493300000005
 21
-1138.4258649999999
  0
LINE
  8
_0-3_躯体と製品
  6
CONTINUOUS
 62
    7
 10
696.25493300000005
 20
-1131.4258649999999
 11
696.25493300000005
 21
-1137.4258649999999
  0
ARC
  8
_0-3_躯体と製品
  6
CONTINUOUS
 62
    7
 10
695.25493300000005
 20
-1137.4258649999999
 40
1
 50
270
 51
0
  0
LINE
  8
_0-3_躯体と製品
  6
CONTINUOUS
 62
    7
 10
691.25493300000005
 20
-1139.4258649999999
 11
695.25493300000005
 21
-1139.4258649999999
  0
LINE
  8
_0-3_躯体と製品
  6
CONTINUOUS
 62
    7
 10
671.25493300000005
 20
-1139.4258649999999
 11
671.25493300000005
 21
-1138.4258649999999
  0
LINE
  8
_0-3_躯体と製品
  6
CONTINUOUS
 62
    7
 10
676.25493300000005
 20
-1138.4258649999999
 11
671.25493300000005
 21
-1138.4258649999999
  0
LINE
  8
_0-3_躯体と製品
  6
CONTINUOUS
 62
    7
 10
671.25493300000005
 20
-1139.4258649999999
 11
676.25493300000005
 21
-1139.4258649999999
  0
ARC
  8
_0-3_躯体と製品
  6
CONTINUOUS
 62
    4
 10
671.45492899999999
 20
-1137.9258649999999
 40
1.5
 50
180.000265999996
 51
269.99989799999997
  0
LINE
  8
_0-3_躯体と製品
  6
CONTINUOUS
 62
    4
 10
669.95489199999997
 20
-1129.925872
 11
669.95492899999999
 21
-1137.925872
  0
ARC
  8
_0-3_躯体と製品
  6
CONTINUOUS
 62
    4
 10
636.00493300000005
 20
-1140.9258649999999
 40
1
 50
180
 51
270
  0
ARC
  8
_0-3_躯体と製品
  6
CONTINUOUS
 62
    4
 10
644.00493300000005
 20
-1123.4258649999999
 40
1
 50
90
 51
180
  0
LINE
  8
_0-3_躯体と製品
  6
CONTINUOUS
 62
    4
 10
635.00493300000005
 20
-1140.9258649999999
 11
635.00493300000005
 21
-1125.4258649999999
  0
LINE
  8
_0-3_躯体と製品
  6
CONTINUOUS
 62
    4
 10
632.00493300000005
 20
-1123.4258649999999
 11
632.00493300000005
 21
-1140.9258649999999
  0
ARC
  8
_0-3_躯体と製品
  6
CONTINUOUS
 62
    4
 10
636.00493300000005
 20
-1125.4258649999999
 40
1
 50
90
 51
180
  0
ARC
  8
_0-3_躯体と製品
  6
CONTINUOUS
 62
    4
 10
631.00493300000005
 20
-1123.4258649999999
 40
1
 50
0
 51
90
  0
ARC
  8
_0-3_躯体と製品
  6
CONTINUOUS
 62
    4
 10
631.00493300000005
 20
-1140.9258649999999
 40
1
 50
270
 51
0
  0
LINE
  8
_0-3_躯体と製品
  6
CONTINUOUS
 62
    4
 10
631.00493300000005
 20
-1141.9258649999999
 11
625.50493500000005
 21
-1141.9258649999999
  0
LINE
  8
_0-3_躯体と製品
  6
CONTINUOUS
 62
    4
 10
625.50493500000005
 20
-1122.4258649999999
 11
631.00493300000005
 21
-1122.4258649999999
  0
LINE
  8
_0-3_躯体と製品
  6
CONTINUOUS
 62
    4
 10
636.00493300000005
 20
-1124.4258649999999
 11
642.00493300000005
 21
-1124.4258649999999
  0
ARC
  8
_0-3_躯体と製品
  6
CONTINUOUS
 62
    4
 10
642.00493300000005
 20
-1123.4258649999999
 40
1
 50
270
 51
0
  0
LINE
  8
_0-3_躯体と製品
  6
CONTINUOUS
 62
    4
 10
671.45489499999996
 20
-1128.4258649999999
 11
681.65493600000002
 21
-1128.4258649999999
  0
ARC
  8
_0-3_躯体と製品
  6
CONTINUOUS
 62
    4
 10
682.65493700000002
 20
-1125.9258649999999
 40
1
 50
0
 51
30.000000000000501
  0
ARC
  8
_0-3_躯体と製品
  6
CONTINUOUS
 62
    4
 10
681.25493300000005
 20
-1123.9258649999999
 40
1
 50
180
 51
270
  0
ARC
  8
_0-3_躯体と製品
  6
CONTINUOUS
 62
    4
 10
681.65493600000002
 20
-1126.4258649999999
 40
2
 50
270
 51
0
  0
LINE
  8
_0-3_躯体と製品
  6
CONTINUOUS
 62
    4
 10
683.65493700000002
 20
-1125.9258649999999
 11
683.65493600000002
 21
-1126.4258649999999
  0
LINE
  8
_0-3_躯体と製品
  6
CONTINUOUS
 62
    4
 10
681.30912000000001
 20
-1125.4258649999999
 11
683.52096200000005
 21
-1125.4258649999999
  0
ARC
  8
_0-3_躯体と製品
  6
CONTINUOUS
 62
    4
 10
682.65493700000002
 20
-1125.9258649999999
 40
1
 50
30.000000000000501
 51
90.000000000000014
  0
LINE
  8
_0-3_躯体と製品
  6
CONTINUOUS
 62
    4
 10
681.30912000000001
 20
-1124.9258649999999
 11
682.65493700000002
 21
-1124.9258649999999
  0
ARC
  8
_0-3_躯体と製品
  6
CONTINUOUS
 62
    4
 10
681.25493300000005
 20
-1123.4258649999999
 40
2
 50
180
 51
270
  0
ARC
  8
_0-3_躯体と製品
  6
CONTINUOUS
 62
    4
 10
671.45489499999996
 20
-1129.9258649999999
 40
1.5
 50
90
 51
180.00024899998701
  0
LINE
  8
_0-3_躯体と製品
  6
CONTINUOUS
 62
    4
 10
625.50493500000005
 20
-1146.9258649999999
 11
676.87296700000002
 21
-1146.9258649999999
  0
LINE
  8
_0-3_躯体と製品
  6
CONTINUOUS
 62
    4
 10
625.50493500000005
 20
-1118.4258649999999
 11
678.25493300000005
 21
-1118.4258649999999
  0
LINE
  8
_0-3_躯体と製品
  6
CONTINUOUS
 62
    4
 10
625.50493500000005
 20
-1117.4258649999999
 11
678.75493300000005
 21
-1117.4258649999999
  0
LINE
  8
_0-3_躯体と製品
  6
CONTINUOUS
 62
    4
 10
625.50493500000005
 20
-1147.4258649999999
 11
675.75493300000005
 21
-1147.4258649999999
  0
LINE
  8
_0-3_躯体と製品
  6
CONTINUOUS
 62
    7
 10
852.95438300000001
 20
-1158.4259280000001
 11
852.15176799999995
 21
-1159.8300449999999
  0
LINE
  8
_0-3_躯体と製品
  6
CONTINUOUS
 62
    7
 10
852.15176799999995
 20
-1159.8300449999999
 11
851.57728299999997
 21
-1161.3416500000001
  0
LINE
  8
_0-3_躯体と製品
  6
CONTINUOUS
 62
    7
 10
851.57728299999997
 20
-1161.3416500000001
 11
851.25430300000005
 21
-1162.9259280000001
  0
LINE
  8
_0-3_躯体と製品
  6
CONTINUOUS
 62
    7
 10
851.25430300000005
 20
-1162.9259280000001
 11
850.73325799999998
 21
-1162.5092380000001
  0
LINE
  8
_0-3_躯体と製品
  6
CONTINUOUS
 62
    7
 10
850.73325799999998
 20
-1162.5092380000001
 11
850.08408799999995
 21
-1162.5189250000001
  0
LINE
  8
_0-3_躯体と製品
  6
CONTINUOUS
 62
    7
 10
850.08408799999995
 20
-1162.5189250000001
 11
849.55438300000003
 21
-1162.9259280000001
  0
ARC
  8
_0-3_躯体と製品
  6
CONTINUOUS
 62
    7
 10
851.25477799999999
 20
-1149.425804
 40
6
 50
90
 51
127.46625999999898
  0
ARC
  8
_0-3_躯体と製品
  6
CONTINUOUS
 62
    7
 10
851.25477799999999
 20
-1149.425804
 40
5.9999989999999999
 50
52.533730000003693
 51
90
  0
LINE
  8
_0-3_躯体と製品
  6
CONTINUOUS
 62
    7
 10
849.75477799999999
 20
-1149.9177199999999
 11
852.75479299999995
 21
-1148.7936930000001
  0
LINE
  8
_0-3_躯体と製品
  6
CONTINUOUS
 62
    7
 10
852.75483799999995
 20
-1148.7933190000001
 11
853.25485300000003
 21
-1148.925342
  0
LINE
  8
_0-3_躯体と製品
  6
CONTINUOUS
 62
    7
 10
853.25474799999995
 20
-1148.9257009999999
 11
852.75475300000005
 21
-1149.433685
  0
LINE
  8
_0-3_躯体と製品
  6
CONTINUOUS
 62
    7
 10
852.75482299999999
 20
-1149.4338600000001
 11
849.75485300000003
 21
-1150.5578419999999
  0
LINE
  8
_0-3_躯体と製品
  6
CONTINUOUS
 62
    7
 10
849.75468799999999
 20
-1150.5577880000001
 11
849.25466300000005
 21
-1150.425792
  0
LINE
  8
_0-3_躯体と製品
  6
CONTINUOUS
 62
    7
 10
849.25455799999997
 20
-1150.425731
 11
849.75463300000001
 21
-1149.917659
  0
LINE
  8
_0-3_躯体と製品
  6
CONTINUOUS
 62
    7
 10
852.75469299999997
 20
-1149.4336960000001
 11
852.75469299999997
 21
-1150.293682
  0
LINE
  8
_0-3_躯体と製品
  6
CONTINUOUS
 62
    7
 10
852.75469299999997
 20
-1150.9336960000001
 11
852.75469299999997
 21
-1151.9257009999999
  0
LINE
  8
_0-3_躯体と製品
  6
CONTINUOUS
 62
    7
 10
849.75469299999997
 20
-1146.4258649999999
 11
849.75469299999997
 21
-1146.9177050000001
  0
LINE
  8
_0-3_躯体と製品
  6
CONTINUOUS
 62
    7
 10
852.75469299999997
 20
-1146.4336960000001
 11
852.75469299999997
 21
-1147.293682
  0
LINE
  8
_0-3_躯体と製品
  6
CONTINUOUS
 62
    7
 10
849.75469299999997
 20
-1147.613689
 11
849.75469299999997
 21
-1148.4177050000001
  0
LINE
  8
_0-3_躯体と製品
  6
CONTINUOUS
 62
    7
 10
852.75469299999997
 20
-1147.9336960000001
 11
852.75469299999997
 21
-1148.793682
  0
LINE
  8
_0-3_躯体と製品
  6
CONTINUOUS
 62
    7
 10
849.75469299999997
 20
-1149.05772
 11
849.75469299999997
 21
-1149.9177050000001
  0
LINE
  8
_0-3_躯体と製品
  6
CONTINUOUS
 62
    7
 10
851.46283800000003
 20
-1146.9178079999999
 11
849.75477799999999
 21
-1147.5577579999999
  0
LINE
  8
_0-3_躯体と製品
  6
CONTINUOUS
 62
    7
 10
849.754593
 20
-1147.55783
 11
849.25463300000001
 21
-1147.425853
  0
LINE
  8
_0-3_躯体と製品
  6
CONTINUOUS
 62
    7
 10
849.25468799999999
 20
-1147.4258110000001
 11
849.75467800000001
 21
-1146.917823
  0
LINE
  8
_0-3_躯体と製品
  6
CONTINUOUS
 62
    7
 10
849.75471800000003
 20
-1148.417659
 11
852.75466800000004
 21
-1147.293651
  0
LINE
  8
_0-3_躯体と製品
  6
CONTINUOUS
 62
    7
 10
852.75476800000001
 20
-1147.293445
 11
853.25478299999997
 21
-1147.4254679999999
  0
LINE
  8
_0-3_躯体と製品
  6
CONTINUOUS
 62
    7
 10
853.25470299999995
 20
-1147.4257239999999
 11
852.75471800000003
 21
-1147.933708
  0
LINE
  8
_0-3_躯体と製品
  6
CONTINUOUS
 62
    7
 10
852.75469299999997
 20
-1147.933845
 11
849.75461800000005
 21
-1149.057869
  0
LINE
  8
_0-3_躯体と製品
  6
CONTINUOUS
 62
    7
 10
849.75473299999999
 20
-1149.057781
 11
849.254773
 21
-1148.9258
  0
LINE
  8
_0-3_躯体と製品
  6
CONTINUOUS
 62
    7
 10
849.25473299999999
 20
-1148.9257239999999
 11
849.75472300000001
 21
-1148.417739
  0
LINE
  8
_0-3_躯体と製品
  6
CONTINUOUS
 62
    7
 10
849.754548
 20
-1151.417762
 11
852.75450799999999
 21
-1150.293754
  0
LINE
  8
_0-3_躯体と製品
  6
CONTINUOUS
 62
    7
 10
852.75477799999999
 20
-1150.2933499999999
 11
853.25479299999995
 21
-1150.425373
  0
LINE
  8
_0-3_躯体と製品
  6
CONTINUOUS
 62
    7
 10
853.25460299999997
 20
-1150.4258299999999
 11
852.75456299999996
 21
-1150.9338600000001
  0
LINE
  8
_0-3_躯体と製品
  6
CONTINUOUS
 62
    7
 10
852.75482299999999
 20
-1150.9338110000001
 11
849.75485300000003
 21
-1152.0577920000001
  0
LINE
  8
_0-3_躯体と製品
  6
CONTINUOUS
 62
    7
 10
851.46283800000003
 20
-1146.9178079999999
 11
849.75469299999997
 21
-1146.9178079999999
  0
LINE
  8
_0-3_躯体と製品
  6
CONTINUOUS
 62
    7
 10
851.67446800000005
 20
-1143.4405019999999
 11
851.67446800000005
 21
-1143.843574
  0
LINE
  8
_0-3_躯体と製品
  6
CONTINUOUS
 62
    7
 10
850.834473
 20
-1143.440544
 11
850.834473
 21
-1143.843574
  0
LINE
  8
_0-3_躯体と製品
  6
CONTINUOUS
 62
    7
 10
851.67446800000005
 20
-1143.843574
 11
850.834473
 21
-1143.843574
  0
LINE
  8
_0-3_躯体と製品
  6
CONTINUOUS
 62
    7
 10
852.75451799999996
 20
-1147.933914
 11
849.75484800000004
 21
-1148.41761
  0
LINE
  8
_0-3_躯体と製品
  6
CONTINUOUS
 62
    7
 10
852.75468799999999
 20
-1149.43391
 11
849.75444800000002
 21
-1149.9178460000001
  0
LINE
  8
_0-3_躯体と製品
  6
CONTINUOUS
 62
    7
 10
852.75449300000002
 20
-1150.933933
 11
849.75476300000003
 21
-1151.417682
  0
LINE
  8
_0-3_躯体と製品
  6
CONTINUOUS
 62
    7
 10
852.75428799999997
 20
-1152.434084
 11
849.75462300000004
 21
-1152.91778
  0
LINE
  8
_0-3_躯体と製品
  6
CONTINUOUS
 62
    7
 10
852.75421800000004
 20
-1153.9341710000001
 11
849.75422800000001
 21
-1154.4180140000001
  0
LINE
  8
_0-3_躯体と製品
  6
CONTINUOUS
 62
    7
 10
852.75427300000001
 20
-1155.434105
 11
849.75453300000004
 21
-1155.917854
  0
LINE
  8
_0-3_躯体と製品
  6
CONTINUOUS
 62
    7
 10
849.55438300000003
 20
-1158.4259280000001
 11
849.55438300000003
 21
-1162.9258669999999
  0
LINE
  8
_0-3_躯体と製品
  6
CONTINUOUS
 62
    7
 10
852.95438300000001
 20
-1162.9258669999999
 11
852.95438300000001
 21
-1158.4258669999999
  0
LINE
  8
_0-3_躯体と製品
  6
CONTINUOUS
 62
    7
 10
852.95438300000001
 20
-1158.4259320000001
 11
851.25438799999995
 21
-1164.4258669999999
  0
LINE
  8
_0-3_躯体と製品
  6
CONTINUOUS
 62
    7
 10
852.95438300000001
 20
-1162.9259280000001
 11
851.25438799999995
 21
-1164.4258649999999
  0
LINE
  8
_0-3_躯体と製品
  6
CONTINUOUS
 62
    7
 10
851.25438799999995
 20
-1164.4258649999999
 11
849.55438300000003
 21
-1162.9258669999999
  0
LINE
  8
_0-3_躯体と製品
  6
CONTINUOUS
 62
    7
 10
853.45447799999999
 20
-1143.84357
 11
851.67446800000005
 21
-1146.4258689999999
  0
LINE
  8
_0-3_躯体と製品
  6
CONTINUOUS
 62
    7
 10
850.834473
 20
-1146.4258689999999
 11
849.05447300000003
 21
-1143.8438140000001
  0
LINE
  8
_0-3_躯体と製品
  6
CONTINUOUS
 62
    7
 10
850.834473
 20
-1143.843574
 11
850.834473
 21
-1146.4258649999999
  0
LINE
  8
_0-3_躯体と製品
  6
CONTINUOUS
 62
    7
 10
851.67446800000005
 20
-1143.843574
 11
851.67446800000005
 21
-1146.4258649999999
  0
LINE
  8
_0-3_躯体と製品
  6
CONTINUOUS
 62
    7
 10
847.71707800000001
 20
-1146.4258649999999
 11
854.79278799999997
 21
-1146.4258649999999
  0
LINE
  8
_0-3_躯体と製品
  6
CONTINUOUS
 62
    7
 10
852.95438300000001
 20
-1158.4259280000001
 11
849.55438300000003
 21
-1158.4259280000001
  0
LINE
  8
_0-3_躯体と製品
  6
CONTINUOUS
 62
    7
 10
849.75446299999999
 20
-1155.9178649999999
 11
849.75437799999997
 21
-1158.4259280000001
  0
LINE
  8
_0-3_躯体と製品
  6
CONTINUOUS
 62
    7
 10
849.754548
 20
-1154.4178919999999
 11
852.75456299999996
 21
-1153.2938630000001
  0
LINE
  8
_0-3_躯体と製品
  6
CONTINUOUS
 62
    7
 10
852.75461800000005
 20
-1153.2934889999999
 11
853.25463300000001
 21
-1153.425512
  0
LINE
  8
_0-3_躯体と製品
  6
CONTINUOUS
 62
    7
 10
853.25452299999995
 20
-1153.42587
 11
852.75453300000004
 21
-1153.933857
  0
LINE
  8
_0-3_躯体と製品
  6
CONTINUOUS
 62
    7
 10
852.754593
 20
-1153.9340319999999
 11
849.75462300000004
 21
-1155.058014
  0
LINE
  8
_0-3_躯体と製品
  6
CONTINUOUS
 62
    7
 10
849.75446299999999
 20
-1155.0579580000001
 11
849.25443800000005
 21
-1154.925962
  0
LINE
  8
_0-3_躯体と製品
  6
CONTINUOUS
 62
    7
 10
849.25433299999997
 20
-1154.9259010000001
 11
849.75440300000002
 21
-1154.417827
  0
LINE
  8
_0-3_躯体と製品
  6
CONTINUOUS
 62
    7
 10
849.75446299999999
 20
-1155.1138570000001
 11
849.75446299999999
 21
-1155.9178730000001
  0
LINE
  8
_0-3_躯体と製品
  6
CONTINUOUS
 62
    7
 10
852.75446299999999
 20
-1153.9338640000001
 11
852.75446299999999
 21
-1154.79385
  0
LINE
  8
_0-3_躯体と製品
  6
CONTINUOUS
 62
    7
 10
852.75446299999999
 20
-1155.4338640000001
 11
852.75437799999997
 21
-1158.4258669999999
  0
LINE
  8
_0-3_躯体と製品
  6
CONTINUOUS
 62
    7
 10
855.25480800000003
 20
-1145.625824
 11
854.79280800000004
 21
-1146.4258299999999
  0
LINE
  8
_0-3_躯体と製品
  6
CONTINUOUS
 62
    7
 10
854.90506300000004
 20
-1144.663673
 11
855.25507300000004
 21
-1145.6256599999999
  0
LINE
  8
_0-3_躯体と製品
  6
CONTINUOUS
 62
    7
 10
847.60474299999998
 20
-1144.6638559999999
 11
847.25477799999999
 21
-1145.625728
  0
LINE
  8
_0-3_躯体と製品
  6
CONTINUOUS
 62
    7
 10
847.254953
 20
-1145.625648
 11
847.70252800000003
 21
-1146.400676
  0
LINE
  8
_0-3_躯体と製品
  6
CONTINUOUS
 62
    7
 10
849.75446299999999
 20
-1150.5579869999999
 11
849.75446299999999
 21
-1151.4178730000001
  0
LINE
  8
_0-3_躯体と製品
  6
CONTINUOUS
 62
    7
 10
852.75446299999999
 20
-1150.9338640000001
 11
852.75446299999999
 21
-1151.79385
  0
LINE
  8
_0-3_躯体と製品
  6
CONTINUOUS
 62
    7
 10
849.75446299999999
 20
-1152.1138570000001
 11
849.75446299999999
 21
-1152.9178730000001
  0
LINE
  8
_0-3_躯体と製品
  6
CONTINUOUS
 62
    7
 10
852.75446299999999
 20
-1152.4338640000001
 11
852.75446299999999
 21
-1153.29385
  0
LINE
  8
_0-3_躯体と製品
  6
CONTINUOUS
 62
    7
 10
849.75446299999999
 20
-1153.557888
 11
849.75446299999999
 21
-1154.4178730000001
  0
LINE
  8
_0-3_躯体と製品
  6
CONTINUOUS
 62
    7
 10
847.25477799999999
 20
-1145.625816
 11
855.25477799999999
 21
-1145.625816
  0
LINE
  8
_0-3_躯体と製品
  6
CONTINUOUS
 62
    7
 10
853.25447799999995
 20
-1150.4259070000001
 11
852.75449300000002
 21
-1150.9338949999999
  0
LINE
  8
_0-3_躯体と製品
  6
CONTINUOUS
 62
    7
 10
852.75457800000004
 20
-1150.933925
 11
849.75455799999997
 21
-1152.0579299999999
  0
LINE
  8
_0-3_躯体と製品
  6
CONTINUOUS
 62
    7
 10
849.75437299999999
 20
-1152.058002
 11
849.25440800000001
 21
-1151.926021
  0
LINE
  8
_0-3_躯体と製品
  6
CONTINUOUS
 62
    7
 10
849.254458
 20
-1151.9259790000001
 11
849.75444800000002
 21
-1151.417995
  0
LINE
  8
_0-3_躯体と製品
  6
CONTINUOUS
 62
    7
 10
849.75448800000004
 20
-1152.917831
 11
852.75444300000004
 21
-1151.793823
  0
LINE
  8
_0-3_躯体と製品
  6
CONTINUOUS
 62
    7
 10
852.754548
 20
-1151.7936130000001
 11
853.25455799999997
 21
-1151.9256399999999
  0
LINE
  8
_0-3_躯体と製品
  6
CONTINUOUS
 62
    7
 10
853.25447799999995
 20
-1151.9258910000001
 11
852.75448800000004
 21
-1152.433878
  0
LINE
  8
_0-3_躯体と製品
  6
CONTINUOUS
 62
    7
 10
852.75447299999996
 20
-1152.434015
 11
849.75438799999995
 21
-1153.5580379999999
  0
LINE
  8
_0-3_躯体と製品
  6
CONTINUOUS
 62
    7
 10
849.75450799999999
 20
-1153.557949
 11
849.254548
 21
-1153.42597
  0
LINE
  8
_0-3_躯体と製品
  6
CONTINUOUS
 62
    7
 10
849.25450799999999
 20
-1153.4258930000001
 11
849.75449300000002
 21
-1152.917907
  0
LINE
  8
_0-3_躯体と製品
  6
CONTINUOUS
 62
    7
 10
849.75433299999997
 20
-1155.9179300000001
 11
852.75428799999997
 21
-1154.7939220000001
  0
LINE
  8
_0-3_躯体と製品
  6
CONTINUOUS
 62
    7
 10
852.75455799999997
 20
-1154.7935179999999
 11
853.25457300000005
 21
-1154.9255410000001
  0
LINE
  8
_0-3_躯体と製品
  6
CONTINUOUS
 62
    7
 10
853.25437299999999
 20
-1154.9260019999999
 11
852.75434299999995
 21
-1155.4340299999999
  0
LINE
  8
_0-3_躯体と製品
  6
CONTINUOUS
 62
    7
 10
685.45438300000001
 20
-1158.4259280000001
 11
684.65176799999995
 21
-1159.830046
  0
LINE
  8
_0-3_躯体と製品
  6
CONTINUOUS
 62
    7
 10
684.65176799999995
 20
-1159.830046
 11
684.07728299999997
 21
-1161.341651
  0
LINE
  8
_0-3_躯体と製品
  6
CONTINUOUS
 62
    7
 10
684.07728299999997
 20
-1161.341651
 11
683.75430300000005
 21
-1162.9259280000001
  0
LINE
  8
_0-3_躯体と製品
  6
CONTINUOUS
 62
    7
 10
683.75430300000005
 20
-1162.9259280000001
 11
683.23325799999998
 21
-1162.509239
  0
LINE
  8
_0-3_躯体と製品
  6
CONTINUOUS
 62
    7
 10
683.23325799999998
 20
-1162.509239
 11
682.58408799999995
 21
-1162.518926
  0
LINE
  8
_0-3_躯体と製品
  6
CONTINUOUS
 62
    7
 10
682.58408799999995
 20
-1162.518926
 11
682.05438300000003
 21
-1162.9259280000001
  0
ARC
  8
_0-3_躯体と製品
  6
CONTINUOUS
 62
    7
 10
683.75477799999999
 20
-1149.425804
 40
6
 50
90
 51
127.46625999999898
  0
ARC
  8
_0-3_躯体と製品
  6
CONTINUOUS
 62
    7
 10
683.75477799999999
 20
-1149.425804
 40
5.9999989999999999
 50
52.533730000003693
 51
90
  0
LINE
  8
_0-3_躯体と製品
  6
CONTINUOUS
 62
    7
 10
682.25477799999999
 20
-1149.917721
 11
685.25479299999995
 21
-1148.793694
  0
LINE
  8
_0-3_躯体と製品
  6
CONTINUOUS
 62
    7
 10
685.25483799999995
 20
-1148.79332
 11
685.75485300000003
 21
-1148.9253430000001
  0
LINE
  8
_0-3_躯体と製品
  6
CONTINUOUS
 62
    7
 10
685.75474799999995
 20
-1148.9257009999999
 11
685.25475300000005
 21
-1149.433685
  0
LINE
  8
_0-3_躯体と製品
  6
CONTINUOUS
 62
    7
 10
685.25482299999999
 20
-1149.433861
 11
682.25485300000003
 21
-1150.5578419999999
  0
LINE
  8
_0-3_躯体と製品
  6
CONTINUOUS
 62
    7
 10
682.25468799999999
 20
-1150.557789
 11
681.75466300000005
 21
-1150.4257930000001
  0
LINE
  8
_0-3_躯体と製品
  6
CONTINUOUS
 62
    7
 10
681.75455799999997
 20
-1150.4257319999999
 11
682.25463300000001
 21
-1149.9176600000001
  0
LINE
  8
_0-3_躯体と製品
  6
CONTINUOUS
 62
    7
 10
685.25469299999997
 20
-1149.4336969999999
 11
685.25469299999997
 21
-1150.293682
  0
LINE
  8
_0-3_躯体と製品
  6
CONTINUOUS
 62
    7
 10
685.25469299999997
 20
-1150.9336969999999
 11
685.25469299999997
 21
-1151.9257009999999
  0
LINE
  8
_0-3_躯体と製品
  6
CONTINUOUS
 62
    7
 10
682.25469299999997
 20
-1146.4258649999999
 11
682.25469299999997
 21
-1146.917706
  0
LINE
  8
_0-3_躯体と製品
  6
CONTINUOUS
 62
    7
 10
685.25469299999997
 20
-1146.4336969999999
 11
685.25469299999997
 21
-1147.293682
  0
LINE
  8
_0-3_躯体と製品
  6
CONTINUOUS
 62
    7
 10
682.25469299999997
 20
-1147.6136899999999
 11
682.25469299999997
 21
-1148.417706
  0
LINE
  8
_0-3_躯体と製品
  6
CONTINUOUS
 62
    7
 10
685.25469299999997
 20
-1147.9336969999999
 11
685.25469299999997
 21
-1148.793682
  0
LINE
  8
_0-3_躯体と製品
  6
CONTINUOUS
 62
    7
 10
682.25469299999997
 20
-1149.05772
 11
682.25469299999997
 21
-1149.917706
  0
LINE
  8
_0-3_躯体と製品
  6
CONTINUOUS
 62
    7
 10
683.96283800000003
 20
-1146.917809
 11
682.25477799999999
 21
-1147.5577579999999
  0
LINE
  8
_0-3_躯体と製品
  6
CONTINUOUS
 62
    7
 10
682.254593
 20
-1147.5578310000001
 11
681.75463300000001
 21
-1147.4258540000001
  0
LINE
  8
_0-3_躯体と製品
  6
CONTINUOUS
 62
    7
 10
681.75468799999999
 20
-1147.425812
 11
682.25467800000001
 21
-1146.9178240000001
  0
LINE
  8
_0-3_躯体と製品
  6
CONTINUOUS
 62
    7
 10
682.25471800000003
 20
-1148.4176600000001
 11
685.25466800000004
 21
-1147.2936520000001
  0
LINE
  8
_0-3_躯体と製品
  6
CONTINUOUS
 62
    7
 10
685.25476800000001
 20
-1147.2934459999999
 11
685.75478299999997
 21
-1147.425469
  0
LINE
  8
_0-3_躯体と製品
  6
CONTINUOUS
 62
    7
 10
685.75470299999995
 20
-1147.4257239999999
 11
685.25471800000003
 21
-1147.933708
  0
LINE
  8
_0-3_躯体と製品
  6
CONTINUOUS
 62
    7
 10
685.25469299999997
 20
-1147.9338459999999
 11
682.25461800000005
 21
-1149.057869
  0
LINE
  8
_0-3_躯体と製品
  6
CONTINUOUS
 62
    7
 10
682.25473299999999
 20
-1149.057781
 11
681.754773
 21
-1148.9258
  0
LINE
  8
_0-3_躯体と製品
  6
CONTINUOUS
 62
    7
 10
681.75473299999999
 20
-1148.9257239999999
 11
682.25472300000001
 21
-1148.4177400000001
  0
LINE
  8
_0-3_躯体と製品
  6
CONTINUOUS
 62
    7
 10
682.254548
 20
-1151.4177629999999
 11
685.25450799999999
 21
-1150.2937549999999
  0
LINE
  8
_0-3_躯体と製品
  6
CONTINUOUS
 62
    7
 10
685.25477799999999
 20
-1150.2933499999999
 11
685.75479299999995
 21
-1150.425373
  0
LINE
  8
_0-3_躯体と製品
  6
CONTINUOUS
 62
    7
 10
685.75460299999997
 20
-1150.425831
 11
685.25456299999996
 21
-1150.933861
  0
LINE
  8
_0-3_躯体と製品
  6
CONTINUOUS
 62
    7
 10
685.25482299999999
 20
-1150.9338110000001
 11
682.25485300000003
 21
-1152.0577929999999
  0
LINE
  8
_0-3_躯体と製品
  6
CONTINUOUS
 62
    7
 10
683.96283800000003
 20
-1146.917809
 11
682.25469299999997
 21
-1146.917809
  0
LINE
  8
_0-3_躯体と製品
  6
CONTINUOUS
 62
    7
 10
684.17446800000005
 20
-1143.4405019999999
 11
684.17446800000005
 21
-1143.8435750000001
  0
LINE
  8
_0-3_躯体と製品
  6
CONTINUOUS
 62
    7
 10
683.334473
 20
-1143.440544
 11
683.334473
 21
-1143.8435750000001
  0
LINE
  8
_0-3_躯体と製品
  6
CONTINUOUS
 62
    7
 10
684.17446800000005
 20
-1143.8435750000001
 11
683.334473
 21
-1143.8435750000001
  0
LINE
  8
_0-3_躯体と製品
  6
CONTINUOUS
 62
    7
 10
685.25451799999996
 20
-1147.933914
 11
682.25484800000004
 21
-1148.41761
  0
LINE
  8
_0-3_躯体と製品
  6
CONTINUOUS
 62
    7
 10
685.25468799999999
 20
-1149.43391
 11
682.25444800000002
 21
-1149.9178469999999
  0
LINE
  8
_0-3_躯体と製品
  6
CONTINUOUS
 62
    7
 10
685.25449300000002
 20
-1150.933933
 11
682.25476300000003
 21
-1151.4176829999999
  0
LINE
  8
_0-3_躯体と製品
  6
CONTINUOUS
 62
    7
 10
685.25428799999997
 20
-1152.434084
 11
682.25462300000004
 21
-1152.91778
  0
LINE
  8
_0-3_躯体と製品
  6
CONTINUOUS
 62
    7
 10
685.25421800000004
 20
-1153.934172
 11
682.25422800000001
 21
-1154.418015
  0
LINE
  8
_0-3_躯体と製品
  6
CONTINUOUS
 62
    7
 10
685.25427300000001
 20
-1155.434105
 11
682.25453300000004
 21
-1155.917854
  0
LINE
  8
_0-3_躯体と製品
  6
CONTINUOUS
 62
    7
 10
682.05438300000003
 20
-1158.4259280000001
 11
682.05438300000003
 21
-1162.9258669999999
  0
LINE
  8
_0-3_躯体と製品
  6
CONTINUOUS
 62
    7
 10
685.45438300000001
 20
-1162.9258669999999
 11
685.45438300000001
 21
-1158.4258669999999
  0
LINE
  8
_0-3_躯体と製品
  6
CONTINUOUS
 62
    7
 10
685.45438300000001
 20
-1158.4259320000001
 11
683.75438799999995
 21
-1164.4258669999999
  0
LINE
  8
_0-3_躯体と製品
  6
CONTINUOUS
 62
    7
 10
685.45438300000001
 20
-1162.9259280000001
 11
683.75438799999995
 21
-1164.4258649999999
  0
LINE
  8
_0-3_躯体と製品
  6
CONTINUOUS
 62
    7
 10
683.75438799999995
 20
-1164.4258649999999
 11
682.05438300000003
 21
-1162.9258669999999
  0
LINE
  8
_0-3_躯体と製品
  6
CONTINUOUS
 62
    7
 10
685.95447799999999
 20
-1143.8435710000001
 11
684.17446800000005
 21
-1146.4258689999999
  0
LINE
  8
_0-3_躯体と製品
  6
CONTINUOUS
 62
    7
 10
683.334473
 20
-1146.4258689999999
 11
681.55447300000003
 21
-1143.8438149999999
  0
LINE
  8
_0-3_躯体と製品
  6
CONTINUOUS
 62
    7
 10
683.334473
 20
-1143.8435750000001
 11
683.334473
 21
-1146.4258649999999
  0
LINE
  8
_0-3_躯体と製品
  6
CONTINUOUS
 62
    7
 10
684.17446800000005
 20
-1143.8435750000001
 11
684.17446800000005
 21
-1146.4258649999999
  0
LINE
  8
_0-3_躯体と製品
  6
CONTINUOUS
 62
    7
 10
680.21707800000001
 20
-1146.4258649999999
 11
687.29278799999997
 21
-1146.4258649999999
  0
LINE
  8
_0-3_躯体と製品
  6
CONTINUOUS
 62
    7
 10
685.45438300000001
 20
-1158.4259280000001
 11
682.05438300000003
 21
-1158.4259280000001
  0
LINE
  8
_0-3_躯体と製品
  6
CONTINUOUS
 62
    7
 10
682.25446299999999
 20
-1155.917866
 11
682.25437799999997
 21
-1158.4259280000001
  0
LINE
  8
_0-3_躯体と製品
  6
CONTINUOUS
 62
    7
 10
682.254548
 20
-1154.417893
 11
685.25456299999996
 21
-1153.2938630000001
  0
LINE
  8
_0-3_躯体と製品
  6
CONTINUOUS
 62
    7
 10
685.25461800000005
 20
-1153.29349
 11
685.75463300000001
 21
-1153.425512
  0
LINE
  8
_0-3_躯体と製品
  6
CONTINUOUS
 62
    7
 10
685.75452299999995
 20
-1153.4258709999999
 11
685.25453300000004
 21
-1153.933857
  0
LINE
  8
_0-3_躯体と製品
  6
CONTINUOUS
 62
    7
 10
685.254593
 20
-1153.934033
 11
682.25462300000004
 21
-1155.058014
  0
LINE
  8
_0-3_躯体と製品
  6
CONTINUOUS
 62
    7
 10
682.25446299999999
 20
-1155.057959
 11
681.75443800000005
 21
-1154.9259629999999
  0
LINE
  8
_0-3_躯体と製品
  6
CONTINUOUS
 62
    7
 10
681.75433299999997
 20
-1154.925902
 11
682.25440300000002
 21
-1154.4178280000001
  0
LINE
  8
_0-3_躯体と製品
  6
CONTINUOUS
 62
    7
 10
682.25446299999999
 20
-1155.1138570000001
 11
682.25446299999999
 21
-1155.9178730000001
  0
LINE
  8
_0-3_躯体と製品
  6
CONTINUOUS
 62
    7
 10
685.25446299999999
 20
-1153.933865
 11
685.25446299999999
 21
-1154.79385
  0
LINE
  8
_0-3_躯体と製品
  6
CONTINUOUS
 62
    7
 10
685.25446299999999
 20
-1155.433865
 11
685.25437799999997
 21
-1158.4258669999999
  0
LINE
  8
_0-3_躯体と製品
  6
CONTINUOUS
 62
    7
 10
687.75480800000003
 20
-1145.625824
 11
687.29280800000004
 21
-1146.425831
  0
LINE
  8
_0-3_躯体と製品
  6
CONTINUOUS
 62
    7
 10
687.40506300000004
 20
-1144.663673
 11
687.75507300000004
 21
-1145.6256599999999
  0
LINE
  8
_0-3_躯体と製品
  6
CONTINUOUS
 62
    7
 10
680.10474299999998
 20
-1144.663857
 11
679.75477799999999
 21
-1145.6257290000001
  0
LINE
  8
_0-3_躯体と製品
  6
CONTINUOUS
 62
    7
 10
679.754953
 20
-1145.6256490000001
 11
680.20252800000003
 21
-1146.4006770000001
  0
LINE
  8
_0-3_躯体と製品
  6
CONTINUOUS
 62
    7
 10
682.25446299999999
 20
-1150.5579869999999
 11
682.25446299999999
 21
-1151.4178730000001
  0
LINE
  8
_0-3_躯体と製品
  6
CONTINUOUS
 62
    7
 10
685.25446299999999
 20
-1150.933865
 11
685.25446299999999
 21
-1151.79385
  0
LINE
  8
_0-3_躯体と製品
  6
CONTINUOUS
 62
    7
 10
682.25446299999999
 20
-1152.1138570000001
 11
682.25446299999999
 21
-1152.9178730000001
  0
LINE
  8
_0-3_躯体と製品
  6
CONTINUOUS
 62
    7
 10
685.25446299999999
 20
-1152.433865
 11
685.25446299999999
 21
-1153.29385
  0
LINE
  8
_0-3_躯体と製品
  6
CONTINUOUS
 62
    7
 10
682.25446299999999
 20
-1153.557888
 11
682.25446299999999
 21
-1154.4178730000001
  0
LINE
  8
_0-3_躯体と製品
  6
CONTINUOUS
 62
    7
 10
679.75477799999999
 20
-1145.625816
 11
687.75477799999999
 21
-1145.625816
  0
LINE
  8
_0-3_躯体と製品
  6
CONTINUOUS
 62
    7
 10
685.75447799999995
 20
-1150.4259070000001
 11
685.25449300000002
 21
-1150.9338949999999
  0
LINE
  8
_0-3_躯体と製品
  6
CONTINUOUS
 62
    7
 10
685.25457800000004
 20
-1150.9339259999999
 11
682.25455799999997
 21
-1152.0579299999999
  0
LINE
  8
_0-3_躯体と製品
  6
CONTINUOUS
 62
    7
 10
682.25437299999999
 20
-1152.0580030000001
 11
681.75440800000001
 21
-1151.9260220000001
  0
LINE
  8
_0-3_躯体と製品
  6
CONTINUOUS
 62
    7
 10
681.754458
 20
-1151.92598
 11
682.25444800000002
 21
-1151.4179959999999
  0
LINE
  8
_0-3_躯体と製品
  6
CONTINUOUS
 62
    7
 10
682.25448800000004
 20
-1152.9178320000001
 11
685.25444300000004
 21
-1151.793823
  0
LINE
  8
_0-3_躯体と製品
  6
CONTINUOUS
 62
    7
 10
685.254548
 20
-1151.7936139999999
 11
685.75455799999997
 21
-1151.9256399999999
  0
LINE
  8
_0-3_躯体と製品
  6
CONTINUOUS
 62
    7
 10
685.75447799999995
 20
-1151.925892
 11
685.25448800000004
 21
-1152.433878
  0
LINE
  8
_0-3_躯体と製品
  6
CONTINUOUS
 62
    7
 10
685.25447299999996
 20
-1152.434015
 11
682.25438799999995
 21
-1153.558039
  0
LINE
  8
_0-3_躯体と製品
  6
CONTINUOUS
 62
    7
 10
682.25450799999999
 20
-1153.557949
 11
681.754548
 21
-1153.42597
  0
LINE
  8
_0-3_躯体と製品
  6
CONTINUOUS
 62
    7
 10
681.75450799999999
 20
-1153.425894
 11
682.25449300000002
 21
-1152.9179079999999
  0
LINE
  8
_0-3_躯体と製品
  6
CONTINUOUS
 62
    7
 10
682.25433299999997
 20
-1155.917931
 11
685.25428799999997
 21
-1154.7939229999999
  0
LINE
  8
_0-3_躯体と製品
  6
CONTINUOUS
 62
    7
 10
685.25455799999997
 20
-1154.7935179999999
 11
685.75457300000005
 21
-1154.9255410000001
  0
LINE
  8
_0-3_躯体と製品
  6
CONTINUOUS
 62
    7
 10
685.75437299999999
 20
-1154.926003
 11
685.25434299999995
 21
-1155.434031
  0
LINE
  8
_0-4_寸法
  6
CONTINUOUS
 62
    4
 10
845.75493300000005
 20
-1093.4735049999999
 11
852.75493300000005
 21
-1093.4735049999999
  0
TEXT
  8
_0-4_寸法
 62
    7
 10
846.66493300000002
 20
-1091.653505
 40
10.359999999999999
 41
1
 50
0
  1
3
  0
LINE
  8
_0-4_寸法
  6
CONTINUOUS
 62
    4
 10
847.75493300000005
 20
-1118.9258649999999
 11
847.75493300000005
 21
-1093.4735049999999
  0
LINE
  8
_0-4_寸法
  6
CONTINUOUS
 62
    4
 10
850.75493300000005
 20
-1118.9258649999999
 11
850.75493300000005
 21
-1093.4735049999999
  0
POINT
  8
_0-4_寸法
 62
    4
 10
847.75493300000005
 20
-1093.4735049999999
  0
POINT
  8
_0-4_寸法
 62
    4
 10
850.75493300000005
 20
-1093.4735049999999
  0
LINE
  8
_0-4_寸法
  6
CONTINUOUS
 62
    4
 10
678.25491499999998
 20
-1093.4735049999999
 11
685.25493400000005
 21
-1093.4735049999999
  0
TEXT
  8
_0-4_寸法
 62
    7
 10
679.16492499999993
 20
-1091.653505
 40
10.359999999999999
 41
1
 50
0
  1
3
  0
LINE
  8
_0-4_寸法
  6
CONTINUOUS
 62
    4
 10
680.25491499999998
 20
-1119.173223
 11
680.25491499999998
 21
-1093.4735049999999
  0
LINE
  8
_0-4_寸法
  6
CONTINUOUS
 62
    4
 10
683.25493400000005
 20
-1118.9258649999999
 11
683.25493400000005
 21
-1093.4735049999999
  0
POINT
  8
_0-4_寸法
 62
    4
 10
680.25491499999998
 20
-1093.4735049999999
  0
POINT
  8
_0-4_寸法
 62
    4
 10
683.25493400000005
 20
-1093.4735049999999
  0
LINE
  8
_0-4_寸法
  6
CONTINUOUS
 62
    4
 10
683.25493400000005
 20
-1093.4735049999999
 11
847.75493300000005
 21
-1093.4735049999999
  0
TEXT
  8
_0-4_寸法
 62
    7
 10
752.05470600000001
 20
-1091.653505
 40
10.359999999999999
 41
1
 50
0
  1
164.5
  0
LINE
  8
_0-4_寸法
  6
CONTINUOUS
 62
    4
 10
683.25493400000005
 20
-1118.9258649999999
 11
683.25493400000005
 21
-1093.4735049999999
  0
LINE
  8
_0-4_寸法
  6
CONTINUOUS
 62
    4
 10
847.75493300000005
 20
-1118.9258649999999
 11
847.75493300000005
 21
-1093.4735049999999
  0
POINT
  8
_0-4_寸法
 62
    4
 10
683.25493400000005
 20
-1093.4735049999999
  0
POINT
  8
_0-4_寸法
 62
    4
 10
847.75493300000005
 20
-1093.4735049999999
  0
LINE
  8
_0-4_寸法
  6
CONTINUOUS
 62
    4
 10
625.50493500000005
 20
-1093.4735049999999
 11
680.25491499999998
 21
-1093.4735049999999
  0
TEXT
  8
_0-4_寸法
 62
    7
 10
639.42992499999991
 20
-1091.653505
 40
10.359999999999999
 41
1
 50
0
  1
164.5
  0
LINE
  8
_0-1_0
  6
CONTINUOUS
 62
    7
 10
0
 20
0
 11
0
 21
0
  0
LINE
  8
_0-1_0
  6
CONTINUOUS
 62
    7
 10
0
 20
0
 11
0
 21
0
  0
POINT
  8
_0-1_0
 62
    7
 10
0
 20
0
  0
POINT
  8
_0-4_寸法
 62
    4
 10
680.25491499999998
 20
-1093.4735049999999
  0
LINE
  8
_0-4_寸法
  6
CONTINUOUS
 62
    4
 10
905.50493200000005
 20
-1093.4735049999999
 11
850.75493300000005
 21
-1093.4735049999999
  0
TEXT
  8
_0-4_寸法
 62
    7
 10
865.67993200000001
 20
-1091.653505
 40
10.359999999999999
 41
1
 50
0
  1
164.5
  0
LINE
  8
_0-1_0
  6
CONTINUOUS
 62
    7
 10
0
 20
0
 11
0
 21
0
  0
LINE
  8
_0-1_0
  6
CONTINUOUS
 62
    7
 10
0
 20
0
 11
0
 21
0
  0
POINT
  8
_0-1_0
 62
    7
 10
0
 20
0
  0
POINT
  8
_0-4_寸法
 62
    4
 10
850.75493300000005
 20
-1093.4735049999999
  0
LINE
  8
_0-2_文字-記号
  6
CONTINUOUS
 62
    7
 10
693.25493300000005
 20
-1138.4258649999999
 11
724.42182100000002
 21
-1076.7201480000001
  0
LINE
  8
_0-2_文字-記号
  6
CONTINUOUS
 62
    7
 10
724.42182100000002
 20
-1076.7201480000001
 11
768.54549899999995
 21
-1076.7201480000001
  0
TEXT
  8
_0-2_文字-記号
 62
    7
 10
727.86186399999997
 20
-1074.554609
 40
10
 41
0.9199999999999999
 50
0
  1
固定金具
  0
LINE
  8
_0-4_寸法
  6
CONTINUOUS
 62
    4
 10
930.02533300000005
 20
-1176.4258649999999
 11
930.02533300000005
 21
-1147.4258649999999
  0
TEXT
  8
_0-4_寸法
 62
    7
 10
928.205333
 20
-1167.105865
 40
10.359999999999999
 41
1
 50
90
  1
29
  0
LINE
  8
_0-4_寸法
  6
CONTINUOUS
 62
    4
 10
912.41354200000001
 20
-1176.4258649999999
 11
930.02533300000005
 21
-1176.4258649999999
  0
LINE
  8
_0-4_寸法
  6
CONTINUOUS
 62
    4
 10
912.41354200000001
 20
-1147.4258649999999
 11
930.02533300000005
 21
-1147.4258649999999
  0
POINT
  8
_0-4_寸法
 62
    4
 10
930.02533300000005
 20
-1176.4258649999999
  0
POINT
  8
_0-4_寸法
 62
    4
 10
930.02533300000005
 20
-1147.4258649999999
  0
LINE
  8
_0-4_寸法
  6
CONTINUOUS
 62
    4
 10
930.02533300000005
 20
-1147.4258649999999
 11
930.02533300000005
 21
-1117.4258649999999
  0
TEXT
  8
_0-4_寸法
 62
    7
 10
928.205333
 20
-1137.605865
 40
10.359999999999999
 41
1
 50
90
  1
30
  0
LINE
  8
_0-4_寸法
  6
CONTINUOUS
 62
    4
 10
912.41354200000001
 20
-1147.4258649999999
 11
930.02533300000005
 21
-1147.4258649999999
  0
LINE
  8
_0-4_寸法
  6
CONTINUOUS
 62
    4
 10
912.41354200000001
 20
-1117.4258649999999
 11
930.02533300000005
 21
-1117.4258649999999
  0
POINT
  8
_0-4_寸法
 62
    4
 10
930.02533300000005
 20
-1147.4258649999999
  0
POINT
  8
_0-4_寸法
 62
    4
 10
930.02533300000005
 20
-1117.4258649999999
  0
LINE
  8
_0-4_寸法
  6
CONTINUOUS
 62
    4
 10
958.73245499999996
 20
-1257.4258649999999
 11
958.73245499999996
 21
-1117.4258649999999
  0
LINE
  8
_0-4_寸法
  6
CONTINUOUS
 62
    4
 10
911.91355999999996
 20
-1257.4258649999999
 11
958.73245499999996
 21
-1257.4258649999999
  0
LINE
  8
_0-4_寸法
  6
CONTINUOUS
 62
    4
 10
911.91354200000001
 20
-1117.4258649999999
 11
958.73245499999996
 21
-1117.4258649999999
  0
POINT
  8
_0-4_寸法
 62
    4
 10
958.73245499999996
 20
-1257.4258649999999
  0
POINT
  8
_0-4_寸法
 62
    4
 10
958.73245499999996
 20
-1117.4258649999999
  0
TEXT
  8
_0-4_寸法
 62
    7
 10
956.91245499999991
 20
-1194.555865
 40
10.359999999999999
 41
1
 50
90
  1
94～300
  0
ENDBLK
  0
ENDSEC
  0
SECTION
  2
ENTITIES
  0
INSERT
  2
-000-Viewport-1
  8
_0-7__0-0_
 10
-551.72653300000002
 20
1478.16236
 41
1
 42
1
 50
0
  0
ENDSEC
  0
EOF
