  0
SECTION
  2
HEADER
  9
$ACADVER
  1
AC1009
  9
$INSBASE
 10
0
 20
0
 30
0
  9
$EXTMIN
 10
0
 20
0
  9
$EXTMAX
 10
1682
 20
1188
  9
$LIMMIN
 10
0
 20
0
  9
$LIMMAX
 10
1682
 20
1188
  9
$LTSCALE
 40
2
  0
ENDSEC
  0
SECTION
  2
TABLES
  0
TABLE
  2
LTYPE
 70
     9
  0
LTYPE
  2
CONTINUOUS
 70
    64
  3
実線
 72
    65
 73
     0
 40
0.0
  0
LTYPE
  2
DASHED1
 70
    64
  3
--  --  --  --  --  --  --  --  
 72
    65
 73
     2
 40
2.5
 49
1.25
 49
-1.25
  0
LTYPE
  2
DASHED2
 70
    64
  3
----    ----    ----    ----    
 72
    65
 73
     2
 40
5.0
 49
2.5
 49
-2.5
  0
LTYPE
  2
DASHED3
 70
    64
  3
------  ------  ------  ------  
 72
    65
 73
     2
 40
5.0
 49
3.75
 49
-1.25
  0
LTYPE
  2
CENTER1
 70
    64
  3
----- - ----- - ----- - ----- - 
 72
    65
 73
     4
 40
10.0
 49
6.25
 49
-1.25
 49
1.25
 49
-1.25
  0
LTYPE
  2
CENTER2
 70
    64
  3
----------  --  ----------  --  
 72
    65
 73
     4
 40
20.0
 49
12.5
 49
-2.5
 49
2.5
 49
-2.5
  0
LTYPE
  2
PHANTOM1
 70
    64
  3
--- - - --- - - --- - - --- - - 
 72
    65
 73
     6
 40
10.0
 49
3.25
 49
-1.25
 49
1.25
 49
-1.25
 49
1.25
 49
-1.25
  0
LTYPE
  2
PHANTOM2
 70
    64
  3
--------  -  -  --------  -  -  
 72
    65
 73
     6
 40
20.0
 49
10.0
 49
-2.5
 49
1.25
 49
-2.5
 49
1.25
 49
-2.5
  0
LTYPE
  2
DOT
 70
    64
  3
-   -   -   -   -   -   -   -   
 72
    65
 73
     2
 40
2.5
 49
0.625
 49
-1.875
  0
LTYPE
  2
DUMMY
 70
    64
  3
ダミー
 72
    65
 73
     0
 40
0.0
  0
LTYPE
  2
RAND1
 70
    64
  3
ランダム線1
 72
    65
 73
     4
 40
10.0
 49
1.0
 49
-2.0
 49
3.0
 49
-4.0
  0
LTYPE
  2
RAND2
 70
    64
  3
ランダム線2
 72
    65
 73
     4
 40
14.0
 49
2.0
 49
-3.0
 49
4.0
 49
-5.0
  0
LTYPE
  2
RAND3
 70
    64
  3
ランダム線3
 72
    65
 73
     4
 40
18.0
 49
3.0
 49
-4.0
 49
5.0
 49
-6.0
  0
LTYPE
  2
RAND4
 70
    64
  3
ランダム線4
 72
    65
 73
     4
 40
22.0
 49
4.0
 49
-5.0
 49
6.0
 49
-7.0
  0
LTYPE
  2
RAND5
 70
    64
  3
ランダム線5
 72
    65
 73
     4
 40
26.0
 49
5.0
 49
-6.0
 49
7.0
 49
-8.0
  0
LTYPE
  2
LONG1
 70
    64
  3
----------  --  ----------  --  
 72
    65
 73
     4
 40
40.0
 49
32.5
 49
-2.5
 49
2.5
 49
-2.5
  0
LTYPE
  2
LONG2
 70
    64
  3
--------  -  -  --------  -  -  
 72
    65
 73
     6
 40
40.0
 49
30.0
 49
-2.5
 49
1.25
 49
-2.5
 49
1.25
 49
-2.5
  0
LTYPE
  2
LONG3
 70
    64
  3
+++++++++++++++..+++++++++++++++
 72
    65
 73
     2
 40
40.0
 49
37.5
 49
-2.5
  0
LTYPE
  2
LONG4
 70
    64
  3
+++++++++++++++..+++++++++++++++
 72
    65
 73
     2
 40
80.0
 49
75.0
 49
-5.0
  0
LTYPE
  2
LONG5
 70
    64
  3
----------  --  ----------  --  
 72
    65
 73
     4
 40
60.0
 49
37.5
 49
-7.5
 49
7.5
 49
-7.5
  0
LTYPE
  2
dashed
 70
   64
  3
-------   -------------   ------
 72
   65
 73
    2
 40
7.5
 49
6
 49
-1.5
  0
LTYPE
  2
dashed_spaced
 70
   64
  3
----        --------        ----
 72
   65
 73
    2
 40
12
 49
6
 49
-6
  0
LTYPE
  2
long_dashed_dotted
 70
   64
  3
------------- --- --------------
 72
   65
 73
    4
 40
15.25
 49
12
 49
-1.5
 49
0.25
 49
-1.5
  0
LTYPE
  2
long_dashed_double-dotted
 70
   64
  3
----------- --- --- ------------
 72
   65
 73
    6
 40
17
 49
12
 49
-1.5
 49
0.25
 49
-1.5
 49
0.25
 49
-1.5
  0
LTYPE
  2
long_dashed_triplicate-dotted
 70
   64
  3
--------- --- --- --- ----------
 72
   65
 73
    8
 40
18.75
 49
12
 49
-1.5
 49
0.25
 49
-1.5
 49
0.25
 49
-1.5
 49
0.25
 49
-1.5
  0
LTYPE
  2
dotted
 70
   64
  3
   -       -       -       -    
 72
   65
 73
    2
 40
1.75
 49
0.25
 49
-1.5
  0
LTYPE
  2
chain
 70
   64
  3
-------------- -- --------------
 72
   65
 73
    4
 40
18.5
 49
12
 49
-1.5
 49
3.5
 49
-1.5
  0
LTYPE
  2
chain_double_dash
 70
   64
  3
------------ -- -- -------------
 72
   65
 73
    6
 40
23.5
 49
12
 49
-1.5
 49
3.5
 49
-1.5
 49
3.5
 49
-1.5
  0
LTYPE
  2
dashed_dotted
 70
   64
  3
-----------     -     ----------
 72
   65
 73
    4
 40
9.25
 49
6
 49
-1.5
 49
0.25
 49
-1.5
  0
LTYPE
  2
double-dashed_dotted
 70
   64
  3
------   -----------   -   -----
 72
   65
 73
    6
 40
16.75
 49
6
 49
-1.5
 49
6
 49
-1.5
 49
0.25
 49
-1.5
  0
LTYPE
  2
dashed_double-dotted
 70
   64
  3
---------    -    -    ---------
 72
   65
 73
    6
 40
11
 49
6
 49
-1.5
 49
0.25
 49
-1.5
 49
0.25
 49
-1.5
  0
LTYPE
  2
double-dashed_double-dotted
 70
   64
  3
-----   ---------   -   -   ----
 72
   65
 73
    8
 40
18.5
 49
6
 49
-1.5
 49
6
 49
-1.5
 49
0.25
 49
-1.5
 49
0.25
 49
-1.5
  0
LTYPE
  2
dashed_triplicate-dotted
 70
   64
  3
-------    -    -    -    ------
 72
   65
 73
    8
 40
12.75
 49
6
 49
-1.5
 49
0.25
 49
-1.5
 49
0.25
 49
-1.5
 49
0.25
 49
-1.5
  0
LTYPE
  2
double-dashed_triplicate-dotted
 70
   64
  3
-----  ---------  -  -  -  -----
 72
   65
 73
   10
 40
20.25
 49
6
 49
-1.5
 49
6
 49
-1.5
 49
0.25
 49
-1.5
 49
0.25
 49
-1.5
 49
0.25
 49
-1.5
  0
LTYPE
  2
undefined
 70
   64
  3
--------------------------------
 72
   65
 73
    0
 40
0
  0
LTYPE
  2
PLINE2
 70
   64
  3
------     -----------     -----
 72
   65
 73
    2
 40
3
 49
2.1000000000000001
 49
-0.9
  0
ENDTAB
  0
TABLE
  2
STYLE
  5
3
100
AcDbSymbolTable
 70
     1
  0
STYLE
  5
10
100
AcDbSymbolTableRecord
100
AcDbTextStyleTableRecord
  2
STANDARD
 70
     0
 40
0.0
 41
1.0
 50
0.0
 71
     0
 42
0.2
  3
txt
  4
bigfont.shx
  0
STYLE
  5
26
100
AcDbSymbolTableRecord
100
AcDbTextStyleTableRecord
  2
TATEGAKI
 70
    68
 40
0.0
 41
1.0
 50
0.0
 71
     0
 42
1.0
  3
txt
  4
bigfont.shx
  0
ENDTAB
  0
TABLE
  2
LAYER
 70
    7
  0
LAYER
  2
_0-0_0
 70
   64
 62
    7
  6
CONTINUOUS
  0
LAYER
  2
_0-2_寸法
 70
   64
 62
    7
  6
CONTINUOUS
  0
LAYER
  2
_0-3_躯体と製品
 70
   64
 62
    7
  6
CONTINUOUS
  0
LAYER
  2
_0-4_文字-記号
 70
   64
 62
    7
  6
CONTINUOUS
  0
LAYER
  2
_0-5_Layer_05
 70
   64
 62
    7
  6
CONTINUOUS
  0
LAYER
  2
_0-6_中心線
 70
   64
 62
    7
  6
CONTINUOUS
  0
LAYER
  2
ADD_LINE
 70
   64
 62
    7
  6
CONTINUOUS
  0
ENDTAB
  0
ENDSEC
  0
SECTION
  2
BLOCKS
  0
BLOCK
  2
-000-_Dot
 70
   64
 10
0
 20
0
 30
0
  0
CIRCLE
  8
_0-0_0
  6
CONTINUOUS
 62
    7
 10
0
 20
0
 40
0.25
  0
LINE
  8
_0-0_0
  6
CONTINUOUS
 62
    7
 10
0.25
 20
0
 11
-0.25
 21
0
  0
LINE
  8
_0-0_0
  6
CONTINUOUS
 62
    7
 10
-0.5
 20
0
 11
-1
 21
0
  0
ENDBLK
  0
BLOCK
  2
-001-_D2
 70
   64
 10
0
 20
0
 30
0
  0
LINE
  8
_0-2_寸法
  6
CONTINUOUS
 62
    4
 10
2777.6756515703369
 20
1176.535563928225
 11
2876.675651570336
 21
1176.535563928225
  0
INSERT
  2
-000-_Dot
  8
_0-2_寸法
 10
2877.6756515703369
 20
1176.535563928225
 41
1
 42
1
 50
0
  0
TEXT
  8
_0-2_寸法
 62
    7
 10
2819.1756515703369
 20
1179.535563928225
 40
8
 41
1
 50
0
  1
@500
  0
POINT
  8
_0-1_Defpoints
 62
    7
 10
2777.6756515703369
 20
1176.535563928225
  0
POINT
  8
_0-1_Defpoints
 62
    7
 10
2877.6756515703369
 20
1176.535563928225
  0
POINT
  8
_0-1_Defpoints
 62
    7
 10
2877.6756515703369
 20
1176.535563928225
  0
ENDBLK
  0
BLOCK
  2
-002-_D3
 70
   64
 10
0
 20
0
 30
0
  0
LINE
  8
_0-2_寸法
  6
CONTINUOUS
 62
    4
 10
2878.6756515703369
 20
1176.535563928225
 11
2977.6756515703369
 21
1176.535563928225
  0
INSERT
  2
-000-_Dot
  8
_0-2_寸法
 10
2877.6756515703369
 20
1176.535563928225
 41
1
 42
1
 50
180
  0
TEXT
  8
_0-2_寸法
 62
    7
 10
2920.1756515703369
 20
1179.535563928225
 40
8
 41
1
 50
0
  1
@500
  0
POINT
  8
_0-1_Defpoints
 62
    7
 10
2877.6756515703369
 20
1176.535563928225
  0
POINT
  8
_0-1_Defpoints
 62
    7
 10
2977.6756515703369
 20
1176.535563928225
  0
POINT
  8
_0-1_Defpoints
 62
    7
 10
2977.6756515703369
 20
1176.535563928225
  0
ENDBLK
  0
BLOCK
  2
-003-_D4
 70
   64
 10
0
 20
0
 30
0
  0
LINE
  8
_0-2_寸法
  6
CONTINUOUS
 62
    4
 10
3035.0015904175648
 20
1243.8768734000571
 11
3099.7769204175652
 21
1243.8768734000571
  0
LINE
  8
_0-2_寸法
  6
CONTINUOUS
 62
    4
 10
3035.0015904175648
 20
1405.376873400063
 11
3099.7769204175652
 21
1405.376873400063
  0
LINE
  8
_0-2_寸法
  6
CONTINUOUS
 62
    4
 10
3099.7769204175652
 20
1244.8768734000571
 11
3099.7769204175652
 21
1404.376873400063
  0
INSERT
  2
-000-_Dot
  8
_0-2_寸法
 10
3099.7769204175652
 20
1243.8768734000571
 41
1
 42
1
 50
270
  0
INSERT
  2
-000-_Dot
  8
_0-2_寸法
 10
3099.7769204175652
 20
1405.376873400063
 41
1
 42
1
 50
90
  0
TEXT
  8
_0-2_寸法
 62
    7
 10
3096.7769204175652
 20
1312.626873400061
 40
8
 41
1
 50
90
  1
92~300
  0
POINT
  8
_0-1_Defpoints
 62
    7
 10
3035.0015904175648
 20
1243.8768734000571
  0
POINT
  8
_0-1_Defpoints
 62
    7
 10
3035.0015904175648
 20
1405.376873400063
  0
POINT
  8
_0-1_Defpoints
 62
    7
 10
3099.7769204175652
 20
1405.376873400063
  0
ENDBLK
  0
BLOCK
  2
-004-_D5
 70
   64
 10
0
 20
0
 30
0
  0
LINE
  8
_0-2_寸法
  6
CONTINUOUS
 62
    4
 10
2246.3772455576618
 20
1176.5355639282291
 11
2375.3772455576609
 21
1176.5355639282291
  0
INSERT
  2
-000-_Dot
  8
_0-2_寸法
 10
2376.3772455576609
 20
1176.5355639282291
 41
1
 42
1
 50
0
  0
TEXT
  8
_0-2_寸法
 62
    7
 10
2302.8772455576609
 20
1179.5355639282291
 40
8
 41
1
 50
0
  1
@900
  0
POINT
  8
_0-1_Defpoints
 62
    7
 10
2246.3772455576618
 20
1176.5355639282291
  0
POINT
  8
_0-1_Defpoints
 62
    7
 10
2376.3772455576609
 20
1176.5355639282291
  0
POINT
  8
_0-1_Defpoints
 62
    7
 10
2376.3772455576609
 20
1176.5355639282291
  0
ENDBLK
  0
BLOCK
  2
-005-_D6
 70
   64
 10
0
 20
0
 30
0
  0
LINE
  8
_0-2_寸法
  6
CONTINUOUS
 62
    4
 10
2377.3772455576618
 20
1176.5355639282291
 11
2506.3772455576618
 21
1176.5355639282291
  0
INSERT
  2
-000-_Dot
  8
_0-2_寸法
 10
2376.3772455576609
 20
1176.5355639282291
 41
1
 42
1
 50
180
  0
TEXT
  8
_0-2_寸法
 62
    7
 10
2433.8772455576618
 20
1179.5355639282291
 40
8
 41
1
 50
0
  1
@900
  0
POINT
  8
_0-1_Defpoints
 62
    7
 10
2376.3772455576609
 20
1176.5355639282291
  0
POINT
  8
_0-1_Defpoints
 62
    7
 10
2506.3772455576618
 20
1176.5355639282291
  0
POINT
  8
_0-1_Defpoints
 62
    7
 10
2506.3772455576618
 20
1176.5355639282291
  0
ENDBLK
  0
BLOCK
  2
-006-_D7
 70
   64
 10
0
 20
0
 30
0
  0
LINE
  8
_0-2_寸法
  6
CONTINUOUS
 62
    4
 10
2385.3523007291528
 20
1416.8768734000571
 11
2385.3523007291528
 21
1447.7392007703691
  0
LINE
  8
_0-2_寸法
  6
CONTINUOUS
 62
    4
 10
2545.3523007291528
 20
1416.8768734000571
 11
2545.3523007291528
 21
1447.7392007703691
  0
LINE
  8
_0-2_寸法
  6
CONTINUOUS
 62
    4
 10
2386.3523007291528
 20
1447.7392007703691
 11
2544.3523007291528
 21
1447.7392007703691
  0
INSERT
  2
-000-_Dot
  8
_0-2_寸法
 10
2385.3523007291528
 20
1447.7392007703691
 41
1
 42
1
 50
180
  0
INSERT
  2
-000-_Dot
  8
_0-2_寸法
 10
2545.3523007291528
 20
1447.7392007703691
 41
1
 42
1
 50
0
  0
TEXT
  8
_0-2_寸法
 62
    7
 10
2459.3523007291528
 20
1450.7392007703691
 40
8
 41
1
 50
0
  1
160
  0
POINT
  8
_0-1_Defpoints
 62
    7
 10
2385.3523007291528
 20
1416.8768734000571
  0
POINT
  8
_0-1_Defpoints
 62
    7
 10
2545.3523007291528
 20
1416.8768734000571
  0
POINT
  8
_0-1_Defpoints
 62
    7
 10
2545.3523007291528
 20
1447.7392007703691
  0
ENDBLK
  0
BLOCK
  2
-007-_D8
 70
   64
 10
0
 20
0
 30
0
  0
LINE
  8
_0-2_寸法
  6
CONTINUOUS
 62
    4
 10
2379.3523007291528
 20
1416.8768734000571
 11
2379.3523007291528
 21
1447.7392007703691
  0
LINE
  8
_0-2_寸法
  6
CONTINUOUS
 62
    4
 10
2385.3523007291528
 20
1416.8768734000571
 11
2385.3523007291528
 21
1447.7392007703691
  0
LINE
  8
_0-2_寸法
  6
CONTINUOUS
 62
    4
 10
2378.3523007291528
 20
1447.7392007703691
 11
2377.3523007291528
 21
1447.7392007703691
  0
LINE
  8
_0-2_寸法
  6
CONTINUOUS
 62
    4
 10
2386.3523007291528
 20
1447.7392007703691
 11
2387.3523007291528
 21
1447.7392007703691
  0
LINE
  8
_0-2_寸法
  6
CONTINUOUS
 62
    4
 10
2379.3523007291528
 20
1447.7392007703691
 11
2385.3523007291528
 21
1447.7392007703691
  0
INSERT
  2
-000-_Dot
  8
_0-2_寸法
 10
2379.3523007291528
 20
1447.7392007703691
 41
1
 42
1
 50
0
  0
INSERT
  2
-000-_Dot
  8
_0-2_寸法
 10
2385.3523007291528
 20
1447.7392007703691
 41
1
 42
1
 50
180
  0
TEXT
  8
_0-2_寸法
 62
    7
 10
2380.3523007291528
 20
1450.7392007703691
 40
8
 41
1
 50
0
  1
6
  0
POINT
  8
_0-1_Defpoints
 62
    7
 10
2379.3523007291528
 20
1416.8768734000571
  0
POINT
  8
_0-1_Defpoints
 62
    7
 10
2385.3523007291528
 20
1416.8768734000571
  0
POINT
  8
_0-1_Defpoints
 62
    7
 10
2385.3523007291528
 20
1447.7392007703691
  0
ENDBLK
  0
BLOCK
  2
-008-_D9
 70
   64
 10
0
 20
0
 30
0
  0
LINE
  8
_0-2_寸法
  6
CONTINUOUS
 62
    4
 10
2213.3523007291528
 20
1416.8768734000571
 11
2213.3523007291528
 21
1447.7392007703691
  0
LINE
  8
_0-2_寸法
  6
CONTINUOUS
 62
    4
 10
2219.3523007291528
 20
1416.8768734000571
 11
2219.3523007291528
 21
1447.7392007703691
  0
LINE
  8
_0-2_寸法
  6
CONTINUOUS
 62
    4
 10
2212.3523007291528
 20
1447.7392007703691
 11
2211.3523007291528
 21
1447.7392007703691
  0
LINE
  8
_0-2_寸法
  6
CONTINUOUS
 62
    4
 10
2220.3523007291528
 20
1447.7392007703691
 11
2221.3523007291528
 21
1447.7392007703691
  0
LINE
  8
_0-2_寸法
  6
CONTINUOUS
 62
    4
 10
2213.3523007291528
 20
1447.7392007703691
 11
2219.3523007291528
 21
1447.7392007703691
  0
INSERT
  2
-000-_Dot
  8
_0-2_寸法
 10
2213.3523007291528
 20
1447.7392007703691
 41
1
 42
1
 50
0
  0
INSERT
  2
-000-_Dot
  8
_0-2_寸法
 10
2219.3523007291528
 20
1447.7392007703691
 41
1
 42
1
 50
180
  0
TEXT
  8
_0-2_寸法
 62
    7
 10
2214.3523007291528
 20
1450.7392007703691
 40
8
 41
1
 50
0
  1
6
  0
POINT
  8
_0-1_Defpoints
 62
    7
 10
2213.3523007291528
 20
1416.8768734000571
  0
POINT
  8
_0-1_Defpoints
 62
    7
 10
2219.3523007291528
 20
1416.8768734000571
  0
POINT
  8
_0-1_Defpoints
 62
    7
 10
2219.3523007291528
 20
1447.7392007703691
  0
ENDBLK
  0
BLOCK
  2
-009-_D10
 70
   64
 10
0
 20
0
 30
0
  0
LINE
  8
_0-2_寸法
  6
CONTINUOUS
 62
    4
 10
2219.3523007291528
 20
1416.8768734000571
 11
2219.3523007291528
 21
1447.7392007703691
  0
LINE
  8
_0-2_寸法
  6
CONTINUOUS
 62
    4
 10
2379.3523007291528
 20
1416.8768734000571
 11
2379.3523007291528
 21
1447.7392007703691
  0
LINE
  8
_0-2_寸法
  6
CONTINUOUS
 62
    4
 10
2220.3523007291528
 20
1447.7392007703691
 11
2378.3523007291528
 21
1447.7392007703691
  0
INSERT
  2
-000-_Dot
  8
_0-2_寸法
 10
2219.3523007291528
 20
1447.7392007703691
 41
1
 42
1
 50
180
  0
INSERT
  2
-000-_Dot
  8
_0-2_寸法
 10
2379.3523007291528
 20
1447.7392007703691
 41
1
 42
1
 50
0
  0
TEXT
  8
_0-2_寸法
 62
    7
 10
2293.3523007291528
 20
1450.7392007703691
 40
8
 41
1
 50
0
  1
160
  0
POINT
  8
_0-1_Defpoints
 62
    7
 10
2219.3523007291528
 20
1416.8768734000571
  0
POINT
  8
_0-1_Defpoints
 62
    7
 10
2379.3523007291528
 20
1416.8768734000571
  0
POINT
  8
_0-1_Defpoints
 62
    7
 10
2379.3523007291528
 20
1447.7392007703691
  0
ENDBLK
  0
BLOCK
  2
-010-_D11
 70
   64
 10
0
 20
0
 30
0
  0
LINE
  8
_0-2_寸法
  6
CONTINUOUS
 62
    4
 10
2545.3523007291528
 20
1416.8768734000571
 11
2545.3523007291528
 21
1447.7392007703691
  0
LINE
  8
_0-2_寸法
  6
CONTINUOUS
 62
    4
 10
2551.3523007291528
 20
1416.8768734000571
 11
2551.3523007291528
 21
1447.7392007703691
  0
LINE
  8
_0-2_寸法
  6
CONTINUOUS
 62
    4
 10
2544.3523007291528
 20
1447.7392007703691
 11
2543.3523007291528
 21
1447.7392007703691
  0
LINE
  8
_0-2_寸法
  6
CONTINUOUS
 62
    4
 10
2552.3523007291528
 20
1447.7392007703691
 11
2553.3523007291528
 21
1447.7392007703691
  0
LINE
  8
_0-2_寸法
  6
CONTINUOUS
 62
    4
 10
2545.3523007291528
 20
1447.7392007703691
 11
2551.3523007291528
 21
1447.7392007703691
  0
INSERT
  2
-000-_Dot
  8
_0-2_寸法
 10
2545.3523007291528
 20
1447.7392007703691
 41
1
 42
1
 50
0
  0
INSERT
  2
-000-_Dot
  8
_0-2_寸法
 10
2551.3523007291528
 20
1447.7392007703691
 41
1
 42
1
 50
180
  0
TEXT
  8
_0-2_寸法
 62
    7
 10
2546.3523007291528
 20
1450.7392007703691
 40
8
 41
1
 50
0
  1
6
  0
POINT
  8
_0-1_Defpoints
 62
    7
 10
2545.3523007291528
 20
1416.8768734000571
  0
POINT
  8
_0-1_Defpoints
 62
    7
 10
2551.3523007291528
 20
1416.8768734000571
  0
POINT
  8
_0-1_Defpoints
 62
    7
 10
2551.3523007291528
 20
1447.7392007703691
  0
ENDBLK
  0
BLOCK
  2
-011-_D12
 70
   64
 10
0
 20
0
 30
0
  0
LINE
  8
_0-2_寸法
  6
CONTINUOUS
 62
    4
 10
2593.927232588831
 20
1337.378394006904
 11
2618.7025625888309
 21
1337.378394006904
  0
LINE
  8
_0-2_寸法
  6
CONTINUOUS
 62
    4
 10
2593.927232588831
 20
1377.378394006904
 11
2618.7025625888309
 21
1377.378394006904
  0
LINE
  8
_0-2_寸法
  6
CONTINUOUS
 62
    4
 10
2618.7025625888309
 20
1338.378394006904
 11
2618.7025625888309
 21
1376.378394006904
  0
INSERT
  2
-000-_Dot
  8
_0-2_寸法
 10
2618.7025625888309
 20
1337.378394006904
 41
1
 42
1
 50
270
  0
INSERT
  2
-000-_Dot
  8
_0-2_寸法
 10
2618.7025625888309
 20
1377.378394006904
 41
1
 42
1
 50
90
  0
TEXT
  8
_0-2_寸法
 62
    7
 10
2615.70256258883
 20
1353.378394006905
 40
8
 41
1
 50
90
  1
40
  0
POINT
  8
_0-1_Defpoints
 62
    7
 10
2593.927232588831
 20
1337.378394006904
  0
POINT
  8
_0-1_Defpoints
 62
    7
 10
2593.927232588831
 20
1377.378394006904
  0
POINT
  8
_0-1_Defpoints
 62
    7
 10
2618.7025625888309
 20
1377.378394006904
  0
ENDBLK
  0
BLOCK
  2
-012-_D13
 70
   64
 10
0
 20
0
 30
0
  0
LINE
  8
_0-2_寸法
  6
CONTINUOUS
 62
    4
 10
2593.927232588831
 20
1377.378394006904
 11
2618.7025625888309
 21
1377.378394006904
  0
LINE
  8
_0-2_寸法
  6
CONTINUOUS
 62
    4
 10
2593.927232588831
 20
1405.37839400691
 11
2618.7025625888309
 21
1405.37839400691
  0
LINE
  8
_0-2_寸法
  6
CONTINUOUS
 62
    4
 10
2618.7025625888309
 20
1378.378394006904
 11
2618.7025625888309
 21
1404.3783940069111
  0
INSERT
  2
-000-_Dot
  8
_0-2_寸法
 10
2618.7025625888309
 20
1377.378394006904
 41
1
 42
1
 50
270
  0
INSERT
  2
-000-_Dot
  8
_0-2_寸法
 10
2618.7025625888309
 20
1405.37839400691
 41
1
 42
1
 50
90
  0
TEXT
  8
_0-2_寸法
 62
    7
 10
2615.70256258883
 20
1387.3783940069079
 40
8
 41
1
 50
90
  1
28
  0
POINT
  8
_0-1_Defpoints
 62
    7
 10
2593.927232588831
 20
1377.378394006904
  0
POINT
  8
_0-1_Defpoints
 62
    7
 10
2593.927232588831
 20
1405.37839400691
  0
POINT
  8
_0-1_Defpoints
 62
    7
 10
2618.7025625888309
 20
1405.37839400691
  0
ENDBLK
  0
BLOCK
  2
-013-_D14
 70
   64
 10
0
 20
0
 30
0
  0
LINE
  8
_0-2_寸法
  6
CONTINUOUS
 62
    4
 10
2552.3523007291528
 20
1447.7392007703691
 11
2591.9309292247531
 21
1447.7392007703691
  0
INSERT
  2
-000-_Dot
  8
_0-2_寸法
 10
2551.3523007291528
 20
1447.7392007703691
 41
1
 42
1
 50
180
  0
TEXT
  8
_0-2_寸法
 62
    7
 10
2566.141614976953
 20
1450.7392007703691
 40
8
 41
1
 50
0
  1
160
  0
POINT
  8
_0-1_Defpoints
 62
    7
 10
2551.3523007291528
 20
1447.7392007703691
  0
POINT
  8
_0-1_Defpoints
 62
    7
 10
2591.9309292247531
 20
1447.7392007703691
  0
POINT
  8
_0-1_Defpoints
 62
    7
 10
2591.9309292247531
 20
1447.7392007703691
  0
ENDBLK
  0
BLOCK
  2
-014-_D15
 70
   64
 10
0
 20
0
 30
0
  0
LINE
  8
_0-2_寸法
  6
CONTINUOUS
 62
    4
 10
2173.0757913767388
 20
1447.7392007703691
 11
2212.3523007291528
 21
1447.7392007703691
  0
INSERT
  2
-000-_Dot
  8
_0-2_寸法
 10
2213.3523007291528
 20
1447.7392007703691
 41
1
 42
1
 50
0
  0
TEXT
  8
_0-2_寸法
 62
    7
 10
2186.7140460529449
 20
1450.7392007703691
 40
8
 41
1
 50
0
  1
160
  0
POINT
  8
_0-1_Defpoints
 62
    7
 10
2173.0757913767388
 20
1447.7392007703691
  0
POINT
  8
_0-1_Defpoints
 62
    7
 10
2213.3523007291528
 20
1447.7392007703691
  0
POINT
  8
_0-1_Defpoints
 62
    7
 10
2213.3523007291528
 20
1447.7392007703691
  0
ENDBLK
  0
BLOCK
  2
-015-_D16
 70
   64
 10
0
 20
0
 30
0
  0
LINE
  8
_0-2_寸法
  6
CONTINUOUS
 62
    4
 10
3035.0015904175648
 20
1377.376873400063
 11
3059.7769204175652
 21
1377.376873400063
  0
LINE
  8
_0-2_寸法
  6
CONTINUOUS
 62
    4
 10
3035.0015904175648
 20
1405.376873400063
 11
3059.7769204175652
 21
1405.376873400063
  0
LINE
  8
_0-2_寸法
  6
CONTINUOUS
 62
    4
 10
3059.7769204175652
 20
1378.376873400063
 11
3059.7769204175652
 21
1404.376873400063
  0
INSERT
  2
-000-_Dot
  8
_0-2_寸法
 10
3059.7769204175652
 20
1377.376873400063
 41
1
 42
1
 50
270
  0
INSERT
  2
-000-_Dot
  8
_0-2_寸法
 10
3059.7769204175652
 20
1405.376873400063
 41
1
 42
1
 50
90
  0
TEXT
  8
_0-2_寸法
 62
    7
 10
3056.7769204175638
 20
1387.376873400063
 40
8
 41
1
 50
90
  1
28
  0
POINT
  8
_0-1_Defpoints
 62
    7
 10
3035.0015904175648
 20
1377.376873400063
  0
POINT
  8
_0-1_Defpoints
 62
    7
 10
3035.0015904175648
 20
1405.376873400063
  0
POINT
  8
_0-1_Defpoints
 62
    7
 10
3059.7769204175652
 20
1405.376873400063
  0
ENDBLK
  0
BLOCK
  2
-016-_D17
 70
   64
 10
0
 20
0
 30
0
  0
LINE
  8
_0-2_寸法
  6
CONTINUOUS
 62
    4
 10
2919.6756515703132
 20
1337.376873400063
 11
3059.7769204175652
 21
1337.376873400063
  0
LINE
  8
_0-2_寸法
  6
CONTINUOUS
 62
    4
 10
3035.0015904175648
 20
1377.376873400063
 11
3059.7769204175652
 21
1377.376873400063
  0
LINE
  8
_0-2_寸法
  6
CONTINUOUS
 62
    4
 10
3059.7769204175652
 20
1338.376873400063
 11
3059.7769204175652
 21
1376.376873400063
  0
INSERT
  2
-000-_Dot
  8
_0-2_寸法
 10
3059.7769204175652
 20
1337.376873400063
 41
1
 42
1
 50
270
  0
INSERT
  2
-000-_Dot
  8
_0-2_寸法
 10
3059.7769204175652
 20
1377.376873400063
 41
1
 42
1
 50
90
  0
TEXT
  8
_0-2_寸法
 62
    7
 10
3056.7769204175638
 20
1353.376873400063
 40
8
 41
1
 50
90
  1
40
  0
POINT
  8
_0-1_Defpoints
 62
    7
 10
2919.6756515703132
 20
1337.376873400063
  0
POINT
  8
_0-1_Defpoints
 62
    7
 10
3035.0015904175648
 20
1377.376873400063
  0
POINT
  8
_0-1_Defpoints
 62
    7
 10
3059.7769204175652
 20
1377.376873400063
  0
ENDBLK
  0
BLOCK
  2
-017-_D18
 70
   64
 10
0
 20
0
 30
0
  0
LINE
  8
_0-2_寸法
  6
CONTINUOUS
 62
    4
 10
2593.927232588831
 20
1243.878394006904
 11
2649.4388548594011
 21
1243.878394006904
  0
LINE
  8
_0-2_寸法
  6
CONTINUOUS
 62
    4
 10
2593.927232588831
 20
1405.37839400691
 11
2649.4388548594011
 21
1405.37839400691
  0
LINE
  8
_0-2_寸法
  6
CONTINUOUS
 62
    4
 10
2649.4388548594011
 20
1244.878394006904
 11
2649.4388548594011
 21
1404.3783940069111
  0
INSERT
  2
-000-_Dot
  8
_0-2_寸法
 10
2649.4388548594011
 20
1243.878394006904
 41
1
 42
1
 50
270
  0
INSERT
  2
-000-_Dot
  8
_0-2_寸法
 10
2649.4388548594011
 20
1405.37839400691
 41
1
 42
1
 50
90
  0
TEXT
  8
_0-2_寸法
 62
    7
 10
2646.4388548594011
 20
1311.6639256029291
 40
8
 41
1
 50
90
  1
92~300
  0
POINT
  8
_0-1_Defpoints
 62
    7
 10
2593.927232588831
 20
1243.878394006904
  0
POINT
  8
_0-1_Defpoints
 62
    7
 10
2593.927232588831
 20
1405.37839400691
  0
POINT
  8
_0-1_Defpoints
 62
    7
 10
2649.4388548594011
 20
1405.37839400691
  0
ENDBLK
  0
ENDSEC
  0
SECTION
  2
ENTITIES
  0
ARC
  8
_0-3_躯体と製品
  6
CONTINUOUS
 62
    7
 10
1082.2152447067442
 20
592.61550919985621
 40
18.553000000001454
 50
251.13144099976972
 51
269.61088699992456
  0
ARC
  8
_0-3_躯体と製品
  6
CONTINUOUS
 62
    7
 10
1035.465244706741
 20
585.31250919985894
 40
3.249999999995798
 50
90.000002999934651
 51
180.00000000007415
  0
LINE
  8
_0-3_躯体と製品
  6
CONTINUOUS
 62
    7
 10
1032.2152447067451
 20
585.31250919985473
 11
1032.2152447067451
 21
577.56250919985473
  0
LINE
  8
_0-3_躯体と製品
  6
CONTINUOUS
 62
    7
 10
1032.2152447067451
 20
577.56250919985473
 11
1132.2152447067451
 21
577.56250919985473
  0
LINE
  8
_0-3_躯体と製品
  6
CONTINUOUS
 62
    7
 10
1132.2152447067451
 20
577.56250919985473
 11
1132.2152447067451
 21
585.31250919985473
  0
ARC
  8
_0-3_躯体と製品
  6
CONTINUOUS
 62
    7
 10
1128.9652447067451
 20
585.31250919985473
 40
3.2500000000000044
 50
0.0000000000000816
 51
89.999999999999929
  0
LINE
  8
_0-3_躯体と製品
  6
CONTINUOUS
 62
    7
 10
1128.9652447067451
 20
588.56250919985473
 11
1082.2152447067451
 21
588.56250919985473
  0
LINE
  8
_0-3_躯体と製品
  6
CONTINUOUS
 62
    7
 10
1082.2152447067451
 20
588.56250919985473
 11
1035.4652447067451
 21
588.56250919985473
  0
ARC
  8
_0-3_躯体と製品
  6
CONTINUOUS
 62
    7
 10
1073.2172447067535
 20
579.06650919984781
 40
5.0039999999997375
 50
233.13925800012962
 51
306.80349100000603
  0
LINE
  8
_0-3_躯体と製品
  6
CONTINUOUS
 62
    7
 10
1076.2152447067451
 20
575.05950919985071
 11
1076.2152447067451
 21
577.56250919985473
  0
LINE
  8
_0-3_躯体と製品
  6
CONTINUOUS
 62
    7
 10
1070.2152447067451
 20
575.06250919985473
 11
1070.2152447067451
 21
577.56250919985473
  0
LINE
  8
_0-6_中心線
  6
CENTER1
 62
    7
 10
1082.215244706746
 20
424.39410499071073
 11
1082.2152447067451
 21
641.82461493393453
  0
ARC
  8
_0-3_躯体と製品
  6
CONTINUOUS
 62
    7
 10
1091.2132447067372
 20
579.06650919984907
 40
5.0040000000010858
 50
233.19650300002598
 51
306.86073700002112
  0
LINE
  8
_0-3_躯体と製品
  6
CONTINUOUS
 62
    7
 10
1091.213244706737
 20
574.06250919985473
 11
1082.2152447067451
 21
574.06250919985473
  0
LINE
  8
_0-3_躯体と製品
  6
CONTINUOUS
 62
    7
 10
1082.2152447067451
 20
574.06250919985473
 11
1073.2172447067533
 21
574.06250919985473
  0
ARC
  8
_0-3_躯体と製品
  6
CONTINUOUS
 62
    7
 10
1082.2152447067469
 20
592.6155091998545
 40
18.552999999999635
 50
270.3891070001759
 51
288.86855299986064
  0
LINE
  8
_0-3_躯体と製品
  6
CONTINUOUS
 62
    7
 10
1088.2152447067451
 20
577.56250919985473
 11
1088.2152447067451
 21
575.05950919985071
  0
LINE
  8
_0-3_躯体と製品
  6
CONTINUOUS
 62
    7
 10
1094.2152447067451
 20
575.06250919985473
 11
1094.2152447067451
 21
577.56250919985473
  0
LINE
  8
_0-3_躯体と製品
  6
CONTINUOUS
 62
    7
 10
1077.7152447067383
 20
574.06250919985473
 11
1077.7152447067383
 21
518.66250919985464
  0
LINE
  8
_0-3_躯体と製品
  6
CONTINUOUS
 62
    7
 10
1076.2152447067383
 20
574.06250919985473
 11
1076.2152447067383
 21
518.66250919985464
  0
LINE
  8
_0-3_躯体と製品
  6
CONTINUOUS
 62
    7
 10
1086.7152447067383
 20
574.06250919985473
 11
1086.7152447067383
 21
518.66250919985464
  0
LINE
  8
_0-3_躯体と製品
  6
CONTINUOUS
 62
    7
 10
1088.2152447067369
 20
574.06250919985473
 11
1088.2152447067383
 21
518.66250919985464
  0
LINE
  8
_0-6_中心線
  6
CENTER1
 62
    7
 10
1054.4652447067742
 20
576.16250919985259
 11
1054.4652447067742
 21
599.08625919985366
  0
LINE
  8
_0-6_中心線
  6
CENTER1
 62
    7
 10
1109.965244706716
 20
576.16250919985259
 11
1109.965244706716
 21
599.08625919985366
  0
TEXT
  8
_0-4_文字-記号
 62
    7
 10
1049.1835628627091
 20
393.33267472802254
 40
10
 41
0.8
 50
0
  1
（根太ピッチ）
  0
INSERT
  2
-001-_D2
  8
_0-2_寸法
 10
-1795.4604068635908
 20
-746.81436420020236
 41
1
 42
1
 50
0
  0
INSERT
  2
-002-_D3
  8
_0-2_寸法
 10
-1795.4604068635908
 20
-746.81436420020236
 41
1
 42
1
 50
0
  0
INSERT
  2
-003-_D4
  8
_0-2_寸法
 10
-1795.4604068635908
 20
-746.81436420020236
 41
1
 42
1
 50
0
  0
TEXT
  8
_0-4_文字-記号
 62
    7
 10
379.82884687226215
 20
788.50264412037359
 40
12
 41
1
 50
0
  1
露出防水仕様
  0
LINE
  8
_0-3_躯体と製品
  6
CONTINUOUS
 62
    7
 10
586.91683869407007
 20
518.55573406222675
 11
586.91683869407007
 21
573.66928429762356
  0
LINE
  8
_0-3_躯体と製品
  6
CONTINUOUS
 62
    7
 10
585.41683869407007
 20
518.66250915999171
 11
585.41683869407007
 21
573.56250937172672
  0
LINE
  8
_0-3_躯体と製品
  6
CONTINUOUS
 62
    7
 10
576.41683869407007
 20
518.66250915999171
 11
576.41683869407007
 21
573.56250937172672
  0
LINE
  8
_0-3_躯体と製品
  6
CONTINUOUS
 62
    7
 10
574.91683869407098
 20
518.55573406222561
 11
574.91683869407007
 21
573.66928429762356
  0
LINE
  8
_0-6_中心線
  6
CENTER1
 62
    7
 10
580.91683869407007
 20
424.39410499071369
 11
580.91683869407007
 21
603.6024411894457
  0
ARC
  8
_0-3_躯体と製品
  6
CONTINUOUS
 62
    7
 10
534.16683869406586
 20
585.3125091998628
 40
3.249999999995798
 50
90.000002999934651
 51
180.00000000007415
  0
LINE
  8
_0-3_躯体と製品
  6
CONTINUOUS
 62
    7
 10
530.91683869407007
 20
585.3125091998586
 11
530.91683869407007
 21
577.56250919985769
  0
LINE
  8
_0-3_躯体と製品
  6
CONTINUOUS
 62
    7
 10
530.91683869407007
 20
577.56250919985769
 11
630.91683869407007
 21
577.56250919985769
  0
LINE
  8
_0-3_躯体と製品
  6
CONTINUOUS
 62
    7
 10
630.91683869407007
 20
577.56250919985769
 11
630.91683869407007
 21
585.3125091998586
  0
ARC
  8
_0-3_躯体と製品
  6
CONTINUOUS
 62
    7
 10
627.66683869407007
 20
585.3125091998586
 40
3.2500000000000044
 50
0.0000000000000816
 51
89.999999999999929
  0
LINE
  8
_0-3_躯体と製品
  6
CONTINUOUS
 62
    7
 10
627.66683869407007
 20
588.5625091998586
 11
580.91683869407007
 21
588.5625091998586
  0
LINE
  8
_0-3_躯体と製品
  6
CONTINUOUS
 62
    7
 10
580.91683869407007
 20
588.5625091998586
 11
534.16683869407007
 21
588.5625091998586
  0
LINE
  8
_0-4_文字-記号
  6
CONTINUOUS
 62
    7
 10
713.02321287909626
 20
590.56250919985769
 11
724.18916487909701
 21
571.22251319985753
  0
LINE
  8
_0-4_文字-記号
  6
CONTINUOUS
 62
    7
 10
724.18916487909701
 20
571.22251319985753
 11
750.39334187909617
 21
571.22251319985753
  0
TEXT
  8
_0-4_文字-記号
 62
    7
 10
726.46295887909628
 20
573.61194819985758
 40
8
 41
0.8
 50
0
  1
根太鋼
  0
LINE
  8
_0-4_文字-記号
  6
CONTINUOUS
 62
    7
 10
574.91683869407007
 20
539.6926010148336
 11
553.04482401721634
 21
555.08736101483373
  0
LINE
  8
_0-4_文字-記号
  6
CONTINUOUS
 62
    7
 10
553.04482401721634
 20
555.08736101483373
 11
521.66510887696904
 21
555.08736101483373
  0
TEXT
  8
_0-4_文字-記号
 62
    7
 10
523.19898578119228
 20
557.64143101483364
 40
8
 41
0.8
 50
0
  1
支持脚
  0
LINE
  8
_0-4_文字-記号
  6
CONTINUOUS
 62
    7
 10
616.57327032155717
 20
577.56250919985769
 11
627.73922232155837
 21
558.22251319985753
  0
LINE
  8
_0-4_文字-記号
  6
CONTINUOUS
 62
    7
 10
627.73922232155837
 20
558.22251319985753
 11
668.96872332155817
 21
558.22251319985753
  0
TEXT
  8
_0-4_文字-記号
 62
    7
 10
630.01301632155719
 20
560.61194819985872
 40
8
 41
0.8
 50
0
  1
受け金具
  0
TEXT
  8
_0-4_文字-記号
 62
    7
 10
543.58349036073605
 20
393.33267472802663
 40
10
 41
0.8
 50
0
  1
（支持脚ピッチ）
  0
INSERT
  2
-004-_D5
  8
_0-2_寸法
 10
-1795.4604068635908
 20
-746.81436420020236
 41
1
 42
1
 50
0
  0
INSERT
  2
-005-_D6
  8
_0-2_寸法
 10
-1795.4604068635908
 20
-746.81436420020236
 41
1
 42
1
 50
0
  0
LINE
  8
_0-3_躯体と製品
  6
CONTINUOUS
 62
    7
 10
783.891893865562
 20
487.06250919985473
 11
377.9417835225463
 21
487.06250919985473
  0
LINE
  8
_0-3_躯体と製品
  6
CONTINUOUS
 62
    7
 10
783.891893865562
 20
491.06250919985473
 11
377.9417835225463
 21
491.06250919985564
  0
LINE
  8
_0-3_躯体と製品
  6
CONTINUOUS
 62
    7
 10
680.91683869407098
 20
497.06250919985473
 11
480.91683869407007
 21
497.06250919985473
  0
LINE
  8
_0-3_躯体と製品
  6
CONTINUOUS
 62
    7
 10
481.38231369407094
 20
467.06250919985473
 11
501.38231369407094
 21
487.06250919985473
  0
LINE
  8
_0-3_躯体と製品
  6
CONTINUOUS
 62
    7
 10
475.72546369407019
 20
467.06250919985473
 11
495.72546369407019
 21
487.06250919985473
  0
LINE
  8
_0-3_躯体と製品
  6
CONTINUOUS
 62
    7
 10
470.06860869407137
 20
467.06250919985473
 11
490.06860869407137
 21
487.06250919985473
  0
LINE
  8
_0-3_躯体と製品
  6
CONTINUOUS
 62
    7
 10
649.47273869407036
 20
467.06250919985473
 11
669.47273869407036
 21
487.06250919985473
  0
LINE
  8
_0-3_躯体と製品
  6
CONTINUOUS
 62
    7
 10
643.81588369407018
 20
467.06250919985473
 11
663.81588369407109
 21
487.06250919985473
  0
LINE
  8
_0-3_躯体と製品
  6
CONTINUOUS
 62
    7
 10
655.12959369407008
 20
467.06250919985473
 11
675.12959369407008
 21
487.06250919985473
  0
LINE
  8
_0-3_躯体と製品
  6
CONTINUOUS
 62
    7
 10
1234.541183553974
 20
491.06250919985564
 11
905.65607233027913
 21
491.06250919985564
  0
LINE
  8
_0-3_躯体と製品
  6
CONTINUOUS
 62
    7
 10
1234.541183553974
 20
487.06250919985473
 11
905.65607233027913
 21
487.06250919985473
  0
LINE
  8
_0-3_躯体と製品
  6
CONTINUOUS
 62
    7
 10
995.21526970674495
 20
487.06250919985473
 11
995.21526970674495
 21
491.06250919985564
  0
LINE
  8
_0-3_躯体と製品
  6
CONTINUOUS
 62
    7
 10
998.21526970674495
 20
487.06250919985473
 11
998.21526970674495
 21
491.06250919985564
  0
LINE
  8
_0-3_躯体と製品
  6
CONTINUOUS
 62
    7
 10
983.21526970674495
 20
487.06250919985473
 11
983.21526970674495
 21
491.06250919985564
  0
LINE
  8
_0-3_躯体と製品
  6
CONTINUOUS
 62
    7
 10
986.21526970674495
 20
487.06250919985473
 11
986.21526970674495
 21
491.06250919985564
  0
LINE
  8
_0-3_躯体と製品
  6
CONTINUOUS
 62
    7
 10
989.21526970674631
 20
487.06250919985473
 11
989.21526970674631
 21
491.06250919985564
  0
LINE
  8
_0-3_躯体と製品
  6
CONTINUOUS
 62
    7
 10
992.21526970674495
 20
487.06250919985473
 11
992.21526970674495
 21
491.06250919985564
  0
LINE
  8
_0-3_躯体と製品
  6
CONTINUOUS
 62
    7
 10
1034.2152697067463
 20
487.06250919985473
 11
1034.2152697067463
 21
491.06250919985564
  0
LINE
  8
_0-3_躯体と製品
  6
CONTINUOUS
 62
    7
 10
1037.2152697067449
 20
487.06250919985473
 11
1037.2152697067449
 21
491.06250919985564
  0
LINE
  8
_0-3_躯体と製品
  6
CONTINUOUS
 62
    7
 10
1040.2152697067449
 20
487.06250919985473
 11
1040.2152697067449
 21
491.06250919985564
  0
LINE
  8
_0-3_躯体と製品
  6
CONTINUOUS
 62
    7
 10
1043.2152697067449
 20
487.06250919985473
 11
1043.2152697067449
 21
491.06250919985564
  0
LINE
  8
_0-3_躯体と製品
  6
CONTINUOUS
 62
    7
 10
1025.2152697067449
 20
487.06250919985473
 11
1025.2152697067449
 21
491.06250919985564
  0
LINE
  8
_0-3_躯体と製品
  6
CONTINUOUS
 62
    7
 10
1028.2152697067449
 20
487.06250919985473
 11
1028.2152697067449
 21
491.06250919985564
  0
LINE
  8
_0-3_躯体と製品
  6
CONTINUOUS
 62
    7
 10
1031.2152697067463
 20
487.06250919985473
 11
1031.2152697067463
 21
491.06250919985564
  0
LINE
  8
_0-3_躯体と製品
  6
CONTINUOUS
 62
    7
 10
1013.2152697067463
 20
487.06250919985473
 11
1013.2152697067463
 21
491.06250919985564
  0
LINE
  8
_0-3_躯体と製品
  6
CONTINUOUS
 62
    7
 10
1016.2152697067463
 20
487.06250919985473
 11
1016.2152697067463
 21
491.06250919985564
  0
LINE
  8
_0-3_躯体と製品
  6
CONTINUOUS
 62
    7
 10
1019.2152697067463
 20
487.06250919985473
 11
1019.2152697067463
 21
491.06250919985564
  0
LINE
  8
_0-3_躯体と製品
  6
CONTINUOUS
 62
    7
 10
1022.2152697067463
 20
487.06250919985473
 11
1022.2152697067463
 21
491.06250919985564
  0
LINE
  8
_0-3_躯体と製品
  6
CONTINUOUS
 62
    7
 10
1004.2152697067463
 20
487.06250919985473
 11
1004.2152697067463
 21
491.06250919985564
  0
LINE
  8
_0-3_躯体と製品
  6
CONTINUOUS
 62
    7
 10
1007.2152697067449
 20
487.06250919985473
 11
1007.2152697067449
 21
491.06250919985564
  0
LINE
  8
_0-3_躯体と製品
  6
CONTINUOUS
 62
    7
 10
1010.2152697067449
 20
487.06250919985473
 11
1010.2152697067449
 21
491.06250919985564
  0
LINE
  8
_0-3_躯体と製品
  6
CONTINUOUS
 62
    7
 10
1001.2152697067449
 20
487.06250919985473
 11
1001.2152697067449
 21
491.06250919985564
  0
LINE
  8
_0-3_躯体と製品
  6
CONTINUOUS
 62
    7
 10
1091.2152697067449
 20
487.06250919985473
 11
1091.2152697067449
 21
491.06250919985564
  0
LINE
  8
_0-3_躯体と製品
  6
CONTINUOUS
 62
    7
 10
1088.2152697067449
 20
487.06250919985473
 11
1088.2152697067449
 21
491.06250919985564
  0
LINE
  8
_0-3_躯体と製品
  6
CONTINUOUS
 62
    7
 10
1085.2152697067449
 20
487.06250919985473
 11
1085.2152697067449
 21
491.06250919985564
  0
LINE
  8
_0-3_躯体と製品
  6
CONTINUOUS
 62
    7
 10
1076.2152697067449
 20
487.06250919985473
 11
1076.2152697067449
 21
491.06250919985564
  0
LINE
  8
_0-3_躯体と製品
  6
CONTINUOUS
 62
    7
 10
1082.2152697067463
 20
487.06250919985473
 11
1082.2152697067463
 21
491.06250919985564
  0
LINE
  8
_0-3_躯体と製品
  6
CONTINUOUS
 62
    7
 10
1079.2152697067463
 20
487.06250919985473
 11
1079.2152697067463
 21
491.06250919985564
  0
LINE
  8
_0-3_躯体と製品
  6
CONTINUOUS
 62
    7
 10
1067.2152697067449
 20
487.06250919985473
 11
1067.2152697067449
 21
491.06250919985564
  0
LINE
  8
_0-3_躯体と製品
  6
CONTINUOUS
 62
    7
 10
1070.2152697067449
 20
487.06250919985473
 11
1070.2152697067449
 21
491.06250919985564
  0
LINE
  8
_0-3_躯体と製品
  6
CONTINUOUS
 62
    7
 10
1073.2152697067463
 20
487.06250919985473
 11
1073.2152697067463
 21
491.06250919985564
  0
LINE
  8
_0-3_躯体と製品
  6
CONTINUOUS
 62
    7
 10
1055.2152697067449
 20
487.06250919985473
 11
1055.2152697067449
 21
491.06250919985564
  0
LINE
  8
_0-3_躯体と製品
  6
CONTINUOUS
 62
    7
 10
1058.2152697067449
 20
487.06250919985473
 11
1058.2152697067449
 21
491.06250919985564
  0
LINE
  8
_0-3_躯体と製品
  6
CONTINUOUS
 62
    7
 10
1061.2152697067463
 20
487.06250919985473
 11
1061.2152697067463
 21
491.06250919985564
  0
LINE
  8
_0-3_躯体と製品
  6
CONTINUOUS
 62
    7
 10
1064.2152697067463
 20
487.06250919985473
 11
1064.2152697067463
 21
491.06250919985564
  0
LINE
  8
_0-3_躯体と製品
  6
CONTINUOUS
 62
    7
 10
1046.2152697067449
 20
487.06250919985473
 11
1046.2152697067449
 21
491.06250919985564
  0
LINE
  8
_0-3_躯体と製品
  6
CONTINUOUS
 62
    7
 10
1049.2152697067463
 20
487.06250919985473
 11
1049.2152697067463
 21
491.06250919985564
  0
LINE
  8
_0-3_躯体と製品
  6
CONTINUOUS
 62
    7
 10
1052.2152697067449
 20
487.06250919985473
 11
1052.2152697067449
 21
491.06250919985564
  0
LINE
  8
_0-3_躯体と製品
  6
CONTINUOUS
 62
    7
 10
1136.2152697067449
 20
487.06250919985473
 11
1136.2152697067449
 21
491.06250919985564
  0
LINE
  8
_0-3_躯体と製品
  6
CONTINUOUS
 62
    7
 10
1133.2152697067449
 20
487.06250919985473
 11
1133.2152697067449
 21
491.06250919985564
  0
LINE
  8
_0-3_躯体と製品
  6
CONTINUOUS
 62
    7
 10
1130.2152697067449
 20
487.06250919985473
 11
1130.2152697067449
 21
491.06250919985564
  0
LINE
  8
_0-3_躯体と製品
  6
CONTINUOUS
 62
    7
 10
1127.2152697067463
 20
487.06250919985473
 11
1127.2152697067463
 21
491.06250919985564
  0
LINE
  8
_0-3_躯体と製品
  6
CONTINUOUS
 62
    7
 10
1124.2152697067463
 20
487.06250919985473
 11
1124.2152697067463
 21
491.06250919985564
  0
LINE
  8
_0-3_躯体と製品
  6
CONTINUOUS
 62
    7
 10
1121.2152697067449
 20
487.06250919985473
 11
1121.2152697067449
 21
491.06250919985564
  0
LINE
  8
_0-3_躯体と製品
  6
CONTINUOUS
 62
    7
 10
1118.2152697067463
 20
487.06250919985473
 11
1118.2152697067463
 21
491.06250919985564
  0
LINE
  8
_0-3_躯体と製品
  6
CONTINUOUS
 62
    7
 10
1115.2152697067449
 20
487.06250919985473
 11
1115.2152697067449
 21
491.06250919985564
  0
LINE
  8
_0-3_躯体と製品
  6
CONTINUOUS
 62
    7
 10
1112.2152697067449
 20
487.06250919985473
 11
1112.2152697067449
 21
491.06250919985564
  0
LINE
  8
_0-3_躯体と製品
  6
CONTINUOUS
 62
    7
 10
1109.2152697067463
 20
487.06250919985473
 11
1109.2152697067463
 21
491.06250919985564
  0
LINE
  8
_0-3_躯体と製品
  6
CONTINUOUS
 62
    7
 10
1106.2152697067463
 20
487.06250919985473
 11
1106.2152697067463
 21
491.06250919985564
  0
LINE
  8
_0-3_躯体と製品
  6
CONTINUOUS
 62
    7
 10
1103.2152697067449
 20
487.06250919985473
 11
1103.2152697067449
 21
491.06250919985564
  0
LINE
  8
_0-3_躯体と製品
  6
CONTINUOUS
 62
    7
 10
1100.2152697067449
 20
487.06250919985473
 11
1100.2152697067449
 21
491.06250919985564
  0
LINE
  8
_0-3_躯体と製品
  6
CONTINUOUS
 62
    7
 10
1097.2152697067449
 20
487.06250919985473
 11
1097.2152697067449
 21
491.06250919985564
  0
LINE
  8
_0-3_躯体と製品
  6
CONTINUOUS
 62
    7
 10
1094.2152697067463
 20
487.06250919985473
 11
1094.2152697067463
 21
491.06250919985564
  0
LINE
  8
_0-3_躯体と製品
  6
CONTINUOUS
 62
    7
 10
1181.2152697067449
 20
487.06250919985473
 11
1181.2152697067449
 21
491.06250919985564
  0
LINE
  8
_0-3_躯体と製品
  6
CONTINUOUS
 62
    7
 10
1178.2152697067449
 20
487.06250919985473
 11
1178.2152697067449
 21
491.06250919985564
  0
LINE
  8
_0-3_躯体と製品
  6
CONTINUOUS
 62
    7
 10
1175.2152697067449
 20
487.06250919985473
 11
1175.2152697067449
 21
491.06250919985564
  0
LINE
  8
_0-3_躯体と製品
  6
CONTINUOUS
 62
    7
 10
1172.2152697067463
 20
487.06250919985473
 11
1172.2152697067463
 21
491.06250919985564
  0
LINE
  8
_0-3_躯体と製品
  6
CONTINUOUS
 62
    7
 10
1169.2152697067463
 20
487.06250919985473
 11
1169.2152697067463
 21
491.06250919985564
  0
LINE
  8
_0-3_躯体と製品
  6
CONTINUOUS
 62
    7
 10
1166.2152697067463
 20
487.06250919985473
 11
1166.2152697067463
 21
491.06250919985564
  0
LINE
  8
_0-3_躯体と製品
  6
CONTINUOUS
 62
    7
 10
1163.2152697067463
 20
487.06250919985473
 11
1163.2152697067463
 21
491.06250919985564
  0
LINE
  8
_0-3_躯体と製品
  6
CONTINUOUS
 62
    7
 10
1160.2152697067449
 20
487.06250919985473
 11
1160.2152697067449
 21
491.06250919985564
  0
LINE
  8
_0-3_躯体と製品
  6
CONTINUOUS
 62
    7
 10
1157.2152697067463
 20
487.06250919985473
 11
1157.2152697067463
 21
491.06250919985564
  0
LINE
  8
_0-3_躯体と製品
  6
CONTINUOUS
 62
    7
 10
1154.2152697067463
 20
487.06250919985473
 11
1154.2152697067463
 21
491.06250919985564
  0
LINE
  8
_0-3_躯体と製品
  6
CONTINUOUS
 62
    7
 10
1151.2152697067449
 20
487.06250919985473
 11
1151.2152697067449
 21
491.06250919985564
  0
LINE
  8
_0-3_躯体と製品
  6
CONTINUOUS
 62
    7
 10
1148.2152697067449
 20
487.06250919985473
 11
1148.2152697067449
 21
491.06250919985564
  0
LINE
  8
_0-3_躯体と製品
  6
CONTINUOUS
 62
    7
 10
1145.2152697067449
 20
487.06250919985473
 11
1145.2152697067449
 21
491.06250919985564
  0
LINE
  8
_0-3_躯体と製品
  6
CONTINUOUS
 62
    7
 10
1142.2152697067449
 20
487.06250919985473
 11
1142.2152697067449
 21
491.06250919985564
  0
LINE
  8
_0-3_躯体と製品
  6
CONTINUOUS
 62
    7
 10
1139.2152697067463
 20
487.06250919985473
 11
1139.2152697067463
 21
491.06250919985564
  0
LINE
  8
_0-3_躯体と製品
  6
CONTINUOUS
 62
    7
 10
1211.2152697067463
 20
487.06250919985473
 11
1211.2152697067463
 21
491.06250919985564
  0
LINE
  8
_0-3_躯体と製品
  6
CONTINUOUS
 62
    7
 10
1208.2152697067449
 20
487.06250919985473
 11
1208.2152697067449
 21
491.06250919985564
  0
LINE
  8
_0-3_躯体と製品
  6
CONTINUOUS
 62
    7
 10
1205.2152697067449
 20
487.06250919985473
 11
1205.2152697067449
 21
491.06250919985564
  0
LINE
  8
_0-3_躯体と製品
  6
CONTINUOUS
 62
    7
 10
1202.2152697067463
 20
487.06250919985473
 11
1202.2152697067463
 21
491.06250919985564
  0
LINE
  8
_0-3_躯体と製品
  6
CONTINUOUS
 62
    7
 10
1199.2152697067449
 20
487.06250919985473
 11
1199.2152697067449
 21
491.06250919985564
  0
LINE
  8
_0-3_躯体と製品
  6
CONTINUOUS
 62
    7
 10
1196.2152697067449
 20
487.06250919985473
 11
1196.2152697067449
 21
491.06250919985564
  0
LINE
  8
_0-3_躯体と製品
  6
CONTINUOUS
 62
    7
 10
1193.2152697067449
 20
487.06250919985473
 11
1193.2152697067449
 21
491.06250919985564
  0
LINE
  8
_0-3_躯体と製品
  6
CONTINUOUS
 62
    7
 10
1190.2152697067449
 20
487.06250919985473
 11
1190.2152697067449
 21
491.06250919985564
  0
LINE
  8
_0-3_躯体と製品
  6
CONTINUOUS
 62
    7
 10
1187.2152697067449
 20
487.06250919985473
 11
1187.2152697067449
 21
491.06250919985564
  0
LINE
  8
_0-3_躯体と製品
  6
CONTINUOUS
 62
    7
 10
1184.2152697067463
 20
487.06250919985473
 11
1184.2152697067463
 21
491.06250919985564
  0
LINE
  8
_0-3_躯体と製品
  6
CONTINUOUS
 62
    7
 10
1232.2152697067449
 20
487.06250919985473
 11
1232.2152697067449
 21
491.06250919985564
  0
LINE
  8
_0-3_躯体と製品
  6
CONTINUOUS
 62
    7
 10
1229.2152697067463
 20
487.06250919985473
 11
1229.2152697067463
 21
491.06250919985564
  0
LINE
  8
_0-3_躯体と製品
  6
CONTINUOUS
 62
    7
 10
1226.2152697067449
 20
487.06250919985473
 11
1226.2152697067449
 21
491.06250919985564
  0
LINE
  8
_0-3_躯体と製品
  6
CONTINUOUS
 62
    7
 10
1223.2152697067463
 20
487.06250919985473
 11
1223.2152697067463
 21
491.06250919985564
  0
LINE
  8
_0-3_躯体と製品
  6
CONTINUOUS
 62
    7
 10
1220.2152697067449
 20
487.06250919985473
 11
1220.2152697067449
 21
491.06250919985564
  0
LINE
  8
_0-3_躯体と製品
  6
CONTINUOUS
 62
    7
 10
1217.2152697067449
 20
487.06250919985473
 11
1217.2152697067449
 21
491.06250919985564
  0
LINE
  8
_0-3_躯体と製品
  6
CONTINUOUS
 62
    7
 10
1214.2152697067463
 20
487.06250919985473
 11
1214.2152697067463
 21
491.06250919985564
  0
LINE
  8
_0-3_躯体と製品
  6
CONTINUOUS
 62
    7
 10
956.21526970674495
 20
487.06250919985473
 11
956.21526970674495
 21
491.06250919985564
  0
LINE
  8
_0-3_躯体と製品
  6
CONTINUOUS
 62
    7
 10
959.21526970674495
 20
487.06250919985473
 11
959.21526970674495
 21
491.06250919985564
  0
LINE
  8
_0-3_躯体と製品
  6
CONTINUOUS
 62
    7
 10
944.21526970674495
 20
487.06250919985473
 11
944.21526970674495
 21
491.06250919985564
  0
LINE
  8
_0-3_躯体と製品
  6
CONTINUOUS
 62
    7
 10
947.21526970674495
 20
487.06250919985473
 11
947.21526970674495
 21
491.06250919985564
  0
LINE
  8
_0-3_躯体と製品
  6
CONTINUOUS
 62
    7
 10
950.21526970674631
 20
487.06250919985473
 11
950.21526970674631
 21
491.06250919985564
  0
LINE
  8
_0-3_躯体と製品
  6
CONTINUOUS
 62
    7
 10
953.21526970674495
 20
487.06250919985473
 11
953.21526970674495
 21
491.06250919985564
  0
LINE
  8
_0-3_躯体と製品
  6
CONTINUOUS
 62
    7
 10
974.21526970674495
 20
487.06250919985473
 11
974.21526970674495
 21
491.06250919985564
  0
LINE
  8
_0-3_躯体と製品
  6
CONTINUOUS
 62
    7
 10
977.21526970674631
 20
487.06250919985473
 11
977.21526970674631
 21
491.06250919985564
  0
LINE
  8
_0-3_躯体と製品
  6
CONTINUOUS
 62
    7
 10
980.21526970674631
 20
487.06250919985473
 11
980.21526970674631
 21
491.06250919985564
  0
LINE
  8
_0-3_躯体と製品
  6
CONTINUOUS
 62
    7
 10
965.21526970674631
 20
487.06250919985473
 11
965.21526970674631
 21
491.06250919985564
  0
LINE
  8
_0-3_躯体と製品
  6
CONTINUOUS
 62
    7
 10
968.21526970674631
 20
487.06250919985473
 11
968.21526970674631
 21
491.06250919985564
  0
LINE
  8
_0-3_躯体と製品
  6
CONTINUOUS
 62
    7
 10
971.21526970674495
 20
487.06250919985473
 11
971.21526970674495
 21
491.06250919985564
  0
LINE
  8
_0-3_躯体と製品
  6
CONTINUOUS
 62
    7
 10
962.21526970674495
 20
487.06250919985473
 11
962.21526970674495
 21
491.06250919985564
  0
LINE
  8
_0-3_躯体と製品
  6
CONTINUOUS
 62
    7
 10
917.21526970674495
 20
487.06250919985473
 11
917.21526970674495
 21
491.06250919985564
  0
LINE
  8
_0-3_躯体と製品
  6
CONTINUOUS
 62
    7
 10
920.21526970674631
 20
487.06250919985473
 11
920.21526970674631
 21
491.06250919985564
  0
LINE
  8
_0-3_躯体と製品
  6
CONTINUOUS
 62
    7
 10
908.21526970674495
 20
487.06250919985473
 11
908.21526970674495
 21
491.06250919985564
  0
LINE
  8
_0-3_躯体と製品
  6
CONTINUOUS
 62
    7
 10
911.21526970674631
 20
487.06250919985473
 11
911.21526970674631
 21
491.06250919985564
  0
LINE
  8
_0-3_躯体と製品
  6
CONTINUOUS
 62
    7
 10
914.21526970674495
 20
487.06250919985473
 11
914.21526970674495
 21
491.06250919985564
  0
LINE
  8
_0-3_躯体と製品
  6
CONTINUOUS
 62
    7
 10
935.21526970674495
 20
487.06250919985473
 11
935.21526970674495
 21
491.06250919985564
  0
LINE
  8
_0-3_躯体と製品
  6
CONTINUOUS
 62
    7
 10
938.21526970674495
 20
487.06250919985473
 11
938.21526970674495
 21
491.06250919985564
  0
LINE
  8
_0-3_躯体と製品
  6
CONTINUOUS
 62
    7
 10
941.21526970674631
 20
487.06250919985473
 11
941.21526970674631
 21
491.06250919985564
  0
LINE
  8
_0-3_躯体と製品
  6
CONTINUOUS
 62
    7
 10
926.21526970674631
 20
487.06250919985473
 11
926.21526970674631
 21
491.06250919985564
  0
LINE
  8
_0-3_躯体と製品
  6
CONTINUOUS
 62
    7
 10
929.21526970674631
 20
487.06250919985473
 11
929.21526970674631
 21
491.06250919985564
  0
LINE
  8
_0-3_躯体と製品
  6
CONTINUOUS
 62
    7
 10
932.21526970674495
 20
487.06250919985473
 11
932.21526970674495
 21
491.06250919985564
  0
LINE
  8
_0-3_躯体と製品
  6
CONTINUOUS
 62
    7
 10
923.21526970674631
 20
487.06250919985473
 11
923.21526970674631
 21
491.06250919985564
  0
LINE
  8
_0-3_躯体と製品
  6
CONTINUOUS
 62
    7
 10
493.91683869407007
 20
487.06250919985473
 11
493.91683869407007
 21
491.06250919985473
  0
LINE
  8
_0-3_躯体と製品
  6
CONTINUOUS
 62
    7
 10
496.91683869407007
 20
487.06250919985473
 11
496.91683869407007
 21
491.06250919985473
  0
LINE
  8
_0-3_躯体と製品
  6
CONTINUOUS
 62
    7
 10
481.91683869407098
 20
487.06250919985473
 11
481.91683869407098
 21
491.06250919985473
  0
LINE
  8
_0-3_躯体と製品
  6
CONTINUOUS
 62
    7
 10
484.91683869407007
 20
487.06250919985473
 11
484.91683869407007
 21
491.06250919985473
  0
LINE
  8
_0-3_躯体と製品
  6
CONTINUOUS
 62
    7
 10
487.91683869407098
 20
487.06250919985473
 11
487.91683869407098
 21
491.06250919985473
  0
LINE
  8
_0-3_躯体と製品
  6
CONTINUOUS
 62
    7
 10
490.91683869407098
 20
487.06250919985473
 11
490.91683869407098
 21
491.06250919985473
  0
LINE
  8
_0-3_躯体と製品
  6
CONTINUOUS
 62
    7
 10
532.91683869407098
 20
487.06250919985473
 11
532.91683869407098
 21
491.06250919985473
  0
LINE
  8
_0-3_躯体と製品
  6
CONTINUOUS
 62
    7
 10
535.91683869407098
 20
487.06250919985473
 11
535.91683869407098
 21
491.06250919985473
  0
LINE
  8
_0-3_躯体と製品
  6
CONTINUOUS
 62
    7
 10
538.91683869407007
 20
487.06250919985473
 11
538.91683869407007
 21
491.06250919985473
  0
LINE
  8
_0-3_躯体と製品
  6
CONTINUOUS
 62
    7
 10
541.91683869407007
 20
487.06250919985473
 11
541.91683869407007
 21
491.06250919985473
  0
LINE
  8
_0-3_躯体と製品
  6
CONTINUOUS
 62
    7
 10
523.91683869407007
 20
487.06250919985473
 11
523.91683869407007
 21
491.06250919985473
  0
LINE
  8
_0-3_躯体と製品
  6
CONTINUOUS
 62
    7
 10
526.91683869407098
 20
487.06250919985473
 11
526.91683869407098
 21
491.06250919985473
  0
LINE
  8
_0-3_躯体と製品
  6
CONTINUOUS
 62
    7
 10
529.91683869407007
 20
487.06250919985473
 11
529.91683869407007
 21
491.06250919985473
  0
LINE
  8
_0-3_躯体と製品
  6
CONTINUOUS
 62
    7
 10
511.91683869407007
 20
487.06250919985473
 11
511.91683869407007
 21
491.06250919985473
  0
LINE
  8
_0-3_躯体と製品
  6
CONTINUOUS
 62
    7
 10
514.91683869407098
 20
487.06250919985473
 11
514.91683869407098
 21
491.06250919985473
  0
LINE
  8
_0-3_躯体と製品
  6
CONTINUOUS
 62
    7
 10
517.91683869407098
 20
487.06250919985473
 11
517.91683869407098
 21
491.06250919985473
  0
LINE
  8
_0-3_躯体と製品
  6
CONTINUOUS
 62
    7
 10
520.91683869407007
 20
487.06250919985473
 11
520.91683869407007
 21
491.06250919985473
  0
LINE
  8
_0-3_躯体と製品
  6
CONTINUOUS
 62
    7
 10
502.91683869407098
 20
487.06250919985473
 11
502.91683869407098
 21
491.06250919985473
  0
LINE
  8
_0-3_躯体と製品
  6
CONTINUOUS
 62
    7
 10
505.91683869407007
 20
487.06250919985473
 11
505.91683869407007
 21
491.06250919985473
  0
LINE
  8
_0-3_躯体と製品
  6
CONTINUOUS
 62
    7
 10
508.91683869407007
 20
487.06250919985473
 11
508.91683869407007
 21
491.06250919985473
  0
LINE
  8
_0-3_躯体と製品
  6
CONTINUOUS
 62
    7
 10
499.91683869407007
 20
487.06250919985473
 11
499.91683869407007
 21
491.06250919985473
  0
LINE
  8
_0-3_躯体と製品
  6
CONTINUOUS
 62
    7
 10
589.91683869407007
 20
487.06250919985473
 11
589.91683869407007
 21
491.06250919985473
  0
LINE
  8
_0-3_躯体と製品
  6
CONTINUOUS
 62
    7
 10
586.91683869407007
 20
487.06250919985473
 11
586.91683869407007
 21
491.06250919985473
  0
LINE
  8
_0-3_躯体と製品
  6
CONTINUOUS
 62
    7
 10
583.91683869407007
 20
487.06250919985473
 11
583.91683869407007
 21
491.06250919985473
  0
LINE
  8
_0-3_躯体と製品
  6
CONTINUOUS
 62
    7
 10
574.91683869407098
 20
487.06250919985473
 11
574.91683869407098
 21
491.06250919985473
  0
LINE
  8
_0-3_躯体と製品
  6
CONTINUOUS
 62
    7
 10
580.91683869407007
 20
487.06250919985473
 11
580.91683869407007
 21
491.06250919985473
  0
LINE
  8
_0-3_躯体と製品
  6
CONTINUOUS
 62
    7
 10
577.91683869407098
 20
487.06250919985473
 11
577.91683869407098
 21
491.06250919985473
  0
LINE
  8
_0-3_躯体と製品
  6
CONTINUOUS
 62
    7
 10
565.91683869407098
 20
487.06250919985473
 11
565.91683869407098
 21
491.06250919985473
  0
LINE
  8
_0-3_躯体と製品
  6
CONTINUOUS
 62
    7
 10
568.91683869407007
 20
487.06250919985473
 11
568.91683869407007
 21
491.06250919985473
  0
LINE
  8
_0-3_躯体と製品
  6
CONTINUOUS
 62
    7
 10
571.91683869407098
 20
487.06250919985473
 11
571.91683869407098
 21
491.06250919985473
  0
LINE
  8
_0-3_躯体と製品
  6
CONTINUOUS
 62
    7
 10
553.91683869407007
 20
487.06250919985473
 11
553.91683869407007
 21
491.06250919985473
  0
LINE
  8
_0-3_躯体と製品
  6
CONTINUOUS
 62
    7
 10
556.91683869407007
 20
487.06250919985473
 11
556.91683869407007
 21
491.06250919985473
  0
LINE
  8
_0-3_躯体と製品
  6
CONTINUOUS
 62
    7
 10
559.91683869407098
 20
487.06250919985473
 11
559.91683869407098
 21
491.06250919985473
  0
LINE
  8
_0-3_躯体と製品
  6
CONTINUOUS
 62
    7
 10
562.91683869407098
 20
487.06250919985473
 11
562.91683869407098
 21
491.06250919985473
  0
LINE
  8
_0-3_躯体と製品
  6
CONTINUOUS
 62
    7
 10
544.91683869407007
 20
487.06250919985473
 11
544.91683869407007
 21
491.06250919985473
  0
LINE
  8
_0-3_躯体と製品
  6
CONTINUOUS
 62
    7
 10
547.91683869407098
 20
487.06250919985473
 11
547.91683869407098
 21
491.06250919985473
  0
LINE
  8
_0-3_躯体と製品
  6
CONTINUOUS
 62
    7
 10
550.91683869407007
 20
487.06250919985473
 11
550.91683869407007
 21
491.06250919985473
  0
LINE
  8
_0-3_躯体と製品
  6
CONTINUOUS
 62
    7
 10
634.91683869407007
 20
487.06250919985473
 11
634.91683869407007
 21
491.06250919985473
  0
LINE
  8
_0-3_躯体と製品
  6
CONTINUOUS
 62
    7
 10
631.91683869407098
 20
487.06250919985473
 11
631.91683869407098
 21
491.06250919985473
  0
LINE
  8
_0-3_躯体と製品
  6
CONTINUOUS
 62
    7
 10
628.91683869407007
 20
487.06250919985473
 11
628.91683869407007
 21
491.06250919985473
  0
LINE
  8
_0-3_躯体と製品
  6
CONTINUOUS
 62
    7
 10
625.91683869407007
 20
487.06250919985473
 11
625.91683869407007
 21
491.06250919985473
  0
LINE
  8
_0-3_躯体と製品
  6
CONTINUOUS
 62
    7
 10
622.91683869407098
 20
487.06250919985473
 11
622.91683869407098
 21
491.06250919985473
  0
LINE
  8
_0-3_躯体と製品
  6
CONTINUOUS
 62
    7
 10
619.91683869407098
 20
487.06250919985473
 11
619.91683869407098
 21
491.06250919985473
  0
LINE
  8
_0-3_躯体と製品
  6
CONTINUOUS
 62
    7
 10
616.91683869407007
 20
487.06250919985473
 11
616.91683869407007
 21
491.06250919985473
  0
LINE
  8
_0-3_躯体と製品
  6
CONTINUOUS
 62
    7
 10
613.91683869407007
 20
487.06250919985473
 11
613.91683869407007
 21
491.06250919985473
  0
LINE
  8
_0-3_躯体と製品
  6
CONTINUOUS
 62
    7
 10
610.91683869407098
 20
487.06250919985473
 11
610.91683869407098
 21
491.06250919985473
  0
LINE
  8
_0-3_躯体と製品
  6
CONTINUOUS
 62
    7
 10
607.91683869407098
 20
487.06250919985473
 11
607.91683869407098
 21
491.06250919985473
  0
LINE
  8
_0-3_躯体と製品
  6
CONTINUOUS
 62
    7
 10
604.91683869407007
 20
487.06250919985473
 11
604.91683869407007
 21
491.06250919985473
  0
LINE
  8
_0-3_躯体と製品
  6
CONTINUOUS
 62
    7
 10
601.91683869407007
 20
487.06250919985473
 11
601.91683869407007
 21
491.06250919985473
  0
LINE
  8
_0-3_躯体と製品
  6
CONTINUOUS
 62
    7
 10
598.91683869407007
 20
487.06250919985473
 11
598.91683869407007
 21
491.06250919985473
  0
LINE
  8
_0-3_躯体と製品
  6
CONTINUOUS
 62
    7
 10
595.91683869407007
 20
487.06250919985473
 11
595.91683869407007
 21
491.06250919985473
  0
LINE
  8
_0-3_躯体と製品
  6
CONTINUOUS
 62
    7
 10
592.91683869407098
 20
487.06250919985473
 11
592.91683869407098
 21
491.06250919985473
  0
LINE
  8
_0-3_躯体と製品
  6
CONTINUOUS
 62
    7
 10
679.91683869407007
 20
487.06250919985473
 11
679.91683869407007
 21
491.06250919985473
  0
LINE
  8
_0-3_躯体と製品
  6
CONTINUOUS
 62
    7
 10
676.91683869407098
 20
487.06250919985473
 11
676.91683869407098
 21
491.06250919985473
  0
LINE
  8
_0-3_躯体と製品
  6
CONTINUOUS
 62
    7
 10
673.91683869407007
 20
487.06250919985473
 11
673.91683869407007
 21
491.06250919985473
  0
LINE
  8
_0-3_躯体と製品
  6
CONTINUOUS
 62
    7
 10
670.91683869407007
 20
487.06250919985473
 11
670.91683869407007
 21
491.06250919985473
  0
LINE
  8
_0-3_躯体と製品
  6
CONTINUOUS
 62
    7
 10
667.91683869407098
 20
487.06250919985473
 11
667.91683869407098
 21
491.06250919985473
  0
LINE
  8
_0-3_躯体と製品
  6
CONTINUOUS
 62
    7
 10
664.91683869407098
 20
487.06250919985473
 11
664.91683869407098
 21
491.06250919985473
  0
LINE
  8
_0-3_躯体と製品
  6
CONTINUOUS
 62
    7
 10
661.91683869407007
 20
487.06250919985473
 11
661.91683869407007
 21
491.06250919985473
  0
LINE
  8
_0-3_躯体と製品
  6
CONTINUOUS
 62
    7
 10
658.91683869407007
 20
487.06250919985473
 11
658.91683869407007
 21
491.06250919985473
  0
LINE
  8
_0-3_躯体と製品
  6
CONTINUOUS
 62
    7
 10
655.91683869407098
 20
487.06250919985473
 11
655.91683869407098
 21
491.06250919985473
  0
LINE
  8
_0-3_躯体と製品
  6
CONTINUOUS
 62
    7
 10
652.91683869407098
 20
487.06250919985473
 11
652.91683869407098
 21
491.06250919985473
  0
LINE
  8
_0-3_躯体と製品
  6
CONTINUOUS
 62
    7
 10
649.91683869407098
 20
487.06250919985473
 11
649.91683869407098
 21
491.06250919985473
  0
LINE
  8
_0-3_躯体と製品
  6
CONTINUOUS
 62
    7
 10
646.91683869407098
 20
487.06250919985473
 11
646.91683869407098
 21
491.06250919985473
  0
LINE
  8
_0-3_躯体と製品
  6
CONTINUOUS
 62
    7
 10
643.91683869407007
 20
487.06250919985473
 11
643.91683869407007
 21
491.06250919985473
  0
LINE
  8
_0-3_躯体と製品
  6
CONTINUOUS
 62
    7
 10
640.91683869407007
 20
487.06250919985473
 11
640.91683869407007
 21
491.06250919985473
  0
LINE
  8
_0-3_躯体と製品
  6
CONTINUOUS
 62
    7
 10
637.91683869407098
 20
487.06250919985473
 11
637.91683869407098
 21
491.06250919985473
  0
LINE
  8
_0-3_躯体と製品
  6
CONTINUOUS
 62
    7
 10
709.91683869407007
 20
487.06250919985473
 11
709.91683869407007
 21
491.06250919985473
  0
LINE
  8
_0-3_躯体と製品
  6
CONTINUOUS
 62
    7
 10
706.91683869407098
 20
487.06250919985473
 11
706.91683869407098
 21
491.06250919985473
  0
LINE
  8
_0-3_躯体と製品
  6
CONTINUOUS
 62
    7
 10
703.91683869407007
 20
487.06250919985473
 11
703.91683869407007
 21
491.06250919985473
  0
LINE
  8
_0-3_躯体と製品
  6
CONTINUOUS
 62
    7
 10
700.91683869407098
 20
487.06250919985473
 11
700.91683869407098
 21
491.06250919985473
  0
LINE
  8
_0-3_躯体と製品
  6
CONTINUOUS
 62
    7
 10
697.91683869407098
 20
487.06250919985473
 11
697.91683869407098
 21
491.06250919985473
  0
LINE
  8
_0-3_躯体と製品
  6
CONTINUOUS
 62
    7
 10
694.91683869407098
 20
487.06250919985473
 11
694.91683869407098
 21
491.06250919985473
  0
LINE
  8
_0-3_躯体と製品
  6
CONTINUOUS
 62
    7
 10
691.91683869407098
 20
487.06250919985473
 11
691.91683869407098
 21
491.06250919985473
  0
LINE
  8
_0-3_躯体と製品
  6
CONTINUOUS
 62
    7
 10
688.91683869407007
 20
487.06250919985473
 11
688.91683869407007
 21
491.06250919985473
  0
LINE
  8
_0-3_躯体と製品
  6
CONTINUOUS
 62
    7
 10
685.91683869407007
 20
487.06250919985473
 11
685.91683869407007
 21
491.06250919985473
  0
LINE
  8
_0-3_躯体と製品
  6
CONTINUOUS
 62
    7
 10
682.91683869407098
 20
487.06250919985473
 11
682.91683869407098
 21
491.06250919985473
  0
LINE
  8
_0-3_躯体と製品
  6
CONTINUOUS
 62
    7
 10
730.91683869407007
 20
487.06250919985473
 11
730.91683869407007
 21
491.06250919985473
  0
LINE
  8
_0-3_躯体と製品
  6
CONTINUOUS
 62
    7
 10
727.91683869407098
 20
487.06250919985473
 11
727.91683869407098
 21
491.06250919985473
  0
LINE
  8
_0-3_躯体と製品
  6
CONTINUOUS
 62
    7
 10
724.91683869407098
 20
487.06250919985473
 11
724.91683869407098
 21
491.06250919985473
  0
LINE
  8
_0-3_躯体と製品
  6
CONTINUOUS
 62
    7
 10
721.91683869407007
 20
487.06250919985473
 11
721.91683869407007
 21
491.06250919985473
  0
LINE
  8
_0-3_躯体と製品
  6
CONTINUOUS
 62
    7
 10
718.91683869407007
 20
487.06250919985473
 11
718.91683869407007
 21
491.06250919985473
  0
LINE
  8
_0-3_躯体と製品
  6
CONTINUOUS
 62
    7
 10
715.91683869407098
 20
487.06250919985473
 11
715.91683869407098
 21
491.06250919985473
  0
LINE
  8
_0-3_躯体と製品
  6
CONTINUOUS
 62
    7
 10
712.91683869407098
 20
487.06250919985473
 11
712.91683869407098
 21
491.06250919985473
  0
LINE
  8
_0-3_躯体と製品
  6
CONTINUOUS
 62
    7
 10
454.91683869407007
 20
487.06250919985473
 11
454.91683869407007
 21
491.06250919985473
  0
LINE
  8
_0-3_躯体と製品
  6
CONTINUOUS
 62
    7
 10
457.91683869407007
 20
487.06250919985473
 11
457.91683869407007
 21
491.06250919985473
  0
LINE
  8
_0-3_躯体と製品
  6
CONTINUOUS
 62
    7
 10
442.91683869407098
 20
487.06250919985473
 11
442.91683869407098
 21
491.06250919985473
  0
LINE
  8
_0-3_躯体と製品
  6
CONTINUOUS
 62
    7
 10
445.91683869407007
 20
487.06250919985473
 11
445.91683869407007
 21
491.06250919985473
  0
LINE
  8
_0-3_躯体と製品
  6
CONTINUOUS
 62
    7
 10
448.91683869407098
 20
487.06250919985473
 11
448.91683869407098
 21
491.06250919985473
  0
LINE
  8
_0-3_躯体と製品
  6
CONTINUOUS
 62
    7
 10
451.91683869407007
 20
487.06250919985473
 11
451.91683869407007
 21
491.06250919985473
  0
LINE
  8
_0-3_躯体と製品
  6
CONTINUOUS
 62
    7
 10
472.91683869407007
 20
487.06250919985473
 11
472.91683869407007
 21
491.06250919985473
  0
LINE
  8
_0-3_躯体と製品
  6
CONTINUOUS
 62
    7
 10
475.91683869407007
 20
487.06250919985473
 11
475.91683869407007
 21
491.06250919985473
  0
LINE
  8
_0-3_躯体と製品
  6
CONTINUOUS
 62
    7
 10
478.91683869407098
 20
487.06250919985473
 11
478.91683869407098
 21
491.06250919985473
  0
LINE
  8
_0-3_躯体と製品
  6
CONTINUOUS
 62
    7
 10
463.91683869407098
 20
487.06250919985473
 11
463.91683869407098
 21
491.06250919985473
  0
LINE
  8
_0-3_躯体と製品
  6
CONTINUOUS
 62
    7
 10
466.91683869407098
 20
487.06250919985473
 11
466.91683869407098
 21
491.06250919985473
  0
LINE
  8
_0-3_躯体と製品
  6
CONTINUOUS
 62
    7
 10
469.91683869407007
 20
487.06250919985473
 11
469.91683869407007
 21
491.06250919985473
  0
LINE
  8
_0-3_躯体と製品
  6
CONTINUOUS
 62
    7
 10
460.91683869407007
 20
487.06250919985473
 11
460.91683869407007
 21
491.06250919985473
  0
LINE
  8
_0-3_躯体と製品
  6
CONTINUOUS
 62
    7
 10
415.91683869407007
 20
487.06250919985473
 11
415.91683869407007
 21
491.06250919985473
  0
LINE
  8
_0-3_躯体と製品
  6
CONTINUOUS
 62
    7
 10
418.91683869407098
 20
487.06250919985473
 11
418.91683869407098
 21
491.06250919985473
  0
LINE
  8
_0-3_躯体と製品
  6
CONTINUOUS
 62
    7
 10
406.91683869407098
 20
487.06250919985473
 11
406.91683869407098
 21
491.06250919985473
  0
LINE
  8
_0-3_躯体と製品
  6
CONTINUOUS
 62
    7
 10
409.91683869407098
 20
487.06250919985473
 11
409.91683869407098
 21
491.06250919985473
  0
LINE
  8
_0-3_躯体と製品
  6
CONTINUOUS
 62
    7
 10
412.91683869407007
 20
487.06250919985473
 11
412.91683869407007
 21
491.06250919985473
  0
LINE
  8
_0-3_躯体と製品
  6
CONTINUOUS
 62
    7
 10
433.91683869407098
 20
487.06250919985473
 11
433.91683869407098
 21
491.06250919985473
  0
LINE
  8
_0-3_躯体と製品
  6
CONTINUOUS
 62
    7
 10
436.91683869407007
 20
487.06250919985473
 11
436.91683869407007
 21
491.06250919985473
  0
LINE
  8
_0-3_躯体と製品
  6
CONTINUOUS
 62
    7
 10
439.91683869407098
 20
487.06250919985473
 11
439.91683869407098
 21
491.06250919985473
  0
LINE
  8
_0-3_躯体と製品
  6
CONTINUOUS
 62
    7
 10
424.91683869407098
 20
487.06250919985473
 11
424.91683869407098
 21
491.06250919985473
  0
LINE
  8
_0-3_躯体と製品
  6
CONTINUOUS
 62
    7
 10
427.91683869407007
 20
487.06250919985473
 11
427.91683869407007
 21
491.06250919985473
  0
LINE
  8
_0-3_躯体と製品
  6
CONTINUOUS
 62
    7
 10
430.91683869407007
 20
487.06250919985473
 11
430.91683869407007
 21
491.06250919985473
  0
LINE
  8
_0-3_躯体と製品
  6
CONTINUOUS
 62
    7
 10
421.91683869407098
 20
487.06250919985473
 11
421.91683869407098
 21
491.06250919985473
  0
LINE
  8
_0-3_躯体と製品
  6
CONTINUOUS
 62
    7
 10
739.91683869407098
 20
487.06250919985473
 11
739.91683869407098
 21
491.06250919985473
  0
LINE
  8
_0-3_躯体と製品
  6
CONTINUOUS
 62
    7
 10
736.91683869407098
 20
487.06250919985473
 11
736.91683869407098
 21
491.06250919985473
  0
LINE
  8
_0-3_躯体と製品
  6
CONTINUOUS
 62
    7
 10
733.91683869407007
 20
487.06250919985473
 11
733.91683869407007
 21
491.06250919985473
  0
LINE
  8
_0-3_躯体と製品
  6
CONTINUOUS
 62
    7
 10
760.91683869407098
 20
487.06250919985473
 11
760.91683869407098
 21
491.06250919985473
  0
LINE
  8
_0-3_躯体と製品
  6
CONTINUOUS
 62
    7
 10
757.91683869407098
 20
487.06250919985473
 11
757.91683869407098
 21
491.06250919985473
  0
LINE
  8
_0-3_躯体と製品
  6
CONTINUOUS
 62
    7
 10
754.91683869407007
 20
487.06250919985473
 11
754.91683869407007
 21
491.06250919985473
  0
LINE
  8
_0-3_躯体と製品
  6
CONTINUOUS
 62
    7
 10
751.91683869407098
 20
487.06250919985473
 11
751.91683869407098
 21
491.06250919985473
  0
LINE
  8
_0-3_躯体と製品
  6
CONTINUOUS
 62
    7
 10
748.91683869407007
 20
487.06250919985473
 11
748.91683869407007
 21
491.06250919985473
  0
LINE
  8
_0-3_躯体と製品
  6
CONTINUOUS
 62
    7
 10
745.91683869407007
 20
487.06250919985473
 11
745.91683869407007
 21
491.06250919985473
  0
LINE
  8
_0-3_躯体と製品
  6
CONTINUOUS
 62
    7
 10
742.91683869407098
 20
487.06250919985473
 11
742.91683869407098
 21
491.06250919985473
  0
LINE
  8
_0-3_躯体と製品
  6
CONTINUOUS
 62
    7
 10
769.91683869407098
 20
487.06250919985473
 11
769.91683869407098
 21
491.06250919985473
  0
LINE
  8
_0-3_躯体と製品
  6
CONTINUOUS
 62
    7
 10
766.91683869407007
 20
487.06250919985473
 11
766.91683869407007
 21
491.06250919985473
  0
LINE
  8
_0-3_躯体と製品
  6
CONTINUOUS
 62
    7
 10
763.91683869407007
 20
487.06250919985473
 11
763.91683869407007
 21
491.06250919985473
  0
LINE
  8
_0-3_躯体と製品
  6
CONTINUOUS
 62
    7
 10
781.91683869407098
 20
487.06250919985473
 11
781.91683869407098
 21
491.06250919985473
  0
LINE
  8
_0-3_躯体と製品
  6
CONTINUOUS
 62
    7
 10
778.91683869407007
 20
487.06250919985473
 11
778.91683869407007
 21
491.06250919985473
  0
LINE
  8
_0-3_躯体と製品
  6
CONTINUOUS
 62
    7
 10
775.91683869407007
 20
487.06250919985473
 11
775.91683869407007
 21
491.06250919985473
  0
LINE
  8
_0-3_躯体と製品
  6
CONTINUOUS
 62
    7
 10
772.91683869407098
 20
487.06250919985473
 11
772.91683869407098
 21
491.06250919985473
  0
LINE
  8
_0-3_躯体と製品
  6
CONTINUOUS
 62
    7
 10
385.91683869407007
 20
487.06250919985473
 11
385.91683869407007
 21
491.06250919985473
  0
LINE
  8
_0-3_躯体と製品
  6
CONTINUOUS
 62
    7
 10
388.91683869407007
 20
487.06250919985473
 11
388.91683869407007
 21
491.06250919985473
  0
LINE
  8
_0-3_躯体と製品
  6
CONTINUOUS
 62
    7
 10
379.91683869407098
 20
487.06250919985473
 11
379.91683869407098
 21
491.06250919985473
  0
LINE
  8
_0-3_躯体と製品
  6
CONTINUOUS
 62
    7
 10
382.91683869407007
 20
487.06250919985473
 11
382.91683869407007
 21
491.06250919985473
  0
LINE
  8
_0-3_躯体と製品
  6
CONTINUOUS
 62
    7
 10
403.91683869407007
 20
487.06250919985473
 11
403.91683869407007
 21
491.06250919985473
  0
LINE
  8
_0-3_躯体と製品
  6
CONTINUOUS
 62
    7
 10
394.91683869407098
 20
487.06250919985473
 11
394.91683869407098
 21
491.06250919985473
  0
LINE
  8
_0-3_躯体と製品
  6
CONTINUOUS
 62
    7
 10
397.91683869407007
 20
487.06250919985473
 11
397.91683869407007
 21
491.06250919985473
  0
LINE
  8
_0-3_躯体と製品
  6
CONTINUOUS
 62
    7
 10
400.91683869407007
 20
487.06250919985473
 11
400.91683869407007
 21
491.06250919985473
  0
LINE
  8
_0-3_躯体と製品
  6
CONTINUOUS
 62
    7
 10
391.91683869407007
 20
487.06250919985473
 11
391.91683869407007
 21
491.06250919985473
  0
LINE
  8
_0-3_躯体と製品
  6
CONTINUOUS
 62
    7
 10
994.19510470674595
 20
467.06250919985473
 11
1014.195104706746
 21
487.06250919985473
  0
LINE
  8
_0-3_躯体と製品
  6
CONTINUOUS
 62
    7
 10
988.53824970674623
 20
467.06250919985473
 11
1008.5382497067462
 21
487.06250919985473
  0
LINE
  8
_0-3_躯体と製品
  6
CONTINUOUS
 62
    7
 10
999.85195970674613
 20
467.06250919985473
 11
1019.8519597067461
 21
487.06250919985473
  0
LINE
  8
_0-3_躯体と製品
  6
CONTINUOUS
 62
    7
 10
1169.7710347067464
 20
467.06250919985473
 11
1189.7710347067464
 21
487.06250919985473
  0
LINE
  8
_0-3_躯体と製品
  6
CONTINUOUS
 62
    7
 10
1164.1141797067462
 20
467.06250919985473
 11
1184.1141797067462
 21
487.06250919985473
  0
LINE
  8
_0-3_躯体と製品
  6
CONTINUOUS
 62
    7
 10
1158.4573297067463
 20
467.06250919985473
 11
1178.4573297067463
 21
487.06250919985473
  0
LINE
  8
_0-3_躯体と製品
  6
CONTINUOUS
 62
    7
 10
580.91683869407007
 20
577.56250919985769
 11
580.91683869406916
 21
574.56250919985973
  0
LINE
  8
_0-3_躯体と製品
  6
CONTINUOUS
 62
    7
 10
589.91301809700008
 20
574.56250919985973
 11
589.91301809700326
 21
577.56250919985769
  0
LINE
  8
_0-3_躯体と製品
  6
CONTINUOUS
 62
    7
 10
571.92065929113733
 20
574.56250919986064
 11
571.92065929114005
 21
577.56250919985769
  0
LINE
  8
_0-3_躯体と製品
  6
CONTINUOUS
 62
    7
 10
576.41874899260438
 20
573.5625091998586
 11
585.4149283955353
 21
573.5625091998586
  0
ARC
  8
_0-3_躯体と製品
  6
CONTINUOUS
 62
    7
 10
576.41874899260438
 20
584.17891468105563
 40
10.61640548119736
 50
244.93207904395709
 51
295.06792095604288
  0
ARC
  8
_0-3_躯体と製品
  6
CONTINUOUS
 62
    7
 10
585.4149283955353
 20
584.17891468105563
 40
10.61640548119736
 50
244.93207904395709
 51
295.06792095604288
  0
LINE
  8
_0-3_躯体と製品
  6
CONTINUOUS
 62
    7
 10
480.91683869407007
 20
491.06250919985564
 11
480.91683869407007
 21
497.06250919985473
  0
LINE
  8
_0-3_躯体と製品
  6
CONTINUOUS
 62
    7
 10
680.91683869407098
 20
491.06250919985473
 11
680.91683869407098
 21
497.06250919985473
  0
LINE
  8
_0-3_躯体と製品
  6
CONTINUOUS
 62
    7
 10
1182.215244706746
 20
497.06250919985473
 11
982.21524470674603
 21
497.06250919985473
  0
LINE
  8
_0-3_躯体と製品
  6
CONTINUOUS
 62
    7
 10
1182.215244706746
 20
491.06250919985564
 11
1182.215244706746
 21
497.06250919985473
  0
TEXT
  8
_0-4_文字-記号
 62
    7
 10
377.921059320528
 20
768.84584812002868
 40
12
 41
1
 50
0
  1
基本ピッチ：支持脚 ９００×根太鋼 ５００（再生木材）
  0
TEXT
  8
_0-4_文字-記号
 62
    7
 10
465.18033361301013
 20
747.8187894539426
 40
12
 41
1
 50
0
  1
支持脚 ９００×根太鋼 ６００（天然木材）
  0
LINE
  8
_0-3_躯体と製品
  6
CONTINUOUS
 62
    7
 10
982.21524470674603
 20
491.06250919985564
 11
982.21524470674603
 21
497.06250919985473
  0
LINE
  8
_0-3_躯体と製品
  6
CONTINUOUS
 62
    7
 10
377.60924431123112
 20
630.56250919985473
 11
796.464382159244
 21
630.56250919985473
  0
LINE
  8
_0-3_躯体と製品
  6
CONTINUOUS
 62
    7
 10
796.4608915402473
 20
590.56250919985473
 11
600.91683869407007
 21
590.56250919985268
  0
LINE
  8
_0-3_躯体と製品
  6
CONTINUOUS
 62
    7
 10
600.91683869407007
 20
592.16250919985873
 11
796.46103116500626
 21
592.16250919985373
  0
INSERT
  2
-006-_D7
  8
_0-2_寸法
 10
-1795.4604068635908
 20
-746.81436420020236
 41
1
 42
1
 50
0
  0
INSERT
  2
-007-_D8
  8
_0-2_寸法
 10
-1795.4604068635908
 20
-746.81436420020236
 41
1
 42
1
 50
0
  0
INSERT
  2
-008-_D9
  8
_0-2_寸法
 10
-1795.4604068635908
 20
-746.81436420020236
 41
1
 42
1
 50
0
  0
INSERT
  2
-009-_D10
  8
_0-2_寸法
 10
-1795.4604068635908
 20
-746.81436420020236
 41
1
 42
1
 50
0
  0
LINE
  8
_0-3_躯体と製品
  6
CONTINUOUS
 62
    7
 10
377.60575369223216
 20
590.56250919985473
 11
560.91683869407007
 21
590.56250919985268
  0
LINE
  8
_0-3_躯体と製品
  6
CONTINUOUS
 62
    7
 10
560.91683869407007
 20
592.16250919985873
 11
377.60589331699202
 21
592.16250919984554
  0
INSERT
  2
-010-_D11
  8
_0-2_寸法
 10
-1795.4604068635908
 20
-746.81436420020236
 41
1
 42
1
 50
0
  0
INSERT
  2
-011-_D12
  8
_0-2_寸法
 10
-1795.4604068635908
 20
-746.81436420020236
 41
1
 42
1
 50
0
  0
INSERT
  2
-012-_D13
  8
_0-2_寸法
 10
-1795.4604068635908
 20
-746.81436420020236
 41
1
 42
1
 50
0
  0
INSERT
  2
-013-_D14
  8
_0-2_寸法
 10
-1795.4604068635908
 20
-746.81436420020236
 41
1
 42
1
 50
0
  0
INSERT
  2
-014-_D15
  8
_0-2_寸法
 10
-1795.4604068635908
 20
-746.81436420020236
 41
1
 42
1
 50
0
  0
LINE
  8
_0-4_文字-記号
  6
CONTINUOUS
 62
    7
 10
590.84976661036217
 20
637.4677193028067
 11
615.7118787126351
 21
680.53016064741769
  0
LINE
  8
_0-4_文字-記号
  6
CONTINUOUS
 62
    7
 10
615.7118787126351
 20
680.53016064741769
 11
649.7973429647891
 21
680.53016064741769
  0
TEXT
  8
_0-4_文字-記号
 62
    7
 10
618.34874371263595
 20
683.08423064741669
 40
8
 41
0.8
 50
0
  1
固定金具
  0
LINE
  8
_0-3_躯体と製品
  6
CONTINUOUS
 62
    7
 10
560.91683869407007
 20
595.56250919985769
 11
600.91683869407007
 21
595.56250919985769
  0
LINE
  8
_0-3_躯体と製品
  6
CONTINUOUS
 62
    7
 10
600.91683869407007
 20
595.56250919985769
 11
600.91683869407007
 21
588.5625091998586
  0
LINE
  8
_0-3_躯体と製品
  6
CONTINUOUS
 62
    7
 10
600.91683869407007
 20
588.5625091998586
 11
560.91683869407007
 21
588.5625091998586
  0
LINE
  8
_0-3_躯体と製品
  6
CONTINUOUS
 62
    7
 10
560.91683869407007
 20
588.5625091998586
 11
560.91683869407007
 21
595.56250919985769
  0
LINE
  8
_0-3_躯体と製品
  6
CONTINUOUS
 62
    7
 10
414.891893865562
 20
631.56250919986064
 11
377.60933157670615
 21
631.56250919986064
  0
LINE
  8
_0-3_躯体と製品
  6
CONTINUOUS
 62
    7
 10
377.61168774452926
 20
658.56250919986064
 11
416.891893865562
 21
658.56250919986064
  0
ARC
  8
_0-3_躯体と製品
  6
CONTINUOUS
 62
    7
 10
416.891893865562
 20
657.56250919986064
 40
0.9999999999999998
 50
0
 51
90
  0
LINE
  8
_0-3_躯体と製品
  6
CONTINUOUS
 62
    7
 10
417.891893865562
 20
657.56250919986064
 11
417.891893865562
 21
653.06250919986064
  0
LINE
  8
_0-3_躯体と製品
  6
CONTINUOUS
 62
    7
 10
417.891893865562
 20
653.06250919986064
 11
413.891893865562
 21
653.06250919986064
  0
ARC
  8
_0-3_躯体と製品
  6
CONTINUOUS
 62
    7
 10
413.891893865562
 20
650.06250919986064
 40
3
 50
90
 51
180
  0
LINE
  8
_0-3_躯体と製品
  6
CONTINUOUS
 62
    7
 10
410.891893865562
 20
650.06250919986064
 11
410.891893865562
 21
639.06250919986064
  0
ARC
  8
_0-3_躯体と製品
  6
CONTINUOUS
 62
    7
 10
413.891893865562
 20
639.06250919986064
 40
3
 50
180
 51
270
  0
LINE
  8
_0-3_躯体と製品
  6
CONTINUOUS
 62
    7
 10
413.891893865562
 20
636.06250919986064
 11
417.891893865562
 21
636.06250919986064
  0
LINE
  8
_0-3_躯体と製品
  6
CONTINUOUS
 62
    7
 10
417.891893865562
 20
636.06250919986064
 11
417.891893865562
 21
634.06250919986064
  0
ARC
  8
_0-3_躯体と製品
  6
CONTINUOUS
 62
    7
 10
416.391893865562
 20
634.06250919986064
 40
1.5
 50
270
 51
0
  0
LINE
  8
_0-3_躯体と製品
  6
CONTINUOUS
 62
    7
 10
416.391893865562
 20
632.56250919986064
 11
414.891893865562
 21
632.56250919986064
  0
LINE
  8
_0-3_躯体と製品
  6
CONTINUOUS
 62
    7
 10
414.891893865562
 20
632.56250919986064
 11
414.891893865562
 21
631.06250919986064
  0
ARC
  8
_0-3_躯体と製品
  6
CONTINUOUS
 62
    7
 10
414.391893865562
 20
631.06250919986064
 40
0.4999999999999999
 50
270
 51
0
  0
LINE
  8
_0-3_躯体と製品
  6
CONTINUOUS
 62
    7
 10
414.391893865562
 20
630.56250919986064
 11
377.60924431123112
 21
630.56250919986064
  0
LINE
  8
_0-3_躯体と製品
  6
CONTINUOUS
 62
    7
 10
377.61160047905423
 20
657.56250919986064
 11
416.891893865562
 21
657.56250919986064
  0
LINE
  8
_0-3_躯体と製品
  6
CONTINUOUS
 62
    7
 10
416.891893865562
 20
657.56250919986064
 11
416.891893865562
 21
653.06250919986064
  0
LINE
  8
_0-3_躯体と製品
  6
CONTINUOUS
 62
    7
 10
377.61107688620405
 20
651.56250919986064
 11
380.391893865562
 21
651.56250919986064
  0
LINE
  8
_0-3_躯体と製品
  6
CONTINUOUS
 62
    7
 10
380.391893865562
 20
651.56250919986064
 11
380.891893865562
 21
651.06250919986064
  0
LINE
  8
_0-3_躯体と製品
  6
CONTINUOUS
 62
    7
 10
380.891893865562
 20
651.06250919986064
 11
380.891893865562
 21
638.06250919986064
  0
LINE
  8
_0-3_躯体と製品
  6
CONTINUOUS
 62
    7
 10
380.891893865562
 20
638.06250919986064
 11
380.391893865562
 21
637.56250919986064
  0
LINE
  8
_0-3_躯体と製品
  6
CONTINUOUS
 62
    7
 10
380.391893865562
 20
637.56250919986064
 11
377.60985516955498
 21
637.56250919986064
  0
LINE
  8
_0-3_躯体と製品
  6
CONTINUOUS
 62
    7
 10
405.391893865562
 20
636.06250919986064
 11
385.891893865562
 21
636.06250919986064
  0
LINE
  8
_0-3_躯体と製品
  6
CONTINUOUS
 62
    7
 10
385.891893865562
 20
636.06250919986064
 11
385.391893865562
 21
636.56250919986064
  0
LINE
  8
_0-3_躯体と製品
  6
CONTINUOUS
 62
    7
 10
385.391893865562
 20
636.56250919986064
 11
385.391893865562
 21
652.56250919986064
  0
LINE
  8
_0-3_躯体と製品
  6
CONTINUOUS
 62
    7
 10
385.391893865562
 20
652.56250919986064
 11
385.891893865562
 21
653.06250919986064
  0
LINE
  8
_0-3_躯体と製品
  6
CONTINUOUS
 62
    7
 10
385.891893865562
 20
653.06250919986064
 11
405.391893865562
 21
653.06250919986064
  0
LINE
  8
_0-3_躯体と製品
  6
CONTINUOUS
 62
    7
 10
405.391893865562
 20
653.06250919986064
 11
405.891893865562
 21
652.56250919986064
  0
LINE
  8
_0-3_躯体と製品
  6
CONTINUOUS
 62
    7
 10
405.891893865562
 20
652.56250919986064
 11
405.891893865562
 21
636.56250919986064
  0
LINE
  8
_0-3_躯体と製品
  6
CONTINUOUS
 62
    7
 10
405.891893865562
 20
636.56250919986064
 11
405.391893865562
 21
636.06250919986064
  0
LINE
  8
_0-3_躯体と製品
  6
CONTINUOUS
 62
    7
 10
411.391893865562
 20
650.56250919986064
 11
411.391893865562
 21
639.3625091998606
  0
ARC
  8
_0-3_躯体と製品
  6
CONTINUOUS
 62
    7
 10
414.391893865562
 20
639.3625091998606
 40
3
 50
180
 51
270
  0
LINE
  8
_0-3_躯体と製品
  6
CONTINUOUS
 62
    7
 10
414.391893865562
 20
636.3625091998606
 11
414.391893865562
 21
636.06250919986064
  0
LINE
  8
_0-3_躯体と製品
  6
CONTINUOUS
 62
    7
 10
414.391893865562
 20
636.06250919986064
 11
415.391893865562
 21
636.06250919986064
  0
LINE
  8
_0-3_躯体と製品
  6
CONTINUOUS
 62
    7
 10
415.391893865562
 20
636.06250919986064
 11
415.391893865562
 21
636.3625091998606
  0
LINE
  8
_0-3_躯体と製品
  6
CONTINUOUS
 62
    7
 10
415.391893865562
 20
636.3625091998606
 11
416.391893865562
 21
636.3625091998606
  0
LINE
  8
_0-3_躯体と製品
  6
CONTINUOUS
 62
    7
 10
416.391893865562
 20
636.3625091998606
 11
416.391893865562
 21
636.06250919986064
  0
LINE
  8
_0-3_躯体と製品
  6
CONTINUOUS
 62
    7
 10
416.391893865562
 20
636.06250919986064
 11
417.19189386556218
 21
636.06250919986064
  0
LINE
  8
_0-3_躯体と製品
  6
CONTINUOUS
 62
    7
 10
417.19189386556218
 20
636.06250919986064
 11
417.19189386556218
 21
636.3625091998606
  0
LINE
  8
_0-3_躯体と製品
  6
CONTINUOUS
 62
    7
 10
417.19189386556218
 20
636.3625091998606
 11
417.59189386556136
 21
636.3625091998606
  0
ARC
  8
_0-3_躯体と製品
  6
CONTINUOUS
 62
    7
 10
417.5918938655617
 20
636.0625091998603
 40
0.3000000000002842
 50
0.0000000000629749
 51
90.000000000067331
  0
LINE
  8
_0-3_躯体と製品
  6
CONTINUOUS
 62
    7
 10
417.891893865562
 20
636.06250919986064
 11
417.891893865562
 21
632.56250919986064
  0
LINE
  8
_0-3_躯体と製品
  6
CONTINUOUS
 62
    7
 10
417.891893865562
 20
632.56250919986064
 11
416.391893865562
 21
632.56250919986064
  0
ARC
  8
_0-3_躯体と製品
  6
CONTINUOUS
 62
    7
 10
416.391893865562
 20
632.06250919986064
 40
0.4999999999999999
 50
90
 51
180
  0
LINE
  8
_0-3_躯体と製品
  6
CONTINUOUS
 62
    7
 10
415.891893865562
 20
632.06250919986064
 11
415.891893865562
 21
631.06250919986064
  0
ARC
  8
_0-3_躯体と製品
  6
CONTINUOUS
 62
    7
 10
416.391893865562
 20
631.06250919986064
 40
0.4999999999999999
 50
180
 51
270
  0
LINE
  8
_0-3_躯体と製品
  6
CONTINUOUS
 62
    7
 10
416.391893865562
 20
630.56250919986064
 11
419.891893865562
 21
630.56250919986064
  0
LINE
  8
_0-3_躯体と製品
  6
CONTINUOUS
 62
    7
 10
419.891893865562
 20
630.56250919986064
 11
419.891893865562
 21
630.8625091998606
  0
LINE
  8
_0-3_躯体と製品
  6
CONTINUOUS
 62
    7
 10
419.891893865562
 20
630.8625091998606
 11
421.891893865562
 21
630.8625091998606
  0
LINE
  8
_0-3_躯体と製品
  6
CONTINUOUS
 62
    7
 10
421.891893865562
 20
630.8625091998606
 11
421.891893865562
 21
630.56250919986064
  0
LINE
  8
_0-3_躯体と製品
  6
CONTINUOUS
 62
    7
 10
421.891893865562
 20
630.56250919986064
 11
424.09189386556227
 21
630.56250919986064
  0
ARC
  8
_0-3_躯体と製品
  6
CONTINUOUS
 62
    7
 10
424.09189386556227
 20
631.06250919986064
 40
0.4999999999999999
 50
270
 51
0.0000000000000127
  0
LINE
  8
_0-3_躯体と製品
  6
CONTINUOUS
 62
    7
 10
424.59189386556227
 20
631.06250919986064
 11
424.59189386556227
 21
632.06250919986064
  0
ARC
  8
_0-3_躯体と製品
  6
CONTINUOUS
 62
    7
 10
424.09189386556227
 20
632.06250919986064
 40
0.4999999999999999
 50
0.0000000000000052
 51
90.000000000000014
  0
LINE
  8
_0-3_躯体と製品
  6
CONTINUOUS
 62
    7
 10
424.09189386556227
 20
632.56250919986064
 11
423.891893865562
 21
632.56250919986064
  0
LINE
  8
_0-3_躯体と製品
  6
CONTINUOUS
 62
    7
 10
423.891893865562
 20
632.56250919986064
 11
423.891893865562
 21
636.06250919986064
  0
ARC
  8
_0-3_躯体と製品
  6
CONTINUOUS
 62
    7
 10
424.19189386556207
 20
636.06250919986053
 40
0.3000000000000568
 50
89.999999999976126
 51
179.99999999998047
  0
LINE
  8
_0-3_躯体と製品
  6
CONTINUOUS
 62
    7
 10
424.19189386556218
 20
636.3625091998606
 11
424.59189386556227
 21
636.3625091998606
  0
LINE
  8
_0-3_躯体と製品
  6
CONTINUOUS
 62
    7
 10
424.59189386556227
 20
636.3625091998606
 11
424.59189386556227
 21
636.06250919986064
  0
LINE
  8
_0-3_躯体と製品
  6
CONTINUOUS
 62
    7
 10
424.59189386556227
 20
636.06250919986064
 11
425.391893865562
 21
636.06250919986064
  0
LINE
  8
_0-3_躯体と製品
  6
CONTINUOUS
 62
    7
 10
425.391893865562
 20
636.06250919986064
 11
425.391893865562
 21
636.3625091998606
  0
LINE
  8
_0-3_躯体と製品
  6
CONTINUOUS
 62
    7
 10
425.391893865562
 20
636.3625091998606
 11
426.391893865562
 21
636.3625091998606
  0
LINE
  8
_0-3_躯体と製品
  6
CONTINUOUS
 62
    7
 10
426.391893865562
 20
636.3625091998606
 11
426.391893865562
 21
636.06250919986064
  0
LINE
  8
_0-3_躯体と製品
  6
CONTINUOUS
 62
    7
 10
426.391893865562
 20
636.06250919986064
 11
427.391893865562
 21
636.06250919986064
  0
LINE
  8
_0-3_躯体と製品
  6
CONTINUOUS
 62
    7
 10
427.391893865562
 20
636.06250919986064
 11
427.391893865562
 21
636.3625091998606
  0
LINE
  8
_0-3_躯体と製品
  6
CONTINUOUS
 62
    7
 10
427.391893865562
 20
636.3625091998606
 11
427.59189386556227
 21
636.3625091998606
  0
ARC
  8
_0-3_躯体と製品
  6
CONTINUOUS
 62
    7
 10
427.59189386556216
 20
637.16250919986044
 40
0.7999999999998292
 50
270.00000000000733
 51
0.0000000000089691
  0
LINE
  8
_0-3_躯体と製品
  6
CONTINUOUS
 62
    7
 10
428.391893865562
 20
637.16250919986055
 11
428.391893865562
 21
640.06250919986064
  0
LINE
  8
_0-3_躯体と製品
  6
CONTINUOUS
 62
    7
 10
428.391893865562
 20
640.06250919986064
 11
427.891893865562
 21
640.06250919986064
  0
ARC
  8
_0-3_躯体と製品
  6
CONTINUOUS
 62
    7
 10
427.891893865562
 20
639.56250919986064
 40
0.4999999999999999
 50
90
 51
180
  0
LINE
  8
_0-3_躯体と製品
  6
CONTINUOUS
 62
    7
 10
427.391893865562
 20
639.56250919986064
 11
427.391893865562
 21
639.06250919986064
  0
ARC
  8
_0-3_躯体と製品
  6
CONTINUOUS
 62
    7
 10
426.891893865562
 20
639.06250919986064
 40
0.4999999999999999
 50
270
 51
0
  0
LINE
  8
_0-3_躯体と製品
  6
CONTINUOUS
 62
    7
 10
426.891893865562
 20
638.56250919986064
 11
421.19189386556218
 21
638.56250919986064
  0
LINE
  8
_0-3_躯体と製品
  6
CONTINUOUS
 62
    7
 10
421.19189386556218
 20
638.56250919986064
 11
420.891893865562
 21
638.26250919986069
  0
LINE
  8
_0-3_躯体と製品
  6
CONTINUOUS
 62
    7
 10
420.891893865562
 20
638.26250919986069
 11
420.59189386556227
 21
638.56250919986064
  0
LINE
  8
_0-3_躯体と製品
  6
CONTINUOUS
 62
    7
 10
420.59189386556227
 20
638.56250919986064
 11
413.891893865562
 21
638.56250919986064
  0
ARC
  8
_0-3_躯体と製品
  6
CONTINUOUS
 62
    7
 10
413.891893865562
 20
639.06250919986064
 40
0.4999999999999999
 50
180
 51
270
  0
LINE
  8
_0-3_躯体と製品
  6
CONTINUOUS
 62
    7
 10
413.391893865562
 20
639.06250919986064
 11
413.391893865562
 21
644.76250919986069
  0
LINE
  8
_0-3_躯体と製品
  6
CONTINUOUS
 62
    7
 10
413.391893865562
 20
644.76250919986069
 11
413.09189386556227
 21
645.06250919986064
  0
LINE
  8
_0-3_躯体と製品
  6
CONTINUOUS
 62
    7
 10
413.09189386556227
 20
645.06250919986064
 11
413.391893865562
 21
645.3625091998606
  0
LINE
  8
_0-3_躯体と製品
  6
CONTINUOUS
 62
    7
 10
413.391893865562
 20
645.3625091998606
 11
413.391893865562
 21
650.56250919986064
  0
LINE
  8
_0-3_躯体と製品
  6
CONTINUOUS
 62
    7
 10
413.391893865562
 20
650.56250919986064
 11
411.391893865562
 21
650.56250919986064
  0
LINE
  8
_0-3_躯体と製品
  6
CONTINUOUS
 62
    7
 10
580.891893865562
 20
631.56250919986064
 11
426.891893865562
 21
631.56250919986064
  0
LINE
  8
_0-3_躯体と製品
  6
CONTINUOUS
 62
    7
 10
580.391893865562
 20
630.56250919986064
 11
427.391893865562
 21
630.56250919986064
  0
ARC
  8
_0-3_躯体と製品
  6
CONTINUOUS
 62
    7
 10
427.391893865562
 20
631.06250919986064
 40
0.4999999999999999
 50
180
 51
270
  0
LINE
  8
_0-3_躯体と製品
  6
CONTINUOUS
 62
    7
 10
426.891893865562
 20
631.06250919986064
 11
426.891893865562
 21
632.56250919986064
  0
LINE
  8
_0-3_躯体と製品
  6
CONTINUOUS
 62
    7
 10
426.891893865562
 20
632.56250919986064
 11
425.391893865562
 21
632.56250919986064
  0
ARC
  8
_0-3_躯体と製品
  6
CONTINUOUS
 62
    7
 10
425.391893865562
 20
634.06250919986064
 40
1.4999999999999856
 50
179.99999999999943
 51
270.00000000000057
  0
LINE
  8
_0-3_躯体と製品
  6
CONTINUOUS
 62
    7
 10
423.891893865562
 20
634.06250919986064
 11
423.891893865562
 21
636.06250919986064
  0
LINE
  8
_0-3_躯体と製品
  6
CONTINUOUS
 62
    7
 10
423.891893865562
 20
636.06250919986064
 11
427.891893865562
 21
636.06250919986064
  0
ARC
  8
_0-3_躯体と製品
  6
CONTINUOUS
 62
    7
 10
427.891893865562
 20
639.06250919986064
 40
3
 50
270
 51
0.0000000000000127
  0
LINE
  8
_0-3_躯体と製品
  6
CONTINUOUS
 62
    7
 10
430.891893865562
 20
639.06250919986064
 11
430.891893865562
 21
650.06250919986064
  0
ARC
  8
_0-3_躯体と製品
  6
CONTINUOUS
 62
    7
 10
427.891893865562
 20
650.06250919986064
 40
3
 50
0.0000000000000052
 51
90.000000000000014
  0
LINE
  8
_0-3_躯体と製品
  6
CONTINUOUS
 62
    7
 10
427.891893865562
 20
653.06250919986064
 11
423.891893865562
 21
653.06250919986064
  0
LINE
  8
_0-3_躯体と製品
  6
CONTINUOUS
 62
    7
 10
423.891893865562
 20
653.06250919986064
 11
423.891893865562
 21
657.56250919986064
  0
ARC
  8
_0-3_躯体と製品
  6
CONTINUOUS
 62
    7
 10
424.891893865562
 20
657.56250919986064
 40
0.9999999999999998
 50
89.999999999999986
 51
180
  0
LINE
  8
_0-3_躯体と製品
  6
CONTINUOUS
 62
    7
 10
424.891893865562
 20
658.56250919986064
 11
582.891893865562
 21
658.56250919986064
  0
ARC
  8
_0-3_躯体と製品
  6
CONTINUOUS
 62
    7
 10
582.891893865562
 20
657.56250919986064
 40
0.9999999999999998
 50
0
 51
90
  0
LINE
  8
_0-3_躯体と製品
  6
CONTINUOUS
 62
    7
 10
583.891893865562
 20
657.56250919986064
 11
583.891893865562
 21
653.06250919986064
  0
LINE
  8
_0-3_躯体と製品
  6
CONTINUOUS
 62
    7
 10
583.891893865562
 20
653.06250919986064
 11
579.891893865562
 21
653.06250919986064
  0
ARC
  8
_0-3_躯体と製品
  6
CONTINUOUS
 62
    7
 10
579.891893865562
 20
650.06250919986064
 40
3
 50
90
 51
180
  0
LINE
  8
_0-3_躯体と製品
  6
CONTINUOUS
 62
    7
 10
576.891893865562
 20
650.06250919986064
 11
576.891893865562
 21
639.06250919986064
  0
ARC
  8
_0-3_躯体と製品
  6
CONTINUOUS
 62
    7
 10
579.891893865562
 20
639.06250919986064
 40
3
 50
180
 51
270
  0
LINE
  8
_0-3_躯体と製品
  6
CONTINUOUS
 62
    7
 10
579.891893865562
 20
636.06250919986064
 11
583.891893865562
 21
636.06250919986064
  0
LINE
  8
_0-3_躯体と製品
  6
CONTINUOUS
 62
    7
 10
583.891893865562
 20
636.06250919986064
 11
583.891893865562
 21
634.06250919986064
  0
ARC
  8
_0-3_躯体と製品
  6
CONTINUOUS
 62
    7
 10
582.391893865562
 20
634.06250919986064
 40
1.5
 50
270
 51
0
  0
LINE
  8
_0-3_躯体と製品
  6
CONTINUOUS
 62
    7
 10
582.391893865562
 20
632.56250919986064
 11
580.891893865562
 21
632.56250919986064
  0
LINE
  8
_0-3_躯体と製品
  6
CONTINUOUS
 62
    7
 10
580.891893865562
 20
632.56250919986064
 11
580.891893865562
 21
631.06250919986064
  0
LINE
  8
_0-3_躯体と製品
  6
CONTINUOUS
 62
    7
 10
580.891893865562
 20
631.06250919986064
 11
580.391893865562
 21
630.56250919986064
  0
LINE
  8
_0-3_躯体と製品
  6
CONTINUOUS
 62
    7
 10
424.891893865562
 20
653.06250919986064
 11
424.891893865562
 21
657.56250919986064
  0
LINE
  8
_0-3_躯体と製品
  6
CONTINUOUS
 62
    7
 10
424.891893865562
 20
657.56250919986064
 11
582.891893865562
 21
657.56250919986064
  0
LINE
  8
_0-3_躯体と製品
  6
CONTINUOUS
 62
    7
 10
582.891893865562
 20
657.56250919986064
 11
582.891893865562
 21
653.06250919986064
  0
LINE
  8
_0-3_躯体と製品
  6
CONTINUOUS
 62
    7
 10
461.391893865562
 20
637.56250919986064
 11
468.391893865562
 21
637.56250919986064
  0
LINE
  8
_0-3_躯体と製品
  6
CONTINUOUS
 62
    7
 10
468.391893865562
 20
637.56250919986064
 11
468.891893865562
 21
638.06250919986064
  0
LINE
  8
_0-3_躯体と製品
  6
CONTINUOUS
 62
    7
 10
468.891893865562
 20
638.06250919986064
 11
468.891893865562
 21
651.06250919986064
  0
LINE
  8
_0-3_躯体と製品
  6
CONTINUOUS
 62
    7
 10
468.891893865562
 20
651.06250919986064
 11
468.391893865562
 21
651.56250919986064
  0
LINE
  8
_0-3_躯体と製品
  6
CONTINUOUS
 62
    7
 10
468.391893865562
 20
651.56250919986064
 11
461.391893865562
 21
651.56250919986064
  0
LINE
  8
_0-3_躯体と製品
  6
CONTINUOUS
 62
    7
 10
461.391893865562
 20
651.56250919986064
 11
460.891893865562
 21
651.06250919986064
  0
LINE
  8
_0-3_躯体と製品
  6
CONTINUOUS
 62
    7
 10
460.891893865562
 20
651.06250919986064
 11
460.891893865562
 21
638.06250919986064
  0
LINE
  8
_0-3_躯体と製品
  6
CONTINUOUS
 62
    7
 10
460.891893865562
 20
638.06250919986064
 11
461.391893865562
 21
637.56250919986064
  0
LINE
  8
_0-3_躯体と製品
  6
CONTINUOUS
 62
    7
 10
473.891893865562
 20
636.06250919986064
 11
500.891893865562
 21
636.06250919986064
  0
LINE
  8
_0-3_躯体と製品
  6
CONTINUOUS
 62
    7
 10
500.891893865562
 20
636.06250919986064
 11
501.391893865562
 21
636.56250919986064
  0
LINE
  8
_0-3_躯体と製品
  6
CONTINUOUS
 62
    7
 10
501.391893865562
 20
636.56250919986064
 11
501.391893865562
 21
652.56250919986064
  0
LINE
  8
_0-3_躯体と製品
  6
CONTINUOUS
 62
    7
 10
501.391893865562
 20
652.56250919986064
 11
500.891893865562
 21
653.06250919986064
  0
LINE
  8
_0-3_躯体と製品
  6
CONTINUOUS
 62
    7
 10
500.891893865562
 20
653.06250919986064
 11
473.891893865562
 21
653.06250919986064
  0
LINE
  8
_0-3_躯体と製品
  6
CONTINUOUS
 62
    7
 10
473.891893865562
 20
653.06250919986064
 11
473.391893865562
 21
652.56250919986064
  0
LINE
  8
_0-3_躯体と製品
  6
CONTINUOUS
 62
    7
 10
473.391893865562
 20
652.56250919986064
 11
473.391893865562
 21
636.56250919986064
  0
LINE
  8
_0-3_躯体と製品
  6
CONTINUOUS
 62
    7
 10
473.391893865562
 20
636.56250919986064
 11
473.891893865562
 21
636.06250919986064
  0
LINE
  8
_0-3_躯体と製品
  6
CONTINUOUS
 62
    7
 10
436.391893865562
 20
636.06250919986064
 11
455.891893865562
 21
636.06250919986064
  0
LINE
  8
_0-3_躯体と製品
  6
CONTINUOUS
 62
    7
 10
455.891893865562
 20
636.06250919986064
 11
456.391893865562
 21
636.56250919986064
  0
LINE
  8
_0-3_躯体と製品
  6
CONTINUOUS
 62
    7
 10
456.391893865562
 20
636.56250919986064
 11
456.391893865562
 21
652.56250919986064
  0
LINE
  8
_0-3_躯体と製品
  6
CONTINUOUS
 62
    7
 10
456.391893865562
 20
652.56250919986064
 11
455.891893865562
 21
653.06250919986064
  0
LINE
  8
_0-3_躯体と製品
  6
CONTINUOUS
 62
    7
 10
455.891893865562
 20
653.06250919986064
 11
436.391893865562
 21
653.06250919986064
  0
LINE
  8
_0-3_躯体と製品
  6
CONTINUOUS
 62
    7
 10
436.391893865562
 20
653.06250919986064
 11
435.891893865562
 21
652.56250919986064
  0
LINE
  8
_0-3_躯体と製品
  6
CONTINUOUS
 62
    7
 10
435.891893865562
 20
652.56250919986064
 11
435.891893865562
 21
636.56250919986064
  0
LINE
  8
_0-3_躯体と製品
  6
CONTINUOUS
 62
    7
 10
435.891893865562
 20
636.56250919986064
 11
436.391893865562
 21
636.06250919986064
  0
LINE
  8
_0-3_躯体と製品
  6
CONTINUOUS
 62
    7
 10
546.391893865562
 20
637.56250919986064
 11
539.391893865562
 21
637.56250919986064
  0
LINE
  8
_0-3_躯体と製品
  6
CONTINUOUS
 62
    7
 10
539.391893865562
 20
637.56250919986064
 11
538.891893865562
 21
638.06250919986064
  0
LINE
  8
_0-3_躯体と製品
  6
CONTINUOUS
 62
    7
 10
538.891893865562
 20
638.06250919986064
 11
538.891893865562
 21
651.06250919986064
  0
LINE
  8
_0-3_躯体と製品
  6
CONTINUOUS
 62
    7
 10
538.891893865562
 20
651.06250919986064
 11
539.391893865562
 21
651.56250919986064
  0
LINE
  8
_0-3_躯体と製品
  6
CONTINUOUS
 62
    7
 10
539.391893865562
 20
651.56250919986064
 11
546.391893865562
 21
651.56250919986064
  0
LINE
  8
_0-3_躯体と製品
  6
CONTINUOUS
 62
    7
 10
546.391893865562
 20
651.56250919986064
 11
546.891893865562
 21
651.06250919986064
  0
LINE
  8
_0-3_躯体と製品
  6
CONTINUOUS
 62
    7
 10
546.891893865562
 20
651.06250919986064
 11
546.891893865562
 21
638.06250919986064
  0
LINE
  8
_0-3_躯体と製品
  6
CONTINUOUS
 62
    7
 10
546.891893865562
 20
638.06250919986064
 11
546.391893865562
 21
637.56250919986064
  0
LINE
  8
_0-3_躯体と製品
  6
CONTINUOUS
 62
    7
 10
533.891893865562
 20
636.06250919986064
 11
506.891893865562
 21
636.06250919986064
  0
LINE
  8
_0-3_躯体と製品
  6
CONTINUOUS
 62
    7
 10
506.891893865562
 20
636.06250919986064
 11
506.391893865562
 21
636.56250919986064
  0
LINE
  8
_0-3_躯体と製品
  6
CONTINUOUS
 62
    7
 10
506.391893865562
 20
636.56250919986064
 11
506.391893865562
 21
652.56250919986064
  0
LINE
  8
_0-3_躯体と製品
  6
CONTINUOUS
 62
    7
 10
506.391893865562
 20
652.56250919986064
 11
506.891893865562
 21
653.06250919986064
  0
LINE
  8
_0-3_躯体と製品
  6
CONTINUOUS
 62
    7
 10
506.891893865562
 20
653.06250919986064
 11
533.891893865562
 21
653.06250919986064
  0
LINE
  8
_0-3_躯体と製品
  6
CONTINUOUS
 62
    7
 10
533.891893865562
 20
653.06250919986064
 11
534.391893865562
 21
652.56250919986064
  0
LINE
  8
_0-3_躯体と製品
  6
CONTINUOUS
 62
    7
 10
534.391893865562
 20
652.56250919986064
 11
534.391893865562
 21
636.56250919986064
  0
LINE
  8
_0-3_躯体と製品
  6
CONTINUOUS
 62
    7
 10
534.391893865562
 20
636.56250919986064
 11
533.891893865562
 21
636.06250919986064
  0
LINE
  8
_0-3_躯体と製品
  6
CONTINUOUS
 62
    7
 10
571.391893865562
 20
636.06250919986064
 11
551.891893865562
 21
636.06250919986064
  0
LINE
  8
_0-3_躯体と製品
  6
CONTINUOUS
 62
    7
 10
551.891893865562
 20
636.06250919986064
 11
551.391893865562
 21
636.56250919986064
  0
LINE
  8
_0-3_躯体と製品
  6
CONTINUOUS
 62
    7
 10
551.391893865562
 20
636.56250919986064
 11
551.391893865562
 21
652.56250919986064
  0
LINE
  8
_0-3_躯体と製品
  6
CONTINUOUS
 62
    7
 10
551.391893865562
 20
652.56250919986064
 11
551.891893865562
 21
653.06250919986064
  0
LINE
  8
_0-3_躯体と製品
  6
CONTINUOUS
 62
    7
 10
551.891893865562
 20
653.06250919986064
 11
571.391893865562
 21
653.06250919986064
  0
LINE
  8
_0-3_躯体と製品
  6
CONTINUOUS
 62
    7
 10
571.391893865562
 20
653.06250919986064
 11
571.891893865562
 21
652.56250919986064
  0
LINE
  8
_0-3_躯体と製品
  6
CONTINUOUS
 62
    7
 10
571.891893865562
 20
652.56250919986064
 11
571.891893865562
 21
636.56250919986064
  0
LINE
  8
_0-3_躯体と製品
  6
CONTINUOUS
 62
    7
 10
571.891893865562
 20
636.56250919986064
 11
571.391893865562
 21
636.06250919986064
  0
LINE
  8
_0-3_躯体と製品
  6
CONTINUOUS
 62
    7
 10
577.391893865562
 20
650.56250919986064
 11
577.391893865562
 21
639.3625091998606
  0
ARC
  8
_0-3_躯体と製品
  6
CONTINUOUS
 62
    7
 10
580.391893865562
 20
639.3625091998606
 40
3
 50
180
 51
270
  0
LINE
  8
_0-3_躯体と製品
  6
CONTINUOUS
 62
    7
 10
580.391893865562
 20
636.3625091998606
 11
580.391893865562
 21
636.06250919986064
  0
LINE
  8
_0-3_躯体と製品
  6
CONTINUOUS
 62
    7
 10
580.391893865562
 20
636.06250919986064
 11
581.391893865562
 21
636.06250919986064
  0
LINE
  8
_0-3_躯体と製品
  6
CONTINUOUS
 62
    7
 10
581.391893865562
 20
636.06250919986064
 11
581.391893865562
 21
636.3625091998606
  0
LINE
  8
_0-3_躯体と製品
  6
CONTINUOUS
 62
    7
 10
581.391893865562
 20
636.3625091998606
 11
582.391893865562
 21
636.3625091998606
  0
LINE
  8
_0-3_躯体と製品
  6
CONTINUOUS
 62
    7
 10
582.391893865562
 20
636.3625091998606
 11
582.391893865562
 21
636.06250919986064
  0
LINE
  8
_0-3_躯体と製品
  6
CONTINUOUS
 62
    7
 10
582.391893865562
 20
636.06250919986064
 11
583.19189386556218
 21
636.06250919986064
  0
LINE
  8
_0-3_躯体と製品
  6
CONTINUOUS
 62
    7
 10
583.19189386556218
 20
636.06250919986064
 11
583.19189386556218
 21
636.3625091998606
  0
LINE
  8
_0-3_躯体と製品
  6
CONTINUOUS
 62
    7
 10
583.19189386556218
 20
636.3625091998606
 11
583.59189386556227
 21
636.3625091998606
  0
ARC
  8
_0-3_躯体と製品
  6
CONTINUOUS
 62
    7
 10
583.59189386556216
 20
636.06250919986076
 40
0.2999999999998294
 50
359.99999999997613
 51
89.999999999980474
  0
LINE
  8
_0-3_躯体と製品
  6
CONTINUOUS
 62
    7
 10
583.891893865562
 20
636.06250919986064
 11
583.891893865562
 21
632.56250919986064
  0
LINE
  8
_0-3_躯体と製品
  6
CONTINUOUS
 62
    7
 10
583.891893865562
 20
632.56250919986064
 11
582.391893865562
 21
632.56250919986064
  0
ARC
  8
_0-3_躯体と製品
  6
CONTINUOUS
 62
    7
 10
582.391893865562
 20
632.06250919986064
 40
0.4999999999999999
 50
90
 51
180
  0
LINE
  8
_0-3_躯体と製品
  6
CONTINUOUS
 62
    7
 10
581.891893865562
 20
632.06250919986064
 11
581.891893865562
 21
631.06250919986064
  0
ARC
  8
_0-3_躯体と製品
  6
CONTINUOUS
 62
    7
 10
582.391893865562
 20
631.06250919986064
 40
0.4999999999999999
 50
180
 51
270
  0
LINE
  8
_0-3_躯体と製品
  6
CONTINUOUS
 62
    7
 10
582.391893865562
 20
630.56250919986064
 11
585.891893865562
 21
630.56250919986064
  0
LINE
  8
_0-3_躯体と製品
  6
CONTINUOUS
 62
    7
 10
585.891893865562
 20
630.56250919986064
 11
585.891893865562
 21
630.8625091998606
  0
LINE
  8
_0-3_躯体と製品
  6
CONTINUOUS
 62
    7
 10
585.891893865562
 20
630.8625091998606
 11
587.891893865562
 21
630.8625091998606
  0
LINE
  8
_0-3_躯体と製品
  6
CONTINUOUS
 62
    7
 10
587.891893865562
 20
630.8625091998606
 11
587.891893865562
 21
630.56250919986064
  0
LINE
  8
_0-3_躯体と製品
  6
CONTINUOUS
 62
    7
 10
587.891893865562
 20
630.56250919986064
 11
590.09189386556227
 21
630.56250919986064
  0
ARC
  8
_0-3_躯体と製品
  6
CONTINUOUS
 62
    7
 10
590.09189386556181
 20
631.06250919986019
 40
0.4999999999995452
 50
270.00000000005213
 51
0.0000000000521229
  0
LINE
  8
_0-3_躯体と製品
  6
CONTINUOUS
 62
    7
 10
590.59189386556136
 20
631.06250919986064
 11
590.59189386556136
 21
632.06250919986064
  0
ARC
  8
_0-3_躯体と製品
  6
CONTINUOUS
 62
    7
 10
590.09189386556181
 20
632.0625091998611
 40
0.4999999999995452
 50
359.99999999994787
 51
89.999999999947903
  0
LINE
  8
_0-3_躯体と製品
  6
CONTINUOUS
 62
    7
 10
590.09189386556227
 20
632.56250919986064
 11
589.891893865562
 21
632.56250919986064
  0
LINE
  8
_0-3_躯体と製品
  6
CONTINUOUS
 62
    7
 10
589.891893865562
 20
632.56250919986064
 11
589.891893865562
 21
636.06250919986064
  0
ARC
  8
_0-3_躯体と製品
  6
CONTINUOUS
 62
    7
 10
590.19189386556207
 20
636.06250919986053
 40
0.3000000000000568
 50
89.999999999976126
 51
179.99999999998047
  0
LINE
  8
_0-3_躯体と製品
  6
CONTINUOUS
 62
    7
 10
590.19189386556218
 20
636.3625091998606
 11
590.59189386556136
 21
636.3625091998606
  0
LINE
  8
_0-3_躯体と製品
  6
CONTINUOUS
 62
    7
 10
590.59189386556136
 20
636.3625091998606
 11
590.59189386556136
 21
636.06250919986064
  0
LINE
  8
_0-3_躯体と製品
  6
CONTINUOUS
 62
    7
 10
590.59189386556136
 20
636.06250919986064
 11
591.391893865562
 21
636.06250919986064
  0
LINE
  8
_0-3_躯体と製品
  6
CONTINUOUS
 62
    7
 10
591.391893865562
 20
636.06250919986064
 11
591.391893865562
 21
636.3625091998606
  0
LINE
  8
_0-3_躯体と製品
  6
CONTINUOUS
 62
    7
 10
591.391893865562
 20
636.3625091998606
 11
592.391893865562
 21
636.3625091998606
  0
LINE
  8
_0-3_躯体と製品
  6
CONTINUOUS
 62
    7
 10
592.391893865562
 20
636.3625091998606
 11
592.391893865562
 21
636.06250919986064
  0
LINE
  8
_0-3_躯体と製品
  6
CONTINUOUS
 62
    7
 10
592.391893865562
 20
636.06250919986064
 11
593.391893865562
 21
636.06250919986064
  0
LINE
  8
_0-3_躯体と製品
  6
CONTINUOUS
 62
    7
 10
593.391893865562
 20
636.06250919986064
 11
593.391893865562
 21
636.3625091998606
  0
LINE
  8
_0-3_躯体と製品
  6
CONTINUOUS
 62
    7
 10
593.391893865562
 20
636.3625091998606
 11
593.59189386556227
 21
636.3625091998606
  0
ARC
  8
_0-3_躯体と製品
  6
CONTINUOUS
 62
    7
 10
593.59189386556216
 20
637.16250919986044
 40
0.7999999999998292
 50
270.00000000000733
 51
0.0000000000089691
  0
LINE
  8
_0-3_躯体と製品
  6
CONTINUOUS
 62
    7
 10
594.391893865562
 20
637.16250919986055
 11
594.391893865562
 21
640.06250919986064
  0
LINE
  8
_0-3_躯体と製品
  6
CONTINUOUS
 62
    7
 10
594.391893865562
 20
640.06250919986064
 11
593.891893865562
 21
640.06250919986064
  0
ARC
  8
_0-3_躯体と製品
  6
CONTINUOUS
 62
    7
 10
593.891893865562
 20
639.56250919986064
 40
0.4999999999999999
 50
90
 51
180
  0
LINE
  8
_0-3_躯体と製品
  6
CONTINUOUS
 62
    7
 10
593.391893865562
 20
639.56250919986064
 11
593.391893865562
 21
639.06250919986064
  0
ARC
  8
_0-3_躯体と製品
  6
CONTINUOUS
 62
    7
 10
592.891893865562
 20
639.06250919986064
 40
0.4999999999999999
 50
270
 51
0
  0
LINE
  8
_0-3_躯体と製品
  6
CONTINUOUS
 62
    7
 10
592.891893865562
 20
638.56250919986064
 11
587.19189386556218
 21
638.56250919986064
  0
LINE
  8
_0-3_躯体と製品
  6
CONTINUOUS
 62
    7
 10
587.19189386556218
 20
638.56250919986064
 11
586.891893865562
 21
638.26250919986069
  0
LINE
  8
_0-3_躯体と製品
  6
CONTINUOUS
 62
    7
 10
586.891893865562
 20
638.26250919986069
 11
586.59189386556227
 21
638.56250919986064
  0
LINE
  8
_0-3_躯体と製品
  6
CONTINUOUS
 62
    7
 10
586.59189386556227
 20
638.56250919986064
 11
579.891893865562
 21
638.56250919986064
  0
ARC
  8
_0-3_躯体と製品
  6
CONTINUOUS
 62
    7
 10
579.891893865562
 20
639.06250919986064
 40
0.4999999999999999
 50
180
 51
270
  0
LINE
  8
_0-3_躯体と製品
  6
CONTINUOUS
 62
    7
 10
579.391893865562
 20
639.06250919986064
 11
579.391893865562
 21
644.76250919986069
  0
LINE
  8
_0-3_躯体と製品
  6
CONTINUOUS
 62
    7
 10
579.391893865562
 20
644.76250919986069
 11
579.09189386556227
 21
645.06250919986064
  0
LINE
  8
_0-3_躯体と製品
  6
CONTINUOUS
 62
    7
 10
579.09189386556227
 20
645.06250919986064
 11
579.391893865562
 21
645.3625091998606
  0
LINE
  8
_0-3_躯体と製品
  6
CONTINUOUS
 62
    7
 10
579.391893865562
 20
645.3625091998606
 11
579.391893865562
 21
650.56250919986064
  0
LINE
  8
_0-3_躯体と製品
  6
CONTINUOUS
 62
    7
 10
579.391893865562
 20
650.56250919986064
 11
577.391893865562
 21
650.56250919986064
  0
LINE
  8
_0-3_躯体と製品
  6
CONTINUOUS
 62
    7
 10
746.891893865562
 20
631.56250919986064
 11
592.891893865562
 21
631.56250919986064
  0
LINE
  8
_0-3_躯体と製品
  6
CONTINUOUS
 62
    7
 10
746.391893865562
 20
630.56250919986064
 11
593.391893865562
 21
630.56250919986064
  0
ARC
  8
_0-3_躯体と製品
  6
CONTINUOUS
 62
    7
 10
593.391893865562
 20
631.06250919986064
 40
0.4999999999999999
 50
180
 51
270
  0
LINE
  8
_0-3_躯体と製品
  6
CONTINUOUS
 62
    7
 10
592.891893865562
 20
631.06250919986064
 11
592.891893865562
 21
632.56250919986064
  0
LINE
  8
_0-3_躯体と製品
  6
CONTINUOUS
 62
    7
 10
592.891893865562
 20
632.56250919986064
 11
591.391893865562
 21
632.56250919986064
  0
ARC
  8
_0-3_躯体と製品
  6
CONTINUOUS
 62
    7
 10
591.391893865562
 20
634.06250919986064
 40
1.4999999999999856
 50
179.99999999999943
 51
270.00000000000057
  0
LINE
  8
_0-3_躯体と製品
  6
CONTINUOUS
 62
    7
 10
589.891893865562
 20
634.06250919986064
 11
589.891893865562
 21
636.06250919986064
  0
LINE
  8
_0-3_躯体と製品
  6
CONTINUOUS
 62
    7
 10
589.891893865562
 20
636.06250919986064
 11
593.891893865562
 21
636.06250919986064
  0
ARC
  8
_0-3_躯体と製品
  6
CONTINUOUS
 62
    7
 10
593.891893865562
 20
639.06250919986064
 40
3
 50
270
 51
0.0000000000000127
  0
LINE
  8
_0-3_躯体と製品
  6
CONTINUOUS
 62
    7
 10
596.891893865562
 20
639.06250919986064
 11
596.891893865562
 21
650.06250919986064
  0
ARC
  8
_0-3_躯体と製品
  6
CONTINUOUS
 62
    7
 10
593.891893865562
 20
650.06250919986064
 40
3
 50
0.0000000000000052
 51
90.000000000000014
  0
LINE
  8
_0-3_躯体と製品
  6
CONTINUOUS
 62
    7
 10
593.891893865562
 20
653.06250919986064
 11
589.891893865562
 21
653.06250919986064
  0
LINE
  8
_0-3_躯体と製品
  6
CONTINUOUS
 62
    7
 10
589.891893865562
 20
653.06250919986064
 11
589.891893865562
 21
657.56250919986064
  0
ARC
  8
_0-3_躯体と製品
  6
CONTINUOUS
 62
    7
 10
590.891893865562
 20
657.56250919986064
 40
0.9999999999999998
 50
89.999999999999986
 51
180
  0
LINE
  8
_0-3_躯体と製品
  6
CONTINUOUS
 62
    7
 10
590.891893865562
 20
658.56250919986064
 11
748.891893865562
 21
658.56250919986064
  0
ARC
  8
_0-3_躯体と製品
  6
CONTINUOUS
 62
    7
 10
748.891893865562
 20
657.56250919986064
 40
0.9999999999999998
 50
0
 51
90
  0
LINE
  8
_0-3_躯体と製品
  6
CONTINUOUS
 62
    7
 10
749.891893865562
 20
657.56250919986064
 11
749.891893865562
 21
653.06250919986064
  0
LINE
  8
_0-3_躯体と製品
  6
CONTINUOUS
 62
    7
 10
749.891893865562
 20
653.06250919986064
 11
745.891893865562
 21
653.06250919986064
  0
ARC
  8
_0-3_躯体と製品
  6
CONTINUOUS
 62
    7
 10
745.891893865562
 20
650.06250919986064
 40
3
 50
90
 51
180
  0
LINE
  8
_0-3_躯体と製品
  6
CONTINUOUS
 62
    7
 10
742.891893865562
 20
650.06250919986064
 11
742.891893865562
 21
639.06250919986064
  0
ARC
  8
_0-3_躯体と製品
  6
CONTINUOUS
 62
    7
 10
745.891893865562
 20
639.06250919986064
 40
3
 50
180
 51
270
  0
LINE
  8
_0-3_躯体と製品
  6
CONTINUOUS
 62
    7
 10
745.891893865562
 20
636.06250919986064
 11
749.891893865562
 21
636.06250919986064
  0
LINE
  8
_0-3_躯体と製品
  6
CONTINUOUS
 62
    7
 10
749.891893865562
 20
636.06250919986064
 11
749.891893865562
 21
634.06250919986064
  0
ARC
  8
_0-3_躯体と製品
  6
CONTINUOUS
 62
    7
 10
748.391893865562
 20
634.06250919986064
 40
1.5
 50
270
 51
0
  0
LINE
  8
_0-3_躯体と製品
  6
CONTINUOUS
 62
    7
 10
748.391893865562
 20
632.56250919986064
 11
746.891893865562
 21
632.56250919986064
  0
LINE
  8
_0-3_躯体と製品
  6
CONTINUOUS
 62
    7
 10
746.891893865562
 20
632.56250919986064
 11
746.891893865562
 21
631.06250919986064
  0
LINE
  8
_0-3_躯体と製品
  6
CONTINUOUS
 62
    7
 10
746.891893865562
 20
631.06250919986064
 11
746.391893865562
 21
630.56250919986064
  0
LINE
  8
_0-3_躯体と製品
  6
CONTINUOUS
 62
    7
 10
590.891893865562
 20
653.06250919986064
 11
590.891893865562
 21
657.56250919986064
  0
LINE
  8
_0-3_躯体と製品
  6
CONTINUOUS
 62
    7
 10
590.891893865562
 20
657.56250919986064
 11
748.891893865562
 21
657.56250919986064
  0
LINE
  8
_0-3_躯体と製品
  6
CONTINUOUS
 62
    7
 10
748.891893865562
 20
657.56250919986064
 11
748.891893865562
 21
653.06250919986064
  0
LINE
  8
_0-3_躯体と製品
  6
CONTINUOUS
 62
    7
 10
627.391893865562
 20
637.56250919986064
 11
634.391893865562
 21
637.56250919986064
  0
LINE
  8
_0-3_躯体と製品
  6
CONTINUOUS
 62
    7
 10
634.391893865562
 20
637.56250919986064
 11
634.891893865562
 21
638.06250919986064
  0
LINE
  8
_0-3_躯体と製品
  6
CONTINUOUS
 62
    7
 10
634.891893865562
 20
638.06250919986064
 11
634.891893865562
 21
651.06250919986064
  0
LINE
  8
_0-3_躯体と製品
  6
CONTINUOUS
 62
    7
 10
634.891893865562
 20
651.06250919986064
 11
634.391893865562
 21
651.56250919986064
  0
LINE
  8
_0-3_躯体と製品
  6
CONTINUOUS
 62
    7
 10
634.391893865562
 20
651.56250919986064
 11
627.391893865562
 21
651.56250919986064
  0
LINE
  8
_0-3_躯体と製品
  6
CONTINUOUS
 62
    7
 10
627.391893865562
 20
651.56250919986064
 11
626.891893865562
 21
651.06250919986064
  0
LINE
  8
_0-3_躯体と製品
  6
CONTINUOUS
 62
    7
 10
626.891893865562
 20
651.06250919986064
 11
626.891893865562
 21
638.06250919986064
  0
LINE
  8
_0-3_躯体と製品
  6
CONTINUOUS
 62
    7
 10
626.891893865562
 20
638.06250919986064
 11
627.391893865562
 21
637.56250919986064
  0
LINE
  8
_0-3_躯体と製品
  6
CONTINUOUS
 62
    7
 10
639.891893865562
 20
636.06250919986064
 11
666.891893865562
 21
636.06250919986064
  0
LINE
  8
_0-3_躯体と製品
  6
CONTINUOUS
 62
    7
 10
666.891893865562
 20
636.06250919986064
 11
667.391893865562
 21
636.56250919986064
  0
LINE
  8
_0-3_躯体と製品
  6
CONTINUOUS
 62
    7
 10
667.391893865562
 20
636.56250919986064
 11
667.391893865562
 21
652.56250919986064
  0
LINE
  8
_0-3_躯体と製品
  6
CONTINUOUS
 62
    7
 10
667.391893865562
 20
652.56250919986064
 11
666.891893865562
 21
653.06250919986064
  0
LINE
  8
_0-3_躯体と製品
  6
CONTINUOUS
 62
    7
 10
666.891893865562
 20
653.06250919986064
 11
639.891893865562
 21
653.06250919986064
  0
LINE
  8
_0-3_躯体と製品
  6
CONTINUOUS
 62
    7
 10
639.891893865562
 20
653.06250919986064
 11
639.391893865562
 21
652.56250919986064
  0
LINE
  8
_0-3_躯体と製品
  6
CONTINUOUS
 62
    7
 10
639.391893865562
 20
652.56250919986064
 11
639.391893865562
 21
636.56250919986064
  0
LINE
  8
_0-3_躯体と製品
  6
CONTINUOUS
 62
    7
 10
639.391893865562
 20
636.56250919986064
 11
639.891893865562
 21
636.06250919986064
  0
LINE
  8
_0-3_躯体と製品
  6
CONTINUOUS
 62
    7
 10
602.391893865562
 20
636.06250919986064
 11
621.891893865562
 21
636.06250919986064
  0
LINE
  8
_0-3_躯体と製品
  6
CONTINUOUS
 62
    7
 10
621.891893865562
 20
636.06250919986064
 11
622.391893865562
 21
636.56250919986064
  0
LINE
  8
_0-3_躯体と製品
  6
CONTINUOUS
 62
    7
 10
622.391893865562
 20
636.56250919986064
 11
622.391893865562
 21
652.56250919986064
  0
LINE
  8
_0-3_躯体と製品
  6
CONTINUOUS
 62
    7
 10
622.391893865562
 20
652.56250919986064
 11
621.891893865562
 21
653.06250919986064
  0
LINE
  8
_0-3_躯体と製品
  6
CONTINUOUS
 62
    7
 10
621.891893865562
 20
653.06250919986064
 11
602.391893865562
 21
653.06250919986064
  0
LINE
  8
_0-3_躯体と製品
  6
CONTINUOUS
 62
    7
 10
602.391893865562
 20
653.06250919986064
 11
601.891893865562
 21
652.56250919986064
  0
LINE
  8
_0-3_躯体と製品
  6
CONTINUOUS
 62
    7
 10
601.891893865562
 20
652.56250919986064
 11
601.891893865562
 21
636.56250919986064
  0
LINE
  8
_0-3_躯体と製品
  6
CONTINUOUS
 62
    7
 10
601.891893865562
 20
636.56250919986064
 11
602.391893865562
 21
636.06250919986064
  0
LINE
  8
_0-3_躯体と製品
  6
CONTINUOUS
 62
    7
 10
712.391893865562
 20
637.56250919986064
 11
705.391893865562
 21
637.56250919986064
  0
LINE
  8
_0-3_躯体と製品
  6
CONTINUOUS
 62
    7
 10
705.391893865562
 20
637.56250919986064
 11
704.891893865562
 21
638.06250919986064
  0
LINE
  8
_0-3_躯体と製品
  6
CONTINUOUS
 62
    7
 10
704.891893865562
 20
638.06250919986064
 11
704.891893865562
 21
651.06250919986064
  0
LINE
  8
_0-3_躯体と製品
  6
CONTINUOUS
 62
    7
 10
704.891893865562
 20
651.06250919986064
 11
705.391893865562
 21
651.56250919986064
  0
LINE
  8
_0-3_躯体と製品
  6
CONTINUOUS
 62
    7
 10
705.391893865562
 20
651.56250919986064
 11
712.391893865562
 21
651.56250919986064
  0
LINE
  8
_0-3_躯体と製品
  6
CONTINUOUS
 62
    7
 10
712.391893865562
 20
651.56250919986064
 11
712.891893865562
 21
651.06250919986064
  0
LINE
  8
_0-3_躯体と製品
  6
CONTINUOUS
 62
    7
 10
712.891893865562
 20
651.06250919986064
 11
712.891893865562
 21
638.06250919986064
  0
LINE
  8
_0-3_躯体と製品
  6
CONTINUOUS
 62
    7
 10
712.891893865562
 20
638.06250919986064
 11
712.391893865562
 21
637.56250919986064
  0
LINE
  8
_0-3_躯体と製品
  6
CONTINUOUS
 62
    7
 10
699.891893865562
 20
636.06250919986064
 11
672.891893865562
 21
636.06250919986064
  0
LINE
  8
_0-3_躯体と製品
  6
CONTINUOUS
 62
    7
 10
672.891893865562
 20
636.06250919986064
 11
672.391893865562
 21
636.56250919986064
  0
LINE
  8
_0-3_躯体と製品
  6
CONTINUOUS
 62
    7
 10
672.391893865562
 20
636.56250919986064
 11
672.391893865562
 21
652.56250919986064
  0
LINE
  8
_0-3_躯体と製品
  6
CONTINUOUS
 62
    7
 10
672.391893865562
 20
652.56250919986064
 11
672.891893865562
 21
653.06250919986064
  0
LINE
  8
_0-3_躯体と製品
  6
CONTINUOUS
 62
    7
 10
672.891893865562
 20
653.06250919986064
 11
699.891893865562
 21
653.06250919986064
  0
LINE
  8
_0-3_躯体と製品
  6
CONTINUOUS
 62
    7
 10
699.891893865562
 20
653.06250919986064
 11
700.391893865562
 21
652.56250919986064
  0
LINE
  8
_0-3_躯体と製品
  6
CONTINUOUS
 62
    7
 10
700.391893865562
 20
652.56250919986064
 11
700.391893865562
 21
636.56250919986064
  0
LINE
  8
_0-3_躯体と製品
  6
CONTINUOUS
 62
    7
 10
700.391893865562
 20
636.56250919986064
 11
699.891893865562
 21
636.06250919986064
  0
LINE
  8
_0-3_躯体と製品
  6
CONTINUOUS
 62
    7
 10
737.391893865562
 20
636.06250919986064
 11
717.891893865562
 21
636.06250919986064
  0
LINE
  8
_0-3_躯体と製品
  6
CONTINUOUS
 62
    7
 10
717.891893865562
 20
636.06250919986064
 11
717.391893865562
 21
636.56250919986064
  0
LINE
  8
_0-3_躯体と製品
  6
CONTINUOUS
 62
    7
 10
717.391893865562
 20
636.56250919986064
 11
717.391893865562
 21
652.56250919986064
  0
LINE
  8
_0-3_躯体と製品
  6
CONTINUOUS
 62
    7
 10
717.391893865562
 20
652.56250919986064
 11
717.891893865562
 21
653.06250919986064
  0
LINE
  8
_0-3_躯体と製品
  6
CONTINUOUS
 62
    7
 10
717.891893865562
 20
653.06250919986064
 11
737.391893865562
 21
653.06250919986064
  0
LINE
  8
_0-3_躯体と製品
  6
CONTINUOUS
 62
    7
 10
737.391893865562
 20
653.06250919986064
 11
737.891893865562
 21
652.56250919986064
  0
LINE
  8
_0-3_躯体と製品
  6
CONTINUOUS
 62
    7
 10
737.891893865562
 20
652.56250919986064
 11
737.891893865562
 21
636.56250919986064
  0
LINE
  8
_0-3_躯体と製品
  6
CONTINUOUS
 62
    7
 10
737.891893865562
 20
636.56250919986064
 11
737.391893865562
 21
636.06250919986064
  0
LINE
  8
_0-3_躯体と製品
  6
CONTINUOUS
 62
    7
 10
743.391893865562
 20
650.56250919986064
 11
743.391893865562
 21
639.3625091998606
  0
ARC
  8
_0-3_躯体と製品
  6
CONTINUOUS
 62
    7
 10
746.391893865562
 20
639.3625091998606
 40
3
 50
180
 51
270
  0
LINE
  8
_0-3_躯体と製品
  6
CONTINUOUS
 62
    7
 10
746.391893865562
 20
636.3625091998606
 11
746.391893865562
 21
636.06250919986064
  0
LINE
  8
_0-3_躯体と製品
  6
CONTINUOUS
 62
    7
 10
746.391893865562
 20
636.06250919986064
 11
747.391893865562
 21
636.06250919986064
  0
LINE
  8
_0-3_躯体と製品
  6
CONTINUOUS
 62
    7
 10
747.391893865562
 20
636.06250919986064
 11
747.391893865562
 21
636.3625091998606
  0
LINE
  8
_0-3_躯体と製品
  6
CONTINUOUS
 62
    7
 10
747.391893865562
 20
636.3625091998606
 11
748.391893865562
 21
636.3625091998606
  0
LINE
  8
_0-3_躯体と製品
  6
CONTINUOUS
 62
    7
 10
748.391893865562
 20
636.3625091998606
 11
748.391893865562
 21
636.06250919986064
  0
LINE
  8
_0-3_躯体と製品
  6
CONTINUOUS
 62
    7
 10
748.391893865562
 20
636.06250919986064
 11
749.19189386556218
 21
636.06250919986064
  0
LINE
  8
_0-3_躯体と製品
  6
CONTINUOUS
 62
    7
 10
749.19189386556218
 20
636.06250919986064
 11
749.19189386556218
 21
636.3625091998606
  0
LINE
  8
_0-3_躯体と製品
  6
CONTINUOUS
 62
    7
 10
749.19189386556218
 20
636.3625091998606
 11
749.59189386556227
 21
636.3625091998606
  0
ARC
  8
_0-3_躯体と製品
  6
CONTINUOUS
 62
    7
 10
749.59189386556216
 20
636.06250919986076
 40
0.2999999999998294
 50
359.99999999997613
 51
89.999999999980474
  0
LINE
  8
_0-3_躯体と製品
  6
CONTINUOUS
 62
    7
 10
749.891893865562
 20
636.06250919986064
 11
749.891893865562
 21
632.56250919986064
  0
LINE
  8
_0-3_躯体と製品
  6
CONTINUOUS
 62
    7
 10
749.891893865562
 20
632.56250919986064
 11
748.391893865562
 21
632.56250919986064
  0
ARC
  8
_0-3_躯体と製品
  6
CONTINUOUS
 62
    7
 10
748.391893865562
 20
632.06250919986064
 40
0.4999999999999999
 50
90
 51
180
  0
LINE
  8
_0-3_躯体と製品
  6
CONTINUOUS
 62
    7
 10
747.891893865562
 20
632.06250919986064
 11
747.891893865562
 21
631.06250919986064
  0
ARC
  8
_0-3_躯体と製品
  6
CONTINUOUS
 62
    7
 10
748.391893865562
 20
631.06250919986064
 40
0.4999999999999999
 50
180
 51
270
  0
LINE
  8
_0-3_躯体と製品
  6
CONTINUOUS
 62
    7
 10
748.391893865562
 20
630.56250919986064
 11
751.891893865562
 21
630.56250919986064
  0
LINE
  8
_0-3_躯体と製品
  6
CONTINUOUS
 62
    7
 10
751.891893865562
 20
630.56250919986064
 11
751.891893865562
 21
630.8625091998606
  0
LINE
  8
_0-3_躯体と製品
  6
CONTINUOUS
 62
    7
 10
751.891893865562
 20
630.8625091998606
 11
753.891893865562
 21
630.8625091998606
  0
LINE
  8
_0-3_躯体と製品
  6
CONTINUOUS
 62
    7
 10
753.891893865562
 20
630.8625091998606
 11
753.891893865562
 21
630.56250919986064
  0
LINE
  8
_0-3_躯体と製品
  6
CONTINUOUS
 62
    7
 10
753.891893865562
 20
630.56250919986064
 11
756.09189386556227
 21
630.56250919986064
  0
ARC
  8
_0-3_躯体と製品
  6
CONTINUOUS
 62
    7
 10
756.09189386556227
 20
631.06250919986064
 40
0.4999999999999999
 50
270
 51
0.0000000000000127
  0
LINE
  8
_0-3_躯体と製品
  6
CONTINUOUS
 62
    7
 10
756.59189386556227
 20
631.06250919986064
 11
756.59189386556227
 21
632.06250919986064
  0
ARC
  8
_0-3_躯体と製品
  6
CONTINUOUS
 62
    7
 10
756.09189386556227
 20
632.06250919986064
 40
0.4999999999999999
 50
0.0000000000000052
 51
90.000000000000014
  0
LINE
  8
_0-3_躯体と製品
  6
CONTINUOUS
 62
    7
 10
756.09189386556227
 20
632.56250919986064
 11
755.891893865562
 21
632.56250919986064
  0
LINE
  8
_0-3_躯体と製品
  6
CONTINUOUS
 62
    7
 10
755.891893865562
 20
632.56250919986064
 11
755.891893865562
 21
636.06250919986064
  0
ARC
  8
_0-3_躯体と製品
  6
CONTINUOUS
 62
    7
 10
756.19189386556207
 20
636.06250919986053
 40
0.3000000000000568
 50
89.999999999976126
 51
179.99999999998047
  0
LINE
  8
_0-3_躯体と製品
  6
CONTINUOUS
 62
    7
 10
756.19189386556218
 20
636.3625091998606
 11
756.59189386556227
 21
636.3625091998606
  0
LINE
  8
_0-3_躯体と製品
  6
CONTINUOUS
 62
    7
 10
756.59189386556227
 20
636.3625091998606
 11
756.59189386556227
 21
636.06250919986064
  0
LINE
  8
_0-3_躯体と製品
  6
CONTINUOUS
 62
    7
 10
756.59189386556227
 20
636.06250919986064
 11
757.391893865562
 21
636.06250919986064
  0
LINE
  8
_0-3_躯体と製品
  6
CONTINUOUS
 62
    7
 10
757.391893865562
 20
636.06250919986064
 11
757.391893865562
 21
636.3625091998606
  0
LINE
  8
_0-3_躯体と製品
  6
CONTINUOUS
 62
    7
 10
757.391893865562
 20
636.3625091998606
 11
758.391893865562
 21
636.3625091998606
  0
LINE
  8
_0-3_躯体と製品
  6
CONTINUOUS
 62
    7
 10
758.391893865562
 20
636.3625091998606
 11
758.391893865562
 21
636.06250919986064
  0
LINE
  8
_0-3_躯体と製品
  6
CONTINUOUS
 62
    7
 10
758.391893865562
 20
636.06250919986064
 11
759.391893865562
 21
636.06250919986064
  0
LINE
  8
_0-3_躯体と製品
  6
CONTINUOUS
 62
    7
 10
759.391893865562
 20
636.06250919986064
 11
759.391893865562
 21
636.3625091998606
  0
LINE
  8
_0-3_躯体と製品
  6
CONTINUOUS
 62
    7
 10
759.391893865562
 20
636.3625091998606
 11
759.59189386556227
 21
636.3625091998606
  0
ARC
  8
_0-3_躯体と製品
  6
CONTINUOUS
 62
    7
 10
759.59189386556216
 20
637.16250919986044
 40
0.7999999999998292
 50
270.00000000000733
 51
0.0000000000089691
  0
LINE
  8
_0-3_躯体と製品
  6
CONTINUOUS
 62
    7
 10
760.391893865562
 20
637.16250919986055
 11
760.391893865562
 21
640.06250919986064
  0
LINE
  8
_0-3_躯体と製品
  6
CONTINUOUS
 62
    7
 10
760.391893865562
 20
640.06250919986064
 11
759.891893865562
 21
640.06250919986064
  0
ARC
  8
_0-3_躯体と製品
  6
CONTINUOUS
 62
    7
 10
759.891893865562
 20
639.56250919986064
 40
0.4999999999999999
 50
90
 51
180
  0
LINE
  8
_0-3_躯体と製品
  6
CONTINUOUS
 62
    7
 10
759.391893865562
 20
639.56250919986064
 11
759.391893865562
 21
639.06250919986064
  0
ARC
  8
_0-3_躯体と製品
  6
CONTINUOUS
 62
    7
 10
758.891893865562
 20
639.06250919986064
 40
0.4999999999999999
 50
270
 51
0
  0
LINE
  8
_0-3_躯体と製品
  6
CONTINUOUS
 62
    7
 10
758.891893865562
 20
638.56250919986064
 11
753.19189386556218
 21
638.56250919986064
  0
LINE
  8
_0-3_躯体と製品
  6
CONTINUOUS
 62
    7
 10
753.19189386556218
 20
638.56250919986064
 11
752.891893865562
 21
638.26250919986069
  0
LINE
  8
_0-3_躯体と製品
  6
CONTINUOUS
 62
    7
 10
752.891893865562
 20
638.26250919986069
 11
752.59189386556227
 21
638.56250919986064
  0
LINE
  8
_0-3_躯体と製品
  6
CONTINUOUS
 62
    7
 10
752.59189386556227
 20
638.56250919986064
 11
745.891893865562
 21
638.56250919986064
  0
ARC
  8
_0-3_躯体と製品
  6
CONTINUOUS
 62
    7
 10
745.891893865562
 20
639.06250919986064
 40
0.4999999999999999
 50
180
 51
270
  0
LINE
  8
_0-3_躯体と製品
  6
CONTINUOUS
 62
    7
 10
745.391893865562
 20
639.06250919986064
 11
745.391893865562
 21
644.76250919986069
  0
LINE
  8
_0-3_躯体と製品
  6
CONTINUOUS
 62
    7
 10
745.391893865562
 20
644.76250919986069
 11
745.09189386556227
 21
645.06250919986064
  0
LINE
  8
_0-3_躯体と製品
  6
CONTINUOUS
 62
    7
 10
745.09189386556227
 20
645.06250919986064
 11
745.391893865562
 21
645.3625091998606
  0
LINE
  8
_0-3_躯体と製品
  6
CONTINUOUS
 62
    7
 10
745.391893865562
 20
645.3625091998606
 11
745.391893865562
 21
650.56250919986064
  0
LINE
  8
_0-3_躯体と製品
  6
CONTINUOUS
 62
    7
 10
745.391893865562
 20
650.56250919986064
 11
743.391893865562
 21
650.56250919986064
  0
LINE
  8
_0-3_躯体と製品
  6
CONTINUOUS
 62
    7
 10
796.46446942471903
 20
631.56250919986064
 11
758.891893865562
 21
631.56250919986064
  0
LINE
  8
_0-3_躯体と製品
  6
CONTINUOUS
 62
    7
 10
796.464382159244
 20
630.56250919986064
 11
759.391893865562
 21
630.56250919986064
  0
ARC
  8
_0-3_躯体と製品
  6
CONTINUOUS
 62
    7
 10
759.391893865562
 20
631.06250919986064
 40
0.4999999999999999
 50
180
 51
270
  0
LINE
  8
_0-3_躯体と製品
  6
CONTINUOUS
 62
    7
 10
758.891893865562
 20
631.06250919986064
 11
758.891893865562
 21
632.56250919986064
  0
LINE
  8
_0-3_躯体と製品
  6
CONTINUOUS
 62
    7
 10
758.891893865562
 20
632.56250919986064
 11
757.391893865562
 21
632.56250919986064
  0
ARC
  8
_0-3_躯体と製品
  6
CONTINUOUS
 62
    7
 10
757.391893865562
 20
634.06250919986064
 40
1.4999999999999856
 50
179.99999999999943
 51
270.00000000000057
  0
LINE
  8
_0-3_躯体と製品
  6
CONTINUOUS
 62
    7
 10
755.891893865562
 20
634.06250919986064
 11
755.891893865562
 21
636.06250919986064
  0
LINE
  8
_0-3_躯体と製品
  6
CONTINUOUS
 62
    7
 10
755.891893865562
 20
636.06250919986064
 11
759.891893865562
 21
636.06250919986064
  0
ARC
  8
_0-3_躯体と製品
  6
CONTINUOUS
 62
    7
 10
759.891893865562
 20
639.06250919986064
 40
3
 50
270
 51
0.0000000000000127
  0
LINE
  8
_0-3_躯体と製品
  6
CONTINUOUS
 62
    7
 10
762.891893865562
 20
639.06250919986064
 11
762.891893865562
 21
650.06250919986064
  0
ARC
  8
_0-3_躯体と製品
  6
CONTINUOUS
 62
    7
 10
759.891893865562
 20
650.06250919986064
 40
3
 50
0.0000000000000052
 51
90.000000000000014
  0
LINE
  8
_0-3_躯体と製品
  6
CONTINUOUS
 62
    7
 10
759.891893865562
 20
653.06250919986064
 11
755.891893865562
 21
653.06250919986064
  0
LINE
  8
_0-3_躯体と製品
  6
CONTINUOUS
 62
    7
 10
755.891893865562
 20
653.06250919986064
 11
755.891893865562
 21
657.56250919986064
  0
ARC
  8
_0-3_躯体と製品
  6
CONTINUOUS
 62
    7
 10
756.891893865562
 20
657.56250919986064
 40
0.9999999999999998
 50
89.999999999999986
 51
180
  0
LINE
  8
_0-3_躯体と製品
  6
CONTINUOUS
 62
    7
 10
756.891893865562
 20
658.56250919986064
 11
796.46682559254305
 21
658.56250919986064
  0
LINE
  8
_0-3_躯体と製品
  6
CONTINUOUS
 62
    7
 10
756.891893865562
 20
653.06250919986064
 11
756.891893865562
 21
657.56250919986064
  0
LINE
  8
_0-3_躯体と製品
  6
CONTINUOUS
 62
    7
 10
756.891893865562
 20
657.56250919986064
 11
796.46673832706938
 21
657.56250919986064
  0
LINE
  8
_0-3_躯体と製品
  6
CONTINUOUS
 62
    7
 10
796.46621473421919
 20
651.56250919986064
 11
793.391893865562
 21
651.56250919986064
  0
LINE
  8
_0-3_躯体と製品
  6
CONTINUOUS
 62
    7
 10
793.391893865562
 20
651.56250919986064
 11
792.891893865562
 21
651.06250919986064
  0
LINE
  8
_0-3_躯体と製品
  6
CONTINUOUS
 62
    7
 10
792.891893865562
 20
651.06250919986064
 11
792.891893865562
 21
638.06250919986064
  0
LINE
  8
_0-3_躯体と製品
  6
CONTINUOUS
 62
    7
 10
792.891893865562
 20
638.06250919986064
 11
793.391893865562
 21
637.56250919986064
  0
LINE
  8
_0-3_躯体と製品
  6
CONTINUOUS
 62
    7
 10
793.391893865562
 20
637.56250919986064
 11
796.46499301756921
 21
637.56250919986064
  0
LINE
  8
_0-3_躯体と製品
  6
CONTINUOUS
 62
    7
 10
768.391893865562
 20
636.06250919986064
 11
787.891893865562
 21
636.06250919986064
  0
LINE
  8
_0-3_躯体と製品
  6
CONTINUOUS
 62
    7
 10
787.891893865562
 20
636.06250919986064
 11
788.391893865562
 21
636.56250919986064
  0
LINE
  8
_0-3_躯体と製品
  6
CONTINUOUS
 62
    7
 10
788.391893865562
 20
636.56250919986064
 11
788.391893865562
 21
652.56250919986064
  0
LINE
  8
_0-3_躯体と製品
  6
CONTINUOUS
 62
    7
 10
788.391893865562
 20
652.56250919986064
 11
787.891893865562
 21
653.06250919986064
  0
LINE
  8
_0-3_躯体と製品
  6
CONTINUOUS
 62
    7
 10
787.891893865562
 20
653.06250919986064
 11
768.391893865562
 21
653.06250919986064
  0
LINE
  8
_0-3_躯体と製品
  6
CONTINUOUS
 62
    7
 10
768.391893865562
 20
653.06250919986064
 11
767.891893865562
 21
652.56250919986064
  0
LINE
  8
_0-3_躯体と製品
  6
CONTINUOUS
 62
    7
 10
767.891893865562
 20
652.56250919986064
 11
767.891893865562
 21
636.56250919986064
  0
LINE
  8
_0-3_躯体と製品
  6
CONTINUOUS
 62
    7
 10
767.891893865562
 20
636.56250919986064
 11
768.391893865562
 21
636.06250919986064
  0
LINE
  8
_0-6_中心線
  6
CENTER1
 62
    7
 10
586.89189386556109
 20
622.56250919986064
 11
586.89189386556109
 21
645.48625919986171
  0
ARC
  8
_0-3_躯体と製品
  6
CONTINUOUS
 62
    7
 10
587.43889386553269
 20
636.77450919986279
 40
4.8189999999969126
 50
48.111754999089271
 51
96.517442000071412
  0
ARC
  8
_0-3_躯体と製品
  6
CONTINUOUS
 62
    7
 10
586.34489386557937
 20
636.77450919985733
 40
4.8190000000167297
 50
83.482563001149714
 51
131.88825099941889
  0
LINE
  8
_0-3_躯体と製品
  6
CONTINUOUS
 62
    7
 10
582.891893865562
 20
638.76250919987274
 11
582.891893865562
 21
639.21150919986553
  0
LINE
  8
_0-3_躯体と製品
  6
CONTINUOUS
 62
    7
 10
582.891893865562
 20
639.21150919986553
 11
583.12689386557713
 21
640.36250919987856
  0
LINE
  8
_0-3_躯体と製品
  6
CONTINUOUS
 62
    7
 10
583.12689386557713
 20
640.36250919987856
 11
586.891893865562
 21
640.36250919987856
  0
LINE
  8
_0-3_躯体と製品
  6
CONTINUOUS
 62
    7
 10
586.891893865562
 20
640.36250919987856
 11
590.65689386557597
 21
640.36250919987856
  0
LINE
  8
_0-3_躯体と製品
  6
CONTINUOUS
 62
    7
 10
590.65689386557597
 20
640.36250919987856
 11
590.891893865562
 21
639.21150919986553
  0
LINE
  8
_0-3_躯体と製品
  6
CONTINUOUS
 62
    7
 10
590.891893865562
 20
639.21150919986553
 11
590.8918938655911
 21
638.76250919987274
  0
ARC
  8
_0-3_躯体と製品
  6
CONTINUOUS
 62
    7
 10
590.69189387081474
 20
638.762509194637
 40
0.1999999947763173
 50
269.99999850005975
 51
0.0000014999402189
  0
LINE
  8
_0-3_躯体と製品
  6
CONTINUOUS
 62
    7
 10
590.691893865579
 20
638.56250919986064
 11
586.891893865562
 21
638.56250919986064
  0
LINE
  8
_0-3_躯体と製品
  6
CONTINUOUS
 62
    7
 10
586.891893865562
 20
638.56250919986064
 11
583.09189385509626
 21
638.56250919986064
  0
ARC
  8
_0-3_躯体と製品
  6
CONTINUOUS
 62
    7
 10
583.09189386556488
 20
638.76250919986353
 40
0.200000000002911
 50
180.00000600059477
 51
269.99999700095339
  0
LINE
  8
_0-6_中心線
  6
CENTER1
 62
    7
 10
752.891893865562
 20
622.56250919986064
 11
752.891893865562
 21
645.48625919986171
  0
ARC
  8
_0-3_躯体と製品
  6
CONTINUOUS
 62
    7
 10
753.43889386553269
 20
636.77450919986279
 40
4.8189999999969126
 50
48.111754999089271
 51
96.517442000071412
  0
ARC
  8
_0-3_躯体と製品
  6
CONTINUOUS
 62
    7
 10
752.34489386557937
 20
636.77450919985733
 40
4.8190000000167297
 50
83.482563001149714
 51
131.88825099941889
  0
LINE
  8
_0-3_躯体と製品
  6
CONTINUOUS
 62
    7
 10
748.891893865562
 20
638.76250919987274
 11
748.891893865562
 21
639.21150919986553
  0
LINE
  8
_0-3_躯体と製品
  6
CONTINUOUS
 62
    7
 10
748.891893865562
 20
639.21150919986553
 11
749.12689386557713
 21
640.36250919987856
  0
LINE
  8
_0-3_躯体と製品
  6
CONTINUOUS
 62
    7
 10
749.12689386557713
 20
640.36250919987856
 11
752.891893865562
 21
640.36250919987856
  0
LINE
  8
_0-3_躯体と製品
  6
CONTINUOUS
 62
    7
 10
752.891893865562
 20
640.36250919987856
 11
756.65689386557597
 21
640.36250919987856
  0
LINE
  8
_0-3_躯体と製品
  6
CONTINUOUS
 62
    7
 10
756.65689386557597
 20
640.36250919987856
 11
756.891893865562
 21
639.21150919986553
  0
LINE
  8
_0-3_躯体と製品
  6
CONTINUOUS
 62
    7
 10
756.891893865562
 20
639.21150919986553
 11
756.8918938655911
 21
638.76250919987274
  0
ARC
  8
_0-3_躯体と製品
  6
CONTINUOUS
 62
    7
 10
756.69189387081542
 20
638.76250919463632
 40
0.1999999947756352
 50
269.99999850025517
 51
0.0000015001356338
  0
LINE
  8
_0-3_躯体と製品
  6
CONTINUOUS
 62
    7
 10
756.69189386558037
 20
638.56250919986064
 11
752.891893865562
 21
638.56250919986064
  0
LINE
  8
_0-3_躯体と製品
  6
CONTINUOUS
 62
    7
 10
752.891893865562
 20
638.56250919986064
 11
749.09189385509626
 21
638.56250919986064
  0
ARC
  8
_0-3_躯体と製品
  6
CONTINUOUS
 62
    7
 10
749.09189386556488
 20
638.76250919986353
 40
0.200000000002911
 50
180.00000600059477
 51
269.99999700095339
  0
LINE
  8
_0-6_中心線
  6
CENTER1
 62
    7
 10
420.89189386556109
 20
622.56250919986064
 11
420.89189386556109
 21
645.48625919986171
  0
ARC
  8
_0-3_躯体と製品
  6
CONTINUOUS
 62
    7
 10
421.43889386553269
 20
636.77450919986279
 40
4.8189999999969126
 50
48.111754999089271
 51
96.517442000071412
  0
ARC
  8
_0-3_躯体と製品
  6
CONTINUOUS
 62
    7
 10
420.34489386557942
 20
636.77450919985733
 40
4.8190000000167297
 50
83.482563001149714
 51
131.88825099941889
  0
LINE
  8
_0-3_躯体と製品
  6
CONTINUOUS
 62
    7
 10
416.891893865562
 20
638.76250919987274
 11
416.891893865562
 21
639.21150919986553
  0
LINE
  8
_0-3_躯体と製品
  6
CONTINUOUS
 62
    7
 10
416.891893865562
 20
639.21150919986553
 11
417.12689386557713
 21
640.36250919987856
  0
LINE
  8
_0-3_躯体と製品
  6
CONTINUOUS
 62
    7
 10
417.12689386557713
 20
640.36250919987856
 11
420.891893865562
 21
640.36250919987856
  0
LINE
  8
_0-3_躯体と製品
  6
CONTINUOUS
 62
    7
 10
420.891893865562
 20
640.36250919987856
 11
424.65689386557597
 21
640.36250919987856
  0
LINE
  8
_0-3_躯体と製品
  6
CONTINUOUS
 62
    7
 10
424.65689386557597
 20
640.36250919987856
 11
424.891893865562
 21
639.21150919986553
  0
LINE
  8
_0-3_躯体と製品
  6
CONTINUOUS
 62
    7
 10
424.891893865562
 20
639.21150919986553
 11
424.8918938655911
 21
638.76250919987274
  0
ARC
  8
_0-3_躯体と製品
  6
CONTINUOUS
 62
    7
 10
424.69189387081548
 20
638.76250919463632
 40
0.1999999947756352
 50
269.99999850025517
 51
0.0000015001356338
  0
LINE
  8
_0-3_躯体と製品
  6
CONTINUOUS
 62
    7
 10
424.69189386558037
 20
638.56250919986064
 11
420.891893865562
 21
638.56250919986064
  0
LINE
  8
_0-3_躯体と製品
  6
CONTINUOUS
 62
    7
 10
420.891893865562
 20
638.56250919986064
 11
417.09189385509626
 21
638.56250919986064
  0
ARC
  8
_0-3_躯体と製品
  6
CONTINUOUS
 62
    7
 10
417.09189386556488
 20
638.76250919986353
 40
0.200000000002911
 50
180.00000600059477
 51
269.99999700095339
  0
LINE
  8
_0-3_躯体と製品
  6
CONTINUOUS
 62
    7
 10
1114.2152447067451
 20
593.56250919985473
 11
1119.2152447067451
 21
593.56250919985473
  0
LINE
  8
_0-3_躯体と製品
  6
CONTINUOUS
 62
    7
 10
1119.2152447067451
 20
593.56250919985473
 11
1119.2152447067451
 21
590.56250919985473
  0
LINE
  8
_0-3_躯体と製品
  6
CONTINUOUS
 62
    7
 10
1119.2152447067451
 20
590.56250919985473
 11
1045.2152447067451
 21
590.56250919985473
  0
LINE
  8
_0-3_躯体と製品
  6
CONTINUOUS
 62
    7
 10
1045.2152447067451
 20
590.56250919985473
 11
1045.2152447067451
 21
593.56250919985473
  0
LINE
  8
_0-3_躯体と製品
  6
CONTINUOUS
 62
    7
 10
1045.2152447067451
 20
593.56250919985473
 11
1050.2152447067451
 21
593.56250919985473
  0
LINE
  8
_0-3_躯体と製品
  6
CONTINUOUS
 62
    7
 10
1050.2152447067451
 20
593.56250919985473
 11
1050.2152447067451
 21
595.56250919985473
  0
LINE
  8
_0-3_躯体と製品
  6
CONTINUOUS
 62
    7
 10
1050.2152447067451
 20
595.56250919985473
 11
1043.2152447067451
 21
595.56250919985473
  0
LINE
  8
_0-3_躯体と製品
  6
CONTINUOUS
 62
    7
 10
1043.2152447067451
 20
595.56250919985473
 11
1043.2152447067451
 21
588.56250919985473
  0
LINE
  8
_0-3_躯体と製品
  6
CONTINUOUS
 62
    7
 10
1043.2152447067451
 20
588.56250919985473
 11
1121.2152447067451
 21
588.56250919985473
  0
LINE
  8
_0-3_躯体と製品
  6
CONTINUOUS
 62
    7
 10
1121.2152447067451
 20
588.56250919985473
 11
1121.2152447067451
 21
595.56250919985473
  0
LINE
  8
_0-3_躯体と製品
  6
CONTINUOUS
 62
    7
 10
1121.2152447067451
 20
595.56250919985473
 11
1114.2152447067451
 21
595.56250919985473
  0
LINE
  8
_0-3_躯体と製品
  6
CONTINUOUS
 62
    7
 10
1114.2152447067451
 20
595.56250919985473
 11
1114.2152447067451
 21
593.56250919985473
  0
ARC
  8
_0-3_躯体と製品
  6
CONTINUOUS
 62
    7
 10
1090.4282447067635
 20
594.31450919984775
 40
4.2479999999997089
 50
49.869772999461397
 51
130.11991900040121
  0
LINE
  8
_0-3_躯体と製品
  6
CONTINUOUS
 62
    7
 10
1087.6912447067402
 20
592.56150919985066
 11
1087.6912447067402
 21
597.56350919985061
  0
LINE
  8
_0-3_躯体と製品
  6
CONTINUOUS
 62
    7
 10
1093.1662447067461
 20
597.56250919985473
 11
1093.1662447067461
 21
592.56250919985473
  0
ARC
  8
_0-3_躯体と製品
  6
CONTINUOUS
 62
    7
 10
1090.4282447067637
 20
595.81050919985455
 40
4.2479999999997098
 50
229.88008099959643
 51
310.13022700053625
  0
LINE
  8
_0-3_躯体と製品
  6
CONTINUOUS
 62
    7
 10
1088.2152447067451
 20
612.06250919985473
 11
1088.2152447067451
 21
598.56250919985473
  0
LINE
  8
_0-3_躯体と製品
  6
CONTINUOUS
 62
    7
 10
1083.9472447067633
 20
591.56250919985473
 11
1083.3699113734142
 21
590.56250919985473
  0
LINE
  8
_0-3_躯体と製品
  6
CONTINUOUS
 62
    7
 10
1082.2152447067451
 20
591.56250919985473
 11
1081.6379113734251
 21
590.56250919985473
  0
LINE
  8
_0-3_躯体と製品
  6
CONTINUOUS
 62
    7
 10
1086.7152447067451
 20
613.56250919985473
 11
1086.7152447067451
 21
598.56250919985473
  0
LINE
  8
_0-3_躯体と製品
  6
CONTINUOUS
 62
    7
 10
1076.2152447067451
 20
612.06250919985473
 11
1077.7152447067451
 21
613.56250919985473
  0
LINE
  8
_0-3_躯体と製品
  6
CONTINUOUS
 62
    7
 10
1076.7412447067582
 20
592.56150919985066
 11
1076.7412447067582
 21
597.56350919985061
  0
LINE
  8
_0-3_躯体と製品
  6
CONTINUOUS
 62
    7
 10
1071.2662447067523
 20
597.56250919985473
 11
1071.2662447067523
 21
592.56250919985473
  0
ARC
  8
_0-3_躯体と製品
  6
CONTINUOUS
 62
    7
 10
1074.004244706764
 20
594.31450919984707
 40
4.2480000000004585
 50
49.880087000096346
 51
130.1302330005017
  0
ARC
  8
_0-3_躯体と製品
  6
CONTINUOUS
 62
    7
 10
1074.0042447067633
 20
595.81050919985478
 40
4.2480000000004603
 50
229.86976699951023
 51
310.11991299991553
  0
ARC
  8
_0-3_躯体と製品
  6
CONTINUOUS
 62
    7
 10
1082.2152447067447
 20
583.0695091998507
 40
15.493000000001317
 50
69.301553000434737
 51
110.69022699919269
  0
LINE
  8
_0-3_躯体と製品
  6
CONTINUOUS
 62
    7
 10
1076.2152447067451
 20
598.56250919985473
 11
1076.2152447067451
 21
612.06250919985473
  0
LINE
  8
_0-3_躯体と製品
  6
CONTINUOUS
 62
    7
 10
1076.2152447067451
 20
612.06250919985473
 11
1088.2152447067451
 21
612.06250919985473
  0
LINE
  8
_0-3_躯体と製品
  6
CONTINUOUS
 62
    7
 10
1088.2152447067451
 20
612.06250919985473
 11
1086.7152447067451
 21
613.56250919985473
  0
LINE
  8
_0-3_躯体と製品
  6
CONTINUOUS
 62
    7
 10
1086.7152447067451
 20
613.56250919985473
 11
1077.7152447067451
 21
613.56250919985473
  0
LINE
  8
_0-3_躯体と製品
  6
CONTINUOUS
 62
    7
 10
1077.7152447067451
 20
613.56250919985473
 11
1077.7152447067451
 21
598.56250919985473
  0
ARC
  8
_0-3_躯体と製品
  6
CONTINUOUS
 62
    7
 10
1082.215244706746
 20
607.05550919985808
 40
15.493000000001308
 50
249.30977300080252
 51
290.69844699956047
  0
LINE
  8
_0-3_躯体と製品
  6
CONTINUOUS
 62
    7
 10
1074.003244706746
 20
598.56250919985473
 11
1090.4272447067451
 21
598.56250919985473
  0
LINE
  8
_0-3_躯体と製品
  6
CONTINUOUS
 62
    7
 10
1092.9652447067451
 20
590.56250919985473
 11
1092.9652447067451
 21
591.56250919985473
  0
LINE
  8
_0-3_躯体と製品
  6
CONTINUOUS
 62
    7
 10
1092.9652447067451
 20
591.56250919985473
 11
1071.4652447067451
 21
591.56250919985473
  0
LINE
  8
_0-3_躯体と製品
  6
CONTINUOUS
 62
    7
 10
1071.4652447067451
 20
591.56250919985473
 11
1071.4652447067451
 21
590.56250919985473
  0
LINE
  8
_0-3_躯体と製品
  6
CONTINUOUS
 62
    7
 10
1100.6152447067393
 20
592.66250919985259
 11
1100.6152447067393
 21
628.46250919984868
  0
ARC
  8
_0-3_躯体と製品
  6
CONTINUOUS
 62
    7
 10
1100.1152447198292
 20
628.46250921293858
 40
0.499999986910098
 50
359.99999850000768
 51
90.000001499888128
  0
LINE
  8
_0-3_躯体と製品
  6
CONTINUOUS
 62
    7
 10
1100.1152447067402
 20
628.96250919984868
 11
1082.2152447067451
 21
628.96250919984868
  0
LINE
  8
_0-3_躯体と製品
  6
CONTINUOUS
 62
    7
 10
1082.2152447067451
 20
628.96250919984868
 11
1064.3152446805721
 21
628.96250919984868
  0
ARC
  8
_0-3_躯体と製品
  6
CONTINUOUS
 62
    7
 10
1064.3152446805711
 20
628.46250922602849
 40
0.4999999738201959
 50
89.999999999895834
 51
180.00000299998476
  0
LINE
  8
_0-3_躯体と製品
  6
CONTINUOUS
 62
    7
 10
1063.8152447067509
 20
628.46250919984868
 11
1063.815244706745
 21
592.66250919985259
  0
ARC
  8
_0-3_躯体と製品
  6
CONTINUOUS
 62
    7
 10
1061.7152447067456
 20
592.66250919985305
 40
2.0999999999995107
 50
269.99999999998914
 51
359.99999999998602
  0
LINE
  8
_0-3_躯体と製品
  6
CONTINUOUS
 62
    7
 10
1061.7152447067451
 20
590.56250919985359
 11
1045.2152447067451
 21
590.56250919985473
  0
LINE
  8
_0-3_躯体と製品
  6
CONTINUOUS
 62
    7
 10
1045.2152447067451
 20
590.56250919985473
 11
1045.2152447067451
 21
592.16250919985373
  0
LINE
  8
_0-3_躯体と製品
  6
CONTINUOUS
 62
    7
 10
1045.2152447067451
 20
592.16250919985373
 11
1061.7152447067451
 21
592.16250919985373
  0
ARC
  8
_0-3_躯体と製品
  6
CONTINUOUS
 62
    7
 10
1061.715244719835
 20
592.66250918676371
 40
0.4999999869099843
 50
269.9999984999946
 51
0.0000014998750991
  0
LINE
  8
_0-3_躯体と製品
  6
CONTINUOUS
 62
    7
 10
1062.2152447067451
 20
592.66250919985259
 11
1062.215244706751
 21
628.46250919984868
  0
ARC
  8
_0-3_躯体と製品
  6
CONTINUOUS
 62
    7
 10
1064.3152447067509
 20
628.46250919984868
 40
2.0999999999999086
 50
89.999999999999986
 51
180
  0
LINE
  8
_0-3_躯体と製品
  6
CONTINUOUS
 62
    7
 10
1064.3152447067509
 20
630.56250919984859
 11
1082.2152447067451
 21
630.56250919985473
  0
LINE
  8
_0-3_躯体と製品
  6
CONTINUOUS
 62
    7
 10
1082.2152447067451
 20
630.56250919985473
 11
1100.115244706742
 21
630.56250919984859
  0
ARC
  8
_0-3_躯体と製品
  6
CONTINUOUS
 62
    7
 10
1100.115244706742
 20
628.46250919984561
 40
2.1000000000029817
 50
0.0000000000838266
 51
90.000000000003013
  0
LINE
  8
_0-3_躯体と製品
  6
CONTINUOUS
 62
    7
 10
1102.2152447067451
 20
628.46250919984868
 11
1102.2152447067451
 21
592.66250914749367
  0
ARC
  8
_0-3_躯体と製品
  6
CONTINUOUS
 62
    7
 10
1102.7152447198343
 20
592.66250921294295
 40
0.5000000130892234
 50
180.00000749993578
 51
269.99999850008601
  0
LINE
  8
_0-3_躯体と製品
  6
CONTINUOUS
 62
    7
 10
1102.7152447067451
 20
592.16250919985373
 11
1119.2152447067451
 21
592.16250919985373
  0
LINE
  8
_0-3_躯体と製品
  6
CONTINUOUS
 62
    7
 10
1119.2152447067451
 20
592.16250919985373
 11
1119.2152447067451
 21
590.56250919985473
  0
LINE
  8
_0-3_躯体と製品
  6
CONTINUOUS
 62
    7
 10
1119.2152447067451
 20
590.56250919985473
 11
1102.7152447067451
 21
590.56250919985359
  0
ARC
  8
_0-3_躯体と製品
  6
CONTINUOUS
 62
    7
 10
1102.7152447067449
 20
592.66250919985328
 40
2.0999999999997359
 50
180.00000599997699
 51
270.00000000000506
  0
ARC
  8
_0-3_躯体と製品
  6
CONTINUOUS
 62
    7
 10
1055.0122447067452
 20
590.37450919985633
 40
4.8189999999953264
 50
48.11175499908326
 51
96.517442000065401
  0
ARC
  8
_0-3_躯体と製品
  6
CONTINUOUS
 62
    7
 10
1053.9182447067935
 20
590.37450919984974
 40
4.8190000000170672
 50
83.482563001162276
 51
131.88825099943148
  0
LINE
  8
_0-3_躯体と製品
  6
CONTINUOUS
 62
    7
 10
1050.4652447067751
 20
592.36250919986469
 11
1050.4652447067751
 21
592.81150919985771
  0
LINE
  8
_0-3_躯体と製品
  6
CONTINUOUS
 62
    7
 10
1050.4652447067751
 20
592.81150919985771
 11
1050.7002447067903
 21
593.96250919987074
  0
LINE
  8
_0-3_躯体と製品
  6
CONTINUOUS
 62
    7
 10
1050.7002447067903
 20
593.96250919987074
 11
1054.4652447067751
 21
593.96250919987074
  0
LINE
  8
_0-3_躯体と製品
  6
CONTINUOUS
 62
    7
 10
1054.4652447067751
 20
593.96250919987074
 11
1058.2302447067891
 21
593.96250919987074
  0
LINE
  8
_0-3_躯体と製品
  6
CONTINUOUS
 62
    7
 10
1058.2302447067891
 20
593.96250919987074
 11
1058.4652447067751
 21
592.81150919985771
  0
LINE
  8
_0-3_躯体と製品
  6
CONTINUOUS
 62
    7
 10
1058.4652447067751
 20
592.81150919985771
 11
1058.4652447068042
 21
592.36250919986469
  0
ARC
  8
_0-3_躯体と製品
  6
CONTINUOUS
 62
    7
 10
1058.2652447120286
 20
592.36250919462952
 40
0.1999999947757489
 50
269.99999849989695
 51
0.0000014997773739
  0
LINE
  8
_0-3_躯体と製品
  6
CONTINUOUS
 62
    7
 10
1058.2652447067921
 20
592.16250919985373
 11
1054.4652447067751
 21
592.16250919985373
  0
LINE
  8
_0-3_躯体と製品
  6
CONTINUOUS
 62
    7
 10
1054.4652447067751
 20
592.16250919985373
 11
1050.6652446963089
 21
592.16250919985373
  0
ARC
  8
_0-3_躯体と製品
  6
CONTINUOUS
 62
    7
 10
1050.6652447067775
 20
592.36250919985594
 40
0.2000000000022289
 50
180.00000600065991
 51
269.99999700101853
  0
ARC
  8
_0-3_躯体と製品
  6
CONTINUOUS
 62
    7
 10
1110.5122447066867
 20
590.37450919985474
 40
4.8189999999969126
 50
48.111754999089271
 51
96.517442000071412
  0
ARC
  8
_0-3_躯体と製品
  6
CONTINUOUS
 62
    7
 10
1109.4182447067349
 20
590.37450919985076
 40
4.8190000000160103
 50
83.482563001166298
 51
131.88825099943548
  0
LINE
  8
_0-3_躯体と製品
  6
CONTINUOUS
 62
    7
 10
1105.9652447067174
 20
592.36250919986469
 11
1105.9652447067174
 21
592.81150919985771
  0
LINE
  8
_0-3_躯体と製品
  6
CONTINUOUS
 62
    7
 10
1105.9652447067174
 20
592.81150919985771
 11
1106.2002447067321
 21
593.96250919987074
  0
LINE
  8
_0-3_躯体と製品
  6
CONTINUOUS
 62
    7
 10
1106.2002447067321
 20
593.96250919987074
 11
1109.9652447067174
 21
593.96250919987074
  0
LINE
  8
_0-3_躯体と製品
  6
CONTINUOUS
 62
    7
 10
1109.9652447067174
 20
593.96250919987074
 11
1113.7302447067314
 21
593.96250919987074
  0
LINE
  8
_0-3_躯体と製品
  6
CONTINUOUS
 62
    7
 10
1113.7302447067314
 20
593.96250919987074
 11
1113.965244706716
 21
592.81150919985771
  0
LINE
  8
_0-3_躯体と製品
  6
CONTINUOUS
 62
    7
 10
1113.965244706716
 20
592.81150919985771
 11
1113.9652447067451
 21
592.36250919986469
  0
ARC
  8
_0-3_躯体と製品
  6
CONTINUOUS
 62
    7
 10
1113.7652447119701
 20
592.36250919462884
 40
0.1999999947750668
 50
269.99999850009232
 51
0.0000014999727888
  0
LINE
  8
_0-3_躯体と製品
  6
CONTINUOUS
 62
    7
 10
1113.7652447067344
 20
592.16250919985373
 11
1109.9652447067174
 21
592.16250919985373
  0
LINE
  8
_0-3_躯体と製品
  6
CONTINUOUS
 62
    7
 10
1109.9652447067174
 20
592.16250919985373
 11
1106.1652446962512
 21
592.16250919985373
  0
ARC
  8
_0-3_躯体と製品
  6
CONTINUOUS
 62
    7
 10
1106.1652447067195
 20
592.36250919985594
 40
0.2000000000022289
 50
180.00000600065991
 51
269.99999700101853
  0
LINE
  8
_0-6_中心線
  6
CENTER1
 62
    7
 10
1073.2152447067451
 20
618.59177919805165
 11
1073.2152447067451
 21
642.90061131217271
  0
ARC
  8
_0-3_躯体と製品
  6
CONTINUOUS
 62
    7
 10
1072.668244706776
 20
636.77450919985688
 40
4.8189999999968052
 50
83.482557999946295
 51
131.88824500092844
  0
ARC
  8
_0-3_躯体と製品
  6
CONTINUOUS
 62
    7
 10
1073.7622447067279
 20
636.77450919985131
 40
4.8190000000166453
 50
48.11174900058424
 51
96.517436998853427
  0
LINE
  8
_0-3_躯体と製品
  6
CONTINUOUS
 62
    7
 10
1077.0414957927483
 20
640.06250919985473
 11
1076.9802447067291
 21
640.36250919987174
  0
LINE
  8
_0-3_躯体と製品
  6
CONTINUOUS
 62
    7
 10
1076.9802447067291
 20
640.36250919987174
 11
1073.2152447067442
 21
640.36250919987174
  0
LINE
  8
_0-3_躯体と製品
  6
CONTINUOUS
 62
    7
 10
1073.2152447067442
 20
640.36250919987174
 11
1069.4502447067312
 21
640.36250919987174
  0
LINE
  8
_0-3_躯体と製品
  6
CONTINUOUS
 62
    7
 10
1069.4502447067312
 20
640.36250919987174
 11
1069.3889936207192
 21
640.06250919985473
  0
TEXT
  8
_0-4_文字-記号
 62
    7
 10
1034.5739877067454
 20
620.72984919985061
 40
8
 41
0.8
 50
0
  1
根太鋼
  0
LINE
  8
_0-4_文字-記号
  6
CONTINUOUS
 62
    7
 10
1062.2152447067451
 20
610.56250919985064
 11
1056.992935706744
 21
618.34041519985158
  0
LINE
  8
_0-4_文字-記号
  6
CONTINUOUS
 62
    7
 10
1056.992935706744
 20
618.34041519985158
 11
1031.7599207067451
 21
618.34041519985158
  0
INSERT
  2
-015-_D16
  8
_0-2_寸法
 10
-1795.4604068635908
 20
-746.81436420020236
 41
1
 42
1
 50
0
  0
LINE
  8
_0-3_躯体と製品
  6
CONTINUOUS
 62
    7
 10
1074.9652447067451
 20
627.21674519985459
 11
1074.4152447067449
 21
626.89920519985458
  0
LINE
  8
_0-3_躯体と製品
  6
CONTINUOUS
 62
    7
 10
1072.0152447067453
 20
626.82873519985264
 11
1074.4152447067449
 21
627.53429019985265
  0
LINE
  8
_0-3_躯体と製品
  6
CONTINUOUS
 62
    7
 10
1071.4652447067442
 20
626.51119019985254
 11
1072.0152447067453
 21
626.82873519985264
  0
LINE
  8
_0-3_躯体と製品
  6
CONTINUOUS
 62
    7
 10
1072.0152447067453
 20
626.82873519985264
 11
1072.0152447067453
 21
627.60476019985367
  0
LINE
  8
_0-3_躯体と製品
  6
CONTINUOUS
 62
    7
 10
1074.4152447067449
 20
624.71206519985253
 11
1074.9652447067451
 21
624.39452519985457
  0
LINE
  8
_0-3_躯体と製品
  6
CONTINUOUS
 62
    7
 10
1073.2152447067451
 20
624.04174519985372
 11
1074.9652447067451
 21
624.39452519985457
  0
LINE
  8
_0-3_躯体と製品
  6
CONTINUOUS
 62
    7
 10
1074.9652447067451
 20
624.39452519985457
 11
1074.4152447067449
 21
624.07698019985469
  0
LINE
  8
_0-3_躯体と製品
  6
CONTINUOUS
 62
    7
 10
1074.4152447067449
 20
626.12318019985355
 11
1074.9652447067451
 21
625.80563519985367
  0
ARC
  8
_0-3_躯体と製品
  6
CONTINUOUS
 62
    7
 10
1077.7395447067452
 20
620.57348519985453
 40
4.5414449999999427
 50
137.05380000001753
 51
175.02121999999039
  0
ARC
  8
_0-3_躯体と製品
  6
CONTINUOUS
 62
    7
 10
1073.234044706744
 20
619.64412019985275
 40
1.3236349999999331
 50
90.813543000016423
 51
157.04087000001471
  0
LINE
  8
_0-3_躯体と製品
  6
CONTINUOUS
 62
    7
 10
1074.4152447067449
 20
623.66762019985367
 11
1072.0152447067453
 21
623.66762019985367
  0
LINE
  8
_0-3_躯体と製品
  6
CONTINUOUS
 62
    7
 10
1072.0152447067453
 20
626.19365019985457
 11
1074.4152447067449
 21
626.89920519985458
  0
LINE
  8
_0-3_躯体と製品
  6
CONTINUOUS
 62
    7
 10
1074.4152447067449
 20
626.89920519985458
 11
1074.4152447067449
 21
626.12318019985355
  0
LINE
  8
_0-3_躯体と製品
  6
CONTINUOUS
 62
    7
 10
1074.4152447067449
 20
626.12318019985355
 11
1072.0152447067453
 21
625.41762019985367
  0
LINE
  8
_0-3_躯体と製品
  6
CONTINUOUS
 62
    7
 10
1072.0152447067453
 20
625.41762019985367
 11
1071.4652447067442
 21
625.10008019985366
  0
LINE
  8
_0-3_躯体と製品
  6
CONTINUOUS
 62
    7
 10
1074.4152447067449
 20
625.48809019985265
 11
1074.9652447067451
 21
625.80563519985367
  0
LINE
  8
_0-3_躯体と製品
  6
CONTINUOUS
 62
    7
 10
1074.9652447067451
 20
625.80563519985367
 11
1071.4652447067442
 21
625.10008019985366
  0
LINE
  8
_0-3_躯体と製品
  6
CONTINUOUS
 62
    7
 10
1071.4652447067442
 20
625.10008019985366
 11
1072.0152447067453
 21
624.78253519985356
  0
LINE
  8
_0-3_躯体と製品
  6
CONTINUOUS
 62
    7
 10
1072.0152447067453
 20
624.78253519985356
 11
1074.4152447067449
 21
625.48809019985265
  0
LINE
  8
_0-3_躯体と製品
  6
CONTINUOUS
 62
    7
 10
1074.4152447067449
 20
625.48809019985265
 11
1074.4152447067449
 21
624.71206519985253
  0
LINE
  8
_0-3_躯体と製品
  6
CONTINUOUS
 62
    7
 10
1074.4152447067449
 20
624.71206519985253
 11
1073.2152447067451
 21
624.04174519985372
  0
LINE
  8
_0-3_躯体と製品
  6
CONTINUOUS
 62
    7
 10
1073.2152447067451
 20
624.04174519985372
 11
1074.4152447067449
 21
624.07698019985469
  0
LINE
  8
_0-3_躯体と製品
  6
CONTINUOUS
 62
    7
 10
1074.4152447067449
 20
624.07698019985469
 11
1074.4152447067449
 21
620.16044019985361
  0
LINE
  8
_0-3_躯体と製品
  6
CONTINUOUS
 62
    7
 10
1074.4152447067449
 20
620.16044019985361
 11
1073.2152447067451
 21
619.46762019985454
  0
LINE
  8
_0-3_躯体と製品
  6
CONTINUOUS
 62
    7
 10
1073.2152447067451
 20
620.99480519985559
 11
1073.2152447067451
 21
619.46762019985454
  0
LINE
  8
_0-3_躯体と製品
  6
CONTINUOUS
 62
    7
 10
1073.2152447067451
 20
619.46762019985454
 11
1072.0152447067453
 21
620.16044019985361
  0
LINE
  8
_0-3_躯体と製品
  6
CONTINUOUS
 62
    7
 10
1072.0152447067453
 20
620.16044019985361
 11
1072.0152447067453
 21
626.19365019985457
  0
LINE
  8
_0-3_躯体と製品
  6
CONTINUOUS
 62
    7
 10
1072.0152447067453
 20
626.19365019985457
 11
1071.4652447067442
 21
626.51119019985254
  0
LINE
  8
_0-3_躯体と製品
  6
CONTINUOUS
 62
    7
 10
1071.4652447067442
 20
626.51119019985254
 11
1074.9652447067451
 21
627.21674519985459
  0
LINE
  8
_0-3_躯体と製品
  6
CONTINUOUS
 62
    7
 10
1074.9652447067451
 20
627.21674519985459
 11
1074.4152447067449
 21
627.53429019985265
  0
LINE
  8
_0-3_躯体と製品
  6
CONTINUOUS
 62
    7
 10
1074.4152447067449
 20
627.53429019985265
 11
1074.4152447067449
 21
628.31031519985254
  0
LINE
  8
_0-4_文字-記号
  6
CONTINUOUS
 62
    7
 10
1032.7514164553613
 20
658.56250919986064
 11
1018.5360889202393
 21
683.18417826630161
  0
LINE
  8
_0-4_文字-記号
  6
CONTINUOUS
 62
    7
 10
1018.5360889202393
 20
683.18417826630161
 11
975.35989935552197
 21
683.18417826630161
  0
TEXT
  8
_0-4_文字-記号
 62
    7
 10
984.50643219474614
 20
684.4459630132676
 40
8
 41
0.8
 50
0
  1
デッキ材
  0
LINE
  8
_0-3_躯体と製品
  6
CONTINUOUS
 62
    7
 10
905.65607233027913
 20
630.56250919986064
 11
1234.541183553974
 21
630.56250919986064
  0
LINE
  8
_0-3_躯体と製品
  6
CONTINUOUS
 62
    7
 10
905.65607233027913
 20
658.56250919986064
 11
1234.541183553974
 21
658.56250919986064
  0
LINE
  8
_0-5_Layer_05
  6
CONTINUOUS
 62
    3
 10
1057.2152447067451
 20
640.06250919985473
 11
1107.2152447067451
 21
640.06250919985473
  0
LINE
  8
_0-5_Layer_05
  6
CONTINUOUS
 62
    3
 10
1057.2152447067451
 20
645.06250919985473
 11
1079.815244706745
 21
645.06250919985473
  0
LINE
  8
_0-5_Layer_05
  6
CONTINUOUS
 62
    3
 10
1084.6152447067452
 20
645.06250919985473
 11
1107.2152447067451
 21
645.06250919985473
  0
LINE
  8
_0-5_Layer_05
  6
CONTINUOUS
 62
    3
 10
1057.2152447067451
 20
645.36250919985468
 11
1079.8340685267872
 21
645.36250919985468
  0
LINE
  8
_0-5_Layer_05
  6
CONTINUOUS
 62
    3
 10
1084.5964208867031
 20
645.36250919985468
 11
1107.2152447067451
 21
645.36250919985468
  0
LINE
  8
_0-5_Layer_05
  6
CONTINUOUS
 62
    3
 10
1057.2152447067451
 20
644.76250919985455
 11
1079.8340685267872
 21
644.76250919985455
  0
LINE
  8
_0-5_Layer_05
  6
CONTINUOUS
 62
    3
 10
1084.5964208867031
 20
644.76250919985455
 11
1107.2152447067451
 21
644.76250919985455
  0
LINE
  8
_0-5_Layer_05
  6
CONTINUOUS
 62
    3
 10
1057.2152447067451
 20
630.56250919985473
 11
1107.2152447067451
 21
630.56250919985473
  0
LINE
  8
_0-5_Layer_05
  6
CONTINUOUS
 62
    3
 10
1107.2152447067451
 20
630.56250919985473
 11
1107.2152447067451
 21
651.56250919985473
  0
LINE
  8
_0-5_Layer_05
  6
CONTINUOUS
 62
    3
 10
1107.2152447067451
 20
651.56250919985473
 11
1057.2152447067451
 21
651.56250919985473
  0
LINE
  8
_0-5_Layer_05
  6
CONTINUOUS
 62
    3
 10
1057.2152447067451
 20
651.56250919985473
 11
1057.2152447067451
 21
630.56250919985473
  0
LINE
  8
_0-5_Layer_05
  6
CONTINUOUS
 62
    3
 10
1057.2152447067451
 20
636.36250919985468
 11
1107.2152447067451
 21
636.36250919985468
  0
LINE
  8
_0-5_Layer_05
  6
CONTINUOUS
 62
    3
 10
1057.2152447067451
 20
636.06250919985473
 11
1107.2152447067451
 21
636.06250919985473
  0
LINE
  8
_0-5_Layer_05
  6
CONTINUOUS
 62
    3
 10
1057.2152447067451
 20
632.56250919985473
 11
1107.2152447067451
 21
632.56250919985473
  0
LINE
  8
_0-3_躯体と製品
  6
CONTINUOUS
 62
    7
 10
905.65607233027913
 20
653.06250919986064
 11
1234.541183553974
 21
653.06250919986064
  0
LINE
  8
_0-3_躯体と製品
  6
CONTINUOUS
 62
    7
 10
905.65607233027913
 20
636.06250919986064
 11
1057.2152447067451
 21
636.06250919986064
  0
LINE
  8
_0-3_躯体と製品
  6
CONTINUOUS
 62
    7
 10
1107.2152447067451
 20
636.06250919986064
 11
1234.541183553974
 21
636.06250919986064
  0
LINE
  8
_0-3_躯体と製品
  6
CONTINUOUS
 62
    7
 10
905.65607233027913
 20
632.56250919986064
 11
1057.2152447067451
 21
632.56250919986064
  0
LINE
  8
_0-3_躯体と製品
  6
CONTINUOUS
 62
    7
 10
1107.2152447067451
 20
632.56250919986064
 11
1234.541183553974
 21
632.56250919986064
  0
CIRCLE
  8
_0-5_Layer_05
  6
CONTINUOUS
 62
    3
 10
1082.2152447067451
 20
645.06250919985473
 40
2.399999999999999
  0
LINE
  8
_0-3_躯体と製品
  6
CONTINUOUS
 62
    7
 10
1074.9652447067451
 20
628.62785519985573
 11
1074.4152447067449
 21
628.31031519985572
  0
LINE
  8
_0-3_躯体と製品
  6
CONTINUOUS
 62
    7
 10
1072.0152447067453
 20
628.23984519985356
 11
1074.4152447067449
 21
628.94540019985357
  0
LINE
  8
_0-3_躯体と製品
  6
CONTINUOUS
 62
    7
 10
1071.4652447067442
 20
627.92230019985368
 11
1072.0152447067453
 21
628.23984519985356
  0
LINE
  8
_0-3_躯体と製品
  6
CONTINUOUS
 62
    7
 10
1072.0152447067453
 20
628.23984519985356
 11
1072.0152447067453
 21
628.96250919984868
  0
LINE
  8
_0-3_躯体と製品
  6
CONTINUOUS
 62
    7
 10
1072.0152447067453
 20
627.60476019985572
 11
1074.4152447067449
 21
628.31031519985572
  0
LINE
  8
_0-3_躯体と製品
  6
CONTINUOUS
 62
    7
 10
1072.0152447067453
 20
627.60476019985572
 11
1071.4652447067442
 21
627.92230019985368
  0
LINE
  8
_0-3_躯体と製品
  6
CONTINUOUS
 62
    7
 10
1071.4652447067442
 20
627.92230019985368
 11
1074.9652447067451
 21
628.62785519985573
  0
LINE
  8
_0-3_躯体と製品
  6
CONTINUOUS
 62
    7
 10
1074.9652447067451
 20
628.62785519985573
 11
1074.4152447067449
 21
628.94540019985357
  0
LINE
  8
_0-3_躯体と製品
  6
CONTINUOUS
 62
    7
 10
1074.4152447067449
 20
628.94540019985357
 11
1074.4152447067449
 21
628.96250919984868
  0
LINE
  8
_0-6_中心線
  6
CENTER1
 62
    7
 10
1091.2152447067451
 20
618.59177919805165
 11
1091.2152447067451
 21
642.90061131217271
  0
ARC
  8
_0-3_躯体と製品
  6
CONTINUOUS
 62
    7
 10
1090.6682447067751
 20
636.77450919985688
 40
4.8189999999968052
 50
83.482557999946295
 51
131.88824500092844
  0
ARC
  8
_0-3_躯体と製品
  6
CONTINUOUS
 62
    7
 10
1091.762244706727
 20
636.77450919985131
 40
4.8190000000166453
 50
48.11174900058424
 51
96.517436998853427
  0
LINE
  8
_0-3_躯体と製品
  6
CONTINUOUS
 62
    7
 10
1095.0414957927483
 20
640.06250919985473
 11
1094.9802447067291
 21
640.36250919987174
  0
LINE
  8
_0-3_躯体と製品
  6
CONTINUOUS
 62
    7
 10
1094.9802447067291
 20
640.36250919987174
 11
1091.2152447067442
 21
640.36250919987174
  0
LINE
  8
_0-3_躯体と製品
  6
CONTINUOUS
 62
    7
 10
1091.2152447067442
 20
640.36250919987174
 11
1087.4502447067312
 21
640.36250919987174
  0
LINE
  8
_0-3_躯体と製品
  6
CONTINUOUS
 62
    7
 10
1087.4502447067312
 20
640.36250919987174
 11
1087.3889936207192
 21
640.06250919985473
  0
LINE
  8
_0-3_躯体と製品
  6
CONTINUOUS
 62
    7
 10
1092.9652447067451
 20
627.21674519985459
 11
1092.4152447067449
 21
626.89920519985458
  0
LINE
  8
_0-3_躯体と製品
  6
CONTINUOUS
 62
    7
 10
1090.0152447067453
 20
626.82873519985264
 11
1092.4152447067449
 21
627.53429019985265
  0
LINE
  8
_0-3_躯体と製品
  6
CONTINUOUS
 62
    7
 10
1089.4652447067442
 20
626.51119019985254
 11
1090.0152447067453
 21
626.82873519985264
  0
LINE
  8
_0-3_躯体と製品
  6
CONTINUOUS
 62
    7
 10
1090.0152447067453
 20
626.82873519985264
 11
1090.0152447067453
 21
627.60476019985367
  0
LINE
  8
_0-3_躯体と製品
  6
CONTINUOUS
 62
    7
 10
1092.4152447067449
 20
624.71206519985253
 11
1092.9652447067451
 21
624.39452519985457
  0
LINE
  8
_0-3_躯体と製品
  6
CONTINUOUS
 62
    7
 10
1091.2152447067451
 20
624.04174519985372
 11
1092.9652447067451
 21
624.39452519985457
  0
LINE
  8
_0-3_躯体と製品
  6
CONTINUOUS
 62
    7
 10
1092.9652447067451
 20
624.39452519985457
 11
1092.4152447067449
 21
624.07698019985469
  0
LINE
  8
_0-3_躯体と製品
  6
CONTINUOUS
 62
    7
 10
1092.4152447067449
 20
626.12318019985355
 11
1092.9652447067451
 21
625.80563519985367
  0
ARC
  8
_0-3_躯体と製品
  6
CONTINUOUS
 62
    7
 10
1095.7395447067443
 20
620.57348519985453
 40
4.5414449999999427
 50
137.05380000001753
 51
175.02121999999039
  0
ARC
  8
_0-3_躯体と製品
  6
CONTINUOUS
 62
    7
 10
1091.234044706744
 20
619.64412019985275
 40
1.3236349999999331
 50
90.813543000016423
 51
157.04087000001471
  0
LINE
  8
_0-3_躯体と製品
  6
CONTINUOUS
 62
    7
 10
1092.4152447067449
 20
623.66762019985367
 11
1090.0152447067453
 21
623.66762019985367
  0
LINE
  8
_0-3_躯体と製品
  6
CONTINUOUS
 62
    7
 10
1090.0152447067453
 20
626.19365019985457
 11
1092.4152447067449
 21
626.89920519985458
  0
LINE
  8
_0-3_躯体と製品
  6
CONTINUOUS
 62
    7
 10
1092.4152447067449
 20
626.89920519985458
 11
1092.4152447067449
 21
626.12318019985355
  0
LINE
  8
_0-3_躯体と製品
  6
CONTINUOUS
 62
    7
 10
1092.4152447067449
 20
626.12318019985355
 11
1090.0152447067453
 21
625.41762019985367
  0
LINE
  8
_0-3_躯体と製品
  6
CONTINUOUS
 62
    7
 10
1090.0152447067453
 20
625.41762019985367
 11
1089.4652447067442
 21
625.10008019985366
  0
LINE
  8
_0-3_躯体と製品
  6
CONTINUOUS
 62
    7
 10
1092.4152447067449
 20
625.48809019985265
 11
1092.9652447067451
 21
625.80563519985367
  0
LINE
  8
_0-3_躯体と製品
  6
CONTINUOUS
 62
    7
 10
1092.9652447067451
 20
625.80563519985367
 11
1089.4652447067442
 21
625.10008019985366
  0
LINE
  8
_0-3_躯体と製品
  6
CONTINUOUS
 62
    7
 10
1089.4652447067442
 20
625.10008019985366
 11
1090.0152447067453
 21
624.78253519985356
  0
LINE
  8
_0-3_躯体と製品
  6
CONTINUOUS
 62
    7
 10
1090.0152447067453
 20
624.78253519985356
 11
1092.4152447067449
 21
625.48809019985265
  0
LINE
  8
_0-3_躯体と製品
  6
CONTINUOUS
 62
    7
 10
1092.4152447067449
 20
625.48809019985265
 11
1092.4152447067449
 21
624.71206519985253
  0
LINE
  8
_0-3_躯体と製品
  6
CONTINUOUS
 62
    7
 10
1092.4152447067449
 20
624.71206519985253
 11
1091.2152447067451
 21
624.04174519985372
  0
LINE
  8
_0-3_躯体と製品
  6
CONTINUOUS
 62
    7
 10
1091.2152447067451
 20
624.04174519985372
 11
1092.4152447067449
 21
624.07698019985469
  0
LINE
  8
_0-3_躯体と製品
  6
CONTINUOUS
 62
    7
 10
1092.4152447067449
 20
624.07698019985469
 11
1092.4152447067449
 21
620.16044019985361
  0
LINE
  8
_0-3_躯体と製品
  6
CONTINUOUS
 62
    7
 10
1092.4152447067449
 20
620.16044019985361
 11
1091.2152447067451
 21
619.46762019985454
  0
LINE
  8
_0-3_躯体と製品
  6
CONTINUOUS
 62
    7
 10
1091.2152447067451
 20
620.99480519985559
 11
1091.2152447067451
 21
619.46762019985454
  0
LINE
  8
_0-3_躯体と製品
  6
CONTINUOUS
 62
    7
 10
1091.2152447067451
 20
619.46762019985454
 11
1090.0152447067453
 21
620.16044019985361
  0
LINE
  8
_0-3_躯体と製品
  6
CONTINUOUS
 62
    7
 10
1090.0152447067453
 20
620.16044019985361
 11
1090.0152447067453
 21
626.19365019985457
  0
LINE
  8
_0-3_躯体と製品
  6
CONTINUOUS
 62
    7
 10
1090.0152447067453
 20
626.19365019985457
 11
1089.4652447067442
 21
626.51119019985254
  0
LINE
  8
_0-3_躯体と製品
  6
CONTINUOUS
 62
    7
 10
1089.4652447067442
 20
626.51119019985254
 11
1092.9652447067451
 21
627.21674519985459
  0
LINE
  8
_0-3_躯体と製品
  6
CONTINUOUS
 62
    7
 10
1092.9652447067451
 20
627.21674519985459
 11
1092.4152447067449
 21
627.53429019985265
  0
LINE
  8
_0-3_躯体と製品
  6
CONTINUOUS
 62
    7
 10
1092.4152447067449
 20
627.53429019985265
 11
1092.4152447067449
 21
628.31031519985254
  0
LINE
  8
_0-3_躯体と製品
  6
CONTINUOUS
 62
    7
 10
1092.9652447067451
 20
628.62785519985573
 11
1092.4152447067449
 21
628.31031519985572
  0
LINE
  8
_0-3_躯体と製品
  6
CONTINUOUS
 62
    7
 10
1090.0152447067453
 20
628.23984519985356
 11
1092.4152447067449
 21
628.94540019985357
  0
LINE
  8
_0-3_躯体と製品
  6
CONTINUOUS
 62
    7
 10
1089.4652447067442
 20
627.92230019985368
 11
1090.0152447067453
 21
628.23984519985356
  0
LINE
  8
_0-3_躯体と製品
  6
CONTINUOUS
 62
    7
 10
1090.0152447067453
 20
628.23984519985356
 11
1090.0152447067453
 21
628.96250919984868
  0
LINE
  8
_0-3_躯体と製品
  6
CONTINUOUS
 62
    7
 10
1090.0152447067453
 20
627.60476019985572
 11
1092.4152447067449
 21
628.31031519985572
  0
LINE
  8
_0-3_躯体と製品
  6
CONTINUOUS
 62
    7
 10
1090.0152447067453
 20
627.60476019985572
 11
1089.4652447067442
 21
627.92230019985368
  0
LINE
  8
_0-3_躯体と製品
  6
CONTINUOUS
 62
    7
 10
1089.4652447067442
 20
627.92230019985368
 11
1092.9652447067451
 21
628.62785519985573
  0
LINE
  8
_0-3_躯体と製品
  6
CONTINUOUS
 62
    7
 10
1092.9652447067451
 20
628.62785519985573
 11
1092.4152447067449
 21
628.94540019985357
  0
LINE
  8
_0-3_躯体と製品
  6
CONTINUOUS
 62
    7
 10
1092.4152447067449
 20
628.94540019985357
 11
1092.4152447067449
 21
628.96250919984868
  0
INSERT
  2
-016-_D17
  8
_0-2_寸法
 10
-1795.4604068635908
 20
-746.81436420020236
 41
1
 42
1
 50
0
  0
INSERT
  2
-017-_D18
  8
_0-2_寸法
 10
-1795.4604068635908
 20
-746.81436420020236
 41
1
 42
1
 50
0
  0
LINE
  8
_0-4_文字-記号
  6
CONTINUOUS
 62
    7
 10
1076.215244706746
 20
539.69260101483474
 11
1054.3432300298923
 21
555.08736101483464
  0
LINE
  8
_0-4_文字-記号
  6
CONTINUOUS
 62
    7
 10
1054.3432300298923
 20
555.08736101483464
 11
1022.963514889645
 21
555.08736101483464
  0
TEXT
  8
_0-4_文字-記号
 62
    7
 10
1024.4973917938682
 20
557.64143101483455
 40
8
 41
0.8
 50
0
  1
支持脚
  0
LINE
  8
_0-4_文字-記号
  6
CONTINUOUS
 62
    7
 10
1117.8716763342331
 20
577.56250919985973
 11
1129.037628334233
 21
558.22251319985958
  0
LINE
  8
_0-4_文字-記号
  6
CONTINUOUS
 62
    7
 10
1129.037628334233
 20
558.22251319985958
 11
1170.2671293342341
 21
558.22251319985958
  0
TEXT
  8
_0-4_文字-記号
 62
    7
 10
1131.3114223342332
 20
560.61194819985963
 40
8
 41
0.8
 50
0
  1
受け金具
  0
LINE
  8
_0-3_躯体と製品
  6
CONTINUOUS
 62
    7
 10
591.66694619407099
 20
508.66250915999171
 11
591.66694619407099
 21
511.66250915999171
  0
LINE
  8
_0-3_躯体と製品
  6
CONTINUOUS
 62
    7
 10
591.66694619407099
 20
508.66250915999171
 11
570.16694619407099
 21
508.66250915999171
  0
LINE
  8
_0-3_躯体と製品
  6
CONTINUOUS
 62
    7
 10
570.16694619407099
 20
508.66250915999171
 11
570.16694619407099
 21
511.66250915999171
  0
LINE
  8
_0-3_躯体と製品
  6
CONTINUOUS
 62
    7
 10
570.16694619407099
 20
511.66250915999171
 11
591.66694619407099
 21
511.66250915999171
  0
LINE
  8
_0-3_躯体と製品
  6
CONTINUOUS
 62
    7
 10
591.66694619407099
 20
511.66250915999171
 11
591.66694619407099
 21
508.66250915999171
  0
LINE
  8
_0-3_躯体と製品
  6
CONTINUOUS
 62
    7
 10
580.91683869407007
 20
517.66493166955775
 11
580.91683869407007
 21
512.66253715999574
  0
LINE
  8
_0-3_躯体と製品
  6
CONTINUOUS
 62
    7
 10
589.91301809700235
 20
512.66253715999574
 11
589.91301809700735
 21
517.66253354468063
  0
LINE
  8
_0-3_躯体と製品
  6
CONTINUOUS
 62
    7
 10
571.92065929113915
 20
512.66253715999574
 11
571.92065929114415
 21
517.66253354468063
  0
ARC
  8
_0-3_躯体と製品
  6
CONTINUOUS
 62
    7
 10
576.4187489926062
 20
522.27894264119163
 40
10.61640548119736
 50
244.93207904395504
 51
295.06792095604487
  0
ARC
  8
_0-3_躯体と製品
  6
CONTINUOUS
 62
    7
 10
585.41492839553712
 20
522.27894264119163
 40
10.61640548119736
 50
244.93207904395504
 51
295.06792095604487
  0
LINE
  8
_0-3_躯体と製品
  6
CONTINUOUS
 62
    7
 10
576.4187489926062
 20
518.66250915999171
 11
585.41492839553712
 21
518.66250915999171
  0
ARC
  8
_0-3_躯体と製品
  6
CONTINUOUS
 62
    7
 10
576.4187489926062
 20
508.04610367879468
 40
10.61640548119736
 50
64.932079043839948
 51
115.06792095615999
  0
ARC
  8
_0-3_躯体と製品
  6
CONTINUOUS
 62
    7
 10
585.41492839553712
 20
508.04610367879468
 40
10.61640548119736
 50
64.932079043839948
 51
115.06792095615999
  0
LINE
  8
_0-3_躯体と製品
  6
CONTINUOUS
 62
    7
 10
580.91694619405598
 20
507.66493166955775
 11
580.91694619405598
 21
500.66250919985464
  0
LINE
  8
_0-3_躯体と製品
  6
CONTINUOUS
 62
    7
 10
589.91312559698599
 20
500.66250919985464
 11
589.91312559699327
 21
507.66253354468154
  0
LINE
  8
_0-3_躯体と製品
  6
CONTINUOUS
 62
    7
 10
571.92076679112324
 20
500.66250919985464
 11
571.92076679113097
 21
507.66253354468154
  0
ARC
  8
_0-3_躯体と製品
  6
CONTINUOUS
 62
    7
 10
576.4188564925912
 20
498.04610367879468
 40
10.61640548119736
 50
64.932079043839948
 51
115.06792095615999
  0
ARC
  8
_0-3_躯体と製品
  6
CONTINUOUS
 62
    7
 10
585.41503589552303
 20
498.04610367879468
 40
10.61640548119736
 50
64.932079043839948
 51
115.06792095615999
  0
LINE
  8
_0-0_0
  6
CONTINUOUS
 62
    7
 10
1080.715244706746
 20
497.06250919985473
 11
1080.715244706746
 21
498.66250919985464
  0
LINE
  8
_0-0_0
  6
CONTINUOUS
 62
    7
 10
1083.715244706746
 20
497.06250919985473
 11
1083.715244706746
 21
498.66250919985464
  0
LINE
  8
_0-0_0
  6
CONTINUOUS
 62
    7
 10
1122.2152447067451
 20
497.06250919985473
 11
1122.2152447067451
 21
498.66250919985464
  0
LINE
  8
_0-0_0
  6
CONTINUOUS
 62
    7
 10
1042.2152447067451
 20
497.06250919985473
 11
1122.2152447067451
 21
497.06250919985473
  0
LINE
  8
_0-0_0
  6
CONTINUOUS
 62
    7
 10
1042.2152447067451
 20
498.66250919985464
 11
1042.2152447067451
 21
497.06250919985473
  0
LINE
  8
_0-0_0
  6
CONTINUOUS
 62
    7
 10
1122.2152447067451
 20
498.66250919985464
 11
1042.2152447067451
 21
498.66250919985464
  0
LINE
  8
_0-0_0
  6
CONTINUOUS
 62
    7
 10
1116.215244706746
 20
500.66250919985464
 11
1048.2152447067451
 21
500.66250919985464
  0
ARC
  8
_0-0_0
  6
CONTINUOUS
 62
    7
 10
1116.215244706746
 20
498.66250919985464
 40
2
 50
0
 51
90
  0
ARC
  8
_0-0_0
  6
CONTINUOUS
 62
    7
 10
1048.2152447067451
 20
498.66250919985464
 40
2
 50
90
 51
180
  0
ARC
  8
_0-3_躯体と製品
  6
CONTINUOUS
 62
    7
 10
1090.4282447067631
 20
514.41450919984754
 40
4.2479999999999949
 50
49.869772999608912
 51
130.1199190004948
  0
LINE
  8
_0-3_躯体と製品
  6
CONTINUOUS
 62
    7
 10
1087.6912447067411
 20
512.66150919985057
 11
1087.6912447067411
 21
517.66350919985166
  0
LINE
  8
_0-3_躯体と製品
  6
CONTINUOUS
 62
    7
 10
1093.1662447067461
 20
517.66250919985464
 11
1093.1662447067461
 21
512.66250919985464
  0
LINE
  8
_0-3_躯体と製品
  6
CONTINUOUS
 62
    7
 10
1092.965244706746
 20
508.66250919985464
 11
1092.965244706746
 21
511.66250919985464
  0
ARC
  8
_0-3_躯体と製品
  6
CONTINUOUS
 62
    7
 10
1090.4282447067631
 20
515.91050919985469
 40
4.2479999999999949
 50
229.88008099950511
 51
310.13022700039107
  0
LINE
  8
_0-3_躯体と製品
  6
CONTINUOUS
 62
    7
 10
1076.7412447067582
 20
512.66150919985057
 11
1076.7412447067582
 21
517.66350919985166
  0
LINE
  8
_0-3_躯体と製品
  6
CONTINUOUS
 62
    7
 10
1071.2662447067523
 20
517.66250919985464
 11
1071.2662447067523
 21
512.66250919985464
  0
LINE
  8
_0-3_躯体と製品
  6
CONTINUOUS
 62
    7
 10
1071.465244706746
 20
511.66250919985464
 11
1071.465244706746
 21
510.66250919985464
  0
ARC
  8
_0-3_躯体と製品
  6
CONTINUOUS
 62
    7
 10
1074.0042447067653
 20
514.41450919984754
 40
4.2479999999999949
 50
49.880087000140733
 51
130.13023300026873
  0
ARC
  8
_0-3_躯体と製品
  6
CONTINUOUS
 62
    7
 10
1074.0042447067653
 20
515.91050919985469
 40
4.2479999999999949
 50
229.86976699973124
 51
310.11991299985931
  0
ARC
  8
_0-3_躯体と製品
  6
CONTINUOUS
 62
    7
 10
1082.215244706746
 20
503.16950919985266
 40
15.492999999999981
 50
69.301553000439029
 51
110.69022699919751
  0
ARC
  8
_0-3_躯体と製品
  6
CONTINUOUS
 62
    7
 10
1082.215244706746
 20
527.15550919985753
 40
15.492999999999981
 50
249.30977300077458
 51
290.69844699956087
  0
LINE
  8
_0-3_躯体と製品
  6
CONTINUOUS
 62
    7
 10
1074.003244706746
 20
518.66250919985464
 11
1090.4272447067451
 21
518.66250919985464
  0
LINE
  8
_0-3_躯体と製品
  6
CONTINUOUS
 62
    7
 10
1092.965244706746
 20
511.66250919985464
 11
1071.465244706746
 21
511.66250919985464
  0
LINE
  8
_0-3_躯体と製品
  6
CONTINUOUS
 62
    7
 10
1092.965244706746
 20
508.66250919985464
 11
1071.465244706746
 21
508.66250919985464
  0
LINE
  8
_0-3_躯体と製品
  6
CONTINUOUS
 62
    7
 10
1071.465244706746
 20
508.66250919985464
 11
1071.465244706746
 21
511.66250919985464
  0
LINE
  8
_0-3_躯体と製品
  6
CONTINUOUS
 62
    7
 10
1071.465244706746
 20
511.66250919985464
 11
1092.965244706746
 21
511.66250919985464
  0
LINE
  8
_0-3_躯体と製品
  6
CONTINUOUS
 62
    7
 10
1092.965244706746
 20
511.66250919985464
 11
1092.965244706746
 21
508.66250919985464
  0
LINE
  8
_0-3_躯体と製品
  6
CONTINUOUS
 62
    7
 10
1082.215244706746
 20
511.66250919985464
 11
1080.4831938991783
 21
508.66250919985464
  0
LINE
  8
_0-3_躯体と製品
  6
CONTINUOUS
 62
    7
 10
1083.9472955143142
 20
511.66250919985464
 11
1082.215244706746
 21
508.66250919985464
  0
ARC
  8
_0-3_躯体と製品
  6
CONTINUOUS
 62
    7
 10
1090.4282447067631
 20
504.41450919984754
 40
4.2479999999999949
 50
49.869772999608912
 51
130.1199190004948
  0
LINE
  8
_0-3_躯体と製品
  6
CONTINUOUS
 62
    7
 10
1087.6912447067411
 20
500.66250919985464
 11
1087.6912447067411
 21
507.66350919985166
  0
LINE
  8
_0-3_躯体と製品
  6
CONTINUOUS
 62
    7
 10
1093.1662447067461
 20
507.66250919985464
 11
1093.1662447067461
 21
500.66250919985464
  0
LINE
  8
_0-3_躯体と製品
  6
CONTINUOUS
 62
    7
 10
1076.7412447067582
 20
500.66250919985464
 11
1076.7412447067582
 21
507.66350919985166
  0
LINE
  8
_0-3_躯体と製品
  6
CONTINUOUS
 62
    7
 10
1071.2662447067523
 20
507.66250919985464
 11
1071.2662447067523
 21
500.66250919985464
  0
ARC
  8
_0-3_躯体と製品
  6
CONTINUOUS
 62
    7
 10
1074.0042447067653
 20
504.41450919984754
 40
4.2479999999999949
 50
49.880087000140733
 51
130.13023300026873
  0
ARC
  8
_0-3_躯体と製品
  6
CONTINUOUS
 62
    7
 10
1082.215244706746
 20
493.16950919985266
 40
15.492999999999981
 50
69.301553000439029
 51
110.69022699919751
  0
LINE
  8
_0-3_躯体と製品
  6
CONTINUOUS
 62
    7
 10
1074.003244706746
 20
508.66250919985464
 11
1090.4272447067451
 21
508.66250919985464
  0
LINE
  8
_0-0_0
  6
CONTINUOUS
 62
    7
 10
579.41683869407007
 20
497.06250919985473
 11
579.41683869407007
 21
498.66250919985464
  0
LINE
  8
_0-0_0
  6
CONTINUOUS
 62
    7
 10
582.41683869407098
 20
497.06250919985473
 11
582.41683869407098
 21
498.66250919985464
  0
LINE
  8
_0-0_0
  6
CONTINUOUS
 62
    7
 10
620.91683869407007
 20
497.06250919985473
 11
620.91683869407007
 21
498.66250919985464
  0
LINE
  8
_0-0_0
  6
CONTINUOUS
 62
    7
 10
540.91683869407007
 20
497.06250919985473
 11
620.91683869407007
 21
497.06250919985473
  0
LINE
  8
_0-0_0
  6
CONTINUOUS
 62
    7
 10
540.91683869407007
 20
498.66250919985464
 11
540.91683869407007
 21
497.06250919985473
  0
LINE
  8
_0-0_0
  6
CONTINUOUS
 62
    7
 10
620.91683869407007
 20
498.66250919985464
 11
540.91683869407007
 21
498.66250919985464
  0
LINE
  8
_0-0_0
  6
CONTINUOUS
 62
    7
 10
614.91683869407098
 20
500.66250919985464
 11
546.91683869407098
 21
500.66250919985464
  0
ARC
  8
_0-0_0
  6
CONTINUOUS
 62
    7
 10
614.91683869407098
 20
498.66250919985464
 40
2
 50
0
 51
90
  0
ARC
  8
_0-0_0
  6
CONTINUOUS
 62
    7
 10
546.91683869407098
 20
498.66250919985464
 40
2
 50
90
 51
180
  0
LINE
  8
_0-4_文字-記号
  6
CONTINUOUS
 62
    7
 10
539.84342322557995
 20
488.32487473545461
 11
519.75154136669425
 21
453.52471453619273
  0
LINE
  8
_0-4_文字-記号
  6
CONTINUOUS
 62
    7
 10
519.75154136669425
 20
453.52471453619273
 11
466.37692093500118
 21
453.52471453619273
  0
TEXT
  8
_0-4_文字-記号
 62
    7
 10
471.24285745503721
 20
455.91414953619164
 40
8
 41
0.8
 50
0
  1
防水層（別途）
  0
LINE
  8
_0-4_文字-記号
  6
CONTINUOUS
 62
    7
 10
509.21658642712418
 20
493.83223631886062
 11
496.96366604419518
 21
515.05491696319064
  0
LINE
  8
_0-4_文字-記号
  6
CONTINUOUS
 62
    7
 10
496.96366604419518
 20
515.05491696319064
 11
386.51739277803517
 21
515.05491696319064
  0
TEXT
  8
_0-4_文字-記号
 62
    7
 10
386.98691845897019
 20
517.60898696319055
 40
8
 41
0.8
 50
0
  1
アスファルト系成形板等（別途）
  0
LINE
  8
_0-4_文字-記号
  6
CONTINUOUS
 62
    7
 10
554.38624792014298
 20
498.66250919985464
 11
531.00344527370498
 21
539.16271140684262
  0
LINE
  8
_0-4_文字-記号
  6
CONTINUOUS
 62
    7
 10
531.00344527370498
 20
539.16271140684262
 11
485.85416711783409
 21
539.16271140684262
  0
TEXT
  8
_0-4_文字-記号
 62
    7
 10
489.00369279876804
 20
541.71678140684162
 40
8
 41
0.8
 50
0
  1
ベース金具
  0
LINE
  8
_0-4_文字-記号
  6
CONTINUOUS
 62
    7
 10
1041.141829238255
 20
488.32487473545461
 11
1021.0499473793693
 21
453.52471453619273
  0
LINE
  8
_0-4_文字-記号
  6
CONTINUOUS
 62
    7
 10
1021.0499473793693
 20
453.52471453619273
 11
967.67532694767624
 21
453.52471453619273
  0
TEXT
  8
_0-4_文字-記号
 62
    7
 10
972.54126346771318
 20
455.91414953619255
 40
8
 41
0.8
 50
0
  1
防水層（別途）
  0
LINE
  8
_0-4_文字-記号
  6
CONTINUOUS
 62
    7
 10
1010.5149924397992
 20
493.83223631886062
 11
998.26207205687024
 21
515.05491696319064
  0
LINE
  8
_0-4_文字-記号
  6
CONTINUOUS
 62
    7
 10
998.26207205687024
 20
515.05491696319064
 11
887.81579879071114
 21
515.05491696319064
  0
TEXT
  8
_0-4_文字-記号
 62
    7
 10
888.28532447164616
 20
517.60898696319055
 40
8
 41
0.8
 50
0
  1
アスファルト系成形板等（別途）
  0
LINE
  8
_0-4_文字-記号
  6
CONTINUOUS
 62
    7
 10
1055.6846539328189
 20
498.66250919985555
 11
1032.30185128638
 21
539.16271140684262
  0
LINE
  8
_0-4_文字-記号
  6
CONTINUOUS
 62
    7
 10
1032.30185128638
 20
539.16271140684262
 11
987.15257313050915
 21
539.16271140684262
  0
TEXT
  8
_0-4_文字-記号
 62
    7
 10
990.30209881144401
 20
541.71678140684253
 40
8
 41
0.8
 50
0
  1
ベース金具
  0
ENDSEC
  0
EOF
