  0
SECTION
  2
HEADER
  9
$ACADVER
  1
AC1009
  9
$INSBASE
 10
0
 20
0
 30
0
  9
$EXTMIN
 10
0
 20
0
  9
$EXTMAX
 10
1680
 20
1188
  9
$LIMMIN
 10
0
 20
0
  9
$LIMMAX
 10
1680
 20
1188
  9
$LTSCALE
 40
4
  0
ENDSEC
  0
SECTION
  2
TABLES
  0
TABLE
  2
LTYPE
 70
     9
  0
LTYPE
  2
CONTINUOUS
 70
    64
  3
実線
 72
    65
 73
     0
 40
0.0
  0
LTYPE
  2
DASHED1
 70
    64
  3
--  --  --  --  --  --  --  --  
 72
    65
 73
     2
 40
2.5
 49
1.25
 49
-1.25
  0
LTYPE
  2
DASHED2
 70
    64
  3
----    ----    ----    ----    
 72
    65
 73
     2
 40
5.0
 49
2.5
 49
-2.5
  0
LTYPE
  2
DASHED3
 70
    64
  3
------  ------  ------  ------  
 72
    65
 73
     2
 40
5.0
 49
3.75
 49
-1.25
  0
LTYPE
  2
CENTER1
 70
    64
  3
----- - ----- - ----- - ----- - 
 72
    65
 73
     4
 40
10.0
 49
6.25
 49
-1.25
 49
1.25
 49
-1.25
  0
LTYPE
  2
CENTER2
 70
    64
  3
----------  --  ----------  --  
 72
    65
 73
     4
 40
20.0
 49
12.5
 49
-2.5
 49
2.5
 49
-2.5
  0
LTYPE
  2
PHANTOM1
 70
    64
  3
--- - - --- - - --- - - --- - - 
 72
    65
 73
     6
 40
10.0
 49
3.25
 49
-1.25
 49
1.25
 49
-1.25
 49
1.25
 49
-1.25
  0
LTYPE
  2
PHANTOM2
 70
    64
  3
--------  -  -  --------  -  -  
 72
    65
 73
     6
 40
20.0
 49
10.0
 49
-2.5
 49
1.25
 49
-2.5
 49
1.25
 49
-2.5
  0
LTYPE
  2
DOT
 70
    64
  3
-   -   -   -   -   -   -   -   
 72
    65
 73
     2
 40
2.5
 49
0.625
 49
-1.875
  0
LTYPE
  2
DUMMY
 70
    64
  3
ダミー
 72
    65
 73
     0
 40
0.0
  0
LTYPE
  2
RAND1
 70
    64
  3
ランダム線1
 72
    65
 73
     4
 40
10.0
 49
1.0
 49
-2.0
 49
3.0
 49
-4.0
  0
LTYPE
  2
RAND2
 70
    64
  3
ランダム線2
 72
    65
 73
     4
 40
14.0
 49
2.0
 49
-3.0
 49
4.0
 49
-5.0
  0
LTYPE
  2
RAND3
 70
    64
  3
ランダム線3
 72
    65
 73
     4
 40
18.0
 49
3.0
 49
-4.0
 49
5.0
 49
-6.0
  0
LTYPE
  2
RAND4
 70
    64
  3
ランダム線4
 72
    65
 73
     4
 40
22.0
 49
4.0
 49
-5.0
 49
6.0
 49
-7.0
  0
LTYPE
  2
RAND5
 70
    64
  3
ランダム線5
 72
    65
 73
     4
 40
26.0
 49
5.0
 49
-6.0
 49
7.0
 49
-8.0
  0
LTYPE
  2
LONG1
 70
    64
  3
----------  --  ----------  --  
 72
    65
 73
     4
 40
40.0
 49
32.5
 49
-2.5
 49
2.5
 49
-2.5
  0
LTYPE
  2
LONG2
 70
    64
  3
--------  -  -  --------  -  -  
 72
    65
 73
     6
 40
40.0
 49
30.0
 49
-2.5
 49
1.25
 49
-2.5
 49
1.25
 49
-2.5
  0
LTYPE
  2
LONG3
 70
    64
  3
+++++++++++++++..+++++++++++++++
 72
    65
 73
     2
 40
40.0
 49
37.5
 49
-2.5
  0
LTYPE
  2
LONG4
 70
    64
  3
+++++++++++++++..+++++++++++++++
 72
    65
 73
     2
 40
80.0
 49
75.0
 49
-5.0
  0
LTYPE
  2
LONG5
 70
    64
  3
----------  --  ----------  --  
 72
    65
 73
     4
 40
60.0
 49
37.5
 49
-7.5
 49
7.5
 49
-7.5
  0
LTYPE
  2
dashed
 70
   64
  3
-------   -------------   ------
 72
   65
 73
    2
 40
7.5
 49
6
 49
-1.5
  0
LTYPE
  2
dashed_spaced
 70
   64
  3
----        --------        ----
 72
   65
 73
    2
 40
12
 49
6
 49
-6
  0
LTYPE
  2
long_dashed_dotted
 70
   64
  3
------------- --- --------------
 72
   65
 73
    4
 40
15.25
 49
12
 49
-1.5
 49
0.25
 49
-1.5
  0
LTYPE
  2
long_dashed_double-dotted
 70
   64
  3
----------- --- --- ------------
 72
   65
 73
    6
 40
17
 49
12
 49
-1.5
 49
0.25
 49
-1.5
 49
0.25
 49
-1.5
  0
LTYPE
  2
long_dashed_triplicate-dotted
 70
   64
  3
--------- --- --- --- ----------
 72
   65
 73
    8
 40
18.75
 49
12
 49
-1.5
 49
0.25
 49
-1.5
 49
0.25
 49
-1.5
 49
0.25
 49
-1.5
  0
LTYPE
  2
dotted
 70
   64
  3
   -       -       -       -    
 72
   65
 73
    2
 40
1.75
 49
0.25
 49
-1.5
  0
LTYPE
  2
chain
 70
   64
  3
-------------- -- --------------
 72
   65
 73
    4
 40
18.5
 49
12
 49
-1.5
 49
3.5
 49
-1.5
  0
LTYPE
  2
chain_double_dash
 70
   64
  3
------------ -- -- -------------
 72
   65
 73
    6
 40
23.5
 49
12
 49
-1.5
 49
3.5
 49
-1.5
 49
3.5
 49
-1.5
  0
LTYPE
  2
dashed_dotted
 70
   64
  3
-----------     -     ----------
 72
   65
 73
    4
 40
9.25
 49
6
 49
-1.5
 49
0.25
 49
-1.5
  0
LTYPE
  2
double-dashed_dotted
 70
   64
  3
------   -----------   -   -----
 72
   65
 73
    6
 40
16.75
 49
6
 49
-1.5
 49
6
 49
-1.5
 49
0.25
 49
-1.5
  0
LTYPE
  2
dashed_double-dotted
 70
   64
  3
---------    -    -    ---------
 72
   65
 73
    6
 40
11
 49
6
 49
-1.5
 49
0.25
 49
-1.5
 49
0.25
 49
-1.5
  0
LTYPE
  2
double-dashed_double-dotted
 70
   64
  3
-----   ---------   -   -   ----
 72
   65
 73
    8
 40
18.5
 49
6
 49
-1.5
 49
6
 49
-1.5
 49
0.25
 49
-1.5
 49
0.25
 49
-1.5
  0
LTYPE
  2
dashed_triplicate-dotted
 70
   64
  3
-------    -    -    -    ------
 72
   65
 73
    8
 40
12.75
 49
6
 49
-1.5
 49
0.25
 49
-1.5
 49
0.25
 49
-1.5
 49
0.25
 49
-1.5
  0
LTYPE
  2
double-dashed_triplicate-dotted
 70
   64
  3
-----  ---------  -  -  -  -----
 72
   65
 73
   10
 40
20.25
 49
6
 49
-1.5
 49
6
 49
-1.5
 49
0.25
 49
-1.5
 49
0.25
 49
-1.5
 49
0.25
 49
-1.5
  0
LTYPE
  2
undefined
 70
   64
  3
--------------------------------
 72
   65
 73
    0
 40
0
  0
LTYPE
  2
PLINE2
 70
   64
  3
------     -----------     -----
 72
   65
 73
    2
 40
3
 49
2.1000000000000001
 49
-0.9
  0
ENDTAB
  0
TABLE
  2
STYLE
  5
3
100
AcDbSymbolTable
 70
     1
  0
STYLE
  5
10
100
AcDbSymbolTableRecord
100
AcDbTextStyleTableRecord
  2
STANDARD
 70
     0
 40
0.0
 41
1.0
 50
0.0
 71
     0
 42
0.2
  3
txt
  4
bigfont.shx
  0
STYLE
  5
26
100
AcDbSymbolTableRecord
100
AcDbTextStyleTableRecord
  2
TATEGAKI
 70
    68
 40
0.0
 41
1.0
 50
0.0
 71
     0
 42
1.0
  3
txt
  4
bigfont.shx
  0
ENDTAB
  0
TABLE
  2
LAYER
 70
    6
  0
LAYER
  2
_0-0_0
 70
   64
 62
    7
  6
CONTINUOUS
  0
LAYER
  2
_0-1_躯体と製品
 70
   64
 62
    7
  6
CONTINUOUS
  0
LAYER
  2
_0-2_文字-記号
 70
   64
 62
    7
  6
CONTINUOUS
  0
LAYER
  2
_0-4_寸法
 70
   64
 62
    7
  6
CONTINUOUS
  0
LAYER
  2
_0-5_中心線
 70
   64
 62
    7
  6
CONTINUOUS
  0
LAYER
  2
ADD_LINE
 70
   64
 62
    7
  6
CONTINUOUS
  0
ENDTAB
  0
ENDSEC
  0
SECTION
  2
BLOCKS
  0
BLOCK
  2
-000-_Dot
 70
   64
 10
0
 20
0
 30
0
  0
CIRCLE
  8
_0-0_0
  6
CONTINUOUS
 62
    7
 10
0
 20
0
 40
0.25
  0
LINE
  8
_0-0_0
  6
CONTINUOUS
 62
    7
 10
0.25
 20
0
 11
-0.25
 21
0
  0
LINE
  8
_0-0_0
  6
CONTINUOUS
 62
    7
 10
-0.5
 20
0
 11
-1
 21
0
  0
ENDBLK
  0
BLOCK
  2
-001-_Open30
 70
   64
 10
0
 20
0
 30
0
  0
LINE
  8
_0-0_0
  6
CONTINUOUS
 62
    7
 10
-1
 20
0.26794919
 11
0
 21
0
  0
LINE
  8
_0-0_0
  6
CONTINUOUS
 62
    7
 10
0
 20
0
 11
-1
 21
-0.26794919
  0
LINE
  8
_0-0_0
  6
CONTINUOUS
 62
    7
 10
0
 20
0
 11
-1
 21
0
  0
ENDBLK
  0
BLOCK
  2
-002-_D3
 70
   64
 10
0
 20
0
 30
0
  0
LINE
  8
_0-4_寸法
  6
CONTINUOUS
 62
    4
 10
3258.716647547044
 20
1132.4839899582421
 11
3402.716647547044
 21
1132.4839899582421
  0
INSERT
  2
-001-_Open30
  8
_0-4_寸法
 10
3255.716647547044
 20
1132.4839899582421
 41
3
 42
3
 50
180
  0
INSERT
  2
-001-_Open30
  8
_0-4_寸法
 10
3405.716647547044
 20
1132.4839899582421
 41
3
 42
3
 50
0
  0
TEXT
  8
_0-4_寸法
 62
    7
 10
3318.716647547044
 20
1133.4839899582421
 40
12
 41
1
 50
0
  1
@900
  0
POINT
  8
_0-3_Defpoints
 62
    7
 10
3255.716647547044
 20
1132.4839899582421
  0
POINT
  8
_0-3_Defpoints
 62
    7
 10
3405.716647547044
 20
1132.4839899582421
  0
POINT
  8
_0-3_Defpoints
 62
    7
 10
3405.716647547044
 20
1132.4839899582421
  0
ENDBLK
  0
BLOCK
  2
-003-_D4
 70
   64
 10
0
 20
0
 30
0
  0
LINE
  8
_0-4_寸法
  6
CONTINUOUS
 62
    4
 10
3408.716647547044
 20
1132.4839899582421
 11
3552.716647547044
 21
1132.4839899582421
  0
INSERT
  2
-001-_Open30
  8
_0-4_寸法
 10
3405.716647547044
 20
1132.4839899582421
 41
3
 42
3
 50
180
  0
INSERT
  2
-001-_Open30
  8
_0-4_寸法
 10
3555.716647547044
 20
1132.4839899582421
 41
3
 42
3
 50
0
  0
TEXT
  8
_0-4_寸法
 62
    7
 10
3468.716647547044
 20
1133.4839899582421
 40
12
 41
1
 50
0
  1
@900
  0
POINT
  8
_0-3_Defpoints
 62
    7
 10
3405.716647547044
 20
1132.4839899582421
  0
POINT
  8
_0-3_Defpoints
 62
    7
 10
3555.716647547044
 20
1132.4839899582421
  0
POINT
  8
_0-3_Defpoints
 62
    7
 10
3555.716647547044
 20
1132.4839899582421
  0
ENDBLK
  0
BLOCK
  2
-004-_D5
 70
   64
 10
0
 20
0
 30
0
  0
LINE
  8
_0-4_寸法
  6
CONTINUOUS
 62
    4
 10
2777.9299538540622
 20
1132.4839899582421
 11
2921.9299538540622
 21
1132.4839899582421
  0
INSERT
  2
-001-_Open30
  8
_0-4_寸法
 10
2774.9299538540622
 20
1132.4839899582421
 41
3
 42
3
 50
180
  0
INSERT
  2
-001-_Open30
  8
_0-4_寸法
 10
2924.9299538540622
 20
1132.4839899582421
 41
3
 42
3
 50
0
  0
TEXT
  8
_0-4_寸法
 62
    7
 10
2837.9299538540622
 20
1133.4839899582421
 40
12
 41
1
 50
0
  1
@900
  0
POINT
  8
_0-3_Defpoints
 62
    7
 10
2774.9299538540622
 20
1132.4839899582421
  0
POINT
  8
_0-3_Defpoints
 62
    7
 10
2924.9299538540622
 20
1132.4839899582421
  0
POINT
  8
_0-3_Defpoints
 62
    7
 10
2924.9299538540622
 20
1132.4839899582421
  0
ENDBLK
  0
BLOCK
  2
-005-_D6
 70
   64
 10
0
 20
0
 30
0
  0
LINE
  8
_0-4_寸法
  6
CONTINUOUS
 62
    4
 10
2927.9299538540622
 20
1132.4839899582421
 11
3058.503860283744
 21
1132.4839899582421
  0
INSERT
  2
-001-_Open30
  8
_0-4_寸法
 10
2924.9299538540622
 20
1132.4839899582421
 41
3
 42
3
 50
180
  0
INSERT
  2
-001-_Open30
  8
_0-4_寸法
 10
3061.503860283744
 20
1132.4839899582421
 41
3
 42
3
 50
0
  0
TEXT
  8
_0-4_寸法
 62
    7
 10
2981.2169070689029
 20
1133.4839899582421
 40
12
 41
1
 50
0
  1
@900
  0
POINT
  8
_0-3_Defpoints
 62
    7
 10
2924.9299538540622
 20
1132.4839899582421
  0
POINT
  8
_0-3_Defpoints
 62
    7
 10
3061.503860283744
 20
1132.4839899582421
  0
POINT
  8
_0-3_Defpoints
 62
    7
 10
3061.503860283744
 20
1132.4839899582421
  0
ENDBLK
  0
BLOCK
  2
-006-_D7
 70
   64
 10
0
 20
0
 30
0
  0
LINE
  8
_0-4_寸法
  6
CONTINUOUS
 62
    4
 10
3065.689605978384
 20
1212.127739958242
 11
3173.834076850444
 21
1212.127739958242
  0
LINE
  8
_0-4_寸法
  6
CONTINUOUS
 62
    4
 10
3065.689605978384
 20
1862.127739958242
 11
3173.834076850444
 21
1862.127739958242
  0
LINE
  8
_0-4_寸法
  6
CONTINUOUS
 62
    4
 10
3173.834076850444
 20
1215.127739958242
 11
3173.834076850444
 21
1859.127739958242
  0
INSERT
  2
-001-_Open30
  8
_0-4_寸法
 10
3173.834076850444
 20
1212.127739958242
 41
3
 42
3
 50
270
  0
INSERT
  2
-001-_Open30
  8
_0-4_寸法
 10
3173.834076850444
 20
1862.127739958242
 41
3
 42
3
 50
90
  0
TEXT
  8
_0-4_寸法
 62
    7
 10
3172.8340768504431
 20
1513.127739958242
 40
12
 41
1
 50
90
  1
300～700
  0
POINT
  8
_0-3_Defpoints
 62
    7
 10
3065.689605978384
 20
1212.127739958242
  0
POINT
  8
_0-3_Defpoints
 62
    7
 10
3065.689605978384
 20
1862.127739958242
  0
POINT
  8
_0-3_Defpoints
 62
    7
 10
3173.834076850444
 20
1862.127739958242
  0
ENDBLK
  0
BLOCK
  2
-007-_D8
 70
   64
 10
0
 20
0
 30
0
  0
LINE
  8
_0-4_寸法
  6
CONTINUOUS
 62
    4
 10
3065.689605978384
 20
1794.1277399582359
 11
3132.5713318504459
 21
1794.1277399582359
  0
LINE
  8
_0-4_寸法
  6
CONTINUOUS
 62
    4
 10
3121.7119419928281
 20
1834.127739958235
 11
3132.5713318504459
 21
1834.127739958235
  0
LINE
  8
_0-4_寸法
  6
CONTINUOUS
 62
    4
 10
3132.5713318504459
 20
1797.1277399582359
 11
3132.5713318504459
 21
1831.1277399582359
  0
INSERT
  2
-001-_Open30
  8
_0-4_寸法
 10
3132.5713318504459
 20
1794.1277399582359
 41
3
 42
3
 50
270
  0
INSERT
  2
-001-_Open30
  8
_0-4_寸法
 10
3132.5713318504459
 20
1834.127739958235
 41
3
 42
3
 50
90
  0
TEXT
  8
_0-4_寸法
 62
    7
 10
3131.5713318504449
 20
1809.1277399582359
 40
10
 41
1
 50
90
  1
40
  0
POINT
  8
_0-3_Defpoints
 62
    7
 10
3065.689605978384
 20
1794.1277399582359
  0
POINT
  8
_0-3_Defpoints
 62
    7
 10
3121.7119419928281
 20
1834.127739958235
  0
POINT
  8
_0-3_Defpoints
 62
    7
 10
3132.5713318504459
 20
1834.127739958235
  0
ENDBLK
  0
BLOCK
  2
-008-_D9
 70
   64
 10
0
 20
0
 30
0
  0
LINE
  8
_0-4_寸法
  6
CONTINUOUS
 62
    4
 10
2949.1181429819999
 20
1792.1277399582291
 11
3132.5713318504459
 21
1792.1277399582291
  0
LINE
  8
_0-4_寸法
  6
CONTINUOUS
 62
    4
 10
3065.689605978384
 20
1794.1277399582359
 11
3132.5713318504459
 21
1794.1277399582359
  0
LINE
  8
_0-4_寸法
  6
CONTINUOUS
 62
    4
 10
3132.5713318504459
 20
1797.1277399582359
 11
3132.5713318504459
 21
1800.1277399582359
  0
LINE
  8
_0-4_寸法
  6
CONTINUOUS
 62
    4
 10
3132.5713318504459
 20
1789.1277399582291
 11
3132.5713318504459
 21
1779.7187208915809
  0
LINE
  8
_0-4_寸法
  6
CONTINUOUS
 62
    4
 10
3132.5713318504459
 20
1779.7187208915809
 11
3126.2379985171128
 21
1779.7187208915809
  0
INSERT
  2
-001-_Open30
  8
_0-4_寸法
 10
3132.5713318504459
 20
1794.1277399582359
 41
3
 42
3
 50
270
  0
INSERT
  2
-001-_Open30
  8
_0-4_寸法
 10
3132.5713318504459
 20
1792.1277399582291
 41
3
 42
3
 50
90
  0
TEXT
  8
_0-4_寸法
 62
    7
 10
3126.4046651837789
 20
1780.7187208915821
 40
10
 41
1
 50
0
  1
2
  0
POINT
  8
_0-3_Defpoints
 62
    7
 10
2949.1181429819999
 20
1792.1277399582291
  0
POINT
  8
_0-3_Defpoints
 62
    7
 10
3065.689605978384
 20
1794.1277399582359
  0
POINT
  8
_0-3_Defpoints
 62
    7
 10
3132.5713318504459
 20
1794.1277399582359
  0
ENDBLK
  0
BLOCK
  2
-009-_D10
 70
   64
 10
0
 20
0
 30
0
  0
LINE
  8
_0-4_寸法
  6
CONTINUOUS
 62
    4
 10
2854.9299538540622
 20
1873.627739958235
 11
2854.9299538540622
 21
1904.4900673285481
  0
LINE
  8
_0-4_寸法
  6
CONTINUOUS
 62
    4
 10
3014.9299538540622
 20
1873.627739958235
 11
3014.9299538540622
 21
1904.4900673285481
  0
LINE
  8
_0-4_寸法
  6
CONTINUOUS
 62
    4
 10
2855.9299538540622
 20
1904.4900673285481
 11
3013.9299538540622
 21
1904.4900673285481
  0
INSERT
  2
-000-_Dot
  8
_0-4_寸法
 10
2854.9299538540622
 20
1904.4900673285481
 41
1
 42
1
 50
180
  0
INSERT
  2
-000-_Dot
  8
_0-4_寸法
 10
3014.9299538540622
 20
1904.4900673285481
 41
1
 42
1
 50
0
  0
TEXT
  8
_0-4_寸法
 62
    7
 10
2925.9299538540622
 20
1907.4900673285481
 40
12
 41
1
 50
0
  1
160
  0
POINT
  8
_0-3_Defpoints
 62
    7
 10
2854.9299538540622
 20
1873.627739958235
  0
POINT
  8
_0-3_Defpoints
 62
    7
 10
3014.9299538540622
 20
1873.627739958235
  0
POINT
  8
_0-3_Defpoints
 62
    7
 10
3014.9299538540622
 20
1904.4900673285481
  0
ENDBLK
  0
BLOCK
  2
-010-_D11
 70
   64
 10
0
 20
0
 30
0
  0
LINE
  8
_0-4_寸法
  6
CONTINUOUS
 62
    4
 10
2848.9299538540622
 20
1873.627739958235
 11
2848.9299538540622
 21
1904.4900673285481
  0
LINE
  8
_0-4_寸法
  6
CONTINUOUS
 62
    4
 10
2854.9299538540622
 20
1873.627739958235
 11
2854.9299538540622
 21
1904.4900673285481
  0
LINE
  8
_0-4_寸法
  6
CONTINUOUS
 62
    4
 10
2847.9299538540622
 20
1904.4900673285481
 11
2846.9299538540622
 21
1904.4900673285481
  0
LINE
  8
_0-4_寸法
  6
CONTINUOUS
 62
    4
 10
2855.9299538540622
 20
1904.4900673285481
 11
2856.9299538540622
 21
1904.4900673285481
  0
LINE
  8
_0-4_寸法
  6
CONTINUOUS
 62
    4
 10
2848.9299538540622
 20
1904.4900673285481
 11
2854.9299538540622
 21
1904.4900673285481
  0
INSERT
  2
-000-_Dot
  8
_0-4_寸法
 10
2848.9299538540622
 20
1904.4900673285481
 41
1
 42
1
 50
0
  0
INSERT
  2
-000-_Dot
  8
_0-4_寸法
 10
2854.9299538540622
 20
1904.4900673285481
 41
1
 42
1
 50
180
  0
TEXT
  8
_0-4_寸法
 62
    7
 10
2848.9299538540622
 20
1907.4900673285481
 40
12
 41
1
 50
0
  1
6
  0
POINT
  8
_0-3_Defpoints
 62
    7
 10
2848.9299538540622
 20
1873.627739958235
  0
POINT
  8
_0-3_Defpoints
 62
    7
 10
2854.9299538540622
 20
1873.627739958235
  0
POINT
  8
_0-3_Defpoints
 62
    7
 10
2854.9299538540622
 20
1904.4900673285481
  0
ENDBLK
  0
BLOCK
  2
-011-_D12
 70
   64
 10
0
 20
0
 30
0
  0
LINE
  8
_0-4_寸法
  6
CONTINUOUS
 62
    4
 10
2848.9299538540622
 20
1873.627739958235
 11
2848.9299538540622
 21
1904.4900673285481
  0
LINE
  8
_0-4_寸法
  6
CONTINUOUS
 62
    4
 10
2761.5014168504458
 20
1904.4900673285481
 11
2847.9299538540622
 21
1904.4900673285481
  0
INSERT
  2
-000-_Dot
  8
_0-4_寸法
 10
2848.9299538540622
 20
1904.4900673285481
 41
1
 42
1
 50
0
  0
TEXT
  8
_0-4_寸法
 62
    7
 10
2795.7156853522538
 20
1907.4900673285481
 40
12
 41
1
 50
0
  1
160
  0
POINT
  8
_0-3_Defpoints
 62
    7
 10
2761.5014168504458
 20
1904.4900673285481
  0
POINT
  8
_0-3_Defpoints
 62
    7
 10
2848.9299538540622
 20
1873.627739958235
  0
POINT
  8
_0-3_Defpoints
 62
    7
 10
2848.9299538540622
 20
1904.4900673285481
  0
ENDBLK
  0
BLOCK
  2
-012-_D13
 70
   64
 10
0
 20
0
 30
0
  0
LINE
  8
_0-4_寸法
  6
CONTINUOUS
 62
    4
 10
3014.9299538540622
 20
1873.627739958235
 11
3014.9299538540622
 21
1904.4900673285481
  0
LINE
  8
_0-4_寸法
  6
CONTINUOUS
 62
    4
 10
3020.9299538540622
 20
1873.627739958235
 11
3020.9299538540622
 21
1904.4900673285481
  0
LINE
  8
_0-4_寸法
  6
CONTINUOUS
 62
    4
 10
3013.9299538540622
 20
1904.4900673285481
 11
3012.9299538540622
 21
1904.4900673285481
  0
LINE
  8
_0-4_寸法
  6
CONTINUOUS
 62
    4
 10
3021.9299538540622
 20
1904.4900673285481
 11
3022.9299538540622
 21
1904.4900673285481
  0
LINE
  8
_0-4_寸法
  6
CONTINUOUS
 62
    4
 10
3014.9299538540622
 20
1904.4900673285481
 11
3020.9299538540622
 21
1904.4900673285481
  0
INSERT
  2
-000-_Dot
  8
_0-4_寸法
 10
3014.9299538540622
 20
1904.4900673285481
 41
1
 42
1
 50
0
  0
INSERT
  2
-000-_Dot
  8
_0-4_寸法
 10
3020.9299538540622
 20
1904.4900673285481
 41
1
 42
1
 50
180
  0
TEXT
  8
_0-4_寸法
 62
    7
 10
3014.9299538540622
 20
1907.4900673285481
 40
12
 41
1
 50
0
  1
6
  0
POINT
  8
_0-3_Defpoints
 62
    7
 10
3014.9299538540622
 20
1873.627739958235
  0
POINT
  8
_0-3_Defpoints
 62
    7
 10
3020.9299538540622
 20
1873.627739958235
  0
POINT
  8
_0-3_Defpoints
 62
    7
 10
3020.9299538540622
 20
1904.4900673285481
  0
ENDBLK
  0
BLOCK
  2
-013-_D14
 70
   64
 10
0
 20
0
 30
0
  0
LINE
  8
_0-4_寸法
  6
CONTINUOUS
 62
    4
 10
3065.689605978384
 20
1834.127739958235
 11
3132.5713318504459
 21
1834.127739958235
  0
LINE
  8
_0-4_寸法
  6
CONTINUOUS
 62
    4
 10
3065.689605978384
 20
1862.127739958242
 11
3132.5713318504459
 21
1862.127739958242
  0
LINE
  8
_0-4_寸法
  6
CONTINUOUS
 62
    4
 10
3132.5713318504459
 20
1835.1277399582359
 11
3132.5713318504459
 21
1861.1277399582409
  0
INSERT
  2
-000-_Dot
  8
_0-4_寸法
 10
3132.5713318504459
 20
1834.127739958235
 41
1
 42
1
 50
270
  0
INSERT
  2
-000-_Dot
  8
_0-4_寸法
 10
3132.5713318504459
 20
1862.127739958242
 41
1
 42
1
 50
90
  0
TEXT
  8
_0-4_寸法
 62
    7
 10
3129.5713318504449
 20
1842.1277399582391
 40
12
 41
1
 50
90
  1
28
  0
POINT
  8
_0-3_Defpoints
 62
    7
 10
3065.689605978384
 20
1834.127739958235
  0
POINT
  8
_0-3_Defpoints
 62
    7
 10
3065.689605978384
 20
1862.127739958242
  0
POINT
  8
_0-3_Defpoints
 62
    7
 10
3132.5713318504459
 20
1862.127739958242
  0
ENDBLK
  0
BLOCK
  2
-014-_D15
 70
   64
 10
0
 20
0
 30
0
  0
LINE
  8
_0-4_寸法
  6
CONTINUOUS
 62
    4
 10
3021.9299538540622
 20
1904.4900673285481
 11
3061.5075570523618
 21
1904.4900673285481
  0
INSERT
  2
-000-_Dot
  8
_0-4_寸法
 10
3020.9299538540622
 20
1904.4900673285481
 41
1
 42
1
 50
180
  0
TEXT
  8
_0-4_寸法
 62
    7
 10
3032.718755453212
 20
1907.4900673285481
 40
12
 41
1
 50
0
  1
160
  0
POINT
  8
_0-3_Defpoints
 62
    7
 10
3020.9299538540622
 20
1904.4900673285481
  0
POINT
  8
_0-3_Defpoints
 62
    7
 10
3061.5075570523618
 20
1904.4900673285481
  0
POINT
  8
_0-3_Defpoints
 62
    7
 10
3061.5075570523618
 20
1904.4900673285481
  0
ENDBLK
  0
ENDSEC
  0
SECTION
  2
ENTITIES
  0
TEXT
  8
_0-2_文字-記号
 62
    7
 10
345.96129761211023
 20
1103.8527985133567
 40
15
 41
0.8
 50
0
  1
防水仕様　高床　露出防水納まり図　
  0
TEXT
  8
_0-2_文字-記号
 62
    7
 10
380.56438850745735
 20
1074.3363182094606
 40
12
 41
1
 50
0
  1
基本ピッチ：支持脚 ９００×根太鋼 ５００×大引 900（再生木材）
  0
TEXT
  8
_0-2_文字-記号
 62
    7
 10
467.82366279994039
 20
1044.7412840775066
 40
12
 41
1
 50
0
  1
支持脚 ９００×根太鋼 ６００×大引 900（天然木材）
  0
LINE
  8
_0-5_中心線
  6
CENTER1
 62
    7
 10
605.56453967690459
 20
181.26372504037158
 11
605.56453967690459
 21
874.04492504035966
  0
LINE
  8
_0-1_躯体と製品
  6
CONTINUOUS
 62
    4
 10
584.21453967690422
 20
379.2115550403696
 11
584.21453967690422
 21
708.81155317434559
  0
LINE
  8
_0-1_躯体と製品
  6
CONTINUOUS
 62
    4
 10
626.9145396769045
 20
379.2115550403696
 11
626.9145396769045
 21
708.81155317434559
  0
LINE
  8
_0-1_躯体と製品
  6
CONTINUOUS
 62
    4
 10
742.13600267328729
 20
269.01155504036865
 11
442.1360026732882
 21
269.01155504036865
  0
LINE
  8
_0-1_躯体と製品
  6
CONTINUOUS
 62
    3
 10
481.88007967690146
 20
239.01155504036865
 11
511.88007967690237
 21
269.01155504036865
  0
LINE
  8
_0-1_躯体と製品
  6
CONTINUOUS
 62
    3
 10
470.56636967690338
 20
239.01155504036865
 11
500.56636967690338
 21
269.01155504036865
  0
LINE
  8
_0-1_躯体と製品
  6
CONTINUOUS
 62
    3
 10
476.22322467690447
 20
239.01155504036865
 11
506.22322467690447
 21
269.01155504036865
  0
LINE
  8
_0-1_躯体と製品
  6
CONTINUOUS
 62
    3
 10
696.02998967690246
 20
239.01155504036865
 11
726.02998967690246
 21
269.01155504036865
  0
LINE
  8
_0-1_躯体と製品
  6
CONTINUOUS
 62
    3
 10
690.37313467690228
 20
239.01155504036865
 11
720.37313467690319
 21
269.01155504036865
  0
LINE
  8
_0-1_躯体と製品
  6
CONTINUOUS
 62
    3
 10
701.68684467690537
 20
239.01155504036865
 11
731.68684467690446
 21
269.01155504036865
  0
LINE
  8
_0-1_躯体と製品
  6
CONTINUOUS
 62
    4
 10
581.09953967690035
 20
379.21155504036869
 11
588.09953967690035
 21
379.21155504036869
  0
LINE
  8
_0-1_躯体と製品
  6
CONTINUOUS
 62
    4
 10
584.36453967689749
 20
356.01155504036456
 11
605.56453967689959
 21
356.01155504036456
  0
ARC
  8
_0-1_躯体と製品
  6
CONTINUOUS
 62
    4
 10
584.36453967689749
 20
360.01155504036865
 40
4
 50
180
 51
270
  0
LINE
  8
_0-1_躯体と製品
  6
CONTINUOUS
 62
    4
 10
581.09953967690035
 20
376.71155504036869
 11
580.16940967690152
 21
376.71155504036869
  0
LINE
  8
_0-1_躯体と製品
  6
CONTINUOUS
 62
    4
 10
581.09953967690035
 20
369.71155504036551
 11
580.16940967690152
 21
369.71155504036551
  0
ARC
  8
_0-1_躯体と製品
  6
CONTINUOUS
 62
    4
 10
584.49953967689953
 20
373.21155504036869
 40
6
 50
150.0000000000027
 51
209.99999999999733
  0
ARC
  8
_0-1_躯体と製品
  6
CONTINUOUS
 62
    4
 10
580.16940967690152
 20
375.71155504036869
 40
1
 50
90
 51
150.0000000000027
  0
ARC
  8
_0-1_躯体と製品
  6
CONTINUOUS
 62
    4
 10
580.16940967690152
 20
370.71155504036869
 40
1
 50
209.9999999999973
 51
270
  0
LINE
  8
_0-1_躯体と製品
  6
CONTINUOUS
 62
    4
 10
581.09953967690035
 20
367.21155504036551
 11
581.09953967690035
 21
379.21155504036869
  0
LINE
  8
_0-1_躯体と製品
  6
CONTINUOUS
 62
    4
 10
580.36453967689931
 20
367.21155504036551
 11
581.09953967690035
 21
367.21155504036551
  0
LINE
  8
_0-1_躯体と製品
  6
CONTINUOUS
 62
    4
 10
580.36453967689931
 20
360.01155504036865
 11
580.36453967689931
 21
367.21155504036551
  0
ARC
  8
_0-1_躯体と製品
  6
CONTINUOUS
 62
    4
 10
626.76453967690031
 20
360.01155504036865
 40
4
 50
270
 51
0
  0
ARC
  8
_0-1_躯体と製品
  6
CONTINUOUS
 62
    4
 10
621.5645396769014
 20
356.01155504036456
 40
2
 50
270
 51
0
  0
LINE
  8
_0-1_躯体と製品
  6
CONTINUOUS
 62
    4
 10
626.76453967690031
 20
356.01155504036456
 11
605.56453967689959
 21
356.01155504036456
  0
LINE
  8
_0-1_躯体と製品
  6
CONTINUOUS
 62
    4
 10
589.56453967689822
 20
354.01155504036865
 11
605.56453967689959
 21
354.01155504036865
  0
ARC
  8
_0-1_躯体と製品
  6
CONTINUOUS
 62
    4
 10
589.56453967689822
 20
356.01155504036456
 40
2
 50
180
 51
270
  0
LINE
  8
_0-1_躯体と製品
  6
CONTINUOUS
 62
    4
 10
621.5645396769014
 20
354.01155504036865
 11
605.56453967689959
 21
354.01155504036865
  0
LINE
  8
_0-1_躯体と製品
  6
CONTINUOUS
 62
    4
 10
630.02953967690019
 20
379.21155504036869
 11
623.02953967689837
 21
379.21155504036869
  0
LINE
  8
_0-1_躯体と製品
  6
CONTINUOUS
 62
    4
 10
623.02953967689837
 20
367.21155504036551
 11
588.09953967690035
 21
367.21155504036551
  0
LINE
  8
_0-1_躯体と製品
  6
CONTINUOUS
 62
    4
 10
588.09953967690035
 20
367.21155504036551
 11
588.09953967690035
 21
379.21155504036869
  0
LINE
  8
_0-1_躯体と製品
  6
CONTINUOUS
 62
    4
 10
623.02953967689837
 20
367.21155504036551
 11
623.02953967689837
 21
379.21155504036869
  0
LINE
  8
_0-1_躯体と製品
  6
CONTINUOUS
 62
    4
 10
630.02953967690019
 20
376.71155504036869
 11
630.95966467689959
 21
376.71155504036869
  0
LINE
  8
_0-1_躯体と製品
  6
CONTINUOUS
 62
    4
 10
630.02953967690019
 20
369.71155504036551
 11
630.95966467689959
 21
369.71155504036551
  0
ARC
  8
_0-1_躯体と製品
  6
CONTINUOUS
 62
    4
 10
626.62953967690055
 20
373.21155504036869
 40
6
 50
330.00000000000267
 51
29.999999999997282
  0
ARC
  8
_0-1_躯体と製品
  6
CONTINUOUS
 62
    4
 10
630.95966467689959
 20
375.71155504036869
 40
1
 50
29.999999999997289
 51
90
  0
ARC
  8
_0-1_躯体と製品
  6
CONTINUOUS
 62
    4
 10
630.95966467689959
 20
370.71155504036869
 40
1
 50
270
 51
330.00000000000267
  0
LINE
  8
_0-1_躯体と製品
  6
CONTINUOUS
 62
    4
 10
630.02953967690019
 20
367.21155504036551
 11
630.02953967690019
 21
379.21155504036869
  0
LINE
  8
_0-1_躯体と製品
  6
CONTINUOUS
 62
    4
 10
630.7645396768994
 20
367.21155504036551
 11
630.02953967690019
 21
367.21155504036551
  0
LINE
  8
_0-1_躯体と製品
  6
CONTINUOUS
 62
    4
 10
630.7645396768994
 20
360.01155504036865
 11
630.7645396768994
 21
367.21155504036551
  0
LINE
  8
_0-1_躯体と製品
  6
CONTINUOUS
 62
    4
 10
581.09953967690444
 20
708.81155317434559
 11
588.09953967690353
 21
708.81155317434559
  0
LINE
  8
_0-1_躯体と製品
  6
CONTINUOUS
 62
    4
 10
584.36453967690159
 20
732.01183317434266
 11
605.56453967690459
 21
732.01155317434564
  0
LINE
  8
_0-1_躯体と製品
  6
PLINE2
 62
    3
 10
442.1360026732882
 20
891.01155504036865
 11
742.13600267328729
 21
891.01155504036865
  0
LINE
  8
_0-2_文字-記号
  6
CONTINUOUS
 62
    7
 10
501.88134767328529
 20
869.25067004036259
 11
460.5999176732862
 21
813.26176381692267
  0
TEXT
  8
_0-2_文字-記号
 62
    7
 10
417.36502697906553
 20
816.36357537122467
 40
12
 41
0.8000000000000001
 50
0
  1
根太鋼
  0
LINE
  8
_0-2_文字-記号
  6
CONTINUOUS
 62
    7
 10
460.5999176732862
 20
813.26176381692267
 11
409.10385767328944
 21
813.26176381692267
  0
ARC
  8
_0-1_躯体と製品
  6
CONTINUOUS
 62
    4
 10
584.36453967690159
 20
728.01183317434266
 40
4
 50
90
 51
180
  0
LINE
  8
_0-1_躯体と製品
  6
CONTINUOUS
 62
    4
 10
581.09953967690444
 20
711.31155317434468
 11
580.16940967690516
 21
711.31155317434468
  0
LINE
  8
_0-1_躯体と製品
  6
CONTINUOUS
 62
    4
 10
581.09953967690444
 20
718.3115531743415
 11
580.16940967690516
 21
718.3115531743415
  0
ARC
  8
_0-1_躯体と製品
  6
CONTINUOUS
 62
    4
 10
584.49953967690317
 20
714.8115531743415
 40
6
 50
150.0000000000027
 51
209.99999999999733
  0
ARC
  8
_0-1_躯体と製品
  6
CONTINUOUS
 62
    4
 10
580.16940967690516
 20
712.3115531743415
 40
1
 50
209.9999999999973
 51
270
  0
ARC
  8
_0-1_躯体と製品
  6
CONTINUOUS
 62
    4
 10
580.16940967690516
 20
717.3115531743415
 40
1
 50
90
 51
150.0000000000027
  0
LINE
  8
_0-1_躯体と製品
  6
CONTINUOUS
 62
    4
 10
581.09953967690444
 20
720.8115531743415
 11
581.09953967690444
 21
708.81155317434559
  0
LINE
  8
_0-1_躯体と製品
  6
CONTINUOUS
 62
    4
 10
580.36453967690341
 20
720.8115531743415
 11
581.09953967690444
 21
720.8115531743415
  0
LINE
  8
_0-1_躯体と製品
  6
CONTINUOUS
 62
    4
 10
580.36453967690341
 20
728.01183317434266
 11
580.36453967690341
 21
720.8115531743415
  0
LINE
  8
_0-1_躯体と製品
  6
CONTINUOUS
 62
    3
 10
742.13600267328729
 20
852.6115550403606
 11
625.56453967690459
 21
852.6115550403606
  0
LINE
  8
_0-1_躯体と製品
  6
CONTINUOUS
 62
    3
 10
585.56453967690459
 20
852.6115550403606
 11
442.1360026732882
 21
852.6115550403606
  0
ARC
  8
_0-1_躯体と製品
  6
CONTINUOUS
 62
    4
 10
626.76453967690531
 20
728.01183317434266
 40
4
 50
0
 51
90
  0
LINE
  8
_0-1_躯体と製品
  6
CONTINUOUS
 62
    4
 10
630.02953967690428
 20
708.81155317434559
 11
623.02953967690246
 21
708.81155317434559
  0
LINE
  8
_0-1_躯体と製品
  6
CONTINUOUS
 62
    4
 10
623.02953967690246
 20
720.8115531743415
 11
588.09953967690353
 21
720.8115531743415
  0
LINE
  8
_0-1_躯体と製品
  6
CONTINUOUS
 62
    4
 10
588.09953967690353
 20
720.8115531743415
 11
588.09953967690353
 21
708.81155317434559
  0
LINE
  8
_0-1_躯体と製品
  6
CONTINUOUS
 62
    4
 10
623.02953967690246
 20
720.8115531743415
 11
623.02953967690246
 21
708.81155317434559
  0
LINE
  8
_0-1_躯体と製品
  6
CONTINUOUS
 62
    4
 10
630.02953967690428
 20
711.31155317434468
 11
630.95966467690323
 21
711.31155317434468
  0
LINE
  8
_0-1_躯体と製品
  6
CONTINUOUS
 62
    4
 10
630.02953967690428
 20
718.3115531743415
 11
630.95966467690323
 21
718.3115531743415
  0
ARC
  8
_0-1_躯体と製品
  6
CONTINUOUS
 62
    4
 10
626.62953967690555
 20
714.8115531743415
 40
6
 50
330.00000000000267
 51
29.999999999997282
  0
ARC
  8
_0-1_躯体と製品
  6
CONTINUOUS
 62
    4
 10
630.95966467690323
 20
712.3115531743415
 40
1
 50
270
 51
330.00000000000267
  0
ARC
  8
_0-1_躯体と製品
  6
CONTINUOUS
 62
    4
 10
630.95966467690323
 20
717.3115531743415
 40
1
 50
29.999999999997289
 51
90
  0
LINE
  8
_0-1_躯体と製品
  6
CONTINUOUS
 62
    4
 10
630.02953967690428
 20
720.8115531743415
 11
630.02953967690428
 21
708.81155317434559
  0
LINE
  8
_0-1_躯体と製品
  6
CONTINUOUS
 62
    4
 10
630.7645396769035
 20
720.8115531743415
 11
630.02953967690428
 21
720.8115531743415
  0
LINE
  8
_0-1_躯体と製品
  6
CONTINUOUS
 62
    4
 10
630.7645396769035
 20
728.01183317434266
 11
630.7645396769035
 21
720.8115531743415
  0
ARC
  8
_0-1_躯体と製品
  6
CONTINUOUS
 62
    4
 10
621.56453967690641
 20
732.01155317434564
 40
2
 50
0
 51
90
  0
LINE
  8
_0-1_躯体と製品
  6
CONTINUOUS
 62
    4
 10
626.76453967690531
 20
732.01183317434266
 11
605.56453967690459
 21
732.01155317434564
  0
LINE
  8
_0-1_躯体と製品
  6
CONTINUOUS
 62
    4
 10
589.56453967690231
 20
734.01155317434268
 11
605.56453967690459
 21
734.01155317434268
  0
ARC
  8
_0-1_躯体と製品
  6
CONTINUOUS
 62
    4
 10
589.56453967690231
 20
732.01155317434564
 40
2
 50
90
 51
180
  0
LINE
  8
_0-1_躯体と製品
  6
CONTINUOUS
 62
    4
 10
621.56453967690641
 20
734.01155317434268
 11
605.56453967690459
 21
734.01155317434268
  0
LINE
  8
_0-1_躯体と製品
  6
CONTINUOUS
 62
    3
 10
442.1360026732882
 20
851.0115550403616
 11
585.56453967690459
 21
851.0115550403616
  0
LINE
  8
_0-1_躯体と製品
  6
CONTINUOUS
 62
    3
 10
625.56453967690459
 20
851.01155504036251
 11
742.13600267328729
 21
851.01155504036251
  0
LINE
  8
_0-1_躯体と製品
  6
CONTINUOUS
 62
    3
 10
625.9360026732852
 20
852.6115550403606
 11
742.13600267328729
 21
852.6115550403606
  0
INSERT
  2
-004-_D5
  8
_0-4_寸法
 10
-2319.3654141771576
 20
-943.1161849178734
 41
1
 42
1
 50
0
  0
INSERT
  2
-005-_D6
  8
_0-4_寸法
 10
-2319.3654141771576
 20
-943.1161849178734
 41
1
 42
1
 50
0
  0
INSERT
  2
-006-_D7
  8
_0-4_寸法
 10
-2319.3654141771576
 20
-943.1161849178734
 41
1
 42
1
 50
0
  0
INSERT
  2
-007-_D8
  8
_0-4_寸法
 10
-2319.3654141771576
 20
-943.1161849178734
 41
1
 42
1
 50
0
  0
LINE
  8
_0-1_躯体と製品
  6
CONTINUOUS
 62
    7
 10
601.06453967689731
 20
792.01155504036251
 11
601.06453967689731
 21
753.3115531743415
  0
LINE
  8
_0-1_躯体と製品
  6
CONTINUOUS
 62
    7
 10
599.56453967689731
 20
792.01155504036251
 11
599.56453967689731
 21
753.31155317434263
  0
LINE
  8
_0-1_躯体と製品
  6
CONTINUOUS
 62
    7
 10
610.06453967689731
 20
792.01155504036251
 11
610.06453967689731
 21
753.31155317434263
  0
LINE
  8
_0-1_躯体と製品
  6
CONTINUOUS
 62
    7
 10
611.56453967689731
 20
792.01155504036251
 11
611.56453967689731
 21
753.31155317434263
  0
ARC
  8
_0-1_躯体と製品
  6
CONTINUOUS
 62
    7
 10
605.56453967690402
 20
810.56455504036182
 40
18.553000000000175
 50
251.13144099976682
 51
269.61088699992172
  0
ARC
  8
_0-1_躯体と製品
  6
CONTINUOUS
 62
    7
 10
558.81453967690038
 20
803.76155504036672
 40
3.249999999995798
 50
90.000002999934651
 51
180.00000000007415
  0
LINE
  8
_0-1_躯体と製品
  6
CONTINUOUS
 62
    7
 10
555.56453967690459
 20
803.76155504036251
 11
555.56453967690459
 21
796.01155504036251
  0
LINE
  8
_0-1_躯体と製品
  6
CONTINUOUS
 62
    7
 10
555.56453967690459
 20
796.01155504036251
 11
655.56453967690459
 21
796.01155504036251
  0
LINE
  8
_0-1_躯体と製品
  6
CONTINUOUS
 62
    7
 10
655.56453967690459
 20
796.01155504036251
 11
655.56453967690459
 21
803.76155504036251
  0
ARC
  8
_0-1_躯体と製品
  6
CONTINUOUS
 62
    7
 10
652.31453967690459
 20
803.76155504036251
 40
3.2500000000000044
 50
0.0000000000000816
 51
89.999999999999929
  0
LINE
  8
_0-1_躯体と製品
  6
CONTINUOUS
 62
    7
 10
652.31453967690459
 20
807.01155504036251
 11
605.56453967690459
 21
807.01155504036251
  0
LINE
  8
_0-1_躯体と製品
  6
CONTINUOUS
 62
    7
 10
605.56453967690459
 20
807.01155504036251
 11
558.81453967690459
 21
807.01155504036251
  0
ARC
  8
_0-1_躯体と製品
  6
CONTINUOUS
 62
    7
 10
596.56653967691238
 20
797.01555504035537
 40
5.0039999999997375
 50
233.13925800013828
 51
306.80349100001467
  0
LINE
  8
_0-1_躯体と製品
  6
CONTINUOUS
 62
    7
 10
599.56453967690459
 20
793.00855504035758
 11
599.56453967690459
 21
796.01155504036251
  0
LINE
  8
_0-1_躯体と製品
  6
CONTINUOUS
 62
    7
 10
593.56453967690459
 20
793.01155504036251
 11
593.56453967690459
 21
796.01155504036251
  0
ARC
  8
_0-1_躯体と製品
  6
CONTINUOUS
 62
    7
 10
614.56253967689702
 20
797.01555504035593
 40
5.0040000000003273
 50
233.1965030000151
 51
306.86073700001026
  0
LINE
  8
_0-1_躯体と製品
  6
CONTINUOUS
 62
    7
 10
614.56253967689645
 20
792.01155504036251
 11
605.56453967690459
 21
792.01155504036251
  0
LINE
  8
_0-1_躯体と製品
  6
CONTINUOUS
 62
    7
 10
605.56453967690459
 20
792.01155504036251
 11
596.56653967691227
 21
792.01155504036251
  0
ARC
  8
_0-1_躯体と製品
  6
CONTINUOUS
 62
    7
 10
605.56453967690243
 20
810.56455504036194
 40
18.553000000000228
 50
270.3891070001867
 51
288.86855299987144
  0
LINE
  8
_0-1_躯体と製品
  6
CONTINUOUS
 62
    7
 10
611.56453967690459
 20
796.01155504036251
 11
611.56453967690459
 21
793.00855504035758
  0
LINE
  8
_0-1_躯体と製品
  6
CONTINUOUS
 62
    7
 10
617.56453967690322
 20
793.01155504036251
 11
617.56453967690322
 21
796.01155504036251
  0
LINE
  8
_0-5_中心線
  6
CENTER1
 62
    7
 10
577.81453967693324
 20
794.6115550403606
 11
577.81453967693324
 21
817.53530504036053
  0
LINE
  8
_0-5_中心線
  6
CENTER1
 62
    7
 10
633.31453967687548
 20
794.6115550403606
 11
633.31453967687548
 21
817.53530504036053
  0
LINE
  8
_0-2_文字-記号
  6
CONTINUOUS
 62
    7
 10
641.22097130439124
 20
796.01155504036251
 11
660.72263473026442
 21
762.23368315464359
  0
LINE
  8
_0-2_文字-記号
  6
CONTINUOUS
 62
    7
 10
660.72263473026442
 20
762.23368315464359
 11
707.78617355972847
 21
762.23368315464359
  0
TEXT
  8
_0-2_文字-記号
 62
    7
 10
661.84037195753444
 20
764.10220943868353
 40
12
 41
0.8000000000000001
 50
0
  1
受け金具
  0
LINE
  8
_0-1_躯体と製品
  6
CONTINUOUS
 62
    7
 10
637.56453967690459
 20
812.01155504036251
 11
642.56453967690459
 21
812.01155504036251
  0
LINE
  8
_0-1_躯体と製品
  6
CONTINUOUS
 62
    7
 10
642.56453967690459
 20
812.01155504036251
 11
642.56453967690459
 21
809.0115550403616
  0
LINE
  8
_0-1_躯体と製品
  6
CONTINUOUS
 62
    7
 10
642.56453967690459
 20
809.0115550403616
 11
568.56453967690459
 21
809.0115550403616
  0
LINE
  8
_0-1_躯体と製品
  6
CONTINUOUS
 62
    7
 10
568.56453967690459
 20
809.0115550403616
 11
568.56453967690459
 21
812.01155504036251
  0
LINE
  8
_0-1_躯体と製品
  6
CONTINUOUS
 62
    7
 10
568.56453967690459
 20
812.01155504036251
 11
573.56453967690459
 21
812.01155504036251
  0
LINE
  8
_0-1_躯体と製品
  6
CONTINUOUS
 62
    7
 10
573.56453967690459
 20
812.01155504036251
 11
573.56453967690459
 21
814.0115550403616
  0
LINE
  8
_0-1_躯体と製品
  6
CONTINUOUS
 62
    7
 10
573.56453967690459
 20
814.0115550403616
 11
566.56453967690459
 21
814.0115550403616
  0
LINE
  8
_0-1_躯体と製品
  6
CONTINUOUS
 62
    7
 10
566.56453967690459
 20
814.0115550403616
 11
566.56453967690459
 21
807.01155504036251
  0
LINE
  8
_0-1_躯体と製品
  6
CONTINUOUS
 62
    7
 10
566.56453967690459
 20
807.01155504036251
 11
644.56453967690459
 21
807.01155504036251
  0
LINE
  8
_0-1_躯体と製品
  6
CONTINUOUS
 62
    7
 10
644.56453967690459
 20
807.01155504036251
 11
644.56453967690459
 21
814.0115550403616
  0
LINE
  8
_0-1_躯体と製品
  6
CONTINUOUS
 62
    7
 10
644.56453967690459
 20
814.0115550403616
 11
637.56453967690459
 21
814.0115550403616
  0
LINE
  8
_0-1_躯体と製品
  6
CONTINUOUS
 62
    7
 10
637.56453967690459
 20
814.0115550403616
 11
637.56453967690459
 21
812.01155504036251
  0
ARC
  8
_0-1_躯体と製品
  6
CONTINUOUS
 62
    7
 10
613.77753967692138
 20
812.76355504035519
 40
4.2479999999997089
 50
49.869772999454248
 51
130.11991900039411
  0
LINE
  8
_0-1_躯体と製品
  6
CONTINUOUS
 62
    7
 10
611.04053967689924
 20
811.01055504035867
 11
611.04053967689924
 21
816.01255504035862
  0
LINE
  8
_0-1_躯体と製品
  6
CONTINUOUS
 62
    7
 10
616.51553967690552
 20
816.0115550403616
 11
616.51553967690552
 21
811.0115550403616
  0
ARC
  8
_0-1_躯体と製品
  6
CONTINUOUS
 62
    7
 10
613.77753967692183
 20
814.25955504036142
 40
4.2479999999997098
 50
229.88008099959643
 51
310.13022700053625
  0
LINE
  8
_0-1_躯体と製品
  6
CONTINUOUS
 62
    7
 10
611.56453967690459
 20
830.5115550403616
 11
611.56453967690459
 21
817.0115550403616
  0
LINE
  8
_0-1_躯体と製品
  6
CONTINUOUS
 62
    7
 10
607.29653967692229
 20
810.01155504036251
 11
606.71920634357321
 21
809.0115550403616
  0
LINE
  8
_0-1_躯体と製品
  6
CONTINUOUS
 62
    7
 10
605.56453967690459
 20
810.01155504036251
 11
604.9872063435846
 21
809.0115550403616
  0
LINE
  8
_0-1_躯体と製品
  6
CONTINUOUS
 62
    7
 10
610.06453967690459
 20
832.0115550403616
 11
610.06453967690459
 21
817.0115550403616
  0
LINE
  8
_0-1_躯体と製品
  6
CONTINUOUS
 62
    7
 10
599.56453967690459
 20
830.5115550403616
 11
601.06453967690459
 21
832.0115550403616
  0
LINE
  8
_0-1_躯体と製品
  6
CONTINUOUS
 62
    7
 10
600.09053967691625
 20
811.01055504035867
 11
600.09053967691625
 21
816.01255504035862
  0
LINE
  8
_0-1_躯体と製品
  6
CONTINUOUS
 62
    7
 10
594.61553967691134
 20
816.0115550403616
 11
594.61553967691134
 21
811.0115550403616
  0
ARC
  8
_0-1_躯体と製品
  6
CONTINUOUS
 62
    7
 10
597.35353967692288
 20
812.76355504035496
 40
4.2480000000004585
 50
49.880087000093958
 51
130.13023300049929
  0
ARC
  8
_0-1_躯体と製品
  6
CONTINUOUS
 62
    7
 10
597.35353967692299
 20
814.25955504036222
 40
4.2480000000004603
 50
229.86976699949832
 51
310.11991299990365
  0
ARC
  8
_0-1_躯体と製品
  6
CONTINUOUS
 62
    7
 10
605.56453967690402
 20
801.51855504035927
 40
15.493000000000674
 50
69.301553000434737
 51
110.69022699919269
  0
LINE
  8
_0-1_躯体と製品
  6
CONTINUOUS
 62
    7
 10
599.56453967690459
 20
817.0115550403616
 11
599.56453967690459
 21
830.5115550403616
  0
LINE
  8
_0-1_躯体と製品
  6
CONTINUOUS
 62
    7
 10
599.56453967690459
 20
830.5115550403616
 11
611.56453967690459
 21
830.5115550403616
  0
LINE
  8
_0-1_躯体と製品
  6
CONTINUOUS
 62
    7
 10
611.56453967690459
 20
830.5115550403616
 11
610.06453967690459
 21
832.0115550403616
  0
LINE
  8
_0-1_躯体と製品
  6
CONTINUOUS
 62
    7
 10
610.06453967690459
 20
832.0115550403616
 11
601.06453967690459
 21
832.0115550403616
  0
LINE
  8
_0-1_躯体と製品
  6
CONTINUOUS
 62
    7
 10
601.06453967690459
 20
832.0115550403616
 11
601.06453967690459
 21
817.0115550403616
  0
ARC
  8
_0-1_躯体と製品
  6
CONTINUOUS
 62
    7
 10
605.56453967690436
 20
825.50455504036495
 40
15.493000000000665
 50
249.3097730008061
 51
290.69844699956411
  0
LINE
  8
_0-1_躯体と製品
  6
CONTINUOUS
 62
    7
 10
597.3525396769046
 20
817.0115550403616
 11
613.77653967690321
 21
817.0115550403616
  0
LINE
  8
_0-1_躯体と製品
  6
CONTINUOUS
 62
    7
 10
616.31453967690459
 20
809.0115550403616
 11
616.31453967690459
 21
810.01155504036251
  0
LINE
  8
_0-1_躯体と製品
  6
CONTINUOUS
 62
    7
 10
616.31453967690459
 20
810.01155504036251
 11
594.81453967690459
 21
810.01155504036251
  0
LINE
  8
_0-1_躯体と製品
  6
CONTINUOUS
 62
    7
 10
594.81453967690459
 20
810.01155504036251
 11
594.81453967690459
 21
809.0115550403616
  0
LINE
  8
_0-1_躯体と製品
  6
CONTINUOUS
 62
    7
 10
623.96453967689831
 20
811.1115550403606
 11
623.96453967689831
 21
846.91155504035669
  0
ARC
  8
_0-1_躯体と製品
  6
CONTINUOUS
 62
    7
 10
623.46453968998776
 20
846.91155505344614
 40
0.4999999869105527
 50
359.9999985000598
 51
90.00000149994024
  0
LINE
  8
_0-1_躯体と製品
  6
CONTINUOUS
 62
    7
 10
623.46453967689831
 20
847.41155504035669
 11
605.56453967690459
 21
847.41155504035669
  0
LINE
  8
_0-1_躯体と製品
  6
CONTINUOUS
 62
    7
 10
605.56453967690459
 20
847.41155504035669
 11
587.66453965073151
 21
847.41155504035669
  0
ARC
  8
_0-1_躯体と製品
  6
CONTINUOUS
 62
    7
 10
587.6645396507306
 20
846.91155506653649
 40
0.4999999738201959
 50
89.999999999895834
 51
180.00000299998476
  0
LINE
  8
_0-1_躯体と製品
  6
CONTINUOUS
 62
    7
 10
587.16453967691041
 20
846.91155504035669
 11
587.1645396769045
 21
811.1115550403606
  0
ARC
  8
_0-1_躯体と製品
  6
CONTINUOUS
 62
    7
 10
585.06453967690459
 20
811.1115550403606
 40
2.0999999999999654
 50
270.00000000000153
 51
359.99999999999847
  0
LINE
  8
_0-1_躯体と製品
  6
CONTINUOUS
 62
    7
 10
585.06453967690459
 20
809.01155504036069
 11
568.56453967690459
 21
809.0115550403616
  0
LINE
  8
_0-1_躯体と製品
  6
CONTINUOUS
 62
    7
 10
568.56453967690459
 20
809.0115550403616
 11
568.56453967690459
 21
810.6115550403606
  0
LINE
  8
_0-1_躯体と製品
  6
CONTINUOUS
 62
    7
 10
568.56453967690459
 20
810.6115550403606
 11
585.06453967690459
 21
810.6115550403606
  0
ARC
  8
_0-1_躯体と製品
  6
CONTINUOUS
 62
    7
 10
585.06453968999404
 20
811.11155502727115
 40
0.4999999869105527
 50
269.99999850005975
 51
0.0000014999402369
  0
LINE
  8
_0-1_躯体と製品
  6
CONTINUOUS
 62
    7
 10
585.56453967690459
 20
811.1115550403606
 11
585.56453967690959
 21
846.91155504035669
  0
ARC
  8
_0-1_躯体と製品
  6
CONTINUOUS
 62
    7
 10
587.6645396769095
 20
846.91155504035578
 40
2.0999999999999091
 50
89.999999999975174
 51
179.99999999997519
  0
LINE
  8
_0-1_躯体と製品
  6
CONTINUOUS
 62
    7
 10
587.66453967691041
 20
849.01155504035569
 11
605.56453967690459
 21
849.0115550403616
  0
LINE
  8
_0-1_躯体と製品
  6
CONTINUOUS
 62
    7
 10
605.56453967690459
 20
849.0115550403616
 11
623.46453967690059
 21
849.01155504035569
  0
ARC
  8
_0-1_躯体と製品
  6
CONTINUOUS
 62
    7
 10
623.46453967690161
 20
846.91155504035271
 40
2.1000000000029817
 50
0.0000000001086477
 51
90.000000000027839
  0
LINE
  8
_0-1_躯体と製品
  6
CONTINUOUS
 62
    7
 10
625.56453967690459
 20
846.91155504035669
 11
625.56453967690459
 21
811.11155498800053
  0
ARC
  8
_0-1_躯体と製品
  6
CONTINUOUS
 62
    7
 10
626.06453968999381
 20
811.11155505344982
 40
0.5000000130892234
 50
180.00000749993578
 51
269.99999850008601
  0
LINE
  8
_0-1_躯体と製品
  6
CONTINUOUS
 62
    7
 10
626.06453967690459
 20
810.6115550403606
 11
642.56453967690459
 21
810.6115550403606
  0
LINE
  8
_0-1_躯体と製品
  6
CONTINUOUS
 62
    7
 10
642.56453967690459
 20
810.6115550403606
 11
642.56453967690459
 21
809.0115550403616
  0
LINE
  8
_0-1_躯体と製品
  6
CONTINUOUS
 62
    7
 10
642.56453967690459
 20
809.0115550403616
 11
626.06453967690459
 21
809.01155504036069
  0
ARC
  8
_0-1_躯体と製品
  6
CONTINUOUS
 62
    7
 10
626.06453967690413
 20
811.11155504036151
 40
2.1000000000008723
 50
180.00000599998322
 51
270.00000000001125
  0
ARC
  8
_0-1_躯体と製品
  6
CONTINUOUS
 62
    7
 10
578.36153967690393
 20
808.82355504036275
 40
4.8189999999969126
 50
48.111754999089271
 51
96.517442000071412
  0
ARC
  8
_0-1_躯体と製品
  6
CONTINUOUS
 62
    7
 10
577.26753967695072
 20
808.82355504035729
 40
4.8190000000167297
 50
83.482563001149714
 51
131.88825099941889
  0
LINE
  8
_0-1_躯体と製品
  6
CONTINUOUS
 62
    7
 10
573.81453967693324
 20
810.8115550403727
 11
573.81453967693324
 21
811.26055504036572
  0
LINE
  8
_0-1_躯体と製品
  6
CONTINUOUS
 62
    7
 10
573.81453967693324
 20
811.26055504036572
 11
574.04953967694837
 21
812.41155504037852
  0
LINE
  8
_0-1_躯体と製品
  6
CONTINUOUS
 62
    7
 10
574.04953967694837
 20
812.41155504037852
 11
577.81453967693324
 21
812.41155504037852
  0
LINE
  8
_0-1_躯体と製品
  6
CONTINUOUS
 62
    7
 10
577.81453967693324
 20
812.41155504037852
 11
581.57953967694721
 21
812.41155504037852
  0
LINE
  8
_0-1_躯体と製品
  6
CONTINUOUS
 62
    7
 10
581.57953967694721
 20
812.41155504037852
 11
581.81453967693324
 21
811.26055504036572
  0
LINE
  8
_0-1_躯体と製品
  6
CONTINUOUS
 62
    7
 10
581.81453967693324
 20
811.26055504036572
 11
581.81453967696234
 21
810.8115550403727
  0
ARC
  8
_0-1_躯体と製品
  6
CONTINUOUS
 62
    7
 10
581.61453968218666
 20
810.81155503513628
 40
0.1999999947756352
 50
269.99999850025517
 51
0.0000015001356338
  0
LINE
  8
_0-1_躯体と製品
  6
CONTINUOUS
 62
    7
 10
581.61453967695161
 20
810.6115550403606
 11
577.81453967693324
 21
810.6115550403606
  0
LINE
  8
_0-1_躯体と製品
  6
CONTINUOUS
 62
    7
 10
577.81453967693324
 20
810.6115550403606
 11
574.0145396664675
 21
810.6115550403606
  0
ARC
  8
_0-1_躯体と製品
  6
CONTINUOUS
 62
    7
 10
574.01453967693624
 20
810.8115550403636
 40
0.2000000000030247
 50
180.00000600056219
 51
269.99999700092087
  0
ARC
  8
_0-1_躯体と製品
  6
CONTINUOUS
 62
    7
 10
633.86153967684595
 20
808.82355504036332
 40
4.8189999999963842
 50
48.111754999087267
 51
96.517442000069408
  0
ARC
  8
_0-1_躯体と製品
  6
CONTINUOUS
 62
    7
 10
632.76753967689285
 20
808.82355504035729
 40
4.8190000000167297
 50
83.482563001149714
 51
131.88825099941889
  0
LINE
  8
_0-1_躯体と製品
  6
CONTINUOUS
 62
    7
 10
629.31453967687548
 20
810.8115550403727
 11
629.31453967687548
 21
811.26055504036572
  0
LINE
  8
_0-1_躯体と製品
  6
CONTINUOUS
 62
    7
 10
629.31453967687548
 20
811.26055504036572
 11
629.54953967689016
 21
812.41155504037852
  0
LINE
  8
_0-1_躯体と製品
  6
CONTINUOUS
 62
    7
 10
629.54953967689016
 20
812.41155504037852
 11
633.31453967687548
 21
812.41155504037852
  0
LINE
  8
_0-1_躯体と製品
  6
CONTINUOUS
 62
    7
 10
633.31453967687548
 20
812.41155504037852
 11
637.07953967688945
 21
812.41155504037852
  0
LINE
  8
_0-1_躯体と製品
  6
CONTINUOUS
 62
    7
 10
637.07953967688945
 20
812.41155504037852
 11
637.31453967687548
 21
811.26055504036572
  0
LINE
  8
_0-1_躯体と製品
  6
CONTINUOUS
 62
    7
 10
637.31453967687548
 20
811.26055504036572
 11
637.31453967690459
 21
810.8115550403727
  0
ARC
  8
_0-1_躯体と製品
  6
CONTINUOUS
 62
    7
 10
637.11453968212822
 20
810.81155503513696
 40
0.1999999947763173
 50
269.99999850005975
 51
0.0000014999402189
  0
LINE
  8
_0-1_躯体と製品
  6
CONTINUOUS
 62
    7
 10
637.11453967689249
 20
810.6115550403606
 11
633.31453967687548
 21
810.6115550403606
  0
LINE
  8
_0-1_躯体と製品
  6
CONTINUOUS
 62
    7
 10
633.31453967687548
 20
810.6115550403606
 11
629.51453966640929
 21
810.6115550403606
  0
ARC
  8
_0-1_躯体と製品
  6
CONTINUOUS
 62
    7
 10
629.51453967687826
 20
810.81155504036337
 40
0.2000000000027973
 50
180.00000600049705
 51
269.99999700085573
  0
TEXT
  8
_0-2_文字-記号
 62
    7
 10
533.52081167103916
 20
824.60823189122857
 40
12
 41
0.8000000000000001
 50
0
  1
大引鋼
  0
LINE
  8
_0-2_文字-記号
  6
CONTINUOUS
 62
    7
 10
585.56453967690823
 20
836.5075631143045
 11
571.18733708924219
 21
822.1303605266387
  0
LINE
  8
_0-2_文字-記号
  6
CONTINUOUS
 62
    7
 10
571.18733708924219
 20
822.1303605266387
 11
531.3972822122646
 21
822.1303605266387
  0
INSERT
  2
-008-_D9
  8
_0-4_寸法
 10
-2319.3654141771576
 20
-943.1161849178734
 41
1
 42
1
 50
0
  0
LINE
  8
_0-1_躯体と製品
  6
CONTINUOUS
 62
    3
 10
442.1360026732882
 20
891.0115550403616
 11
742.13600267328729
 21
891.0115550403616
  0
INSERT
  2
-009-_D10
  8
_0-4_寸法
 10
-2319.3654141771576
 20
-943.1161849178734
 41
1
 42
1
 50
0
  0
INSERT
  2
-010-_D11
  8
_0-4_寸法
 10
-2319.3654141771576
 20
-943.1161849178734
 41
1
 42
1
 50
0
  0
INSERT
  2
-011-_D12
  8
_0-4_寸法
 10
-2319.3654141771576
 20
-943.1161849178734
 41
1
 42
1
 50
0
  0
INSERT
  2
-012-_D13
  8
_0-4_寸法
 10
-2319.3654141771576
 20
-943.1161849178734
 41
1
 42
1
 50
0
  0
INSERT
  2
-013-_D14
  8
_0-4_寸法
 10
-2319.3654141771576
 20
-943.1161849178734
 41
1
 42
1
 50
0
  0
INSERT
  2
-014-_D15
  8
_0-4_寸法
 10
-2319.3654141771576
 20
-943.1161849178734
 41
1
 42
1
 50
0
  0
LINE
  8
_0-2_文字-記号
  6
CONTINUOUS
 62
    7
 10
537.38377511963336
 20
899.01155504036865
 11
561.01388898675032
 21
939.94011284685371
  0
LINE
  8
_0-2_文字-記号
  6
CONTINUOUS
 62
    7
 10
561.01388898675032
 20
939.94011284685371
 11
618.02209066735941
 21
939.94011284685371
  0
TEXT
  8
_0-2_文字-記号
 62
    7
 10
565.97679684209152
 20
943.41676018920157
 40
12
 41
0.8000000000000001
 50
0
  1
固定金具
  0
LINE
  8
_0-1_躯体と製品
  6
CONTINUOUS
 62
    4
 10
526.56453967690459
 20
892.01155504036865
 11
442.1360026732882
 21
892.01155504036865
  0
LINE
  8
_0-1_躯体と製品
  6
CONTINUOUS
 62
    4
 10
442.1360026732882
 20
919.01155504036865
 11
528.56453967690459
 21
919.01155504036865
  0
ARC
  8
_0-1_躯体と製品
  6
CONTINUOUS
 62
    4
 10
528.56453967690459
 20
918.01155504036865
 40
0.9999999999999998
 50
0
 51
90
  0
LINE
  8
_0-1_躯体と製品
  6
CONTINUOUS
 62
    4
 10
529.56453967690459
 20
918.01155504036865
 11
529.56453967690459
 21
913.51155504036751
  0
LINE
  8
_0-1_躯体と製品
  6
CONTINUOUS
 62
    4
 10
529.56453967690459
 20
913.51155504036751
 11
525.56453967690459
 21
913.51155504036751
  0
ARC
  8
_0-1_躯体と製品
  6
CONTINUOUS
 62
    4
 10
525.56453967690459
 20
910.51155504036751
 40
3
 50
90
 51
180
  0
LINE
  8
_0-1_躯体と製品
  6
CONTINUOUS
 62
    4
 10
522.56453967690459
 20
910.51155504036751
 11
522.56453967690459
 21
899.51155504036865
  0
ARC
  8
_0-1_躯体と製品
  6
CONTINUOUS
 62
    4
 10
525.56453967690459
 20
899.51155504036865
 40
3
 50
180
 51
270
  0
LINE
  8
_0-1_躯体と製品
  6
CONTINUOUS
 62
    4
 10
525.56453967690459
 20
896.51155504036865
 11
529.56453967690459
 21
896.51155504036865
  0
LINE
  8
_0-1_躯体と製品
  6
CONTINUOUS
 62
    4
 10
529.56453967690459
 20
896.51155504036865
 11
529.56453967690459
 21
894.51155504036751
  0
ARC
  8
_0-1_躯体と製品
  6
CONTINUOUS
 62
    4
 10
528.06453967690516
 20
894.51155504036808
 40
1.4999999999994318
 50
269.99999999997829
 51
359.99999999997829
  0
LINE
  8
_0-1_躯体と製品
  6
CONTINUOUS
 62
    4
 10
528.06453967690459
 20
893.01155504036865
 11
526.56453967690459
 21
893.01155504036865
  0
LINE
  8
_0-1_躯体と製品
  6
CONTINUOUS
 62
    4
 10
526.56453967690459
 20
893.01155504036865
 11
526.56453967690459
 21
891.51155504036865
  0
ARC
  8
_0-1_躯体と製品
  6
CONTINUOUS
 62
    4
 10
526.06453967690459
 20
891.51155504036865
 40
0.4999999999999999
 50
270
 51
0
  0
LINE
  8
_0-1_躯体と製品
  6
CONTINUOUS
 62
    4
 10
526.06453967690459
 20
891.01155504036865
 11
442.1360026732882
 21
891.01155504036865
  0
LINE
  8
_0-1_躯体と製品
  6
CONTINUOUS
 62
    4
 10
442.1360026732882
 20
918.01155504036865
 11
528.56453967690459
 21
918.01155504036865
  0
LINE
  8
_0-1_躯体と製品
  6
CONTINUOUS
 62
    4
 10
528.56453967690459
 20
918.01155504036865
 11
528.56453967690459
 21
913.51155504036751
  0
LINE
  8
_0-1_躯体と製品
  6
CONTINUOUS
 62
    4
 10
442.1360026732882
 20
896.51155504036865
 11
446.56453967690459
 21
896.51155504036865
  0
LINE
  8
_0-1_躯体と製品
  6
CONTINUOUS
 62
    4
 10
446.56453967690459
 20
896.51155504036865
 11
447.06453967690459
 21
897.01155504036865
  0
LINE
  8
_0-1_躯体と製品
  6
CONTINUOUS
 62
    4
 10
447.06453967690459
 20
897.01155504036865
 11
447.06453967690459
 21
913.01155504036865
  0
LINE
  8
_0-1_躯体と製品
  6
CONTINUOUS
 62
    4
 10
447.06453967690459
 20
913.01155504036865
 11
446.56453967690459
 21
913.51155504036751
  0
LINE
  8
_0-1_躯体と製品
  6
CONTINUOUS
 62
    4
 10
446.56453967690459
 20
913.51155504036751
 11
442.1360026732882
 21
913.51155504036751
  0
LINE
  8
_0-1_躯体と製品
  6
CONTINUOUS
 62
    4
 10
492.06453967690459
 20
898.01155504036865
 11
485.06453967690459
 21
898.01155504036865
  0
LINE
  8
_0-1_躯体と製品
  6
CONTINUOUS
 62
    4
 10
485.06453967690459
 20
898.01155504036865
 11
484.56453967690459
 21
898.51155504036865
  0
LINE
  8
_0-1_躯体と製品
  6
CONTINUOUS
 62
    4
 10
484.56453967690459
 20
898.51155504036865
 11
484.56453967690459
 21
911.51155504036865
  0
LINE
  8
_0-1_躯体と製品
  6
CONTINUOUS
 62
    4
 10
484.56453967690459
 20
911.51155504036865
 11
485.06453967690459
 21
912.01155504036751
  0
LINE
  8
_0-1_躯体と製品
  6
CONTINUOUS
 62
    4
 10
485.06453967690459
 20
912.01155504036751
 11
492.06453967690459
 21
912.01155504036751
  0
LINE
  8
_0-1_躯体と製品
  6
CONTINUOUS
 62
    4
 10
492.06453967690459
 20
912.01155504036751
 11
492.56453967690322
 21
911.51155504036865
  0
LINE
  8
_0-1_躯体と製品
  6
CONTINUOUS
 62
    4
 10
492.56453967690322
 20
911.51155504036865
 11
492.56453967690322
 21
898.51155504036865
  0
LINE
  8
_0-1_躯体と製品
  6
CONTINUOUS
 62
    4
 10
492.56453967690322
 20
898.51155504036865
 11
492.06453967690459
 21
898.01155504036865
  0
LINE
  8
_0-1_躯体と製品
  6
CONTINUOUS
 62
    4
 10
479.56453967690459
 20
896.51155504036865
 11
452.56453967690459
 21
896.51155504036865
  0
LINE
  8
_0-1_躯体と製品
  6
CONTINUOUS
 62
    4
 10
452.56453967690459
 20
896.51155504036865
 11
452.06453967690459
 21
897.01155504036865
  0
LINE
  8
_0-1_躯体と製品
  6
CONTINUOUS
 62
    4
 10
452.06453967690459
 20
897.01155504036865
 11
452.06453967690459
 21
913.01155504036865
  0
LINE
  8
_0-1_躯体と製品
  6
CONTINUOUS
 62
    4
 10
452.06453967690459
 20
913.01155504036865
 11
452.56453967690459
 21
913.51155504036751
  0
LINE
  8
_0-1_躯体と製品
  6
CONTINUOUS
 62
    4
 10
452.56453967690459
 20
913.51155504036751
 11
479.56453967690459
 21
913.51155504036751
  0
LINE
  8
_0-1_躯体と製品
  6
CONTINUOUS
 62
    4
 10
479.56453967690459
 20
913.51155504036751
 11
480.06453967690459
 21
913.01155504036865
  0
LINE
  8
_0-1_躯体と製品
  6
CONTINUOUS
 62
    4
 10
480.06453967690459
 20
913.01155504036865
 11
480.06453967690459
 21
897.01155504036865
  0
LINE
  8
_0-1_躯体と製品
  6
CONTINUOUS
 62
    4
 10
480.06453967690459
 20
897.01155504036865
 11
479.56453967690459
 21
896.51155504036865
  0
LINE
  8
_0-1_躯体と製品
  6
CONTINUOUS
 62
    4
 10
517.06453967690459
 20
896.51155504036865
 11
497.56453967690459
 21
896.51155504036865
  0
LINE
  8
_0-1_躯体と製品
  6
CONTINUOUS
 62
    4
 10
497.56453967690459
 20
896.51155504036865
 11
497.06453967690459
 21
897.01155504036865
  0
LINE
  8
_0-1_躯体と製品
  6
CONTINUOUS
 62
    4
 10
497.06453967690459
 20
897.01155504036865
 11
497.06453967690459
 21
913.01155504036865
  0
LINE
  8
_0-1_躯体と製品
  6
CONTINUOUS
 62
    4
 10
497.06453967690459
 20
913.01155504036865
 11
497.56453967690459
 21
913.51155504036751
  0
LINE
  8
_0-1_躯体と製品
  6
CONTINUOUS
 62
    4
 10
497.56453967690459
 20
913.51155504036751
 11
517.06453967690459
 21
913.51155504036751
  0
LINE
  8
_0-1_躯体と製品
  6
CONTINUOUS
 62
    4
 10
517.06453967690459
 20
913.51155504036751
 11
517.56453967690459
 21
913.01155504036865
  0
LINE
  8
_0-1_躯体と製品
  6
CONTINUOUS
 62
    4
 10
517.56453967690459
 20
913.01155504036865
 11
517.56453967690459
 21
897.01155504036865
  0
LINE
  8
_0-1_躯体と製品
  6
CONTINUOUS
 62
    4
 10
517.56453967690459
 20
897.01155504036865
 11
517.06453967690459
 21
896.51155504036865
  0
LINE
  8
_0-1_躯体と製品
  6
CONTINUOUS
 62
    7
 10
523.06453967690459
 20
911.01155504036865
 11
523.06453967690459
 21
899.81155504036769
  0
ARC
  8
_0-1_躯体と製品
  6
CONTINUOUS
 62
    7
 10
526.06453967690459
 20
899.81155504036769
 40
3
 50
180
 51
270
  0
LINE
  8
_0-1_躯体と製品
  6
CONTINUOUS
 62
    7
 10
526.06453967690459
 20
896.81155504036769
 11
526.06453967690459
 21
896.51155504036865
  0
LINE
  8
_0-1_躯体と製品
  6
CONTINUOUS
 62
    7
 10
526.06453967690459
 20
896.51155504036865
 11
527.06453967690459
 21
896.51155504036865
  0
LINE
  8
_0-1_躯体と製品
  6
CONTINUOUS
 62
    7
 10
527.06453967690459
 20
896.51155504036865
 11
527.06453967690459
 21
896.81155504036769
  0
LINE
  8
_0-1_躯体と製品
  6
CONTINUOUS
 62
    7
 10
527.06453967690459
 20
896.81155504036769
 11
528.06453967690459
 21
896.81155504036769
  0
LINE
  8
_0-1_躯体と製品
  6
CONTINUOUS
 62
    7
 10
528.06453967690459
 20
896.81155504036769
 11
528.06453967690459
 21
896.51155504036865
  0
LINE
  8
_0-1_躯体と製品
  6
CONTINUOUS
 62
    7
 10
528.06453967690459
 20
896.51155504036865
 11
528.86453967690431
 21
896.51155504036865
  0
LINE
  8
_0-1_躯体と製品
  6
CONTINUOUS
 62
    7
 10
528.86453967690431
 20
896.51155504036865
 11
528.86453967690431
 21
896.81155504036769
  0
LINE
  8
_0-1_躯体と製品
  6
CONTINUOUS
 62
    7
 10
528.86453967690431
 20
896.81155504036769
 11
529.26453967690441
 21
896.81155504036769
  0
ARC
  8
_0-1_躯体と製品
  6
CONTINUOUS
 62
    7
 10
529.26453967690497
 20
896.51155504036808
 40
0.299999999999602
 50
0.0000000001063959
 51
90.000000000110745
  0
LINE
  8
_0-1_躯体と製品
  6
CONTINUOUS
 62
    7
 10
529.56453967690459
 20
896.51155504036865
 11
529.56453967690459
 21
893.01155504036865
  0
LINE
  8
_0-1_躯体と製品
  6
CONTINUOUS
 62
    7
 10
529.56453967690459
 20
893.01155504036865
 11
528.06453967690459
 21
893.01155504036865
  0
ARC
  8
_0-1_躯体と製品
  6
CONTINUOUS
 62
    7
 10
528.06453967690459
 20
892.51155504036865
 40
0.4999999999999999
 50
90
 51
180
  0
LINE
  8
_0-1_躯体と製品
  6
CONTINUOUS
 62
    7
 10
527.56453967690459
 20
892.51155504036865
 11
527.56453967690459
 21
891.51155504036865
  0
ARC
  8
_0-1_躯体と製品
  6
CONTINUOUS
 62
    7
 10
528.06453967690459
 20
891.51155504036865
 40
0.4999999999999999
 50
180
 51
270
  0
LINE
  8
_0-1_躯体と製品
  6
CONTINUOUS
 62
    7
 10
528.06453967690459
 20
891.01155504036865
 11
531.56453967690459
 21
891.01155504036865
  0
LINE
  8
_0-1_躯体と製品
  6
CONTINUOUS
 62
    7
 10
531.56453967690459
 20
891.01155504036865
 11
531.56453967690459
 21
891.3115550403686
  0
LINE
  8
_0-1_躯体と製品
  6
CONTINUOUS
 62
    7
 10
531.56453967690459
 20
891.3115550403686
 11
533.56453967690459
 21
891.3115550403686
  0
LINE
  8
_0-1_躯体と製品
  6
CONTINUOUS
 62
    7
 10
533.56453967690459
 20
891.3115550403686
 11
533.56453967690459
 21
891.01155504036865
  0
LINE
  8
_0-1_躯体と製品
  6
CONTINUOUS
 62
    7
 10
533.56453967690459
 20
891.01155504036865
 11
535.76453967690441
 21
891.01155504036865
  0
ARC
  8
_0-1_躯体と製品
  6
CONTINUOUS
 62
    7
 10
535.76453967690441
 20
891.51155504036865
 40
0.4999999999999999
 50
270
 51
0.0000000000000127
  0
LINE
  8
_0-1_躯体と製品
  6
CONTINUOUS
 62
    7
 10
536.26453967690441
 20
891.51155504036865
 11
536.26453967690441
 21
892.51155504036865
  0
ARC
  8
_0-1_躯体と製品
  6
CONTINUOUS
 62
    7
 10
535.76453967690441
 20
892.51155504036865
 40
0.4999999999999999
 50
0.0000000000000052
 51
90.000000000000014
  0
LINE
  8
_0-1_躯体と製品
  6
CONTINUOUS
 62
    7
 10
535.76453967690441
 20
893.01155504036865
 11
535.56453967690459
 21
893.01155504036865
  0
LINE
  8
_0-1_躯体と製品
  6
CONTINUOUS
 62
    7
 10
535.56453967690459
 20
893.01155504036865
 11
535.56453967690459
 21
896.51155504036865
  0
ARC
  8
_0-1_躯体と製品
  6
CONTINUOUS
 62
    7
 10
535.86453967690397
 20
896.51155504036831
 40
0.2999999999993746
 50
89.999999999932697
 51
179.99999999993705
  0
LINE
  8
_0-1_躯体と製品
  6
CONTINUOUS
 62
    7
 10
535.86453967690431
 20
896.81155504036769
 11
536.26453967690441
 21
896.81155504036769
  0
LINE
  8
_0-1_躯体と製品
  6
CONTINUOUS
 62
    7
 10
536.26453967690441
 20
896.81155504036769
 11
536.26453967690441
 21
896.51155504036865
  0
LINE
  8
_0-1_躯体と製品
  6
CONTINUOUS
 62
    7
 10
536.26453967690441
 20
896.51155504036865
 11
537.06453967690459
 21
896.51155504036865
  0
LINE
  8
_0-1_躯体と製品
  6
CONTINUOUS
 62
    7
 10
537.06453967690459
 20
896.51155504036865
 11
537.06453967690459
 21
896.81155504036769
  0
LINE
  8
_0-1_躯体と製品
  6
CONTINUOUS
 62
    7
 10
537.06453967690459
 20
896.81155504036769
 11
538.06453967690459
 21
896.81155504036769
  0
LINE
  8
_0-1_躯体と製品
  6
CONTINUOUS
 62
    7
 10
538.06453967690459
 20
896.81155504036769
 11
538.06453967690459
 21
896.51155504036865
  0
LINE
  8
_0-1_躯体と製品
  6
CONTINUOUS
 62
    7
 10
538.06453967690459
 20
896.51155504036865
 11
539.06453967690459
 21
896.51155504036865
  0
LINE
  8
_0-1_躯体と製品
  6
CONTINUOUS
 62
    7
 10
539.06453967690459
 20
896.51155504036865
 11
539.06453967690459
 21
896.81155504036769
  0
LINE
  8
_0-1_躯体と製品
  6
CONTINUOUS
 62
    7
 10
539.06453967690459
 20
896.81155504036769
 11
539.26453967690441
 21
896.81155504036769
  0
ARC
  8
_0-1_躯体と製品
  6
CONTINUOUS
 62
    7
 10
539.26453967690406
 20
897.61155504036822
 40
0.8000000000005113
 50
270.00000000002365
 51
0.0000000000252536
  0
LINE
  8
_0-1_躯体と製品
  6
CONTINUOUS
 62
    7
 10
540.06453967690459
 20
897.61155504036856
 11
540.06453967690459
 21
900.51155504036865
  0
LINE
  8
_0-1_躯体と製品
  6
CONTINUOUS
 62
    7
 10
540.06453967690459
 20
900.51155504036865
 11
539.56453967690459
 21
900.51155504036865
  0
ARC
  8
_0-1_躯体と製品
  6
CONTINUOUS
 62
    7
 10
539.56453967690459
 20
900.01155504036865
 40
0.4999999999999999
 50
90
 51
180
  0
LINE
  8
_0-1_躯体と製品
  6
CONTINUOUS
 62
    7
 10
539.06453967690459
 20
900.01155504036865
 11
539.06453967690459
 21
899.51155504036865
  0
ARC
  8
_0-1_躯体と製品
  6
CONTINUOUS
 62
    7
 10
538.56453967690459
 20
899.51155504036865
 40
0.4999999999999999
 50
270
 51
0
  0
LINE
  8
_0-1_躯体と製品
  6
CONTINUOUS
 62
    7
 10
538.56453967690459
 20
899.01155504036865
 11
532.86453967690431
 21
899.01155504036865
  0
LINE
  8
_0-1_躯体と製品
  6
CONTINUOUS
 62
    7
 10
532.86453967690431
 20
899.01155504036865
 11
532.56453967690459
 21
898.71155504036869
  0
LINE
  8
_0-1_躯体と製品
  6
CONTINUOUS
 62
    7
 10
532.56453967690459
 20
898.71155504036869
 11
532.2645396769035
 21
899.01155504036865
  0
LINE
  8
_0-1_躯体と製品
  6
CONTINUOUS
 62
    7
 10
532.2645396769035
 20
899.01155504036865
 11
525.56453967690459
 21
899.01155504036865
  0
ARC
  8
_0-1_躯体と製品
  6
CONTINUOUS
 62
    7
 10
525.56453967690459
 20
899.51155504036865
 40
0.4999999999999999
 50
180
 51
270
  0
LINE
  8
_0-1_躯体と製品
  6
CONTINUOUS
 62
    7
 10
525.06453967690459
 20
899.51155504036865
 11
525.06453967690459
 21
905.21155504036756
  0
LINE
  8
_0-1_躯体と製品
  6
CONTINUOUS
 62
    7
 10
525.06453967690459
 20
905.21155504036756
 11
524.76453967690441
 21
905.51155504036865
  0
LINE
  8
_0-1_躯体と製品
  6
CONTINUOUS
 62
    7
 10
524.76453967690441
 20
905.51155504036865
 11
525.06453967690459
 21
905.8115550403686
  0
LINE
  8
_0-1_躯体と製品
  6
CONTINUOUS
 62
    7
 10
525.06453967690459
 20
905.8115550403686
 11
525.06453967690459
 21
911.01155504036865
  0
LINE
  8
_0-1_躯体と製品
  6
CONTINUOUS
 62
    7
 10
525.06453967690459
 20
911.01155504036865
 11
523.06453967690459
 21
911.01155504036865
  0
LINE
  8
_0-1_躯体と製品
  6
CONTINUOUS
 62
    4
 10
692.56453967690459
 20
892.01155504036865
 11
538.56453967690459
 21
892.01155504036865
  0
LINE
  8
_0-1_躯体と製品
  6
CONTINUOUS
 62
    4
 10
692.06453967690459
 20
891.01155504036865
 11
539.06453967690459
 21
891.01155504036865
  0
ARC
  8
_0-1_躯体と製品
  6
CONTINUOUS
 62
    4
 10
539.06453967690459
 20
891.51155504036865
 40
0.4999999999999999
 50
180
 51
270
  0
LINE
  8
_0-1_躯体と製品
  6
CONTINUOUS
 62
    4
 10
538.56453967690459
 20
891.51155504036865
 11
538.56453967690459
 21
893.01155504036865
  0
LINE
  8
_0-1_躯体と製品
  6
CONTINUOUS
 62
    4
 10
538.56453967690459
 20
893.01155504036865
 11
537.06453967690459
 21
893.01155504036865
  0
ARC
  8
_0-1_躯体と製品
  6
CONTINUOUS
 62
    4
 10
537.06453967690402
 20
894.51155504036808
 40
1.4999999999994171
 50
180.00000000002117
 51
270.00000000002228
  0
LINE
  8
_0-1_躯体と製品
  6
CONTINUOUS
 62
    4
 10
535.56453967690459
 20
894.51155504036751
 11
535.56453967690459
 21
896.51155504036865
  0
LINE
  8
_0-1_躯体と製品
  6
CONTINUOUS
 62
    4
 10
535.56453967690459
 20
896.51155504036865
 11
539.56453967690459
 21
896.51155504036865
  0
ARC
  8
_0-1_躯体と製品
  6
CONTINUOUS
 62
    4
 10
539.56453967690459
 20
899.51155504036865
 40
3
 50
270
 51
0.0000000000000127
  0
LINE
  8
_0-1_躯体と製品
  6
CONTINUOUS
 62
    4
 10
542.56453967690459
 20
899.51155504036865
 11
542.56453967690459
 21
910.51155504036751
  0
ARC
  8
_0-1_躯体と製品
  6
CONTINUOUS
 62
    4
 10
539.56453967690459
 20
910.51155504036751
 40
3
 50
0.0000000000000052
 51
90.000000000000014
  0
LINE
  8
_0-1_躯体と製品
  6
CONTINUOUS
 62
    4
 10
539.56453967690459
 20
913.51155504036751
 11
535.56453967690459
 21
913.51155504036751
  0
LINE
  8
_0-1_躯体と製品
  6
CONTINUOUS
 62
    4
 10
535.56453967690459
 20
913.51155504036751
 11
535.56453967690459
 21
918.01155504036865
  0
ARC
  8
_0-1_躯体と製品
  6
CONTINUOUS
 62
    4
 10
536.56453967690459
 20
918.01155504036865
 40
0.9999999999999998
 50
89.999999999999986
 51
180
  0
LINE
  8
_0-1_躯体と製品
  6
CONTINUOUS
 62
    4
 10
536.56453967690459
 20
919.01155504036865
 11
694.56453967690459
 21
919.01155504036865
  0
ARC
  8
_0-1_躯体と製品
  6
CONTINUOUS
 62
    4
 10
694.56453967690459
 20
918.01155504036865
 40
0.9999999999999998
 50
0
 51
90
  0
LINE
  8
_0-1_躯体と製品
  6
CONTINUOUS
 62
    4
 10
695.56453967690459
 20
918.01155504036865
 11
695.56453967690459
 21
913.51155504036751
  0
LINE
  8
_0-1_躯体と製品
  6
CONTINUOUS
 62
    4
 10
695.56453967690459
 20
913.51155504036751
 11
691.56453967690459
 21
913.51155504036751
  0
ARC
  8
_0-1_躯体と製品
  6
CONTINUOUS
 62
    4
 10
691.56453967690459
 20
910.51155504036751
 40
3
 50
90
 51
180
  0
LINE
  8
_0-1_躯体と製品
  6
CONTINUOUS
 62
    4
 10
688.56453967690459
 20
910.51155504036751
 11
688.56453967690459
 21
899.51155504036865
  0
ARC
  8
_0-1_躯体と製品
  6
CONTINUOUS
 62
    4
 10
691.56453967690459
 20
899.51155504036865
 40
3
 50
180
 51
270
  0
LINE
  8
_0-1_躯体と製品
  6
CONTINUOUS
 62
    4
 10
691.56453967690459
 20
896.51155504036865
 11
695.56453967690459
 21
896.51155504036865
  0
LINE
  8
_0-1_躯体と製品
  6
CONTINUOUS
 62
    4
 10
695.56453967690459
 20
896.51155504036865
 11
695.56453967690459
 21
894.51155504036751
  0
ARC
  8
_0-1_躯体と製品
  6
CONTINUOUS
 62
    4
 10
694.06453967690516
 20
894.51155504036808
 40
1.4999999999994318
 50
269.99999999997829
 51
359.99999999997829
  0
LINE
  8
_0-1_躯体と製品
  6
CONTINUOUS
 62
    4
 10
694.06453967690459
 20
893.01155504036865
 11
692.56453967690459
 21
893.01155504036865
  0
LINE
  8
_0-1_躯体と製品
  6
CONTINUOUS
 62
    4
 10
692.56453967690459
 20
893.01155504036865
 11
692.56453967690459
 21
891.51155504036865
  0
LINE
  8
_0-1_躯体と製品
  6
CONTINUOUS
 62
    4
 10
692.56453967690459
 20
891.51155504036865
 11
692.06453967690459
 21
891.01155504036865
  0
LINE
  8
_0-1_躯体と製品
  6
CONTINUOUS
 62
    4
 10
536.56453967690459
 20
913.51155504036751
 11
536.56453967690459
 21
918.01155504036865
  0
LINE
  8
_0-1_躯体と製品
  6
CONTINUOUS
 62
    4
 10
536.56453967690459
 20
918.01155504036865
 11
694.56453967690459
 21
918.01155504036865
  0
LINE
  8
_0-1_躯体と製品
  6
CONTINUOUS
 62
    4
 10
694.56453967690459
 20
918.01155504036865
 11
694.56453967690459
 21
913.51155504036751
  0
LINE
  8
_0-1_躯体と製品
  6
CONTINUOUS
 62
    4
 10
573.06453967690459
 20
898.01155504036865
 11
580.06453967690459
 21
898.01155504036865
  0
LINE
  8
_0-1_躯体と製品
  6
CONTINUOUS
 62
    4
 10
580.06453967690459
 20
898.01155504036865
 11
580.56453967690459
 21
898.51155504036865
  0
LINE
  8
_0-1_躯体と製品
  6
CONTINUOUS
 62
    4
 10
580.56453967690459
 20
898.51155504036865
 11
580.56453967690459
 21
911.51155504036865
  0
LINE
  8
_0-1_躯体と製品
  6
CONTINUOUS
 62
    4
 10
580.56453967690459
 20
911.51155504036865
 11
580.06453967690459
 21
912.01155504036751
  0
LINE
  8
_0-1_躯体と製品
  6
CONTINUOUS
 62
    4
 10
580.06453967690459
 20
912.01155504036751
 11
573.06453967690459
 21
912.01155504036751
  0
LINE
  8
_0-1_躯体と製品
  6
CONTINUOUS
 62
    4
 10
573.06453967690459
 20
912.01155504036751
 11
572.56453967690459
 21
911.51155504036865
  0
LINE
  8
_0-1_躯体と製品
  6
CONTINUOUS
 62
    4
 10
572.56453967690459
 20
911.51155504036865
 11
572.56453967690459
 21
898.51155504036865
  0
LINE
  8
_0-1_躯体と製品
  6
CONTINUOUS
 62
    4
 10
572.56453967690459
 20
898.51155504036865
 11
573.06453967690459
 21
898.01155504036865
  0
LINE
  8
_0-1_躯体と製品
  6
CONTINUOUS
 62
    4
 10
585.56453967690459
 20
896.51155504036865
 11
612.56453967690459
 21
896.51155504036865
  0
LINE
  8
_0-1_躯体と製品
  6
CONTINUOUS
 62
    4
 10
612.56453967690459
 20
896.51155504036865
 11
613.06453967690459
 21
897.01155504036865
  0
LINE
  8
_0-1_躯体と製品
  6
CONTINUOUS
 62
    4
 10
613.06453967690459
 20
897.01155504036865
 11
613.06453967690459
 21
913.01155504036865
  0
LINE
  8
_0-1_躯体と製品
  6
CONTINUOUS
 62
    4
 10
613.06453967690459
 20
913.01155504036865
 11
612.56453967690459
 21
913.51155504036751
  0
LINE
  8
_0-1_躯体と製品
  6
CONTINUOUS
 62
    4
 10
612.56453967690459
 20
913.51155504036751
 11
585.56453967690459
 21
913.51155504036751
  0
LINE
  8
_0-1_躯体と製品
  6
CONTINUOUS
 62
    4
 10
585.56453967690459
 20
913.51155504036751
 11
585.06453967690459
 21
913.01155504036865
  0
LINE
  8
_0-1_躯体と製品
  6
CONTINUOUS
 62
    4
 10
585.06453967690459
 20
913.01155504036865
 11
585.06453967690459
 21
897.01155504036865
  0
LINE
  8
_0-1_躯体と製品
  6
CONTINUOUS
 62
    4
 10
585.06453967690459
 20
897.01155504036865
 11
585.56453967690459
 21
896.51155504036865
  0
LINE
  8
_0-1_躯体と製品
  6
CONTINUOUS
 62
    4
 10
548.06453967690459
 20
896.51155504036865
 11
567.56453967690459
 21
896.51155504036865
  0
LINE
  8
_0-1_躯体と製品
  6
CONTINUOUS
 62
    4
 10
567.56453967690459
 20
896.51155504036865
 11
568.06453967690459
 21
897.01155504036865
  0
LINE
  8
_0-1_躯体と製品
  6
CONTINUOUS
 62
    4
 10
568.06453967690459
 20
897.01155504036865
 11
568.06453967690459
 21
913.01155504036865
  0
LINE
  8
_0-1_躯体と製品
  6
CONTINUOUS
 62
    4
 10
568.06453967690459
 20
913.01155504036865
 11
567.56453967690459
 21
913.51155504036751
  0
LINE
  8
_0-1_躯体と製品
  6
CONTINUOUS
 62
    4
 10
567.56453967690459
 20
913.51155504036751
 11
548.06453967690459
 21
913.51155504036751
  0
LINE
  8
_0-1_躯体と製品
  6
CONTINUOUS
 62
    4
 10
548.06453967690459
 20
913.51155504036751
 11
547.56453967690459
 21
913.01155504036865
  0
LINE
  8
_0-1_躯体と製品
  6
CONTINUOUS
 62
    4
 10
547.56453967690459
 20
913.01155504036865
 11
547.56453967690459
 21
897.01155504036865
  0
LINE
  8
_0-1_躯体と製品
  6
CONTINUOUS
 62
    4
 10
547.56453967690459
 20
897.01155504036865
 11
548.06453967690459
 21
896.51155504036865
  0
LINE
  8
_0-1_躯体と製品
  6
CONTINUOUS
 62
    4
 10
658.06453967690459
 20
898.01155504036865
 11
651.06453967690459
 21
898.01155504036865
  0
LINE
  8
_0-1_躯体と製品
  6
CONTINUOUS
 62
    4
 10
651.06453967690459
 20
898.01155504036865
 11
650.56453967690459
 21
898.51155504036865
  0
LINE
  8
_0-1_躯体と製品
  6
CONTINUOUS
 62
    4
 10
650.56453967690459
 20
898.51155504036865
 11
650.56453967690459
 21
911.51155504036865
  0
LINE
  8
_0-1_躯体と製品
  6
CONTINUOUS
 62
    4
 10
650.56453967690459
 20
911.51155504036865
 11
651.06453967690459
 21
912.01155504036751
  0
LINE
  8
_0-1_躯体と製品
  6
CONTINUOUS
 62
    4
 10
651.06453967690459
 20
912.01155504036751
 11
658.06453967690459
 21
912.01155504036751
  0
LINE
  8
_0-1_躯体と製品
  6
CONTINUOUS
 62
    4
 10
658.06453967690459
 20
912.01155504036751
 11
658.56453967690459
 21
911.51155504036865
  0
LINE
  8
_0-1_躯体と製品
  6
CONTINUOUS
 62
    4
 10
658.56453967690459
 20
911.51155504036865
 11
658.56453967690459
 21
898.51155504036865
  0
LINE
  8
_0-1_躯体と製品
  6
CONTINUOUS
 62
    4
 10
658.56453967690459
 20
898.51155504036865
 11
658.06453967690459
 21
898.01155504036865
  0
LINE
  8
_0-1_躯体と製品
  6
CONTINUOUS
 62
    4
 10
645.56453967690459
 20
896.51155504036865
 11
618.56453967690459
 21
896.51155504036865
  0
LINE
  8
_0-1_躯体と製品
  6
CONTINUOUS
 62
    4
 10
618.56453967690459
 20
896.51155504036865
 11
618.06453967690459
 21
897.01155504036865
  0
LINE
  8
_0-1_躯体と製品
  6
CONTINUOUS
 62
    4
 10
618.06453967690459
 20
897.01155504036865
 11
618.06453967690459
 21
913.01155504036865
  0
LINE
  8
_0-1_躯体と製品
  6
CONTINUOUS
 62
    4
 10
618.06453967690459
 20
913.01155504036865
 11
618.56453967690459
 21
913.51155504036751
  0
LINE
  8
_0-1_躯体と製品
  6
CONTINUOUS
 62
    4
 10
618.56453967690459
 20
913.51155504036751
 11
645.56453967690459
 21
913.51155504036751
  0
LINE
  8
_0-1_躯体と製品
  6
CONTINUOUS
 62
    4
 10
645.56453967690459
 20
913.51155504036751
 11
646.06453967690459
 21
913.01155504036865
  0
LINE
  8
_0-1_躯体と製品
  6
CONTINUOUS
 62
    4
 10
646.06453967690459
 20
913.01155504036865
 11
646.06453967690459
 21
897.01155504036865
  0
LINE
  8
_0-1_躯体と製品
  6
CONTINUOUS
 62
    4
 10
646.06453967690459
 20
897.01155504036865
 11
645.56453967690459
 21
896.51155504036865
  0
LINE
  8
_0-1_躯体と製品
  6
CONTINUOUS
 62
    4
 10
683.06453967690459
 20
896.51155504036865
 11
663.56453967690459
 21
896.51155504036865
  0
LINE
  8
_0-1_躯体と製品
  6
CONTINUOUS
 62
    4
 10
663.56453967690459
 20
896.51155504036865
 11
663.06453967690459
 21
897.01155504036865
  0
LINE
  8
_0-1_躯体と製品
  6
CONTINUOUS
 62
    4
 10
663.06453967690459
 20
897.01155504036865
 11
663.06453967690459
 21
913.01155504036865
  0
LINE
  8
_0-1_躯体と製品
  6
CONTINUOUS
 62
    4
 10
663.06453967690459
 20
913.01155504036865
 11
663.56453967690459
 21
913.51155504036751
  0
LINE
  8
_0-1_躯体と製品
  6
CONTINUOUS
 62
    4
 10
663.56453967690459
 20
913.51155504036751
 11
683.06453967690459
 21
913.51155504036751
  0
LINE
  8
_0-1_躯体と製品
  6
CONTINUOUS
 62
    4
 10
683.06453967690459
 20
913.51155504036751
 11
683.56453967690459
 21
913.01155504036865
  0
LINE
  8
_0-1_躯体と製品
  6
CONTINUOUS
 62
    4
 10
683.56453967690459
 20
913.01155504036865
 11
683.56453967690459
 21
897.01155504036865
  0
LINE
  8
_0-1_躯体と製品
  6
CONTINUOUS
 62
    4
 10
683.56453967690459
 20
897.01155504036865
 11
683.06453967690459
 21
896.51155504036865
  0
LINE
  8
_0-1_躯体と製品
  6
CONTINUOUS
 62
    7
 10
689.06453967690459
 20
911.01155504036865
 11
689.06453967690459
 21
899.81155504036769
  0
ARC
  8
_0-1_躯体と製品
  6
CONTINUOUS
 62
    7
 10
692.06453967690459
 20
899.81155504036769
 40
3
 50
180
 51
270
  0
LINE
  8
_0-1_躯体と製品
  6
CONTINUOUS
 62
    7
 10
692.06453967690459
 20
896.81155504036769
 11
692.06453967690459
 21
896.51155504036865
  0
LINE
  8
_0-1_躯体と製品
  6
CONTINUOUS
 62
    7
 10
692.06453967690459
 20
896.51155504036865
 11
693.06453967690459
 21
896.51155504036865
  0
LINE
  8
_0-1_躯体と製品
  6
CONTINUOUS
 62
    7
 10
693.06453967690459
 20
896.51155504036865
 11
693.06453967690459
 21
896.81155504036769
  0
LINE
  8
_0-1_躯体と製品
  6
CONTINUOUS
 62
    7
 10
693.06453967690459
 20
896.81155504036769
 11
694.06453967690459
 21
896.81155504036769
  0
LINE
  8
_0-1_躯体と製品
  6
CONTINUOUS
 62
    7
 10
694.06453967690459
 20
896.81155504036769
 11
694.06453967690459
 21
896.51155504036865
  0
LINE
  8
_0-1_躯体と製品
  6
CONTINUOUS
 62
    7
 10
694.06453967690459
 20
896.51155504036865
 11
694.86453967690431
 21
896.51155504036865
  0
LINE
  8
_0-1_躯体と製品
  6
CONTINUOUS
 62
    7
 10
694.86453967690431
 20
896.51155504036865
 11
694.86453967690431
 21
896.81155504036769
  0
LINE
  8
_0-1_躯体と製品
  6
CONTINUOUS
 62
    7
 10
694.86453967690431
 20
896.81155504036769
 11
695.26453967690441
 21
896.81155504036769
  0
ARC
  8
_0-1_躯体と製品
  6
CONTINUOUS
 62
    7
 10
695.26453967690497
 20
896.51155504036808
 40
0.299999999999602
 50
0.0000000001063959
 51
90.000000000110745
  0
LINE
  8
_0-1_躯体と製品
  6
CONTINUOUS
 62
    7
 10
695.56453967690459
 20
896.51155504036865
 11
695.56453967690459
 21
893.01155504036865
  0
LINE
  8
_0-1_躯体と製品
  6
CONTINUOUS
 62
    7
 10
695.56453967690459
 20
893.01155504036865
 11
694.06453967690459
 21
893.01155504036865
  0
ARC
  8
_0-1_躯体と製品
  6
CONTINUOUS
 62
    7
 10
694.06453967690459
 20
892.51155504036865
 40
0.4999999999999999
 50
90
 51
180
  0
LINE
  8
_0-1_躯体と製品
  6
CONTINUOUS
 62
    7
 10
693.56453967690459
 20
892.51155504036865
 11
693.56453967690459
 21
891.51155504036865
  0
ARC
  8
_0-1_躯体と製品
  6
CONTINUOUS
 62
    7
 10
694.06453967690459
 20
891.51155504036865
 40
0.4999999999999999
 50
180
 51
270
  0
LINE
  8
_0-1_躯体と製品
  6
CONTINUOUS
 62
    7
 10
694.06453967690459
 20
891.01155504036865
 11
697.56453967690459
 21
891.01155504036865
  0
LINE
  8
_0-1_躯体と製品
  6
CONTINUOUS
 62
    7
 10
697.56453967690459
 20
891.01155504036865
 11
697.56453967690459
 21
891.3115550403686
  0
LINE
  8
_0-1_躯体と製品
  6
CONTINUOUS
 62
    7
 10
697.56453967690459
 20
891.3115550403686
 11
699.56453967690459
 21
891.3115550403686
  0
LINE
  8
_0-1_躯体と製品
  6
CONTINUOUS
 62
    7
 10
699.56453967690459
 20
891.3115550403686
 11
699.56453967690459
 21
891.01155504036865
  0
LINE
  8
_0-1_躯体と製品
  6
CONTINUOUS
 62
    7
 10
699.56453967690459
 20
891.01155504036865
 11
701.76453967690441
 21
891.01155504036865
  0
ARC
  8
_0-1_躯体と製品
  6
CONTINUOUS
 62
    7
 10
701.76453967690441
 20
891.51155504036865
 40
0.4999999999999999
 50
270
 51
0.0000000000000127
  0
LINE
  8
_0-1_躯体と製品
  6
CONTINUOUS
 62
    7
 10
702.26453967690441
 20
891.51155504036865
 11
702.26453967690441
 21
892.51155504036865
  0
ARC
  8
_0-1_躯体と製品
  6
CONTINUOUS
 62
    7
 10
701.76453967690441
 20
892.51155504036865
 40
0.4999999999999999
 50
0.0000000000000052
 51
90.000000000000014
  0
LINE
  8
_0-1_躯体と製品
  6
CONTINUOUS
 62
    7
 10
701.76453967690441
 20
893.01155504036865
 11
701.56453967690459
 21
893.01155504036865
  0
LINE
  8
_0-1_躯体と製品
  6
CONTINUOUS
 62
    7
 10
701.56453967690459
 20
893.01155504036865
 11
701.56453967690459
 21
896.51155504036865
  0
ARC
  8
_0-1_躯体と製品
  6
CONTINUOUS
 62
    7
 10
701.86453967690397
 20
896.51155504036831
 40
0.2999999999993746
 50
89.999999999932697
 51
179.99999999993705
  0
LINE
  8
_0-1_躯体と製品
  6
CONTINUOUS
 62
    7
 10
701.86453967690431
 20
896.81155504036769
 11
702.26453967690441
 21
896.81155504036769
  0
LINE
  8
_0-1_躯体と製品
  6
CONTINUOUS
 62
    7
 10
702.26453967690441
 20
896.81155504036769
 11
702.26453967690441
 21
896.51155504036865
  0
LINE
  8
_0-1_躯体と製品
  6
CONTINUOUS
 62
    7
 10
702.26453967690441
 20
896.51155504036865
 11
703.06453967690459
 21
896.51155504036865
  0
LINE
  8
_0-1_躯体と製品
  6
CONTINUOUS
 62
    7
 10
703.06453967690459
 20
896.51155504036865
 11
703.06453967690459
 21
896.81155504036769
  0
LINE
  8
_0-1_躯体と製品
  6
CONTINUOUS
 62
    7
 10
703.06453967690459
 20
896.81155504036769
 11
704.06453967690459
 21
896.81155504036769
  0
LINE
  8
_0-1_躯体と製品
  6
CONTINUOUS
 62
    7
 10
704.06453967690459
 20
896.81155504036769
 11
704.06453967690459
 21
896.51155504036865
  0
LINE
  8
_0-1_躯体と製品
  6
CONTINUOUS
 62
    7
 10
704.06453967690459
 20
896.51155504036865
 11
705.06453967690459
 21
896.51155504036865
  0
LINE
  8
_0-1_躯体と製品
  6
CONTINUOUS
 62
    7
 10
705.06453967690459
 20
896.51155504036865
 11
705.06453967690459
 21
896.81155504036769
  0
LINE
  8
_0-1_躯体と製品
  6
CONTINUOUS
 62
    7
 10
705.06453967690459
 20
896.81155504036769
 11
705.2645396769035
 21
896.81155504036769
  0
ARC
  8
_0-1_躯体と製品
  6
CONTINUOUS
 62
    7
 10
705.26453967690361
 20
897.61155504036867
 40
0.800000000000966
 50
269.99999999999102
 51
359.99999999999267
  0
LINE
  8
_0-1_躯体と製品
  6
CONTINUOUS
 62
    7
 10
706.06453967690459
 20
897.61155504036856
 11
706.06453967690459
 21
900.51155504036865
  0
LINE
  8
_0-1_躯体と製品
  6
CONTINUOUS
 62
    7
 10
706.06453967690459
 20
900.51155504036865
 11
705.56453967690459
 21
900.51155504036865
  0
ARC
  8
_0-1_躯体と製品
  6
CONTINUOUS
 62
    7
 10
705.56453967690459
 20
900.01155504036865
 40
0.4999999999999999
 50
90
 51
180
  0
LINE
  8
_0-1_躯体と製品
  6
CONTINUOUS
 62
    7
 10
705.06453967690459
 20
900.01155504036865
 11
705.06453967690459
 21
899.51155504036865
  0
ARC
  8
_0-1_躯体と製品
  6
CONTINUOUS
 62
    7
 10
704.56453967690459
 20
899.51155504036865
 40
0.4999999999999999
 50
270
 51
0
  0
LINE
  8
_0-1_躯体と製品
  6
CONTINUOUS
 62
    7
 10
704.56453967690459
 20
899.01155504036865
 11
698.86453967690431
 21
899.01155504036865
  0
LINE
  8
_0-1_躯体と製品
  6
CONTINUOUS
 62
    7
 10
698.86453967690431
 20
899.01155504036865
 11
698.56453967690459
 21
898.71155504036869
  0
LINE
  8
_0-1_躯体と製品
  6
CONTINUOUS
 62
    7
 10
698.56453967690459
 20
898.71155504036869
 11
698.26453967690441
 21
899.01155504036865
  0
LINE
  8
_0-1_躯体と製品
  6
CONTINUOUS
 62
    7
 10
698.26453967690441
 20
899.01155504036865
 11
691.56453967690459
 21
899.01155504036865
  0
ARC
  8
_0-1_躯体と製品
  6
CONTINUOUS
 62
    7
 10
691.56453967690459
 20
899.51155504036865
 40
0.4999999999999999
 50
180
 51
270
  0
LINE
  8
_0-1_躯体と製品
  6
CONTINUOUS
 62
    7
 10
691.06453967690459
 20
899.51155504036865
 11
691.06453967690459
 21
905.21155504036756
  0
LINE
  8
_0-1_躯体と製品
  6
CONTINUOUS
 62
    7
 10
691.06453967690459
 20
905.21155504036756
 11
690.76453967690441
 21
905.51155504036865
  0
LINE
  8
_0-1_躯体と製品
  6
CONTINUOUS
 62
    7
 10
690.76453967690441
 20
905.51155504036865
 11
691.06453967690459
 21
905.8115550403686
  0
LINE
  8
_0-1_躯体と製品
  6
CONTINUOUS
 62
    7
 10
691.06453967690459
 20
905.8115550403686
 11
691.06453967690459
 21
911.01155504036865
  0
LINE
  8
_0-1_躯体と製品
  6
CONTINUOUS
 62
    7
 10
691.06453967690459
 20
911.01155504036865
 11
689.06453967690459
 21
911.01155504036865
  0
LINE
  8
_0-1_躯体と製品
  6
CONTINUOUS
 62
    4
 10
742.13608993876232
 20
892.01155504036865
 11
704.56453967690459
 21
892.01155504036865
  0
LINE
  8
_0-1_躯体と製品
  6
CONTINUOUS
 62
    4
 10
742.13600267328729
 20
891.01155504036865
 11
705.06453967690459
 21
891.01155504036865
  0
ARC
  8
_0-1_躯体と製品
  6
CONTINUOUS
 62
    4
 10
705.06453967690459
 20
891.51155504036865
 40
0.4999999999999999
 50
180
 51
270
  0
LINE
  8
_0-1_躯体と製品
  6
CONTINUOUS
 62
    4
 10
704.56453967690459
 20
891.51155504036865
 11
704.56453967690459
 21
893.01155504036865
  0
LINE
  8
_0-1_躯体と製品
  6
CONTINUOUS
 62
    4
 10
704.56453967690459
 20
893.01155504036865
 11
703.06453967690459
 21
893.01155504036865
  0
ARC
  8
_0-1_躯体と製品
  6
CONTINUOUS
 62
    4
 10
703.06453967690402
 20
894.51155504036808
 40
1.4999999999994171
 50
180.00000000002117
 51
270.00000000002228
  0
LINE
  8
_0-1_躯体と製品
  6
CONTINUOUS
 62
    4
 10
701.56453967690459
 20
894.51155504036751
 11
701.56453967690459
 21
896.51155504036865
  0
LINE
  8
_0-1_躯体と製品
  6
CONTINUOUS
 62
    4
 10
701.56453967690459
 20
896.51155504036865
 11
705.56453967690459
 21
896.51155504036865
  0
ARC
  8
_0-1_躯体と製品
  6
CONTINUOUS
 62
    4
 10
705.56453967690459
 20
899.51155504036865
 40
3
 50
270
 51
0.0000000000000127
  0
LINE
  8
_0-1_躯体と製品
  6
CONTINUOUS
 62
    4
 10
708.56453967690459
 20
899.51155504036865
 11
708.56453967690459
 21
910.51155504036751
  0
ARC
  8
_0-1_躯体と製品
  6
CONTINUOUS
 62
    4
 10
705.56453967690459
 20
910.51155504036751
 40
3
 50
0.0000000000000052
 51
90.000000000000014
  0
LINE
  8
_0-1_躯体と製品
  6
CONTINUOUS
 62
    4
 10
705.56453967690459
 20
913.51155504036751
 11
701.56453967690459
 21
913.51155504036751
  0
LINE
  8
_0-1_躯体と製品
  6
CONTINUOUS
 62
    4
 10
701.56453967690459
 20
913.51155504036751
 11
701.56453967690459
 21
918.01155504036865
  0
ARC
  8
_0-1_躯体と製品
  6
CONTINUOUS
 62
    4
 10
702.56453967690459
 20
918.01155504036865
 40
0.9999999999999998
 50
89.999999999999986
 51
180
  0
LINE
  8
_0-1_躯体と製品
  6
CONTINUOUS
 62
    4
 10
702.56453967690459
 20
919.01155504036865
 11
742.13844610658634
 21
919.01155504036865
  0
LINE
  8
_0-1_躯体と製品
  6
CONTINUOUS
 62
    4
 10
702.56453967690459
 20
913.51155504036751
 11
702.56453967690459
 21
918.01155504036865
  0
LINE
  8
_0-1_躯体と製品
  6
CONTINUOUS
 62
    4
 10
702.56453967690459
 20
918.01155504036865
 11
742.13835884111131
 21
918.01155504036865
  0
LINE
  8
_0-1_躯体と製品
  6
CONTINUOUS
 62
    4
 10
742.13783524826158
 20
912.01155504036751
 11
739.06453967690459
 21
912.01155504036751
  0
LINE
  8
_0-1_躯体と製品
  6
CONTINUOUS
 62
    4
 10
739.06453967690459
 20
912.01155504036751
 11
738.56453967690459
 21
911.51155504036865
  0
LINE
  8
_0-1_躯体と製品
  6
CONTINUOUS
 62
    4
 10
738.56453967690459
 20
911.51155504036865
 11
738.56453967690459
 21
898.51155504036865
  0
LINE
  8
_0-1_躯体と製品
  6
CONTINUOUS
 62
    4
 10
738.56453967690459
 20
898.51155504036865
 11
739.06453967690459
 21
898.01155504036865
  0
LINE
  8
_0-1_躯体と製品
  6
CONTINUOUS
 62
    4
 10
739.06453967690459
 20
898.01155504036865
 11
742.13661353161251
 21
898.01155504036865
  0
LINE
  8
_0-1_躯体と製品
  6
CONTINUOUS
 62
    4
 10
714.06453967690459
 20
896.51155504036865
 11
733.56453967690459
 21
896.51155504036865
  0
LINE
  8
_0-1_躯体と製品
  6
CONTINUOUS
 62
    4
 10
733.56453967690459
 20
896.51155504036865
 11
734.06453967690459
 21
897.01155504036865
  0
LINE
  8
_0-1_躯体と製品
  6
CONTINUOUS
 62
    4
 10
734.06453967690459
 20
897.01155504036865
 11
734.06453967690459
 21
913.01155504036865
  0
LINE
  8
_0-1_躯体と製品
  6
CONTINUOUS
 62
    4
 10
734.06453967690459
 20
913.01155504036865
 11
733.56453967690459
 21
913.51155504036751
  0
LINE
  8
_0-1_躯体と製品
  6
CONTINUOUS
 62
    4
 10
733.56453967690459
 20
913.51155504036751
 11
714.06453967690459
 21
913.51155504036751
  0
LINE
  8
_0-1_躯体と製品
  6
CONTINUOUS
 62
    4
 10
714.06453967690459
 20
913.51155504036751
 11
713.56453967690459
 21
913.01155504036865
  0
LINE
  8
_0-1_躯体と製品
  6
CONTINUOUS
 62
    4
 10
713.56453967690459
 20
913.01155504036865
 11
713.56453967690459
 21
897.01155504036865
  0
LINE
  8
_0-1_躯体と製品
  6
CONTINUOUS
 62
    4
 10
713.56453967690459
 20
897.01155504036865
 11
714.06453967690459
 21
896.51155504036865
  0
ARC
  8
_0-1_躯体と製品
  6
CONTINUOUS
 62
    7
 10
533.11153967687505
 20
897.22355504037046
 40
4.8189999999963842
 50
48.111754999087267
 51
96.517442000069408
  0
ARC
  8
_0-1_躯体と製品
  6
CONTINUOUS
 62
    7
 10
532.01753967692161
 20
897.22355504036409
 40
4.8190000000167297
 50
83.482563001149714
 51
131.88825099941889
  0
LINE
  8
_0-1_躯体と製品
  6
CONTINUOUS
 62
    7
 10
528.56453967690459
 20
899.21155504037961
 11
528.56453967690459
 21
899.66055504037354
  0
LINE
  8
_0-1_躯体と製品
  6
CONTINUOUS
 62
    7
 10
528.56453967690459
 20
899.66055504037354
 11
528.79953967691927
 21
900.81155504038566
  0
LINE
  8
_0-1_躯体と製品
  6
CONTINUOUS
 62
    7
 10
528.79953967691927
 20
900.81155504038566
 11
532.56453967690459
 21
900.81155504038566
  0
LINE
  8
_0-1_躯体と製品
  6
CONTINUOUS
 62
    7
 10
532.56453967690459
 20
900.81155504038566
 11
536.32953967691856
 21
900.81155504038566
  0
LINE
  8
_0-1_躯体と製品
  6
CONTINUOUS
 62
    7
 10
536.32953967691856
 20
900.81155504038566
 11
536.56453967690459
 21
899.66055504037354
  0
LINE
  8
_0-1_躯体と製品
  6
CONTINUOUS
 62
    7
 10
536.56453967690459
 20
899.66055504037354
 11
536.56453967693324
 21
899.21155504037961
  0
ARC
  8
_0-1_躯体と製品
  6
CONTINUOUS
 62
    7
 10
536.36453968215778
 20
899.2115550351441
 40
0.1999999947755216
 50
269.99999849996209
 51
0.0000014998425137
  0
LINE
  8
_0-1_躯体と製品
  6
CONTINUOUS
 62
    7
 10
536.36453967692159
 20
899.01155504036865
 11
532.56453967690459
 21
899.01155504036865
  0
LINE
  8
_0-1_躯体と製品
  6
CONTINUOUS
 62
    7
 10
532.56453967690459
 20
899.01155504036865
 11
528.7645396664384
 21
899.01155504036865
  0
ARC
  8
_0-1_躯体と製品
  6
CONTINUOUS
 62
    7
 10
528.76453967690725
 20
899.21155504037131
 40
0.2000000000026836
 50
180.00000600052962
 51
269.9999970008883
  0
ARC
  8
_0-1_躯体と製品
  6
CONTINUOUS
 62
    7
 10
699.11153967687505
 20
897.22355504037046
 40
4.8189999999963842
 50
48.111754999087267
 51
96.517442000069408
  0
ARC
  8
_0-1_躯体と製品
  6
CONTINUOUS
 62
    7
 10
698.0175396769215
 20
897.22355504036409
 40
4.8190000000167297
 50
83.482563001149714
 51
131.88825099941889
  0
LINE
  8
_0-1_躯体と製品
  6
CONTINUOUS
 62
    7
 10
694.56453967690459
 20
899.21155504037961
 11
694.56453967690459
 21
899.66055504037354
  0
LINE
  8
_0-1_躯体と製品
  6
CONTINUOUS
 62
    7
 10
694.56453967690459
 20
899.66055504037354
 11
694.79953967691927
 21
900.81155504038566
  0
LINE
  8
_0-1_躯体と製品
  6
CONTINUOUS
 62
    7
 10
694.79953967691927
 20
900.81155504038566
 11
698.56453967690459
 21
900.81155504038566
  0
LINE
  8
_0-1_躯体と製品
  6
CONTINUOUS
 62
    7
 10
698.56453967690459
 20
900.81155504038566
 11
702.32953967691856
 21
900.81155504038566
  0
LINE
  8
_0-1_躯体と製品
  6
CONTINUOUS
 62
    7
 10
702.32953967691856
 20
900.81155504038566
 11
702.56453967690459
 21
899.66055504037354
  0
LINE
  8
_0-1_躯体と製品
  6
CONTINUOUS
 62
    7
 10
702.56453967690459
 20
899.66055504037354
 11
702.56453967693324
 21
899.21155504037961
  0
ARC
  8
_0-1_躯体と製品
  6
CONTINUOUS
 62
    7
 10
702.36453968215778
 20
899.2115550351441
 40
0.1999999947755216
 50
269.99999849996209
 51
0.0000014998425137
  0
LINE
  8
_0-1_躯体と製品
  6
CONTINUOUS
 62
    7
 10
702.36453967692159
 20
899.01155504036865
 11
698.56453967690459
 21
899.01155504036865
  0
LINE
  8
_0-1_躯体と製品
  6
CONTINUOUS
 62
    7
 10
698.56453967690459
 20
899.01155504036865
 11
694.7645396664384
 21
899.01155504036865
  0
ARC
  8
_0-1_躯体と製品
  6
CONTINUOUS
 62
    7
 10
694.76453967690725
 20
899.21155504037131
 40
0.2000000000026836
 50
180.00000600052962
 51
269.9999970008883
  0
LINE
  8
_0-1_躯体と製品
  6
CONTINUOUS
 62
    4
 10
1237.8512333698864
 20
269.01155504036865
 11
937.85123336988636
 21
269.01155504036865
  0
LINE
  8
_0-5_中心線
  6
CENTER1
 62
    7
 10
1087.8512333698864
 20
181.26372504037158
 11
1087.8512333698864
 21
832.27501614118864
  0
LINE
  8
_0-1_躯体と製品
  6
CONTINUOUS
 62
    4
 10
1066.5012333698864
 20
379.2115550403696
 11
1066.5012333698864
 21
708.81155317434559
  0
LINE
  8
_0-1_躯体と製品
  6
CONTINUOUS
 62
    4
 10
1109.2012333698863
 20
379.2115550403696
 11
1109.2012333698863
 21
708.81155317434559
  0
LINE
  8
_0-1_躯体と製品
  6
CONTINUOUS
 62
    3
 10
1178.3166833698842
 20
239.01155504036865
 11
1208.3166833698842
 21
269.01155504036865
  0
LINE
  8
_0-1_躯体と製品
  6
CONTINUOUS
 62
    3
 10
1172.6598283698854
 20
239.01155504036865
 11
1202.6598283698854
 21
269.01155504036865
  0
LINE
  8
_0-1_躯体と製品
  6
CONTINUOUS
 62
    3
 10
1183.9735383698876
 20
239.01155504036865
 11
1213.9735383698876
 21
269.01155504036865
  0
LINE
  8
_0-1_躯体と製品
  6
CONTINUOUS
 62
    4
 10
1063.3862333698826
 20
379.21155504036869
 11
1070.3862333698826
 21
379.21155504036869
  0
LINE
  8
_0-1_躯体と製品
  6
CONTINUOUS
 62
    4
 10
1066.6512333698793
 20
356.01155504036456
 11
1087.8512333698823
 21
356.01155504036456
  0
ARC
  8
_0-1_躯体と製品
  6
CONTINUOUS
 62
    4
 10
1066.6512333698793
 20
360.01155504036865
 40
4
 50
180
 51
270
  0
LINE
  8
_0-1_躯体と製品
  6
CONTINUOUS
 62
    4
 10
1063.3862333698826
 20
376.71155504036869
 11
1062.4561033698833
 21
376.71155504036869
  0
LINE
  8
_0-1_躯体と製品
  6
CONTINUOUS
 62
    4
 10
1063.3862333698826
 20
369.71155504036551
 11
1062.4561033698833
 21
369.71155504036551
  0
ARC
  8
_0-1_躯体と製品
  6
CONTINUOUS
 62
    4
 10
1066.7862333698822
 20
373.21155504036869
 40
6
 50
150.0000000000023
 51
209.9999999999969
  0
ARC
  8
_0-1_躯体と製品
  6
CONTINUOUS
 62
    4
 10
1062.4561033698833
 20
375.71155504036869
 40
1
 50
90
 51
150.0000000000023
  0
ARC
  8
_0-1_躯体と製品
  6
CONTINUOUS
 62
    4
 10
1062.4561033698833
 20
370.71155504036869
 40
1
 50
209.9999999999969
 51
270
  0
LINE
  8
_0-1_躯体と製品
  6
CONTINUOUS
 62
    4
 10
1063.3862333698826
 20
367.21155504036551
 11
1063.3862333698826
 21
379.21155504036869
  0
LINE
  8
_0-1_躯体と製品
  6
CONTINUOUS
 62
    4
 10
1062.6512333698824
 20
367.21155504036551
 11
1063.3862333698826
 21
367.21155504036551
  0
LINE
  8
_0-1_躯体と製品
  6
CONTINUOUS
 62
    4
 10
1062.6512333698824
 20
360.01155504036865
 11
1062.6512333698824
 21
367.21155504036551
  0
ARC
  8
_0-1_躯体と製品
  6
CONTINUOUS
 62
    4
 10
1109.0512333698834
 20
360.01155504036865
 40
4
 50
270
 51
0
  0
ARC
  8
_0-1_躯体と製品
  6
CONTINUOUS
 62
    4
 10
1103.8512333698845
 20
356.01155504036456
 40
2
 50
270
 51
0
  0
LINE
  8
_0-1_躯体と製品
  6
CONTINUOUS
 62
    4
 10
1109.0512333698834
 20
356.01155504036456
 11
1087.8512333698823
 21
356.01155504036456
  0
LINE
  8
_0-1_躯体と製品
  6
CONTINUOUS
 62
    4
 10
1071.8512333698804
 20
354.01155504036865
 11
1087.8512333698823
 21
354.01155504036865
  0
ARC
  8
_0-1_躯体と製品
  6
CONTINUOUS
 62
    4
 10
1071.8512333698804
 20
356.01155504036456
 40
2
 50
180
 51
270
  0
LINE
  8
_0-1_躯体と製品
  6
CONTINUOUS
 62
    4
 10
1103.8512333698845
 20
354.01155504036865
 11
1087.8512333698823
 21
354.01155504036865
  0
LINE
  8
_0-1_躯体と製品
  6
CONTINUOUS
 62
    4
 10
1112.3162333698833
 20
379.21155504036869
 11
1105.3162333698806
 21
379.21155504036869
  0
LINE
  8
_0-1_躯体と製品
  6
CONTINUOUS
 62
    4
 10
1105.3162333698806
 20
367.21155504036551
 11
1070.3862333698826
 21
367.21155504036551
  0
LINE
  8
_0-1_躯体と製品
  6
CONTINUOUS
 62
    4
 10
1070.3862333698826
 20
367.21155504036551
 11
1070.3862333698826
 21
379.21155504036869
  0
LINE
  8
_0-1_躯体と製品
  6
CONTINUOUS
 62
    4
 10
1105.3162333698806
 20
367.21155504036551
 11
1105.3162333698806
 21
379.21155504036869
  0
LINE
  8
_0-1_躯体と製品
  6
CONTINUOUS
 62
    4
 10
1112.3162333698833
 20
376.71155504036869
 11
1113.2463583698814
 21
376.71155504036869
  0
LINE
  8
_0-1_躯体と製品
  6
CONTINUOUS
 62
    4
 10
1112.3162333698833
 20
369.71155504036551
 11
1113.2463583698814
 21
369.71155504036551
  0
ARC
  8
_0-1_躯体と製品
  6
CONTINUOUS
 62
    4
 10
1108.9162333698832
 20
373.21155504036869
 40
6
 50
330.00000000000313
 51
29.999999999996888
  0
ARC
  8
_0-1_躯体と製品
  6
CONTINUOUS
 62
    4
 10
1113.2463583698814
 20
375.71155504036869
 40
1
 50
29.999999999996881
 51
90
  0
ARC
  8
_0-1_躯体と製品
  6
CONTINUOUS
 62
    4
 10
1113.2463583698814
 20
370.71155504036869
 40
1
 50
270
 51
330.00000000000313
  0
LINE
  8
_0-1_躯体と製品
  6
CONTINUOUS
 62
    4
 10
1112.3162333698833
 20
367.21155504036551
 11
1112.3162333698833
 21
379.21155504036869
  0
LINE
  8
_0-1_躯体と製品
  6
CONTINUOUS
 62
    4
 10
1113.0512333698812
 20
367.21155504036551
 11
1112.3162333698833
 21
367.21155504036551
  0
LINE
  8
_0-1_躯体と製品
  6
CONTINUOUS
 62
    4
 10
1113.0512333698812
 20
360.01155504036865
 11
1113.0512333698812
 21
367.21155504036551
  0
LINE
  8
_0-1_躯体と製品
  6
CONTINUOUS
 62
    4
 10
1063.3862333698862
 20
708.81155317434559
 11
1070.3862333698862
 21
708.81155317434559
  0
LINE
  8
_0-1_躯体と製品
  6
CONTINUOUS
 62
    4
 10
1066.6512333698834
 20
732.01183317434266
 11
1087.8512333698864
 21
732.01155317434564
  0
ARC
  8
_0-1_躯体と製品
  6
CONTINUOUS
 62
    4
 10
1066.6512333698834
 20
728.01183317434266
 40
4
 50
90
 51
180
  0
LINE
  8
_0-1_躯体と製品
  6
CONTINUOUS
 62
    4
 10
1063.3862333698862
 20
711.31155317434468
 11
1062.4561033698874
 21
711.31155317434468
  0
LINE
  8
_0-1_躯体と製品
  6
CONTINUOUS
 62
    4
 10
1063.3862333698862
 20
718.3115531743415
 11
1062.4561033698874
 21
718.3115531743415
  0
ARC
  8
_0-1_躯体と製品
  6
CONTINUOUS
 62
    4
 10
1066.7862333698863
 20
714.8115531743415
 40
6
 50
150.0000000000023
 51
209.9999999999969
  0
ARC
  8
_0-1_躯体と製品
  6
CONTINUOUS
 62
    4
 10
1062.4561033698874
 20
712.3115531743415
 40
1
 50
209.9999999999969
 51
270
  0
ARC
  8
_0-1_躯体と製品
  6
CONTINUOUS
 62
    4
 10
1062.4561033698874
 20
717.3115531743415
 40
1
 50
90
 51
150.0000000000023
  0
LINE
  8
_0-1_躯体と製品
  6
CONTINUOUS
 62
    4
 10
1063.3862333698862
 20
720.8115531743415
 11
1063.3862333698862
 21
708.81155317434559
  0
LINE
  8
_0-1_躯体と製品
  6
CONTINUOUS
 62
    4
 10
1062.6512333698852
 20
720.8115531743415
 11
1063.3862333698862
 21
720.8115531743415
  0
LINE
  8
_0-1_躯体と製品
  6
CONTINUOUS
 62
    4
 10
1062.6512333698852
 20
728.01183317434266
 11
1062.6512333698852
 21
720.8115531743415
  0
ARC
  8
_0-1_躯体と製品
  6
CONTINUOUS
 62
    4
 10
1109.0512333698875
 20
728.01183317434266
 40
4
 50
0
 51
90
  0
LINE
  8
_0-1_躯体と製品
  6
CONTINUOUS
 62
    4
 10
1112.3162333698865
 20
708.81155317434559
 11
1105.3162333698856
 21
708.81155317434559
  0
LINE
  8
_0-1_躯体と製品
  6
CONTINUOUS
 62
    4
 10
1105.3162333698856
 20
720.8115531743415
 11
1070.3862333698862
 21
720.8115531743415
  0
LINE
  8
_0-1_躯体と製品
  6
CONTINUOUS
 62
    4
 10
1070.3862333698862
 20
720.8115531743415
 11
1070.3862333698862
 21
708.81155317434559
  0
LINE
  8
_0-1_躯体と製品
  6
CONTINUOUS
 62
    4
 10
1105.3162333698856
 20
720.8115531743415
 11
1105.3162333698856
 21
708.81155317434559
  0
LINE
  8
_0-1_躯体と製品
  6
CONTINUOUS
 62
    4
 10
1112.3162333698865
 20
711.31155317434468
 11
1113.2463583698855
 21
711.31155317434468
  0
LINE
  8
_0-1_躯体と製品
  6
CONTINUOUS
 62
    4
 10
1112.3162333698865
 20
718.3115531743415
 11
1113.2463583698855
 21
718.3115531743415
  0
ARC
  8
_0-1_躯体と製品
  6
CONTINUOUS
 62
    4
 10
1108.9162333698873
 20
714.8115531743415
 40
6
 50
330.00000000000313
 51
29.999999999996888
  0
ARC
  8
_0-1_躯体と製品
  6
CONTINUOUS
 62
    4
 10
1113.2463583698855
 20
712.3115531743415
 40
1
 50
270
 51
330.00000000000313
  0
ARC
  8
_0-1_躯体と製品
  6
CONTINUOUS
 62
    4
 10
1113.2463583698855
 20
717.3115531743415
 40
1
 50
29.999999999996881
 51
90
  0
LINE
  8
_0-1_躯体と製品
  6
CONTINUOUS
 62
    4
 10
1112.3162333698865
 20
720.8115531743415
 11
1112.3162333698865
 21
708.81155317434559
  0
LINE
  8
_0-1_躯体と製品
  6
CONTINUOUS
 62
    4
 10
1113.0512333698853
 20
720.8115531743415
 11
1112.3162333698865
 21
720.8115531743415
  0
LINE
  8
_0-1_躯体と製品
  6
CONTINUOUS
 62
    4
 10
1113.0512333698853
 20
728.01183317434266
 11
1113.0512333698853
 21
720.8115531743415
  0
ARC
  8
_0-1_躯体と製品
  6
CONTINUOUS
 62
    4
 10
1103.8512333698882
 20
732.01155317434564
 40
2
 50
0
 51
90
  0
LINE
  8
_0-1_躯体と製品
  6
CONTINUOUS
 62
    4
 10
1109.0512333698875
 20
732.01183317434266
 11
1087.8512333698864
 21
732.01155317434564
  0
LINE
  8
_0-1_躯体と製品
  6
CONTINUOUS
 62
    4
 10
1071.8512333698845
 20
734.01155317434268
 11
1087.8512333698864
 21
734.01155317434268
  0
ARC
  8
_0-1_躯体と製品
  6
CONTINUOUS
 62
    4
 10
1071.8512333698845
 20
732.01155317434564
 40
2
 50
90
 51
180
  0
LINE
  8
_0-1_躯体と製品
  6
CONTINUOUS
 62
    4
 10
1103.8512333698882
 20
734.01155317434268
 11
1087.8512333698864
 21
734.01155317434268
  0
LINE
  8
_0-1_躯体と製品
  6
CONTINUOUS
 62
    7
 10
1083.3512333698795
 20
792.01155521223063
 11
1083.3512333698795
 21
753.31155300247451
  0
LINE
  8
_0-1_躯体と製品
  6
CONTINUOUS
 62
    7
 10
1081.8512333698795
 20
792.11833013812861
 11
1081.8512333698795
 21
753.20477807657562
  0
LINE
  8
_0-1_躯体と製品
  6
CONTINUOUS
 62
    7
 10
1092.3512333698795
 20
792.01155521223063
 11
1092.3512333698795
 21
753.31155300247451
  0
LINE
  8
_0-1_躯体と製品
  6
CONTINUOUS
 62
    7
 10
1093.8512333698795
 20
792.11833013812657
 11
1093.8512333698795
 21
753.20477807657767
  0
ARC
  8
_0-1_躯体と製品
  6
CONTINUOUS
 62
    7
 10
1041.1012333698823
 20
803.76155504036672
 40
3.249999999995798
 50
90.000002999934651
 51
180.00000000007415
  0
LINE
  8
_0-1_躯体と製品
  6
CONTINUOUS
 62
    7
 10
1037.8512333698864
 20
803.76155504036251
 11
1037.8512333698864
 21
796.01155504036251
  0
LINE
  8
_0-1_躯体と製品
  6
CONTINUOUS
 62
    7
 10
1037.8512333698864
 20
796.01155504036251
 11
1137.8512333698864
 21
796.01155504036251
  0
LINE
  8
_0-1_躯体と製品
  6
CONTINUOUS
 62
    7
 10
1137.8512333698864
 20
796.01155504036251
 11
1137.8512333698864
 21
803.76155504036251
  0
ARC
  8
_0-1_躯体と製品
  6
CONTINUOUS
 62
    7
 10
1134.6012333698864
 20
803.76155504036251
 40
3.2500000000000044
 50
0.0000000000000816
 51
89.999999999999929
  0
LINE
  8
_0-1_躯体と製品
  6
CONTINUOUS
 62
    7
 10
1134.6012333698864
 20
807.01155504036251
 11
1087.8512333698864
 21
807.01155504036251
  0
LINE
  8
_0-1_躯体と製品
  6
CONTINUOUS
 62
    7
 10
1087.8512333698864
 20
807.01155504036251
 11
1041.1012333698864
 21
807.01155504036251
  0
LINE
  8
_0-2_文字-記号
  6
CONTINUOUS
 62
    7
 10
1123.5076649973735
 20
796.01155504036251
 11
1139.5758201257145
 21
768.18069397417753
  0
LINE
  8
_0-2_文字-記号
  6
CONTINUOUS
 62
    7
 10
1139.5758201257145
 20
768.18069397417753
 11
1182.0113056172022
 21
768.18069397417753
  0
TEXT
  8
_0-2_文字-記号
 62
    7
 10
1139.5758201257145
 20
770.57012897417871
 40
12
 41
0.8000000000000001
 50
0
  1
受け金具
  0
LINE
  8
_0-1_躯体と製品
  6
CONTINUOUS
 62
    3
 10
964.1667733698846
 20
239.01155504036865
 11
994.1667733698846
 21
269.01155504036865
  0
LINE
  8
_0-1_躯体と製品
  6
CONTINUOUS
 62
    3
 10
952.8530633698856
 20
239.01155504036865
 11
982.85306336988651
 21
269.01155504036865
  0
LINE
  8
_0-1_躯体と製品
  6
CONTINUOUS
 62
    3
 10
958.5099183698876
 20
239.01155504036865
 11
988.5099183698876
 21
269.01155504036865
  0
LINE
  8
_0-1_躯体と製品
  6
CONTINUOUS
 62
    3
 10
1237.8512333698864
 20
810.61155504036765
 11
1107.8512333698864
 21
810.61155504036765
  0
LINE
  8
_0-1_躯体と製品
  6
CONTINUOUS
 62
    3
 10
1067.8512333698864
 20
810.61155504036765
 11
937.85123336988636
 21
810.61155504036765
  0
LINE
  8
_0-1_躯体と製品
  6
CONTINUOUS
 62
    3
 10
937.85123336988727
 20
809.01155504036865
 11
1067.8512333698864
 21
809.01155504036865
  0
LINE
  8
_0-1_躯体と製品
  6
CONTINUOUS
 62
    3
 10
1107.8512333698864
 20
809.01155504036865
 11
1237.8512333698864
 21
809.01155504036865
  0
LINE
  8
_0-1_躯体と製品
  6
CONTINUOUS
 62
    3
 10
937.85123336988727
 20
849.01155504036751
 11
1237.8512333698864
 21
849.01155504036865
  0
LINE
  8
_0-2_文字-記号
  6
CONTINUOUS
 62
    7
 10
1120.1217174354442
 20
919.01155504036865
 11
1136.8077296377833
 21
947.91257595053253
  0
LINE
  8
_0-2_文字-記号
  6
CONTINUOUS
 62
    7
 10
1136.8077296377833
 20
947.91257595053253
 11
1185.0463334360184
 21
947.91257595053253
  0
TEXT
  8
_0-2_文字-記号
 62
    7
 10
1139.2060830705204
 20
952.06664595054053
 40
12
 41
0.8000000000000001
 50
0
  1
デッキ材
  0
LINE
  8
_0-2_文字-記号
  6
CONTINUOUS
 62
    7
 10
1000.5381695425222
 20
910.0115550403616
 11
1025.4002816447965
 21
953.07399638497259
  0
LINE
  8
_0-2_文字-記号
  6
CONTINUOUS
 62
    7
 10
1025.4002816447965
 20
953.07399638497259
 11
1076.4983066666305
 21
953.07399638497259
  0
TEXT
  8
_0-2_文字-記号
 62
    7
 10
1027.7986350775332
 20
957.22806638498059
 40
12
 41
0.8000000000000001
 50
0
  1
固定金具
  0
TEXT
  8
_0-2_文字-記号
 62
    7
 10
948.16296805403545
 20
876.05825482220462
 40
12
 41
0.8000000000000001
 50
0
  1
根太鋼
  0
TEXT
  8
_0-2_文字-記号
 62
    7
 10
962.67783746376927
 20
780.26835306143357
 40
12
 41
0.8000000000000001
 50
0
  1
大引鋼
  0
LINE
  8
_0-2_文字-記号
  6
CONTINUOUS
 62
    7
 10
1019.1285354824422
 20
809.01155504036865
 11
1001.1809444885853
 21
777.9254155655417
  0
LINE
  8
_0-2_文字-記号
  6
CONTINUOUS
 62
    7
 10
1001.1809444885853
 20
777.9254155655417
 11
959.89636505814042
 21
777.9254155655417
  0
INSERT
  2
-002-_D3
  8
_0-4_寸法
 10
-2319.3654141771576
 20
-943.1161849178734
 41
1
 42
1
 50
0
  0
INSERT
  2
-003-_D4
  8
_0-4_寸法
 10
-2319.3654141771576
 20
-943.1161849178734
 41
1
 42
1
 50
0
  0
TEXT
  8
_0-2_文字-記号
 62
    7
 10
564.76453967690441
 20
160.58554370901857
 40
15
 41
0.8
 50
0
  1
大引きピッチ
  0
TEXT
  8
_0-2_文字-記号
 62
    7
 10
1047.6497491184182
 20
160.58554370901857
 40
15
 41
0.8
 50
0
  1
支持脚ピッチ
  0
LINE
  8
_0-1_躯体と製品
  6
CONTINUOUS
 62
    7
 10
1067.8512333698864
 20
814.0115550403616
 11
1107.8512333698864
 21
814.0115550403616
  0
LINE
  8
_0-1_躯体と製品
  6
CONTINUOUS
 62
    7
 10
1107.8512333698864
 20
814.0115550403616
 11
1107.8512333698864
 21
807.01155504036251
  0
LINE
  8
_0-1_躯体と製品
  6
CONTINUOUS
 62
    7
 10
1107.8512333698864
 20
807.01155504036251
 11
1067.8512333698864
 21
807.01155504036251
  0
LINE
  8
_0-1_躯体と製品
  6
CONTINUOUS
 62
    7
 10
1067.8512333698864
 20
807.01155504036251
 11
1067.8512333698864
 21
814.0115550403616
  0
LINE
  8
_0-1_躯体と製品
  6
CONTINUOUS
 62
    7
 10
1087.8512333698864
 20
796.01155504036251
 11
1087.8512333698854
 21
793.01155504036365
  0
LINE
  8
_0-1_躯体と製品
  6
CONTINUOUS
 62
    7
 10
1096.8474127728164
 20
793.01155504036365
 11
1096.8474127728205
 21
796.01155504036251
  0
LINE
  8
_0-1_躯体と製品
  6
CONTINUOUS
 62
    7
 10
1078.8550539669532
 20
793.01155504036365
 11
1078.8550539669573
 21
796.01155504036251
  0
LINE
  8
_0-1_躯体と製品
  6
CONTINUOUS
 62
    7
 10
1083.3531436684202
 20
792.01155504036251
 11
1092.3493230713516
 21
792.01155504036251
  0
ARC
  8
_0-1_躯体と製品
  6
CONTINUOUS
 62
    7
 10
1083.3531436684202
 20
802.62796052155954
 40
10.61640548119736
 50
244.93207904395683
 51
295.06792095604328
  0
ARC
  8
_0-1_躯体と製品
  6
CONTINUOUS
 62
    7
 10
1092.3493230713516
 20
802.62796052155954
 40
10.61640548119736
 50
244.93207904395683
 51
295.06792095604328
  0
LINE
  8
_0-1_躯体と製品
  6
CONTINUOUS
 62
    7
 10
1044.8512333698864
 20
854.01155504036251
 11
1049.8512333698873
 21
854.01155504036251
  0
LINE
  8
_0-1_躯体と製品
  6
CONTINUOUS
 62
    7
 10
1049.8512333698873
 20
854.01155504036251
 11
1049.8512333698873
 21
851.01155504036251
  0
LINE
  8
_0-1_躯体と製品
  6
CONTINUOUS
 62
    7
 10
1049.8512333698873
 20
851.01155504036251
 11
975.85123336988636
 21
851.01155504036251
  0
LINE
  8
_0-1_躯体と製品
  6
CONTINUOUS
 62
    7
 10
975.85123336988636
 20
851.01155504036251
 11
975.85123336988636
 21
854.01155504036251
  0
LINE
  8
_0-1_躯体と製品
  6
CONTINUOUS
 62
    7
 10
975.85123336988636
 20
854.01155504036251
 11
980.85123336988636
 21
854.01155504036251
  0
LINE
  8
_0-1_躯体と製品
  6
CONTINUOUS
 62
    7
 10
980.85123336988636
 20
854.01155504036251
 11
980.85123336988636
 21
856.01155504036251
  0
LINE
  8
_0-1_躯体と製品
  6
CONTINUOUS
 62
    7
 10
980.85123336988636
 20
856.01155504036251
 11
973.85123336988636
 21
856.01155504036251
  0
LINE
  8
_0-1_躯体と製品
  6
CONTINUOUS
 62
    7
 10
973.85123336988636
 20
856.01155504036251
 11
973.85123336988636
 21
849.0115550403616
  0
LINE
  8
_0-1_躯体と製品
  6
CONTINUOUS
 62
    7
 10
973.85123336988636
 20
849.0115550403616
 11
1051.8512333698864
 21
849.0115550403616
  0
LINE
  8
_0-1_躯体と製品
  6
CONTINUOUS
 62
    7
 10
1051.8512333698864
 20
849.0115550403616
 11
1051.8512333698864
 21
856.01155504036251
  0
LINE
  8
_0-1_躯体と製品
  6
CONTINUOUS
 62
    7
 10
1051.8512333698864
 20
856.01155504036251
 11
1044.8512333698864
 21
856.01155504036251
  0
LINE
  8
_0-1_躯体と製品
  6
CONTINUOUS
 62
    7
 10
1044.8512333698864
 20
856.01155504036251
 11
1044.8512333698864
 21
854.01155504036251
  0
LINE
  8
_0-1_躯体と製品
  6
CONTINUOUS
 62
    3
 10
1031.2512333698805
 20
853.1115550403606
 11
1031.2512333698805
 21
888.91155504035669
  0
ARC
  8
_0-1_躯体と製品
  6
CONTINUOUS
 62
    3
 10
1030.75123338297
 20
888.91155505344614
 40
0.4999999869105527
 50
359.9999985000598
 51
90.00000149994024
  0
LINE
  8
_0-1_躯体と製品
  6
CONTINUOUS
 62
    3
 10
1030.7512333698805
 20
889.41155504035669
 11
1012.8512333698864
 21
889.41155504035669
  0
LINE
  8
_0-1_躯体と製品
  6
CONTINUOUS
 62
    3
 10
1012.8512333698864
 20
889.41155504035669
 11
994.95123334371328
 21
889.41155504035669
  0
ARC
  8
_0-1_躯体と製品
  6
CONTINUOUS
 62
    3
 10
994.95123334371237
 20
888.91155506653649
 40
0.4999999738201959
 50
89.999999999895834
 51
180.00000299998476
  0
LINE
  8
_0-1_躯体と製品
  6
CONTINUOUS
 62
    3
 10
994.45123336989218
 20
888.91155504035669
 11
994.45123336988627
 21
853.1115550403606
  0
ARC
  8
_0-1_躯体と製品
  6
CONTINUOUS
 62
    3
 10
992.35123336988636
 20
853.1115550403606
 40
2.0999999999999654
 50
270.00000000000153
 51
359.99999999999847
  0
LINE
  8
_0-1_躯体と製品
  6
CONTINUOUS
 62
    3
 10
992.35123336988636
 20
851.01155504036069
 11
975.85123336988636
 21
851.01155504036251
  0
LINE
  8
_0-1_躯体と製品
  6
CONTINUOUS
 62
    3
 10
975.85123336988636
 20
851.01155504036251
 11
975.85123336988636
 21
852.6115550403606
  0
LINE
  8
_0-1_躯体と製品
  6
CONTINUOUS
 62
    3
 10
975.85123336988636
 20
852.6115550403606
 11
992.35123336988636
 21
852.6115550403606
  0
ARC
  8
_0-1_躯体と製品
  6
CONTINUOUS
 62
    3
 10
992.35123338297626
 20
853.11155502727161
 40
0.4999999869110074
 50
269.99999850000768
 51
0.0000014998881267
  0
LINE
  8
_0-1_躯体と製品
  6
CONTINUOUS
 62
    3
 10
992.85123336988727
 20
853.1115550403606
 11
992.85123336989227
 21
888.91155504035669
  0
ARC
  8
_0-1_躯体と製品
  6
CONTINUOUS
 62
    3
 10
994.95123336989218
 20
888.91155504035669
 40
2.0999999999999086
 50
89.999999999999986
 51
180
  0
LINE
  8
_0-1_躯体と製品
  6
CONTINUOUS
 62
    3
 10
994.95123336989218
 20
891.0115550403566
 11
1012.8512333698864
 21
891.0115550403616
  0
LINE
  8
_0-1_躯体と製品
  6
CONTINUOUS
 62
    3
 10
1012.8512333698864
 20
891.0115550403616
 11
1030.7512333698842
 21
891.0115550403566
  0
ARC
  8
_0-1_躯体と製品
  6
CONTINUOUS
 62
    3
 10
1030.7512333698837
 20
888.91155504035407
 40
2.100000000002527
 50
0.0000000000714225
 51
89.999999999990607
  0
LINE
  8
_0-1_躯体と製品
  6
CONTINUOUS
 62
    3
 10
1032.8512333698864
 20
888.91155504035669
 11
1032.8512333698864
 21
853.11155498800053
  0
ARC
  8
_0-1_躯体と製品
  6
CONTINUOUS
 62
    3
 10
1033.3512333829756
 20
853.11155505344982
 40
0.5000000130892234
 50
180.00000749993578
 51
269.99999850008601
  0
LINE
  8
_0-1_躯体と製品
  6
CONTINUOUS
 62
    3
 10
1033.3512333698864
 20
852.6115550403606
 11
1049.8512333698873
 21
852.6115550403606
  0
LINE
  8
_0-1_躯体と製品
  6
CONTINUOUS
 62
    3
 10
1049.8512333698873
 20
852.6115550403606
 11
1049.8512333698873
 21
851.01155504036251
  0
LINE
  8
_0-1_躯体と製品
  6
CONTINUOUS
 62
    3
 10
1049.8512333698873
 20
851.01155504036251
 11
1033.3512333698864
 21
851.01155504036069
  0
ARC
  8
_0-1_躯体と製品
  6
CONTINUOUS
 62
    3
 10
1033.3512333698866
 20
853.11155504036083
 40
2.1000000000001902
 50
180.00000599996457
 51
269.99999999999261
  0
LINE
  8
_0-5_中心線
  6
CENTER1
 62
    7
 10
985.10123336991546
 20
836.6115550403606
 11
985.10123336991546
 21
859.53530504036053
  0
ARC
  8
_0-1_躯体と製品
  6
CONTINUOUS
 62
    7
 10
985.64823336988491
 20
850.82355504036286
 40
4.8189999999967217
 50
48.111754999074705
 51
96.51744200005686
  0
ARC
  8
_0-1_躯体と製品
  6
CONTINUOUS
 62
    7
 10
984.55423336993385
 20
850.82355504035672
 40
4.8190000000170672
 50
83.482563001162276
 51
131.88825099943148
  0
LINE
  8
_0-1_躯体と製品
  6
CONTINUOUS
 62
    7
 10
981.10123336991546
 20
852.8115550403727
 11
981.10123336991546
 21
853.26055504036572
  0
LINE
  8
_0-1_躯体と製品
  6
CONTINUOUS
 62
    7
 10
981.10123336991546
 20
853.26055504036572
 11
981.3362333699306
 21
854.41155504037761
  0
LINE
  8
_0-1_躯体と製品
  6
CONTINUOUS
 62
    7
 10
981.3362333699306
 20
854.41155504037761
 11
985.10123336991546
 21
854.41155504037761
  0
LINE
  8
_0-1_躯体と製品
  6
CONTINUOUS
 62
    7
 10
985.10123336991546
 20
854.41155504037761
 11
988.86623336992943
 21
854.41155504037761
  0
LINE
  8
_0-1_躯体と製品
  6
CONTINUOUS
 62
    7
 10
988.86623336992943
 20
854.41155504037761
 11
989.10123336991546
 21
853.26055504036572
  0
LINE
  8
_0-1_躯体と製品
  6
CONTINUOUS
 62
    7
 10
989.10123336991546
 20
853.26055504036572
 11
989.10123336994548
 21
852.8115550403727
  0
ARC
  8
_0-1_躯体と製品
  6
CONTINUOUS
 62
    7
 10
988.90123337516911
 20
852.81155503513696
 40
0.1999999947763173
 50
269.99999850005975
 51
0.0000014999402189
  0
LINE
  8
_0-1_躯体と製品
  6
CONTINUOUS
 62
    7
 10
988.90123336993338
 20
852.6115550403606
 11
985.10123336991546
 21
852.6115550403606
  0
LINE
  8
_0-1_躯体と製品
  6
CONTINUOUS
 62
    7
 10
985.10123336991546
 20
852.6115550403606
 11
981.30123335944927
 21
852.6115550403606
  0
ARC
  8
_0-1_躯体と製品
  6
CONTINUOUS
 62
    7
 10
981.30123336991824
 20
852.81155504036337
 40
0.2000000000027973
 50
180.00000600049705
 51
269.99999700085573
  0
LINE
  8
_0-5_中心線
  6
CENTER1
 62
    7
 10
1040.6012333698573
 20
836.6115550403606
 11
1040.6012333698573
 21
859.53530504036053
  0
ARC
  8
_0-1_躯体と製品
  6
CONTINUOUS
 62
    7
 10
1041.1482333698268
 20
850.82355504036229
 40
4.8189999999972501
 50
48.111754999076709
 51
96.51744200005885
  0
ARC
  8
_0-1_躯体と製品
  6
CONTINUOUS
 62
    7
 10
1040.0542333698756
 20
850.82355504035672
 40
4.8190000000170672
 50
83.482563001162276
 51
131.88825099943148
  0
LINE
  8
_0-1_躯体と製品
  6
CONTINUOUS
 62
    7
 10
1036.6012333698582
 20
852.8115550403727
 11
1036.6012333698582
 21
853.26055504036572
  0
LINE
  8
_0-1_躯体と製品
  6
CONTINUOUS
 62
    7
 10
1036.6012333698582
 20
853.26055504036572
 11
1036.8362333698724
 21
854.41155504037761
  0
LINE
  8
_0-1_躯体と製品
  6
CONTINUOUS
 62
    7
 10
1036.8362333698724
 20
854.41155504037761
 11
1040.6012333698573
 21
854.41155504037761
  0
LINE
  8
_0-1_躯体と製品
  6
CONTINUOUS
 62
    7
 10
1040.6012333698573
 20
854.41155504037761
 11
1044.3662333698712
 21
854.41155504037761
  0
LINE
  8
_0-1_躯体と製品
  6
CONTINUOUS
 62
    7
 10
1044.3662333698712
 20
854.41155504037761
 11
1044.6012333698573
 21
853.26055504036572
  0
LINE
  8
_0-1_躯体と製品
  6
CONTINUOUS
 62
    7
 10
1044.6012333698573
 20
853.26055504036572
 11
1044.6012333698864
 21
852.8115550403727
  0
ARC
  8
_0-1_躯体と製品
  6
CONTINUOUS
 62
    7
 10
1044.4012333751105
 20
852.81155503513651
 40
0.1999999947758626
 50
269.99999850019003
 51
0.000001500070494
  0
LINE
  8
_0-1_躯体と製品
  6
CONTINUOUS
 62
    7
 10
1044.4012333698752
 20
852.6115550403606
 11
1040.6012333698573
 21
852.6115550403606
  0
LINE
  8
_0-1_躯体と製品
  6
CONTINUOUS
 62
    7
 10
1040.6012333698573
 20
852.6115550403606
 11
1036.8012333593915
 21
852.6115550403606
  0
ARC
  8
_0-1_躯体と製品
  6
CONTINUOUS
 62
    7
 10
1036.8012333698607
 20
852.81155504036315
 40
0.2000000000025699
 50
180.00000600043191
 51
269.99999700079059
  0
LINE
  8
_0-5_中心線
  6
CENTER1
 62
    7
 10
1003.8512333698864
 20
879.04082503855966
 11
1003.8512333698864
 21
903.34965715267958
  0
ARC
  8
_0-1_躯体と製品
  6
CONTINUOUS
 62
    7
 10
1003.3042333699163
 20
897.22355504036523
 40
4.8189999999953264
 50
83.482557999934599
 51
131.88824500091673
  0
ARC
  8
_0-1_躯体と製品
  6
CONTINUOUS
 62
    7
 10
1004.398233369868
 20
897.22355504035863
 40
4.8190000000170672
 50
48.11174900056853
 51
96.517436998837724
  0
LINE
  8
_0-1_躯体と製品
  6
CONTINUOUS
 62
    7
 10
1007.6774844558904
 20
900.51155504036251
 11
1007.6162333698712
 21
900.81155504037952
  0
LINE
  8
_0-1_躯体と製品
  6
CONTINUOUS
 62
    7
 10
1007.6162333698712
 20
900.81155504037952
 11
1003.8512333698864
 21
900.81155504037952
  0
LINE
  8
_0-1_躯体と製品
  6
CONTINUOUS
 62
    7
 10
1003.8512333698864
 20
900.81155504037952
 11
1000.0862333698724
 21
900.81155504037952
  0
LINE
  8
_0-1_躯体と製品
  6
CONTINUOUS
 62
    7
 10
1000.0862333698724
 20
900.81155504037952
 11
1000.0249822838605
 21
900.51155504036251
  0
LINE
  8
_0-1_躯体と製品
  6
CONTINUOUS
 62
    7
 10
1005.6012333698864
 20
887.66579104036259
 11
1005.0512333698875
 21
887.34825104036258
  0
LINE
  8
_0-1_躯体と製品
  6
CONTINUOUS
 62
    7
 10
1002.6512333698865
 20
887.27778104036065
 11
1005.0512333698875
 21
887.98333604036065
  0
LINE
  8
_0-1_躯体と製品
  6
CONTINUOUS
 62
    7
 10
1002.1012333698864
 20
886.96023604035963
 11
1002.6512333698865
 21
887.27778104036065
  0
LINE
  8
_0-1_躯体と製品
  6
CONTINUOUS
 62
    7
 10
1002.6512333698865
 20
887.27778104036065
 11
1002.6512333698865
 21
888.05380604036168
  0
LINE
  8
_0-1_躯体と製品
  6
CONTINUOUS
 62
    7
 10
1005.0512333698875
 20
885.16111104036054
 11
1005.6012333698864
 21
884.84357104036258
  0
LINE
  8
_0-1_躯体と製品
  6
CONTINUOUS
 62
    7
 10
1003.8512333698864
 20
884.4907910403615
 11
1005.6012333698864
 21
884.84357104036258
  0
LINE
  8
_0-1_躯体と製品
  6
CONTINUOUS
 62
    7
 10
1005.6012333698864
 20
884.84357104036258
 11
1005.0512333698875
 21
884.52602604036269
  0
LINE
  8
_0-1_躯体と製品
  6
CONTINUOUS
 62
    7
 10
1005.0512333698875
 20
886.57222604036156
 11
1005.6012333698864
 21
886.25468104036167
  0
ARC
  8
_0-1_躯体と製品
  6
CONTINUOUS
 62
    7
 10
1008.3755333698864
 20
881.11742004036751
 40
4.5414449999999427
 50
137.05380000001691
 51
175.02121999999039
  0
ARC
  8
_0-1_躯体と製品
  6
CONTINUOUS
 62
    7
 10
1003.8700333698862
 20
880.1880550403655
 40
1.3236349999999331
 50
90.813543000016324
 51
157.04087000002681
  0
LINE
  8
_0-1_躯体と製品
  6
CONTINUOUS
 62
    7
 10
1005.0512333698875
 20
884.21155504036756
 11
1002.6512333698865
 21
884.21155504036756
  0
LINE
  8
_0-1_躯体と製品
  6
CONTINUOUS
 62
    7
 10
1002.6512333698865
 20
886.64269604036167
 11
1005.0512333698875
 21
887.34825104036258
  0
LINE
  8
_0-1_躯体と製品
  6
CONTINUOUS
 62
    7
 10
1005.0512333698875
 20
887.34825104036258
 11
1005.0512333698875
 21
886.57222604036156
  0
LINE
  8
_0-1_躯体と製品
  6
CONTINUOUS
 62
    7
 10
1005.0512333698875
 20
886.57222604036156
 11
1002.6512333698865
 21
885.86666604036054
  0
LINE
  8
_0-1_躯体と製品
  6
CONTINUOUS
 62
    7
 10
1002.6512333698865
 20
885.86666604036054
 11
1002.1012333698864
 21
885.54912604036053
  0
LINE
  8
_0-1_躯体と製品
  6
CONTINUOUS
 62
    7
 10
1005.0512333698875
 20
885.93713604035952
 11
1005.6012333698864
 21
886.25468104036167
  0
LINE
  8
_0-1_躯体と製品
  6
CONTINUOUS
 62
    7
 10
1005.6012333698864
 20
886.25468104036167
 11
1002.1012333698864
 21
885.54912604036053
  0
LINE
  8
_0-1_躯体と製品
  6
CONTINUOUS
 62
    7
 10
1002.1012333698864
 20
885.54912604036053
 11
1002.6512333698865
 21
885.23158104036156
  0
LINE
  8
_0-1_躯体と製品
  6
CONTINUOUS
 62
    7
 10
1002.6512333698865
 20
885.23158104036156
 11
1005.0512333698875
 21
885.93713604035952
  0
LINE
  8
_0-1_躯体と製品
  6
CONTINUOUS
 62
    7
 10
1005.0512333698875
 20
885.93713604035952
 11
1005.0512333698875
 21
885.16111104036054
  0
LINE
  8
_0-1_躯体と製品
  6
CONTINUOUS
 62
    7
 10
1005.0512333698875
 20
885.16111104036054
 11
1003.8512333698864
 21
884.4907910403615
  0
LINE
  8
_0-1_躯体と製品
  6
CONTINUOUS
 62
    7
 10
1003.8512333698864
 20
884.4907910403615
 11
1005.0512333698875
 21
884.52602604036269
  0
LINE
  8
_0-1_躯体と製品
  6
CONTINUOUS
 62
    7
 10
1005.0512333698875
 20
884.52602604036269
 11
1005.0512333698875
 21
880.70437504036659
  0
LINE
  8
_0-1_躯体と製品
  6
CONTINUOUS
 62
    7
 10
1005.0512333698875
 20
880.70437504036659
 11
1003.8512333698864
 21
880.01155504036751
  0
LINE
  8
_0-1_躯体と製品
  6
CONTINUOUS
 62
    7
 10
1003.8512333698864
 20
881.53874004036857
 11
1003.8512333698864
 21
880.01155504036751
  0
LINE
  8
_0-1_躯体と製品
  6
CONTINUOUS
 62
    7
 10
1003.8512333698864
 20
880.01155504036751
 11
1002.6512333698865
 21
880.70437504036659
  0
LINE
  8
_0-1_躯体と製品
  6
CONTINUOUS
 62
    7
 10
1002.6512333698865
 20
880.70437504036659
 11
1002.6512333698865
 21
886.64269604036167
  0
LINE
  8
_0-1_躯体と製品
  6
CONTINUOUS
 62
    7
 10
1002.6512333698865
 20
886.64269604036167
 11
1002.1012333698864
 21
886.96023604035963
  0
LINE
  8
_0-1_躯体と製品
  6
CONTINUOUS
 62
    7
 10
1002.1012333698864
 20
886.96023604035963
 11
1005.6012333698864
 21
887.66579104036259
  0
LINE
  8
_0-1_躯体と製品
  6
CONTINUOUS
 62
    7
 10
1005.6012333698864
 20
887.66579104036259
 11
1005.0512333698875
 21
887.98333604036065
  0
LINE
  8
_0-1_躯体と製品
  6
CONTINUOUS
 62
    7
 10
1005.0512333698875
 20
887.98333604036065
 11
1005.0512333698875
 21
888.75936104035964
  0
LINE
  8
_0-1_躯体と製品
  6
CONTINUOUS
 62
    4
 10
937.85123336988636
 20
891.01155504036865
 11
1237.8512333698864
 21
891.01155504036865
  0
LINE
  8
_0-1_躯体と製品
  6
CONTINUOUS
 62
    4
 10
937.85123336988636
 20
919.01155504036865
 11
1237.8512333698864
 21
919.01155504036865
  0
LINE
  8
_0-1_躯体と製品
  6
CONTINUOUS
 62
    7
 10
987.85123336988636
 20
900.51155504036251
 11
1037.8512333698864
 21
900.51155504036251
  0
LINE
  8
_0-1_躯体と製品
  6
CONTINUOUS
 62
    7
 10
987.85123336988636
 20
905.5115550403616
 11
1010.4512333698863
 21
905.5115550403616
  0
LINE
  8
_0-1_躯体と製品
  6
CONTINUOUS
 62
    7
 10
1015.2512333698864
 20
905.5115550403616
 11
1037.8512333698864
 21
905.5115550403616
  0
LINE
  8
_0-1_躯体と製品
  6
CONTINUOUS
 62
    7
 10
987.85123336988636
 20
905.81155504036155
 11
1010.4700571899284
 21
905.81155504036155
  0
LINE
  8
_0-1_躯体と製品
  6
CONTINUOUS
 62
    7
 10
1015.2324095498443
 20
905.81155504036155
 11
1037.8512333698864
 21
905.81155504036155
  0
LINE
  8
_0-1_躯体と製品
  6
CONTINUOUS
 62
    7
 10
987.85123336988636
 20
905.21155504036165
 11
1010.4700571899284
 21
905.21155504036165
  0
LINE
  8
_0-1_躯体と製品
  6
CONTINUOUS
 62
    7
 10
1015.2324095498443
 20
905.21155504036165
 11
1037.8512333698864
 21
905.21155504036165
  0
LINE
  8
_0-1_躯体と製品
  6
CONTINUOUS
 62
    7
 10
987.85123336988636
 20
891.0115550403616
 11
1037.8512333698864
 21
891.0115550403616
  0
LINE
  8
_0-1_躯体と製品
  6
CONTINUOUS
 62
    7
 10
1037.8512333698864
 20
891.0115550403616
 11
1037.8512333698864
 21
912.01155504036251
  0
LINE
  8
_0-1_躯体と製品
  6
CONTINUOUS
 62
    7
 10
1037.8512333698864
 20
912.01155504036251
 11
987.85123336988636
 21
912.01155504036251
  0
LINE
  8
_0-1_躯体と製品
  6
CONTINUOUS
 62
    7
 10
987.85123336988636
 20
912.01155504036251
 11
987.85123336988636
 21
891.0115550403616
  0
LINE
  8
_0-1_躯体と製品
  6
CONTINUOUS
 62
    7
 10
987.85123336988636
 20
896.81155504036155
 11
1037.8512333698864
 21
896.81155504036155
  0
LINE
  8
_0-1_躯体と製品
  6
CONTINUOUS
 62
    7
 10
987.85123336988636
 20
896.5115550403616
 11
1037.8512333698864
 21
896.5115550403616
  0
LINE
  8
_0-1_躯体と製品
  6
CONTINUOUS
 62
    7
 10
987.85123336988636
 20
893.0115550403616
 11
1037.8512333698864
 21
893.0115550403616
  0
LINE
  8
_0-1_躯体と製品
  6
CONTINUOUS
 62
    4
 10
937.85123336988636
 20
913.51155504036865
 11
1237.8512333698864
 21
913.51155504036865
  0
LINE
  8
_0-1_躯体と製品
  6
CONTINUOUS
 62
    4
 10
937.85123336988636
 20
896.51155504036865
 11
987.85123336988636
 21
896.51155504036865
  0
LINE
  8
_0-1_躯体と製品
  6
CONTINUOUS
 62
    4
 10
1037.8512333698864
 20
896.51155504036865
 11
1237.8512333698864
 21
896.51155504036865
  0
LINE
  8
_0-1_躯体と製品
  6
CONTINUOUS
 62
    4
 10
937.85123336988636
 20
893.01155504036865
 11
987.85123336988636
 21
893.01155504036865
  0
LINE
  8
_0-1_躯体と製品
  6
CONTINUOUS
 62
    4
 10
1037.8512333698864
 20
893.01155504036865
 11
1237.8512333698864
 21
893.01155504036865
  0
CIRCLE
  8
_0-1_躯体と製品
  6
CONTINUOUS
 62
    7
 10
1012.8512333698864
 20
905.5115550403616
 40
2.399999999999999
  0
LINE
  8
_0-1_躯体と製品
  6
CONTINUOUS
 62
    7
 10
1005.6012333698864
 20
889.07690104036351
 11
1005.0512333698875
 21
888.7593610403635
  0
LINE
  8
_0-1_躯体と製品
  6
CONTINUOUS
 62
    7
 10
1002.6512333698865
 20
888.68889104036066
 11
1005.0512333698875
 21
889.39444604036157
  0
LINE
  8
_0-1_躯体と製品
  6
CONTINUOUS
 62
    7
 10
1002.1012333698864
 20
888.37134604036055
 11
1002.6512333698865
 21
888.68889104036066
  0
LINE
  8
_0-1_躯体と製品
  6
CONTINUOUS
 62
    7
 10
1002.6512333698865
 20
888.68889104036066
 11
1002.6512333698865
 21
889.41155504035669
  0
LINE
  8
_0-1_躯体と製品
  6
CONTINUOUS
 62
    7
 10
1002.6512333698865
 20
888.05380604036259
 11
1005.0512333698875
 21
888.7593610403635
  0
LINE
  8
_0-1_躯体と製品
  6
CONTINUOUS
 62
    7
 10
1002.6512333698865
 20
888.05380604036259
 11
1002.1012333698864
 21
888.37134604036055
  0
LINE
  8
_0-1_躯体と製品
  6
CONTINUOUS
 62
    7
 10
1002.1012333698864
 20
888.37134604036055
 11
1005.6012333698864
 21
889.07690104036351
  0
LINE
  8
_0-1_躯体と製品
  6
CONTINUOUS
 62
    7
 10
1005.6012333698864
 20
889.07690104036351
 11
1005.0512333698875
 21
889.39444604036157
  0
LINE
  8
_0-1_躯体と製品
  6
CONTINUOUS
 62
    7
 10
1005.0512333698875
 20
889.39444604036157
 11
1005.0512333698875
 21
889.41155504035669
  0
LINE
  8
_0-5_中心線
  6
CENTER1
 62
    7
 10
1021.8512333698873
 20
879.04082503855966
 11
1021.8512333698873
 21
903.34965715267958
  0
ARC
  8
_0-1_躯体と製品
  6
CONTINUOUS
 62
    7
 10
1021.304233369915
 20
897.22355504036432
 40
4.8189999999963842
 50
83.482557999930592
 51
131.88824500091275
  0
ARC
  8
_0-1_躯体と製品
  6
CONTINUOUS
 62
    7
 10
1022.3982333698671
 20
897.22355504035863
 40
4.8190000000170672
 50
48.11174900056853
 51
96.517436998837724
  0
LINE
  8
_0-1_躯体と製品
  6
CONTINUOUS
 62
    7
 10
1025.6774844558895
 20
900.51155504036251
 11
1025.6162333698703
 21
900.81155504037952
  0
LINE
  8
_0-1_躯体と製品
  6
CONTINUOUS
 62
    7
 10
1025.6162333698703
 20
900.81155504037952
 11
1021.8512333698854
 21
900.81155504037952
  0
LINE
  8
_0-1_躯体と製品
  6
CONTINUOUS
 62
    7
 10
1021.8512333698854
 20
900.81155504037952
 11
1018.0862333698715
 21
900.81155504037952
  0
LINE
  8
_0-1_躯体と製品
  6
CONTINUOUS
 62
    7
 10
1018.0862333698715
 20
900.81155504037952
 11
1018.0249822838605
 21
900.51155504036251
  0
LINE
  8
_0-1_躯体と製品
  6
CONTINUOUS
 62
    7
 10
1023.6012333698864
 20
887.66579104036259
 11
1023.0512333698862
 21
887.34825104036258
  0
LINE
  8
_0-1_躯体と製品
  6
CONTINUOUS
 62
    7
 10
1020.6512333698865
 20
887.27778104036065
 11
1023.0512333698862
 21
887.98333604036065
  0
LINE
  8
_0-1_躯体と製品
  6
CONTINUOUS
 62
    7
 10
1020.1012333698854
 20
886.96023604035963
 11
1020.6512333698865
 21
887.27778104036065
  0
LINE
  8
_0-1_躯体と製品
  6
CONTINUOUS
 62
    7
 10
1020.6512333698865
 20
887.27778104036065
 11
1020.6512333698865
 21
888.05380604036168
  0
LINE
  8
_0-1_躯体と製品
  6
CONTINUOUS
 62
    7
 10
1023.0512333698862
 20
885.16111104036054
 11
1023.6012333698864
 21
884.84357104036258
  0
LINE
  8
_0-1_躯体と製品
  6
CONTINUOUS
 62
    7
 10
1021.8512333698873
 20
884.4907910403615
 11
1023.6012333698864
 21
884.84357104036258
  0
LINE
  8
_0-1_躯体と製品
  6
CONTINUOUS
 62
    7
 10
1023.6012333698864
 20
884.84357104036258
 11
1023.0512333698862
 21
884.52602604036269
  0
LINE
  8
_0-1_躯体と製品
  6
CONTINUOUS
 62
    7
 10
1023.0512333698862
 20
886.57222604036156
 11
1023.6012333698864
 21
886.25468104036167
  0
ARC
  8
_0-1_躯体と製品
  6
CONTINUOUS
 62
    7
 10
1026.3755333698864
 20
881.11742004036751
 40
4.5414449999999427
 50
137.05380000001691
 51
175.02121999999039
  0
ARC
  8
_0-1_躯体と製品
  6
CONTINUOUS
 62
    7
 10
1021.8700333698853
 20
880.1880550403655
 40
1.3236349999999331
 50
90.813543000016324
 51
157.04087000002681
  0
LINE
  8
_0-1_躯体と製品
  6
CONTINUOUS
 62
    7
 10
1023.0512333698862
 20
884.21155504036756
 11
1020.6512333698865
 21
884.21155504036756
  0
LINE
  8
_0-1_躯体と製品
  6
CONTINUOUS
 62
    7
 10
1020.6512333698865
 20
886.64269604036167
 11
1023.0512333698862
 21
887.34825104036258
  0
LINE
  8
_0-1_躯体と製品
  6
CONTINUOUS
 62
    7
 10
1023.0512333698862
 20
887.34825104036258
 11
1023.0512333698862
 21
886.57222604036156
  0
LINE
  8
_0-1_躯体と製品
  6
CONTINUOUS
 62
    7
 10
1023.0512333698862
 20
886.57222604036156
 11
1020.6512333698865
 21
885.86666604036054
  0
LINE
  8
_0-1_躯体と製品
  6
CONTINUOUS
 62
    7
 10
1020.6512333698865
 20
885.86666604036054
 11
1020.1012333698854
 21
885.54912604036053
  0
LINE
  8
_0-1_躯体と製品
  6
CONTINUOUS
 62
    7
 10
1023.0512333698862
 20
885.93713604035952
 11
1023.6012333698864
 21
886.25468104036167
  0
LINE
  8
_0-1_躯体と製品
  6
CONTINUOUS
 62
    7
 10
1023.6012333698864
 20
886.25468104036167
 11
1020.1012333698854
 21
885.54912604036053
  0
LINE
  8
_0-1_躯体と製品
  6
CONTINUOUS
 62
    7
 10
1020.1012333698854
 20
885.54912604036053
 11
1020.6512333698865
 21
885.23158104036156
  0
LINE
  8
_0-1_躯体と製品
  6
CONTINUOUS
 62
    7
 10
1020.6512333698865
 20
885.23158104036156
 11
1023.0512333698862
 21
885.93713604035952
  0
LINE
  8
_0-1_躯体と製品
  6
CONTINUOUS
 62
    7
 10
1023.0512333698862
 20
885.93713604035952
 11
1023.0512333698862
 21
885.16111104036054
  0
LINE
  8
_0-1_躯体と製品
  6
CONTINUOUS
 62
    7
 10
1023.0512333698862
 20
885.16111104036054
 11
1021.8512333698873
 21
884.4907910403615
  0
LINE
  8
_0-1_躯体と製品
  6
CONTINUOUS
 62
    7
 10
1021.8512333698873
 20
884.4907910403615
 11
1023.0512333698862
 21
884.52602604036269
  0
LINE
  8
_0-1_躯体と製品
  6
CONTINUOUS
 62
    7
 10
1023.0512333698862
 20
884.52602604036269
 11
1023.0512333698862
 21
880.70437504036659
  0
LINE
  8
_0-1_躯体と製品
  6
CONTINUOUS
 62
    7
 10
1023.0512333698862
 20
880.70437504036659
 11
1021.8512333698873
 21
880.01155504036751
  0
LINE
  8
_0-1_躯体と製品
  6
CONTINUOUS
 62
    7
 10
1021.8512333698873
 20
881.53874004036857
 11
1021.8512333698873
 21
880.01155504036751
  0
LINE
  8
_0-1_躯体と製品
  6
CONTINUOUS
 62
    7
 10
1021.8512333698873
 20
880.01155504036751
 11
1020.6512333698865
 21
880.70437504036659
  0
LINE
  8
_0-1_躯体と製品
  6
CONTINUOUS
 62
    7
 10
1020.6512333698865
 20
880.70437504036659
 11
1020.6512333698865
 21
886.64269604036167
  0
LINE
  8
_0-1_躯体と製品
  6
CONTINUOUS
 62
    7
 10
1020.6512333698865
 20
886.64269604036167
 11
1020.1012333698854
 21
886.96023604035963
  0
LINE
  8
_0-1_躯体と製品
  6
CONTINUOUS
 62
    7
 10
1020.1012333698854
 20
886.96023604035963
 11
1023.6012333698864
 21
887.66579104036259
  0
LINE
  8
_0-1_躯体と製品
  6
CONTINUOUS
 62
    7
 10
1023.6012333698864
 20
887.66579104036259
 11
1023.0512333698862
 21
887.98333604036065
  0
LINE
  8
_0-1_躯体と製品
  6
CONTINUOUS
 62
    7
 10
1023.0512333698862
 20
887.98333604036065
 11
1023.0512333698862
 21
888.75936104035964
  0
LINE
  8
_0-1_躯体と製品
  6
CONTINUOUS
 62
    7
 10
1023.6012333698864
 20
889.07690104036351
 11
1023.0512333698862
 21
888.7593610403635
  0
LINE
  8
_0-1_躯体と製品
  6
CONTINUOUS
 62
    7
 10
1020.6512333698865
 20
888.68889104036066
 11
1023.0512333698862
 21
889.39444604036157
  0
LINE
  8
_0-1_躯体と製品
  6
CONTINUOUS
 62
    7
 10
1020.1012333698854
 20
888.37134604036055
 11
1020.6512333698865
 21
888.68889104036066
  0
LINE
  8
_0-1_躯体と製品
  6
CONTINUOUS
 62
    7
 10
1020.6512333698865
 20
888.68889104036066
 11
1020.6512333698865
 21
889.41155504035669
  0
LINE
  8
_0-1_躯体と製品
  6
CONTINUOUS
 62
    7
 10
1020.6512333698865
 20
888.05380604036259
 11
1023.0512333698862
 21
888.7593610403635
  0
LINE
  8
_0-1_躯体と製品
  6
CONTINUOUS
 62
    7
 10
1020.6512333698865
 20
888.05380604036259
 11
1020.1012333698854
 21
888.37134604036055
  0
LINE
  8
_0-1_躯体と製品
  6
CONTINUOUS
 62
    7
 10
1020.1012333698854
 20
888.37134604036055
 11
1023.6012333698864
 21
889.07690104036351
  0
LINE
  8
_0-1_躯体と製品
  6
CONTINUOUS
 62
    7
 10
1023.6012333698864
 20
889.07690104036351
 11
1023.0512333698862
 21
889.39444604036157
  0
LINE
  8
_0-1_躯体と製品
  6
CONTINUOUS
 62
    7
 10
1023.0512333698862
 20
889.39444604036157
 11
1023.0512333698862
 21
889.41155504035669
  0
LINE
  8
_0-1_躯体と製品
  6
CONTINUOUS
 62
    7
 10
585.56453967690459
 20
856.01155504036751
 11
625.56453967690459
 21
856.01155504036751
  0
LINE
  8
_0-1_躯体と製品
  6
CONTINUOUS
 62
    7
 10
625.56453967690459
 20
856.01155504036751
 11
625.56453967690459
 21
849.01155504036751
  0
LINE
  8
_0-1_躯体と製品
  6
CONTINUOUS
 62
    7
 10
625.56453967690459
 20
849.01155504036751
 11
585.56453967690459
 21
849.01155504036751
  0
LINE
  8
_0-1_躯体と製品
  6
CONTINUOUS
 62
    7
 10
585.56453967690459
 20
849.01155504036751
 11
585.56453967690459
 21
856.01155504036751
  0
LINE
  8
_0-5_中心線
  6
CENTER1
 62
    7
 10
532.56450650773422
 20
880.01155504036751
 11
532.56450650773422
 21
903.34965715268663
  0
LINE
  8
_0-5_中心線
  6
CENTER1
 62
    7
 10
698.56455584355854
 20
880.01155309795058
 11
698.56455584355854
 21
903.34965521026766
  0
LINE
  8
_0-0_0
  6
CONTINUOUS
 62
    7
 10
992.85123336988818
 20
860.02954710162658
 11
984.92335754397845
 21
873.76103082819964
  0
LINE
  8
_0-0_0
  6
CONTINUOUS
 62
    7
 10
984.92335754397845
 20
873.76103082819964
 11
944.70407075940057
 21
873.76103082819964
  0
LINE
  8
_0-1_躯体と製品
  6
CONTINUOUS
 62
    4
 10
597.77361977696319
 20
753.3115531743415
 11
613.35545957684417
 21
753.31155317434263
  0
ARC
  8
_0-1_躯体と製品
  6
CONTINUOUS
 62
    4
 10
605.56453967690459
 20
739.32301253272271
 40
13.988540641619799
 50
68.204179552455145
 51
111.7958204475448
  0
LINE
  8
_0-1_躯体と製品
  6
CONTINUOUS
 62
    4
 10
600.37059307694426
 20
753.31155317434263
 11
597.77361977696319
 21
753.31155317434263
  0
ARC
  8
_0-1_躯体と製品
  6
CONTINUOUS
 62
    4
 10
597.77361977696319
 20
749.43941801393771
 40
3.8721351604048402
 50
47.880237441640027
 51
132.11976255835992
  0
ARC
  8
_0-1_躯体と製品
  6
CONTINUOUS
 62
    4
 10
613.35545957684417
 20
749.43941801393771
 40
3.8721351604048402
 50
47.880237441640027
 51
132.11976255835992
  0
LINE
  8
_0-1_躯体と製品
  6
CONTINUOUS
 62
    4
 10
595.17664647698348
 20
752.31155317434263
 11
595.17664647698348
 21
747.3115531743415
  0
LINE
  8
_0-1_躯体と製品
  6
CONTINUOUS
 62
    4
 10
615.95243287682433
 20
752.31155317434263
 11
615.95243287682433
 21
747.31155317434263
  0
LINE
  8
_0-1_躯体と製品
  6
CONTINUOUS
 62
    4
 10
610.75848627686355
 20
747.3115531743415
 11
610.75848627686719
 21
752.31155317434468
  0
LINE
  8
_0-1_躯体と製品
  6
CONTINUOUS
 62
    4
 10
600.37059307693835
 20
747.31155317434468
 11
600.37059307694335
 21
752.31155317434059
  0
ARC
  8
_0-1_躯体と製品
  6
CONTINUOUS
 62
    4
 10
605.56453967690459
 20
760.30009381596255
 40
13.988540641619799
 50
248.20417955245506
 51
291.79582044754488
  0
ARC
  8
_0-1_躯体と製品
  6
CONTINUOUS
 62
    4
 10
597.77361977696319
 20
750.18368833474665
 40
3.8721351604048402
 50
227.88023744163999
 51
312.11976255835998
  0
ARC
  8
_0-1_躯体と製品
  6
CONTINUOUS
 62
    4
 10
613.35545957684417
 20
750.18368833474665
 40
3.8721351604048402
 50
227.88023744163999
 51
312.11976255835998
  0
LINE
  8
_0-1_躯体と製品
  6
CONTINUOUS
 62
    4
 10
594.81454067690356
 20
744.01155317434154
 11
616.31453767690437
 21
744.01155317434154
  0
LINE
  8
_0-1_躯体と製品
  6
CONTINUOUS
 62
    4
 10
616.31453767690437
 20
744.01155317434154
 11
616.31453767690437
 21
746.3115531743415
  0
LINE
  8
_0-1_躯体と製品
  6
CONTINUOUS
 62
    4
 10
616.31453767690437
 20
746.3115531743415
 11
594.81454067690356
 21
746.3115531743415
  0
LINE
  8
_0-1_躯体と製品
  6
CONTINUOUS
 62
    4
 10
594.81454067690356
 20
746.3115531743415
 11
594.81454067690356
 21
744.01155317434154
  0
LINE
  8
_0-1_躯体と製品
  6
CONTINUOUS
 62
    4
 10
605.56453967690459
 20
744.01155317434154
 11
604.23663355776853
 21
746.3115531743415
  0
LINE
  8
_0-1_躯体と製品
  6
CONTINUOUS
 62
    4
 10
606.8924452960423
 20
744.01155317434268
 11
605.56453967690459
 21
746.3115531743415
  0
LINE
  8
_0-1_躯体と製品
  6
CONTINUOUS
 62
    4
 10
595.17664647698348
 20
734.01155317434268
 11
595.17664647698348
 21
743.01155317434268
  0
LINE
  8
_0-1_躯体と製品
  6
CONTINUOUS
 62
    4
 10
615.95243287682433
 20
734.01155317434268
 11
615.95243287682433
 21
743.01155317434154
  0
ARC
  8
_0-1_躯体と製品
  6
CONTINUOUS
 62
    4
 10
605.56453967690459
 20
730.02301253272253
 40
13.988540641619799
 50
68.204179552455145
 51
111.7958204475448
  0
ARC
  8
_0-1_躯体と製品
  6
CONTINUOUS
 62
    4
 10
597.77361977696319
 20
740.13941801393753
 40
3.8721351604048402
 50
47.880237441640027
 51
132.11976255835992
  0
ARC
  8
_0-1_躯体と製品
  6
CONTINUOUS
 62
    4
 10
613.35545957684417
 20
740.13941801393753
 40
3.8721351604048402
 50
47.880237441640027
 51
132.11976255835992
  0
LINE
  8
_0-1_躯体と製品
  6
CONTINUOUS
 62
    4
 10
610.75848627684445
 20
734.01155317434268
 11
610.75848627686719
 21
743.0115531743445
  0
LINE
  8
_0-1_躯体と製品
  6
CONTINUOUS
 62
    4
 10
600.37059307692016
 20
734.01155317434268
 11
600.37059307694335
 21
743.01155317434063
  0
LINE
  8
_0-1_躯体と製品
  6
CONTINUOUS
 62
    4
 10
597.77361977696319
 20
334.71155504036869
 11
613.35545957684417
 21
334.71155504036756
  0
ARC
  8
_0-1_躯体と製品
  6
CONTINUOUS
 62
    4
 10
605.56453967690459
 20
348.7000956819877
 40
13.988540641619799
 50
248.20417955245506
 51
291.79582044754488
  0
LINE
  8
_0-1_躯体と製品
  6
CONTINUOUS
 62
    4
 10
600.37059307694426
 20
334.71155504036756
 11
597.77361977696319
 21
334.71155504036756
  0
ARC
  8
_0-1_躯体と製品
  6
CONTINUOUS
 62
    4
 10
597.77361977696319
 20
338.58369020077271
 40
3.8721351604048402
 50
227.88023744163999
 51
312.11976255835998
  0
ARC
  8
_0-1_躯体と製品
  6
CONTINUOUS
 62
    4
 10
613.35545957684417
 20
338.58369020077271
 40
3.8721351604048402
 50
227.88023744163999
 51
312.11976255835998
  0
LINE
  8
_0-1_躯体と製品
  6
CONTINUOUS
 62
    4
 10
595.17664647698348
 20
335.71155504036756
 11
595.17664647698348
 21
340.71155504036869
  0
LINE
  8
_0-1_躯体と製品
  6
CONTINUOUS
 62
    4
 10
615.95243287682433
 20
335.71155504036869
 11
615.95243287682433
 21
340.71155504036869
  0
LINE
  8
_0-1_躯体と製品
  6
CONTINUOUS
 62
    4
 10
610.75848627686355
 20
340.71155504036869
 11
610.75848627686719
 21
335.71155504036551
  0
LINE
  8
_0-1_躯体と製品
  6
CONTINUOUS
 62
    4
 10
600.37059307693835
 20
340.71155504036665
 11
600.37059307694335
 21
335.7115550403696
  0
ARC
  8
_0-1_躯体と製品
  6
CONTINUOUS
 62
    4
 10
605.56453967690459
 20
327.72301439874855
 40
13.988540641619799
 50
68.204179552455145
 51
111.7958204475448
  0
ARC
  8
_0-1_躯体と製品
  6
CONTINUOUS
 62
    4
 10
597.77361977696319
 20
337.83941987996354
 40
3.8721351604048402
 50
47.880237441640027
 51
132.11976255835992
  0
ARC
  8
_0-1_躯体と製品
  6
CONTINUOUS
 62
    4
 10
613.35545957684417
 20
337.83941987996354
 40
3.8721351604048402
 50
47.880237441640027
 51
132.11976255835992
  0
LINE
  8
_0-1_躯体と製品
  6
CONTINUOUS
 62
    4
 10
594.81454067690356
 20
344.01155504036865
 11
616.31453767690437
 21
344.01155504036865
  0
LINE
  8
_0-1_躯体と製品
  6
CONTINUOUS
 62
    4
 10
616.31453767690437
 20
344.01155504036865
 11
616.31453767690437
 21
341.71155504036869
  0
LINE
  8
_0-1_躯体と製品
  6
CONTINUOUS
 62
    4
 10
616.31453767690437
 20
341.71155504036869
 11
594.81454067690356
 21
341.71155504036869
  0
LINE
  8
_0-1_躯体と製品
  6
CONTINUOUS
 62
    4
 10
594.81454067690356
 20
341.71155504036869
 11
594.81454067690356
 21
344.01155504036865
  0
LINE
  8
_0-1_躯体と製品
  6
CONTINUOUS
 62
    4
 10
605.56453967690459
 20
344.01155504036865
 11
604.23663355776853
 21
341.71155504036869
  0
LINE
  8
_0-1_躯体と製品
  6
CONTINUOUS
 62
    4
 10
606.8924452960423
 20
344.01155504036751
 11
605.56453967690459
 21
341.71155504036869
  0
LINE
  8
_0-1_躯体と製品
  6
CONTINUOUS
 62
    4
 10
595.17664647698348
 20
354.01155504036865
 11
595.17664647698348
 21
345.01155504036751
  0
LINE
  8
_0-1_躯体と製品
  6
CONTINUOUS
 62
    4
 10
615.95243287682433
 20
354.01155504036865
 11
615.95243287682433
 21
345.01155504036865
  0
ARC
  8
_0-1_躯体と製品
  6
CONTINUOUS
 62
    4
 10
605.56453967690459
 20
358.00009568198766
 40
13.988540641619799
 50
248.20417955245506
 51
291.79582044754488
  0
ARC
  8
_0-1_躯体と製品
  6
CONTINUOUS
 62
    4
 10
597.77361977696319
 20
347.88369020077266
 40
3.8721351604048402
 50
227.88023744163999
 51
312.11976255835998
  0
ARC
  8
_0-1_躯体と製品
  6
CONTINUOUS
 62
    4
 10
613.35545957684417
 20
347.88369020077266
 40
3.8721351604048402
 50
227.88023744163999
 51
312.11976255835998
  0
LINE
  8
_0-1_躯体と製品
  6
CONTINUOUS
 62
    4
 10
610.75848627684445
 20
354.01155504036865
 11
610.75848627686719
 21
345.01155504036569
  0
LINE
  8
_0-1_躯体と製品
  6
CONTINUOUS
 62
    4
 10
600.37059307692016
 20
354.01155504036865
 11
600.37059307694335
 21
345.01155504036956
  0
LINE
  8
_0-1_躯体と製品
  6
CONTINUOUS
 62
    7
 10
611.56453967690459
 20
300.61155504036856
 11
611.56453967690459
 21
334.71155504036756
  0
LINE
  8
_0-1_躯体と製品
  6
CONTINUOUS
 62
    7
 10
610.06453967690459
 20
300.61155504036856
 11
610.06453967690459
 21
334.71155504036756
  0
LINE
  8
_0-1_躯体と製品
  6
CONTINUOUS
 62
    7
 10
601.06453967690459
 20
300.61155504036856
 11
601.06453967690459
 21
334.71155504036869
  0
LINE
  8
_0-1_躯体と製品
  6
CONTINUOUS
 62
    7
 10
599.56453967690459
 20
300.61155504036856
 11
599.56453967690459
 21
334.71155504036869
  0
LINE
  8
_0-2_文字-記号
  6
CONTINUOUS
 62
    7
 10
592.56453967690459
 20
593.72555678267349
 11
562.49068114442753
 21
645.81500774056167
  0
LINE
  8
_0-2_文字-記号
  6
CONTINUOUS
 62
    7
 10
562.49068114442753
 20
645.81500774056167
 11
525.52527565431637
 21
645.81500774056167
  0
TEXT
  8
_0-2_文字-記号
 62
    7
 10
525.52527565431637
 20
649.49340431566861
 40
12
 41
0.8000000000000001
 50
0
  1
支持脚
  0
LINE
  8
_0-1_躯体と製品
  6
CONTINUOUS
 62
    4
 10
1087.8512333698864
 20
345.00915759538861
 11
1087.8512333698864
 21
354.01155504036865
  0
LINE
  8
_0-1_躯体と製品
  6
CONTINUOUS
 62
    4
 10
1096.8512333698864
 20
354.00976702452954
 11
1096.8512333698804
 21
345.01094312714963
  0
LINE
  8
_0-1_躯体と製品
  6
CONTINUOUS
 62
    4
 10
1078.8512333698864
 20
354.00976702452954
 11
1078.8512333698864
 21
345.01574768297564
  0
ARC
  8
_0-1_躯体と製品
  6
CONTINUOUS
 62
    4
 10
1083.3582741525156
 20
354.62796120148164
 40
10.61640548121791
 50
244.87873572943516
 51
295.03735668435132
  0
ARC
  8
_0-1_躯体と製品
  6
CONTINUOUS
 62
    4
 10
1092.3493206665662
 20
354.6510605348326
 40
10.63950570384702
 50
244.99026743095357
 51
295.03246666523665
  0
LINE
  8
_0-1_躯体と製品
  6
CONTINUOUS
 62
    4
 10
1077.1012348698864
 20
341.71155210495272
 11
1098.6012318698872
 21
341.71155210495272
  0
LINE
  8
_0-1_躯体と製品
  6
CONTINUOUS
 62
    4
 10
1098.6012318698872
 20
341.71155210495272
 11
1098.6012318698872
 21
344.01155504036865
  0
LINE
  8
_0-1_躯体と製品
  6
CONTINUOUS
 62
    4
 10
1077.1012348698864
 20
344.01155504036865
 11
1077.1012348698864
 21
341.71155210495272
  0
LINE
  8
_0-1_躯体と製品
  6
CONTINUOUS
 62
    4
 10
1087.8512333698873
 20
340.71394954993252
 11
1087.8512333698873
 21
335.7115550403696
  0
LINE
  8
_0-1_躯体と製品
  6
CONTINUOUS
 62
    4
 10
1096.8512333698864
 20
335.71334305620871
 11
1096.8512333698814
 21
340.71216401817264
  0
LINE
  8
_0-1_躯体と製品
  6
CONTINUOUS
 62
    4
 10
1078.8512333698864
 20
335.71334305620871
 11
1078.8512333698864
 21
340.70735946234549
  0
LINE
  8
_0-1_躯体と製品
  6
CONTINUOUS
 62
    4
 10
1083.3531436684202
 20
334.71155504036869
 11
1092.3493230713525
 21
334.71155504036869
  0
ARC
  8
_0-1_躯体と製品
  6
CONTINUOUS
 62
    4
 10
1083.3531436684216
 20
345.3279605215655
 40
10.61640548119736
 50
244.90931331949633
 51
295.06792095610081
  0
ARC
  8
_0-1_躯体と製品
  6
CONTINUOUS
 62
    4
 10
1092.3493230713525
 20
345.3279605215655
 40
10.61640548119736
 50
244.93207904389917
 51
295.09068668050372
  0
ARC
  8
_0-1_躯体と製品
  6
CONTINUOUS
 62
    4
 10
1083.3582741525165
 20
331.09514594383859
 40
10.61640548121791
 50
64.962643315648734
 51
115.12126427056479
  0
ARC
  8
_0-1_躯体と製品
  6
CONTINUOUS
 62
    4
 10
1092.3493206665662
 20
331.07204661048854
 40
10.63950570384702
 50
64.967533334763402
 51
115.00973256904641
  0
LINE
  8
_0-1_躯体と製品
  6
CONTINUOUS
 62
    4
 10
1077.1012348698864
 20
344.01155504036865
 11
1098.6012318698872
 21
344.01155504036865
  0
LINE
  8
_0-1_躯体と製品
  6
CONTINUOUS
 62
    7
 10
1093.8512333698864
 20
300.50477990273953
 11
1093.8512333698864
 21
334.71155504036756
  0
LINE
  8
_0-1_躯体と製品
  6
CONTINUOUS
 62
    7
 10
1092.3512333698864
 20
300.61155500050563
 11
1092.3512333698864
 21
334.71155504036756
  0
LINE
  8
_0-1_躯体と製品
  6
CONTINUOUS
 62
    7
 10
1083.3512333698864
 20
300.61155500050563
 11
1083.3512333698864
 21
334.71155504036869
  0
LINE
  8
_0-1_躯体と製品
  6
CONTINUOUS
 62
    7
 10
1081.8512333698864
 20
300.50477990273953
 11
1081.8512333698864
 21
334.71155504036869
  0
LINE
  8
_0-2_文字-記号
  6
CONTINUOUS
 62
    7
 10
1074.8512333698864
 20
593.72555678267349
 11
1044.7773748374093
 21
645.81500774056167
  0
LINE
  8
_0-2_文字-記号
  6
CONTINUOUS
 62
    7
 10
1044.7773748374093
 20
645.81500774056167
 11
1007.8119693472986
 21
645.81500774056167
  0
TEXT
  8
_0-2_文字-記号
 62
    7
 10
1007.8119693472986
 20
649.49340431566861
 40
12
 41
0.8000000000000001
 50
0
  1
支持脚
  0
LINE
  8
_0-1_躯体と製品
  6
CONTINUOUS
 62
    4
 10
1087.8512333698864
 20
743.01395061932158
 11
1087.8512333698864
 21
734.01155317434268
  0
LINE
  8
_0-1_躯体と製品
  6
CONTINUOUS
 62
    4
 10
1096.8512333698864
 20
734.01334119018065
 11
1096.8512333698804
 21
743.0121650875617
  0
LINE
  8
_0-1_躯体と製品
  6
CONTINUOUS
 62
    4
 10
1078.8512333698864
 20
734.01334119018065
 11
1078.8512333698864
 21
743.00736053173455
  0
ARC
  8
_0-1_躯体と製品
  6
CONTINUOUS
 62
    4
 10
1083.3582741525156
 20
733.39514701322764
 40
10.61640548121791
 50
64.962643315648734
 51
115.12126427056479
  0
ARC
  8
_0-1_躯体と製品
  6
CONTINUOUS
 62
    4
 10
1092.3493206665662
 20
733.3720476798776
 40
10.63950570384702
 50
64.967533334763402
 51
115.00973256904641
  0
LINE
  8
_0-1_躯体と製品
  6
CONTINUOUS
 62
    4
 10
1077.1012348698864
 20
746.3115561097577
 11
1098.6012318698872
 21
746.3115561097577
  0
LINE
  8
_0-1_躯体と製品
  6
CONTINUOUS
 62
    4
 10
1098.6012318698872
 20
746.3115561097577
 11
1098.6012318698872
 21
744.01155317434154
  0
LINE
  8
_0-1_躯体と製品
  6
CONTINUOUS
 62
    4
 10
1077.1012348698864
 20
744.01155317434154
 11
1077.1012348698864
 21
746.3115561097577
  0
LINE
  8
_0-1_躯体と製品
  6
CONTINUOUS
 62
    4
 10
1087.8512333698873
 20
747.30915866477858
 11
1087.8512333698873
 21
752.31155317434059
  0
LINE
  8
_0-1_躯体と製品
  6
CONTINUOUS
 62
    4
 10
1096.8512333698864
 20
752.3097651585017
 11
1096.8512333698814
 21
747.31094419653868
  0
LINE
  8
_0-1_躯体と製品
  6
CONTINUOUS
 62
    4
 10
1078.8512333698864
 20
752.3097651585017
 11
1078.8512333698864
 21
747.3157487523647
  0
LINE
  8
_0-1_躯体と製品
  6
CONTINUOUS
 62
    4
 10
1083.3531436684202
 20
753.31155317434263
 11
1092.3493230713525
 21
753.31155317434263
  0
ARC
  8
_0-1_躯体と製品
  6
CONTINUOUS
 62
    4
 10
1083.3531436684216
 20
742.69514769314469
 40
10.61640548119736
 50
64.932079043899151
 51
115.09068668050368
  0
ARC
  8
_0-1_躯体と製品
  6
CONTINUOUS
 62
    4
 10
1092.3493230713525
 20
742.69514769314469
 40
10.61640548119736
 50
64.909313319496263
 51
115.06792095610081
  0
ARC
  8
_0-1_躯体と製品
  6
CONTINUOUS
 62
    4
 10
1083.3582741525165
 20
756.9279622708716
 40
10.61640548121791
 50
244.87873572943516
 51
295.03735668435132
  0
ARC
  8
_0-1_躯体と製品
  6
CONTINUOUS
 62
    4
 10
1092.3493206665662
 20
756.95106160422165
 40
10.63950570384702
 50
244.99026743095357
 51
295.03246666523665
  0
LINE
  8
_0-1_躯体と製品
  6
CONTINUOUS
 62
    4
 10
1077.1012348698864
 20
744.01155317434154
 11
1098.6012318698872
 21
744.01155317434154
  0
LINE
  8
_0-2_文字-記号
  6
CONTINUOUS
 62
    7
 10
599.56453967689731
 20
759.05724313114251
 11
591.50109951735658
 21
773.02353117125858
  0
LINE
  8
_0-2_文字-記号
  6
CONTINUOUS
 62
    7
 10
591.50109951735658
 20
773.02353117125858
 11
452.3418033424955
 21
773.02353117125858
  0
TEXT
  8
_0-2_文字-記号
 62
    7
 10
454.17402472793219
 20
776.06297295127365
 40
12
 41
0.8000000000000001
 50
0
  1
ＳＵＳ調整ボルト Ｍ１２
  0
LINE
  8
_0-1_躯体と製品
  6
CONTINUOUS
 62
    7
 10
937.85123336988636
 20
273.0115550403716
 11
1237.8512333698864
 21
273.01155504036569
  0
LINE
  8
_0-1_躯体と製品
  6
CONTINUOUS
 62
    7
 10
1098.6013408698882
 20
290.61155500050563
 11
1098.6013408698882
 21
293.61155500050563
  0
LINE
  8
_0-1_躯体と製品
  6
CONTINUOUS
 62
    7
 10
1098.6013408698882
 20
290.61155500050563
 11
1077.1013408698873
 21
290.61155500050563
  0
LINE
  8
_0-1_躯体と製品
  6
CONTINUOUS
 62
    7
 10
1077.1013408698873
 20
290.61155500050563
 11
1077.1013408698873
 21
293.61155500050563
  0
LINE
  8
_0-1_躯体と製品
  6
CONTINUOUS
 62
    7
 10
1077.1013408698873
 20
293.61155500050563
 11
1098.6013408698882
 21
293.61155500050563
  0
LINE
  8
_0-1_躯体と製品
  6
CONTINUOUS
 62
    7
 10
1098.6013408698882
 20
293.61155500050563
 11
1098.6013408698882
 21
290.61155500050563
  0
LINE
  8
_0-1_躯体と製品
  6
CONTINUOUS
 62
    7
 10
1187.8512333698873
 20
279.01155504036865
 11
987.85123336988727
 21
279.01155504036865
  0
LINE
  8
_0-1_躯体と製品
  6
CONTINUOUS
 62
    7
 10
1006.8512333698864
 20
269.01155504036865
 11
1006.8512333698864
 21
273.01155504036865
  0
LINE
  8
_0-1_躯体と製品
  6
CONTINUOUS
 62
    7
 10
1009.8512333698864
 20
269.01155504036865
 11
1009.8512333698864
 21
273.01155504036865
  0
LINE
  8
_0-1_躯体と製品
  6
CONTINUOUS
 62
    7
 10
994.85123336988636
 20
269.01155504036865
 11
994.85123336988636
 21
273.01155504036865
  0
LINE
  8
_0-1_躯体と製品
  6
CONTINUOUS
 62
    7
 10
997.85123336988636
 20
269.01155504036865
 11
997.85123336988636
 21
273.01155504036865
  0
LINE
  8
_0-1_躯体と製品
  6
CONTINUOUS
 62
    7
 10
1000.8512333698864
 20
269.01155504036865
 11
1000.8512333698864
 21
273.01155504036865
  0
LINE
  8
_0-1_躯体と製品
  6
CONTINUOUS
 62
    7
 10
1003.8512333698864
 20
269.01155504036865
 11
1003.8512333698864
 21
273.01155504036865
  0
LINE
  8
_0-1_躯体と製品
  6
CONTINUOUS
 62
    7
 10
1045.8512333698873
 20
269.01155504036865
 11
1045.8512333698873
 21
273.01155504036865
  0
LINE
  8
_0-1_躯体と製品
  6
CONTINUOUS
 62
    7
 10
1048.8512333698864
 20
269.01155504036865
 11
1048.8512333698864
 21
273.01155504036865
  0
LINE
  8
_0-1_躯体と製品
  6
CONTINUOUS
 62
    7
 10
1051.8512333698854
 20
269.01155504036865
 11
1051.8512333698854
 21
273.01155504036865
  0
LINE
  8
_0-1_躯体と製品
  6
CONTINUOUS
 62
    7
 10
1054.8512333698864
 20
269.01155504036865
 11
1054.8512333698864
 21
273.01155504036865
  0
LINE
  8
_0-1_躯体と製品
  6
CONTINUOUS
 62
    7
 10
1036.8512333698854
 20
269.01155504036865
 11
1036.8512333698854
 21
273.01155504036865
  0
LINE
  8
_0-1_躯体と製品
  6
CONTINUOUS
 62
    7
 10
1039.8512333698864
 20
269.01155504036865
 11
1039.8512333698864
 21
273.01155504036865
  0
LINE
  8
_0-1_躯体と製品
  6
CONTINUOUS
 62
    7
 10
1042.8512333698864
 20
269.01155504036865
 11
1042.8512333698864
 21
273.01155504036865
  0
LINE
  8
_0-1_躯体と製品
  6
CONTINUOUS
 62
    7
 10
1024.8512333698873
 20
269.01155504036865
 11
1024.8512333698873
 21
273.01155504036865
  0
LINE
  8
_0-1_躯体と製品
  6
CONTINUOUS
 62
    7
 10
1027.8512333698864
 20
269.01155504036865
 11
1027.8512333698864
 21
273.01155504036865
  0
LINE
  8
_0-1_躯体と製品
  6
CONTINUOUS
 62
    7
 10
1030.8512333698873
 20
269.01155504036865
 11
1030.8512333698873
 21
273.01155504036865
  0
LINE
  8
_0-1_躯体と製品
  6
CONTINUOUS
 62
    7
 10
1033.8512333698864
 20
269.01155504036865
 11
1033.8512333698864
 21
273.01155504036865
  0
LINE
  8
_0-1_躯体と製品
  6
CONTINUOUS
 62
    7
 10
1015.8512333698873
 20
269.01155504036865
 11
1015.8512333698873
 21
273.01155504036865
  0
LINE
  8
_0-1_躯体と製品
  6
CONTINUOUS
 62
    7
 10
1018.8512333698864
 20
269.01155504036865
 11
1018.8512333698864
 21
273.01155504036865
  0
LINE
  8
_0-1_躯体と製品
  6
CONTINUOUS
 62
    7
 10
1021.8512333698864
 20
269.01155504036865
 11
1021.8512333698864
 21
273.01155504036865
  0
LINE
  8
_0-1_躯体と製品
  6
CONTINUOUS
 62
    7
 10
1012.8512333698864
 20
269.01155504036865
 11
1012.8512333698864
 21
273.01155504036865
  0
LINE
  8
_0-1_躯体と製品
  6
CONTINUOUS
 62
    7
 10
1102.8512333698864
 20
269.01155504036865
 11
1102.8512333698864
 21
273.01155504036865
  0
LINE
  8
_0-1_躯体と製品
  6
CONTINUOUS
 62
    7
 10
1099.8512333698864
 20
269.01155504036865
 11
1099.8512333698864
 21
273.01155504036865
  0
LINE
  8
_0-1_躯体と製品
  6
CONTINUOUS
 62
    7
 10
1096.8512333698864
 20
269.01155504036865
 11
1096.8512333698864
 21
273.01155504036865
  0
LINE
  8
_0-1_躯体と製品
  6
CONTINUOUS
 62
    7
 10
1087.8512333698864
 20
269.01155504036865
 11
1087.8512333698864
 21
273.01155504036865
  0
LINE
  8
_0-1_躯体と製品
  6
CONTINUOUS
 62
    7
 10
1093.8512333698864
 20
269.01155504036865
 11
1093.8512333698864
 21
273.01155504036865
  0
LINE
  8
_0-1_躯体と製品
  6
CONTINUOUS
 62
    7
 10
1090.8512333698873
 20
269.01155504036865
 11
1090.8512333698873
 21
273.01155504036865
  0
LINE
  8
_0-1_躯体と製品
  6
CONTINUOUS
 62
    7
 10
1078.8512333698864
 20
269.01155504036865
 11
1078.8512333698864
 21
273.01155504036865
  0
LINE
  8
_0-1_躯体と製品
  6
CONTINUOUS
 62
    7
 10
1081.8512333698864
 20
269.01155504036865
 11
1081.8512333698864
 21
273.01155504036865
  0
LINE
  8
_0-1_躯体と製品
  6
CONTINUOUS
 62
    7
 10
1084.8512333698864
 20
269.01155504036865
 11
1084.8512333698864
 21
273.01155504036865
  0
LINE
  8
_0-1_躯体と製品
  6
CONTINUOUS
 62
    7
 10
1066.8512333698864
 20
269.01155504036865
 11
1066.8512333698864
 21
273.01155504036865
  0
LINE
  8
_0-1_躯体と製品
  6
CONTINUOUS
 62
    7
 10
1069.8512333698864
 20
269.01155504036865
 11
1069.8512333698864
 21
273.01155504036865
  0
LINE
  8
_0-1_躯体と製品
  6
CONTINUOUS
 62
    7
 10
1072.8512333698864
 20
269.01155504036865
 11
1072.8512333698864
 21
273.01155504036865
  0
LINE
  8
_0-1_躯体と製品
  6
CONTINUOUS
 62
    7
 10
1075.8512333698864
 20
269.01155504036865
 11
1075.8512333698864
 21
273.01155504036865
  0
LINE
  8
_0-1_躯体と製品
  6
CONTINUOUS
 62
    7
 10
1057.8512333698864
 20
269.01155504036865
 11
1057.8512333698864
 21
273.01155504036865
  0
LINE
  8
_0-1_躯体と製品
  6
CONTINUOUS
 62
    7
 10
1060.8512333698864
 20
269.01155504036865
 11
1060.8512333698864
 21
273.01155504036865
  0
LINE
  8
_0-1_躯体と製品
  6
CONTINUOUS
 62
    7
 10
1063.8512333698864
 20
269.01155504036865
 11
1063.8512333698864
 21
273.01155504036865
  0
LINE
  8
_0-1_躯体と製品
  6
CONTINUOUS
 62
    7
 10
1147.8512333698864
 20
269.01155504036865
 11
1147.8512333698864
 21
273.01155504036865
  0
LINE
  8
_0-1_躯体と製品
  6
CONTINUOUS
 62
    7
 10
1144.8512333698864
 20
269.01155504036865
 11
1144.8512333698864
 21
273.01155504036865
  0
LINE
  8
_0-1_躯体と製品
  6
CONTINUOUS
 62
    7
 10
1141.8512333698864
 20
269.01155504036865
 11
1141.8512333698864
 21
273.01155504036865
  0
LINE
  8
_0-1_躯体と製品
  6
CONTINUOUS
 62
    7
 10
1138.8512333698864
 20
269.01155504036865
 11
1138.8512333698864
 21
273.01155504036865
  0
LINE
  8
_0-1_躯体と製品
  6
CONTINUOUS
 62
    7
 10
1135.8512333698864
 20
269.01155504036865
 11
1135.8512333698864
 21
273.01155504036865
  0
LINE
  8
_0-1_躯体と製品
  6
CONTINUOUS
 62
    7
 10
1132.8512333698854
 20
269.01155504036865
 11
1132.8512333698854
 21
273.01155504036865
  0
LINE
  8
_0-1_躯体と製品
  6
CONTINUOUS
 62
    7
 10
1129.8512333698854
 20
269.01155504036865
 11
1129.8512333698854
 21
273.01155504036865
  0
LINE
  8
_0-1_躯体と製品
  6
CONTINUOUS
 62
    7
 10
1126.8512333698854
 20
269.01155504036865
 11
1126.8512333698854
 21
273.01155504036865
  0
LINE
  8
_0-1_躯体と製品
  6
CONTINUOUS
 62
    7
 10
1123.8512333698864
 20
269.01155504036865
 11
1123.8512333698864
 21
273.01155504036865
  0
LINE
  8
_0-1_躯体と製品
  6
CONTINUOUS
 62
    7
 10
1120.8512333698873
 20
269.01155504036865
 11
1120.8512333698873
 21
273.01155504036865
  0
LINE
  8
_0-1_躯体と製品
  6
CONTINUOUS
 62
    7
 10
1117.8512333698864
 20
269.01155504036865
 11
1117.8512333698864
 21
273.01155504036865
  0
LINE
  8
_0-1_躯体と製品
  6
CONTINUOUS
 62
    7
 10
1114.8512333698864
 20
269.01155504036865
 11
1114.8512333698864
 21
273.01155504036865
  0
LINE
  8
_0-1_躯体と製品
  6
CONTINUOUS
 62
    7
 10
1111.8512333698864
 20
269.01155504036865
 11
1111.8512333698864
 21
273.01155504036865
  0
LINE
  8
_0-1_躯体と製品
  6
CONTINUOUS
 62
    7
 10
1108.8512333698864
 20
269.01155504036865
 11
1108.8512333698864
 21
273.01155504036865
  0
LINE
  8
_0-1_躯体と製品
  6
CONTINUOUS
 62
    7
 10
1105.8512333698873
 20
269.01155504036865
 11
1105.8512333698873
 21
273.01155504036865
  0
LINE
  8
_0-1_躯体と製品
  6
CONTINUOUS
 62
    7
 10
1192.8512333698864
 20
269.01155504036865
 11
1192.8512333698864
 21
273.01155504036865
  0
LINE
  8
_0-1_躯体と製品
  6
CONTINUOUS
 62
    7
 10
1189.8512333698864
 20
269.01155504036865
 11
1189.8512333698864
 21
273.01155504036865
  0
LINE
  8
_0-1_躯体と製品
  6
CONTINUOUS
 62
    7
 10
1186.8512333698864
 20
269.01155504036865
 11
1186.8512333698864
 21
273.01155504036865
  0
LINE
  8
_0-1_躯体と製品
  6
CONTINUOUS
 62
    7
 10
1183.8512333698864
 20
269.01155504036865
 11
1183.8512333698864
 21
273.01155504036865
  0
LINE
  8
_0-1_躯体と製品
  6
CONTINUOUS
 62
    7
 10
1180.8512333698873
 20
269.01155504036865
 11
1180.8512333698873
 21
273.01155504036865
  0
LINE
  8
_0-1_躯体と製品
  6
CONTINUOUS
 62
    7
 10
1177.8512333698864
 20
269.01155504036865
 11
1177.8512333698864
 21
273.01155504036865
  0
LINE
  8
_0-1_躯体と製品
  6
CONTINUOUS
 62
    7
 10
1174.8512333698864
 20
269.01155504036865
 11
1174.8512333698864
 21
273.01155504036865
  0
LINE
  8
_0-1_躯体と製品
  6
CONTINUOUS
 62
    7
 10
1171.8512333698864
 20
269.01155504036865
 11
1171.8512333698864
 21
273.01155504036865
  0
LINE
  8
_0-1_躯体と製品
  6
CONTINUOUS
 62
    7
 10
1168.8512333698854
 20
269.01155504036865
 11
1168.8512333698854
 21
273.01155504036865
  0
LINE
  8
_0-1_躯体と製品
  6
CONTINUOUS
 62
    7
 10
1165.8512333698873
 20
269.01155504036865
 11
1165.8512333698873
 21
273.01155504036865
  0
LINE
  8
_0-1_躯体と製品
  6
CONTINUOUS
 62
    7
 10
1162.8512333698864
 20
269.01155504036865
 11
1162.8512333698864
 21
273.01155504036865
  0
LINE
  8
_0-1_躯体と製品
  6
CONTINUOUS
 62
    7
 10
1159.8512333698864
 20
269.01155504036865
 11
1159.8512333698864
 21
273.01155504036865
  0
LINE
  8
_0-1_躯体と製品
  6
CONTINUOUS
 62
    7
 10
1156.8512333698864
 20
269.01155504036865
 11
1156.8512333698864
 21
273.01155504036865
  0
LINE
  8
_0-1_躯体と製品
  6
CONTINUOUS
 62
    7
 10
1153.8512333698864
 20
269.01155504036865
 11
1153.8512333698864
 21
273.01155504036865
  0
LINE
  8
_0-1_躯体と製品
  6
CONTINUOUS
 62
    7
 10
1150.8512333698864
 20
269.01155504036865
 11
1150.8512333698864
 21
273.01155504036865
  0
LINE
  8
_0-1_躯体と製品
  6
CONTINUOUS
 62
    7
 10
1222.8512333698854
 20
269.01155504036865
 11
1222.8512333698854
 21
273.01155504036865
  0
LINE
  8
_0-1_躯体と製品
  6
CONTINUOUS
 62
    7
 10
1219.8512333698864
 20
269.01155504036865
 11
1219.8512333698864
 21
273.01155504036865
  0
LINE
  8
_0-1_躯体と製品
  6
CONTINUOUS
 62
    7
 10
1216.8512333698864
 20
269.01155504036865
 11
1216.8512333698864
 21
273.01155504036865
  0
LINE
  8
_0-1_躯体と製品
  6
CONTINUOUS
 62
    7
 10
1213.8512333698864
 20
269.01155504036865
 11
1213.8512333698864
 21
273.01155504036865
  0
LINE
  8
_0-1_躯体と製品
  6
CONTINUOUS
 62
    7
 10
1210.8512333698873
 20
269.01155504036865
 11
1210.8512333698873
 21
273.01155504036865
  0
LINE
  8
_0-1_躯体と製品
  6
CONTINUOUS
 62
    7
 10
1207.8512333698864
 20
269.01155504036865
 11
1207.8512333698864
 21
273.01155504036865
  0
LINE
  8
_0-1_躯体と製品
  6
CONTINUOUS
 62
    7
 10
1204.8512333698864
 20
269.01155504036865
 11
1204.8512333698864
 21
273.01155504036865
  0
LINE
  8
_0-1_躯体と製品
  6
CONTINUOUS
 62
    7
 10
1201.8512333698854
 20
269.01155504036865
 11
1201.8512333698854
 21
273.01155504036865
  0
LINE
  8
_0-1_躯体と製品
  6
CONTINUOUS
 62
    7
 10
1198.8512333698864
 20
269.01155504036865
 11
1198.8512333698864
 21
273.01155504036865
  0
LINE
  8
_0-1_躯体と製品
  6
CONTINUOUS
 62
    7
 10
1195.8512333698864
 20
269.01155504036865
 11
1195.8512333698864
 21
273.01155504036865
  0
LINE
  8
_0-1_躯体と製品
  6
CONTINUOUS
 62
    7
 10
1234.8512333698864
 20
269.01155504036865
 11
1234.8512333698864
 21
273.01155504036865
  0
LINE
  8
_0-1_躯体と製品
  6
CONTINUOUS
 62
    7
 10
1231.8512333698864
 20
269.01155504036865
 11
1231.8512333698864
 21
273.01155504036865
  0
LINE
  8
_0-1_躯体と製品
  6
CONTINUOUS
 62
    7
 10
1228.8512333698864
 20
269.01155504036865
 11
1228.8512333698864
 21
273.01155504036865
  0
LINE
  8
_0-1_躯体と製品
  6
CONTINUOUS
 62
    7
 10
1225.8512333698864
 20
269.01155504036865
 11
1225.8512333698864
 21
273.01155504036865
  0
LINE
  8
_0-1_躯体と製品
  6
CONTINUOUS
 62
    7
 10
967.85123336988636
 20
269.01155504036865
 11
967.85123336988636
 21
273.01155504036865
  0
LINE
  8
_0-1_躯体と製品
  6
CONTINUOUS
 62
    7
 10
970.85123336988636
 20
269.01155504036865
 11
970.85123336988636
 21
273.01155504036865
  0
LINE
  8
_0-1_躯体と製品
  6
CONTINUOUS
 62
    7
 10
955.85123336988636
 20
269.01155504036865
 11
955.85123336988636
 21
273.01155504036865
  0
LINE
  8
_0-1_躯体と製品
  6
CONTINUOUS
 62
    7
 10
958.85123336988636
 20
269.01155504036865
 11
958.85123336988636
 21
273.01155504036865
  0
LINE
  8
_0-1_躯体と製品
  6
CONTINUOUS
 62
    7
 10
961.85123336988727
 20
269.01155504036865
 11
961.85123336988727
 21
273.01155504036865
  0
LINE
  8
_0-1_躯体と製品
  6
CONTINUOUS
 62
    7
 10
964.85123336988636
 20
269.01155504036865
 11
964.85123336988636
 21
273.01155504036865
  0
LINE
  8
_0-1_躯体と製品
  6
CONTINUOUS
 62
    7
 10
985.85123336988727
 20
269.01155504036865
 11
985.85123336988727
 21
273.01155504036865
  0
LINE
  8
_0-1_躯体と製品
  6
CONTINUOUS
 62
    7
 10
988.85123336988636
 20
269.01155504036865
 11
988.85123336988636
 21
273.01155504036865
  0
LINE
  8
_0-1_躯体と製品
  6
CONTINUOUS
 62
    7
 10
991.85123336988727
 20
269.01155504036865
 11
991.85123336988727
 21
273.01155504036865
  0
LINE
  8
_0-1_躯体と製品
  6
CONTINUOUS
 62
    7
 10
976.85123336988727
 20
269.01155504036865
 11
976.85123336988727
 21
273.01155504036865
  0
LINE
  8
_0-1_躯体と製品
  6
CONTINUOUS
 62
    7
 10
979.85123336988636
 20
269.01155504036865
 11
979.85123336988636
 21
273.01155504036865
  0
LINE
  8
_0-1_躯体と製品
  6
CONTINUOUS
 62
    7
 10
982.85123336988636
 20
269.01155504036865
 11
982.85123336988636
 21
273.01155504036865
  0
LINE
  8
_0-1_躯体と製品
  6
CONTINUOUS
 62
    7
 10
973.85123336988636
 20
269.01155504036865
 11
973.85123336988636
 21
273.01155504036865
  0
LINE
  8
_0-1_躯体と製品
  6
CONTINUOUS
 62
    7
 10
946.85123336988636
 20
269.01155504036865
 11
946.85123336988636
 21
273.01155504036865
  0
LINE
  8
_0-1_躯体と製品
  6
CONTINUOUS
 62
    7
 10
949.85123336988636
 20
269.01155504036865
 11
949.85123336988636
 21
273.01155504036865
  0
LINE
  8
_0-1_躯体と製品
  6
CONTINUOUS
 62
    7
 10
952.85123336988727
 20
269.01155504036865
 11
952.85123336988727
 21
273.01155504036865
  0
LINE
  8
_0-1_躯体と製品
  6
CONTINUOUS
 62
    7
 10
940.85123336988636
 20
269.01155504036865
 11
940.85123336988636
 21
273.01155504036865
  0
LINE
  8
_0-1_躯体と製品
  6
CONTINUOUS
 62
    7
 10
943.85123336988545
 20
269.01155504036865
 11
943.85123336988545
 21
273.01155504036865
  0
LINE
  8
_0-1_躯体と製品
  6
CONTINUOUS
 62
    7
 10
1087.8512333698873
 20
299.61397751007166
 11
1087.8512333698873
 21
294.61158300050965
  0
LINE
  8
_0-1_躯体と製品
  6
CONTINUOUS
 62
    7
 10
1096.8474127728182
 20
294.61158300050965
 11
1096.8474127728246
 21
299.61157938519455
  0
LINE
  8
_0-1_躯体と製品
  6
CONTINUOUS
 62
    7
 10
1078.8550539669554
 20
294.61158300050965
 11
1078.8550539669613
 21
299.61157938519455
  0
ARC
  8
_0-1_躯体と製品
  6
CONTINUOUS
 62
    7
 10
1083.3531436684225
 20
304.22798848170555
 40
10.61640548119736
 50
244.9320790439549
 51
295.06792095604499
  0
ARC
  8
_0-1_躯体と製品
  6
CONTINUOUS
 62
    7
 10
1092.3493230713534
 20
304.22798848170555
 40
10.61640548119736
 50
244.9320790439549
 51
295.06792095604499
  0
LINE
  8
_0-1_躯体と製品
  6
CONTINUOUS
 62
    7
 10
1083.3531436684225
 20
300.61155500050563
 11
1092.3493230713534
 21
300.61155500050563
  0
ARC
  8
_0-1_躯体と製品
  6
CONTINUOUS
 62
    7
 10
1083.3531436684225
 20
289.99514951930769
 40
10.61640548119736
 50
64.932079043839906
 51
115.06792095616009
  0
ARC
  8
_0-1_躯体と製品
  6
CONTINUOUS
 62
    7
 10
1092.3493230713534
 20
289.99514951930769
 40
10.61640548119736
 50
64.932079043839906
 51
115.06792095616009
  0
LINE
  8
_0-1_躯体と製品
  6
CONTINUOUS
 62
    7
 10
1087.8513408698732
 20
289.61397751007166
 11
1087.8513408698732
 21
282.61155504036856
  0
LINE
  8
_0-1_躯体と製品
  6
CONTINUOUS
 62
    7
 10
1096.8475202728032
 20
282.61155504036856
 11
1096.8475202728105
 21
289.61157938519455
  0
LINE
  8
_0-1_躯体と製品
  6
CONTINUOUS
 62
    7
 10
1078.8551614669404
 20
282.61155504036856
 11
1078.8551614669473
 21
289.61157938519455
  0
ARC
  8
_0-1_躯体と製品
  6
CONTINUOUS
 62
    7
 10
1083.3532511684084
 20
279.99514951930769
 40
10.61640548119736
 50
64.932079043839906
 51
115.06792095616009
  0
ARC
  8
_0-1_躯体と製品
  6
CONTINUOUS
 62
    7
 10
1092.3494305713393
 20
279.99514951930769
 40
10.61640548119736
 50
64.932079043839906
 51
115.06792095616009
  0
LINE
  8
_0-1_躯体と製品
  6
CONTINUOUS
 62
    7
 10
987.85123336988727
 20
273.01155504036865
 11
987.85123336988727
 21
279.01155504036865
  0
LINE
  8
_0-1_躯体と製品
  6
CONTINUOUS
 62
    7
 10
1187.8512333698873
 20
273.01155504036865
 11
1187.8512333698873
 21
279.01155504036865
  0
LINE
  8
_0-1_躯体と製品
  6
CONTINUOUS
 62
    7
 10
527.56453967690459
 20
269.01155504036865
 11
527.56453967690459
 21
273.01155504036865
  0
LINE
  8
_0-1_躯体と製品
  6
CONTINUOUS
 62
    7
 10
530.56453967690459
 20
269.01155504036865
 11
530.56453967690459
 21
273.01155504036865
  0
LINE
  8
_0-1_躯体と製品
  6
CONTINUOUS
 62
    7
 10
515.56453967690459
 20
269.01155504036865
 11
515.56453967690459
 21
273.01155504036865
  0
LINE
  8
_0-1_躯体と製品
  6
CONTINUOUS
 62
    7
 10
518.56453967690459
 20
269.01155504036865
 11
518.56453967690459
 21
273.01155504036865
  0
LINE
  8
_0-1_躯体と製品
  6
CONTINUOUS
 62
    7
 10
521.5645396769055
 20
269.01155504036865
 11
521.5645396769055
 21
273.01155504036865
  0
LINE
  8
_0-1_躯体と製品
  6
CONTINUOUS
 62
    7
 10
524.56453967690459
 20
269.01155504036865
 11
524.56453967690459
 21
273.01155504036865
  0
LINE
  8
_0-1_躯体と製品
  6
CONTINUOUS
 62
    7
 10
566.5645396769055
 20
269.01155504036865
 11
566.5645396769055
 21
273.01155504036865
  0
LINE
  8
_0-1_躯体と製品
  6
CONTINUOUS
 62
    7
 10
569.56453967690459
 20
269.01155504036865
 11
569.56453967690459
 21
273.01155504036865
  0
LINE
  8
_0-1_躯体と製品
  6
CONTINUOUS
 62
    7
 10
572.56453967690459
 20
269.01155504036865
 11
572.56453967690459
 21
273.01155504036865
  0
LINE
  8
_0-1_躯体と製品
  6
CONTINUOUS
 62
    7
 10
575.56453967690459
 20
269.01155504036865
 11
575.56453967690459
 21
273.01155504036865
  0
LINE
  8
_0-1_躯体と製品
  6
CONTINUOUS
 62
    7
 10
557.56453967690459
 20
269.01155504036865
 11
557.56453967690459
 21
273.01155504036865
  0
LINE
  8
_0-1_躯体と製品
  6
CONTINUOUS
 62
    7
 10
560.56453967690459
 20
269.01155504036865
 11
560.56453967690459
 21
273.01155504036865
  0
LINE
  8
_0-1_躯体と製品
  6
CONTINUOUS
 62
    7
 10
563.56453967690459
 20
269.01155504036865
 11
563.56453967690459
 21
273.01155504036865
  0
LINE
  8
_0-1_躯体と製品
  6
CONTINUOUS
 62
    7
 10
545.56453967690459
 20
269.01155504036865
 11
545.56453967690459
 21
273.01155504036865
  0
LINE
  8
_0-1_躯体と製品
  6
CONTINUOUS
 62
    7
 10
548.56453967690459
 20
269.01155504036865
 11
548.56453967690459
 21
273.01155504036865
  0
LINE
  8
_0-1_躯体と製品
  6
CONTINUOUS
 62
    7
 10
551.5645396769055
 20
269.01155504036865
 11
551.5645396769055
 21
273.01155504036865
  0
LINE
  8
_0-1_躯体と製品
  6
CONTINUOUS
 62
    7
 10
554.56453967690459
 20
269.01155504036865
 11
554.56453967690459
 21
273.01155504036865
  0
LINE
  8
_0-1_躯体と製品
  6
CONTINUOUS
 62
    7
 10
536.5645396769055
 20
269.01155504036865
 11
536.5645396769055
 21
273.01155504036865
  0
LINE
  8
_0-1_躯体と製品
  6
CONTINUOUS
 62
    7
 10
539.56453967690459
 20
269.01155504036865
 11
539.56453967690459
 21
273.01155504036865
  0
LINE
  8
_0-1_躯体と製品
  6
CONTINUOUS
 62
    7
 10
542.56453967690459
 20
269.01155504036865
 11
542.56453967690459
 21
273.01155504036865
  0
LINE
  8
_0-1_躯体と製品
  6
CONTINUOUS
 62
    7
 10
533.56453967690459
 20
269.01155504036865
 11
533.56453967690459
 21
273.01155504036865
  0
LINE
  8
_0-1_躯体と製品
  6
CONTINUOUS
 62
    7
 10
623.56453967690459
 20
269.01155504036865
 11
623.56453967690459
 21
273.01155504036865
  0
LINE
  8
_0-1_躯体と製品
  6
CONTINUOUS
 62
    7
 10
620.56453967690459
 20
269.01155504036865
 11
620.56453967690459
 21
273.01155504036865
  0
LINE
  8
_0-1_躯体と製品
  6
CONTINUOUS
 62
    7
 10
617.56453967690322
 20
269.01155504036865
 11
617.56453967690322
 21
273.01155504036865
  0
LINE
  8
_0-1_躯体と製品
  6
CONTINUOUS
 62
    7
 10
608.56453967690459
 20
269.01155504036865
 11
608.56453967690459
 21
273.01155504036865
  0
LINE
  8
_0-1_躯体と製品
  6
CONTINUOUS
 62
    7
 10
614.56453967690459
 20
269.01155504036865
 11
614.56453967690459
 21
273.01155504036865
  0
LINE
  8
_0-1_躯体と製品
  6
CONTINUOUS
 62
    7
 10
611.5645396769055
 20
269.01155504036865
 11
611.5645396769055
 21
273.01155504036865
  0
LINE
  8
_0-1_躯体と製品
  6
CONTINUOUS
 62
    7
 10
599.56453967690459
 20
269.01155504036865
 11
599.56453967690459
 21
273.01155504036865
  0
LINE
  8
_0-1_躯体と製品
  6
CONTINUOUS
 62
    7
 10
602.56453967690459
 20
269.01155504036865
 11
602.56453967690459
 21
273.01155504036865
  0
LINE
  8
_0-1_躯体と製品
  6
CONTINUOUS
 62
    7
 10
605.56453967690459
 20
269.01155504036865
 11
605.56453967690459
 21
273.01155504036865
  0
LINE
  8
_0-1_躯体と製品
  6
CONTINUOUS
 62
    7
 10
587.56453967690459
 20
269.01155504036865
 11
587.56453967690459
 21
273.01155504036865
  0
LINE
  8
_0-1_躯体と製品
  6
CONTINUOUS
 62
    7
 10
590.56453967690459
 20
269.01155504036865
 11
590.56453967690459
 21
273.01155504036865
  0
LINE
  8
_0-1_躯体と製品
  6
CONTINUOUS
 62
    7
 10
593.56453967690459
 20
269.01155504036865
 11
593.56453967690459
 21
273.01155504036865
  0
LINE
  8
_0-1_躯体と製品
  6
CONTINUOUS
 62
    7
 10
596.56453967690459
 20
269.01155504036865
 11
596.56453967690459
 21
273.01155504036865
  0
LINE
  8
_0-1_躯体と製品
  6
CONTINUOUS
 62
    7
 10
578.56453967690459
 20
269.01155504036865
 11
578.56453967690459
 21
273.01155504036865
  0
LINE
  8
_0-1_躯体と製品
  6
CONTINUOUS
 62
    7
 10
581.5645396769055
 20
269.01155504036865
 11
581.5645396769055
 21
273.01155504036865
  0
LINE
  8
_0-1_躯体と製品
  6
CONTINUOUS
 62
    7
 10
584.56453967690459
 20
269.01155504036865
 11
584.56453967690459
 21
273.01155504036865
  0
LINE
  8
_0-1_躯体と製品
  6
CONTINUOUS
 62
    7
 10
668.56453967690459
 20
269.01155504036865
 11
668.56453967690459
 21
273.01155504036865
  0
LINE
  8
_0-1_躯体と製品
  6
CONTINUOUS
 62
    7
 10
665.56453967690459
 20
269.01155504036865
 11
665.56453967690459
 21
273.01155504036865
  0
LINE
  8
_0-1_躯体と製品
  6
CONTINUOUS
 62
    7
 10
662.56453967690459
 20
269.01155504036865
 11
662.56453967690459
 21
273.01155504036865
  0
LINE
  8
_0-1_躯体と製品
  6
CONTINUOUS
 62
    7
 10
659.56453967690459
 20
269.01155504036865
 11
659.56453967690459
 21
273.01155504036865
  0
LINE
  8
_0-1_躯体と製品
  6
CONTINUOUS
 62
    7
 10
656.5645396769055
 20
269.01155504036865
 11
656.5645396769055
 21
273.01155504036865
  0
LINE
  8
_0-1_躯体と製品
  6
CONTINUOUS
 62
    7
 10
653.56453967690459
 20
269.01155504036865
 11
653.56453967690459
 21
273.01155504036865
  0
LINE
  8
_0-1_躯体と製品
  6
CONTINUOUS
 62
    7
 10
650.56453967690459
 20
269.01155504036865
 11
650.56453967690459
 21
273.01155504036865
  0
LINE
  8
_0-1_躯体と製品
  6
CONTINUOUS
 62
    7
 10
647.56453967690459
 20
269.01155504036865
 11
647.56453967690459
 21
273.01155504036865
  0
LINE
  8
_0-1_躯体と製品
  6
CONTINUOUS
 62
    7
 10
644.56453967690459
 20
269.01155504036865
 11
644.56453967690459
 21
273.01155504036865
  0
LINE
  8
_0-1_躯体と製品
  6
CONTINUOUS
 62
    7
 10
641.56453967690459
 20
269.01155504036865
 11
641.56453967690459
 21
273.01155504036865
  0
LINE
  8
_0-1_躯体と製品
  6
CONTINUOUS
 62
    7
 10
638.56453967690459
 20
269.01155504036865
 11
638.56453967690459
 21
273.01155504036865
  0
LINE
  8
_0-1_躯体と製品
  6
CONTINUOUS
 62
    7
 10
635.56453967690459
 20
269.01155504036865
 11
635.56453967690459
 21
273.01155504036865
  0
LINE
  8
_0-1_躯体と製品
  6
CONTINUOUS
 62
    7
 10
632.56453967690459
 20
269.01155504036865
 11
632.56453967690459
 21
273.01155504036865
  0
LINE
  8
_0-1_躯体と製品
  6
CONTINUOUS
 62
    7
 10
629.56453967690459
 20
269.01155504036865
 11
629.56453967690459
 21
273.01155504036865
  0
LINE
  8
_0-1_躯体と製品
  6
CONTINUOUS
 62
    7
 10
626.5645396769055
 20
269.01155504036865
 11
626.5645396769055
 21
273.01155504036865
  0
LINE
  8
_0-1_躯体と製品
  6
CONTINUOUS
 62
    7
 10
713.56453967690459
 20
269.01155504036865
 11
713.56453967690459
 21
273.01155504036865
  0
LINE
  8
_0-1_躯体と製品
  6
CONTINUOUS
 62
    7
 10
710.56453967690459
 20
269.01155504036865
 11
710.56453967690459
 21
273.01155504036865
  0
LINE
  8
_0-1_躯体と製品
  6
CONTINUOUS
 62
    7
 10
707.56453967690459
 20
269.01155504036865
 11
707.56453967690459
 21
273.01155504036865
  0
LINE
  8
_0-1_躯体と製品
  6
CONTINUOUS
 62
    7
 10
704.56453967690459
 20
269.01155504036865
 11
704.56453967690459
 21
273.01155504036865
  0
LINE
  8
_0-1_躯体と製品
  6
CONTINUOUS
 62
    7
 10
701.5645396769055
 20
269.01155504036865
 11
701.5645396769055
 21
273.01155504036865
  0
LINE
  8
_0-1_躯体と製品
  6
CONTINUOUS
 62
    7
 10
698.56453967690459
 20
269.01155504036865
 11
698.56453967690459
 21
273.01155504036865
  0
LINE
  8
_0-1_躯体と製品
  6
CONTINUOUS
 62
    7
 10
695.56453967690459
 20
269.01155504036865
 11
695.56453967690459
 21
273.01155504036865
  0
LINE
  8
_0-1_躯体と製品
  6
CONTINUOUS
 62
    7
 10
692.56453967690459
 20
269.01155504036865
 11
692.56453967690459
 21
273.01155504036865
  0
LINE
  8
_0-1_躯体と製品
  6
CONTINUOUS
 62
    7
 10
689.56453967690459
 20
269.01155504036865
 11
689.56453967690459
 21
273.01155504036865
  0
LINE
  8
_0-1_躯体と製品
  6
CONTINUOUS
 62
    7
 10
686.5645396769055
 20
269.01155504036865
 11
686.5645396769055
 21
273.01155504036865
  0
LINE
  8
_0-1_躯体と製品
  6
CONTINUOUS
 62
    7
 10
683.56453967690459
 20
269.01155504036865
 11
683.56453967690459
 21
273.01155504036865
  0
LINE
  8
_0-1_躯体と製品
  6
CONTINUOUS
 62
    7
 10
680.56453967690459
 20
269.01155504036865
 11
680.56453967690459
 21
273.01155504036865
  0
LINE
  8
_0-1_躯体と製品
  6
CONTINUOUS
 62
    7
 10
677.56453967690459
 20
269.01155504036865
 11
677.56453967690459
 21
273.01155504036865
  0
LINE
  8
_0-1_躯体と製品
  6
CONTINUOUS
 62
    7
 10
674.56453967690459
 20
269.01155504036865
 11
674.56453967690459
 21
273.01155504036865
  0
LINE
  8
_0-1_躯体と製品
  6
CONTINUOUS
 62
    7
 10
671.5645396769055
 20
269.01155504036865
 11
671.5645396769055
 21
273.01155504036865
  0
LINE
  8
_0-1_躯体と製品
  6
CONTINUOUS
 62
    7
 10
740.56453967690459
 20
269.01155504036865
 11
740.56453967690459
 21
273.01155504036865
  0
LINE
  8
_0-1_躯体と製品
  6
CONTINUOUS
 62
    7
 10
737.56453967690459
 20
269.01155504036865
 11
737.56453967690459
 21
273.01155504036865
  0
LINE
  8
_0-1_躯体と製品
  6
CONTINUOUS
 62
    7
 10
734.56453967690459
 20
269.01155504036865
 11
734.56453967690459
 21
273.01155504036865
  0
LINE
  8
_0-1_躯体と製品
  6
CONTINUOUS
 62
    7
 10
731.5645396769055
 20
269.01155504036865
 11
731.5645396769055
 21
273.01155504036865
  0
LINE
  8
_0-1_躯体と製品
  6
CONTINUOUS
 62
    7
 10
728.56453967690459
 20
269.01155504036865
 11
728.56453967690459
 21
273.01155504036865
  0
LINE
  8
_0-1_躯体と製品
  6
CONTINUOUS
 62
    7
 10
725.56453967690459
 20
269.01155504036865
 11
725.56453967690459
 21
273.01155504036865
  0
LINE
  8
_0-1_躯体と製品
  6
CONTINUOUS
 62
    7
 10
722.56453967690459
 20
269.01155504036865
 11
722.56453967690459
 21
273.01155504036865
  0
LINE
  8
_0-1_躯体と製品
  6
CONTINUOUS
 62
    7
 10
719.56453967690459
 20
269.01155504036865
 11
719.56453967690459
 21
273.01155504036865
  0
LINE
  8
_0-1_躯体と製品
  6
CONTINUOUS
 62
    7
 10
716.5645396769055
 20
269.01155504036865
 11
716.5645396769055
 21
273.01155504036865
  0
LINE
  8
_0-1_躯体と製品
  6
CONTINUOUS
 62
    7
 10
488.56453967690459
 20
269.01155504036865
 11
488.56453967690459
 21
273.01155504036865
  0
LINE
  8
_0-1_躯体と製品
  6
CONTINUOUS
 62
    7
 10
491.56453967690459
 20
269.01155504036865
 11
491.56453967690459
 21
273.01155504036865
  0
LINE
  8
_0-1_躯体と製品
  6
CONTINUOUS
 62
    7
 10
476.56453967690459
 20
269.01155504036865
 11
476.56453967690459
 21
273.01155504036865
  0
LINE
  8
_0-1_躯体と製品
  6
CONTINUOUS
 62
    7
 10
479.56453967690459
 20
269.01155504036865
 11
479.56453967690459
 21
273.01155504036865
  0
LINE
  8
_0-1_躯体と製品
  6
CONTINUOUS
 62
    7
 10
482.5645396769055
 20
269.01155504036865
 11
482.5645396769055
 21
273.01155504036865
  0
LINE
  8
_0-1_躯体と製品
  6
CONTINUOUS
 62
    7
 10
485.56453967690459
 20
269.01155504036865
 11
485.56453967690459
 21
273.01155504036865
  0
LINE
  8
_0-1_躯体と製品
  6
CONTINUOUS
 62
    7
 10
506.56453967690459
 20
269.01155504036865
 11
506.56453967690459
 21
273.01155504036865
  0
LINE
  8
_0-1_躯体と製品
  6
CONTINUOUS
 62
    7
 10
509.56453967690459
 20
269.01155504036865
 11
509.56453967690459
 21
273.01155504036865
  0
LINE
  8
_0-1_躯体と製品
  6
CONTINUOUS
 62
    7
 10
512.5645396769055
 20
269.01155504036865
 11
512.5645396769055
 21
273.01155504036865
  0
LINE
  8
_0-1_躯体と製品
  6
CONTINUOUS
 62
    7
 10
497.5645396769055
 20
269.01155504036865
 11
497.5645396769055
 21
273.01155504036865
  0
LINE
  8
_0-1_躯体と製品
  6
CONTINUOUS
 62
    7
 10
500.56453967690459
 20
269.01155504036865
 11
500.56453967690459
 21
273.01155504036865
  0
LINE
  8
_0-1_躯体と製品
  6
CONTINUOUS
 62
    7
 10
503.56453967690459
 20
269.01155504036865
 11
503.56453967690459
 21
273.01155504036865
  0
LINE
  8
_0-1_躯体と製品
  6
CONTINUOUS
 62
    7
 10
494.56453967690459
 20
269.01155504036865
 11
494.56453967690459
 21
273.01155504036865
  0
LINE
  8
_0-1_躯体と製品
  6
CONTINUOUS
 62
    7
 10
449.56453967690459
 20
269.01155504036865
 11
449.56453967690459
 21
273.01155504036865
  0
LINE
  8
_0-1_躯体と製品
  6
CONTINUOUS
 62
    7
 10
452.56453967690459
 20
269.01155504036865
 11
452.56453967690459
 21
273.01155504036865
  0
LINE
  8
_0-1_躯体と製品
  6
CONTINUOUS
 62
    7
 10
446.56453967690459
 20
269.01155504036865
 11
446.56453967690459
 21
273.01155504036865
  0
LINE
  8
_0-1_躯体と製品
  6
CONTINUOUS
 62
    7
 10
467.56453967690459
 20
269.01155504036865
 11
467.56453967690459
 21
273.01155504036865
  0
LINE
  8
_0-1_躯体と製品
  6
CONTINUOUS
 62
    7
 10
470.56453967690459
 20
269.01155504036865
 11
470.56453967690459
 21
273.01155504036865
  0
LINE
  8
_0-1_躯体と製品
  6
CONTINUOUS
 62
    7
 10
473.5645396769055
 20
269.01155504036865
 11
473.5645396769055
 21
273.01155504036865
  0
LINE
  8
_0-1_躯体と製品
  6
CONTINUOUS
 62
    7
 10
458.5645396769055
 20
269.01155504036865
 11
458.5645396769055
 21
273.01155504036865
  0
LINE
  8
_0-1_躯体と製品
  6
CONTINUOUS
 62
    7
 10
461.56453967690459
 20
269.01155504036865
 11
461.56453967690459
 21
273.01155504036865
  0
LINE
  8
_0-1_躯体と製品
  6
CONTINUOUS
 62
    7
 10
464.56453967690459
 20
269.01155504036865
 11
464.56453967690459
 21
273.01155504036865
  0
LINE
  8
_0-1_躯体と製品
  6
CONTINUOUS
 62
    7
 10
455.56453967690459
 20
269.01155504036865
 11
455.56453967690459
 21
273.01155504036865
  0
LINE
  8
_0-1_躯体と製品
  6
CONTINUOUS
 62
    7
 10
705.56451467690658
 20
279.01155504036865
 11
505.56451467690522
 21
279.01155504036865
  0
LINE
  8
_0-1_躯体と製品
  6
CONTINUOUS
 62
    7
 10
705.56451467690658
 20
273.01155504036865
 11
705.56451467690658
 21
279.01155504036865
  0
LINE
  8
_0-1_躯体と製品
  6
CONTINUOUS
 62
    7
 10
505.56451467690522
 20
273.01155504036865
 11
505.56451467690522
 21
279.01155504036865
  0
LINE
  8
_0-1_躯体と製品
  6
CONTINUOUS
 62
    7
 10
442.1360026732882
 20
273.0116483416366
 11
742.13844610658634
 21
273.0116483416366
  0
LINE
  8
_0-1_躯体と製品
  6
CONTINUOUS
 62
    7
 10
443.56453967690459
 20
269.01155504036865
 11
443.56453967690459
 21
273.01155504036865
  0
LINE
  8
_0-0_0
  6
CONTINUOUS
 62
    7
 10
604.06453967690459
 20
279.01155504036865
 11
604.06453967690459
 21
280.61155504036856
  0
LINE
  8
_0-0_0
  6
CONTINUOUS
 62
    7
 10
607.06453967690459
 20
279.01155504036865
 11
607.06453967690459
 21
280.61155504036856
  0
LINE
  8
_0-0_0
  6
CONTINUOUS
 62
    7
 10
645.56453967690459
 20
279.01155504036865
 11
645.56453967690459
 21
280.61155504036856
  0
LINE
  8
_0-0_0
  6
CONTINUOUS
 62
    7
 10
565.56453967690459
 20
279.01155504036865
 11
645.56453967690459
 21
279.01155504036865
  0
LINE
  8
_0-0_0
  6
CONTINUOUS
 62
    7
 10
565.56453967690459
 20
280.61155504036856
 11
565.56453967690459
 21
279.01155504036865
  0
LINE
  8
_0-0_0
  6
CONTINUOUS
 62
    7
 10
645.56453967690459
 20
280.61155504036856
 11
565.56453967690459
 21
280.61155504036856
  0
LINE
  8
_0-0_0
  6
CONTINUOUS
 62
    7
 10
639.56453967690459
 20
282.61155504036856
 11
571.56453967690459
 21
282.61155504036856
  0
ARC
  8
_0-0_0
  6
CONTINUOUS
 62
    7
 10
639.56453967690459
 20
280.61155504036856
 40
2
 50
0
 51
90
  0
ARC
  8
_0-0_0
  6
CONTINUOUS
 62
    7
 10
571.56453967690459
 20
280.61155504036856
 40
2
 50
90
 51
180
  0
LINE
  8
_0-2_文字-記号
  6
CONTINUOUS
 62
    7
 10
1046.7778179013972
 20
270.27392057596853
 11
1016.6399951130675
 21
218.07368027707457
  0
LINE
  8
_0-2_文字-記号
  6
CONTINUOUS
 62
    7
 10
1016.6399951130675
 20
218.07368027707457
 11
936.57806446552831
 21
218.07368027707457
  0
TEXT
  8
_0-2_文字-記号
 62
    7
 10
943.8769692455835
 20
221.65783277707465
 40
12
 41
0.8000000000000001
 50
0
  1
防水層（別途）
  0
LINE
  8
_0-2_文字-記号
  6
CONTINUOUS
 62
    7
 10
1134.5514856368313
 20
275.78128215937454
 11
1152.9308662112253
 21
307.61530312586865
  0
LINE
  8
_0-2_文字-記号
  6
CONTINUOUS
 62
    7
 10
1152.9308662112253
 20
307.61530312586865
 11
1318.6002761104642
 21
307.61530312586865
  0
TEXT
  8
_0-2_文字-記号
 62
    7
 10
1153.4159875890632
 20
311.44640812586863
 40
12
 41
0.8000000000000001
 50
0
  1
アスファルト系成形板等（別途）
  0
LINE
  8
_0-2_文字-記号
  6
CONTINUOUS
 62
    7
 10
1061.3206425959593
 20
280.61155504036856
 11
1026.2464386263023
 21
341.36185835084962
  0
LINE
  8
_0-2_文字-記号
  6
CONTINUOUS
 62
    7
 10
1026.2464386263023
 20
341.36185835084962
 11
958.5225213924964
 21
341.36185835084962
  0
TEXT
  8
_0-2_文字-記号
 62
    7
 10
963.2468099138996
 20
345.1929633508496
 40
12
 41
0.8000000000000001
 50
0
  1
ベース金具
  0
ARC
  8
_0-1_躯体と製品
  6
CONTINUOUS
 62
    7
 10
613.77753967692252
 20
296.36355504036169
 40
4.2479999999999949
 50
49.869772999606127
 51
130.11991900049469
  0
LINE
  8
_0-1_躯体と製品
  6
CONTINUOUS
 62
    7
 10
611.04053967689924
 20
294.61055504036472
 11
611.04053967689924
 21
299.61255504036467
  0
LINE
  8
_0-1_躯体と製品
  6
CONTINUOUS
 62
    7
 10
616.51553967690552
 20
299.61155504036856
 11
616.51553967690552
 21
294.61155504036856
  0
LINE
  8
_0-1_躯体と製品
  6
CONTINUOUS
 62
    7
 10
616.31453967690459
 20
290.61155504036856
 11
616.31453967690459
 21
293.61155504036856
  0
ARC
  8
_0-1_躯体と製品
  6
CONTINUOUS
 62
    7
 10
613.77753967692252
 20
297.8595550403677
 40
4.2479999999999949
 50
229.88008099950531
 51
310.13022700039369
  0
LINE
  8
_0-1_躯体と製品
  6
CONTINUOUS
 62
    7
 10
600.09053967691625
 20
294.61055504036472
 11
600.09053967691625
 21
299.61255504036467
  0
LINE
  8
_0-1_躯体と製品
  6
CONTINUOUS
 62
    7
 10
594.61553967691134
 20
299.61155504036856
 11
594.61553967691134
 21
294.61155504036856
  0
LINE
  8
_0-1_躯体と製品
  6
CONTINUOUS
 62
    7
 10
594.81453967690459
 20
293.61155504036856
 11
594.81453967690459
 21
292.61155504036856
  0
ARC
  8
_0-1_躯体と製品
  6
CONTINUOUS
 62
    7
 10
597.35353967692345
 20
296.36355504036169
 40
4.2479999999999949
 50
49.880087000138069
 51
130.13023300026828
  0
ARC
  8
_0-1_躯体と製品
  6
CONTINUOUS
 62
    7
 10
597.35353967692345
 20
297.8595550403677
 40
4.2479999999999949
 50
229.86976699973164
 51
310.11991299986198
  0
ARC
  8
_0-1_躯体と製品
  6
CONTINUOUS
 62
    7
 10
605.56453967690459
 20
285.11855504036657
 40
15.492999999999981
 50
69.301553000438062
 51
110.69022699919751
  0
ARC
  8
_0-1_躯体と製品
  6
CONTINUOUS
 62
    7
 10
605.56453967690459
 20
309.10455504037054
 40
15.492999999999981
 50
249.30977300077458
 51
290.69844699956195
  0
LINE
  8
_0-1_躯体と製品
  6
CONTINUOUS
 62
    7
 10
597.3525396769046
 20
300.61155504036856
 11
613.77653967690321
 21
300.61155504036856
  0
LINE
  8
_0-1_躯体と製品
  6
CONTINUOUS
 62
    7
 10
616.31453967690459
 20
293.61155504036856
 11
594.81453967690459
 21
293.61155504036856
  0
LINE
  8
_0-1_躯体と製品
  6
CONTINUOUS
 62
    7
 10
616.31453967690459
 20
290.61155504036856
 11
594.81453967690459
 21
290.61155504036856
  0
LINE
  8
_0-1_躯体と製品
  6
CONTINUOUS
 62
    7
 10
594.81453967690459
 20
290.61155504036856
 11
594.81453967690459
 21
293.61155504036856
  0
LINE
  8
_0-1_躯体と製品
  6
CONTINUOUS
 62
    7
 10
594.81453967690459
 20
293.61155504036856
 11
616.31453967690459
 21
293.61155504036856
  0
LINE
  8
_0-1_躯体と製品
  6
CONTINUOUS
 62
    7
 10
616.31453967690459
 20
293.61155504036856
 11
616.31453967690459
 21
290.61155504036856
  0
LINE
  8
_0-1_躯体と製品
  6
CONTINUOUS
 62
    7
 10
605.56453967690459
 20
293.61155504036856
 11
603.83248886933643
 21
290.61155504036856
  0
LINE
  8
_0-1_躯体と製品
  6
CONTINUOUS
 62
    7
 10
607.29659048447229
 20
293.61155504036856
 11
605.56453967690459
 21
290.61155504036856
  0
ARC
  8
_0-1_躯体と製品
  6
CONTINUOUS
 62
    7
 10
613.77753967692252
 20
286.36355504036169
 40
4.2479999999999949
 50
49.869772999606127
 51
130.11991900049469
  0
LINE
  8
_0-1_躯体と製品
  6
CONTINUOUS
 62
    7
 10
611.04053967689924
 20
282.61155504036856
 11
611.04053967689924
 21
289.61255504036467
  0
LINE
  8
_0-1_躯体と製品
  6
CONTINUOUS
 62
    7
 10
616.51553967690552
 20
289.61155504036856
 11
616.51553967690552
 21
282.61155504036856
  0
LINE
  8
_0-1_躯体と製品
  6
CONTINUOUS
 62
    7
 10
600.09053967691625
 20
282.61155504036856
 11
600.09053967691625
 21
289.61255504036467
  0
LINE
  8
_0-1_躯体と製品
  6
CONTINUOUS
 62
    7
 10
594.61553967691134
 20
289.61155504036856
 11
594.61553967691134
 21
282.61155504036856
  0
ARC
  8
_0-1_躯体と製品
  6
CONTINUOUS
 62
    7
 10
597.35353967692345
 20
286.36355504036169
 40
4.2479999999999949
 50
49.880087000138069
 51
130.13023300026828
  0
ARC
  8
_0-1_躯体と製品
  6
CONTINUOUS
 62
    7
 10
605.56453967690459
 20
275.11855504036657
 40
15.492999999999981
 50
69.301553000438062
 51
110.69022699919751
  0
LINE
  8
_0-1_躯体と製品
  6
CONTINUOUS
 62
    7
 10
597.3525396769046
 20
290.61155504036856
 11
613.77653967690321
 21
290.61155504036856
  0
LINE
  8
_0-0_0
  6
CONTINUOUS
 62
    7
 10
1086.3512333698873
 20
279.01155504036865
 11
1086.3512333698873
 21
280.61155504036856
  0
LINE
  8
_0-0_0
  6
CONTINUOUS
 62
    7
 10
1089.3512333698873
 20
279.01155504036865
 11
1089.3512333698873
 21
280.61155504036856
  0
LINE
  8
_0-0_0
  6
CONTINUOUS
 62
    7
 10
1127.8512333698873
 20
279.01155504036865
 11
1127.8512333698873
 21
280.61155504036856
  0
LINE
  8
_0-0_0
  6
CONTINUOUS
 62
    7
 10
1047.8512333698873
 20
279.01155504036865
 11
1127.8512333698873
 21
279.01155504036865
  0
LINE
  8
_0-0_0
  6
CONTINUOUS
 62
    7
 10
1047.8512333698873
 20
280.61155504036856
 11
1047.8512333698873
 21
279.01155504036865
  0
LINE
  8
_0-0_0
  6
CONTINUOUS
 62
    7
 10
1127.8512333698873
 20
280.61155504036856
 11
1047.8512333698873
 21
280.61155504036856
  0
LINE
  8
_0-0_0
  6
CONTINUOUS
 62
    7
 10
1121.8512333698873
 20
282.61155504036856
 11
1053.8512333698873
 21
282.61155504036856
  0
ARC
  8
_0-0_0
  6
CONTINUOUS
 62
    7
 10
1121.8512333698873
 20
280.61155504036856
 40
2
 50
0
 51
90
  0
ARC
  8
_0-0_0
  6
CONTINUOUS
 62
    7
 10
1053.8512333698873
 20
280.61155504036856
 40
2
 50
90
 51
180
  0
LINE
  8
_0-2_文字-記号
  6
CONTINUOUS
 62
    7
 10
564.49112420841448
 20
270.27392057596853
 11
534.35330142008434
 21
218.07368027707457
  0
LINE
  8
_0-2_文字-記号
  6
CONTINUOUS
 62
    7
 10
534.35330142008434
 20
218.07368027707457
 11
454.29137077254518
 21
218.07368027707457
  0
TEXT
  8
_0-2_文字-記号
 62
    7
 10
461.59027555260127
 20
221.65783277707465
 40
12
 41
0.8000000000000001
 50
0
  1
防水層（別途）
  0
LINE
  8
_0-2_文字-記号
  6
CONTINUOUS
 62
    7
 10
652.26479194384956
 20
275.78128215937454
 11
670.64417251824352
 21
307.61530312586865
  0
LINE
  8
_0-2_文字-記号
  6
CONTINUOUS
 62
    7
 10
670.64417251824352
 20
307.61530312586865
 11
836.31358241748239
 21
307.61530312586865
  0
TEXT
  8
_0-2_文字-記号
 62
    7
 10
671.12929389608053
 20
311.44640812586863
 40
12
 41
0.8000000000000001
 50
0
  1
アスファルト系成形板等（別途）
  0
LINE
  8
_0-2_文字-記号
  6
CONTINUOUS
 62
    7
 10
579.0339489029775
 20
280.61155504036856
 11
543.95974493332051
 21
341.36185835084962
  0
LINE
  8
_0-2_文字-記号
  6
CONTINUOUS
 62
    7
 10
543.95974493332051
 20
341.36185835084962
 11
476.23582769951418
 21
341.36185835084962
  0
TEXT
  8
_0-2_文字-記号
 62
    7
 10
480.96011622091646
 20
345.1929633508496
 40
12
 41
0.8000000000000001
 50
0
  1
ベース金具
  0
LINE
  8
_0-1_躯体と製品
  6
CONTINUOUS
 62
    7
 10
987.85123336988727
 20
273.93031209835749
 11
992.93247631189843
 21
279.01155504036865
  0
LINE
  8
_0-1_躯体と製品
  6
CONTINUOUS
 62
    7
 10
995.7713110767304
 20
273.01155504036956
 11
1001.7713110767286
 21
279.01155504036751
  0
LINE
  8
_0-1_躯体と製品
  6
CONTINUOUS
 62
    7
 10
1004.6101458415624
 20
273.01155504036956
 11
1010.6101458415615
 21
279.01155504036865
  0
LINE
  8
_0-1_躯体と製品
  6
CONTINUOUS
 62
    7
 10
1013.4489806063943
 20
273.01155504036956
 11
1019.4489806063934
 21
279.01155504036865
  0
LINE
  8
_0-1_躯体と製品
  6
CONTINUOUS
 62
    7
 10
1022.2878153712254
 20
273.01155504036956
 11
1028.2878153712245
 21
279.01155504036751
  0
LINE
  8
_0-1_躯体と製品
  6
CONTINUOUS
 62
    7
 10
1031.1266501360574
 20
273.01155504036956
 11
1037.1266501360565
 21
279.01155504036865
  0
LINE
  8
_0-1_躯体と製品
  6
CONTINUOUS
 62
    7
 10
1039.9654849008894
 20
273.01155504036956
 11
1045.9654849008894
 21
279.01155504036865
  0
LINE
  8
_0-1_躯体と製品
  6
CONTINUOUS
 62
    7
 10
1048.8043196657213
 20
273.01155504036956
 11
1054.8043196657204
 21
279.01155504036751
  0
LINE
  8
_0-1_躯体と製品
  6
CONTINUOUS
 62
    7
 10
1057.6431544305533
 20
273.01155504036865
 11
1063.6431544305524
 21
279.01155504036751
  0
LINE
  8
_0-1_躯体と製品
  6
CONTINUOUS
 62
    7
 10
1066.4819891953844
 20
273.01155504036865
 11
1072.4819891953844
 21
279.01155504036751
  0
LINE
  8
_0-1_躯体と製品
  6
CONTINUOUS
 62
    7
 10
1075.3208239602172
 20
273.01155504036956
 11
1081.3208239602154
 21
279.01155504036751
  0
LINE
  8
_0-1_躯体と製品
  6
CONTINUOUS
 62
    7
 10
1084.1596587250492
 20
273.01155504036865
 11
1090.1596587250474
 21
279.01155504036751
  0
LINE
  8
_0-1_躯体と製品
  6
CONTINUOUS
 62
    7
 10
1092.9984934898803
 20
273.01155504036865
 11
1098.9984934898794
 21
279.01155504036751
  0
LINE
  8
_0-1_躯体と製品
  6
CONTINUOUS
 62
    7
 10
1101.8373282547132
 20
273.01155504036956
 11
1107.8373282547113
 21
279.01155504036751
  0
LINE
  8
_0-1_躯体と製品
  6
CONTINUOUS
 62
    7
 10
1110.6761630195442
 20
273.01155504036865
 11
1116.6761630195433
 21
279.01155504036751
  0
LINE
  8
_0-1_躯体と製品
  6
CONTINUOUS
 62
    7
 10
1119.5149977843762
 20
273.01155504036865
 11
1125.5149977843753
 21
279.01155504036751
  0
LINE
  8
_0-1_躯体と製品
  6
CONTINUOUS
 62
    7
 10
1128.3538325492082
 20
273.01155504036956
 11
1134.3538325492073
 21
279.01155504036865
  0
LINE
  8
_0-1_躯体と製品
  6
CONTINUOUS
 62
    7
 10
1137.1926673140406
 20
273.01155504036865
 11
1143.1926673140383
 21
279.01155504036751
  0
LINE
  8
_0-1_躯体と製品
  6
CONTINUOUS
 62
    7
 10
1146.0315020788712
 20
273.01155504036865
 11
1152.0315020788703
 21
279.01155504036751
  0
LINE
  8
_0-1_躯体と製品
  6
CONTINUOUS
 62
    7
 10
1154.8703368437032
 20
273.01155504036956
 11
1160.8703368437023
 21
279.01155504036865
  0
LINE
  8
_0-1_躯体と製品
  6
CONTINUOUS
 62
    7
 10
1163.7091716085356
 20
273.01155504036865
 11
1169.7091716085342
 21
279.01155504036751
  0
LINE
  8
_0-1_躯体と製品
  6
CONTINUOUS
 62
    7
 10
1172.5480063733662
 20
273.01155504036865
 11
1178.5480063733653
 21
279.01155504036751
  0
LINE
  8
_0-1_躯体と製品
  6
CONTINUOUS
 62
    7
 10
1181.3868411381995
 20
273.01155504036865
 11
1187.3868411381982
 21
279.01155504036751
  0
LINE
  8
_0-1_躯体と製品
  6
CONTINUOUS
 62
    7
 10
505.56451467690522
 20
273.93031209835658
 11
510.64575761891729
 21
279.01155504036751
  0
LINE
  8
_0-1_躯体と製品
  6
CONTINUOUS
 62
    7
 10
513.48459238374926
 20
273.01155504036956
 11
519.48459238374835
 21
279.01155504036865
  0
LINE
  8
_0-1_躯体と製品
  6
CONTINUOUS
 62
    7
 10
522.32342714858123
 20
273.01155504036956
 11
528.32342714858032
 21
279.01155504036865
  0
LINE
  8
_0-1_躯体と製品
  6
CONTINUOUS
 62
    7
 10
531.1622619134132
 20
273.01155504036865
 11
537.16226191341229
 21
279.01155504036751
  0
LINE
  8
_0-1_躯体と製品
  6
CONTINUOUS
 62
    7
 10
540.00109667824427
 20
273.01155504036956
 11
546.00109667824427
 21
279.01155504036865
  0
LINE
  8
_0-1_躯体と製品
  6
CONTINUOUS
 62
    7
 10
548.83993144307624
 20
273.01155504036956
 11
554.83993144307624
 21
279.01155504036865
  0
LINE
  8
_0-1_躯体と製品
  6
CONTINUOUS
 62
    7
 10
557.67876620790821
 20
273.01155504036956
 11
563.6787662079073
 21
279.01155504036865
  0
LINE
  8
_0-1_躯体と製品
  6
CONTINUOUS
 62
    7
 10
566.51760097274018
 20
273.01155504036956
 11
572.51760097273927
 21
279.01155504036865
  0
LINE
  8
_0-1_躯体と製品
  6
CONTINUOUS
 62
    7
 10
575.35643573757352
 20
273.01155504036956
 11
581.35643573757125
 21
279.01155504036865
  0
LINE
  8
_0-1_躯体と製品
  6
CONTINUOUS
 62
    7
 10
584.19527050240322
 20
273.01155504036956
 11
590.19527050240322
 21
279.01155504036865
  0
LINE
  8
_0-1_躯体と製品
  6
CONTINUOUS
 62
    7
 10
593.03410526723519
 20
273.01155504036956
 11
599.03410526723519
 21
279.01155504036865
  0
LINE
  8
_0-1_躯体と製品
  6
CONTINUOUS
 62
    7
 10
601.87294003206853
 20
273.01155504036956
 11
607.87294003206716
 21
279.01155504036865
  0
LINE
  8
_0-1_躯体と製品
  6
CONTINUOUS
 62
    7
 10
610.7117747969005
 20
273.01155504036956
 11
616.71177479689823
 21
279.01155504036865
  0
LINE
  8
_0-1_躯体と製品
  6
CONTINUOUS
 62
    7
 10
619.55060956173156
 20
273.01155504036956
 11
625.55060956173156
 21
279.01155504036865
  0
LINE
  8
_0-1_躯体と製品
  6
CONTINUOUS
 62
    7
 10
628.38944432656353
 20
273.01155504036865
 11
634.38944432656353
 21
279.01155504036865
  0
LINE
  8
_0-1_躯体と製品
  6
CONTINUOUS
 62
    7
 10
637.22827909139551
 20
273.01155504036956
 11
643.2282790913946
 21
279.01155504036865
  0
LINE
  8
_0-1_躯体と製品
  6
CONTINUOUS
 62
    7
 10
646.06711385622657
 20
273.01155504036956
 11
652.06711385622657
 21
279.01155504036865
  0
LINE
  8
_0-1_躯体と製品
  6
CONTINUOUS
 62
    7
 10
654.90594862105945
 20
273.01155504036865
 11
660.90594862105854
 21
279.01155504036865
  0
LINE
  8
_0-1_躯体と製品
  6
CONTINUOUS
 62
    7
 10
663.74478338589051
 20
273.01155504036956
 11
669.7447833858896
 21
279.01155504036865
  0
LINE
  8
_0-1_躯体と製品
  6
CONTINUOUS
 62
    7
 10
672.58361815072249
 20
273.01155504036956
 11
678.58361815072158
 21
279.01155504036865
  0
LINE
  8
_0-1_躯体と製品
  6
CONTINUOUS
 62
    7
 10
681.42245291555446
 20
273.01155504036956
 11
687.42245291555355
 21
279.01155504036865
  0
LINE
  8
_0-1_躯体と製品
  6
CONTINUOUS
 62
    7
 10
690.26128768038552
 20
273.01155504036865
 11
696.26128768038552
 21
279.01155504036865
  0
LINE
  8
_0-1_躯体と製品
  6
CONTINUOUS
 62
    7
 10
699.1001224452184
 20
273.01155504036956
 11
705.1001224452184
 21
279.01155504036865
  0
ENDSEC
  0
EOF
