  0
SECTION
  2
HEADER
  9
$ACADVER
  1
AC1009
  9
$INSBASE
 10
0
 20
0
 30
0
  9
$EXTMIN
 10
0
 20
0
  9
$EXTMAX
 10
951.20000000000005
 20
672.80000000000007
  9
$LIMMIN
 10
0
 20
0
  9
$LIMMAX
 10
951.20000000000005
 20
672.80000000000007
  9
$LTSCALE
 40
0.2
  0
ENDSEC
  0
SECTION
  2
TABLES
  0
TABLE
  2
LTYPE
 70
     9
  0
LTYPE
  2
CONTINUOUS
 70
    64
  3
実線
 72
    65
 73
     0
 40
0.0
  0
LTYPE
  2
DASHED1
 70
    64
  3
--  --  --  --  --  --  --  --  
 72
    65
 73
     2
 40
2.5
 49
1.25
 49
-1.25
  0
LTYPE
  2
DASHED2
 70
    64
  3
----    ----    ----    ----    
 72
    65
 73
     2
 40
5.0
 49
2.5
 49
-2.5
  0
LTYPE
  2
DASHED3
 70
    64
  3
------  ------  ------  ------  
 72
    65
 73
     2
 40
5.0
 49
3.75
 49
-1.25
  0
LTYPE
  2
CENTER1
 70
    64
  3
----- - ----- - ----- - ----- - 
 72
    65
 73
     4
 40
10.0
 49
6.25
 49
-1.25
 49
1.25
 49
-1.25
  0
LTYPE
  2
CENTER2
 70
    64
  3
----------  --  ----------  --  
 72
    65
 73
     4
 40
20.0
 49
12.5
 49
-2.5
 49
2.5
 49
-2.5
  0
LTYPE
  2
PHANTOM1
 70
    64
  3
--- - - --- - - --- - - --- - - 
 72
    65
 73
     6
 40
10.0
 49
3.25
 49
-1.25
 49
1.25
 49
-1.25
 49
1.25
 49
-1.25
  0
LTYPE
  2
PHANTOM2
 70
    64
  3
--------  -  -  --------  -  -  
 72
    65
 73
     6
 40
20.0
 49
10.0
 49
-2.5
 49
1.25
 49
-2.5
 49
1.25
 49
-2.5
  0
LTYPE
  2
DOT
 70
    64
  3
-   -   -   -   -   -   -   -   
 72
    65
 73
     2
 40
2.5
 49
0.625
 49
-1.875
  0
LTYPE
  2
DUMMY
 70
    64
  3
ダミー
 72
    65
 73
     0
 40
0.0
  0
LTYPE
  2
RAND1
 70
    64
  3
ランダム線1
 72
    65
 73
     4
 40
10.0
 49
1.0
 49
-2.0
 49
3.0
 49
-4.0
  0
LTYPE
  2
RAND2
 70
    64
  3
ランダム線2
 72
    65
 73
     4
 40
14.0
 49
2.0
 49
-3.0
 49
4.0
 49
-5.0
  0
LTYPE
  2
RAND3
 70
    64
  3
ランダム線3
 72
    65
 73
     4
 40
18.0
 49
3.0
 49
-4.0
 49
5.0
 49
-6.0
  0
LTYPE
  2
RAND4
 70
    64
  3
ランダム線4
 72
    65
 73
     4
 40
22.0
 49
4.0
 49
-5.0
 49
6.0
 49
-7.0
  0
LTYPE
  2
RAND5
 70
    64
  3
ランダム線5
 72
    65
 73
     4
 40
26.0
 49
5.0
 49
-6.0
 49
7.0
 49
-8.0
  0
LTYPE
  2
LONG1
 70
    64
  3
----------  --  ----------  --  
 72
    65
 73
     4
 40
40.0
 49
32.5
 49
-2.5
 49
2.5
 49
-2.5
  0
LTYPE
  2
LONG2
 70
    64
  3
--------  -  -  --------  -  -  
 72
    65
 73
     6
 40
40.0
 49
30.0
 49
-2.5
 49
1.25
 49
-2.5
 49
1.25
 49
-2.5
  0
LTYPE
  2
LONG3
 70
    64
  3
+++++++++++++++..+++++++++++++++
 72
    65
 73
     2
 40
40.0
 49
37.5
 49
-2.5
  0
LTYPE
  2
LONG4
 70
    64
  3
+++++++++++++++..+++++++++++++++
 72
    65
 73
     2
 40
80.0
 49
75.0
 49
-5.0
  0
LTYPE
  2
LONG5
 70
    64
  3
----------  --  ----------  --  
 72
    65
 73
     4
 40
60.0
 49
37.5
 49
-7.5
 49
7.5
 49
-7.5
  0
LTYPE
  2
dashed
 70
   64
  3
-------   -------------   ------
 72
   65
 73
    2
 40
7.5
 49
6
 49
-1.5
  0
LTYPE
  2
dashed_spaced
 70
   64
  3
----        --------        ----
 72
   65
 73
    2
 40
12
 49
6
 49
-6
  0
LTYPE
  2
long_dashed_dotted
 70
   64
  3
------------- --- --------------
 72
   65
 73
    4
 40
15.25
 49
12
 49
-1.5
 49
0.25
 49
-1.5
  0
LTYPE
  2
long_dashed_double-dotted
 70
   64
  3
----------- --- --- ------------
 72
   65
 73
    6
 40
17
 49
12
 49
-1.5
 49
0.25
 49
-1.5
 49
0.25
 49
-1.5
  0
LTYPE
  2
long_dashed_triplicate-dotted
 70
   64
  3
--------- --- --- --- ----------
 72
   65
 73
    8
 40
18.75
 49
12
 49
-1.5
 49
0.25
 49
-1.5
 49
0.25
 49
-1.5
 49
0.25
 49
-1.5
  0
LTYPE
  2
dotted
 70
   64
  3
   -       -       -       -    
 72
   65
 73
    2
 40
1.75
 49
0.25
 49
-1.5
  0
LTYPE
  2
chain
 70
   64
  3
-------------- -- --------------
 72
   65
 73
    4
 40
18.5
 49
12
 49
-1.5
 49
3.5
 49
-1.5
  0
LTYPE
  2
chain_double_dash
 70
   64
  3
------------ -- -- -------------
 72
   65
 73
    6
 40
23.5
 49
12
 49
-1.5
 49
3.5
 49
-1.5
 49
3.5
 49
-1.5
  0
LTYPE
  2
dashed_dotted
 70
   64
  3
-----------     -     ----------
 72
   65
 73
    4
 40
9.25
 49
6
 49
-1.5
 49
0.25
 49
-1.5
  0
LTYPE
  2
double-dashed_dotted
 70
   64
  3
------   -----------   -   -----
 72
   65
 73
    6
 40
16.75
 49
6
 49
-1.5
 49
6
 49
-1.5
 49
0.25
 49
-1.5
  0
LTYPE
  2
dashed_double-dotted
 70
   64
  3
---------    -    -    ---------
 72
   65
 73
    6
 40
11
 49
6
 49
-1.5
 49
0.25
 49
-1.5
 49
0.25
 49
-1.5
  0
LTYPE
  2
double-dashed_double-dotted
 70
   64
  3
-----   ---------   -   -   ----
 72
   65
 73
    8
 40
18.5
 49
6
 49
-1.5
 49
6
 49
-1.5
 49
0.25
 49
-1.5
 49
0.25
 49
-1.5
  0
LTYPE
  2
dashed_triplicate-dotted
 70
   64
  3
-------    -    -    -    ------
 72
   65
 73
    8
 40
12.75
 49
6
 49
-1.5
 49
0.25
 49
-1.5
 49
0.25
 49
-1.5
 49
0.25
 49
-1.5
  0
LTYPE
  2
double-dashed_triplicate-dotted
 70
   64
  3
-----  ---------  -  -  -  -----
 72
   65
 73
   10
 40
20.25
 49
6
 49
-1.5
 49
6
 49
-1.5
 49
0.25
 49
-1.5
 49
0.25
 49
-1.5
 49
0.25
 49
-1.5
  0
LTYPE
  2
undefined
 70
   64
  3
--------------------------------
 72
   65
 73
    0
 40
0
  0
ENDTAB
  0
TABLE
  2
STYLE
  5
3
100
AcDbSymbolTable
 70
     1
  0
STYLE
  5
10
100
AcDbSymbolTableRecord
100
AcDbTextStyleTableRecord
  2
STANDARD
 70
     0
 40
0.0
 41
1.0
 50
0.0
 71
     0
 42
0.2
  3
txt
  4
bigfont.shx
  0
STYLE
  5
26
100
AcDbSymbolTableRecord
100
AcDbTextStyleTableRecord
  2
TATEGAKI
 70
    68
 40
0.0
 41
1.0
 50
0.0
 71
     0
 42
1.0
  3
txt
  4
bigfont.shx
  0
ENDTAB
  0
TABLE
  2
LAYER
 70
    5
  0
LAYER
  2
_0-2_寸法
 70
   64
 62
    7
  6
CONTINUOUS
  0
LAYER
  2
_0-3_躯体と製品
 70
   64
 62
    7
  6
CONTINUOUS
  0
LAYER
  2
_0-4_文字-記号
 70
   64
 62
    7
  6
CONTINUOUS
  0
LAYER
  2
_0-5_中心線
 70
   64
 62
    7
  6
CONTINUOUS
  0
LAYER
  2
ADD_LINE
 70
   64
 62
    7
  6
CONTINUOUS
  0
ENDTAB
  0
ENDSEC
  0
SECTION
  2
BLOCKS
  0
BLOCK
  2
-000-_Dot
 70
   64
 10
0
 20
0
 30
0
  0
CIRCLE
  8
_0-0_0
  6
CONTINUOUS
 62
    7
 10
0
 20
0
 40
0.25
  0
LINE
  8
_0-0_0
  6
CONTINUOUS
 62
    7
 10
0.25
 20
0
 11
-0.25
 21
0
  0
LINE
  8
_0-0_0
  6
CONTINUOUS
 62
    7
 10
-0.5
 20
0
 11
-1
 21
0
  0
ENDBLK
  0
BLOCK
  2
-001-_Open30
 70
   64
 10
0
 20
0
 30
0
  0
LINE
  8
_0-0_0
  6
CONTINUOUS
 62
    7
 10
-1
 20
0.26794919
 11
0
 21
0
  0
LINE
  8
_0-0_0
  6
CONTINUOUS
 62
    7
 10
0
 20
0
 11
-1
 21
-0.26794919
  0
LINE
  8
_0-0_0
  6
CONTINUOUS
 62
    7
 10
0
 20
0
 11
-1
 21
0
  0
ENDBLK
  0
ENDSEC
  0
SECTION
  2
ENTITIES
  0
ARC
  8
_0-3_躯体と製品
  6
CONTINUOUS
 62
    7
 10
693.14875789567782
 20
327.52049201781705
 40
18.553000000000058
 50
251.13144099976898
 51
269.61088699992382
  0
ARC
  8
_0-3_躯体と製品
  6
CONTINUOUS
 62
    7
 10
646.39875789567486
 20
320.71749201781495
 40
3.249999999995798
 50
90.000002999934651
 51
180.00000000007415
  0
LINE
  8
_0-3_躯体と製品
  6
CONTINUOUS
 62
    7
 10
643.14875789567907
 20
320.7174920178108
 11
643.14875789567907
 21
312.9674920178108
  0
LINE
  8
_0-3_躯体と製品
  6
CONTINUOUS
 62
    7
 10
643.14875789567907
 20
312.9674920178108
 11
743.14875789567907
 21
312.9674920178108
  0
LINE
  8
_0-3_躯体と製品
  6
CONTINUOUS
 62
    7
 10
743.14875789567907
 20
312.9674920178108
 11
743.14875789567907
 21
320.7174920178108
  0
ARC
  8
_0-3_躯体と製品
  6
CONTINUOUS
 62
    7
 10
739.89875789567907
 20
320.7174920178108
 40
3.2500000000000036
 50
0.0000000000000816
 51
89.999999999999929
  0
LINE
  8
_0-3_躯体と製品
  6
CONTINUOUS
 62
    7
 10
739.89875789567907
 20
323.9674920178108
 11
693.14875789567907
 21
323.9674920178108
  0
LINE
  8
_0-3_躯体と製品
  6
CONTINUOUS
 62
    7
 10
693.14875789567907
 20
323.9674920178108
 11
646.39875789567907
 21
323.9674920178108
  0
ARC
  8
_0-3_躯体と製品
  6
CONTINUOUS
 62
    7
 10
684.15075789568675
 20
313.97149201781059
 40
5.0039999999997384
 50
233.13925800014044
 51
306.80349100001683
  0
LINE
  8
_0-3_躯体と製品
  6
CONTINUOUS
 62
    7
 10
687.14875789567907
 20
309.96449201781292
 11
687.14875789567907
 21
312.9674920178108
  0
LINE
  8
_0-3_躯体と製品
  6
CONTINUOUS
 62
    7
 10
681.14875789567907
 20
309.96749201781785
 11
681.14875789567907
 21
312.9674920178108
  0
LINE
  8
_0-5_中心線
  6
CENTER1
 62
    7
 10
693.14875789567907
 20
167.01967836730776
 11
693.14875789567907
 21
377.22959775189082
  0
ARC
  8
_0-3_躯体と製品
  6
CONTINUOUS
 62
    7
 10
702.1467578956715
 20
313.97149201781122
 40
5.0040000000003273
 50
233.1965030000151
 51
306.86073700001026
  0
LINE
  8
_0-3_躯体と製品
  6
CONTINUOUS
 62
    7
 10
702.14675789567093
 20
308.96749201781785
 11
693.14875789567907
 21
308.96749201781785
  0
LINE
  8
_0-3_躯体と製品
  6
CONTINUOUS
 62
    7
 10
693.14875789567907
 20
308.96749201781785
 11
684.15075789568721
 21
308.96749201781785
  0
ARC
  8
_0-3_躯体と製品
  6
CONTINUOUS
 62
    7
 10
693.14875789567998
 20
327.52049201781392
 40
18.552999999996846
 50
270.38910700017738
 51
288.86855299986212
  0
LINE
  8
_0-3_躯体と製品
  6
CONTINUOUS
 62
    7
 10
699.14875789567907
 20
312.9674920178108
 11
699.14875789567907
 21
309.96449201781292
  0
LINE
  8
_0-3_躯体と製品
  6
CONTINUOUS
 62
    7
 10
705.14875789567907
 20
309.96749201781785
 11
705.14875789567907
 21
312.9674920178108
  0
LINE
  8
_0-3_躯体と製品
  6
CONTINUOUS
 62
    7
 10
688.64875789567179
 20
308.96749201781785
 11
688.64875789567179
 21
258.52784701780973
  0
LINE
  8
_0-3_躯体と製品
  6
CONTINUOUS
 62
    7
 10
687.14875789567088
 20
308.96749201781785
 11
687.14875789567088
 21
258.52784701780973
  0
LINE
  8
_0-3_躯体と製品
  6
CONTINUOUS
 62
    7
 10
697.64875789567088
 20
308.96749201781785
 11
697.64875789567088
 21
258.52784701780973
  0
LINE
  8
_0-3_躯体と製品
  6
CONTINUOUS
 62
    7
 10
699.14875789567088
 20
308.96749201781785
 11
699.14875789567088
 21
258.52784701780973
  0
LINE
  8
_0-5_中心線
  6
CENTER1
 62
    7
 10
665.39875789570817
 20
311.5674920178098
 11
665.39875789570817
 21
334.49124201780972
  0
LINE
  8
_0-5_中心線
  6
CENTER1
 62
    7
 10
720.89875789564996
 20
311.5674920178098
 11
720.89875789564996
 21
334.49124201780972
  0
LINE
  8
_0-4_文字-記号
  6
CONTINUOUS
 62
    7
 10
728.80518952316618
 20
312.9674920178108
 11
739.97114152316601
 21
293.62749601780973
  0
LINE
  8
_0-4_文字-記号
  6
CONTINUOUS
 62
    7
 10
739.97114152316601
 20
293.62749601780973
 11
781.20064252316718
 21
293.62749601780973
  0
TEXT
  8
_0-4_文字-記号
 62
    7
 10
742.24493552316619
 20
296.01693101781092
 40
10
 41
0.8
 50
0
  1
受け金具
  0
TEXT
  8
_0-4_文字-記号
 62
    7
 10
660.11707605164213
 20
147.0358771180436
 40
10
 41
0.8
 50
0
  1
（根太ピッチ）
  0
TEXT
  8
_0-4_文字-記号
 62
    7
 10
63.544601646870071
 20
513.76112579980384
 40
12
 41
1
 50
0
  1
水勾配を考慮した仕様
  0
LINE
  8
_0-3_躯体と製品
  6
CONTINUOUS
 62
    7
 10
257.9993062252521
 20
258.52784701781087
 11
257.9993062252521
 21
309.07426711557986
  0
LINE
  8
_0-3_躯体と製品
  6
CONTINUOUS
 62
    7
 10
256.49930622525119
 20
258.52784701781087
 11
256.49930622525119
 21
308.96749218968279
  0
LINE
  8
_0-3_躯体と製品
  6
CONTINUOUS
 62
    7
 10
247.4993062252521
 20
258.52784701781087
 11
247.4993062252521
 21
308.96749218968279
  0
LINE
  8
_0-3_躯体と製品
  6
CONTINUOUS
 62
    7
 10
245.9993062252521
 20
258.52784701781087
 11
245.9993062252521
 21
309.07426711557986
  0
LINE
  8
_0-5_中心線
  6
CENTER1
 62
    7
 10
251.9993062252521
 20
167.01967836731185
 11
251.9993062252521
 21
339.0074240074029
  0
LINE
  8
_0-3_躯体と製品
  6
CONTINUOUS
 62
    7
 10
231.9993062252521
 20
330.96749201781489
 11
271.9993062252521
 21
330.96749201781489
  0
LINE
  8
_0-3_躯体と製品
  6
CONTINUOUS
 62
    7
 10
271.9993062252521
 20
330.96749201781489
 11
271.9993062252521
 21
323.96749201781489
  0
LINE
  8
_0-3_躯体と製品
  6
CONTINUOUS
 62
    7
 10
271.9993062252521
 20
323.96749201781489
 11
231.9993062252521
 21
323.96749201781489
  0
LINE
  8
_0-3_躯体と製品
  6
CONTINUOUS
 62
    7
 10
231.9993062252521
 20
323.96749201781489
 11
231.9993062252521
 21
330.96749201781489
  0
ARC
  8
_0-3_躯体と製品
  6
CONTINUOUS
 62
    7
 10
205.24930622524789
 20
320.71749201781904
 40
3.249999999995798
 50
90.000002999934651
 51
180.00000000007415
  0
LINE
  8
_0-3_躯体と製品
  6
CONTINUOUS
 62
    7
 10
201.9993062252521
 20
320.71749201781489
 11
201.9993062252521
 21
312.96749201781489
  0
LINE
  8
_0-3_躯体と製品
  6
CONTINUOUS
 62
    7
 10
201.9993062252521
 20
312.96749201781489
 11
301.9993062252521
 21
312.96749201781489
  0
LINE
  8
_0-3_躯体と製品
  6
CONTINUOUS
 62
    7
 10
301.9993062252521
 20
312.96749201781489
 11
301.9993062252521
 21
320.71749201781489
  0
ARC
  8
_0-3_躯体と製品
  6
CONTINUOUS
 62
    7
 10
298.7493062252521
 20
320.71749201781489
 40
3.2500000000000036
 50
0.0000000000000816
 51
89.999999999999929
  0
LINE
  8
_0-3_躯体と製品
  6
CONTINUOUS
 62
    7
 10
298.7493062252521
 20
323.96749201781489
 11
251.9993062252521
 21
323.96749201781489
  0
LINE
  8
_0-3_躯体と製品
  6
CONTINUOUS
 62
    7
 10
251.9993062252521
 20
323.96749201781489
 11
205.24930622525119
 21
323.96749201781489
  0
LINE
  8
_0-4_文字-記号
  6
CONTINUOUS
 62
    7
 10
322.73556611975494
 20
340.76822163071682
 11
345.617615891828
 21
301.13534921073273
  0
LINE
  8
_0-4_文字-記号
  6
CONTINUOUS
 62
    7
 10
345.617615891828
 20
301.13534921073273
 11
377.31916874172305
 21
301.13534921073273
  0
TEXT
  8
_0-4_文字-記号
 62
    7
 10
347.89140989182818
 20
303.52478421073278
 40
10
 41
0.8
 50
0
  1
根太鋼
  0
LINE
  8
_0-4_文字-記号
  6
CONTINUOUS
 62
    7
 10
245.9993062252521
 20
275.36084546233377
 11
231.64032292729109
 21
289.71982876029386
  0
LINE
  8
_0-4_文字-記号
  6
CONTINUOUS
 62
    7
 10
231.64032292729109
 20
289.71982876029386
 11
196.27466926012914
 21
289.71982876029386
  0
TEXT
  8
_0-4_文字-記号
 62
    7
 10
198.98568044747719
 20
291.41288993841289
 40
10
 41
0.8
 50
0
  1
支持脚
  0
LINE
  8
_0-4_文字-記号
  6
CONTINUOUS
 62
    7
 10
271.82937596721615
 20
312.96749201781489
 11
284.04908603259912
 21
291.80233333081077
  0
LINE
  8
_0-4_文字-記号
  6
CONTINUOUS
 62
    7
 10
284.04908603259912
 20
291.80233333081077
 11
325.27858703260119
 21
291.80233333081077
  0
TEXT
  8
_0-4_文字-記号
 62
    7
 10
286.32288003260021
 20
294.45962646177389
 40
10
 41
0.8
 50
0
  1
受け金具
  0
TEXT
  8
_0-4_文字-記号
 62
    7
 10
214.66595789191808
 20
147.03587711804735
 40
10
 41
0.8
 50
0
  1
（支持脚ピッチ）
  0
LINE
  8
_0-3_躯体と製品
  6
CONTINUOUS
 62
    7
 10
251.9993062252521
 20
312.96749201781489
 11
251.99930622524982
 21
309.96749201781694
  0
LINE
  8
_0-3_躯体と製品
  6
CONTINUOUS
 62
    7
 10
260.9954856281812
 20
309.9674920178158
 11
260.99548562818484
 21
312.96749201781489
  0
LINE
  8
_0-3_躯体と製品
  6
CONTINUOUS
 62
    7
 10
243.0031268223189
 20
309.96749201781694
 11
243.00312682232209
 21
312.96749201781489
  0
LINE
  8
_0-3_躯体と製品
  6
CONTINUOUS
 62
    7
 10
247.50121652378505
 20
308.96749201781489
 11
256.49739592671688
 21
308.96749201781489
  0
ARC
  8
_0-3_躯体と製品
  6
CONTINUOUS
 62
    7
 10
247.50121652378505
 20
319.58389749901193
 40
10.61640548119736
 50
244.93207904395427
 51
295.06792095604573
  0
ARC
  8
_0-3_躯体と製品
  6
CONTINUOUS
 62
    7
 10
256.49739592671688
 20
319.58389749901193
 40
10.61640548119736
 50
244.93207904395427
 51
295.06792095604573
  0
LINE
  8
_0-3_躯体と製品
  6
CONTINUOUS
 62
    7
 10
183.67810622525087
 20
227.25610701781184
 11
301.85510622525192
 21
248.09386701781082
  0
LINE
  8
_0-3_躯体と製品
  6
CONTINUOUS
 62
    7
 10
184.07750622525202
 20
224.99106701781071
 11
302.25450622525216
 21
245.82882701781082
  0
LINE
  8
_0-3_躯体と製品
  6
CONTINUOUS
 62
    4
 10
391.9993062252521
 20
260.65327103301087
 11
111.99930622525208
 21
211.28171212097587
  0
LINE
  8
_0-3_躯体と製品
  6
CENTER1
 62
    7
 10
397.9993062252521
 20
235.9674920158258
 11
251.9993062252521
 21
235.96749201781077
  0
LINE
  8
_0-3_躯体と製品
  6
CONTINUOUS
 62
    3
 10
145.23238622525204
 20
196.83307201781091
 11
161.45557622525178
 21
220.0021920178107
  0
LINE
  8
_0-3_躯体と製品
  6
CONTINUOUS
 62
    3
 10
134.09055622525111
 20
194.86846701781079
 11
150.31374622525217
 21
218.03758701781081
  0
LINE
  8
_0-3_躯体と製品
  6
CONTINUOUS
 62
    3
 10
139.66147122525317
 20
195.85076701781091
 11
155.88466122525199
 21
219.0198870178107
  0
LINE
  8
_0-3_躯体と製品
  6
CONTINUOUS
 62
    7
 10
184.24852622525088
 20
224.02120201781091
 11
183.67810622525087
 21
227.25610701781184
  0
LINE
  8
_0-3_躯体と製品
  6
CONTINUOUS
 62
    7
 10
236.9993062252521
 20
243.40854701781078
 11
266.99930622525119
 21
243.40854701781078
  0
LINE
  8
_0-3_躯体と製品
  6
CONTINUOUS
 62
    7
 10
236.3743062252521
 20
245.82916701781087
 11
267.6243062252521
 21
245.82916701781087
  0
ARC
  8
_0-3_躯体と製品
  6
CONTINUOUS
 62
    7
 10
251.9993062252521
 20
185.31380701781077
 40
62.5
 50
97.72999400001153
 51
104.47751000000919
  0
ARC
  8
_0-3_躯体と製品
  6
CONTINUOUS
 62
    7
 10
252.00470622525211
 20
185.28322701781079
 40
60
 50
104.36038999999921
 51
127.54272000001292
  0
LINE
  8
_0-3_躯体と製品
  6
CONTINUOUS
 62
    7
 10
236.9993062252521
 20
243.40850701781088
 11
236.3743062252521
 21
245.82912701781075
  0
ARC
  8
_0-3_躯体と製品
  6
CONTINUOUS
 62
    7
 10
251.9993062252521
 20
185.31380701781077
 40
62.5
 50
75.52248800001486
 51
82.270004000011312
  0
ARC
  8
_0-3_躯体と製品
  6
CONTINUOUS
 62
    7
 10
252.00470622525211
 20
185.28322701781079
 40
60
 50
72.45728299997019
 51
75.639604999972917
  0
LINE
  8
_0-3_躯体と製品
  6
CONTINUOUS
 62
    7
 10
266.99930622525119
 20
243.40854701781078
 11
267.6243062252521
 21
245.82916701781087
  0
LINE
  8
_0-3_躯体と製品
  6
CONTINUOUS
 62
    7
 10
238.99930622525301
 20
247.24584701781092
 11
264.99930622525301
 21
247.24584701781092
  0
LINE
  8
_0-3_躯体と製品
  6
CONTINUOUS
 62
    7
 10
238.99930622525301
 20
248.24584701781183
 11
264.99930622525301
 21
248.24584701781183
  0
LINE
  8
_0-3_躯体と製品
  6
CONTINUOUS
 62
    7
 10
238.99930622525301
 20
248.24584701781183
 11
238.99930622525301
 21
247.24584701781092
  0
LINE
  8
_0-3_躯体と製品
  6
CONTINUOUS
 62
    7
 10
264.99930622525301
 20
248.24584701781183
 11
264.99930622525301
 21
247.24584701781092
  0
LINE
  8
_0-3_躯体と製品
  6
CONTINUOUS
 62
    3
 10
320.60681622525192
 20
227.75631701781177
 11
336.83000622525208
 21
250.92543201781078
  0
LINE
  8
_0-3_躯体と製品
  6
CONTINUOUS
 62
    7
 10
302.42552122525206
 20
244.85899201781072
 11
301.85510622525192
 21
248.09386701781082
  0
LINE
  8
_0-3_躯体と製品
  6
CONTINUOUS
 62
    3
 10
331.74864122525207
 20
229.72092201781075
 11
347.97183622525301
 21
252.89003701781181
  0
LINE
  8
_0-3_躯体と製品
  6
CONTINUOUS
 62
    3
 10
326.17773122525216
 20
228.73861701781075
 11
342.40092122525186
 21
251.90773701781077
  0
LINE
  8
_0-3_躯体と製品
  6
CONTINUOUS
 62
    7
 10
257.99912934103907
 20
258.24584701781185
 11
245.99948310946604
 21
258.24584701781185
  0
LINE
  8
_0-3_躯体と製品
  6
CONTINUOUS
 62
    7
 10
258.9993062252521
 20
258.52784701781087
 11
258.9993062252521
 21
258.21878556266978
  0
LINE
  8
_0-3_躯体と製品
  6
CONTINUOUS
 62
    7
 10
244.99930622525301
 20
258.52784701781087
 11
258.9993062252521
 21
258.52784701781087
  0
LINE
  8
_0-3_躯体と製品
  6
CONTINUOUS
 62
    7
 10
244.99930622525301
 20
258.52784701781087
 11
244.99930622525301
 21
258.21878556266978
  0
ARC
  8
_0-3_躯体と製品
  6
CONTINUOUS
 62
    7
 10
245.99948310946604
 20
266.74237864970286
 40
18.496531631890662
 50
251.07224543109146
 51
288.92774879470448
  0
ARC
  8
_0-3_躯体と製品
  6
CONTINUOUS
 62
    7
 10
257.99912934103907
 20
266.74237864970286
 40
18.496531631890662
 50
251.07225120532217
 51
288.93059058315987
  0
ARC
  8
_0-3_躯体と製品
  6
CONTINUOUS
 62
    7
 10
245.99948310946604
 20
239.74931538591991
 40
18.496531631890662
 50
71.072251205295444
 51
108.92775456888168
  0
ARC
  8
_0-3_躯体と製品
  6
CONTINUOUS
 62
    7
 10
257.99912934103907
 20
239.74931538591991
 40
18.496531631890662
 50
71.069409416840102
 51
108.92774879467778
  0
LINE
  8
_0-3_躯体と製品
  6
CONTINUOUS
 62
    7
 10
239.99965823041487
 20
249.24598519761471
 11
239.99965823041487
 21
257.24570883800783
  0
LINE
  8
_0-3_躯体と製品
  6
CONTINUOUS
 62
    7
 10
263.9998202454932
 20
257.24541183852187
 11
263.9998202454932
 21
249.24621724842191
  0
LINE
  8
_0-3_躯体と製品
  6
CONTINUOUS
 62
    7
 10
251.99930622525801
 20
249.24598459295876
 11
251.99930622525301
 21
257.24570944266287
  0
LINE
  8
_0-3_躯体と製品
  6
CONTINUOUS
 62
    7
 10
686.1487589647578
 20
258.52784701780973
 11
700.1487589647578
 21
258.52784701780973
  0
ARC
  8
_0-3_躯体と製品
  6
CONTINUOUS
 62
    7
 10
693.1487589647578
 20
272.7478470178109
 40
24.501999999999999
 50
253.57311099999782
 51
286.42688400010547
  0
ARC
  8
_0-3_躯体と製品
  6
CONTINUOUS
 62
    7
 10
693.1487589647578
 20
233.74384701780983
 40
24.501999999999999
 50
73.573115999894569
 51
106.42688900000219
  0
LINE
  8
_0-3_躯体と製品
  6
CONTINUOUS
 62
    7
 10
703.54175896475783
 20
258.24584701781095
 11
682.75575896475777
 21
258.24584701781095
  0
LINE
  8
_0-3_躯体と製品
  6
CONTINUOUS
 62
    7
 10
686.1487589647578
 20
258.52784701780973
 11
686.1487589647578
 21
258.24584701781095
  0
ARC
  8
_0-3_躯体と製品
  6
CONTINUOUS
 62
    7
 10
682.75575896475777
 20
254.74584701781092
 40
6.5
 50
237.79652699996734
 51
302.2034679998805
  0
ARC
  8
_0-3_躯体と製品
  6
CONTINUOUS
 62
    7
 10
682.75575896475777
 20
251.74584701781092
 40
6.5
 50
57.79653200011947
 51
122.20347300003267
  0
LINE
  8
_0-3_躯体と製品
  6
CONTINUOUS
 62
    7
 10
686.21975896475817
 20
257.24584701781095
 11
686.21975896475817
 21
249.24584701781092
  0
LINE
  8
_0-3_躯体と製品
  6
CONTINUOUS
 62
    7
 10
679.29175896475783
 20
257.24584701781095
 11
679.29175896475783
 21
249.24584701781092
  0
LINE
  8
_0-3_躯体と製品
  6
CONTINUOUS
 62
    7
 10
700.1487589647578
 20
258.52784701780973
 11
700.1487589647578
 21
258.24584701781095
  0
ARC
  8
_0-3_躯体と製品
  6
CONTINUOUS
 62
    7
 10
703.54175896475783
 20
254.74584701781092
 40
6.5
 50
237.79652699996734
 51
302.2034679998805
  0
ARC
  8
_0-3_躯体と製品
  6
CONTINUOUS
 62
    7
 10
703.54175896475783
 20
251.74584701781092
 40
6.5
 50
57.79653200011947
 51
122.20347300003267
  0
LINE
  8
_0-3_躯体と製品
  6
CONTINUOUS
 62
    7
 10
700.07775896475789
 20
249.24584701781092
 11
700.07775896475789
 21
257.24584701781095
  0
LINE
  8
_0-3_躯体と製品
  6
CONTINUOUS
 62
    7
 10
707.00575896475777
 20
257.24584701781095
 11
707.00575896475777
 21
249.24584701781092
  0
LINE
  8
_0-3_躯体と製品
  6
CONTINUOUS
 62
    7
 10
680.15538772092998
 20
248.78866065222988
 11
673.02417437735005
 21
248.43734701781082
  0
LINE
  8
_0-3_躯体と製品
  6
CONTINUOUS
 62
    7
 10
673.02417437735005
 20
248.43734701781082
 11
666.10471937734985
 21
247.92675201781176
  0
LINE
  8
_0-3_躯体と製品
  6
CONTINUOUS
 62
    7
 10
666.10471937734985
 20
247.92675201781176
 11
659.60939437734999
 21
247.27001701781083
  0
LINE
  8
_0-3_躯体と製品
  6
CONTINUOUS
 62
    7
 10
659.60939437734999
 20
247.27001701781083
 11
653.64063437735115
 21
246.47748701781089
  0
LINE
  8
_0-3_躯体と製品
  6
CONTINUOUS
 62
    7
 10
653.64063437735115
 20
246.47748701781089
 11
648.29256937735011
 21
245.56167201781082
  0
LINE
  8
_0-3_躯体と製品
  6
CONTINUOUS
 62
    7
 10
648.29256937735011
 20
245.56167201781082
 11
643.64954437735116
 21
244.53701201781078
  0
LINE
  8
_0-3_躯体と製品
  6
CONTINUOUS
 62
    7
 10
643.64954437735116
 20
244.53701201781078
 11
639.78477437735103
 21
243.41966201781079
  0
LINE
  8
_0-3_躯体と製品
  6
CONTINUOUS
 62
    7
 10
639.78477437735103
 20
243.41966201781079
 11
636.75921937734995
 21
242.22724701781081
  0
LINE
  8
_0-3_躯体と製品
  6
CONTINUOUS
 62
    7
 10
636.75921937734995
 20
242.22724701781081
 11
634.62058937735003
 21
240.97857201781076
  0
LINE
  8
_0-3_躯体と製品
  6
CONTINUOUS
 62
    7
 10
634.62058937735003
 20
240.97857201781076
 11
633.40260937734877
 21
239.69332701781073
  0
LINE
  8
_0-3_躯体と製品
  6
CONTINUOUS
 62
    7
 10
633.40260937734877
 20
239.69332701781073
 11
633.12448937735019
 21
238.3917870178108
  0
LINE
  8
_0-3_躯体と製品
  6
CONTINUOUS
 62
    7
 10
633.12448937735019
 20
238.3917870178108
 11
633.7906193773498
 21
237.09447201781077
  0
LINE
  8
_0-3_躯体と製品
  6
CONTINUOUS
 62
    7
 10
633.7906193773498
 20
237.09447201781077
 11
635.39049437735105
 21
235.82184201781084
  0
LINE
  8
_0-3_躯体と製品
  6
CONTINUOUS
 62
    7
 10
635.39049437735105
 20
235.82184201781084
 11
637.8988743773499
 21
234.5939720178109
  0
LINE
  8
_0-3_躯体と製品
  6
CONTINUOUS
 62
    7
 10
637.8988743773499
 20
234.5939720178109
 11
641.27620937735003
 21
233.43022201781073
  0
LINE
  8
_0-3_躯体と製品
  6
CONTINUOUS
 62
    7
 10
641.27620937735003
 20
233.43022201781073
 11
645.46923437735006
 21
232.34894701781073
  0
LINE
  8
_0-3_躯体と製品
  6
CONTINUOUS
 62
    7
 10
645.46923437735006
 20
232.34894701781073
 11
650.41181937734893
 21
231.36719701781081
  0
LINE
  8
_0-3_躯体と製品
  6
CONTINUOUS
 62
    7
 10
650.41181937734893
 20
231.36719701781081
 11
656.02602437735015
 21
230.50045701781178
  0
LINE
  8
_0-3_躯体と製品
  6
CONTINUOUS
 62
    7
 10
656.02602437735015
 20
230.50045701781178
 11
662.22330437735093
 21
229.76239201781087
  0
LINE
  8
_0-3_躯体と製品
  6
CONTINUOUS
 62
    7
 10
662.22330437735093
 20
229.76239201781087
 11
668.90592437735097
 21
229.16464701781084
  0
LINE
  8
_0-3_躯体と製品
  6
CONTINUOUS
 62
    7
 10
668.90592437735097
 20
229.16464701781084
 11
675.96849937735089
 21
228.71664701781074
  0
LINE
  8
_0-3_躯体と製品
  6
CONTINUOUS
 62
    7
 10
675.96849937735089
 20
228.71664701781074
 11
683.29964437735009
 21
228.42545701781174
  0
LINE
  8
_0-3_躯体と製品
  6
CONTINUOUS
 62
    7
 10
683.29964437735009
 20
228.42545701781174
 11
690.78373937734989
 21
228.29566701781178
  0
LINE
  8
_0-3_躯体と製品
  6
CONTINUOUS
 62
    7
 10
690.78373937734989
 20
228.29566701781178
 11
698.30276937735118
 21
228.3293270178107
  0
LINE
  8
_0-3_躯体と製品
  6
CONTINUOUS
 62
    7
 10
698.30276937735118
 20
228.3293270178107
 11
705.73813937734997
 21
228.52590701781187
  0
LINE
  8
_0-3_躯体と製品
  6
CONTINUOUS
 62
    7
 10
705.73813937734997
 20
228.52590701781187
 11
712.97259937735009
 21
228.88230201781076
  0
LINE
  8
_0-3_躯体と製品
  6
CONTINUOUS
 62
    7
 10
712.97259937735009
 20
228.88230201781076
 11
719.8920543773512
 21
229.39289701781072
  0
LINE
  8
_0-3_躯体と製品
  6
CONTINUOUS
 62
    7
 10
719.8920543773512
 20
229.39289701781072
 11
726.38737937735016
 21
230.04963701781176
  0
LINE
  8
_0-3_躯体と製品
  6
CONTINUOUS
 62
    7
 10
726.38737937735016
 20
230.04963701781176
 11
732.35613937735081
 21
230.84216201781069
  0
LINE
  8
_0-3_躯体と製品
  6
CONTINUOUS
 62
    7
 10
732.35613937735081
 20
230.84216201781069
 11
737.70420437735004
 21
231.7579770178119
  0
LINE
  8
_0-3_躯体と製品
  6
CONTINUOUS
 62
    7
 10
737.70420437735004
 20
231.7579770178119
 11
742.34722937734989
 21
232.7826420178109
  0
LINE
  8
_0-3_躯体と製品
  6
CONTINUOUS
 62
    7
 10
742.34722937734989
 20
232.7826420178109
 11
746.21199937735003
 21
233.89999201781089
  0
LINE
  8
_0-3_躯体と製品
  6
CONTINUOUS
 62
    7
 10
746.21199937735003
 20
233.89999201781089
 11
749.23755437735019
 21
235.09240701781178
  0
LINE
  8
_0-3_躯体と製品
  6
CONTINUOUS
 62
    7
 10
749.23755437735019
 20
235.09240701781178
 11
751.37618437735102
 21
236.34108201781069
  0
LINE
  8
_0-3_躯体と製品
  6
CONTINUOUS
 62
    7
 10
751.37618437735102
 20
236.34108201781069
 11
752.59416437735092
 21
237.62632201781085
  0
LINE
  8
_0-3_躯体と製品
  6
CONTINUOUS
 62
    7
 10
752.59416437735092
 20
237.62632201781085
 11
752.87227937735099
 21
238.92786701781088
  0
LINE
  8
_0-3_躯体と製品
  6
CONTINUOUS
 62
    7
 10
752.87227937735099
 20
238.92786701781088
 11
752.20615437734989
 21
240.22517701781172
  0
LINE
  8
_0-3_躯体と製品
  6
CONTINUOUS
 62
    7
 10
752.20615437734989
 20
240.22517701781172
 11
750.60627937735001
 21
241.49780701781074
  0
LINE
  8
_0-3_躯体と製品
  6
CONTINUOUS
 62
    7
 10
750.60627937735001
 20
241.49780701781074
 11
748.09789937735115
 21
242.72567701781182
  0
LINE
  8
_0-3_躯体と製品
  6
CONTINUOUS
 62
    7
 10
748.09789937735115
 20
242.72567701781182
 11
744.72056437735102
 21
243.88942701781085
  0
LINE
  8
_0-3_躯体と製品
  6
CONTINUOUS
 62
    7
 10
744.72056437735102
 20
243.88942701781085
 11
740.52753937734917
 21
244.97070701781072
  0
LINE
  8
_0-3_躯体と製品
  6
CONTINUOUS
 62
    7
 10
740.52753937734917
 20
244.97070701781072
 11
735.58495437735121
 21
245.95245701781178
  0
LINE
  8
_0-3_躯体と製品
  6
CONTINUOUS
 62
    7
 10
735.58495437735121
 20
245.95245701781178
 11
729.97074937734999
 21
246.81919701781081
  0
LINE
  8
_0-3_躯体と製品
  6
CONTINUOUS
 62
    7
 10
729.97074937734999
 20
246.81919701781081
 11
723.77346937735012
 21
247.55726201781172
  0
LINE
  8
_0-3_躯体と製品
  6
CONTINUOUS
 62
    7
 10
723.77346937735012
 20
247.55726201781172
 11
717.09084937735008
 21
248.15500701781176
  0
LINE
  8
_0-3_躯体と製品
  6
CONTINUOUS
 62
    7
 10
717.09084937735008
 20
248.15500701781176
 11
710.02827437735016
 21
248.60300701781071
  0
LINE
  8
_0-3_躯体と製品
  6
CONTINUOUS
 62
    7
 10
710.02827437735016
 20
248.60300701781071
 11
706.11779146302308
 21
248.77809563492988
  0
LINE
  8
_0-3_躯体と製品
  6
CONTINUOUS
 62
    7
 10
633.12448937735019
 20
238.3917870178108
 11
633.12448937735019
 21
236.09178701781084
  0
ARC
  8
_0-3_躯体と製品
  6
CONTINUOUS
 62
    7
 10
693.10448437734988
 20
185.31380701781077
 40
62.5
 50
97.729994000011658
 51
104.4775100000092
  0
LINE
  8
_0-3_躯体と製品
  6
CONTINUOUS
 62
    7
 10
677.47948437734988
 20
245.82916701781087
 11
708.72948437734988
 21
245.82916701781087
  0
LINE
  8
_0-3_躯体と製品
  6
CONTINUOUS
 62
    7
 10
678.10448437734988
 20
243.40854701781078
 11
677.47948437734988
 21
245.82916701781087
  0
ARC
  8
_0-3_躯体と製品
  6
CONTINUOUS
 62
    7
 10
693.10448437734988
 20
185.31380701781077
 40
62.5
 50
75.52248800001496
 51
82.270004000011483
  0
LINE
  8
_0-3_躯体と製品
  6
CONTINUOUS
 62
    7
 10
678.10448437734988
 20
243.40854701781078
 11
708.10448437734988
 21
243.40854701781078
  0
LINE
  8
_0-3_躯体と製品
  6
CONTINUOUS
 62
    7
 10
697.7764843773499
 20
237.3140873471838
 11
698.87868437735017
 21
237.75862734718285
  0
LINE
  8
_0-3_躯体と製品
  6
CONTINUOUS
 62
    7
 10
685.61346937735118
 20
239.07436734718286
 11
700.5978293773511
 21
239.07436734718286
  0
LINE
  8
_0-3_躯体と製品
  6
CONTINUOUS
 62
    7
 10
687.31208437735006
 20
237.76742734718292
 11
688.41128437735017
 21
237.32122734718283
  0
LINE
  8
_0-3_躯体と製品
  6
CONTINUOUS
 62
    7
 10
685.10448437734988
 20
243.40854701781078
 11
685.10448437735079
 21
240.33060734718279
  0
LINE
  8
_0-3_躯体と製品
  6
CONTINUOUS
 62
    7
 10
686.29668437734983
 20
238.37890734718272
 11
687.31208437735006
 21
237.76742734718292
  0
LINE
  8
_0-3_躯体と製品
  6
CONTINUOUS
 62
    7
 10
685.46968437735097
 20
239.22072734718282
 11
686.29668437734983
 21
238.37890734718272
  0
LINE
  8
_0-3_躯体と製品
  6
CONTINUOUS
 62
    7
 10
685.10448437735079
 20
240.33060734718279
 11
685.46968437735097
 21
239.22072734718282
  0
LINE
  8
_0-3_躯体と製品
  6
CONTINUOUS
 62
    7
 10
696.63148437735083
 20
236.99518734718291
 11
697.7764843773499
 21
237.3140873471838
  0
LINE
  8
_0-3_躯体と製品
  6
CONTINUOUS
 62
    7
 10
695.4604843773501
 20
236.77932734718289
 11
696.63148437735083
 21
236.99518734718291
  0
LINE
  8
_0-3_躯体と製品
  6
CONTINUOUS
 62
    7
 10
694.27928437735102
 20
236.65484734718385
 11
695.4604843773501
 21
236.77932734718289
  0
LINE
  8
_0-3_躯体と製品
  6
CONTINUOUS
 62
    7
 10
693.09408437735112
 20
236.61454734718282
 11
694.27928437735102
 21
236.65484734718385
  0
LINE
  8
_0-3_躯体と製品
  6
CONTINUOUS
 62
    7
 10
691.90588437735107
 20
236.65648734718289
 11
693.09408437735112
 21
236.61454734718282
  0
LINE
  8
_0-3_躯体と製品
  6
CONTINUOUS
 62
    7
 10
690.72388437735083
 20
236.78290734718271
 11
691.90588437735107
 21
236.65648734718289
  0
LINE
  8
_0-3_躯体と製品
  6
CONTINUOUS
 62
    7
 10
689.55528437735086
 20
237.00028734718276
 11
690.72388437735083
 21
236.78290734718271
  0
LINE
  8
_0-3_躯体と製品
  6
CONTINUOUS
 62
    7
 10
688.41128437735017
 20
237.32122734718283
 11
689.55528437735086
 21
237.00028734718276
  0
LINE
  8
_0-3_躯体と製品
  6
CONTINUOUS
 62
    7
 10
708.10448437734988
 20
243.40854701781078
 11
708.72948437734988
 21
245.82916701781087
  0
LINE
  8
_0-3_躯体と製品
  6
CONTINUOUS
 62
    7
 10
701.10448437734897
 20
243.40854701781078
 11
701.10448437734988
 21
240.33060734718279
  0
LINE
  8
_0-3_躯体と製品
  6
CONTINUOUS
 62
    7
 10
700.73188437735109
 20
239.20966734718277
 11
701.10448437734988
 21
240.3208273471827
  0
LINE
  8
_0-3_躯体と製品
  6
CONTINUOUS
 62
    7
 10
699.89828437735116
 20
238.36832734718283
 11
700.73188437735109
 21
239.20966734718277
  0
LINE
  8
_0-3_躯体と製品
  6
CONTINUOUS
 62
    7
 10
698.87868437735017
 20
237.75862734718285
 11
699.89828437735116
 21
238.36832734718283
  0
LINE
  8
_0-3_躯体と製品
  6
CONTINUOUS
 62
    7
 10
705.00148437735118
 20
248.24584701781183
 11
681.20748437734994
 21
248.24584701781183
  0
LINE
  8
_0-3_躯体と製品
  6
CONTINUOUS
 62
    7
 10
680.10448437735079
 20
248.24584701781183
 11
706.10448437734988
 21
248.24584701781183
  0
LINE
  8
_0-3_躯体と製品
  6
CONTINUOUS
 62
    7
 10
680.10448437735079
 20
247.24584701781092
 11
706.10448437734988
 21
247.24584701781092
  0
LINE
  8
_0-3_躯体と製品
  6
CONTINUOUS
 62
    7
 10
680.10448437735079
 20
248.24584701781183
 11
680.10448437735079
 21
247.24584701781092
  0
LINE
  8
_0-3_躯体と製品
  6
CONTINUOUS
 62
    7
 10
706.10448437734988
 20
248.24584701781183
 11
706.10448437734988
 21
247.24584701781092
  0
LINE
  8
_0-3_躯体と製品
  6
CONTINUOUS
 62
    7
 10
752.87227937735099
 20
238.92786701781088
 11
752.87227937735099
 21
236.6278670178107
  0
LINE
  8
_0-3_躯体と製品
  6
CONTINUOUS
 62
    7
 10
633.12448937735019
 20
236.09178701781084
 11
633.7906193773498
 21
234.79447201781082
  0
LINE
  8
_0-3_躯体と製品
  6
CONTINUOUS
 62
    7
 10
633.7906193773498
 20
234.79447201781082
 11
635.39049437735105
 21
233.52184201780975
  0
LINE
  8
_0-3_躯体と製品
  6
CONTINUOUS
 62
    7
 10
635.39049437735105
 20
233.52184201780975
 11
637.8988743773499
 21
232.29397201781072
  0
LINE
  8
_0-3_躯体と製品
  6
CONTINUOUS
 62
    7
 10
637.8988743773499
 20
232.29397201781072
 11
641.27620937735003
 21
231.13022201781078
  0
LINE
  8
_0-3_躯体と製品
  6
CONTINUOUS
 62
    7
 10
641.27620937735003
 20
231.13022201781078
 11
645.46923437735006
 21
230.04894701781078
  0
LINE
  8
_0-3_躯体と製品
  6
CONTINUOUS
 62
    7
 10
645.46923437735006
 20
230.04894701781078
 11
650.41181937734893
 21
229.06719701781086
  0
LINE
  8
_0-3_躯体と製品
  6
CONTINUOUS
 62
    7
 10
650.41181937734893
 20
229.06719701781086
 11
656.02602437735015
 21
228.20045701781069
  0
LINE
  8
_0-3_躯体と製品
  6
CONTINUOUS
 62
    7
 10
656.02602437735015
 20
228.20045701781069
 11
662.22330437735093
 21
227.46239201781091
  0
LINE
  8
_0-3_躯体と製品
  6
CONTINUOUS
 62
    7
 10
662.22330437735093
 20
227.46239201781091
 11
668.90592437735097
 21
226.86464701781088
  0
LINE
  8
_0-3_躯体と製品
  6
CONTINUOUS
 62
    7
 10
668.90592437735097
 20
226.86464701781088
 11
675.96849937735089
 21
226.41664701781079
  0
LINE
  8
_0-3_躯体と製品
  6
CONTINUOUS
 62
    7
 10
675.96849937735089
 20
226.41664701781079
 11
683.29964437735009
 21
226.12545701781178
  0
LINE
  8
_0-3_躯体と製品
  6
CONTINUOUS
 62
    7
 10
683.29964437735009
 20
226.12545701781178
 11
690.78373937734989
 21
225.99566701781183
  0
LINE
  8
_0-3_躯体と製品
  6
CONTINUOUS
 62
    7
 10
690.78373937734989
 20
225.99566701781183
 11
698.30276937735118
 21
226.02932701781074
  0
LINE
  8
_0-3_躯体と製品
  6
CONTINUOUS
 62
    7
 10
698.30276937735118
 20
226.02932701781074
 11
705.73813937734997
 21
226.22590701781078
  0
LINE
  8
_0-3_躯体と製品
  6
CONTINUOUS
 62
    7
 10
705.73813937734997
 20
226.22590701781078
 11
712.97259937735009
 21
226.5823020178108
  0
LINE
  8
_0-3_躯体と製品
  6
CONTINUOUS
 62
    7
 10
712.97259937735009
 20
226.5823020178108
 11
719.8920543773512
 21
227.09289701781077
  0
LINE
  8
_0-3_躯体と製品
  6
CONTINUOUS
 62
    7
 10
719.8920543773512
 20
227.09289701781077
 11
726.38737937735016
 21
227.7496370178109
  0
LINE
  8
_0-3_躯体と製品
  6
CONTINUOUS
 62
    7
 10
726.38737937735016
 20
227.7496370178109
 11
732.35613937735081
 21
228.54216201781074
  0
LINE
  8
_0-3_躯体と製品
  6
CONTINUOUS
 62
    7
 10
732.35613937735081
 20
228.54216201781074
 11
737.70420437735004
 21
229.4579770178108
  0
LINE
  8
_0-3_躯体と製品
  6
CONTINUOUS
 62
    7
 10
737.70420437735004
 20
229.4579770178108
 11
742.34722937734989
 21
230.48264201781072
  0
LINE
  8
_0-3_躯体と製品
  6
CONTINUOUS
 62
    7
 10
742.34722937734989
 20
230.48264201781072
 11
746.21199937735003
 21
231.59999201781071
  0
LINE
  8
_0-3_躯体と製品
  6
CONTINUOUS
 62
    7
 10
746.21199937735003
 20
231.59999201781071
 11
749.23755437735019
 21
232.79240701781092
  0
LINE
  8
_0-3_躯体と製品
  6
CONTINUOUS
 62
    7
 10
749.23755437735019
 20
232.79240701781092
 11
751.37618437735102
 21
234.04108201781074
  0
LINE
  8
_0-3_躯体と製品
  6
CONTINUOUS
 62
    7
 10
751.37618437735102
 20
234.04108201781074
 11
752.59416437735092
 21
235.32632201780976
  0
LINE
  8
_0-3_躯体と製品
  6
CONTINUOUS
 62
    7
 10
752.59416437735092
 20
235.32632201780976
 11
752.87227937735099
 21
236.6278670178107
  0
LINE
  8
_0-4_文字-記号
  6
CONTINUOUS
 62
    7
 10
236.15134251600114
 20
235.01301311208877
 11
224.16426372280705
 21
255.71056803935372
  0
LINE
  8
_0-4_文字-記号
  6
CONTINUOUS
 62
    7
 10
224.16426372280705
 20
255.71056803935372
 11
175.95710533853719
 21
255.71056803935372
  0
TEXT
  8
_0-4_文字-記号
 62
    7
 10
177.02745849169708
 20
257.61377641302482
 40
10
 41
0.8
 50
0
  1
ベース金具
  0
LINE
  8
_0-4_文字-記号
  6
CONTINUOUS
 62
    7
 10
666.09723896004118
 20
242.21999798909579
 11
657.20906996004089
 21
257.61475798909572
  0
LINE
  8
_0-4_文字-記号
  6
CONTINUOUS
 62
    7
 10
657.20906996004089
 20
257.61475798909572
 11
610.4427673615811
 21
257.61475798909572
  0
TEXT
  8
_0-4_文字-記号
 62
    7
 10
610.72727032462183
 20
260.16882798909586
 40
10
 41
0.8
 50
0
  1
ベース金具
  0
LINE
  8
_0-3_躯体と製品
  6
CONTINUOUS
 62
    7
 10
698.14875789567816
 20
231.19296701781073
 11
698.14875789567816
 21
231.19296701781073
  0
LINE
  8
_0-3_躯体と製品
  6
CONTINUOUS
 62
    7
 10
698.14875789567816
 20
231.19296701781073
 11
698.07279666073919
 21
231.34373523007497
  0
LINE
  8
_0-3_躯体と製品
  6
CONTINUOUS
 62
    7
 10
698.07279666073919
 20
231.34373523007497
 11
697.84722099960777
 21
231.48992242650195
  0
LINE
  8
_0-3_躯体と製品
  6
CONTINUOUS
 62
    7
 10
697.84722099960777
 20
231.48992242650195
 11
697.47888491460048
 21
231.62708678310256
  0
LINE
  8
_0-3_躯体と製品
  6
CONTINUOUS
 62
    7
 10
697.47888491460048
 20
231.62708678310256
 11
696.97898011127324
 21
231.75106063030995
  0
LINE
  8
_0-3_躯体と製品
  6
CONTINUOUS
 62
    7
 10
696.97898011127324
 20
231.75106063030995
 11
696.36269594411112
 21
231.85807708551056
  0
LINE
  8
_0-3_躯体と製品
  6
CONTINUOUS
 62
    7
 10
696.36269594411112
 20
231.85807708551056
 11
695.64875789567861
 21
231.94488450786605
  0
LINE
  8
_0-3_躯体と製品
  6
CONTINUOUS
 62
    7
 10
695.64875789567861
 20
231.94488450786605
 11
694.85885861230713
 21
232.0088452977748
  0
LINE
  8
_0-3_躯体と製品
  6
CONTINUOUS
 62
    7
 10
694.85885861230713
 20
232.0088452977748
 11
694.01699878401359
 21
232.0480160390012
  0
LINE
  8
_0-3_躯体と製品
  6
CONTINUOUS
 62
    7
 10
694.01699878401359
 20
232.0480160390012
 11
693.14875789567907
 21
232.06120654839438
  0
LINE
  8
_0-3_躯体と製品
  6
CONTINUOUS
 62
    7
 10
693.14875789567907
 20
232.06120654839438
 11
692.28051700734454
 21
232.0480160390012
  0
LINE
  8
_0-3_躯体と製品
  6
CONTINUOUS
 62
    7
 10
692.28051700734454
 20
232.0480160390012
 11
691.43865717905101
 21
232.0088452977748
  0
LINE
  8
_0-3_躯体と製品
  6
CONTINUOUS
 62
    7
 10
691.43865717905101
 20
232.0088452977748
 11
690.64875789567952
 21
231.94488450786605
  0
LINE
  8
_0-3_躯体と製品
  6
CONTINUOUS
 62
    7
 10
690.64875789567952
 20
231.94488450786605
 11
689.93481984724701
 21
231.85807708551056
  0
LINE
  8
_0-3_躯体と製品
  6
CONTINUOUS
 62
    7
 10
689.93481984724701
 20
231.85807708551056
 11
689.31853568008489
 21
231.75106063030995
  0
LINE
  8
_0-3_躯体と製品
  6
CONTINUOUS
 62
    7
 10
689.31853568008489
 20
231.75106063030995
 11
688.81863087675765
 21
231.62708678310256
  0
LINE
  8
_0-3_躯体と製品
  6
CONTINUOUS
 62
    7
 10
688.81863087675765
 20
231.62708678310256
 11
688.45029479175037
 21
231.48992242650195
  0
LINE
  8
_0-3_躯体と製品
  6
CONTINUOUS
 62
    7
 10
688.45029479175037
 20
231.48992242650195
 11
688.22471913061895
 21
231.34373523007497
  0
LINE
  8
_0-3_躯体と製品
  6
CONTINUOUS
 62
    7
 10
688.22471913061895
 20
231.34373523007497
 11
688.14875789567998
 21
231.19296701781073
  0
LINE
  8
_0-3_躯体と製品
  6
CONTINUOUS
 62
    7
 10
688.14875789567998
 20
231.19296701781073
 11
688.22471913061895
 21
231.04219880554649
  0
LINE
  8
_0-3_躯体と製品
  6
CONTINUOUS
 62
    7
 10
688.22471913061895
 20
231.04219880554649
 11
688.45029479175037
 21
230.89601160911951
  0
LINE
  8
_0-3_躯体と製品
  6
CONTINUOUS
 62
    7
 10
688.45029479175037
 20
230.89601160911951
 11
688.81863087675765
 21
230.7588472525189
  0
LINE
  8
_0-3_躯体と製品
  6
CONTINUOUS
 62
    7
 10
688.81863087675765
 20
230.7588472525189
 11
689.31853568008489
 21
230.63487340531151
  0
LINE
  8
_0-3_躯体と製品
  6
CONTINUOUS
 62
    7
 10
689.31853568008489
 20
230.63487340531151
 11
689.9348198472469
 21
230.5278569501109
  0
LINE
  8
_0-3_躯体と製品
  6
CONTINUOUS
 62
    7
 10
689.9348198472469
 20
230.5278569501109
 11
690.64875789567952
 21
230.44104952775541
  0
LINE
  8
_0-3_躯体と製品
  6
CONTINUOUS
 62
    7
 10
690.64875789567952
 20
230.44104952775541
 11
691.43865717905101
 21
230.37708873784666
  0
LINE
  8
_0-3_躯体と製品
  6
CONTINUOUS
 62
    7
 10
691.43865717905101
 20
230.37708873784666
 11
692.28051700734454
 21
230.33791799662026
  0
LINE
  8
_0-3_躯体と製品
  6
CONTINUOUS
 62
    7
 10
692.28051700734454
 20
230.33791799662026
 11
693.14875789567907
 21
230.32472748722708
  0
LINE
  8
_0-3_躯体と製品
  6
CONTINUOUS
 62
    7
 10
693.14875789567907
 20
230.32472748722708
 11
694.01699878401359
 21
230.33791799662026
  0
LINE
  8
_0-3_躯体と製品
  6
CONTINUOUS
 62
    7
 10
694.01699878401359
 20
230.33791799662026
 11
694.85885861230713
 21
230.37708873784666
  0
LINE
  8
_0-3_躯体と製品
  6
CONTINUOUS
 62
    7
 10
694.85885861230713
 20
230.37708873784666
 11
695.64875789567861
 21
230.44104952775541
  0
LINE
  8
_0-3_躯体と製品
  6
CONTINUOUS
 62
    7
 10
695.64875789567861
 20
230.44104952775541
 11
696.36269594411112
 21
230.5278569501109
  0
LINE
  8
_0-3_躯体と製品
  6
CONTINUOUS
 62
    7
 10
696.36269594411112
 20
230.5278569501109
 11
696.97898011127324
 21
230.63487340531151
  0
LINE
  8
_0-3_躯体と製品
  6
CONTINUOUS
 62
    7
 10
696.97898011127324
 20
230.63487340531151
 11
697.47888491460048
 21
230.7588472525189
  0
LINE
  8
_0-3_躯体と製品
  6
CONTINUOUS
 62
    7
 10
697.47888491460048
 20
230.7588472525189
 11
697.84722099960777
 21
230.89601160911948
  0
LINE
  8
_0-3_躯体と製品
  6
CONTINUOUS
 62
    7
 10
697.84722099960777
 20
230.89601160911948
 11
698.07279666073919
 21
231.04219880554649
  0
LINE
  8
_0-3_躯体と製品
  6
CONTINUOUS
 62
    7
 10
698.07279666073919
 20
231.04219880554649
 11
698.14875789567816
 21
231.19296701781073
  0
LINE
  8
_0-3_躯体と製品
  6
CONTINUOUS
 62
    7
 10
698.14875789567816
 20
231.19296701781073
 11
698.14875789567816
 21
231.19296701781073
  0
LINE
  8
_0-3_躯体と製品
  6
CONTINUOUS
 62
    7
 10
741.10448437734897
 20
238.65982701781073
 11
741.10448437734897
 21
238.65982701781073
  0
LINE
  8
_0-3_躯体と製品
  6
CONTINUOUS
 62
    7
 10
741.10448437734897
 20
238.65982701781073
 11
741.02852314240999
 21
238.81059523007497
  0
LINE
  8
_0-3_躯体と製品
  6
CONTINUOUS
 62
    7
 10
741.02852314240999
 20
238.81059523007497
 11
740.80294748127858
 21
238.95678242650195
  0
LINE
  8
_0-3_躯体と製品
  6
CONTINUOUS
 62
    7
 10
740.80294748127858
 20
238.95678242650195
 11
740.43461139627129
 21
239.09394678310255
  0
LINE
  8
_0-3_躯体と製品
  6
CONTINUOUS
 62
    7
 10
740.43461139627129
 20
239.09394678310255
 11
739.93470659294405
 21
239.21792063030995
  0
LINE
  8
_0-3_躯体と製品
  6
CONTINUOUS
 62
    7
 10
739.93470659294405
 20
239.21792063030995
 11
739.31842242578193
 21
239.32493708551056
  0
LINE
  8
_0-3_躯体と製品
  6
CONTINUOUS
 62
    7
 10
739.31842242578193
 20
239.32493708551056
 11
738.60448437734942
 21
239.41174450786605
  0
LINE
  8
_0-3_躯体と製品
  6
CONTINUOUS
 62
    7
 10
738.60448437734942
 20
239.41174450786605
 11
737.81458509397794
 21
239.47570529777479
  0
LINE
  8
_0-3_躯体と製品
  6
CONTINUOUS
 62
    7
 10
737.81458509397794
 20
239.47570529777479
 11
736.9727252656844
 21
239.51487603900119
  0
LINE
  8
_0-3_躯体と製品
  6
CONTINUOUS
 62
    7
 10
736.9727252656844
 20
239.51487603900119
 11
736.10448437734988
 21
239.52806654839438
  0
LINE
  8
_0-3_躯体と製品
  6
CONTINUOUS
 62
    7
 10
736.10448437734988
 20
239.52806654839438
 11
735.23624348901535
 21
239.51487603900119
  0
LINE
  8
_0-3_躯体と製品
  6
CONTINUOUS
 62
    7
 10
735.23624348901535
 20
239.51487603900119
 11
734.39438366072181
 21
239.47570529777479
  0
LINE
  8
_0-3_躯体と製品
  6
CONTINUOUS
 62
    7
 10
734.39438366072181
 20
239.47570529777479
 11
733.60448437735033
 21
239.41174450786605
  0
LINE
  8
_0-3_躯体と製品
  6
CONTINUOUS
 62
    7
 10
733.60448437735033
 20
239.41174450786605
 11
732.89054632891782
 21
239.32493708551056
  0
LINE
  8
_0-3_躯体と製品
  6
CONTINUOUS
 62
    7
 10
732.89054632891782
 20
239.32493708551056
 11
732.2742621617557
 21
239.21792063030995
  0
LINE
  8
_0-3_躯体と製品
  6
CONTINUOUS
 62
    7
 10
732.2742621617557
 20
239.21792063030995
 11
731.77435735842846
 21
239.09394678310255
  0
LINE
  8
_0-3_躯体と製品
  6
CONTINUOUS
 62
    7
 10
731.77435735842846
 20
239.09394678310255
 11
731.40602127342117
 21
238.95678242650195
  0
LINE
  8
_0-3_躯体と製品
  6
CONTINUOUS
 62
    7
 10
731.40602127342117
 20
238.95678242650195
 11
731.18044561228976
 21
238.81059523007497
  0
LINE
  8
_0-3_躯体と製品
  6
CONTINUOUS
 62
    7
 10
731.18044561228976
 20
238.81059523007497
 11
731.10448437735079
 21
238.65982701781073
  0
LINE
  8
_0-3_躯体と製品
  6
CONTINUOUS
 62
    7
 10
731.10448437735079
 20
238.65982701781073
 11
731.18044561228976
 21
238.50905880554649
  0
LINE
  8
_0-3_躯体と製品
  6
CONTINUOUS
 62
    7
 10
731.18044561228976
 20
238.50905880554649
 11
731.40602127342117
 21
238.36287160911951
  0
LINE
  8
_0-3_躯体と製品
  6
CONTINUOUS
 62
    7
 10
731.40602127342117
 20
238.36287160911951
 11
731.77435735842846
 21
238.2257072525189
  0
LINE
  8
_0-3_躯体と製品
  6
CONTINUOUS
 62
    7
 10
731.77435735842846
 20
238.2257072525189
 11
732.2742621617557
 21
238.10173340531151
  0
LINE
  8
_0-3_躯体と製品
  6
CONTINUOUS
 62
    7
 10
732.2742621617557
 20
238.10173340531151
 11
732.89054632891771
 21
237.9947169501109
  0
LINE
  8
_0-3_躯体と製品
  6
CONTINUOUS
 62
    7
 10
732.89054632891771
 20
237.9947169501109
 11
733.60448437735033
 21
237.90790952775541
  0
LINE
  8
_0-3_躯体と製品
  6
CONTINUOUS
 62
    7
 10
733.60448437735033
 20
237.90790952775541
 11
734.39438366072181
 21
237.84394873784666
  0
LINE
  8
_0-3_躯体と製品
  6
CONTINUOUS
 62
    7
 10
734.39438366072181
 20
237.84394873784666
 11
735.23624348901535
 21
237.80477799662026
  0
LINE
  8
_0-3_躯体と製品
  6
CONTINUOUS
 62
    7
 10
735.23624348901535
 20
237.80477799662026
 11
736.10448437734988
 21
237.79158748722708
  0
LINE
  8
_0-3_躯体と製品
  6
CONTINUOUS
 62
    7
 10
736.10448437734988
 20
237.79158748722708
 11
736.9727252656844
 21
237.80477799662026
  0
LINE
  8
_0-3_躯体と製品
  6
CONTINUOUS
 62
    7
 10
736.9727252656844
 20
237.80477799662026
 11
737.81458509397794
 21
237.84394873784666
  0
LINE
  8
_0-3_躯体と製品
  6
CONTINUOUS
 62
    7
 10
737.81458509397794
 20
237.84394873784666
 11
738.60448437734942
 21
237.90790952775541
  0
LINE
  8
_0-3_躯体と製品
  6
CONTINUOUS
 62
    7
 10
738.60448437734942
 20
237.90790952775541
 11
739.31842242578193
 21
237.9947169501109
  0
LINE
  8
_0-3_躯体と製品
  6
CONTINUOUS
 62
    7
 10
739.31842242578193
 20
237.9947169501109
 11
739.93470659294405
 21
238.10173340531151
  0
LINE
  8
_0-3_躯体と製品
  6
CONTINUOUS
 62
    7
 10
739.93470659294405
 20
238.10173340531151
 11
740.43461139627129
 21
238.2257072525189
  0
LINE
  8
_0-3_躯体と製品
  6
CONTINUOUS
 62
    7
 10
740.43461139627129
 20
238.2257072525189
 11
740.80294748127858
 21
238.36287160911948
  0
LINE
  8
_0-3_躯体と製品
  6
CONTINUOUS
 62
    7
 10
740.80294748127858
 20
238.36287160911948
 11
741.02852314240999
 21
238.50905880554649
  0
LINE
  8
_0-3_躯体と製品
  6
CONTINUOUS
 62
    7
 10
741.02852314240999
 20
238.50905880554649
 11
741.10448437734897
 21
238.65982701781073
  0
LINE
  8
_0-3_躯体と製品
  6
CONTINUOUS
 62
    7
 10
741.10448437734897
 20
238.65982701781073
 11
741.10448437734897
 21
238.65982701781073
  0
LINE
  8
_0-3_躯体と製品
  6
CONTINUOUS
 62
    7
 10
728.2764843773499
 20
243.97994701781082
 11
728.2764843773499
 21
243.97994701781082
  0
LINE
  8
_0-3_躯体と製品
  6
CONTINUOUS
 62
    7
 10
728.2764843773499
 20
243.97994701781082
 11
728.20052314241093
 21
244.13071523007505
  0
LINE
  8
_0-3_躯体と製品
  6
CONTINUOUS
 62
    7
 10
728.20052314241093
 20
244.13071523007505
 11
727.97494748127951
 21
244.27690242650203
  0
LINE
  8
_0-3_躯体と製品
  6
CONTINUOUS
 62
    7
 10
727.97494748127951
 20
244.27690242650203
 11
727.60661139627223
 21
244.41406678310264
  0
LINE
  8
_0-3_躯体と製品
  6
CONTINUOUS
 62
    7
 10
727.60661139627223
 20
244.41406678310264
 11
727.10670659294499
 21
244.53804063031004
  0
LINE
  8
_0-3_躯体と製品
  6
CONTINUOUS
 62
    7
 10
727.10670659294499
 20
244.53804063031004
 11
726.49042242578287
 21
244.64505708551064
  0
LINE
  8
_0-3_躯体と製品
  6
CONTINUOUS
 62
    7
 10
726.49042242578287
 20
244.64505708551064
 11
725.77648437735036
 21
244.73186450786613
  0
LINE
  8
_0-3_躯体と製品
  6
CONTINUOUS
 62
    7
 10
725.77648437735036
 20
244.73186450786613
 11
724.98658509397887
 21
244.79582529777488
  0
LINE
  8
_0-3_躯体と製品
  6
CONTINUOUS
 62
    7
 10
724.98658509397887
 20
244.79582529777488
 11
724.14472526568534
 21
244.83499603900128
  0
LINE
  8
_0-3_躯体と製品
  6
CONTINUOUS
 62
    7
 10
724.14472526568534
 20
244.83499603900128
 11
723.27648437735081
 21
244.84818654839447
  0
LINE
  8
_0-3_躯体と製品
  6
CONTINUOUS
 62
    7
 10
723.27648437735081
 20
244.84818654839447
 11
722.40824348901629
 21
244.83499603900128
  0
LINE
  8
_0-3_躯体と製品
  6
CONTINUOUS
 62
    7
 10
722.40824348901629
 20
244.83499603900128
 11
721.56638366072275
 21
244.79582529777488
  0
LINE
  8
_0-3_躯体と製品
  6
CONTINUOUS
 62
    7
 10
721.56638366072275
 20
244.79582529777488
 11
720.77648437735127
 21
244.73186450786613
  0
LINE
  8
_0-3_躯体と製品
  6
CONTINUOUS
 62
    7
 10
720.77648437735127
 20
244.73186450786613
 11
720.06254632891876
 21
244.64505708551064
  0
LINE
  8
_0-3_躯体と製品
  6
CONTINUOUS
 62
    7
 10
720.06254632891876
 20
244.64505708551064
 11
719.44626216175664
 21
244.53804063031004
  0
LINE
  8
_0-3_躯体と製品
  6
CONTINUOUS
 62
    7
 10
719.44626216175664
 20
244.53804063031004
 11
718.9463573584294
 21
244.41406678310264
  0
LINE
  8
_0-3_躯体と製品
  6
CONTINUOUS
 62
    7
 10
718.9463573584294
 20
244.41406678310264
 11
718.57802127342211
 21
244.27690242650203
  0
LINE
  8
_0-3_躯体と製品
  6
CONTINUOUS
 62
    7
 10
718.57802127342211
 20
244.27690242650203
 11
718.35244561229069
 21
244.13071523007505
  0
LINE
  8
_0-3_躯体と製品
  6
CONTINUOUS
 62
    7
 10
718.35244561229069
 20
244.13071523007505
 11
718.27648437735172
 21
243.97994701781082
  0
LINE
  8
_0-3_躯体と製品
  6
CONTINUOUS
 62
    7
 10
718.27648437735172
 20
243.97994701781082
 11
718.35244561229069
 21
243.82917880554658
  0
LINE
  8
_0-3_躯体と製品
  6
CONTINUOUS
 62
    7
 10
718.35244561229069
 20
243.82917880554658
 11
718.57802127342211
 21
243.6829916091196
  0
LINE
  8
_0-3_躯体と製品
  6
CONTINUOUS
 62
    7
 10
718.57802127342211
 20
243.6829916091196
 11
718.9463573584294
 21
243.54582725251899
  0
LINE
  8
_0-3_躯体と製品
  6
CONTINUOUS
 62
    7
 10
718.9463573584294
 20
243.54582725251899
 11
719.44626216175664
 21
243.42185340531159
  0
LINE
  8
_0-3_躯体と製品
  6
CONTINUOUS
 62
    7
 10
719.44626216175664
 20
243.42185340531159
 11
720.06254632891864
 21
243.31483695011099
  0
LINE
  8
_0-3_躯体と製品
  6
CONTINUOUS
 62
    7
 10
720.06254632891864
 20
243.31483695011099
 11
720.77648437735127
 21
243.2280295277555
  0
LINE
  8
_0-3_躯体と製品
  6
CONTINUOUS
 62
    7
 10
720.77648437735127
 20
243.2280295277555
 11
721.56638366072275
 21
243.16406873784675
  0
LINE
  8
_0-3_躯体と製品
  6
CONTINUOUS
 62
    7
 10
721.56638366072275
 20
243.16406873784675
 11
722.40824348901629
 21
243.12489799662035
  0
LINE
  8
_0-3_躯体と製品
  6
CONTINUOUS
 62
    7
 10
722.40824348901629
 20
243.12489799662035
 11
723.27648437735081
 21
243.11170748722716
  0
LINE
  8
_0-3_躯体と製品
  6
CONTINUOUS
 62
    7
 10
723.27648437735081
 20
243.11170748722716
 11
724.14472526568534
 21
243.12489799662035
  0
LINE
  8
_0-3_躯体と製品
  6
CONTINUOUS
 62
    7
 10
724.14472526568534
 20
243.12489799662035
 11
724.98658509397887
 21
243.16406873784675
  0
LINE
  8
_0-3_躯体と製品
  6
CONTINUOUS
 62
    7
 10
724.98658509397887
 20
243.16406873784675
 11
725.77648437735036
 21
243.2280295277555
  0
LINE
  8
_0-3_躯体と製品
  6
CONTINUOUS
 62
    7
 10
725.77648437735036
 20
243.2280295277555
 11
726.49042242578287
 21
243.31483695011099
  0
LINE
  8
_0-3_躯体と製品
  6
CONTINUOUS
 62
    7
 10
726.49042242578287
 20
243.31483695011099
 11
727.10670659294499
 21
243.42185340531159
  0
LINE
  8
_0-3_躯体と製品
  6
CONTINUOUS
 62
    7
 10
727.10670659294499
 20
243.42185340531159
 11
727.60661139627223
 21
243.54582725251899
  0
LINE
  8
_0-3_躯体と製品
  6
CONTINUOUS
 62
    7
 10
727.60661139627223
 20
243.54582725251899
 11
727.97494748127951
 21
243.68299160911957
  0
LINE
  8
_0-3_躯体と製品
  6
CONTINUOUS
 62
    7
 10
727.97494748127951
 20
243.68299160911957
 11
728.20052314241093
 21
243.82917880554658
  0
LINE
  8
_0-3_躯体と製品
  6
CONTINUOUS
 62
    7
 10
728.20052314241093
 20
243.82917880554658
 11
728.2764843773499
 21
243.97994701781082
  0
LINE
  8
_0-3_躯体と製品
  6
CONTINUOUS
 62
    7
 10
728.2764843773499
 20
243.97994701781082
 11
728.2764843773499
 21
243.97994701781082
  0
LINE
  8
_0-3_躯体と製品
  6
CONTINUOUS
 62
    7
 10
728.2764843773499
 20
233.33968701781092
 11
728.2764843773499
 21
233.33968701781092
  0
LINE
  8
_0-3_躯体と製品
  6
CONTINUOUS
 62
    7
 10
728.2764843773499
 20
233.33968701781092
 11
728.20052314241093
 21
233.49045523007516
  0
LINE
  8
_0-3_躯体と製品
  6
CONTINUOUS
 62
    7
 10
728.20052314241093
 20
233.49045523007516
 11
727.97494748127951
 21
233.63664242650214
  0
LINE
  8
_0-3_躯体と製品
  6
CONTINUOUS
 62
    7
 10
727.97494748127951
 20
233.63664242650214
 11
727.60661139627223
 21
233.77380678310274
  0
LINE
  8
_0-3_躯体と製品
  6
CONTINUOUS
 62
    7
 10
727.60661139627223
 20
233.77380678310274
 11
727.10670659294499
 21
233.89778063031014
  0
LINE
  8
_0-3_躯体と製品
  6
CONTINUOUS
 62
    7
 10
727.10670659294499
 20
233.89778063031014
 11
726.49042242578287
 21
234.00479708551075
  0
LINE
  8
_0-3_躯体と製品
  6
CONTINUOUS
 62
    7
 10
726.49042242578287
 20
234.00479708551075
 11
725.77648437735036
 21
234.09160450786624
  0
LINE
  8
_0-3_躯体と製品
  6
CONTINUOUS
 62
    7
 10
725.77648437735036
 20
234.09160450786624
 11
724.98658509397887
 21
234.15556529777498
  0
LINE
  8
_0-3_躯体と製品
  6
CONTINUOUS
 62
    7
 10
724.98658509397887
 20
234.15556529777498
 11
724.14472526568534
 21
234.19473603900138
  0
LINE
  8
_0-3_躯体と製品
  6
CONTINUOUS
 62
    7
 10
724.14472526568534
 20
234.19473603900138
 11
723.27648437735081
 21
234.20792654839457
  0
LINE
  8
_0-3_躯体と製品
  6
CONTINUOUS
 62
    7
 10
723.27648437735081
 20
234.20792654839457
 11
722.40824348901629
 21
234.19473603900138
  0
LINE
  8
_0-3_躯体と製品
  6
CONTINUOUS
 62
    7
 10
722.40824348901629
 20
234.19473603900138
 11
721.56638366072275
 21
234.15556529777498
  0
LINE
  8
_0-3_躯体と製品
  6
CONTINUOUS
 62
    7
 10
721.56638366072275
 20
234.15556529777498
 11
720.77648437735127
 21
234.09160450786624
  0
LINE
  8
_0-3_躯体と製品
  6
CONTINUOUS
 62
    7
 10
720.77648437735127
 20
234.09160450786624
 11
720.06254632891876
 21
234.00479708551075
  0
LINE
  8
_0-3_躯体と製品
  6
CONTINUOUS
 62
    7
 10
720.06254632891876
 20
234.00479708551075
 11
719.44626216175664
 21
233.89778063031014
  0
LINE
  8
_0-3_躯体と製品
  6
CONTINUOUS
 62
    7
 10
719.44626216175664
 20
233.89778063031014
 11
718.9463573584294
 21
233.77380678310274
  0
LINE
  8
_0-3_躯体と製品
  6
CONTINUOUS
 62
    7
 10
718.9463573584294
 20
233.77380678310274
 11
718.57802127342211
 21
233.63664242650214
  0
LINE
  8
_0-3_躯体と製品
  6
CONTINUOUS
 62
    7
 10
718.57802127342211
 20
233.63664242650214
 11
718.35244561229069
 21
233.49045523007516
  0
LINE
  8
_0-3_躯体と製品
  6
CONTINUOUS
 62
    7
 10
718.35244561229069
 20
233.49045523007516
 11
718.27648437735172
 21
233.33968701781092
  0
LINE
  8
_0-3_躯体と製品
  6
CONTINUOUS
 62
    7
 10
718.27648437735172
 20
233.33968701781092
 11
718.35244561229069
 21
233.18891880554668
  0
LINE
  8
_0-3_躯体と製品
  6
CONTINUOUS
 62
    7
 10
718.35244561229069
 20
233.18891880554668
 11
718.57802127342211
 21
233.0427316091197
  0
LINE
  8
_0-3_躯体と製品
  6
CONTINUOUS
 62
    7
 10
718.57802127342211
 20
233.0427316091197
 11
718.9463573584294
 21
232.90556725251909
  0
LINE
  8
_0-3_躯体と製品
  6
CONTINUOUS
 62
    7
 10
718.9463573584294
 20
232.90556725251909
 11
719.44626216175664
 21
232.7815934053117
  0
LINE
  8
_0-3_躯体と製品
  6
CONTINUOUS
 62
    7
 10
719.44626216175664
 20
232.7815934053117
 11
720.06254632891864
 21
232.67457695011109
  0
LINE
  8
_0-3_躯体と製品
  6
CONTINUOUS
 62
    7
 10
720.06254632891864
 20
232.67457695011109
 11
720.77648437735127
 21
232.5877695277556
  0
LINE
  8
_0-3_躯体と製品
  6
CONTINUOUS
 62
    7
 10
720.77648437735127
 20
232.5877695277556
 11
721.56638366072275
 21
232.52380873784685
  0
LINE
  8
_0-3_躯体と製品
  6
CONTINUOUS
 62
    7
 10
721.56638366072275
 20
232.52380873784685
 11
722.40824348901629
 21
232.48463799662045
  0
LINE
  8
_0-3_躯体と製品
  6
CONTINUOUS
 62
    7
 10
722.40824348901629
 20
232.48463799662045
 11
723.27648437735081
 21
232.47144748722727
  0
LINE
  8
_0-3_躯体と製品
  6
CONTINUOUS
 62
    7
 10
723.27648437735081
 20
232.47144748722727
 11
724.14472526568534
 21
232.48463799662045
  0
LINE
  8
_0-3_躯体と製品
  6
CONTINUOUS
 62
    7
 10
724.14472526568534
 20
232.48463799662045
 11
724.98658509397887
 21
232.52380873784685
  0
LINE
  8
_0-3_躯体と製品
  6
CONTINUOUS
 62
    7
 10
724.98658509397887
 20
232.52380873784685
 11
725.77648437735036
 21
232.5877695277556
  0
LINE
  8
_0-3_躯体と製品
  6
CONTINUOUS
 62
    7
 10
725.77648437735036
 20
232.5877695277556
 11
726.49042242578287
 21
232.67457695011109
  0
LINE
  8
_0-3_躯体と製品
  6
CONTINUOUS
 62
    7
 10
726.49042242578287
 20
232.67457695011109
 11
727.10670659294499
 21
232.7815934053117
  0
LINE
  8
_0-3_躯体と製品
  6
CONTINUOUS
 62
    7
 10
727.10670659294499
 20
232.7815934053117
 11
727.60661139627223
 21
232.90556725251909
  0
LINE
  8
_0-3_躯体と製品
  6
CONTINUOUS
 62
    7
 10
727.60661139627223
 20
232.90556725251909
 11
727.97494748127951
 21
233.04273160911967
  0
LINE
  8
_0-3_躯体と製品
  6
CONTINUOUS
 62
    7
 10
727.97494748127951
 20
233.04273160911967
 11
728.20052314241093
 21
233.18891880554668
  0
LINE
  8
_0-3_躯体と製品
  6
CONTINUOUS
 62
    7
 10
728.20052314241093
 20
233.18891880554668
 11
728.2764843773499
 21
233.33968701781092
  0
LINE
  8
_0-3_躯体と製品
  6
CONTINUOUS
 62
    7
 10
728.2764843773499
 20
233.33968701781092
 11
728.2764843773499
 21
233.33968701781092
  0
LINE
  8
_0-3_躯体と製品
  6
CONTINUOUS
 62
    7
 10
645.19303141400781
 20
238.65982701781073
 11
645.19303141400781
 21
238.65982701781073
  0
LINE
  8
_0-3_躯体と製品
  6
CONTINUOUS
 62
    7
 10
645.19303141400781
 20
238.65982701781073
 11
645.26899264894678
 21
238.50905880554649
  0
LINE
  8
_0-3_躯体と製品
  6
CONTINUOUS
 62
    7
 10
645.26899264894678
 20
238.50905880554649
 11
645.49456831007819
 21
238.36287160911951
  0
LINE
  8
_0-3_躯体と製品
  6
CONTINUOUS
 62
    7
 10
645.49456831007819
 20
238.36287160911951
 11
645.86290439508548
 21
238.2257072525189
  0
LINE
  8
_0-3_躯体と製品
  6
CONTINUOUS
 62
    7
 10
645.86290439508548
 20
238.2257072525189
 11
646.36280919841272
 21
238.10173340531151
  0
LINE
  8
_0-3_躯体と製品
  6
CONTINUOUS
 62
    7
 10
646.36280919841272
 20
238.10173340531151
 11
646.97909336557484
 21
237.9947169501109
  0
LINE
  8
_0-3_躯体と製品
  6
CONTINUOUS
 62
    7
 10
646.97909336557484
 20
237.9947169501109
 11
647.69303141400735
 21
237.90790952775541
  0
LINE
  8
_0-3_躯体と製品
  6
CONTINUOUS
 62
    7
 10
647.69303141400735
 20
237.90790952775541
 11
648.48293069737883
 21
237.84394873784666
  0
LINE
  8
_0-3_躯体と製品
  6
CONTINUOUS
 62
    7
 10
648.48293069737883
 20
237.84394873784666
 11
649.32479052567237
 21
237.80477799662026
  0
LINE
  8
_0-3_躯体と製品
  6
CONTINUOUS
 62
    7
 10
649.32479052567237
 20
237.80477799662026
 11
650.1930314140069
 21
237.79158748722708
  0
LINE
  8
_0-3_躯体と製品
  6
CONTINUOUS
 62
    7
 10
650.1930314140069
 20
237.79158748722708
 11
651.06127230234142
 21
237.80477799662026
  0
LINE
  8
_0-3_躯体と製品
  6
CONTINUOUS
 62
    7
 10
651.06127230234142
 20
237.80477799662026
 11
651.90313213063496
 21
237.84394873784666
  0
LINE
  8
_0-3_躯体と製品
  6
CONTINUOUS
 62
    7
 10
651.90313213063496
 20
237.84394873784666
 11
652.69303141400644
 21
237.90790952775541
  0
LINE
  8
_0-3_躯体と製品
  6
CONTINUOUS
 62
    7
 10
652.69303141400644
 20
237.90790952775541
 11
653.40696946243895
 21
237.9947169501109
  0
LINE
  8
_0-3_躯体と製品
  6
CONTINUOUS
 62
    7
 10
653.40696946243895
 20
237.9947169501109
 11
654.02325362960107
 21
238.10173340531151
  0
LINE
  8
_0-3_躯体と製品
  6
CONTINUOUS
 62
    7
 10
654.02325362960107
 20
238.10173340531151
 11
654.52315843292831
 21
238.2257072525189
  0
LINE
  8
_0-3_躯体と製品
  6
CONTINUOUS
 62
    7
 10
654.52315843292831
 20
238.2257072525189
 11
654.8914945179356
 21
238.36287160911948
  0
LINE
  8
_0-3_躯体と製品
  6
CONTINUOUS
 62
    7
 10
654.8914945179356
 20
238.36287160911948
 11
655.11707017906701
 21
238.50905880554649
  0
LINE
  8
_0-3_躯体と製品
  6
CONTINUOUS
 62
    7
 10
655.11707017906701
 20
238.50905880554649
 11
655.19303141400599
 21
238.65982701781073
  0
LINE
  8
_0-3_躯体と製品
  6
CONTINUOUS
 62
    7
 10
655.19303141400599
 20
238.65982701781073
 11
655.11707017906701
 21
238.81059523007497
  0
LINE
  8
_0-3_躯体と製品
  6
CONTINUOUS
 62
    7
 10
655.11707017906701
 20
238.81059523007497
 11
654.8914945179356
 21
238.95678242650195
  0
LINE
  8
_0-3_躯体と製品
  6
CONTINUOUS
 62
    7
 10
654.8914945179356
 20
238.95678242650195
 11
654.52315843292831
 21
239.09394678310255
  0
LINE
  8
_0-3_躯体と製品
  6
CONTINUOUS
 62
    7
 10
654.52315843292831
 20
239.09394678310255
 11
654.02325362960107
 21
239.21792063030995
  0
LINE
  8
_0-3_躯体と製品
  6
CONTINUOUS
 62
    7
 10
654.02325362960107
 20
239.21792063030995
 11
653.40696946243906
 21
239.32493708551056
  0
LINE
  8
_0-3_躯体と製品
  6
CONTINUOUS
 62
    7
 10
653.40696946243906
 20
239.32493708551056
 11
652.69303141400644
 21
239.41174450786605
  0
LINE
  8
_0-3_躯体と製品
  6
CONTINUOUS
 62
    7
 10
652.69303141400644
 20
239.41174450786605
 11
651.90313213063496
 21
239.47570529777479
  0
LINE
  8
_0-3_躯体と製品
  6
CONTINUOUS
 62
    7
 10
651.90313213063496
 20
239.47570529777479
 11
651.06127230234142
 21
239.51487603900119
  0
LINE
  8
_0-3_躯体と製品
  6
CONTINUOUS
 62
    7
 10
651.06127230234142
 20
239.51487603900119
 11
650.1930314140069
 21
239.52806654839438
  0
LINE
  8
_0-3_躯体と製品
  6
CONTINUOUS
 62
    7
 10
650.1930314140069
 20
239.52806654839438
 11
649.32479052567237
 21
239.51487603900119
  0
LINE
  8
_0-3_躯体と製品
  6
CONTINUOUS
 62
    7
 10
649.32479052567237
 20
239.51487603900119
 11
648.48293069737883
 21
239.47570529777479
  0
LINE
  8
_0-3_躯体と製品
  6
CONTINUOUS
 62
    7
 10
648.48293069737883
 20
239.47570529777479
 11
647.69303141400735
 21
239.41174450786605
  0
LINE
  8
_0-3_躯体と製品
  6
CONTINUOUS
 62
    7
 10
647.69303141400735
 20
239.41174450786605
 11
646.97909336557484
 21
239.32493708551056
  0
LINE
  8
_0-3_躯体と製品
  6
CONTINUOUS
 62
    7
 10
646.97909336557484
 20
239.32493708551056
 11
646.36280919841272
 21
239.21792063030995
  0
LINE
  8
_0-3_躯体と製品
  6
CONTINUOUS
 62
    7
 10
646.36280919841272
 20
239.21792063030995
 11
645.86290439508548
 21
239.09394678310255
  0
LINE
  8
_0-3_躯体と製品
  6
CONTINUOUS
 62
    7
 10
645.86290439508548
 20
239.09394678310255
 11
645.49456831007819
 21
238.95678242650197
  0
LINE
  8
_0-3_躯体と製品
  6
CONTINUOUS
 62
    7
 10
645.49456831007819
 20
238.95678242650197
 11
645.26899264894678
 21
238.81059523007497
  0
LINE
  8
_0-3_躯体と製品
  6
CONTINUOUS
 62
    7
 10
645.26899264894678
 20
238.81059523007497
 11
645.19303141400781
 21
238.65982701781073
  0
LINE
  8
_0-3_躯体と製品
  6
CONTINUOUS
 62
    7
 10
645.19303141400781
 20
238.65982701781073
 11
645.19303141400781
 21
238.65982701781073
  0
LINE
  8
_0-3_躯体と製品
  6
CONTINUOUS
 62
    7
 10
658.02103141400778
 20
243.97994701781082
 11
658.02103141400778
 21
243.97994701781082
  0
LINE
  8
_0-3_躯体と製品
  6
CONTINUOUS
 62
    7
 10
658.02103141400778
 20
243.97994701781082
 11
658.09699264894675
 21
243.82917880554658
  0
LINE
  8
_0-3_躯体と製品
  6
CONTINUOUS
 62
    7
 10
658.09699264894675
 20
243.82917880554658
 11
658.32256831007817
 21
243.6829916091196
  0
LINE
  8
_0-3_躯体と製品
  6
CONTINUOUS
 62
    7
 10
658.32256831007817
 20
243.6829916091196
 11
658.69090439508545
 21
243.54582725251899
  0
LINE
  8
_0-3_躯体と製品
  6
CONTINUOUS
 62
    7
 10
658.69090439508545
 20
243.54582725251899
 11
659.19080919841269
 21
243.42185340531159
  0
LINE
  8
_0-3_躯体と製品
  6
CONTINUOUS
 62
    7
 10
659.19080919841269
 20
243.42185340531159
 11
659.80709336557481
 21
243.31483695011099
  0
LINE
  8
_0-3_躯体と製品
  6
CONTINUOUS
 62
    7
 10
659.80709336557481
 20
243.31483695011099
 11
660.52103141400733
 21
243.2280295277555
  0
LINE
  8
_0-3_躯体と製品
  6
CONTINUOUS
 62
    7
 10
660.52103141400733
 20
243.2280295277555
 11
661.31093069737881
 21
243.16406873784675
  0
LINE
  8
_0-3_躯体と製品
  6
CONTINUOUS
 62
    7
 10
661.31093069737881
 20
243.16406873784675
 11
662.15279052567234
 21
243.12489799662035
  0
LINE
  8
_0-3_躯体と製品
  6
CONTINUOUS
 62
    7
 10
662.15279052567234
 20
243.12489799662035
 11
663.02103141400687
 21
243.11170748722716
  0
LINE
  8
_0-3_躯体と製品
  6
CONTINUOUS
 62
    7
 10
663.02103141400687
 20
243.11170748722716
 11
663.8892723023414
 21
243.12489799662035
  0
LINE
  8
_0-3_躯体と製品
  6
CONTINUOUS
 62
    7
 10
663.8892723023414
 20
243.12489799662035
 11
664.73113213063493
 21
243.16406873784675
  0
LINE
  8
_0-3_躯体と製品
  6
CONTINUOUS
 62
    7
 10
664.73113213063493
 20
243.16406873784675
 11
665.52103141400642
 21
243.2280295277555
  0
LINE
  8
_0-3_躯体と製品
  6
CONTINUOUS
 62
    7
 10
665.52103141400642
 20
243.2280295277555
 11
666.23496946243893
 21
243.31483695011099
  0
LINE
  8
_0-3_躯体と製品
  6
CONTINUOUS
 62
    7
 10
666.23496946243893
 20
243.31483695011099
 11
666.85125362960105
 21
243.42185340531159
  0
LINE
  8
_0-3_躯体と製品
  6
CONTINUOUS
 62
    7
 10
666.85125362960105
 20
243.42185340531159
 11
667.35115843292829
 21
243.54582725251899
  0
LINE
  8
_0-3_躯体と製品
  6
CONTINUOUS
 62
    7
 10
667.35115843292829
 20
243.54582725251899
 11
667.71949451793557
 21
243.68299160911957
  0
LINE
  8
_0-3_躯体と製品
  6
CONTINUOUS
 62
    7
 10
667.71949451793557
 20
243.68299160911957
 11
667.94507017906699
 21
243.82917880554658
  0
LINE
  8
_0-3_躯体と製品
  6
CONTINUOUS
 62
    7
 10
667.94507017906699
 20
243.82917880554658
 11
668.02103141400596
 21
243.97994701781082
  0
LINE
  8
_0-3_躯体と製品
  6
CONTINUOUS
 62
    7
 10
668.02103141400596
 20
243.97994701781082
 11
667.94507017906699
 21
244.13071523007505
  0
LINE
  8
_0-3_躯体と製品
  6
CONTINUOUS
 62
    7
 10
667.94507017906699
 20
244.13071523007505
 11
667.71949451793557
 21
244.27690242650203
  0
LINE
  8
_0-3_躯体と製品
  6
CONTINUOUS
 62
    7
 10
667.71949451793557
 20
244.27690242650203
 11
667.35115843292829
 21
244.41406678310264
  0
LINE
  8
_0-3_躯体と製品
  6
CONTINUOUS
 62
    7
 10
667.35115843292829
 20
244.41406678310264
 11
666.85125362960105
 21
244.53804063031004
  0
LINE
  8
_0-3_躯体と製品
  6
CONTINUOUS
 62
    7
 10
666.85125362960105
 20
244.53804063031004
 11
666.23496946243904
 21
244.64505708551064
  0
LINE
  8
_0-3_躯体と製品
  6
CONTINUOUS
 62
    7
 10
666.23496946243904
 20
244.64505708551064
 11
665.52103141400642
 21
244.73186450786613
  0
LINE
  8
_0-3_躯体と製品
  6
CONTINUOUS
 62
    7
 10
665.52103141400642
 20
244.73186450786613
 11
664.73113213063493
 21
244.79582529777488
  0
LINE
  8
_0-3_躯体と製品
  6
CONTINUOUS
 62
    7
 10
664.73113213063493
 20
244.79582529777488
 11
663.8892723023414
 21
244.83499603900128
  0
LINE
  8
_0-3_躯体と製品
  6
CONTINUOUS
 62
    7
 10
663.8892723023414
 20
244.83499603900128
 11
663.02103141400687
 21
244.84818654839447
  0
LINE
  8
_0-3_躯体と製品
  6
CONTINUOUS
 62
    7
 10
663.02103141400687
 20
244.84818654839447
 11
662.15279052567234
 21
244.83499603900128
  0
LINE
  8
_0-3_躯体と製品
  6
CONTINUOUS
 62
    7
 10
662.15279052567234
 20
244.83499603900128
 11
661.31093069737881
 21
244.79582529777488
  0
LINE
  8
_0-3_躯体と製品
  6
CONTINUOUS
 62
    7
 10
661.31093069737881
 20
244.79582529777488
 11
660.52103141400733
 21
244.73186450786613
  0
LINE
  8
_0-3_躯体と製品
  6
CONTINUOUS
 62
    7
 10
660.52103141400733
 20
244.73186450786613
 11
659.80709336557481
 21
244.64505708551064
  0
LINE
  8
_0-3_躯体と製品
  6
CONTINUOUS
 62
    7
 10
659.80709336557481
 20
244.64505708551064
 11
659.19080919841269
 21
244.53804063031004
  0
LINE
  8
_0-3_躯体と製品
  6
CONTINUOUS
 62
    7
 10
659.19080919841269
 20
244.53804063031004
 11
658.69090439508545
 21
244.41406678310264
  0
LINE
  8
_0-3_躯体と製品
  6
CONTINUOUS
 62
    7
 10
658.69090439508545
 20
244.41406678310264
 11
658.32256831007817
 21
244.27690242650206
  0
LINE
  8
_0-3_躯体と製品
  6
CONTINUOUS
 62
    7
 10
658.32256831007817
 20
244.27690242650206
 11
658.09699264894675
 21
244.13071523007505
  0
LINE
  8
_0-3_躯体と製品
  6
CONTINUOUS
 62
    7
 10
658.09699264894675
 20
244.13071523007505
 11
658.02103141400778
 21
243.97994701781082
  0
LINE
  8
_0-3_躯体と製品
  6
CONTINUOUS
 62
    7
 10
658.02103141400778
 20
243.97994701781082
 11
658.02103141400778
 21
243.97994701781082
  0
LINE
  8
_0-3_躯体と製品
  6
CONTINUOUS
 62
    7
 10
658.02103141400778
 20
233.33968701781092
 11
658.02103141400778
 21
233.33968701781092
  0
LINE
  8
_0-3_躯体と製品
  6
CONTINUOUS
 62
    7
 10
658.02103141400778
 20
233.33968701781092
 11
658.09699264894675
 21
233.18891880554668
  0
LINE
  8
_0-3_躯体と製品
  6
CONTINUOUS
 62
    7
 10
658.09699264894675
 20
233.18891880554668
 11
658.32256831007817
 21
233.0427316091197
  0
LINE
  8
_0-3_躯体と製品
  6
CONTINUOUS
 62
    7
 10
658.32256831007817
 20
233.0427316091197
 11
658.69090439508545
 21
232.90556725251909
  0
LINE
  8
_0-3_躯体と製品
  6
CONTINUOUS
 62
    7
 10
658.69090439508545
 20
232.90556725251909
 11
659.19080919841269
 21
232.7815934053117
  0
LINE
  8
_0-3_躯体と製品
  6
CONTINUOUS
 62
    7
 10
659.19080919841269
 20
232.7815934053117
 11
659.80709336557481
 21
232.67457695011109
  0
LINE
  8
_0-3_躯体と製品
  6
CONTINUOUS
 62
    7
 10
659.80709336557481
 20
232.67457695011109
 11
660.52103141400733
 21
232.5877695277556
  0
LINE
  8
_0-3_躯体と製品
  6
CONTINUOUS
 62
    7
 10
660.52103141400733
 20
232.5877695277556
 11
661.31093069737881
 21
232.52380873784685
  0
LINE
  8
_0-3_躯体と製品
  6
CONTINUOUS
 62
    7
 10
661.31093069737881
 20
232.52380873784685
 11
662.15279052567234
 21
232.48463799662045
  0
LINE
  8
_0-3_躯体と製品
  6
CONTINUOUS
 62
    7
 10
662.15279052567234
 20
232.48463799662045
 11
663.02103141400687
 21
232.47144748722727
  0
LINE
  8
_0-3_躯体と製品
  6
CONTINUOUS
 62
    7
 10
663.02103141400687
 20
232.47144748722727
 11
663.8892723023414
 21
232.48463799662045
  0
LINE
  8
_0-3_躯体と製品
  6
CONTINUOUS
 62
    7
 10
663.8892723023414
 20
232.48463799662045
 11
664.73113213063493
 21
232.52380873784685
  0
LINE
  8
_0-3_躯体と製品
  6
CONTINUOUS
 62
    7
 10
664.73113213063493
 20
232.52380873784685
 11
665.52103141400642
 21
232.5877695277556
  0
LINE
  8
_0-3_躯体と製品
  6
CONTINUOUS
 62
    7
 10
665.52103141400642
 20
232.5877695277556
 11
666.23496946243893
 21
232.67457695011109
  0
LINE
  8
_0-3_躯体と製品
  6
CONTINUOUS
 62
    7
 10
666.23496946243893
 20
232.67457695011109
 11
666.85125362960105
 21
232.7815934053117
  0
LINE
  8
_0-3_躯体と製品
  6
CONTINUOUS
 62
    7
 10
666.85125362960105
 20
232.7815934053117
 11
667.35115843292829
 21
232.90556725251909
  0
LINE
  8
_0-3_躯体と製品
  6
CONTINUOUS
 62
    7
 10
667.35115843292829
 20
232.90556725251909
 11
667.71949451793557
 21
233.04273160911967
  0
LINE
  8
_0-3_躯体と製品
  6
CONTINUOUS
 62
    7
 10
667.71949451793557
 20
233.04273160911967
 11
667.94507017906699
 21
233.18891880554668
  0
LINE
  8
_0-3_躯体と製品
  6
CONTINUOUS
 62
    7
 10
667.94507017906699
 20
233.18891880554668
 11
668.02103141400596
 21
233.33968701781092
  0
LINE
  8
_0-3_躯体と製品
  6
CONTINUOUS
 62
    7
 10
668.02103141400596
 20
233.33968701781092
 11
667.94507017906699
 21
233.49045523007516
  0
LINE
  8
_0-3_躯体と製品
  6
CONTINUOUS
 62
    7
 10
667.94507017906699
 20
233.49045523007516
 11
667.71949451793557
 21
233.63664242650214
  0
LINE
  8
_0-3_躯体と製品
  6
CONTINUOUS
 62
    7
 10
667.71949451793557
 20
233.63664242650214
 11
667.35115843292829
 21
233.77380678310274
  0
LINE
  8
_0-3_躯体と製品
  6
CONTINUOUS
 62
    7
 10
667.35115843292829
 20
233.77380678310274
 11
666.85125362960105
 21
233.89778063031014
  0
LINE
  8
_0-3_躯体と製品
  6
CONTINUOUS
 62
    7
 10
666.85125362960105
 20
233.89778063031014
 11
666.23496946243904
 21
234.00479708551075
  0
LINE
  8
_0-3_躯体と製品
  6
CONTINUOUS
 62
    7
 10
666.23496946243904
 20
234.00479708551075
 11
665.52103141400642
 21
234.09160450786624
  0
LINE
  8
_0-3_躯体と製品
  6
CONTINUOUS
 62
    7
 10
665.52103141400642
 20
234.09160450786624
 11
664.73113213063493
 21
234.15556529777498
  0
LINE
  8
_0-3_躯体と製品
  6
CONTINUOUS
 62
    7
 10
664.73113213063493
 20
234.15556529777498
 11
663.8892723023414
 21
234.19473603900138
  0
LINE
  8
_0-3_躯体と製品
  6
CONTINUOUS
 62
    7
 10
663.8892723023414
 20
234.19473603900138
 11
663.02103141400687
 21
234.20792654839457
  0
LINE
  8
_0-3_躯体と製品
  6
CONTINUOUS
 62
    7
 10
663.02103141400687
 20
234.20792654839457
 11
662.15279052567234
 21
234.19473603900138
  0
LINE
  8
_0-3_躯体と製品
  6
CONTINUOUS
 62
    7
 10
662.15279052567234
 20
234.19473603900138
 11
661.31093069737881
 21
234.15556529777498
  0
LINE
  8
_0-3_躯体と製品
  6
CONTINUOUS
 62
    7
 10
661.31093069737881
 20
234.15556529777498
 11
660.52103141400733
 21
234.09160450786624
  0
LINE
  8
_0-3_躯体と製品
  6
CONTINUOUS
 62
    7
 10
660.52103141400733
 20
234.09160450786624
 11
659.80709336557481
 21
234.00479708551075
  0
LINE
  8
_0-3_躯体と製品
  6
CONTINUOUS
 62
    7
 10
659.80709336557481
 20
234.00479708551075
 11
659.19080919841269
 21
233.89778063031014
  0
LINE
  8
_0-3_躯体と製品
  6
CONTINUOUS
 62
    7
 10
659.19080919841269
 20
233.89778063031014
 11
658.69090439508545
 21
233.77380678310274
  0
LINE
  8
_0-3_躯体と製品
  6
CONTINUOUS
 62
    7
 10
658.69090439508545
 20
233.77380678310274
 11
658.32256831007817
 21
233.63664242650216
  0
LINE
  8
_0-3_躯体と製品
  6
CONTINUOUS
 62
    7
 10
658.32256831007817
 20
233.63664242650216
 11
658.09699264894675
 21
233.49045523007516
  0
LINE
  8
_0-3_躯体と製品
  6
CONTINUOUS
 62
    7
 10
658.09699264894675
 20
233.49045523007516
 11
658.02103141400778
 21
233.33968701781092
  0
LINE
  8
_0-3_躯体と製品
  6
CONTINUOUS
 62
    7
 10
658.02103141400778
 20
233.33968701781092
 11
658.02103141400778
 21
233.33968701781092
  0
LINE
  8
_0-3_躯体と製品
  6
CONTINUOUS
 62
    7
 10
665.39875789567907
 20
238.3917870178108
 11
665.39875789567907
 21
238.3917870178108
  0
LINE
  8
_0-3_躯体と製品
  6
CONTINUOUS
 62
    7
 10
665.39875789567907
 20
238.3917870178108
 11
665.82034274959028
 21
237.43071267929491
  0
LINE
  8
_0-3_躯体と製品
  6
CONTINUOUS
 62
    7
 10
665.82034274959028
 20
237.43071267929491
 11
667.0722876688701
 21
236.49884009822773
  0
LINE
  8
_0-3_躯体と製品
  6
CONTINUOUS
 62
    7
 10
667.0722876688701
 20
236.49884009822773
 11
669.11655294066088
 21
235.62448375143472
  0
LINE
  8
_0-3_躯体と製品
  6
CONTINUOUS
 62
    7
 10
669.11655294066088
 20
235.62448375143472
 11
671.89102459912738
 21
234.83421051406754
  0
LINE
  8
_0-3_躯体と製品
  6
CONTINUOUS
 62
    7
 10
671.89102459912738
 20
234.83421051406754
 11
675.31140172687765
 21
234.15203243854603
  0
LINE
  8
_0-3_躯体と製品
  6
CONTINUOUS
 62
    7
 10
675.31140172687765
 20
234.15203243854603
 11
679.27375789567907
 21
233.59867716049612
  0
LINE
  8
_0-3_躯体と製品
  6
CONTINUOUS
 62
    7
 10
679.27375789567907
 20
233.59867716049612
 11
683.65769891839182
 21
233.19095810003012
  0
LINE
  8
_0-3_躯体と製品
  6
CONTINUOUS
 62
    7
 10
683.65769891839182
 20
233.19095810003012
 11
688.3300209654218
 21
232.94126359448447
  0
LINE
  8
_0-3_躯体と製品
  6
CONTINUOUS
 62
    7
 10
688.3300209654218
 20
232.94126359448447
 11
693.14875789567907
 21
232.85718048505865
  0
LINE
  8
_0-3_躯体と製品
  6
CONTINUOUS
 62
    7
 10
693.14875789567907
 20
232.85718048505865
 11
697.96749482593634
 21
232.94126359448447
  0
LINE
  8
_0-3_躯体と製品
  6
CONTINUOUS
 62
    7
 10
697.96749482593634
 20
232.94126359448447
 11
702.63981687296632
 21
233.19095810003012
  0
LINE
  8
_0-3_躯体と製品
  6
CONTINUOUS
 62
    7
 10
702.63981687296632
 20
233.19095810003012
 11
707.02375789567907
 21
233.59867716049612
  0
LINE
  8
_0-3_躯体と製品
  6
CONTINUOUS
 62
    7
 10
707.02375789567907
 20
233.59867716049612
 11
710.98611406448049
 21
234.15203243854603
  0
LINE
  8
_0-3_躯体と製品
  6
CONTINUOUS
 62
    7
 10
710.98611406448049
 20
234.15203243854603
 11
714.40649119223065
 21
234.83421051406754
  0
LINE
  8
_0-3_躯体と製品
  6
CONTINUOUS
 62
    7
 10
714.40649119223065
 20
234.83421051406754
 11
717.18096285069726
 21
235.62448375143472
  0
LINE
  8
_0-3_躯体と製品
  6
CONTINUOUS
 62
    7
 10
717.18096285069726
 20
235.62448375143472
 11
719.22522812248803
 21
236.49884009822773
  0
LINE
  8
_0-3_躯体と製品
  6
CONTINUOUS
 62
    7
 10
719.22522812248803
 20
236.49884009822773
 11
720.47717304176786
 21
237.43071267929488
  0
LINE
  8
_0-3_躯体と製品
  6
CONTINUOUS
 62
    7
 10
720.47717304176786
 20
237.43071267929488
 11
720.89875789567907
 21
238.3917870178108
  0
LINE
  8
_0-3_躯体と製品
  6
CONTINUOUS
 62
    7
 10
720.89875789567907
 20
238.3917870178108
 11
720.89875789567907
 21
238.3917870178108
  0
ARC
  8
_0-3_躯体と製品
  6
CONTINUOUS
 62
    7
 10
683.501349012981
 20
211.14196032682381
 40
32.714780449347813
 50
99.495312681522833
 51
123.59686301854488
  0
ARC
  8
_0-3_躯体と製品
  6
CONTINUOUS
 62
    7
 10
702.9453296640728
 20
211.42808664004875
 40
32.393930347043103
 50
56.342856565090131
 51
80.835878963216558
  0
LINE
  8
_0-3_躯体と製品
  6
CONTINUOUS
 62
    3
 10
111.99930622525208
 20
365.9674920178108
 11
391.99695005742808
 21
365.9674920178108
  0
LINE
  8
_0-3_躯体と製品
  6
CONTINUOUS
 62
    3
 10
391.99695005742808
 20
325.96749201780989
 11
271.9993062252521
 21
325.96749201780989
  0
LINE
  8
_0-3_躯体と製品
  6
CONTINUOUS
 62
    3
 10
271.9993062252521
 20
327.5674920178148
 11
391.99695005742808
 21
327.56749201781184
  0
LINE
  8
_0-3_躯体と製品
  6
CONTINUOUS
 62
    3
 10
111.99930622525208
 20
325.9674920178108
 11
231.9993062252521
 21
325.96749201780989
  0
LINE
  8
_0-3_躯体と製品
  6
CONTINUOUS
 62
    3
 10
231.9993062252521
 20
327.5674920178148
 11
111.99930622525208
 21
327.56749201780684
  0
LINE
  8
_0-4_文字-記号
  6
CONTINUOUS
 62
    7
 10
182.9571789700509
 20
372.87270212076277
 11
205.32945802322013
 21
411.62262612195985
  0
LINE
  8
_0-4_文字-記号
  6
CONTINUOUS
 62
    7
 10
205.32945802322013
 20
411.62262612195985
 11
245.9993062252521
 21
411.62262612195985
  0
TEXT
  8
_0-4_文字-記号
 62
    7
 10
207.17266400040592
 20
413.64426102575493
 40
10
 41
0.8
 50
0
  1
固定金具
  0
LINE
  8
_0-3_躯体と製品
  6
CONTINUOUS
 62
    7
 10
231.9993062252521
 20
330.96749201781489
 11
271.9993062252521
 21
330.96749201781489
  0
LINE
  8
_0-3_躯体と製品
  6
CONTINUOUS
 62
    7
 10
271.9993062252521
 20
330.96749201781489
 11
271.9993062252521
 21
323.96749201781489
  0
LINE
  8
_0-3_躯体と製品
  6
CONTINUOUS
 62
    7
 10
271.9993062252521
 20
323.96749201781489
 11
231.9993062252521
 21
323.96749201781489
  0
LINE
  8
_0-3_躯体と製品
  6
CONTINUOUS
 62
    7
 10
231.9993062252521
 20
323.96749201781489
 11
231.9993062252521
 21
330.96749201781489
  0
LINE
  8
_0-3_躯体と製品
  6
CONTINUOUS
 62
    4
 10
172.9993062252521
 20
366.96749201781785
 11
111.99930622525208
 21
366.96749201781785
  0
LINE
  8
_0-3_躯体と製品
  6
CONTINUOUS
 62
    4
 10
111.99930622525208
 20
393.96749201781785
 11
174.9993062252521
 21
393.96749201781785
  0
ARC
  8
_0-3_躯体と製品
  6
CONTINUOUS
 62
    4
 10
174.9993062252521
 20
392.96749201781785
 40
0.9999999999999998
 50
0
 51
90
  0
LINE
  8
_0-3_躯体と製品
  6
CONTINUOUS
 62
    4
 10
175.9993062252521
 20
392.96749201781785
 11
175.9993062252521
 21
388.46749201781785
  0
LINE
  8
_0-3_躯体と製品
  6
CONTINUOUS
 62
    4
 10
175.9993062252521
 20
388.46749201781785
 11
171.9993062252521
 21
388.46749201781785
  0
ARC
  8
_0-3_躯体と製品
  6
CONTINUOUS
 62
    4
 10
171.9993062252521
 20
385.46749201781785
 40
2.9999999999999996
 50
90
 51
180
  0
LINE
  8
_0-3_躯体と製品
  6
CONTINUOUS
 62
    4
 10
168.9993062252521
 20
385.46749201781785
 11
168.9993062252521
 21
374.46749201781785
  0
ARC
  8
_0-3_躯体と製品
  6
CONTINUOUS
 62
    4
 10
171.9993062252521
 20
374.46749201781785
 40
2.9999999999999996
 50
180
 51
270
  0
LINE
  8
_0-3_躯体と製品
  6
CONTINUOUS
 62
    4
 10
171.9993062252521
 20
371.46749201781785
 11
175.9993062252521
 21
371.46749201781785
  0
LINE
  8
_0-3_躯体と製品
  6
CONTINUOUS
 62
    4
 10
175.9993062252521
 20
371.46749201781785
 11
175.9993062252521
 21
369.46749201781785
  0
ARC
  8
_0-3_躯体と製品
  6
CONTINUOUS
 62
    4
 10
174.4993062252521
 20
369.46749201781785
 40
1.4999999999999998
 50
270
 51
0
  0
LINE
  8
_0-3_躯体と製品
  6
CONTINUOUS
 62
    4
 10
174.4993062252521
 20
367.96749201781785
 11
172.9993062252521
 21
367.96749201781785
  0
LINE
  8
_0-3_躯体と製品
  6
CONTINUOUS
 62
    4
 10
172.9993062252521
 20
367.96749201781785
 11
172.9993062252521
 21
366.46749201781785
  0
ARC
  8
_0-3_躯体と製品
  6
CONTINUOUS
 62
    4
 10
172.49930622525164
 20
366.4674920178183
 40
0.5000000000004547
 50
269.99999999994787
 51
359.99999999994787
  0
LINE
  8
_0-3_躯体と製品
  6
CONTINUOUS
 62
    4
 10
172.49930622525119
 20
365.96749201781785
 11
111.99930622525208
 21
365.96749201781785
  0
LINE
  8
_0-3_躯体と製品
  6
CONTINUOUS
 62
    4
 10
111.99930622525208
 20
392.96749201781785
 11
174.9993062252521
 21
392.96749201781785
  0
LINE
  8
_0-3_躯体と製品
  6
CONTINUOUS
 62
    4
 10
174.9993062252521
 20
392.96749201781785
 11
174.9993062252521
 21
388.46749201781785
  0
LINE
  8
_0-3_躯体と製品
  6
CONTINUOUS
 62
    4
 10
138.49930622525207
 20
372.96749201781785
 11
131.49930622525116
 21
372.96749201781785
  0
LINE
  8
_0-3_躯体と製品
  6
CONTINUOUS
 62
    4
 10
131.49930622525116
 20
372.96749201781785
 11
130.99930622525207
 21
373.46749201781785
  0
LINE
  8
_0-3_躯体と製品
  6
CONTINUOUS
 62
    4
 10
130.99930622525207
 20
373.46749201781785
 11
130.99930622525207
 21
386.46749201781785
  0
LINE
  8
_0-3_躯体と製品
  6
CONTINUOUS
 62
    4
 10
130.99930622525207
 20
386.46749201781785
 11
131.49930622525116
 21
386.96749201781785
  0
LINE
  8
_0-3_躯体と製品
  6
CONTINUOUS
 62
    4
 10
131.49930622525116
 20
386.96749201781785
 11
138.49930622525207
 21
386.96749201781785
  0
LINE
  8
_0-3_躯体と製品
  6
CONTINUOUS
 62
    4
 10
138.49930622525207
 20
386.96749201781785
 11
138.99930622525207
 21
386.46749201781785
  0
LINE
  8
_0-3_躯体と製品
  6
CONTINUOUS
 62
    4
 10
138.99930622525207
 20
386.46749201781785
 11
138.99930622525207
 21
373.46749201781785
  0
LINE
  8
_0-3_躯体と製品
  6
CONTINUOUS
 62
    4
 10
138.99930622525207
 20
373.46749201781785
 11
138.49930622525207
 21
372.96749201781785
  0
LINE
  8
_0-3_躯体と製品
  6
CONTINUOUS
 62
    4
 10
111.99930622525208
 20
388.46749201781785
 11
125.99930622525117
 21
388.46749201781785
  0
LINE
  8
_0-3_躯体と製品
  6
CONTINUOUS
 62
    4
 10
125.99930622525117
 20
388.46749201781785
 11
126.49930622525208
 21
387.96749201781785
  0
LINE
  8
_0-3_躯体と製品
  6
CONTINUOUS
 62
    4
 10
126.49930622525208
 20
387.96749201781785
 11
126.49930622525208
 21
371.96749201781785
  0
LINE
  8
_0-3_躯体と製品
  6
CONTINUOUS
 62
    4
 10
126.49930622525208
 20
371.96749201781785
 11
125.99930622525117
 21
371.46749201781785
  0
LINE
  8
_0-3_躯体と製品
  6
CONTINUOUS
 62
    4
 10
125.99930622525117
 20
371.46749201781785
 11
111.99930622525208
 21
371.46749201781785
  0
LINE
  8
_0-3_躯体と製品
  6
CONTINUOUS
 62
    4
 10
163.4993062252521
 20
371.46749201781785
 11
143.99930622525207
 21
371.46749201781785
  0
LINE
  8
_0-3_躯体と製品
  6
CONTINUOUS
 62
    4
 10
143.99930622525207
 20
371.46749201781785
 11
143.49930622525116
 21
371.96749201781785
  0
LINE
  8
_0-3_躯体と製品
  6
CONTINUOUS
 62
    4
 10
143.49930622525116
 20
371.96749201781785
 11
143.49930622525116
 21
387.96749201781785
  0
LINE
  8
_0-3_躯体と製品
  6
CONTINUOUS
 62
    4
 10
143.49930622525116
 20
387.96749201781785
 11
143.99930622525207
 21
388.46749201781785
  0
LINE
  8
_0-3_躯体と製品
  6
CONTINUOUS
 62
    4
 10
143.99930622525207
 20
388.46749201781785
 11
163.4993062252521
 21
388.46749201781785
  0
LINE
  8
_0-3_躯体と製品
  6
CONTINUOUS
 62
    4
 10
163.4993062252521
 20
388.46749201781785
 11
163.9993062252521
 21
387.96749201781785
  0
LINE
  8
_0-3_躯体と製品
  6
CONTINUOUS
 62
    4
 10
163.9993062252521
 20
387.96749201781785
 11
163.9993062252521
 21
371.96749201781785
  0
LINE
  8
_0-3_躯体と製品
  6
CONTINUOUS
 62
    4
 10
163.9993062252521
 20
371.96749201781785
 11
163.4993062252521
 21
371.46749201781785
  0
LINE
  8
_0-3_躯体と製品
  6
CONTINUOUS
 62
    7
 10
169.4993062252521
 20
385.96749201781785
 11
169.4993062252521
 21
374.76749201781689
  0
ARC
  8
_0-3_躯体と製品
  6
CONTINUOUS
 62
    7
 10
172.49930622525164
 20
374.76749201781644
 40
2.9999999999995448
 50
179.99999999999133
 51
269.99999999999136
  0
LINE
  8
_0-3_躯体と製品
  6
CONTINUOUS
 62
    7
 10
172.49930622525119
 20
371.76749201781689
 11
172.49930622525119
 21
371.46749201781785
  0
LINE
  8
_0-3_躯体と製品
  6
CONTINUOUS
 62
    7
 10
172.49930622525119
 20
371.46749201781785
 11
173.4993062252521
 21
371.46749201781785
  0
LINE
  8
_0-3_躯体と製品
  6
CONTINUOUS
 62
    7
 10
173.4993062252521
 20
371.46749201781785
 11
173.4993062252521
 21
371.76749201781689
  0
LINE
  8
_0-3_躯体と製品
  6
CONTINUOUS
 62
    7
 10
173.4993062252521
 20
371.76749201781689
 11
174.4993062252521
 21
371.76749201781689
  0
LINE
  8
_0-3_躯体と製品
  6
CONTINUOUS
 62
    7
 10
174.4993062252521
 20
371.76749201781689
 11
174.4993062252521
 21
371.46749201781785
  0
LINE
  8
_0-3_躯体と製品
  6
CONTINUOUS
 62
    7
 10
174.4993062252521
 20
371.46749201781785
 11
175.29930622525183
 21
371.46749201781785
  0
LINE
  8
_0-3_躯体と製品
  6
CONTINUOUS
 62
    7
 10
175.29930622525183
 20
371.46749201781785
 11
175.29930622525183
 21
371.76749201781689
  0
LINE
  8
_0-3_躯体と製品
  6
CONTINUOUS
 62
    7
 10
175.29930622525183
 20
371.76749201781689
 11
175.69930622525101
 21
371.76749201781689
  0
ARC
  8
_0-3_躯体と製品
  6
CONTINUOUS
 62
    7
 10
175.69930622525203
 20
371.46749201781682
 40
0.3000000000000568
 50
0.0000000001932505
 51
90.000000000197602
  0
LINE
  8
_0-3_躯体と製品
  6
CONTINUOUS
 62
    7
 10
175.9993062252521
 20
371.46749201781785
 11
175.9993062252521
 21
367.96749201781785
  0
LINE
  8
_0-3_躯体と製品
  6
CONTINUOUS
 62
    7
 10
175.9993062252521
 20
367.96749201781785
 11
174.4993062252521
 21
367.96749201781785
  0
ARC
  8
_0-3_躯体と製品
  6
CONTINUOUS
 62
    7
 10
174.49930622525164
 20
367.46749201781739
 40
0.5000000000004547
 50
89.999999999947889
 51
179.9999999999479
  0
LINE
  8
_0-3_躯体と製品
  6
CONTINUOUS
 62
    7
 10
173.99930622525119
 20
367.46749201781785
 11
173.99930622525119
 21
366.46749201781785
  0
ARC
  8
_0-3_躯体と製品
  6
CONTINUOUS
 62
    7
 10
174.49930622525164
 20
366.4674920178183
 40
0.5000000000004547
 50
180.0000000000521
 51
270.00000000005213
  0
LINE
  8
_0-3_躯体と製品
  6
CONTINUOUS
 62
    7
 10
174.4993062252521
 20
365.96749201781785
 11
177.9993062252521
 21
365.96749201781785
  0
LINE
  8
_0-3_躯体と製品
  6
CONTINUOUS
 62
    7
 10
177.9993062252521
 20
365.96749201781785
 11
177.9993062252521
 21
366.26749201781689
  0
LINE
  8
_0-3_躯体と製品
  6
CONTINUOUS
 62
    7
 10
177.9993062252521
 20
366.26749201781689
 11
179.9993062252521
 21
366.26749201781689
  0
LINE
  8
_0-3_躯体と製品
  6
CONTINUOUS
 62
    7
 10
179.9993062252521
 20
366.26749201781689
 11
179.9993062252521
 21
365.96749201781785
  0
LINE
  8
_0-3_躯体と製品
  6
CONTINUOUS
 62
    7
 10
179.9993062252521
 20
365.96749201781785
 11
182.19930622525192
 21
365.96749201781785
  0
ARC
  8
_0-3_躯体と製品
  6
CONTINUOUS
 62
    7
 10
182.19930622525192
 20
366.46749201781785
 40
0.4999999999999999
 50
270
 51
0.0000000000000127
  0
LINE
  8
_0-3_躯体と製品
  6
CONTINUOUS
 62
    7
 10
182.69930622525192
 20
366.46749201781785
 11
182.69930622525192
 21
367.46749201781785
  0
ARC
  8
_0-3_躯体と製品
  6
CONTINUOUS
 62
    7
 10
182.19930622525192
 20
367.46749201781785
 40
0.4999999999999999
 50
0.0000000000000052
 51
90.000000000000014
  0
LINE
  8
_0-3_躯体と製品
  6
CONTINUOUS
 62
    7
 10
182.19930622525192
 20
367.96749201781785
 11
181.9993062252521
 21
367.96749201781785
  0
LINE
  8
_0-3_躯体と製品
  6
CONTINUOUS
 62
    7
 10
181.9993062252521
 20
367.96749201781785
 11
181.9993062252521
 21
371.46749201781785
  0
ARC
  8
_0-3_躯体と製品
  6
CONTINUOUS
 62
    7
 10
182.29930622525146
 20
371.46749201781751
 40
0.2999999999993747
 50
89.999999999932697
 51
179.99999999993705
  0
LINE
  8
_0-3_躯体と製品
  6
CONTINUOUS
 62
    7
 10
182.29930622525183
 20
371.76749201781689
 11
182.69930622525192
 21
371.76749201781689
  0
LINE
  8
_0-3_躯体と製品
  6
CONTINUOUS
 62
    7
 10
182.69930622525192
 20
371.76749201781689
 11
182.69930622525192
 21
371.46749201781785
  0
LINE
  8
_0-3_躯体と製品
  6
CONTINUOUS
 62
    7
 10
182.69930622525192
 20
371.46749201781785
 11
183.4993062252521
 21
371.46749201781785
  0
LINE
  8
_0-3_躯体と製品
  6
CONTINUOUS
 62
    7
 10
183.4993062252521
 20
371.46749201781785
 11
183.4993062252521
 21
371.76749201781689
  0
LINE
  8
_0-3_躯体と製品
  6
CONTINUOUS
 62
    7
 10
183.4993062252521
 20
371.76749201781689
 11
184.4993062252521
 21
371.76749201781689
  0
LINE
  8
_0-3_躯体と製品
  6
CONTINUOUS
 62
    7
 10
184.4993062252521
 20
371.76749201781689
 11
184.4993062252521
 21
371.46749201781785
  0
LINE
  8
_0-3_躯体と製品
  6
CONTINUOUS
 62
    7
 10
184.4993062252521
 20
371.46749201781785
 11
185.4993062252521
 21
371.46749201781785
  0
LINE
  8
_0-3_躯体と製品
  6
CONTINUOUS
 62
    7
 10
185.4993062252521
 20
371.46749201781785
 11
185.4993062252521
 21
371.76749201781689
  0
LINE
  8
_0-3_躯体と製品
  6
CONTINUOUS
 62
    7
 10
185.4993062252521
 20
371.76749201781689
 11
185.69930622525192
 21
371.76749201781689
  0
ARC
  8
_0-3_躯体と製品
  6
CONTINUOUS
 62
    7
 10
185.69930622525203
 20
372.5674920178169
 40
0.8000000000000566
 50
269.99999999999102
 51
359.99999999999267
  0
LINE
  8
_0-3_躯体と製品
  6
CONTINUOUS
 62
    7
 10
186.4993062252521
 20
372.56749201781685
 11
186.4993062252521
 21
375.46749201781785
  0
LINE
  8
_0-3_躯体と製品
  6
CONTINUOUS
 62
    7
 10
186.4993062252521
 20
375.46749201781785
 11
185.9993062252521
 21
375.46749201781785
  0
ARC
  8
_0-3_躯体と製品
  6
CONTINUOUS
 62
    7
 10
185.9993062252521
 20
374.96749201781785
 40
0.4999999999999999
 50
90
 51
180
  0
LINE
  8
_0-3_躯体と製品
  6
CONTINUOUS
 62
    7
 10
185.4993062252521
 20
374.96749201781785
 11
185.4993062252521
 21
374.46749201781785
  0
ARC
  8
_0-3_躯体と製品
  6
CONTINUOUS
 62
    7
 10
184.9993062252521
 20
374.46749201781785
 40
0.4999999999999999
 50
270
 51
0
  0
LINE
  8
_0-3_躯体と製品
  6
CONTINUOUS
 62
    7
 10
184.9993062252521
 20
373.96749201781785
 11
179.29930622525183
 21
373.96749201781785
  0
LINE
  8
_0-3_躯体と製品
  6
CONTINUOUS
 62
    7
 10
179.29930622525183
 20
373.96749201781785
 11
178.9993062252521
 21
373.66749201781676
  0
LINE
  8
_0-3_躯体と製品
  6
CONTINUOUS
 62
    7
 10
178.9993062252521
 20
373.66749201781676
 11
178.69930622525192
 21
373.96749201781785
  0
LINE
  8
_0-3_躯体と製品
  6
CONTINUOUS
 62
    7
 10
178.69930622525192
 20
373.96749201781785
 11
171.9993062252521
 21
373.96749201781785
  0
ARC
  8
_0-3_躯体と製品
  6
CONTINUOUS
 62
    7
 10
171.9993062252521
 20
374.46749201781785
 40
0.4999999999999999
 50
180
 51
270
  0
LINE
  8
_0-3_躯体と製品
  6
CONTINUOUS
 62
    7
 10
171.4993062252521
 20
374.46749201781785
 11
171.4993062252521
 21
380.16749201781789
  0
LINE
  8
_0-3_躯体と製品
  6
CONTINUOUS
 62
    7
 10
171.4993062252521
 20
380.16749201781789
 11
171.19930622525101
 21
380.46749201781785
  0
LINE
  8
_0-3_躯体と製品
  6
CONTINUOUS
 62
    7
 10
171.19930622525101
 20
380.46749201781785
 11
171.4993062252521
 21
380.76749201781689
  0
LINE
  8
_0-3_躯体と製品
  6
CONTINUOUS
 62
    7
 10
171.4993062252521
 20
380.76749201781689
 11
171.4993062252521
 21
385.96749201781785
  0
LINE
  8
_0-3_躯体と製品
  6
CONTINUOUS
 62
    7
 10
171.4993062252521
 20
385.96749201781785
 11
169.4993062252521
 21
385.96749201781785
  0
LINE
  8
_0-3_躯体と製品
  6
CONTINUOUS
 62
    4
 10
338.9993062252521
 20
366.96749201781785
 11
184.9993062252521
 21
366.96749201781785
  0
LINE
  8
_0-3_躯体と製品
  6
CONTINUOUS
 62
    4
 10
338.4993062252521
 20
365.96749201781785
 11
185.4993062252521
 21
365.96749201781785
  0
ARC
  8
_0-3_躯体と製品
  6
CONTINUOUS
 62
    4
 10
185.4993062252521
 20
366.46749201781785
 40
0.4999999999999999
 50
180
 51
270
  0
LINE
  8
_0-3_躯体と製品
  6
CONTINUOUS
 62
    4
 10
184.9993062252521
 20
366.46749201781785
 11
184.9993062252521
 21
367.96749201781785
  0
LINE
  8
_0-3_躯体と製品
  6
CONTINUOUS
 62
    4
 10
184.9993062252521
 20
367.96749201781785
 11
183.4993062252521
 21
367.96749201781785
  0
ARC
  8
_0-3_躯体と製品
  6
CONTINUOUS
 62
    4
 10
183.4993062252521
 20
369.46749201781785
 40
1.4999999999999851
 50
179.99999999999943
 51
270.00000000000057
  0
LINE
  8
_0-3_躯体と製品
  6
CONTINUOUS
 62
    4
 10
181.9993062252521
 20
369.46749201781785
 11
181.9993062252521
 21
371.46749201781785
  0
LINE
  8
_0-3_躯体と製品
  6
CONTINUOUS
 62
    4
 10
181.9993062252521
 20
371.46749201781785
 11
185.9993062252521
 21
371.46749201781785
  0
ARC
  8
_0-3_躯体と製品
  6
CONTINUOUS
 62
    4
 10
185.9993062252521
 20
374.46749201781785
 40
2.9999999999999996
 50
270
 51
0.0000000000000127
  0
LINE
  8
_0-3_躯体と製品
  6
CONTINUOUS
 62
    4
 10
188.9993062252521
 20
374.46749201781785
 11
188.9993062252521
 21
385.46749201781785
  0
ARC
  8
_0-3_躯体と製品
  6
CONTINUOUS
 62
    4
 10
185.9993062252521
 20
385.46749201781785
 40
2.9999999999999996
 50
0.0000000000000052
 51
90.000000000000014
  0
LINE
  8
_0-3_躯体と製品
  6
CONTINUOUS
 62
    4
 10
185.9993062252521
 20
388.46749201781785
 11
181.9993062252521
 21
388.46749201781785
  0
LINE
  8
_0-3_躯体と製品
  6
CONTINUOUS
 62
    4
 10
181.9993062252521
 20
388.46749201781785
 11
181.9993062252521
 21
392.96749201781785
  0
ARC
  8
_0-3_躯体と製品
  6
CONTINUOUS
 62
    4
 10
182.9993062252521
 20
392.96749201781785
 40
0.9999999999999998
 50
89.999999999999986
 51
180
  0
LINE
  8
_0-3_躯体と製品
  6
CONTINUOUS
 62
    4
 10
182.9993062252521
 20
393.96749201781785
 11
340.9993062252521
 21
393.96749201781785
  0
ARC
  8
_0-3_躯体と製品
  6
CONTINUOUS
 62
    4
 10
340.9993062252521
 20
392.96749201781785
 40
0.9999999999999998
 50
0
 51
90
  0
LINE
  8
_0-3_躯体と製品
  6
CONTINUOUS
 62
    4
 10
341.9993062252521
 20
392.96749201781785
 11
341.9993062252521
 21
388.46749201781785
  0
LINE
  8
_0-3_躯体と製品
  6
CONTINUOUS
 62
    4
 10
341.9993062252521
 20
388.46749201781785
 11
337.9993062252521
 21
388.46749201781785
  0
ARC
  8
_0-3_躯体と製品
  6
CONTINUOUS
 62
    4
 10
337.99930622525164
 20
385.46749201781739
 40
3.0000000000004547
 50
89.999999999991303
 51
179.9999999999913
  0
LINE
  8
_0-3_躯体と製品
  6
CONTINUOUS
 62
    4
 10
334.99930622525119
 20
385.46749201781785
 11
334.99930622525119
 21
374.46749201781785
  0
ARC
  8
_0-3_躯体と製品
  6
CONTINUOUS
 62
    4
 10
337.99930622525164
 20
374.4674920178183
 40
3.0000000000004547
 50
180.00000000000867
 51
270.0000000000087
  0
LINE
  8
_0-3_躯体と製品
  6
CONTINUOUS
 62
    4
 10
337.9993062252521
 20
371.46749201781785
 11
341.9993062252521
 21
371.46749201781785
  0
LINE
  8
_0-3_躯体と製品
  6
CONTINUOUS
 62
    4
 10
341.9993062252521
 20
371.46749201781785
 11
341.9993062252521
 21
369.46749201781785
  0
ARC
  8
_0-3_躯体と製品
  6
CONTINUOUS
 62
    4
 10
340.4993062252521
 20
369.46749201781785
 40
1.4999999999999998
 50
270
 51
0
  0
LINE
  8
_0-3_躯体と製品
  6
CONTINUOUS
 62
    4
 10
340.4993062252521
 20
367.96749201781785
 11
338.9993062252521
 21
367.96749201781785
  0
LINE
  8
_0-3_躯体と製品
  6
CONTINUOUS
 62
    4
 10
338.9993062252521
 20
367.96749201781785
 11
338.9993062252521
 21
366.46749201781785
  0
LINE
  8
_0-3_躯体と製品
  6
CONTINUOUS
 62
    4
 10
338.9993062252521
 20
366.46749201781785
 11
338.4993062252521
 21
365.96749201781785
  0
LINE
  8
_0-3_躯体と製品
  6
CONTINUOUS
 62
    4
 10
182.9993062252521
 20
388.46749201781785
 11
182.9993062252521
 21
392.96749201781785
  0
LINE
  8
_0-3_躯体と製品
  6
CONTINUOUS
 62
    4
 10
182.9993062252521
 20
392.96749201781785
 11
340.9993062252521
 21
392.96749201781785
  0
LINE
  8
_0-3_躯体と製品
  6
CONTINUOUS
 62
    4
 10
340.9993062252521
 20
392.96749201781785
 11
340.9993062252521
 21
388.46749201781785
  0
LINE
  8
_0-3_躯体と製品
  6
CONTINUOUS
 62
    4
 10
219.4993062252521
 20
372.96749201781785
 11
226.4993062252521
 21
372.96749201781785
  0
LINE
  8
_0-3_躯体と製品
  6
CONTINUOUS
 62
    4
 10
226.4993062252521
 20
372.96749201781785
 11
226.9993062252521
 21
373.46749201781785
  0
LINE
  8
_0-3_躯体と製品
  6
CONTINUOUS
 62
    4
 10
226.9993062252521
 20
373.46749201781785
 11
226.9993062252521
 21
386.46749201781785
  0
LINE
  8
_0-3_躯体と製品
  6
CONTINUOUS
 62
    4
 10
226.9993062252521
 20
386.46749201781785
 11
226.4993062252521
 21
386.96749201781785
  0
LINE
  8
_0-3_躯体と製品
  6
CONTINUOUS
 62
    4
 10
226.4993062252521
 20
386.96749201781785
 11
219.4993062252521
 21
386.96749201781785
  0
LINE
  8
_0-3_躯体と製品
  6
CONTINUOUS
 62
    4
 10
219.4993062252521
 20
386.96749201781785
 11
218.99930622525119
 21
386.46749201781785
  0
LINE
  8
_0-3_躯体と製品
  6
CONTINUOUS
 62
    4
 10
218.99930622525119
 20
386.46749201781785
 11
218.99930622525119
 21
373.46749201781785
  0
LINE
  8
_0-3_躯体と製品
  6
CONTINUOUS
 62
    4
 10
218.99930622525119
 20
373.46749201781785
 11
219.4993062252521
 21
372.96749201781785
  0
LINE
  8
_0-3_躯体と製品
  6
CONTINUOUS
 62
    4
 10
231.9993062252521
 20
371.46749201781785
 11
258.9993062252521
 21
371.46749201781785
  0
LINE
  8
_0-3_躯体と製品
  6
CONTINUOUS
 62
    4
 10
258.9993062252521
 20
371.46749201781785
 11
259.4993062252521
 21
371.96749201781785
  0
LINE
  8
_0-3_躯体と製品
  6
CONTINUOUS
 62
    4
 10
259.4993062252521
 20
371.96749201781785
 11
259.4993062252521
 21
387.96749201781785
  0
LINE
  8
_0-3_躯体と製品
  6
CONTINUOUS
 62
    4
 10
259.4993062252521
 20
387.96749201781785
 11
258.9993062252521
 21
388.46749201781785
  0
LINE
  8
_0-3_躯体と製品
  6
CONTINUOUS
 62
    4
 10
258.9993062252521
 20
388.46749201781785
 11
231.9993062252521
 21
388.46749201781785
  0
LINE
  8
_0-3_躯体と製品
  6
CONTINUOUS
 62
    4
 10
231.9993062252521
 20
388.46749201781785
 11
231.4993062252521
 21
387.96749201781785
  0
LINE
  8
_0-3_躯体と製品
  6
CONTINUOUS
 62
    4
 10
231.4993062252521
 20
387.96749201781785
 11
231.4993062252521
 21
371.96749201781785
  0
LINE
  8
_0-3_躯体と製品
  6
CONTINUOUS
 62
    4
 10
231.4993062252521
 20
371.96749201781785
 11
231.9993062252521
 21
371.46749201781785
  0
LINE
  8
_0-3_躯体と製品
  6
CONTINUOUS
 62
    4
 10
194.4993062252521
 20
371.46749201781785
 11
213.9993062252521
 21
371.46749201781785
  0
LINE
  8
_0-3_躯体と製品
  6
CONTINUOUS
 62
    4
 10
213.9993062252521
 20
371.46749201781785
 11
214.4993062252521
 21
371.96749201781785
  0
LINE
  8
_0-3_躯体と製品
  6
CONTINUOUS
 62
    4
 10
214.4993062252521
 20
371.96749201781785
 11
214.4993062252521
 21
387.96749201781785
  0
LINE
  8
_0-3_躯体と製品
  6
CONTINUOUS
 62
    4
 10
214.4993062252521
 20
387.96749201781785
 11
213.9993062252521
 21
388.46749201781785
  0
LINE
  8
_0-3_躯体と製品
  6
CONTINUOUS
 62
    4
 10
213.9993062252521
 20
388.46749201781785
 11
194.4993062252521
 21
388.46749201781785
  0
LINE
  8
_0-3_躯体と製品
  6
CONTINUOUS
 62
    4
 10
194.4993062252521
 20
388.46749201781785
 11
193.99930622525119
 21
387.96749201781785
  0
LINE
  8
_0-3_躯体と製品
  6
CONTINUOUS
 62
    4
 10
193.99930622525119
 20
387.96749201781785
 11
193.99930622525119
 21
371.96749201781785
  0
LINE
  8
_0-3_躯体と製品
  6
CONTINUOUS
 62
    4
 10
193.99930622525119
 20
371.96749201781785
 11
194.4993062252521
 21
371.46749201781785
  0
LINE
  8
_0-3_躯体と製品
  6
CONTINUOUS
 62
    4
 10
304.4993062252521
 20
372.96749201781785
 11
297.49930622525119
 21
372.96749201781785
  0
LINE
  8
_0-3_躯体と製品
  6
CONTINUOUS
 62
    4
 10
297.49930622525119
 20
372.96749201781785
 11
296.9993062252521
 21
373.46749201781785
  0
LINE
  8
_0-3_躯体と製品
  6
CONTINUOUS
 62
    4
 10
296.9993062252521
 20
373.46749201781785
 11
296.9993062252521
 21
386.46749201781785
  0
LINE
  8
_0-3_躯体と製品
  6
CONTINUOUS
 62
    4
 10
296.9993062252521
 20
386.46749201781785
 11
297.49930622525119
 21
386.96749201781785
  0
LINE
  8
_0-3_躯体と製品
  6
CONTINUOUS
 62
    4
 10
297.49930622525119
 20
386.96749201781785
 11
304.4993062252521
 21
386.96749201781785
  0
LINE
  8
_0-3_躯体と製品
  6
CONTINUOUS
 62
    4
 10
304.4993062252521
 20
386.96749201781785
 11
304.9993062252521
 21
386.46749201781785
  0
LINE
  8
_0-3_躯体と製品
  6
CONTINUOUS
 62
    4
 10
304.9993062252521
 20
386.46749201781785
 11
304.9993062252521
 21
373.46749201781785
  0
LINE
  8
_0-3_躯体と製品
  6
CONTINUOUS
 62
    4
 10
304.9993062252521
 20
373.46749201781785
 11
304.4993062252521
 21
372.96749201781785
  0
LINE
  8
_0-3_躯体と製品
  6
CONTINUOUS
 62
    4
 10
291.9993062252521
 20
371.46749201781785
 11
264.9993062252521
 21
371.46749201781785
  0
LINE
  8
_0-3_躯体と製品
  6
CONTINUOUS
 62
    4
 10
264.9993062252521
 20
371.46749201781785
 11
264.4993062252521
 21
371.96749201781785
  0
LINE
  8
_0-3_躯体と製品
  6
CONTINUOUS
 62
    4
 10
264.4993062252521
 20
371.96749201781785
 11
264.4993062252521
 21
387.96749201781785
  0
LINE
  8
_0-3_躯体と製品
  6
CONTINUOUS
 62
    4
 10
264.4993062252521
 20
387.96749201781785
 11
264.9993062252521
 21
388.46749201781785
  0
LINE
  8
_0-3_躯体と製品
  6
CONTINUOUS
 62
    4
 10
264.9993062252521
 20
388.46749201781785
 11
291.9993062252521
 21
388.46749201781785
  0
LINE
  8
_0-3_躯体と製品
  6
CONTINUOUS
 62
    4
 10
291.9993062252521
 20
388.46749201781785
 11
292.4993062252521
 21
387.96749201781785
  0
LINE
  8
_0-3_躯体と製品
  6
CONTINUOUS
 62
    4
 10
292.4993062252521
 20
387.96749201781785
 11
292.4993062252521
 21
371.96749201781785
  0
LINE
  8
_0-3_躯体と製品
  6
CONTINUOUS
 62
    4
 10
292.4993062252521
 20
371.96749201781785
 11
291.9993062252521
 21
371.46749201781785
  0
LINE
  8
_0-3_躯体と製品
  6
CONTINUOUS
 62
    4
 10
329.49930622525119
 20
371.46749201781785
 11
309.9993062252521
 21
371.46749201781785
  0
LINE
  8
_0-3_躯体と製品
  6
CONTINUOUS
 62
    4
 10
309.9993062252521
 20
371.46749201781785
 11
309.4993062252521
 21
371.96749201781785
  0
LINE
  8
_0-3_躯体と製品
  6
CONTINUOUS
 62
    4
 10
309.4993062252521
 20
371.96749201781785
 11
309.4993062252521
 21
387.96749201781785
  0
LINE
  8
_0-3_躯体と製品
  6
CONTINUOUS
 62
    4
 10
309.4993062252521
 20
387.96749201781785
 11
309.9993062252521
 21
388.46749201781785
  0
LINE
  8
_0-3_躯体と製品
  6
CONTINUOUS
 62
    4
 10
309.9993062252521
 20
388.46749201781785
 11
329.49930622525119
 21
388.46749201781785
  0
LINE
  8
_0-3_躯体と製品
  6
CONTINUOUS
 62
    4
 10
329.49930622525119
 20
388.46749201781785
 11
329.9993062252521
 21
387.96749201781785
  0
LINE
  8
_0-3_躯体と製品
  6
CONTINUOUS
 62
    4
 10
329.9993062252521
 20
387.96749201781785
 11
329.9993062252521
 21
371.96749201781785
  0
LINE
  8
_0-3_躯体と製品
  6
CONTINUOUS
 62
    4
 10
329.9993062252521
 20
371.96749201781785
 11
329.49930622525119
 21
371.46749201781785
  0
LINE
  8
_0-3_躯体と製品
  6
CONTINUOUS
 62
    7
 10
335.4993062252521
 20
385.96749201781785
 11
335.4993062252521
 21
374.76749201781689
  0
ARC
  8
_0-3_躯体と製品
  6
CONTINUOUS
 62
    7
 10
338.4993062252521
 20
374.76749201781689
 40
2.9999999999999996
 50
180
 51
270
  0
LINE
  8
_0-3_躯体と製品
  6
CONTINUOUS
 62
    7
 10
338.4993062252521
 20
371.76749201781689
 11
338.4993062252521
 21
371.46749201781785
  0
LINE
  8
_0-3_躯体と製品
  6
CONTINUOUS
 62
    7
 10
338.4993062252521
 20
371.46749201781785
 11
339.4993062252521
 21
371.46749201781785
  0
LINE
  8
_0-3_躯体と製品
  6
CONTINUOUS
 62
    7
 10
339.4993062252521
 20
371.46749201781785
 11
339.4993062252521
 21
371.76749201781689
  0
LINE
  8
_0-3_躯体と製品
  6
CONTINUOUS
 62
    7
 10
339.4993062252521
 20
371.76749201781689
 11
340.4993062252521
 21
371.76749201781689
  0
LINE
  8
_0-3_躯体と製品
  6
CONTINUOUS
 62
    7
 10
340.4993062252521
 20
371.76749201781689
 11
340.4993062252521
 21
371.46749201781785
  0
LINE
  8
_0-3_躯体と製品
  6
CONTINUOUS
 62
    7
 10
340.4993062252521
 20
371.46749201781785
 11
341.29930622525183
 21
371.46749201781785
  0
LINE
  8
_0-3_躯体と製品
  6
CONTINUOUS
 62
    7
 10
341.29930622525183
 20
371.46749201781785
 11
341.29930622525183
 21
371.76749201781689
  0
LINE
  8
_0-3_躯体と製品
  6
CONTINUOUS
 62
    7
 10
341.29930622525183
 20
371.76749201781689
 11
341.69930622525101
 21
371.76749201781689
  0
ARC
  8
_0-3_躯体と製品
  6
CONTINUOUS
 62
    7
 10
341.69930622525203
 20
371.46749201781682
 40
0.3000000000000568
 50
0.0000000001932505
 51
90.000000000197602
  0
LINE
  8
_0-3_躯体と製品
  6
CONTINUOUS
 62
    7
 10
341.9993062252521
 20
371.46749201781785
 11
341.9993062252521
 21
367.96749201781785
  0
LINE
  8
_0-3_躯体と製品
  6
CONTINUOUS
 62
    7
 10
341.9993062252521
 20
367.96749201781785
 11
340.4993062252521
 21
367.96749201781785
  0
ARC
  8
_0-3_躯体と製品
  6
CONTINUOUS
 62
    7
 10
340.4993062252521
 20
367.46749201781785
 40
0.4999999999999999
 50
90
 51
180
  0
LINE
  8
_0-3_躯体と製品
  6
CONTINUOUS
 62
    7
 10
339.9993062252521
 20
367.46749201781785
 11
339.9993062252521
 21
366.46749201781785
  0
ARC
  8
_0-3_躯体と製品
  6
CONTINUOUS
 62
    7
 10
340.4993062252521
 20
366.46749201781785
 40
0.4999999999999999
 50
180
 51
270
  0
LINE
  8
_0-3_躯体と製品
  6
CONTINUOUS
 62
    7
 10
340.4993062252521
 20
365.96749201781785
 11
343.9993062252521
 21
365.96749201781785
  0
LINE
  8
_0-3_躯体と製品
  6
CONTINUOUS
 62
    7
 10
343.9993062252521
 20
365.96749201781785
 11
343.9993062252521
 21
366.26749201781689
  0
LINE
  8
_0-3_躯体と製品
  6
CONTINUOUS
 62
    7
 10
343.9993062252521
 20
366.26749201781689
 11
345.9993062252521
 21
366.26749201781689
  0
LINE
  8
_0-3_躯体と製品
  6
CONTINUOUS
 62
    7
 10
345.9993062252521
 20
366.26749201781689
 11
345.9993062252521
 21
365.96749201781785
  0
LINE
  8
_0-3_躯体と製品
  6
CONTINUOUS
 62
    7
 10
345.9993062252521
 20
365.96749201781785
 11
348.19930622525192
 21
365.96749201781785
  0
ARC
  8
_0-3_躯体と製品
  6
CONTINUOUS
 62
    7
 10
348.19930622525192
 20
366.46749201781785
 40
0.4999999999999999
 50
270
 51
0.0000000000000127
  0
LINE
  8
_0-3_躯体と製品
  6
CONTINUOUS
 62
    7
 10
348.69930622525192
 20
366.46749201781785
 11
348.69930622525192
 21
367.46749201781785
  0
ARC
  8
_0-3_躯体と製品
  6
CONTINUOUS
 62
    7
 10
348.19930622525192
 20
367.46749201781785
 40
0.4999999999999999
 50
0.0000000000000052
 51
90.000000000000014
  0
LINE
  8
_0-3_躯体と製品
  6
CONTINUOUS
 62
    7
 10
348.19930622525192
 20
367.96749201781785
 11
347.9993062252521
 21
367.96749201781785
  0
LINE
  8
_0-3_躯体と製品
  6
CONTINUOUS
 62
    7
 10
347.9993062252521
 20
367.96749201781785
 11
347.9993062252521
 21
371.46749201781785
  0
ARC
  8
_0-3_躯体と製品
  6
CONTINUOUS
 62
    7
 10
348.29930622525148
 20
371.46749201781751
 40
0.2999999999993747
 50
89.999999999932697
 51
179.99999999993705
  0
LINE
  8
_0-3_躯体と製品
  6
CONTINUOUS
 62
    7
 10
348.29930622525183
 20
371.76749201781689
 11
348.69930622525192
 21
371.76749201781689
  0
LINE
  8
_0-3_躯体と製品
  6
CONTINUOUS
 62
    7
 10
348.69930622525192
 20
371.76749201781689
 11
348.69930622525192
 21
371.46749201781785
  0
LINE
  8
_0-3_躯体と製品
  6
CONTINUOUS
 62
    7
 10
348.69930622525192
 20
371.46749201781785
 11
349.4993062252521
 21
371.46749201781785
  0
LINE
  8
_0-3_躯体と製品
  6
CONTINUOUS
 62
    7
 10
349.4993062252521
 20
371.46749201781785
 11
349.4993062252521
 21
371.76749201781689
  0
LINE
  8
_0-3_躯体と製品
  6
CONTINUOUS
 62
    7
 10
349.4993062252521
 20
371.76749201781689
 11
350.4993062252521
 21
371.76749201781689
  0
LINE
  8
_0-3_躯体と製品
  6
CONTINUOUS
 62
    7
 10
350.4993062252521
 20
371.76749201781689
 11
350.4993062252521
 21
371.46749201781785
  0
LINE
  8
_0-3_躯体と製品
  6
CONTINUOUS
 62
    7
 10
350.4993062252521
 20
371.46749201781785
 11
351.4993062252521
 21
371.46749201781785
  0
LINE
  8
_0-3_躯体と製品
  6
CONTINUOUS
 62
    7
 10
351.4993062252521
 20
371.46749201781785
 11
351.4993062252521
 21
371.76749201781689
  0
LINE
  8
_0-3_躯体と製品
  6
CONTINUOUS
 62
    7
 10
351.4993062252521
 20
371.76749201781689
 11
351.69930622525192
 21
371.76749201781689
  0
ARC
  8
_0-3_躯体と製品
  6
CONTINUOUS
 62
    7
 10
351.69930622525203
 20
372.5674920178169
 40
0.8000000000000566
 50
269.99999999999102
 51
359.99999999999267
  0
LINE
  8
_0-3_躯体と製品
  6
CONTINUOUS
 62
    7
 10
352.4993062252521
 20
372.56749201781685
 11
352.4993062252521
 21
375.46749201781785
  0
LINE
  8
_0-3_躯体と製品
  6
CONTINUOUS
 62
    7
 10
352.4993062252521
 20
375.46749201781785
 11
351.9993062252521
 21
375.46749201781785
  0
ARC
  8
_0-3_躯体と製品
  6
CONTINUOUS
 62
    7
 10
351.9993062252521
 20
374.96749201781785
 40
0.4999999999999999
 50
90
 51
180
  0
LINE
  8
_0-3_躯体と製品
  6
CONTINUOUS
 62
    7
 10
351.4993062252521
 20
374.96749201781785
 11
351.4993062252521
 21
374.46749201781785
  0
ARC
  8
_0-3_躯体と製品
  6
CONTINUOUS
 62
    7
 10
350.9993062252521
 20
374.46749201781785
 40
0.4999999999999999
 50
270
 51
0
  0
LINE
  8
_0-3_躯体と製品
  6
CONTINUOUS
 62
    7
 10
350.9993062252521
 20
373.96749201781785
 11
345.29930622525183
 21
373.96749201781785
  0
LINE
  8
_0-3_躯体と製品
  6
CONTINUOUS
 62
    7
 10
345.29930622525183
 20
373.96749201781785
 11
344.9993062252521
 21
373.66749201781676
  0
LINE
  8
_0-3_躯体と製品
  6
CONTINUOUS
 62
    7
 10
344.9993062252521
 20
373.66749201781676
 11
344.69930622525192
 21
373.96749201781785
  0
LINE
  8
_0-3_躯体と製品
  6
CONTINUOUS
 62
    7
 10
344.69930622525192
 20
373.96749201781785
 11
337.9993062252521
 21
373.96749201781785
  0
ARC
  8
_0-3_躯体と製品
  6
CONTINUOUS
 62
    7
 10
337.9993062252521
 20
374.46749201781785
 40
0.4999999999999999
 50
180
 51
270
  0
LINE
  8
_0-3_躯体と製品
  6
CONTINUOUS
 62
    7
 10
337.4993062252521
 20
374.46749201781785
 11
337.4993062252521
 21
380.16749201781789
  0
LINE
  8
_0-3_躯体と製品
  6
CONTINUOUS
 62
    7
 10
337.4993062252521
 20
380.16749201781789
 11
337.19930622525101
 21
380.46749201781785
  0
LINE
  8
_0-3_躯体と製品
  6
CONTINUOUS
 62
    7
 10
337.19930622525101
 20
380.46749201781785
 11
337.4993062252521
 21
380.76749201781689
  0
LINE
  8
_0-3_躯体と製品
  6
CONTINUOUS
 62
    7
 10
337.4993062252521
 20
380.76749201781689
 11
337.4993062252521
 21
385.96749201781785
  0
LINE
  8
_0-3_躯体と製品
  6
CONTINUOUS
 62
    7
 10
337.4993062252521
 20
385.96749201781785
 11
335.4993062252521
 21
385.96749201781785
  0
LINE
  8
_0-3_躯体と製品
  6
CONTINUOUS
 62
    4
 10
391.99703732290311
 20
366.96749201781785
 11
350.9993062252521
 21
366.96749201781785
  0
LINE
  8
_0-3_躯体と製品
  6
CONTINUOUS
 62
    4
 10
391.99695005742808
 20
365.96749201781785
 11
351.4993062252521
 21
365.96749201781785
  0
ARC
  8
_0-3_躯体と製品
  6
CONTINUOUS
 62
    4
 10
351.4993062252521
 20
366.46749201781785
 40
0.4999999999999999
 50
180
 51
270
  0
LINE
  8
_0-3_躯体と製品
  6
CONTINUOUS
 62
    4
 10
350.9993062252521
 20
366.46749201781785
 11
350.9993062252521
 21
367.96749201781785
  0
LINE
  8
_0-3_躯体と製品
  6
CONTINUOUS
 62
    4
 10
350.9993062252521
 20
367.96749201781785
 11
349.4993062252521
 21
367.96749201781785
  0
ARC
  8
_0-3_躯体と製品
  6
CONTINUOUS
 62
    4
 10
349.4993062252521
 20
369.46749201781785
 40
1.4999999999999851
 50
179.99999999999943
 51
270.00000000000057
  0
LINE
  8
_0-3_躯体と製品
  6
CONTINUOUS
 62
    4
 10
347.9993062252521
 20
369.46749201781785
 11
347.9993062252521
 21
371.46749201781785
  0
LINE
  8
_0-3_躯体と製品
  6
CONTINUOUS
 62
    4
 10
347.9993062252521
 20
371.46749201781785
 11
351.9993062252521
 21
371.46749201781785
  0
ARC
  8
_0-3_躯体と製品
  6
CONTINUOUS
 62
    4
 10
351.9993062252521
 20
374.46749201781785
 40
2.9999999999999996
 50
270
 51
0.0000000000000127
  0
LINE
  8
_0-3_躯体と製品
  6
CONTINUOUS
 62
    4
 10
354.9993062252521
 20
374.46749201781785
 11
354.9993062252521
 21
385.46749201781785
  0
ARC
  8
_0-3_躯体と製品
  6
CONTINUOUS
 62
    4
 10
351.9993062252521
 20
385.46749201781785
 40
2.9999999999999996
 50
0.0000000000000052
 51
90.000000000000014
  0
LINE
  8
_0-3_躯体と製品
  6
CONTINUOUS
 62
    4
 10
351.9993062252521
 20
388.46749201781785
 11
347.9993062252521
 21
388.46749201781785
  0
LINE
  8
_0-3_躯体と製品
  6
CONTINUOUS
 62
    4
 10
347.9993062252521
 20
388.46749201781785
 11
347.9993062252521
 21
392.96749201781785
  0
ARC
  8
_0-3_躯体と製品
  6
CONTINUOUS
 62
    4
 10
348.9993062252521
 20
392.96749201781785
 40
0.9999999999999998
 50
89.999999999999986
 51
180
  0
LINE
  8
_0-3_躯体と製品
  6
CONTINUOUS
 62
    4
 10
348.9993062252521
 20
393.96749201781785
 11
391.9993062252521
 21
393.96749201781785
  0
LINE
  8
_0-3_躯体と製品
  6
CONTINUOUS
 62
    4
 10
348.9993062252521
 20
388.46749201781785
 11
348.9993062252521
 21
392.96749201781785
  0
LINE
  8
_0-3_躯体と製品
  6
CONTINUOUS
 62
    4
 10
348.9993062252521
 20
392.96749201781785
 11
391.9993062252521
 21
392.96749201781785
  0
LINE
  8
_0-3_躯体と製品
  6
CONTINUOUS
 62
    4
 10
391.99878263240282
 20
386.96749201781785
 11
385.4993062252521
 21
386.96749201781785
  0
LINE
  8
_0-3_躯体と製品
  6
CONTINUOUS
 62
    4
 10
385.4993062252521
 20
386.96749201781785
 11
384.9993062252521
 21
386.46749201781785
  0
LINE
  8
_0-3_躯体と製品
  6
CONTINUOUS
 62
    4
 10
384.9993062252521
 20
386.46749201781785
 11
384.9993062252521
 21
373.46749201781785
  0
LINE
  8
_0-3_躯体と製品
  6
CONTINUOUS
 62
    4
 10
384.9993062252521
 20
373.46749201781785
 11
385.4993062252521
 21
372.96749201781785
  0
LINE
  8
_0-3_躯体と製品
  6
CONTINUOUS
 62
    4
 10
385.4993062252521
 20
372.96749201781785
 11
391.99756091575284
 21
372.96749201781785
  0
LINE
  8
_0-3_躯体と製品
  6
CONTINUOUS
 62
    4
 10
360.4993062252521
 20
371.46749201781785
 11
379.9993062252521
 21
371.46749201781785
  0
LINE
  8
_0-3_躯体と製品
  6
CONTINUOUS
 62
    4
 10
379.9993062252521
 20
371.46749201781785
 11
380.4993062252521
 21
371.96749201781785
  0
LINE
  8
_0-3_躯体と製品
  6
CONTINUOUS
 62
    4
 10
380.4993062252521
 20
371.96749201781785
 11
380.4993062252521
 21
387.96749201781785
  0
LINE
  8
_0-3_躯体と製品
  6
CONTINUOUS
 62
    4
 10
380.4993062252521
 20
387.96749201781785
 11
379.9993062252521
 21
388.46749201781785
  0
LINE
  8
_0-3_躯体と製品
  6
CONTINUOUS
 62
    4
 10
379.9993062252521
 20
388.46749201781785
 11
360.4993062252521
 21
388.46749201781785
  0
LINE
  8
_0-3_躯体と製品
  6
CONTINUOUS
 62
    4
 10
360.4993062252521
 20
388.46749201781785
 11
359.9993062252521
 21
387.96749201781785
  0
LINE
  8
_0-3_躯体と製品
  6
CONTINUOUS
 62
    4
 10
359.9993062252521
 20
387.96749201781785
 11
359.9993062252521
 21
371.96749201781785
  0
LINE
  8
_0-3_躯体と製品
  6
CONTINUOUS
 62
    4
 10
359.9993062252521
 20
371.96749201781785
 11
360.4993062252521
 21
371.46749201781785
  0
LINE
  8
_0-5_中心線
  6
CENTER1
 62
    7
 10
178.99930622525119
 20
355.31390201782273
 11
178.99930622525119
 21
380.89124201781686
  0
ARC
  8
_0-3_躯体と製品
  6
CONTINUOUS
 62
    7
 10
179.54630622522211
 20
372.17949201782062
 40
4.818999999995329
 50
48.11175499908326
 51
96.517442000065401
  0
ARC
  8
_0-3_躯体と製品
  6
CONTINUOUS
 62
    7
 10
178.45230622527052
 20
372.17949201781403
 40
4.8190000000170663
 50
83.482563001162276
 51
131.88825099943148
  0
LINE
  8
_0-3_躯体と製品
  6
CONTINUOUS
 62
    7
 10
174.9993062252521
 20
374.16749201782881
 11
174.9993062252521
 21
374.61649201782274
  0
LINE
  8
_0-3_躯体と製品
  6
CONTINUOUS
 62
    7
 10
174.9993062252521
 20
374.61649201782274
 11
175.23430622526678
 21
375.76749201783485
  0
LINE
  8
_0-3_躯体と製品
  6
CONTINUOUS
 62
    7
 10
175.23430622526678
 20
375.76749201783485
 11
178.9993062252521
 21
375.76749201783485
  0
LINE
  8
_0-3_躯体と製品
  6
CONTINUOUS
 62
    7
 10
178.9993062252521
 20
375.76749201783485
 11
182.76430622526607
 21
375.76749201783485
  0
LINE
  8
_0-3_躯体と製品
  6
CONTINUOUS
 62
    7
 10
182.76430622526607
 20
375.76749201783485
 11
182.9993062252521
 21
374.61649201782274
  0
LINE
  8
_0-3_躯体と製品
  6
CONTINUOUS
 62
    7
 10
182.9993062252521
 20
374.61649201782274
 11
182.9993062252812
 21
374.16749201782881
  0
ARC
  8
_0-3_躯体と製品
  6
CONTINUOUS
 62
    7
 10
182.79930623050541
 20
374.16749201259358
 40
0.1999999947757489
 50
269.99999849989695
 51
0.0000014997773739
  0
LINE
  8
_0-3_躯体と製品
  6
CONTINUOUS
 62
    7
 10
182.79930622526911
 20
373.96749201781785
 11
178.9993062252521
 21
373.96749201781785
  0
LINE
  8
_0-3_躯体と製品
  6
CONTINUOUS
 62
    7
 10
178.9993062252521
 20
373.96749201781785
 11
175.19930621478591
 21
373.96749201781785
  0
ARC
  8
_0-3_躯体と製品
  6
CONTINUOUS
 62
    7
 10
175.19930622525476
 20
374.16749201782051
 40
0.2000000000026836
 50
180.00000600052962
 51
269.9999970008883
  0
LINE
  8
_0-5_中心線
  6
CENTER1
 62
    7
 10
344.99930622525119
 20
355.31390201782273
 11
344.99930622525119
 21
380.89124201781686
  0
ARC
  8
_0-3_躯体と製品
  6
CONTINUOUS
 62
    7
 10
345.54630622522257
 20
372.1794920178196
 40
4.8189999999963851
 50
48.111754999087267
 51
96.517442000069408
  0
ARC
  8
_0-3_躯体と製品
  6
CONTINUOUS
 62
    7
 10
344.45230622526981
 20
372.17949201781556
 40
4.8190000000154818
 50
83.482563001168288
 51
131.88825099943747
  0
LINE
  8
_0-3_躯体と製品
  6
CONTINUOUS
 62
    7
 10
340.9993062252521
 20
374.16749201782881
 11
340.9993062252521
 21
374.61649201782274
  0
LINE
  8
_0-3_躯体と製品
  6
CONTINUOUS
 62
    7
 10
340.9993062252521
 20
374.61649201782274
 11
341.23430622526678
 21
375.76749201783485
  0
LINE
  8
_0-3_躯体と製品
  6
CONTINUOUS
 62
    7
 10
341.23430622526678
 20
375.76749201783485
 11
344.9993062252521
 21
375.76749201783485
  0
LINE
  8
_0-3_躯体と製品
  6
CONTINUOUS
 62
    7
 10
344.9993062252521
 20
375.76749201783485
 11
348.76430622526607
 21
375.76749201783485
  0
LINE
  8
_0-3_躯体と製品
  6
CONTINUOUS
 62
    7
 10
348.76430622526607
 20
375.76749201783485
 11
348.9993062252521
 21
374.61649201782274
  0
LINE
  8
_0-3_躯体と製品
  6
CONTINUOUS
 62
    7
 10
348.9993062252521
 20
374.61649201782274
 11
348.9993062252812
 21
374.16749201782881
  0
ARC
  8
_0-3_躯体と製品
  6
CONTINUOUS
 62
    7
 10
348.79930623050541
 20
374.16749201259358
 40
0.1999999947757489
 50
269.99999849989695
 51
0.0000014997773739
  0
LINE
  8
_0-3_躯体と製品
  6
CONTINUOUS
 62
    7
 10
348.79930622526911
 20
373.96749201781785
 11
344.9993062252521
 21
373.96749201781785
  0
LINE
  8
_0-3_躯体と製品
  6
CONTINUOUS
 62
    7
 10
344.9993062252521
 20
373.96749201781785
 11
341.19930621478591
 21
373.96749201781785
  0
ARC
  8
_0-3_躯体と製品
  6
CONTINUOUS
 62
    7
 10
341.19930622525476
 20
374.16749201782051
 40
0.2000000000026836
 50
180.00000600052962
 51
269.9999970008883
  0
LINE
  8
_0-3_躯体と製品
  6
CONTINUOUS
 62
    7
 10
725.14875789567907
 20
328.9674920178108
 11
730.14875789567907
 21
328.9674920178108
  0
LINE
  8
_0-3_躯体と製品
  6
CONTINUOUS
 62
    7
 10
730.14875789567907
 20
328.9674920178108
 11
730.14875789567907
 21
325.9674920178108
  0
LINE
  8
_0-3_躯体と製品
  6
CONTINUOUS
 62
    7
 10
730.14875789567907
 20
325.9674920178108
 11
656.14875789567907
 21
325.9674920178108
  0
LINE
  8
_0-3_躯体と製品
  6
CONTINUOUS
 62
    7
 10
656.14875789567907
 20
325.9674920178108
 11
656.14875789567907
 21
328.9674920178108
  0
LINE
  8
_0-3_躯体と製品
  6
CONTINUOUS
 62
    7
 10
656.14875789567907
 20
328.9674920178108
 11
661.14875789567907
 21
328.9674920178108
  0
LINE
  8
_0-3_躯体と製品
  6
CONTINUOUS
 62
    7
 10
661.14875789567907
 20
328.9674920178108
 11
661.14875789567907
 21
330.9674920178108
  0
LINE
  8
_0-3_躯体と製品
  6
CONTINUOUS
 62
    7
 10
661.14875789567907
 20
330.9674920178108
 11
654.14875789567907
 21
330.9674920178108
  0
LINE
  8
_0-3_躯体と製品
  6
CONTINUOUS
 62
    7
 10
654.14875789567907
 20
330.9674920178108
 11
654.14875789567907
 21
323.9674920178108
  0
LINE
  8
_0-3_躯体と製品
  6
CONTINUOUS
 62
    7
 10
654.14875789567907
 20
323.9674920178108
 11
732.14875789567907
 21
323.9674920178108
  0
LINE
  8
_0-3_躯体と製品
  6
CONTINUOUS
 62
    7
 10
732.14875789567907
 20
323.9674920178108
 11
732.14875789567907
 21
330.9674920178108
  0
LINE
  8
_0-3_躯体と製品
  6
CONTINUOUS
 62
    7
 10
732.14875789567907
 20
330.9674920178108
 11
725.14875789567907
 21
330.9674920178108
  0
LINE
  8
_0-3_躯体と製品
  6
CONTINUOUS
 62
    7
 10
725.14875789567907
 20
330.9674920178108
 11
725.14875789567907
 21
328.9674920178108
  0
ARC
  8
_0-3_躯体と製品
  6
CONTINUOUS
 62
    7
 10
701.36175789569575
 20
329.7194920178045
 40
4.2479999999997089
 50
49.869772999451868
 51
130.11991900039169
  0
LINE
  8
_0-3_躯体と製品
  6
CONTINUOUS
 62
    7
 10
698.62475789567418
 20
327.96649201780673
 11
698.62475789567418
 21
332.96849201780782
  0
LINE
  8
_0-3_躯体と製品
  6
CONTINUOUS
 62
    7
 10
704.09975789568
 20
332.9674920178108
 11
704.09975789568
 21
327.9674920178108
  0
ARC
  8
_0-3_躯体と製品
  6
CONTINUOUS
 62
    7
 10
701.36175789569631
 20
331.21549201781067
 40
4.2479999999997089
 50
229.88008099959879
 51
310.13022700053858
  0
LINE
  8
_0-3_躯体と製品
  6
CONTINUOUS
 62
    7
 10
699.14875789567907
 20
347.4674920178108
 11
699.14875789567907
 21
333.9674920178108
  0
LINE
  8
_0-3_躯体と製品
  6
CONTINUOUS
 62
    7
 10
694.88075789569677
 20
326.9674920178108
 11
694.30342456234814
 21
325.9674920178108
  0
LINE
  8
_0-3_躯体と製品
  6
CONTINUOUS
 62
    7
 10
693.14875789567907
 20
326.9674920178108
 11
692.57142456235908
 21
325.9674920178108
  0
LINE
  8
_0-3_躯体と製品
  6
CONTINUOUS
 62
    7
 10
697.64875789567907
 20
348.9674920178108
 11
697.64875789567907
 21
333.9674920178108
  0
LINE
  8
_0-3_躯体と製品
  6
CONTINUOUS
 62
    7
 10
687.14875789567907
 20
347.4674920178108
 11
688.64875789567907
 21
348.9674920178108
  0
LINE
  8
_0-3_躯体と製品
  6
CONTINUOUS
 62
    7
 10
687.67475789569119
 20
327.96649201780673
 11
687.67475789569119
 21
332.96849201780782
  0
LINE
  8
_0-3_躯体と製品
  6
CONTINUOUS
 62
    7
 10
682.19975789568491
 20
332.9674920178108
 11
682.19975789568491
 21
327.9674920178108
  0
ARC
  8
_0-3_躯体と製品
  6
CONTINUOUS
 62
    7
 10
684.93775789569781
 20
329.71949201780467
 40
4.2479999999993998
 50
49.880087000105867
 51
130.1302330005112
  0
ARC
  8
_0-3_躯体と製品
  6
CONTINUOUS
 62
    7
 10
684.93775789569736
 20
331.21549201781056
 40
4.2479999999994025
 50
229.86976699949832
 51
310.11991299990365
  0
ARC
  8
_0-3_躯体と製品
  6
CONTINUOUS
 62
    7
 10
693.14875789567907
 20
318.47449201780682
 40
15.493000000001317
 50
69.301553000435931
 51
110.69022699919388
  0
LINE
  8
_0-3_躯体と製品
  6
CONTINUOUS
 62
    7
 10
687.14875789567907
 20
333.9674920178108
 11
687.14875789567907
 21
347.4674920178108
  0
LINE
  8
_0-3_躯体と製品
  6
CONTINUOUS
 62
    7
 10
687.14875789567907
 20
347.4674920178108
 11
699.14875789567907
 21
347.4674920178108
  0
LINE
  8
_0-3_躯体と製品
  6
CONTINUOUS
 62
    7
 10
699.14875789567907
 20
347.4674920178108
 11
697.64875789567907
 21
348.9674920178108
  0
LINE
  8
_0-3_躯体と製品
  6
CONTINUOUS
 62
    7
 10
697.64875789567907
 20
348.9674920178108
 11
688.64875789567907
 21
348.9674920178108
  0
LINE
  8
_0-3_躯体と製品
  6
CONTINUOUS
 62
    7
 10
688.64875789567907
 20
348.9674920178108
 11
688.64875789567907
 21
333.9674920178108
  0
ARC
  8
_0-3_躯体と製品
  6
CONTINUOUS
 62
    7
 10
693.14875789568032
 20
342.46049201781426
 40
15.49300000000131
 50
249.30977300080136
 51
290.69844699955934
  0
LINE
  8
_0-3_躯体と製品
  6
CONTINUOUS
 62
    7
 10
684.93675789567908
 20
333.9674920178108
 11
701.36075789567815
 21
333.9674920178108
  0
LINE
  8
_0-3_躯体と製品
  6
CONTINUOUS
 62
    7
 10
703.89875789567907
 20
325.9674920178108
 11
703.89875789567907
 21
326.9674920178108
  0
LINE
  8
_0-3_躯体と製品
  6
CONTINUOUS
 62
    7
 10
703.89875789567907
 20
326.9674920178108
 11
682.39875789567907
 21
326.9674920178108
  0
LINE
  8
_0-3_躯体と製品
  6
CONTINUOUS
 62
    7
 10
682.39875789567907
 20
326.9674920178108
 11
682.39875789567907
 21
325.9674920178108
  0
LINE
  8
_0-3_躯体と製品
  6
CONTINUOUS
 62
    3
 10
711.54875789567279
 20
328.0674920178098
 11
711.54875789567279
 21
363.86749201780475
  0
ARC
  8
_0-3_躯体と製品
  6
CONTINUOUS
 62
    3
 10
711.04875790876167
 20
363.86749203089477
 40
0.4999999869111211
 50
359.99999849999466
 51
90.000001499875111
  0
LINE
  8
_0-3_躯体と製品
  6
CONTINUOUS
 62
    3
 10
711.04875789567279
 20
364.36749201780589
 11
693.14875789567907
 21
364.36749201780589
  0
LINE
  8
_0-3_躯体と製品
  6
CONTINUOUS
 62
    3
 10
693.14875789567907
 20
364.36749201780589
 11
675.24875786950599
 21
364.36749201780589
  0
ARC
  8
_0-3_躯体と製品
  6
CONTINUOUS
 62
    3
 10
675.24875786950565
 20
363.86749204398512
 40
0.4999999738207643
 50
89.999999999960963
 51
180.00000300004987
  0
LINE
  8
_0-3_躯体と製品
  6
CONTINUOUS
 62
    3
 10
674.74875789568489
 20
363.86749201780475
 11
674.74875789567807
 21
328.0674920178098
  0
ARC
  8
_0-3_躯体と製品
  6
CONTINUOUS
 62
    3
 10
672.6487578956785
 20
328.0674920178094
 40
2.0999999999995111
 50
270.00000000001393
 51
0.000000000010848
  0
LINE
  8
_0-3_躯体と製品
  6
CONTINUOUS
 62
    3
 10
672.64875789567907
 20
325.96749201780989
 11
656.14875789567907
 21
325.9674920178108
  0
LINE
  8
_0-3_躯体と製品
  6
CONTINUOUS
 62
    3
 10
656.14875789567907
 20
325.9674920178108
 11
656.14875789567907
 21
327.5674920178098
  0
LINE
  8
_0-3_躯体と製品
  6
CONTINUOUS
 62
    3
 10
656.14875789567907
 20
327.5674920178098
 11
672.64875789567907
 21
327.5674920178098
  0
ARC
  8
_0-3_躯体と製品
  6
CONTINUOUS
 62
    3
 10
672.64875790876852
 20
328.06749200472035
 40
0.4999999869105527
 50
269.99999850005975
 51
0.0000014999402369
  0
LINE
  8
_0-3_躯体と製品
  6
CONTINUOUS
 62
    3
 10
673.14875789567907
 20
328.0674920178098
 11
673.14875789568407
 21
363.86749201780475
  0
ARC
  8
_0-3_躯体と製品
  6
CONTINUOUS
 62
    3
 10
675.24875789568455
 20
363.86749201780441
 40
2.1000000000004775
 50
89.999999999990678
 51
179.99999999999068
  0
LINE
  8
_0-3_躯体と製品
  6
CONTINUOUS
 62
    3
 10
675.24875789568489
 20
365.96749201780489
 11
693.14875789567907
 21
365.9674920178108
  0
LINE
  8
_0-3_躯体と製品
  6
CONTINUOUS
 62
    3
 10
693.14875789567907
 20
365.9674920178108
 11
711.04875789567598
 21
365.96749201780489
  0
ARC
  8
_0-3_躯体と製品
  6
CONTINUOUS
 62
    3
 10
711.04875789567598
 20
363.86749201780179
 40
2.1000000000030954
 50
0.0000000000807224
 51
89.999999999999915
  0
LINE
  8
_0-3_躯体と製品
  6
CONTINUOUS
 62
    3
 10
713.14875789567907
 20
363.86749201780475
 11
713.14875789567907
 21
328.06749196544973
  0
ARC
  8
_0-3_躯体と製品
  6
CONTINUOUS
 62
    3
 10
713.6487579087684
 20
328.06749203089902
 40
0.5000000130892235
 50
180.00000749993578
 51
269.99999850008601
  0
LINE
  8
_0-3_躯体と製品
  6
CONTINUOUS
 62
    3
 10
713.64875789567907
 20
327.5674920178098
 11
730.14875789567907
 21
327.5674920178098
  0
LINE
  8
_0-3_躯体と製品
  6
CONTINUOUS
 62
    3
 10
730.14875789567907
 20
327.5674920178098
 11
730.14875789567907
 21
325.9674920178108
  0
LINE
  8
_0-3_躯体と製品
  6
CONTINUOUS
 62
    3
 10
730.14875789567907
 20
325.9674920178108
 11
713.64875789567907
 21
325.96749201780989
  0
ARC
  8
_0-3_躯体と製品
  6
CONTINUOUS
 62
    3
 10
713.64875789567873
 20
328.06749201780951
 40
2.0999999999996222
 50
180.00000599998009
 51
270.00000000000813
  0
ARC
  8
_0-3_躯体と製品
  6
CONTINUOUS
 62
    7
 10
665.94575789567864
 20
325.77949201781155
 40
4.8189999999963851
 50
48.111754999087267
 51
96.517442000069408
  0
ARC
  8
_0-3_躯体と製品
  6
CONTINUOUS
 62
    7
 10
664.85175789572622
 20
325.77949201780598
 40
4.8190000000170663
 50
83.482563001162276
 51
131.88825099943148
  0
LINE
  8
_0-3_躯体と製品
  6
CONTINUOUS
 62
    7
 10
661.39875789570817
 20
327.76749201782189
 11
661.39875789570817
 21
328.21649201781491
  0
LINE
  8
_0-3_躯体と製品
  6
CONTINUOUS
 62
    7
 10
661.39875789570817
 20
328.21649201781491
 11
661.63375789572285
 21
329.36749201782681
  0
LINE
  8
_0-3_躯体と製品
  6
CONTINUOUS
 62
    7
 10
661.63375789572285
 20
329.36749201782681
 11
665.39875789570817
 21
329.36749201782681
  0
LINE
  8
_0-3_躯体と製品
  6
CONTINUOUS
 62
    7
 10
665.39875789570817
 20
329.36749201782681
 11
669.16375789572214
 21
329.36749201782681
  0
LINE
  8
_0-3_躯体と製品
  6
CONTINUOUS
 62
    7
 10
669.16375789572214
 20
329.36749201782681
 11
669.39875789570817
 21
328.21649201781491
  0
LINE
  8
_0-3_躯体と製品
  6
CONTINUOUS
 62
    7
 10
669.39875789570817
 20
328.21649201781491
 11
669.39875789573682
 21
327.76749201782189
  0
ARC
  8
_0-3_躯体と製品
  6
CONTINUOUS
 62
    7
 10
669.19875790096069
 20
327.76749201258588
 40
0.19999999477609
 50
269.99999850012489
 51
0.0000015000053542
  0
LINE
  8
_0-3_躯体と製品
  6
CONTINUOUS
 62
    7
 10
669.19875789572518
 20
327.5674920178098
 11
665.39875789570817
 21
327.5674920178098
  0
LINE
  8
_0-3_躯体と製品
  6
CONTINUOUS
 62
    7
 10
665.39875789570817
 20
327.5674920178098
 11
661.59875788524198
 21
327.5674920178098
  0
ARC
  8
_0-3_躯体と製品
  6
CONTINUOUS
 62
    7
 10
661.59875789571106
 20
327.76749201781263
 40
0.2000000000027973
 50
180.00000600049705
 51
269.99999700085573
  0
ARC
  8
_0-3_躯体と製品
  6
CONTINUOUS
 62
    7
 10
721.44575789562043
 20
325.77949201781155
 40
4.8189999999963851
 50
48.111754999087267
 51
96.517442000069408
  0
ARC
  8
_0-3_躯体と製品
  6
CONTINUOUS
 62
    7
 10
720.35175789566802
 20
325.779492017807
 40
4.8190000000160111
 50
83.482563001166298
 51
131.88825099943548
  0
LINE
  8
_0-3_躯体と製品
  6
CONTINUOUS
 62
    7
 10
716.89875789564996
 20
327.76749201782189
 11
716.89875789564996
 21
328.21649201781491
  0
LINE
  8
_0-3_躯体と製品
  6
CONTINUOUS
 62
    7
 10
716.89875789564996
 20
328.21649201781491
 11
717.1337578956651
 21
329.36749201782681
  0
LINE
  8
_0-3_躯体と製品
  6
CONTINUOUS
 62
    7
 10
717.1337578956651
 20
329.36749201782681
 11
720.89875789564996
 21
329.36749201782681
  0
LINE
  8
_0-3_躯体と製品
  6
CONTINUOUS
 62
    7
 10
720.89875789564996
 20
329.36749201782681
 11
724.66375789566393
 21
329.36749201782681
  0
LINE
  8
_0-3_躯体と製品
  6
CONTINUOUS
 62
    7
 10
724.66375789566393
 20
329.36749201782681
 11
724.89875789564996
 21
328.21649201781491
  0
LINE
  8
_0-3_躯体と製品
  6
CONTINUOUS
 62
    7
 10
724.89875789564996
 20
328.21649201781491
 11
724.89875789567907
 21
327.76749201782189
  0
ARC
  8
_0-3_躯体と製品
  6
CONTINUOUS
 62
    7
 10
724.69875790090282
 20
327.7674920125861
 40
0.1999999947763173
 50
269.99999850005975
 51
0.0000014999402189
  0
LINE
  8
_0-3_躯体と製品
  6
CONTINUOUS
 62
    7
 10
724.69875789566697
 20
327.5674920178098
 11
720.89875789564996
 21
327.5674920178098
  0
LINE
  8
_0-3_躯体と製品
  6
CONTINUOUS
 62
    7
 10
720.89875789564996
 20
327.5674920178098
 11
717.09875788518377
 21
327.5674920178098
  0
ARC
  8
_0-3_躯体と製品
  6
CONTINUOUS
 62
    7
 10
717.09875789565274
 20
327.76749201781263
 40
0.2000000000027973
 50
180.00000600049705
 51
269.99999700085573
  0
TEXT
  8
_0-4_文字-記号
 62
    7
 10
575.98611298170101
 20
345.1037528766189
 40
10
 41
0.8
 50
0
  1
根太鋼
  0
LINE
  8
_0-4_文字-記号
  6
CONTINUOUS
 62
    7
 10
673.1487578956818
 20
350.69419393245079
 11
607.96661559110419
 21
350.69419393245192
  0
LINE
  8
_0-4_文字-記号
  6
CONTINUOUS
 62
    7
 10
641.65511090087614
 20
393.96749201781785
 11
627.48389475294618
 21
418.58916108425785
  0
LINE
  8
_0-4_文字-記号
  6
CONTINUOUS
 62
    7
 10
627.48389475294618
 20
418.58916108425785
 11
584.78123151484817
 21
418.58916108425785
  0
TEXT
  8
_0-4_文字-記号
 62
    7
 10
586.49201251181387
 20
421.14323108425691
 40
10
 41
0.8
 50
0
  1
デッキ材
  0
LINE
  8
_0-3_躯体と製品
  6
CONTINUOUS
 62
    4
 10
552.97410671671298
 20
365.96749201781785
 11
833.14875789567816
 21
365.96749201781785
  0
LINE
  8
_0-3_躯体と製品
  6
CONTINUOUS
 62
    4
 10
552.97410671671298
 20
393.96749201781785
 11
833.14875789567816
 21
393.96749201781785
  0
LINE
  8
_0-3_躯体と製品
  6
CONTINUOUS
 62
    7
 10
668.14875789567907
 20
375.4674920178108
 11
718.14875789567907
 21
375.4674920178108
  0
LINE
  8
_0-3_躯体と製品
  6
CONTINUOUS
 62
    7
 10
668.14875789567907
 20
380.4674920178108
 11
690.74875789567807
 21
380.4674920178108
  0
LINE
  8
_0-3_躯体と製品
  6
CONTINUOUS
 62
    7
 10
695.54875789567916
 20
380.4674920178108
 11
718.14875789567907
 21
380.4674920178108
  0
LINE
  8
_0-3_躯体と製品
  6
CONTINUOUS
 62
    7
 10
668.14875789567907
 20
380.76749201781075
 11
690.76758171572112
 21
380.76749201781075
  0
LINE
  8
_0-3_躯体と製品
  6
CONTINUOUS
 62
    7
 10
695.52993407563702
 20
380.76749201781075
 11
718.14875789567907
 21
380.76749201781075
  0
LINE
  8
_0-3_躯体と製品
  6
CONTINUOUS
 62
    7
 10
668.14875789567907
 20
380.16749201781084
 11
690.76758171572112
 21
380.16749201781084
  0
LINE
  8
_0-3_躯体と製品
  6
CONTINUOUS
 62
    7
 10
695.52993407563702
 20
380.16749201781084
 11
718.14875789567907
 21
380.16749201781084
  0
LINE
  8
_0-3_躯体と製品
  6
CONTINUOUS
 62
    7
 10
668.14875789567907
 20
365.9674920178108
 11
718.14875789567907
 21
365.9674920178108
  0
LINE
  8
_0-3_躯体と製品
  6
CONTINUOUS
 62
    7
 10
718.14875789567907
 20
365.9674920178108
 11
718.14875789567907
 21
386.9674920178108
  0
LINE
  8
_0-3_躯体と製品
  6
CONTINUOUS
 62
    7
 10
718.14875789567907
 20
386.9674920178108
 11
668.14875789567907
 21
386.9674920178108
  0
LINE
  8
_0-3_躯体と製品
  6
CONTINUOUS
 62
    7
 10
668.14875789567907
 20
386.9674920178108
 11
668.14875789567907
 21
365.9674920178108
  0
LINE
  8
_0-3_躯体と製品
  6
CONTINUOUS
 62
    7
 10
668.14875789567907
 20
371.76749201781189
 11
718.14875789567907
 21
371.76749201781189
  0
LINE
  8
_0-3_躯体と製品
  6
CONTINUOUS
 62
    7
 10
668.14875789567907
 20
371.4674920178108
 11
718.14875789567907
 21
371.4674920178108
  0
LINE
  8
_0-3_躯体と製品
  6
CONTINUOUS
 62
    7
 10
668.14875789567907
 20
367.9674920178108
 11
718.14875789567907
 21
367.9674920178108
  0
LINE
  8
_0-3_躯体と製品
  6
CONTINUOUS
 62
    4
 10
552.97410671671298
 20
388.46749201781785
 11
833.14875789567816
 21
388.46749201781785
  0
LINE
  8
_0-3_躯体と製品
  6
CONTINUOUS
 62
    4
 10
552.97410671671298
 20
371.46749201781785
 11
668.14875789567907
 21
371.46749201781785
  0
LINE
  8
_0-3_躯体と製品
  6
CONTINUOUS
 62
    4
 10
718.14875789567907
 20
371.46749201781785
 11
833.14875789567816
 21
371.46749201781785
  0
CIRCLE
  8
_0-3_躯体と製品
  6
CONTINUOUS
 62
    7
 10
693.14875789567907
 20
380.4674920178108
 40
2.399999999999999
  0
LINE
  8
_0-4_文字-記号
  6
CONTINUOUS
 62
    7
 10
687.14875789567088
 20
274.2526387873358
 11
678.59531117699282
 21
289.06764308392184
  0
LINE
  8
_0-4_文字-記号
  6
CONTINUOUS
 62
    7
 10
678.59531117699282
 20
289.06764308392184
 11
643.22965750982996
 21
289.06764308392184
  0
TEXT
  8
_0-4_文字-記号
 62
    7
 10
645.51882375776779
 20
290.37470442065973
 40
10
 41
0.8
 50
0
  1
支持脚
  0
LINE
  8
_0-4_文字-記号
  6
CONTINUOUS
 62
    7
 10
710.39602922517508
 20
383.78557718753194
 11
726.88502760055701
 21
412.34536013961491
  0
LINE
  8
_0-4_文字-記号
  6
CONTINUOUS
 62
    7
 10
726.88502760055701
 20
412.34536013961491
 11
770.68551100373918
 21
412.34536013961491
  0
TEXT
  8
_0-4_文字-記号
 62
    7
 10
731.67238649510102
 20
414.89943013961386
 40
10
 41
0.8
 50
0
  1
固定金具
  0
LINE
  8
_0-3_躯体と製品
  6
CENTER1
 62
    7
 10
684.06143230619602
 20
353.99676201601477
 11
684.06143230619602
 21
378.30559413013492
  0
ARC
  8
_0-3_躯体と製品
  6
CONTINUOUS
 62
    7
 10
683.51443230622556
 20
372.1794920178196
 40
4.8189999999963851
 50
83.482557999930592
 51
131.88824500091275
  0
ARC
  8
_0-3_躯体と製品
  6
CONTINUOUS
 62
    7
 10
684.60843230617763
 20
372.17949201781403
 40
4.8190000000170663
 50
48.11174900056853
 51
96.517436998837724
  0
LINE
  8
_0-3_躯体と製品
  6
CONTINUOUS
 62
    7
 10
687.88768339219916
 20
375.46749201781785
 11
687.82643230618089
 21
375.76749201783485
  0
LINE
  8
_0-3_躯体と製品
  6
CONTINUOUS
 62
    7
 10
687.82643230618089
 20
375.76749201783485
 11
684.06143230619602
 21
375.76749201783485
  0
LINE
  8
_0-3_躯体と製品
  6
CONTINUOUS
 62
    7
 10
684.06143230619602
 20
375.76749201783485
 11
680.29643230618206
 21
375.76749201783485
  0
LINE
  8
_0-3_躯体と製品
  6
CONTINUOUS
 62
    7
 10
680.29643230618206
 20
375.76749201783485
 11
680.23518122017015
 21
375.46749201781785
  0
LINE
  8
_0-3_躯体と製品
  6
CONTINUOUS
 62
    7
 10
685.81143230619602
 20
362.62172801781793
 11
685.26143230619721
 21
362.30418801781792
  0
LINE
  8
_0-3_躯体と製品
  6
CONTINUOUS
 62
    7
 10
682.86143230619621
 20
362.23371801781485
 11
685.26143230619721
 21
362.93927301781576
  0
LINE
  8
_0-3_躯体と製品
  6
CONTINUOUS
 62
    7
 10
682.31143230619602
 20
361.91617301781588
 11
682.86143230619621
 21
362.23371801781485
  0
LINE
  8
_0-3_躯体と製品
  6
CONTINUOUS
 62
    7
 10
682.86143230619621
 20
362.23371801781485
 11
682.86143230619621
 21
363.00974301781679
  0
LINE
  8
_0-3_躯体と製品
  6
CONTINUOUS
 62
    7
 10
685.26143230619721
 20
360.11704801781588
 11
685.81143230619602
 21
359.79950801781791
  0
LINE
  8
_0-3_躯体と製品
  6
CONTINUOUS
 62
    7
 10
684.06143230619602
 20
359.44672801781684
 11
685.81143230619602
 21
359.79950801781791
  0
LINE
  8
_0-3_躯体と製品
  6
CONTINUOUS
 62
    7
 10
685.81143230619602
 20
359.79950801781791
 11
685.26143230619721
 21
359.4819630178178
  0
LINE
  8
_0-3_躯体と製品
  6
CONTINUOUS
 62
    7
 10
685.26143230619721
 20
361.52816301781689
 11
685.81143230619602
 21
361.21061801781678
  0
ARC
  8
_0-3_躯体と製品
  6
CONTINUOUS
 62
    7
 10
688.58573230619606
 20
356.07335701782284
 40
4.5414449999999427
 50
137.05380000001753
 51
175.02121999999039
  0
ARC
  8
_0-3_躯体と製品
  6
CONTINUOUS
 62
    7
 10
684.08023230619585
 20
355.14399201782084
 40
1.3236349999999331
 50
90.813543000016324
 51
157.0408700000267
  0
LINE
  8
_0-3_躯体と製品
  6
CONTINUOUS
 62
    7
 10
685.26143230619721
 20
359.16749201782289
 11
682.86143230619621
 21
359.16749201782289
  0
LINE
  8
_0-3_躯体と製品
  6
CONTINUOUS
 62
    7
 10
682.86143230619621
 20
361.59863301781678
 11
685.26143230619721
 21
362.30418801781792
  0
LINE
  8
_0-3_躯体と製品
  6
CONTINUOUS
 62
    7
 10
685.26143230619721
 20
362.30418801781792
 11
685.26143230619721
 21
361.52816301781689
  0
LINE
  8
_0-3_躯体と製品
  6
CONTINUOUS
 62
    7
 10
685.26143230619721
 20
361.52816301781689
 11
682.86143230619621
 21
360.82260301781679
  0
LINE
  8
_0-3_躯体と製品
  6
CONTINUOUS
 62
    7
 10
682.86143230619621
 20
360.82260301781679
 11
682.31143230619602
 21
360.50506301781587
  0
LINE
  8
_0-3_躯体と製品
  6
CONTINUOUS
 62
    7
 10
685.26143230619721
 20
360.89307301781486
 11
685.81143230619602
 21
361.21061801781678
  0
LINE
  8
_0-3_躯体と製品
  6
CONTINUOUS
 62
    7
 10
685.81143230619602
 20
361.21061801781678
 11
682.31143230619602
 21
360.50506301781587
  0
LINE
  8
_0-3_躯体と製品
  6
CONTINUOUS
 62
    7
 10
682.31143230619602
 20
360.50506301781587
 11
682.86143230619621
 21
360.1875180178169
  0
LINE
  8
_0-3_躯体と製品
  6
CONTINUOUS
 62
    7
 10
682.86143230619621
 20
360.1875180178169
 11
685.26143230619721
 21
360.89307301781486
  0
LINE
  8
_0-3_躯体と製品
  6
CONTINUOUS
 62
    7
 10
685.26143230619721
 20
360.89307301781486
 11
685.26143230619721
 21
360.11704801781588
  0
LINE
  8
_0-3_躯体と製品
  6
CONTINUOUS
 62
    7
 10
685.26143230619721
 20
360.11704801781588
 11
684.06143230619602
 21
359.44672801781684
  0
LINE
  8
_0-3_躯体と製品
  6
CONTINUOUS
 62
    7
 10
684.06143230619602
 20
359.44672801781684
 11
685.26143230619721
 21
359.4819630178178
  0
LINE
  8
_0-3_躯体と製品
  6
CONTINUOUS
 62
    7
 10
685.26143230619721
 20
359.4819630178178
 11
685.26143230619721
 21
355.66031201782192
  0
LINE
  8
_0-3_躯体と製品
  6
CONTINUOUS
 62
    7
 10
685.26143230619721
 20
355.66031201782192
 11
684.06143230619602
 21
354.96749201782376
  0
LINE
  8
_0-3_躯体と製品
  6
CONTINUOUS
 62
    7
 10
684.06143230619602
 20
356.49467701782481
 11
684.06143230619602
 21
354.96749201782376
  0
LINE
  8
_0-3_躯体と製品
  6
CONTINUOUS
 62
    7
 10
684.06143230619602
 20
354.96749201782376
 11
682.86143230619621
 21
355.66031201782192
  0
LINE
  8
_0-3_躯体と製品
  6
CONTINUOUS
 62
    7
 10
682.86143230619621
 20
355.66031201782192
 11
682.86143230619621
 21
361.59863301781678
  0
LINE
  8
_0-3_躯体と製品
  6
CONTINUOUS
 62
    7
 10
682.86143230619621
 20
361.59863301781678
 11
682.31143230619602
 21
361.91617301781588
  0
LINE
  8
_0-3_躯体と製品
  6
CONTINUOUS
 62
    7
 10
682.31143230619602
 20
361.91617301781588
 11
685.81143230619602
 21
362.62172801781793
  0
LINE
  8
_0-3_躯体と製品
  6
CONTINUOUS
 62
    7
 10
685.81143230619602
 20
362.62172801781793
 11
685.26143230619721
 21
362.93927301781576
  0
LINE
  8
_0-3_躯体と製品
  6
CONTINUOUS
 62
    7
 10
685.26143230619721
 20
362.93927301781576
 11
685.26143230619721
 21
363.71529801781475
  0
LINE
  8
_0-3_躯体と製品
  6
CONTINUOUS
 62
    7
 10
685.81143230619602
 20
364.03283801781885
 11
685.26143230619721
 21
363.71529801781884
  0
LINE
  8
_0-3_躯体と製品
  6
CONTINUOUS
 62
    7
 10
682.86143230619621
 20
363.64482801781577
 11
685.26143230619721
 21
364.35038301781691
  0
LINE
  8
_0-3_躯体と製品
  6
CONTINUOUS
 62
    7
 10
682.31143230619602
 20
363.32728301781589
 11
682.86143230619621
 21
363.64482801781577
  0
LINE
  8
_0-3_躯体と製品
  6
CONTINUOUS
 62
    7
 10
682.86143230619621
 20
363.64482801781577
 11
682.86143230619621
 21
364.3674920178118
  0
LINE
  8
_0-3_躯体と製品
  6
CONTINUOUS
 62
    7
 10
682.86143230619621
 20
363.00974301781793
 11
685.26143230619721
 21
363.71529801781884
  0
LINE
  8
_0-3_躯体と製品
  6
CONTINUOUS
 62
    7
 10
682.86143230619621
 20
363.00974301781793
 11
682.31143230619602
 21
363.32728301781589
  0
LINE
  8
_0-3_躯体と製品
  6
CONTINUOUS
 62
    7
 10
682.31143230619602
 20
363.32728301781589
 11
685.81143230619602
 21
364.03283801781885
  0
LINE
  8
_0-3_躯体と製品
  6
CONTINUOUS
 62
    7
 10
685.81143230619602
 20
364.03283801781885
 11
685.26143230619721
 21
364.35038301781691
  0
LINE
  8
_0-3_躯体と製品
  6
CONTINUOUS
 62
    7
 10
685.26143230619721
 20
364.35038301781691
 11
685.26143230619721
 21
364.3674920178118
  0
LINE
  8
_0-3_躯体と製品
  6
CENTER1
 62
    7
 10
702.06143230619602
 20
353.99676201601477
 11
702.06143230619602
 21
378.30559413013492
  0
ARC
  8
_0-3_躯体と製品
  6
CONTINUOUS
 62
    7
 10
701.51443230622453
 20
372.17949201781909
 40
4.8189999999969126
 50
83.482557999928588
 51
131.88824500091073
  0
ARC
  8
_0-3_躯体と製品
  6
CONTINUOUS
 62
    7
 10
702.60843230617672
 20
372.17949201781403
 40
4.8190000000170663
 50
48.11174900056853
 51
96.517436998837724
  0
LINE
  8
_0-3_躯体と製品
  6
CONTINUOUS
 62
    7
 10
705.88768339219916
 20
375.46749201781785
 11
705.82643230617998
 21
375.76749201783485
  0
LINE
  8
_0-3_躯体と製品
  6
CONTINUOUS
 62
    7
 10
705.82643230617998
 20
375.76749201783485
 11
702.06143230619512
 21
375.76749201783485
  0
LINE
  8
_0-3_躯体と製品
  6
CONTINUOUS
 62
    7
 10
702.06143230619512
 20
375.76749201783485
 11
698.29643230618115
 21
375.76749201783485
  0
LINE
  8
_0-3_躯体と製品
  6
CONTINUOUS
 62
    7
 10
698.29643230618115
 20
375.76749201783485
 11
698.23518122017015
 21
375.46749201781785
  0
LINE
  8
_0-3_躯体と製品
  6
CONTINUOUS
 62
    7
 10
703.81143230619602
 20
362.62172801781793
 11
703.26143230619584
 21
362.30418801781792
  0
LINE
  8
_0-3_躯体と製品
  6
CONTINUOUS
 62
    7
 10
700.86143230619621
 20
362.23371801781485
 11
703.26143230619584
 21
362.93927301781576
  0
LINE
  8
_0-3_躯体と製品
  6
CONTINUOUS
 62
    7
 10
700.31143230619512
 20
361.91617301781588
 11
700.86143230619621
 21
362.23371801781485
  0
LINE
  8
_0-3_躯体と製品
  6
CONTINUOUS
 62
    7
 10
700.86143230619621
 20
362.23371801781485
 11
700.86143230619621
 21
363.00974301781679
  0
LINE
  8
_0-3_躯体と製品
  6
CONTINUOUS
 62
    7
 10
703.26143230619584
 20
360.11704801781588
 11
703.81143230619602
 21
359.79950801781791
  0
LINE
  8
_0-3_躯体と製品
  6
CONTINUOUS
 62
    7
 10
702.06143230619602
 20
359.44672801781684
 11
703.81143230619602
 21
359.79950801781791
  0
LINE
  8
_0-3_躯体と製品
  6
CONTINUOUS
 62
    7
 10
703.81143230619602
 20
359.79950801781791
 11
703.26143230619584
 21
359.4819630178178
  0
LINE
  8
_0-3_躯体と製品
  6
CONTINUOUS
 62
    7
 10
703.26143230619584
 20
361.52816301781689
 11
703.81143230619602
 21
361.21061801781678
  0
ARC
  8
_0-3_躯体と製品
  6
CONTINUOUS
 62
    7
 10
706.58573230619515
 20
356.07335701782284
 40
4.5414449999999427
 50
137.05380000001753
 51
175.02121999999039
  0
ARC
  8
_0-3_躯体と製品
  6
CONTINUOUS
 62
    7
 10
702.08023230619494
 20
355.14399201782084
 40
1.3236349999999331
 50
90.813543000016324
 51
157.0408700000267
  0
LINE
  8
_0-3_躯体と製品
  6
CONTINUOUS
 62
    7
 10
703.26143230619584
 20
359.16749201782289
 11
700.86143230619621
 21
359.16749201782289
  0
LINE
  8
_0-3_躯体と製品
  6
CONTINUOUS
 62
    7
 10
700.86143230619621
 20
361.59863301781678
 11
703.26143230619584
 21
362.30418801781792
  0
LINE
  8
_0-3_躯体と製品
  6
CONTINUOUS
 62
    7
 10
703.26143230619584
 20
362.30418801781792
 11
703.26143230619584
 21
361.52816301781689
  0
LINE
  8
_0-3_躯体と製品
  6
CONTINUOUS
 62
    7
 10
703.26143230619584
 20
361.52816301781689
 11
700.86143230619621
 21
360.82260301781679
  0
LINE
  8
_0-3_躯体と製品
  6
CONTINUOUS
 62
    7
 10
700.86143230619621
 20
360.82260301781679
 11
700.31143230619512
 21
360.50506301781587
  0
LINE
  8
_0-3_躯体と製品
  6
CONTINUOUS
 62
    7
 10
703.26143230619584
 20
360.89307301781486
 11
703.81143230619602
 21
361.21061801781678
  0
LINE
  8
_0-3_躯体と製品
  6
CONTINUOUS
 62
    7
 10
703.81143230619602
 20
361.21061801781678
 11
700.31143230619512
 21
360.50506301781587
  0
LINE
  8
_0-3_躯体と製品
  6
CONTINUOUS
 62
    7
 10
700.31143230619512
 20
360.50506301781587
 11
700.86143230619621
 21
360.1875180178169
  0
LINE
  8
_0-3_躯体と製品
  6
CONTINUOUS
 62
    7
 10
700.86143230619621
 20
360.1875180178169
 11
703.26143230619584
 21
360.89307301781486
  0
LINE
  8
_0-3_躯体と製品
  6
CONTINUOUS
 62
    7
 10
703.26143230619584
 20
360.89307301781486
 11
703.26143230619584
 21
360.11704801781588
  0
LINE
  8
_0-3_躯体と製品
  6
CONTINUOUS
 62
    7
 10
703.26143230619584
 20
360.11704801781588
 11
702.06143230619602
 21
359.44672801781684
  0
LINE
  8
_0-3_躯体と製品
  6
CONTINUOUS
 62
    7
 10
702.06143230619602
 20
359.44672801781684
 11
703.26143230619584
 21
359.4819630178178
  0
LINE
  8
_0-3_躯体と製品
  6
CONTINUOUS
 62
    7
 10
703.26143230619584
 20
359.4819630178178
 11
703.26143230619584
 21
355.66031201782192
  0
LINE
  8
_0-3_躯体と製品
  6
CONTINUOUS
 62
    7
 10
703.26143230619584
 20
355.66031201782192
 11
702.06143230619602
 21
354.96749201782376
  0
LINE
  8
_0-3_躯体と製品
  6
CONTINUOUS
 62
    7
 10
702.06143230619602
 20
356.49467701782481
 11
702.06143230619602
 21
354.96749201782376
  0
LINE
  8
_0-3_躯体と製品
  6
CONTINUOUS
 62
    7
 10
702.06143230619602
 20
354.96749201782376
 11
700.86143230619621
 21
355.66031201782192
  0
LINE
  8
_0-3_躯体と製品
  6
CONTINUOUS
 62
    7
 10
700.86143230619621
 20
355.66031201782192
 11
700.86143230619621
 21
361.59863301781678
  0
LINE
  8
_0-3_躯体と製品
  6
CONTINUOUS
 62
    7
 10
700.86143230619621
 20
361.59863301781678
 11
700.31143230619512
 21
361.91617301781588
  0
LINE
  8
_0-3_躯体と製品
  6
CONTINUOUS
 62
    7
 10
700.31143230619512
 20
361.91617301781588
 11
703.81143230619602
 21
362.62172801781793
  0
LINE
  8
_0-3_躯体と製品
  6
CONTINUOUS
 62
    7
 10
703.81143230619602
 20
362.62172801781793
 11
703.26143230619584
 21
362.93927301781576
  0
LINE
  8
_0-3_躯体と製品
  6
CONTINUOUS
 62
    7
 10
703.26143230619584
 20
362.93927301781576
 11
703.26143230619584
 21
363.71529801781475
  0
LINE
  8
_0-3_躯体と製品
  6
CONTINUOUS
 62
    7
 10
703.81143230619602
 20
364.03283801781885
 11
703.26143230619584
 21
363.71529801781884
  0
LINE
  8
_0-3_躯体と製品
  6
CONTINUOUS
 62
    7
 10
700.86143230619621
 20
363.64482801781577
 11
703.26143230619584
 21
364.35038301781691
  0
LINE
  8
_0-3_躯体と製品
  6
CONTINUOUS
 62
    7
 10
700.31143230619512
 20
363.32728301781589
 11
700.86143230619621
 21
363.64482801781577
  0
LINE
  8
_0-3_躯体と製品
  6
CONTINUOUS
 62
    7
 10
700.86143230619621
 20
363.64482801781577
 11
700.86143230619621
 21
364.3674920178118
  0
LINE
  8
_0-3_躯体と製品
  6
CONTINUOUS
 62
    7
 10
700.86143230619621
 20
363.00974301781793
 11
703.26143230619584
 21
363.71529801781884
  0
LINE
  8
_0-3_躯体と製品
  6
CONTINUOUS
 62
    7
 10
700.86143230619621
 20
363.00974301781793
 11
700.31143230619512
 21
363.32728301781589
  0
LINE
  8
_0-3_躯体と製品
  6
CONTINUOUS
 62
    7
 10
700.31143230619512
 20
363.32728301781589
 11
703.81143230619602
 21
364.03283801781885
  0
LINE
  8
_0-3_躯体と製品
  6
CONTINUOUS
 62
    7
 10
703.81143230619602
 20
364.03283801781885
 11
703.26143230619584
 21
364.35038301781691
  0
LINE
  8
_0-3_躯体と製品
  6
CONTINUOUS
 62
    7
 10
703.26143230619584
 20
364.35038301781691
 11
703.26143230619584
 21
364.3674920178118
  0
LINE
  8
_0-2_寸法
  6
CONTINUOUS
 62
    4
 10
593.1487578956793
 20
172.49024338047985
 11
692.14875789567816
 21
172.49024338047985
  0
INSERT
  2
-000-_Dot
  8
_0-2_寸法
 10
693.1487578956793
 20
172.49024338047985
 41
1
 42
1
 50
0
  0
TEXT
  8
_0-2_寸法
 62
    7
 10
634.6487578956793
 20
175.49024338047985
 40
8
 41
1
 50
0
  1
@500
  0
POINT
  8
_0-2_寸法
 62
    7
 10
593.1487578956793
 20
172.49024338047985
  0
POINT
  8
_0-2_寸法
 62
    7
 10
693.1487578956793
 20
172.49024338047985
  0
POINT
  8
_0-2_寸法
 62
    7
 10
693.1487578956793
 20
172.49024338047985
  0
LINE
  8
_0-2_寸法
  6
CONTINUOUS
 62
    4
 10
694.1487578956793
 20
172.49024338047985
 11
793.1487578956793
 21
172.49024338047985
  0
INSERT
  2
-000-_Dot
  8
_0-2_寸法
 10
693.1487578956793
 20
172.49024338047985
 41
1
 42
1
 50
180
  0
TEXT
  8
_0-2_寸法
 62
    7
 10
735.6487578956793
 20
175.49024338047985
 40
8
 41
1
 50
0
  1
@500
  0
POINT
  8
_0-2_寸法
 62
    7
 10
693.1487578956793
 20
172.49024338047985
  0
POINT
  8
_0-2_寸法
 62
    7
 10
793.1487578956793
 20
172.49024338047985
  0
POINT
  8
_0-2_寸法
 62
    7
 10
793.1487578956793
 20
172.49024338047985
  0
LINE
  8
_0-2_寸法
  6
CONTINUOUS
 62
    4
 10
839.1487578956793
 20
235.96749201781077
 11
889.49447935445392
 21
235.96749201781077
  0
LINE
  8
_0-2_寸法
  6
CONTINUOUS
 62
    4
 10
839.1487578956793
 20
393.96749201781768
 11
889.49447935445392
 21
393.96749201781768
  0
LINE
  8
_0-2_寸法
  6
CONTINUOUS
 62
    4
 10
889.49447935445392
 20
236.96749201781077
 11
889.49447935445392
 21
392.96749201781768
  0
INSERT
  2
-000-_Dot
  8
_0-2_寸法
 10
889.49447935445392
 20
235.96749201781077
 41
1
 42
1
 50
270
  0
INSERT
  2
-000-_Dot
  8
_0-2_寸法
 10
889.49447935445392
 20
393.96749201781768
 41
1
 42
1
 50
90
  0
TEXT
  8
_0-2_寸法
 62
    7
 10
886.49447935445392
 20
297.28049766199456
 40
8
 41
1
 50
90
  1
120～300
  0
POINT
  8
_0-2_寸法
 62
    7
 10
839.1487578956793
 20
235.96749201781077
  0
POINT
  8
_0-2_寸法
 62
    7
 10
839.1487578956793
 20
393.96749201781768
  0
POINT
  8
_0-2_寸法
 62
    7
 10
889.49447935445392
 20
393.96749201781768
  0
LINE
  8
_0-2_寸法
  6
CONTINUOUS
 62
    4
 10
402.20678059024505
 20
235.96901339782562
 11
453.51092843744993
 21
235.96901339782562
  0
LINE
  8
_0-2_寸法
  6
CONTINUOUS
 62
    4
 10
397.9993062252521
 20
393.96901339783182
 11
453.51092843744993
 21
393.96901339783182
  0
LINE
  8
_0-2_寸法
  6
CONTINUOUS
 62
    4
 10
453.51092843744993
 20
236.96901339782562
 11
453.51092843744993
 21
392.96901339783182
  0
INSERT
  2
-000-_Dot
  8
_0-2_寸法
 10
453.51092843744993
 20
235.96901339782562
 41
1
 42
1
 50
270
  0
INSERT
  2
-000-_Dot
  8
_0-2_寸法
 10
453.51092843744993
 20
393.96901339783182
 41
1
 42
1
 50
90
  0
TEXT
  8
_0-2_寸法
 62
    7
 10
450.51092843744919
 20
298.96901339782875
 40
8
 41
1
 50
90
  1
120～300
  0
POINT
  8
_0-2_寸法
 62
    7
 10
402.20678059024505
 20
235.96901339782562
  0
POINT
  8
_0-2_寸法
 62
    7
 10
397.9993062252521
 20
393.96901339783182
  0
POINT
  8
_0-2_寸法
 62
    7
 10
453.51092843744993
 20
393.96901339783182
  0
LINE
  8
_0-2_寸法
  6
CONTINUOUS
 62
    4
 10
121.99930622525208
 20
172.49024338048366
 11
250.99930622525136
 21
172.49024338048366
  0
INSERT
  2
-000-_Dot
  8
_0-2_寸法
 10
251.9993062252521
 20
172.49024338048366
 41
1
 42
1
 50
0
  0
TEXT
  8
_0-2_寸法
 62
    7
 10
178.4993062252521
 20
175.49024338048275
 40
8
 41
1
 50
0
  1
@900
  0
POINT
  8
_0-2_寸法
 62
    7
 10
121.99930622525208
 20
172.49024338048366
  0
POINT
  8
_0-2_寸法
 62
    7
 10
251.9993062252521
 20
172.49024338048366
  0
POINT
  8
_0-2_寸法
 62
    7
 10
251.9993062252521
 20
172.49024338048366
  0
LINE
  8
_0-2_寸法
  6
CONTINUOUS
 62
    4
 10
252.9993062252521
 20
172.49024338048366
 11
381.9993062252521
 21
172.49024338048366
  0
INSERT
  2
-000-_Dot
  8
_0-2_寸法
 10
251.9993062252521
 20
172.49024338048366
 41
1
 42
1
 50
180
  0
TEXT
  8
_0-2_寸法
 62
    7
 10
309.4993062252521
 20
175.49024338048275
 40
8
 41
1
 50
0
  1
@900
  0
POINT
  8
_0-2_寸法
 62
    7
 10
251.9993062252521
 20
172.49024338048366
  0
POINT
  8
_0-2_寸法
 62
    7
 10
381.9993062252521
 20
172.49024338048366
  0
POINT
  8
_0-2_寸法
 62
    7
 10
381.9993062252521
 20
172.49024338048366
  0
ARC
  8
_0-2_寸法
  6
CONTINUOUS
 62
    4
 10
251.99930872590122
 20
235.96749201792574
 40
127.43745887964661
 50
1.348828744636781
 51
8.6511721106184449
  0
INSERT
  2
-001-_Open30
  8
_0-2_寸法
 10
379.43676760554848
 20
235.96749201609273
 41
3
 42
3
 50
270.67441437190638
  0
INSERT
  2
-001-_Open30
  8
_0-2_寸法
 10
377.50070592410924
 20
258.09677639404674
 41
3
 42
3
 50
99.325586483348829
  0
POINT
  8
_0-2_寸法
 62
    7
 10
379.22116355797812
 20
243.37732189367273
  0
POINT
  8
_0-2_寸法
 62
    7
 10
380.02431622525222
 20
258.5417570178106
  0
POINT
  8
_0-2_寸法
 62
    7
 10
259.94395122525242
 20
235.96749201781077
  0
POINT
  8
_0-2_寸法
 62
    7
 10
397.9993062252521
 20
235.96749201582571
  0
POINT
  8
_0-2_寸法
 62
    7
 10
123.9743012252533
 20
213.39322701781077
  0
LINE
  8
_0-2_寸法
  6
CONTINUOUS
 62
    4
 10
181.9993062252521
 20
400.54083455057884
 11
181.9993062252521
 21
431.40316192089068
  0
LINE
  8
_0-2_寸法
  6
CONTINUOUS
 62
    4
 10
341.9993062252521
 20
400.54083455057884
 11
341.9993062252521
 21
431.40316192089068
  0
LINE
  8
_0-2_寸法
  6
CONTINUOUS
 62
    4
 10
182.9993062252521
 20
431.40316192089068
 11
340.9993062252521
 21
431.40316192089068
  0
INSERT
  2
-000-_Dot
  8
_0-2_寸法
 10
181.9993062252521
 20
431.40316192089068
 41
1
 42
1
 50
180
  0
INSERT
  2
-000-_Dot
  8
_0-2_寸法
 10
341.9993062252521
 20
431.40316192089068
 41
1
 42
1
 50
0
  0
TEXT
  8
_0-2_寸法
 62
    7
 10
255.9993062252521
 20
434.40316192089068
 40
8
 41
1
 50
0
  1
160
  0
POINT
  8
_0-2_寸法
 62
    7
 10
181.9993062252521
 20
400.54083455057884
  0
POINT
  8
_0-2_寸法
 62
    7
 10
341.9993062252521
 20
400.54083455057884
  0
POINT
  8
_0-2_寸法
 62
    7
 10
341.9993062252521
 20
431.40316192089068
  0
LINE
  8
_0-2_寸法
  6
CONTINUOUS
 62
    4
 10
175.9993062252521
 20
400.54083455057884
 11
175.9993062252521
 21
431.40316192089068
  0
LINE
  8
_0-2_寸法
  6
CONTINUOUS
 62
    4
 10
181.9993062252521
 20
400.54083455057884
 11
181.9993062252521
 21
431.40316192089068
  0
LINE
  8
_0-2_寸法
  6
CONTINUOUS
 62
    4
 10
174.9993062252521
 20
431.40316192089068
 11
173.99930622525136
 21
431.40316192089068
  0
LINE
  8
_0-2_寸法
  6
CONTINUOUS
 62
    4
 10
182.9993062252521
 20
431.40316192089068
 11
183.9993062252521
 21
431.40316192089068
  0
LINE
  8
_0-2_寸法
  6
CONTINUOUS
 62
    4
 10
175.9993062252521
 20
431.40316192089068
 11
181.9993062252521
 21
431.40316192089068
  0
INSERT
  2
-000-_Dot
  8
_0-2_寸法
 10
175.9993062252521
 20
431.40316192089068
 41
1
 42
1
 50
0
  0
INSERT
  2
-000-_Dot
  8
_0-2_寸法
 10
181.9993062252521
 20
431.40316192089068
 41
1
 42
1
 50
180
  0
TEXT
  8
_0-2_寸法
 62
    7
 10
176.9993062252521
 20
434.40316192089068
 40
8
 41
1
 50
0
  1
6
  0
POINT
  8
_0-2_寸法
 62
    7
 10
175.9993062252521
 20
400.54083455057884
  0
POINT
  8
_0-2_寸法
 62
    7
 10
181.9993062252521
 20
400.54083455057884
  0
POINT
  8
_0-2_寸法
 62
    7
 10
181.9993062252521
 20
431.40316192089068
  0
LINE
  8
_0-2_寸法
  6
CONTINUOUS
 62
    4
 10
341.9993062252521
 20
400.54083455057884
 11
341.9993062252521
 21
431.40316192089068
  0
LINE
  8
_0-2_寸法
  6
CONTINUOUS
 62
    4
 10
347.9993062252521
 20
400.54083455057884
 11
347.9993062252521
 21
431.40316192089068
  0
LINE
  8
_0-2_寸法
  6
CONTINUOUS
 62
    4
 10
340.9993062252521
 20
431.40316192089068
 11
339.9993062252521
 21
431.40316192089068
  0
LINE
  8
_0-2_寸法
  6
CONTINUOUS
 62
    4
 10
348.9993062252521
 20
431.40316192089068
 11
349.9993062252521
 21
431.40316192089068
  0
LINE
  8
_0-2_寸法
  6
CONTINUOUS
 62
    4
 10
341.9993062252521
 20
431.40316192089068
 11
347.9993062252521
 21
431.40316192089068
  0
INSERT
  2
-000-_Dot
  8
_0-2_寸法
 10
341.9993062252521
 20
431.40316192089068
 41
1
 42
1
 50
0
  0
INSERT
  2
-000-_Dot
  8
_0-2_寸法
 10
347.9993062252521
 20
431.40316192089068
 41
1
 42
1
 50
180
  0
TEXT
  8
_0-2_寸法
 62
    7
 10
342.9993062252521
 20
434.40316192089068
 40
8
 41
1
 50
0
  1
6
  0
POINT
  8
_0-2_寸法
 62
    7
 10
341.9993062252521
 20
400.54083455057884
  0
POINT
  8
_0-2_寸法
 62
    7
 10
347.9993062252521
 20
400.54083455057884
  0
POINT
  8
_0-2_寸法
 62
    7
 10
347.9993062252521
 20
431.40316192089068
  0
LINE
  8
_0-2_寸法
  6
CONTINUOUS
 62
    4
 10
397.9993062252521
 20
325.96901339760774
 11
422.77463622525215
 21
325.96901339760774
  0
LINE
  8
_0-2_寸法
  6
CONTINUOUS
 62
    4
 10
397.9993062252521
 20
365.96901339760774
 11
422.77463622525215
 21
365.96901339760774
  0
LINE
  8
_0-2_寸法
  6
CONTINUOUS
 62
    4
 10
422.77463622525215
 20
326.96901339760774
 11
422.77463622525215
 21
364.96901339760774
  0
INSERT
  2
-000-_Dot
  8
_0-2_寸法
 10
422.77463622525215
 20
325.96901339760774
 41
1
 42
1
 50
270
  0
INSERT
  2
-000-_Dot
  8
_0-2_寸法
 10
422.77463622525215
 20
365.96901339760774
 41
1
 42
1
 50
90
  0
TEXT
  8
_0-2_寸法
 62
    7
 10
419.77463622525141
 20
341.96901339760774
 40
8
 41
1
 50
90
  1
40
  0
POINT
  8
_0-2_寸法
 62
    7
 10
397.9993062252521
 20
325.96901339760774
  0
POINT
  8
_0-2_寸法
 62
    7
 10
397.9993062252521
 20
365.96901339760774
  0
POINT
  8
_0-2_寸法
 62
    7
 10
422.77463622525215
 20
365.96901339760774
  0
LINE
  8
_0-2_寸法
  6
CONTINUOUS
 62
    4
 10
397.9993062252521
 20
365.96901339760774
 11
422.77463622525215
 21
365.96901339760774
  0
LINE
  8
_0-2_寸法
  6
CONTINUOUS
 62
    4
 10
397.9993062252521
 20
393.96901339761371
 11
422.77463622525215
 21
393.96901339761371
  0
LINE
  8
_0-2_寸法
  6
CONTINUOUS
 62
    4
 10
422.77463622525215
 20
366.96901339760774
 11
422.77463622525215
 21
392.96901339761371
  0
INSERT
  2
-000-_Dot
  8
_0-2_寸法
 10
422.77463622525215
 20
365.96901339760774
 41
1
 42
1
 50
270
  0
INSERT
  2
-000-_Dot
  8
_0-2_寸法
 10
422.77463622525215
 20
393.96901339761371
 41
1
 42
1
 50
90
  0
TEXT
  8
_0-2_寸法
 62
    7
 10
419.77463622525141
 20
375.96901339761081
 40
8
 41
1
 50
90
  1
28
  0
POINT
  8
_0-2_寸法
 62
    7
 10
397.9993062252521
 20
365.96901339760774
  0
POINT
  8
_0-2_寸法
 62
    7
 10
397.9993062252521
 20
393.96901339761371
  0
POINT
  8
_0-2_寸法
 62
    7
 10
422.77463622525215
 20
393.96901339761371
  0
LINE
  8
_0-2_寸法
  6
CONTINUOUS
 62
    4
 10
348.9993062252521
 20
431.40316192089068
 11
391.9993062252521
 21
431.40316192089068
  0
INSERT
  2
-000-_Dot
  8
_0-2_寸法
 10
347.9993062252521
 20
431.40316192089068
 41
1
 42
1
 50
180
  0
TEXT
  8
_0-2_寸法
 62
    7
 10
364.4993062252521
 20
434.40316192089068
 40
8
 41
1
 50
0
  1
160
  0
POINT
  8
_0-2_寸法
 62
    7
 10
347.9993062252521
 20
431.40316192089068
  0
POINT
  8
_0-2_寸法
 62
    7
 10
391.9993062252521
 20
431.40316192089068
  0
POINT
  8
_0-2_寸法
 62
    7
 10
391.9993062252521
 20
431.40316192089068
  0
LINE
  8
_0-2_寸法
  6
CONTINUOUS
 62
    4
 10
839.1487578956793
 20
365.96749201781768
 11
862.68771056394223
 21
365.96749201781768
  0
LINE
  8
_0-2_寸法
  6
CONTINUOUS
 62
    4
 10
839.1487578956793
 20
393.96749201781768
 11
862.68771056394223
 21
393.96749201781768
  0
LINE
  8
_0-2_寸法
  6
CONTINUOUS
 62
    4
 10
862.68771056394223
 20
366.96749201781768
 11
862.68771056394223
 21
392.96749201781768
  0
INSERT
  2
-000-_Dot
  8
_0-2_寸法
 10
862.68771056394223
 20
365.96749201781768
 41
1
 42
1
 50
270
  0
INSERT
  2
-000-_Dot
  8
_0-2_寸法
 10
862.68771056394223
 20
393.96749201781768
 41
1
 42
1
 50
90
  0
TEXT
  8
_0-2_寸法
 62
    7
 10
859.68771056394223
 20
375.96749201781768
 40
8
 41
1
 50
90
  1
28
  0
POINT
  8
_0-2_寸法
 62
    7
 10
839.1487578956793
 20
365.96749201781768
  0
POINT
  8
_0-2_寸法
 62
    7
 10
839.1487578956793
 20
393.96749201781768
  0
POINT
  8
_0-2_寸法
 62
    7
 10
862.68771056394223
 20
393.96749201781768
  0
LINE
  8
_0-2_寸法
  6
CONTINUOUS
 62
    4
 10
736.1487578956793
 20
325.96749201781768
 11
862.68771056394223
 21
325.96749201781768
  0
LINE
  8
_0-2_寸法
  6
CONTINUOUS
 62
    4
 10
839.1487578956793
 20
365.96749201781768
 11
862.68771056394223
 21
365.96749201781768
  0
LINE
  8
_0-2_寸法
  6
CONTINUOUS
 62
    4
 10
862.68771056394223
 20
326.96749201781768
 11
862.68771056394223
 21
364.96749201781677
  0
INSERT
  2
-000-_Dot
  8
_0-2_寸法
 10
862.68771056394223
 20
325.96749201781768
 41
1
 42
1
 50
270
  0
INSERT
  2
-000-_Dot
  8
_0-2_寸法
 10
862.68771056394223
 20
365.96749201781768
 41
1
 42
1
 50
90
  0
TEXT
  8
_0-2_寸法
 62
    7
 10
859.68771056394223
 20
341.96749201781768
 40
8
 41
1
 50
90
  1
40
  0
POINT
  8
_0-2_寸法
 62
    7
 10
736.1487578956793
 20
325.96749201781768
  0
POINT
  8
_0-2_寸法
 62
    7
 10
839.1487578956793
 20
365.96749201781768
  0
POINT
  8
_0-2_寸法
 62
    7
 10
862.68771056394223
 20
365.96749201781768
  0
LINE
  8
_0-2_寸法
  6
CONTINUOUS
 62
    4
 10
174.9993062252521
 20
431.40316192089068
 11
111.99930622525208
 21
431.40316192089068
  0
INSERT
  2
-000-_Dot
  8
_0-2_寸法
 10
175.9993062252521
 20
431.40316192089068
 41
1
 42
1
 50
0
  0
TEXT
  8
_0-2_寸法
 62
    7
 10
137.49930622525136
 20
434.40316192089068
 40
8
 41
1
 50
0
  1
160
  0
POINT
  8
_0-2_寸法
 62
    7
 10
175.9993062252521
 20
431.40316192089068
  0
POINT
  8
_0-2_寸法
 62
    7
 10
111.99930622525208
 20
431.40316192089068
  0
POINT
  8
_0-2_寸法
 62
    7
 10
111.99930622525208
 20
431.40316192089068
  0
TEXT
  8
_0-2_寸法
 62
    7
 10
380.57314741689737
 20
262.09325239335851
 40
8
 41
1
 50
-84.99999957
  1
最大10°
  0
TEXT
  8
_0-4_文字-記号
 62
    7
 10
61.211512352497813
 20
495.07962900535279
 40
12
 41
1
 50
0
  1
基本ピッチ：支持脚 ９００×根太鋼 ５００（再生木材）
  0
TEXT
  8
_0-4_文字-記号
 62
    7
 10
132.44256146001064
 20
478.49241653247458
 40
12
 41
1
 50
0
  1
支持脚 ９００×根太鋼 ６００（天然木材）
  0
ENDSEC
  0
EOF
