  0
SECTION
  2
HEADER
  9
$ACADVER
  1
AC1009
  9
$INSBASE
 10
0
 20
0
 30
0
  9
$EXTMIN
 10
0
 20
0
  9
$EXTMAX
 10
1188
 20
840
  9
$LIMMIN
 10
0
 20
0
  9
$LIMMAX
 10
1188
 20
840
  9
$LTSCALE
 40
2
  0
ENDSEC
  0
SECTION
  2
TABLES
  0
TABLE
  2
LTYPE
 70
     9
  0
LTYPE
  2
CONTINUOUS
 70
    64
  3
実線
 72
    65
 73
     0
 40
0.0
  0
LTYPE
  2
DASHED1
 70
    64
  3
--  --  --  --  --  --  --  --  
 72
    65
 73
     2
 40
2.5
 49
1.25
 49
-1.25
  0
LTYPE
  2
DASHED2
 70
    64
  3
----    ----    ----    ----    
 72
    65
 73
     2
 40
5.0
 49
2.5
 49
-2.5
  0
LTYPE
  2
DASHED3
 70
    64
  3
------  ------  ------  ------  
 72
    65
 73
     2
 40
5.0
 49
3.75
 49
-1.25
  0
LTYPE
  2
CENTER1
 70
    64
  3
----- - ----- - ----- - ----- - 
 72
    65
 73
     4
 40
10.0
 49
6.25
 49
-1.25
 49
1.25
 49
-1.25
  0
LTYPE
  2
CENTER2
 70
    64
  3
----------  --  ----------  --  
 72
    65
 73
     4
 40
20.0
 49
12.5
 49
-2.5
 49
2.5
 49
-2.5
  0
LTYPE
  2
PHANTOM1
 70
    64
  3
--- - - --- - - --- - - --- - - 
 72
    65
 73
     6
 40
10.0
 49
3.25
 49
-1.25
 49
1.25
 49
-1.25
 49
1.25
 49
-1.25
  0
LTYPE
  2
PHANTOM2
 70
    64
  3
--------  -  -  --------  -  -  
 72
    65
 73
     6
 40
20.0
 49
10.0
 49
-2.5
 49
1.25
 49
-2.5
 49
1.25
 49
-2.5
  0
LTYPE
  2
DOT
 70
    64
  3
-   -   -   -   -   -   -   -   
 72
    65
 73
     2
 40
2.5
 49
0.625
 49
-1.875
  0
LTYPE
  2
DUMMY
 70
    64
  3
ダミー
 72
    65
 73
     0
 40
0.0
  0
LTYPE
  2
RAND1
 70
    64
  3
ランダム線1
 72
    65
 73
     4
 40
10.0
 49
1.0
 49
-2.0
 49
3.0
 49
-4.0
  0
LTYPE
  2
RAND2
 70
    64
  3
ランダム線2
 72
    65
 73
     4
 40
14.0
 49
2.0
 49
-3.0
 49
4.0
 49
-5.0
  0
LTYPE
  2
RAND3
 70
    64
  3
ランダム線3
 72
    65
 73
     4
 40
18.0
 49
3.0
 49
-4.0
 49
5.0
 49
-6.0
  0
LTYPE
  2
RAND4
 70
    64
  3
ランダム線4
 72
    65
 73
     4
 40
22.0
 49
4.0
 49
-5.0
 49
6.0
 49
-7.0
  0
LTYPE
  2
RAND5
 70
    64
  3
ランダム線5
 72
    65
 73
     4
 40
26.0
 49
5.0
 49
-6.0
 49
7.0
 49
-8.0
  0
LTYPE
  2
LONG1
 70
    64
  3
----------  --  ----------  --  
 72
    65
 73
     4
 40
40.0
 49
32.5
 49
-2.5
 49
2.5
 49
-2.5
  0
LTYPE
  2
LONG2
 70
    64
  3
--------  -  -  --------  -  -  
 72
    65
 73
     6
 40
40.0
 49
30.0
 49
-2.5
 49
1.25
 49
-2.5
 49
1.25
 49
-2.5
  0
LTYPE
  2
LONG3
 70
    64
  3
+++++++++++++++..+++++++++++++++
 72
    65
 73
     2
 40
40.0
 49
37.5
 49
-2.5
  0
LTYPE
  2
LONG4
 70
    64
  3
+++++++++++++++..+++++++++++++++
 72
    65
 73
     2
 40
80.0
 49
75.0
 49
-5.0
  0
LTYPE
  2
LONG5
 70
    64
  3
----------  --  ----------  --  
 72
    65
 73
     4
 40
60.0
 49
37.5
 49
-7.5
 49
7.5
 49
-7.5
  0
LTYPE
  2
dashed
 70
   64
  3
-------   -------------   ------
 72
   65
 73
    2
 40
7.5
 49
6
 49
-1.5
  0
LTYPE
  2
dashed_spaced
 70
   64
  3
----        --------        ----
 72
   65
 73
    2
 40
12
 49
6
 49
-6
  0
LTYPE
  2
long_dashed_dotted
 70
   64
  3
------------- --- --------------
 72
   65
 73
    4
 40
15.25
 49
12
 49
-1.5
 49
0.25
 49
-1.5
  0
LTYPE
  2
long_dashed_double-dotted
 70
   64
  3
----------- --- --- ------------
 72
   65
 73
    6
 40
17
 49
12
 49
-1.5
 49
0.25
 49
-1.5
 49
0.25
 49
-1.5
  0
LTYPE
  2
long_dashed_triplicate-dotted
 70
   64
  3
--------- --- --- --- ----------
 72
   65
 73
    8
 40
18.75
 49
12
 49
-1.5
 49
0.25
 49
-1.5
 49
0.25
 49
-1.5
 49
0.25
 49
-1.5
  0
LTYPE
  2
dotted
 70
   64
  3
   -       -       -       -    
 72
   65
 73
    2
 40
1.75
 49
0.25
 49
-1.5
  0
LTYPE
  2
chain
 70
   64
  3
-------------- -- --------------
 72
   65
 73
    4
 40
18.5
 49
12
 49
-1.5
 49
3.5
 49
-1.5
  0
LTYPE
  2
chain_double_dash
 70
   64
  3
------------ -- -- -------------
 72
   65
 73
    6
 40
23.5
 49
12
 49
-1.5
 49
3.5
 49
-1.5
 49
3.5
 49
-1.5
  0
LTYPE
  2
dashed_dotted
 70
   64
  3
-----------     -     ----------
 72
   65
 73
    4
 40
9.25
 49
6
 49
-1.5
 49
0.25
 49
-1.5
  0
LTYPE
  2
double-dashed_dotted
 70
   64
  3
------   -----------   -   -----
 72
   65
 73
    6
 40
16.75
 49
6
 49
-1.5
 49
6
 49
-1.5
 49
0.25
 49
-1.5
  0
LTYPE
  2
dashed_double-dotted
 70
   64
  3
---------    -    -    ---------
 72
   65
 73
    6
 40
11
 49
6
 49
-1.5
 49
0.25
 49
-1.5
 49
0.25
 49
-1.5
  0
LTYPE
  2
double-dashed_double-dotted
 70
   64
  3
-----   ---------   -   -   ----
 72
   65
 73
    8
 40
18.5
 49
6
 49
-1.5
 49
6
 49
-1.5
 49
0.25
 49
-1.5
 49
0.25
 49
-1.5
  0
LTYPE
  2
dashed_triplicate-dotted
 70
   64
  3
-------    -    -    -    ------
 72
   65
 73
    8
 40
12.75
 49
6
 49
-1.5
 49
0.25
 49
-1.5
 49
0.25
 49
-1.5
 49
0.25
 49
-1.5
  0
LTYPE
  2
double-dashed_triplicate-dotted
 70
   64
  3
-----  ---------  -  -  -  -----
 72
   65
 73
   10
 40
20.25
 49
6
 49
-1.5
 49
6
 49
-1.5
 49
0.25
 49
-1.5
 49
0.25
 49
-1.5
 49
0.25
 49
-1.5
  0
LTYPE
  2
undefined
 70
   64
  3
--------------------------------
 72
   65
 73
    0
 40
0
  0
LTYPE
  2
PLINE2
 70
   64
  3
------     -----------     -----
 72
   65
 73
    2
 40
3
 49
2.1000000000000001
 49
-0.9
  0
ENDTAB
  0
TABLE
  2
STYLE
  5
3
100
AcDbSymbolTable
 70
     1
  0
STYLE
  5
10
100
AcDbSymbolTableRecord
100
AcDbTextStyleTableRecord
  2
STANDARD
 70
     0
 40
0.0
 41
1.0
 50
0.0
 71
     0
 42
0.2
  3
txt
  4
bigfont.shx
  0
STYLE
  5
26
100
AcDbSymbolTableRecord
100
AcDbTextStyleTableRecord
  2
TATEGAKI
 70
    68
 40
0.0
 41
1.0
 50
0.0
 71
     0
 42
1.0
  3
txt
  4
bigfont.shx
  0
ENDTAB
  0
TABLE
  2
LAYER
 70
    6
  0
LAYER
  2
_0-0_0
 70
   64
 62
    7
  6
CONTINUOUS
  0
LAYER
  2
_0-2_寸法
 70
   64
 62
    7
  6
CONTINUOUS
  0
LAYER
  2
_0-3_躯体と製品
 70
   64
 62
    7
  6
CONTINUOUS
  0
LAYER
  2
_0-4_文字-記号
 70
   64
 62
    7
  6
CONTINUOUS
  0
LAYER
  2
_0-5_中心線
 70
   64
 62
    7
  6
CONTINUOUS
  0
LAYER
  2
ADD_LINE
 70
   64
 62
    7
  6
CONTINUOUS
  0
ENDTAB
  0
ENDSEC
  0
SECTION
  2
BLOCKS
  0
BLOCK
  2
-000-_Dot
 70
   64
 10
0
 20
0
 30
0
  0
CIRCLE
  8
_0-0_0
  6
CONTINUOUS
 62
    7
 10
0
 20
0
 40
0.25
  0
LINE
  8
_0-0_0
  6
CONTINUOUS
 62
    7
 10
0.25
 20
0
 11
-0.25
 21
0
  0
LINE
  8
_0-0_0
  6
CONTINUOUS
 62
    7
 10
-0.5
 20
0
 11
-1
 21
0
  0
ENDBLK
  0
BLOCK
  2
-001-_Open30
 70
   64
 10
0
 20
0
 30
0
  0
LINE
  8
_0-0_0
  6
CONTINUOUS
 62
    7
 10
-1
 20
0.26794919
 11
0
 21
0
  0
LINE
  8
_0-0_0
  6
CONTINUOUS
 62
    7
 10
0
 20
0
 11
-1
 21
-0.26794919
  0
LINE
  8
_0-0_0
  6
CONTINUOUS
 62
    7
 10
0
 20
0
 11
-1
 21
0
  0
ENDBLK
  0
BLOCK
  2
-002-_D4
 70
   64
 10
0
 20
0
 30
0
  0
LINE
  8
_0-2_寸法
  6
CONTINUOUS
 62
    4
 10
2119.272354007961
 20
951.51602836939423
 11
2263.272354007961
 21
951.51602836939423
  0
INSERT
  2
-001-_Open30
  8
_0-2_寸法
 10
2116.272354007961
 20
951.51602836939423
 41
3
 42
3
 50
180
  0
INSERT
  2
-001-_Open30
  8
_0-2_寸法
 10
2266.272354007961
 20
951.51602836939423
 41
3
 42
3
 50
0
  0
TEXT
  8
_0-2_寸法
 62
    7
 10
2179.272354007961
 20
952.51602836939435
 40
12
 41
1
 50
0
  1
@900
  0
POINT
  8
_0-1_Defpoints
 62
    7
 10
2116.272354007961
 20
951.51602836939423
  0
POINT
  8
_0-1_Defpoints
 62
    7
 10
2266.272354007961
 20
951.51602836939423
  0
POINT
  8
_0-1_Defpoints
 62
    7
 10
2266.272354007961
 20
951.51602836939423
  0
ENDBLK
  0
BLOCK
  2
-003-_D5
 70
   64
 10
0
 20
0
 30
0
  0
LINE
  8
_0-2_寸法
  6
CONTINUOUS
 62
    4
 10
2269.272354007961
 20
951.51602836939423
 11
2413.272354007961
 21
951.51602836939423
  0
INSERT
  2
-001-_Open30
  8
_0-2_寸法
 10
2266.272354007961
 20
951.51602836939423
 41
3
 42
3
 50
180
  0
INSERT
  2
-001-_Open30
  8
_0-2_寸法
 10
2416.272354007961
 20
951.51602836939423
 41
3
 42
3
 50
0
  0
TEXT
  8
_0-2_寸法
 62
    7
 10
2329.272354007961
 20
952.51602836939435
 40
12
 41
1
 50
0
  1
@900
  0
POINT
  8
_0-1_Defpoints
 62
    7
 10
2266.272354007961
 20
951.51602836939423
  0
POINT
  8
_0-1_Defpoints
 62
    7
 10
2416.272354007961
 20
951.51602836939423
  0
POINT
  8
_0-1_Defpoints
 62
    7
 10
2416.272354007961
 20
951.51602836939423
  0
ENDBLK
  0
BLOCK
  2
-004-_D6
 70
   64
 10
0
 20
0
 30
0
  0
LINE
  8
_0-2_寸法
  6
CONTINUOUS
 62
    4
 10
2412.2844070043429
 20
1031.1597783693931
 11
2515.1764770043419
 21
1031.1597783693931
  0
LINE
  8
_0-2_寸法
  6
CONTINUOUS
 62
    4
 10
2407.0320061322832
 20
1681.1597783693931
 11
2515.1764770043419
 21
1681.1597783693931
  0
LINE
  8
_0-2_寸法
  6
CONTINUOUS
 62
    4
 10
2515.1764770043419
 20
1034.1597783693931
 11
2515.1764770043419
 21
1678.1597783693931
  0
INSERT
  2
-001-_Open30
  8
_0-2_寸法
 10
2515.1764770043419
 20
1031.1597783693931
 41
3
 42
3
 50
270
  0
INSERT
  2
-001-_Open30
  8
_0-2_寸法
 10
2515.1764770043419
 20
1681.1597783693931
 41
3
 42
3
 50
90
  0
TEXT
  8
_0-2_寸法
 62
    7
 10
2514.1764770043419
 20
1332.1597783693931
 40
12
 41
1
 50
90
  1
300～700
  0
POINT
  8
_0-1_Defpoints
 62
    7
 10
2412.2844070043429
 20
1031.1597783693931
  0
POINT
  8
_0-1_Defpoints
 62
    7
 10
2407.0320061322832
 20
1681.1597783693931
  0
POINT
  8
_0-1_Defpoints
 62
    7
 10
2515.1764770043419
 20
1681.1597783693931
  0
ENDBLK
  0
BLOCK
  2
-005-_D7
 70
   64
 10
0
 20
0
 30
0
  0
LINE
  8
_0-2_寸法
  6
CONTINUOUS
 62
    4
 10
2407.0320061322832
 20
1613.1597783693869
 11
2473.9137320043451
 21
1613.1597783693869
  0
LINE
  8
_0-2_寸法
  6
CONTINUOUS
 62
    4
 10
2463.0543421467269
 20
1653.1597783693869
 11
2473.9137320043451
 21
1653.1597783693869
  0
LINE
  8
_0-2_寸法
  6
CONTINUOUS
 62
    4
 10
2473.9137320043451
 20
1616.1597783693869
 11
2473.9137320043451
 21
1650.1597783693869
  0
INSERT
  2
-001-_Open30
  8
_0-2_寸法
 10
2473.9137320043451
 20
1613.1597783693869
 41
3
 42
3
 50
270
  0
INSERT
  2
-001-_Open30
  8
_0-2_寸法
 10
2473.9137320043451
 20
1653.1597783693869
 41
3
 42
3
 50
90
  0
TEXT
  8
_0-2_寸法
 62
    7
 10
2472.9137320043442
 20
1628.1597783693869
 40
10
 41
1
 50
90
  1
40
  0
POINT
  8
_0-1_Defpoints
 62
    7
 10
2407.0320061322832
 20
1613.1597783693869
  0
POINT
  8
_0-1_Defpoints
 62
    7
 10
2463.0543421467269
 20
1653.1597783693869
  0
POINT
  8
_0-1_Defpoints
 62
    7
 10
2473.9137320043451
 20
1653.1597783693869
  0
ENDBLK
  0
BLOCK
  2
-006-_D8
 70
   64
 10
0
 20
0
 30
0
  0
LINE
  8
_0-2_寸法
  6
CONTINUOUS
 62
    4
 10
2290.4605431358991
 20
1611.159778369381
 11
2473.9137320043451
 21
1611.159778369381
  0
LINE
  8
_0-2_寸法
  6
CONTINUOUS
 62
    4
 10
2407.0320061322832
 20
1613.1597783693869
 11
2473.9137320043451
 21
1613.1597783693869
  0
LINE
  8
_0-2_寸法
  6
CONTINUOUS
 62
    4
 10
2473.9137320043451
 20
1616.1597783693869
 11
2473.9137320043451
 21
1619.1597783693869
  0
LINE
  8
_0-2_寸法
  6
CONTINUOUS
 62
    4
 10
2473.9137320043451
 20
1608.159778369381
 11
2473.9137320043451
 21
1598.7507593027331
  0
LINE
  8
_0-2_寸法
  6
CONTINUOUS
 62
    4
 10
2473.9137320043451
 20
1598.7507593027331
 11
2467.5803986710112
 21
1598.7507593027331
  0
INSERT
  2
-001-_Open30
  8
_0-2_寸法
 10
2473.9137320043451
 20
1613.1597783693869
 41
3
 42
3
 50
270
  0
INSERT
  2
-001-_Open30
  8
_0-2_寸法
 10
2473.9137320043451
 20
1611.159778369381
 41
3
 42
3
 50
90
  0
TEXT
  8
_0-2_寸法
 62
    7
 10
2467.7470653376781
 20
1599.7507593027331
 40
10
 41
1
 50
0
  1
2
  0
POINT
  8
_0-1_Defpoints
 62
    7
 10
2290.4605431358991
 20
1611.159778369381
  0
POINT
  8
_0-1_Defpoints
 62
    7
 10
2407.0320061322832
 20
1613.1597783693869
  0
POINT
  8
_0-1_Defpoints
 62
    7
 10
2473.9137320043451
 20
1613.1597783693869
  0
ENDBLK
  0
BLOCK
  2
-007-_D9
 70
   64
 10
0
 20
0
 30
0
  0
LINE
  8
_0-2_寸法
  6
CONTINUOUS
 62
    4
 10
2196.272354007961
 20
1692.6597783693869
 11
2196.272354007961
 21
1723.5221057397
  0
LINE
  8
_0-2_寸法
  6
CONTINUOUS
 62
    4
 10
2356.272354007961
 20
1692.6597783693869
 11
2356.272354007961
 21
1723.5221057397
  0
LINE
  8
_0-2_寸法
  6
CONTINUOUS
 62
    4
 10
2197.272354007961
 20
1723.5221057397
 11
2355.2723540079601
 21
1723.5221057397
  0
INSERT
  2
-000-_Dot
  8
_0-2_寸法
 10
2196.272354007961
 20
1723.5221057397
 41
1
 42
1
 50
180
  0
INSERT
  2
-000-_Dot
  8
_0-2_寸法
 10
2356.272354007961
 20
1723.5221057397
 41
1
 42
1
 50
0
  0
TEXT
  8
_0-2_寸法
 62
    7
 10
2267.272354007961
 20
1726.5221057397
 40
12
 41
1
 50
0
  1
160
  0
POINT
  8
_0-1_Defpoints
 62
    7
 10
2196.272354007961
 20
1692.6597783693869
  0
POINT
  8
_0-1_Defpoints
 62
    7
 10
2356.272354007961
 20
1692.6597783693869
  0
POINT
  8
_0-1_Defpoints
 62
    7
 10
2356.272354007961
 20
1723.5221057397
  0
ENDBLK
  0
BLOCK
  2
-008-_D10
 70
   64
 10
0
 20
0
 30
0
  0
LINE
  8
_0-2_寸法
  6
CONTINUOUS
 62
    4
 10
2190.2723540079601
 20
1692.6597783693869
 11
2190.2723540079601
 21
1723.5221057397
  0
LINE
  8
_0-2_寸法
  6
CONTINUOUS
 62
    4
 10
2196.272354007961
 20
1692.6597783693869
 11
2196.272354007961
 21
1723.5221057397
  0
LINE
  8
_0-2_寸法
  6
CONTINUOUS
 62
    4
 10
2189.272354007961
 20
1723.5221057397
 11
2188.272354007961
 21
1723.5221057397
  0
LINE
  8
_0-2_寸法
  6
CONTINUOUS
 62
    4
 10
2197.272354007961
 20
1723.5221057397
 11
2198.2723540079601
 21
1723.5221057397
  0
LINE
  8
_0-2_寸法
  6
CONTINUOUS
 62
    4
 10
2190.2723540079601
 20
1723.5221057397
 11
2196.272354007961
 21
1723.5221057397
  0
INSERT
  2
-000-_Dot
  8
_0-2_寸法
 10
2190.2723540079601
 20
1723.5221057397
 41
1
 42
1
 50
0
  0
INSERT
  2
-000-_Dot
  8
_0-2_寸法
 10
2196.272354007961
 20
1723.5221057397
 41
1
 42
1
 50
180
  0
TEXT
  8
_0-2_寸法
 62
    7
 10
2190.272354007961
 20
1726.5221057397
 40
12
 41
1
 50
0
  1
6
  0
POINT
  8
_0-1_Defpoints
 62
    7
 10
2190.2723540079601
 20
1692.6597783693869
  0
POINT
  8
_0-1_Defpoints
 62
    7
 10
2196.272354007961
 20
1692.6597783693869
  0
POINT
  8
_0-1_Defpoints
 62
    7
 10
2196.272354007961
 20
1723.5221057397
  0
ENDBLK
  0
BLOCK
  2
-009-_D11
 70
   64
 10
0
 20
0
 30
0
  0
LINE
  8
_0-2_寸法
  6
CONTINUOUS
 62
    4
 10
2190.2723540079601
 20
1692.6597783693869
 11
2190.2723540079601
 21
1723.5221057397
  0
LINE
  8
_0-2_寸法
  6
CONTINUOUS
 62
    4
 10
2102.8438170043441
 20
1723.5221057397
 11
2189.272354007961
 21
1723.5221057397
  0
INSERT
  2
-000-_Dot
  8
_0-2_寸法
 10
2190.2723540079601
 20
1723.5221057397
 41
1
 42
1
 50
0
  0
TEXT
  8
_0-2_寸法
 62
    7
 10
2137.058085506153
 20
1726.5221057397
 40
12
 41
1
 50
0
  1
160
  0
POINT
  8
_0-1_Defpoints
 62
    7
 10
2102.8438170043441
 20
1723.5221057397
  0
POINT
  8
_0-1_Defpoints
 62
    7
 10
2190.2723540079601
 20
1692.6597783693869
  0
POINT
  8
_0-1_Defpoints
 62
    7
 10
2190.2723540079601
 20
1723.5221057397
  0
ENDBLK
  0
BLOCK
  2
-010-_D12
 70
   64
 10
0
 20
0
 30
0
  0
LINE
  8
_0-2_寸法
  6
CONTINUOUS
 62
    4
 10
2356.272354007961
 20
1692.6597783693869
 11
2356.272354007961
 21
1723.5221057397
  0
LINE
  8
_0-2_寸法
  6
CONTINUOUS
 62
    4
 10
2362.272354007961
 20
1692.6597783693869
 11
2362.272354007961
 21
1723.5221057397
  0
LINE
  8
_0-2_寸法
  6
CONTINUOUS
 62
    4
 10
2355.2723540079601
 20
1723.5221057397
 11
2354.272354007961
 21
1723.5221057397
  0
LINE
  8
_0-2_寸法
  6
CONTINUOUS
 62
    4
 10
2363.2723540079601
 20
1723.5221057397
 11
2364.2723540079601
 21
1723.5221057397
  0
LINE
  8
_0-2_寸法
  6
CONTINUOUS
 62
    4
 10
2356.272354007961
 20
1723.5221057397
 11
2362.272354007961
 21
1723.5221057397
  0
INSERT
  2
-000-_Dot
  8
_0-2_寸法
 10
2356.272354007961
 20
1723.5221057397
 41
1
 42
1
 50
0
  0
INSERT
  2
-000-_Dot
  8
_0-2_寸法
 10
2362.272354007961
 20
1723.5221057397
 41
1
 42
1
 50
180
  0
TEXT
  8
_0-2_寸法
 62
    7
 10
2356.272354007961
 20
1726.5221057397
 40
12
 41
1
 50
0
  1
6
  0
POINT
  8
_0-1_Defpoints
 62
    7
 10
2356.272354007961
 20
1692.6597783693869
  0
POINT
  8
_0-1_Defpoints
 62
    7
 10
2362.272354007961
 20
1692.6597783693869
  0
POINT
  8
_0-1_Defpoints
 62
    7
 10
2362.272354007961
 20
1723.5221057397
  0
ENDBLK
  0
BLOCK
  2
-011-_D13
 70
   64
 10
0
 20
0
 30
0
  0
LINE
  8
_0-2_寸法
  6
CONTINUOUS
 62
    4
 10
2407.0320061322832
 20
1653.1597783693869
 11
2473.9137320043451
 21
1653.1597783693869
  0
LINE
  8
_0-2_寸法
  6
CONTINUOUS
 62
    4
 10
2407.0320061322832
 20
1681.1597783693931
 11
2473.9137320043451
 21
1681.1597783693931
  0
LINE
  8
_0-2_寸法
  6
CONTINUOUS
 62
    4
 10
2473.9137320043451
 20
1654.1597783693869
 11
2473.9137320043451
 21
1680.1597783693931
  0
INSERT
  2
-000-_Dot
  8
_0-2_寸法
 10
2473.9137320043451
 20
1653.1597783693869
 41
1
 42
1
 50
270
  0
INSERT
  2
-000-_Dot
  8
_0-2_寸法
 10
2473.9137320043451
 20
1681.1597783693931
 41
1
 42
1
 50
90
  0
TEXT
  8
_0-2_寸法
 62
    7
 10
2470.9137320043442
 20
1661.1597783693901
 40
12
 41
1
 50
90
  1
28
  0
POINT
  8
_0-1_Defpoints
 62
    7
 10
2407.0320061322832
 20
1653.1597783693869
  0
POINT
  8
_0-1_Defpoints
 62
    7
 10
2407.0320061322832
 20
1681.1597783693931
  0
POINT
  8
_0-1_Defpoints
 62
    7
 10
2473.9137320043451
 20
1681.1597783693931
  0
ENDBLK
  0
BLOCK
  2
-012-_D14
 70
   64
 10
0
 20
0
 30
0
  0
LINE
  8
_0-2_寸法
  6
CONTINUOUS
 62
    4
 10
2363.2723540079601
 20
1723.5221057397
 11
2402.849957206261
 21
1723.5221057397
  0
INSERT
  2
-000-_Dot
  8
_0-2_寸法
 10
2362.272354007961
 20
1723.5221057397
 41
1
 42
1
 50
180
  0
TEXT
  8
_0-2_寸法
 62
    7
 10
2374.0611556071108
 20
1726.5221057397
 40
12
 41
1
 50
0
  1
160
  0
POINT
  8
_0-1_Defpoints
 62
    7
 10
2362.272354007961
 20
1723.5221057397
  0
POINT
  8
_0-1_Defpoints
 62
    7
 10
2402.849957206261
 20
1723.5221057397
  0
POINT
  8
_0-1_Defpoints
 62
    7
 10
2402.849957206261
 20
1723.5221057397
  0
ENDBLK
  0
BLOCK
  2
-013-_D15
 70
   64
 10
0
 20
0
 30
0
  0
LINE
  8
_0-2_寸法
  6
CONTINUOUS
 62
    4
 10
2750.0590477009432
 20
951.51602836939423
 11
2894.0590477009432
 21
951.51602836939423
  0
INSERT
  2
-001-_Open30
  8
_0-2_寸法
 10
2747.0590477009432
 20
951.51602836939423
 41
3
 42
3
 50
180
  0
INSERT
  2
-001-_Open30
  8
_0-2_寸法
 10
2897.0590477009432
 20
951.51602836939423
 41
3
 42
3
 50
0
  0
TEXT
  8
_0-2_寸法
 62
    7
 10
2810.0590477009432
 20
952.51602836939435
 40
12
 41
1
 50
0
  1
@900
  0
POINT
  8
_0-1_Defpoints
 62
    7
 10
2747.0590477009432
 20
951.51602836939423
  0
POINT
  8
_0-1_Defpoints
 62
    7
 10
2897.0590477009432
 20
951.51602836939423
  0
POINT
  8
_0-1_Defpoints
 62
    7
 10
2897.0590477009432
 20
951.51602836939423
  0
ENDBLK
  0
BLOCK
  2
-014-_D16
 70
   64
 10
0
 20
0
 30
0
  0
LINE
  8
_0-2_寸法
  6
CONTINUOUS
 62
    4
 10
2900.0590477009432
 20
951.51602836939423
 11
3044.0590477009432
 21
951.51602836939423
  0
INSERT
  2
-001-_Open30
  8
_0-2_寸法
 10
2897.0590477009432
 20
951.51602836939423
 41
3
 42
3
 50
180
  0
INSERT
  2
-001-_Open30
  8
_0-2_寸法
 10
3047.0590477009432
 20
951.51602836939423
 41
3
 42
3
 50
0
  0
TEXT
  8
_0-2_寸法
 62
    7
 10
2960.0590477009432
 20
952.51602836939435
 40
12
 41
1
 50
0
  1
@900
  0
POINT
  8
_0-1_Defpoints
 62
    7
 10
2897.0590477009432
 20
951.51602836939423
  0
POINT
  8
_0-1_Defpoints
 62
    7
 10
3047.0590477009432
 20
951.51602836939423
  0
POINT
  8
_0-1_Defpoints
 62
    7
 10
3047.0590477009432
 20
951.51602836939423
  0
ENDBLK
  0
ENDSEC
  0
SECTION
  2
ENTITIES
  0
LINE
  8
_0-5_中心線
  6
CENTER1
 62
    7
 10
301.09875731422699
 20
-14.644863018733076
 11
301.09875731422699
 21
678.13633698125409
  0
LINE
  8
_0-3_躯体と製品
  6
CONTINUOUS
 62
    4
 10
279.74875731422617
 20
158.30296698126403
 11
279.74875731422617
 21
487.90296511524002
  0
LINE
  8
_0-3_躯体と製品
  6
CONTINUOUS
 62
    4
 10
322.4487573142269
 20
158.30296698126403
 11
322.4487573142269
 21
487.90296511524002
  0
LINE
  8
_0-3_躯体と製品
  6
CONTINUOUS
 62
    4
 10
437.67022031061015
 20
73.10296698126308
 11
137.67022031061015
 21
73.10296698126308
  0
LINE
  8
_0-3_躯体と製品
  6
CONTINUOUS
 62
    3
 10
177.41429731422522
 20
43.10296698126308
 11
207.41429731422386
 21
73.10296698126308
  0
LINE
  8
_0-3_躯体と製品
  6
CONTINUOUS
 62
    3
 10
166.10058731422578
 20
43.10296698126308
 11
196.10058731422578
 21
73.10296698126308
  0
LINE
  8
_0-3_躯体と製品
  6
CONTINUOUS
 62
    3
 10
171.75744231422686
 20
43.10296698126308
 11
201.75744231422686
 21
73.10296698126308
  0
LINE
  8
_0-3_躯体と製品
  6
CONTINUOUS
 62
    3
 10
391.56420731422486
 20
43.10296698126308
 11
421.56420731422395
 21
73.10296698126308
  0
LINE
  8
_0-3_躯体と製品
  6
CONTINUOUS
 62
    3
 10
385.90735231422514
 20
43.10296698126308
 11
415.90735231422514
 21
73.10296698126308
  0
LINE
  8
_0-3_躯体と製品
  6
CONTINUOUS
 62
    3
 10
397.22106231422686
 20
43.10296698126308
 11
427.22106231422686
 21
73.10296698126308
  0
LINE
  8
_0-3_躯体と製品
  6
CONTINUOUS
 62
    4
 10
276.63375731422184
 20
158.30296698126403
 11
283.63375731422184
 21
158.30296698126403
  0
LINE
  8
_0-3_躯体と製品
  6
CONTINUOUS
 62
    4
 10
279.89875731421989
 20
135.10296698126012
 11
301.09875731422289
 21
135.10296698126012
  0
ARC
  8
_0-3_躯体と製品
  6
CONTINUOUS
 62
    4
 10
279.89875731421989
 20
139.10296698126308
 40
4
 50
180
 51
270
  0
LINE
  8
_0-3_躯体と製品
  6
CONTINUOUS
 62
    4
 10
276.63375731422184
 20
155.80296698126403
 11
275.70362731422392
 21
155.80296698126403
  0
LINE
  8
_0-3_躯体と製品
  6
CONTINUOUS
 62
    4
 10
276.63375731422184
 20
148.80296698125994
 11
275.70362731422392
 21
148.80296698125994
  0
ARC
  8
_0-3_躯体と製品
  6
CONTINUOUS
 62
    4
 10
280.03375731422193
 20
152.30296698126403
 40
6
 50
150.0000000000027
 51
209.99999999999719
  0
ARC
  8
_0-3_躯体と製品
  6
CONTINUOUS
 62
    4
 10
275.70362731422392
 20
154.80296698126403
 40
1
 50
90
 51
150.0000000000027
  0
ARC
  8
_0-3_躯体と製品
  6
CONTINUOUS
 62
    4
 10
275.70362731422392
 20
149.80296698126403
 40
1
 50
209.99999999999716
 51
270
  0
LINE
  8
_0-3_躯体と製品
  6
CONTINUOUS
 62
    4
 10
276.63375731422184
 20
146.30296698125994
 11
276.63375731422184
 21
158.30296698126403
  0
LINE
  8
_0-3_躯体と製品
  6
CONTINUOUS
 62
    4
 10
275.89875731422217
 20
146.30296698125994
 11
276.63375731422184
 21
146.30296698125994
  0
LINE
  8
_0-3_躯体と製品
  6
CONTINUOUS
 62
    4
 10
275.89875731422217
 20
139.10296698126308
 11
275.89875731422217
 21
146.30296698125994
  0
ARC
  8
_0-3_躯体と製品
  6
CONTINUOUS
 62
    4
 10
322.29875731422317
 20
139.10296698126308
 40
4
 50
270
 51
0
  0
ARC
  8
_0-3_躯体と製品
  6
CONTINUOUS
 62
    4
 10
317.0987573142238
 20
135.10296698126012
 40
2
 50
270
 51
0
  0
LINE
  8
_0-3_躯体と製品
  6
CONTINUOUS
 62
    4
 10
322.29875731422317
 20
135.10296698126012
 11
301.09875731422289
 21
135.10296698126012
  0
LINE
  8
_0-3_躯体と製品
  6
CONTINUOUS
 62
    4
 10
285.09875731422107
 20
133.10296698126308
 11
301.09875731422289
 21
133.10296698126308
  0
ARC
  8
_0-3_躯体と製品
  6
CONTINUOUS
 62
    4
 10
285.09875731422107
 20
135.10296698126012
 40
2
 50
180
 51
270
  0
LINE
  8
_0-3_躯体と製品
  6
CONTINUOUS
 62
    4
 10
317.0987573142238
 20
133.10296698126308
 11
301.09875731422289
 21
133.10296698126308
  0
LINE
  8
_0-3_躯体と製品
  6
CONTINUOUS
 62
    4
 10
325.56375731422304
 20
158.30296698126403
 11
318.56375731422122
 21
158.30296698126403
  0
LINE
  8
_0-3_躯体と製品
  6
CONTINUOUS
 62
    4
 10
318.56375731422122
 20
146.30296698125994
 11
283.63375731422184
 21
146.30296698125994
  0
LINE
  8
_0-3_躯体と製品
  6
CONTINUOUS
 62
    4
 10
283.63375731422184
 20
146.30296698125994
 11
283.63375731422184
 21
158.30296698126403
  0
LINE
  8
_0-3_躯体と製品
  6
CONTINUOUS
 62
    4
 10
318.56375731422122
 20
146.30296698125994
 11
318.56375731422122
 21
158.30296698126403
  0
LINE
  8
_0-3_躯体と製品
  6
CONTINUOUS
 62
    4
 10
325.56375731422304
 20
155.80296698126403
 11
326.49388231422108
 21
155.80296698126403
  0
LINE
  8
_0-3_躯体と製品
  6
CONTINUOUS
 62
    4
 10
325.56375731422304
 20
148.80296698125994
 11
326.49388231422108
 21
148.80296698125994
  0
ARC
  8
_0-3_躯体と製品
  6
CONTINUOUS
 62
    4
 10
322.16375731422295
 20
152.30296698126403
 40
6
 50
330.00000000000267
 51
29.999999999997218
  0
ARC
  8
_0-3_躯体と製品
  6
CONTINUOUS
 62
    4
 10
326.49388231422108
 20
154.80296698126403
 40
1
 50
29.999999999997232
 51
90
  0
ARC
  8
_0-3_躯体と製品
  6
CONTINUOUS
 62
    4
 10
326.49388231422108
 20
149.80296698126403
 40
1
 50
270
 51
330.00000000000267
  0
LINE
  8
_0-3_躯体と製品
  6
CONTINUOUS
 62
    4
 10
325.56375731422304
 20
146.30296698125994
 11
325.56375731422304
 21
158.30296698126403
  0
LINE
  8
_0-3_躯体と製品
  6
CONTINUOUS
 62
    4
 10
326.2987573142218
 20
146.30296698125994
 11
325.56375731422304
 21
146.30296698125994
  0
LINE
  8
_0-3_躯体と製品
  6
CONTINUOUS
 62
    4
 10
326.2987573142218
 20
139.10296698126308
 11
326.2987573142218
 21
146.30296698125994
  0
LINE
  8
_0-3_躯体と製品
  6
CONTINUOUS
 62
    4
 10
276.63375731422593
 20
487.90296511524002
 11
283.63375731422593
 21
487.90296511524002
  0
LINE
  8
_0-3_躯体と製品
  6
CONTINUOUS
 62
    4
 10
279.89875731422399
 20
511.10324511523709
 11
301.09875731422699
 21
511.10296511524098
  0
LINE
  8
_0-3_躯体と製品
  6
PLINE2
 62
    3
 10
137.67022031061015
 20
695.10296698126308
 11
437.67022031061015
 21
695.10296698126308
  0
LINE
  8
_0-4_文字-記号
  6
CONTINUOUS
 62
    7
 10
197.41556531060814
 20
673.34208198125793
 11
156.13413531060905
 21
617.35317575781801
  0
TEXT
  8
_0-4_文字-記号
 62
    7
 10
112.89924461638793
 20
620.4549873121191
 40
12
 41
0.8000000000000001
 50
0
  1
根太鋼
  0
LINE
  8
_0-4_文字-記号
  6
CONTINUOUS
 62
    7
 10
156.13413531060905
 20
617.35317575781801
 11
104.63807531061093
 21
617.35317575781801
  0
ARC
  8
_0-3_躯体と製品
  6
CONTINUOUS
 62
    4
 10
279.89875731422399
 20
507.10324511523709
 40
4
 50
90
 51
180
  0
LINE
  8
_0-3_躯体と製品
  6
CONTINUOUS
 62
    4
 10
276.63375731422593
 20
490.40296511524002
 11
275.70362731422802
 21
490.40296511524002
  0
LINE
  8
_0-3_躯体と製品
  6
CONTINUOUS
 62
    4
 10
276.63375731422593
 20
497.40296511523593
 11
275.70362731422802
 21
497.40296511523593
  0
ARC
  8
_0-3_躯体と製品
  6
CONTINUOUS
 62
    4
 10
280.03375731422602
 20
493.90296511523593
 40
6
 50
150.0000000000027
 51
209.99999999999719
  0
ARC
  8
_0-3_躯体と製品
  6
CONTINUOUS
 62
    4
 10
275.70362731422802
 20
491.40296511523593
 40
1
 50
209.99999999999716
 51
270
  0
ARC
  8
_0-3_躯体と製品
  6
CONTINUOUS
 62
    4
 10
275.70362731422802
 20
496.40296511523593
 40
1
 50
90
 51
150.0000000000027
  0
LINE
  8
_0-3_躯体と製品
  6
CONTINUOUS
 62
    4
 10
276.63375731422593
 20
499.90296511523593
 11
276.63375731422593
 21
487.90296511524002
  0
LINE
  8
_0-3_躯体と製品
  6
CONTINUOUS
 62
    4
 10
275.8987573142258
 20
499.90296511523593
 11
276.63375731422593
 21
499.90296511523593
  0
LINE
  8
_0-3_躯体と製品
  6
CONTINUOUS
 62
    4
 10
275.8987573142258
 20
507.10324511523709
 11
275.8987573142258
 21
499.90296511523593
  0
LINE
  8
_0-3_躯体と製品
  6
CONTINUOUS
 62
    3
 10
437.67022031061015
 20
656.70296698125594
 11
321.09875731422699
 21
656.70296698125594
  0
ARC
  8
_0-3_躯体と製品
  6
CONTINUOUS
 62
    4
 10
322.2987573142268
 20
507.10324511523709
 40
4
 50
0
 51
90
  0
LINE
  8
_0-3_躯体と製品
  6
CONTINUOUS
 62
    4
 10
325.56375731422713
 20
487.90296511524002
 11
318.56375731422486
 21
487.90296511524002
  0
LINE
  8
_0-3_躯体と製品
  6
CONTINUOUS
 62
    4
 10
318.56375731422486
 20
499.90296511523593
 11
283.63375731422593
 21
499.90296511523593
  0
LINE
  8
_0-3_躯体と製品
  6
CONTINUOUS
 62
    4
 10
283.63375731422593
 20
499.90296511523593
 11
283.63375731422593
 21
487.90296511524002
  0
LINE
  8
_0-3_躯体と製品
  6
CONTINUOUS
 62
    4
 10
318.56375731422486
 20
499.90296511523593
 11
318.56375731422486
 21
487.90296511524002
  0
LINE
  8
_0-3_躯体と製品
  6
CONTINUOUS
 62
    4
 10
325.56375731422713
 20
490.40296511524002
 11
326.49388231422608
 21
490.40296511524002
  0
LINE
  8
_0-3_躯体と製品
  6
CONTINUOUS
 62
    4
 10
325.56375731422713
 20
497.40296511523593
 11
326.49388231422608
 21
497.40296511523593
  0
ARC
  8
_0-3_躯体と製品
  6
CONTINUOUS
 62
    4
 10
322.16375731422704
 20
493.90296511523593
 40
6
 50
330.00000000000267
 51
29.999999999997218
  0
ARC
  8
_0-3_躯体と製品
  6
CONTINUOUS
 62
    4
 10
326.49388231422608
 20
491.40296511523593
 40
1
 50
270
 51
330.00000000000267
  0
ARC
  8
_0-3_躯体と製品
  6
CONTINUOUS
 62
    4
 10
326.49388231422608
 20
496.40296511523593
 40
1
 50
29.999999999997232
 51
90
  0
LINE
  8
_0-3_躯体と製品
  6
CONTINUOUS
 62
    4
 10
325.56375731422713
 20
499.90296511523593
 11
325.56375731422713
 21
487.90296511524002
  0
LINE
  8
_0-3_躯体と製品
  6
CONTINUOUS
 62
    4
 10
326.2987573142259
 20
499.90296511523593
 11
325.56375731422713
 21
499.90296511523593
  0
LINE
  8
_0-3_躯体と製品
  6
CONTINUOUS
 62
    4
 10
326.2987573142259
 20
507.10324511523709
 11
326.2987573142259
 21
499.90296511523593
  0
ARC
  8
_0-3_躯体と製品
  6
CONTINUOUS
 62
    4
 10
317.09875731422881
 20
511.10296511524098
 40
2
 50
0
 51
90
  0
LINE
  8
_0-3_躯体と製品
  6
CONTINUOUS
 62
    4
 10
322.2987573142268
 20
511.10324511523709
 11
301.09875731422699
 21
511.10296511524098
  0
LINE
  8
_0-3_躯体と製品
  6
CONTINUOUS
 62
    4
 10
285.09875731422517
 20
513.10296511523711
 11
301.09875731422699
 21
513.10296511523711
  0
ARC
  8
_0-3_躯体と製品
  6
CONTINUOUS
 62
    4
 10
285.09875731422517
 20
511.10296511524098
 40
2
 50
90
 51
180
  0
LINE
  8
_0-3_躯体と製品
  6
CONTINUOUS
 62
    4
 10
317.09875731422881
 20
513.10296511523711
 11
301.09875731422699
 21
513.10296511523711
  0
LINE
  8
_0-3_躯体と製品
  6
CONTINUOUS
 62
    3
 10
137.67022031061015
 20
655.10296698125694
 11
281.09875731422608
 21
655.10296698125694
  0
LINE
  8
_0-3_躯体と製品
  6
CONTINUOUS
 62
    3
 10
321.47022031060806
 20
656.70296698125594
 11
437.67022031061015
 21
656.70296698125594
  0
INSERT
  2
-002-_D4
  8
_0-2_寸法
 10
-1965.173596693734
 20
-958.05681138812997
 41
1
 42
1
 50
0
  0
INSERT
  2
-003-_D5
  8
_0-2_寸法
 10
-1965.173596693734
 20
-958.05681138812997
 41
1
 42
1
 50
0
  0
INSERT
  2
-004-_D6
  8
_0-2_寸法
 10
-1965.173596693734
 20
-958.05681138812997
 41
1
 42
1
 50
0
  0
INSERT
  2
-005-_D7
  8
_0-2_寸法
 10
-1965.173596693734
 20
-958.05681138812997
 41
1
 42
1
 50
0
  0
LINE
  8
_0-3_躯体と製品
  6
CONTINUOUS
 62
    7
 10
296.59875731422017
 20
596.10296698125694
 11
296.59875731422017
 21
532.40296511523707
  0
LINE
  8
_0-3_躯体と製品
  6
CONTINUOUS
 62
    7
 10
295.09875731422017
 20
596.10296698125694
 11
295.09875731422017
 21
532.40296511523707
  0
LINE
  8
_0-3_躯体と製品
  6
CONTINUOUS
 62
    7
 10
305.59875731422017
 20
596.10296698125694
 11
305.59875731422017
 21
532.40296511523707
  0
LINE
  8
_0-3_躯体と製品
  6
CONTINUOUS
 62
    7
 10
307.0987573142188
 20
596.10296698125694
 11
307.0987573142188
 21
532.40296511523707
  0
ARC
  8
_0-3_躯体と製品
  6
CONTINUOUS
 62
    7
 10
301.09875731422551
 20
614.65596698125717
 40
18.553000000000175
 50
251.13144099976682
 51
269.61088699992172
  0
ARC
  8
_0-3_躯体と製品
  6
CONTINUOUS
 62
    7
 10
254.34875731422278
 20
607.85296698126115
 40
3.249999999995798
 50
90.000002999934651
 51
180.00000000007415
  0
LINE
  8
_0-3_躯体と製品
  6
CONTINUOUS
 62
    7
 10
251.09875731422699
 20
607.85296698125694
 11
251.09875731422699
 21
600.10296698125694
  0
LINE
  8
_0-3_躯体と製品
  6
CONTINUOUS
 62
    7
 10
251.09875731422699
 20
600.10296698125694
 11
351.09875731422699
 21
600.10296698125694
  0
LINE
  8
_0-3_躯体と製品
  6
CONTINUOUS
 62
    7
 10
351.09875731422699
 20
600.10296698125694
 11
351.09875731422699
 21
607.85296698125694
  0
ARC
  8
_0-3_躯体と製品
  6
CONTINUOUS
 62
    7
 10
347.84875731422653
 20
607.85296698125649
 40
3.2500000000004592
 50
0.000000000008097
 51
90.000000000007958
  0
LINE
  8
_0-3_躯体と製品
  6
CONTINUOUS
 62
    7
 10
347.84875731422608
 20
611.10296698125694
 11
301.09875731422699
 21
611.10296698125694
  0
LINE
  8
_0-3_躯体と製品
  6
CONTINUOUS
 62
    7
 10
301.09875731422699
 20
611.10296698125694
 11
254.34875731422699
 21
611.10296698125694
  0
ARC
  8
_0-3_躯体と製品
  6
CONTINUOUS
 62
    7
 10
292.10075731423478
 20
601.10696698125071
 40
5.0039999999997375
 50
233.13925800013828
 51
306.80349100001467
  0
LINE
  8
_0-3_躯体と製品
  6
CONTINUOUS
 62
    7
 10
295.09875731422699
 20
597.09996698125292
 11
295.09875731422699
 21
600.10296698125694
  0
LINE
  8
_0-3_躯体と製品
  6
CONTINUOUS
 62
    7
 10
289.09875731422608
 20
597.10296698125808
 11
289.09875731422608
 21
600.10296698125694
  0
ARC
  8
_0-3_躯体と製品
  6
CONTINUOUS
 62
    7
 10
310.09675731421862
 20
601.10696698125093
 40
5.0040000000003273
 50
233.19650300002598
 51
306.86073700002112
  0
LINE
  8
_0-3_躯体と製品
  6
CONTINUOUS
 62
    7
 10
310.09675731421885
 20
596.10296698125694
 11
301.09875731422699
 21
596.10296698125694
  0
LINE
  8
_0-3_躯体と製品
  6
CONTINUOUS
 62
    7
 10
301.09875731422699
 20
596.10296698125694
 11
292.10075731423422
 21
596.10296698125694
  0
ARC
  8
_0-3_躯体と製品
  6
CONTINUOUS
 62
    7
 10
301.09875731422829
 20
614.65596698125421
 40
18.552999999996842
 50
270.38910700017738
 51
288.86855299986212
  0
LINE
  8
_0-3_躯体と製品
  6
CONTINUOUS
 62
    7
 10
307.09875731422699
 20
600.10296698125694
 11
307.09875731422699
 21
597.09996698125292
  0
LINE
  8
_0-3_躯体と製品
  6
CONTINUOUS
 62
    7
 10
313.09875731422699
 20
597.10296698125808
 11
313.09875731422699
 21
600.10296698125694
  0
LINE
  8
_0-5_中心線
  6
CENTER1
 62
    7
 10
273.34875731425609
 20
598.70296698125594
 11
273.34875731425609
 21
621.6267169812561
  0
LINE
  8
_0-5_中心線
  6
CENTER1
 62
    7
 10
328.84875731419788
 20
598.70296698125594
 11
328.84875731419788
 21
621.6267169812561
  0
LINE
  8
_0-4_文字-記号
  6
CONTINUOUS
 62
    7
 10
336.7551889417141
 20
600.10296698125694
 11
356.25685236758591
 21
566.32509509553893
  0
LINE
  8
_0-4_文字-記号
  6
CONTINUOUS
 62
    7
 10
356.25685236758591
 20
566.32509509553893
 11
403.32039119705087
 21
566.32509509553893
  0
TEXT
  8
_0-4_文字-記号
 62
    7
 10
357.37458959485684
 20
568.1936213795791
 40
12
 41
0.8000000000000001
 50
0
  1
受け金具
  0
LINE
  8
_0-3_躯体と製品
  6
CONTINUOUS
 62
    7
 10
333.09875731422699
 20
616.10296698125694
 11
338.09875731422608
 21
616.10296698125694
  0
LINE
  8
_0-3_躯体と製品
  6
CONTINUOUS
 62
    7
 10
338.09875731422608
 20
616.10296698125694
 11
338.09875731422608
 21
613.10296698125694
  0
LINE
  8
_0-3_躯体と製品
  6
CONTINUOUS
 62
    7
 10
338.09875731422608
 20
613.10296698125694
 11
264.09875731422699
 21
613.10296698125694
  0
LINE
  8
_0-3_躯体と製品
  6
CONTINUOUS
 62
    7
 10
264.09875731422699
 20
613.10296698125694
 11
264.09875731422699
 21
616.10296698125694
  0
LINE
  8
_0-3_躯体と製品
  6
CONTINUOUS
 62
    7
 10
264.09875731422699
 20
616.10296698125694
 11
269.09875731422699
 21
616.10296698125694
  0
LINE
  8
_0-3_躯体と製品
  6
CONTINUOUS
 62
    7
 10
269.09875731422699
 20
616.10296698125694
 11
269.09875731422699
 21
618.10296698125694
  0
LINE
  8
_0-3_躯体と製品
  6
CONTINUOUS
 62
    7
 10
269.09875731422699
 20
618.10296698125694
 11
262.09875731422699
 21
618.10296698125694
  0
LINE
  8
_0-3_躯体と製品
  6
CONTINUOUS
 62
    7
 10
262.09875731422699
 20
618.10296698125694
 11
262.09875731422699
 21
611.10296698125694
  0
LINE
  8
_0-3_躯体と製品
  6
CONTINUOUS
 62
    7
 10
262.09875731422699
 20
611.10296698125694
 11
340.09875731422699
 21
611.10296698125694
  0
LINE
  8
_0-3_躯体と製品
  6
CONTINUOUS
 62
    7
 10
340.09875731422699
 20
611.10296698125694
 11
340.09875731422699
 21
618.10296698125694
  0
LINE
  8
_0-3_躯体と製品
  6
CONTINUOUS
 62
    7
 10
340.09875731422699
 20
618.10296698125694
 11
333.09875731422699
 21
618.10296698125694
  0
LINE
  8
_0-3_躯体と製品
  6
CONTINUOUS
 62
    7
 10
333.09875731422699
 20
618.10296698125694
 11
333.09875731422699
 21
616.10296698125694
  0
ARC
  8
_0-3_躯体と製品
  6
CONTINUOUS
 62
    7
 10
309.31175731424452
 20
616.85496698125041
 40
4.2479999999993554
 50
49.86977299946377
 51
130.1199190004036
  0
LINE
  8
_0-3_躯体と製品
  6
CONTINUOUS
 62
    7
 10
306.57475731422119
 20
615.1019669812531
 11
306.57475731422119
 21
620.10396698125396
  0
LINE
  8
_0-3_躯体と製品
  6
CONTINUOUS
 62
    7
 10
312.04975731422701
 20
620.10296698125694
 11
312.04975731422701
 21
615.10296698125694
  0
ARC
  8
_0-3_躯体と製品
  6
CONTINUOUS
 62
    7
 10
309.31175731424514
 20
618.35096698125608
 40
4.2479999999993563
 50
229.88008099958452
 51
310.13022700052431
  0
LINE
  8
_0-3_躯体と製品
  6
CONTINUOUS
 62
    7
 10
307.09875731422699
 20
634.60296698125694
 11
307.09875731422699
 21
621.10296698125694
  0
LINE
  8
_0-3_躯体と製品
  6
CONTINUOUS
 62
    7
 10
302.83075731424515
 20
614.10296698125694
 11
302.25342398089606
 21
613.10296698125694
  0
LINE
  8
_0-3_躯体と製品
  6
CONTINUOUS
 62
    7
 10
301.09875731422699
 20
614.10296698125694
 11
300.521423980907
 21
613.10296698125694
  0
LINE
  8
_0-3_躯体と製品
  6
CONTINUOUS
 62
    7
 10
305.59875731422699
 20
636.10296698125694
 11
305.59875731422699
 21
621.10296698125694
  0
LINE
  8
_0-3_躯体と製品
  6
CONTINUOUS
 62
    7
 10
295.09875731422699
 20
634.60296698125694
 11
296.59875731422699
 21
636.10296698125694
  0
LINE
  8
_0-3_躯体と製品
  6
CONTINUOUS
 62
    7
 10
295.6247573142391
 20
615.1019669812531
 11
295.6247573142391
 21
620.10396698125396
  0
LINE
  8
_0-3_躯体と製品
  6
CONTINUOUS
 62
    7
 10
290.14975731423419
 20
620.10296698125694
 11
290.14975731423419
 21
615.10296698125694
  0
ARC
  8
_0-3_躯体と製品
  6
CONTINUOUS
 62
    7
 10
292.8877573142455
 20
616.85496698124973
 40
4.248000000000105
 50
49.880087000093958
 51
130.13023300049929
  0
ARC
  8
_0-3_躯体と製品
  6
CONTINUOUS
 62
    7
 10
292.8877573142455
 20
618.35096698125733
 40
4.2480000000001077
 50
229.86976699950074
 51
310.11991299990603
  0
ARC
  8
_0-3_躯体と製品
  6
CONTINUOUS
 62
    7
 10
301.09875731422602
 20
605.60996698125302
 40
15.493000000001317
 50
69.301553000435931
 51
110.69022699919388
  0
LINE
  8
_0-3_躯体と製品
  6
CONTINUOUS
 62
    7
 10
295.09875731422699
 20
621.10296698125694
 11
295.09875731422699
 21
634.60296698125694
  0
LINE
  8
_0-3_躯体と製品
  6
CONTINUOUS
 62
    7
 10
295.09875731422699
 20
634.60296698125694
 11
307.09875731422699
 21
634.60296698125694
  0
LINE
  8
_0-3_躯体と製品
  6
CONTINUOUS
 62
    7
 10
307.09875731422699
 20
634.60296698125694
 11
305.59875731422699
 21
636.10296698125694
  0
LINE
  8
_0-3_躯体と製品
  6
CONTINUOUS
 62
    7
 10
305.59875731422699
 20
636.10296698125694
 11
296.59875731422699
 21
636.10296698125694
  0
LINE
  8
_0-3_躯体と製品
  6
CONTINUOUS
 62
    7
 10
296.59875731422699
 20
636.10296698125694
 11
296.59875731422699
 21
621.10296698125694
  0
ARC
  8
_0-3_躯体と製品
  6
CONTINUOUS
 62
    7
 10
301.09875731422727
 20
629.5959669812604
 40
15.493000000001306
 50
249.30977300080136
 51
290.69844699955934
  0
LINE
  8
_0-3_躯体と製品
  6
CONTINUOUS
 62
    7
 10
292.886757314227
 20
621.10296698125694
 11
309.31075731422607
 21
621.10296698125694
  0
LINE
  8
_0-3_躯体と製品
  6
CONTINUOUS
 62
    7
 10
311.84875731422699
 20
613.10296698125694
 11
311.84875731422699
 21
614.10296698125694
  0
LINE
  8
_0-3_躯体と製品
  6
CONTINUOUS
 62
    7
 10
311.84875731422699
 20
614.10296698125694
 11
290.34875731422699
 21
614.10296698125694
  0
LINE
  8
_0-3_躯体と製品
  6
CONTINUOUS
 62
    7
 10
290.34875731422699
 20
614.10296698125694
 11
290.34875731422699
 21
613.10296698125694
  0
LINE
  8
_0-3_躯体と製品
  6
CONTINUOUS
 62
    7
 10
319.49875731422117
 20
615.20296698125594
 11
319.49875731422117
 21
651.00296698125112
  0
ARC
  8
_0-3_躯体と製品
  6
CONTINUOUS
 62
    7
 10
318.99875732731061
 20
651.00296699434057
 40
0.4999999869105527
 50
359.9999985000598
 51
90.00000149994024
  0
LINE
  8
_0-3_躯体と製品
  6
CONTINUOUS
 62
    7
 10
318.99875731422117
 20
651.50296698125112
 11
301.09875731422699
 21
651.50296698125112
  0
LINE
  8
_0-3_躯体と製品
  6
CONTINUOUS
 62
    7
 10
301.09875731422699
 20
651.50296698125112
 11
283.198757288053
 21
651.50296698125112
  0
ARC
  8
_0-3_躯体と製品
  6
CONTINUOUS
 62
    7
 10
283.19875728805255
 20
651.00296700743138
 40
0.4999999738197412
 50
89.999999999947946
 51
180.00000300003686
  0
LINE
  8
_0-3_躯体と製品
  6
CONTINUOUS
 62
    7
 10
282.69875731423281
 20
651.00296698125112
 11
282.6987573142269
 21
615.20296698125594
  0
ARC
  8
_0-3_躯体と製品
  6
CONTINUOUS
 62
    7
 10
280.59875731422648
 20
615.20296698125549
 40
2.1000000000004202
 50
270.00000000001393
 51
0.000000000010848
  0
LINE
  8
_0-3_躯体と製品
  6
CONTINUOUS
 62
    7
 10
280.59875731422699
 20
613.10296698125512
 11
264.09875731422699
 21
613.10296698125694
  0
LINE
  8
_0-3_躯体と製品
  6
CONTINUOUS
 62
    7
 10
264.09875731422699
 20
613.10296698125694
 11
264.09875731422699
 21
614.70296698125594
  0
LINE
  8
_0-3_躯体と製品
  6
CONTINUOUS
 62
    7
 10
264.09875731422699
 20
614.70296698125594
 11
280.59875731422699
 21
614.70296698125594
  0
ARC
  8
_0-3_躯体と製品
  6
CONTINUOUS
 62
    7
 10
280.59875732731598
 20
615.20296696816604
 40
0.499999986910098
 50
269.99999850011187
 51
0.0000014999923471
  0
LINE
  8
_0-3_躯体と製品
  6
CONTINUOUS
 62
    7
 10
281.09875731422608
 20
615.20296698125594
 11
281.09875731423199
 21
651.00296698125112
  0
ARC
  8
_0-3_躯体と製品
  6
CONTINUOUS
 62
    7
 10
283.1987573142319
 20
651.00296698125112
 40
2.0999999999999086
 50
89.999999999999986
 51
180
  0
LINE
  8
_0-3_躯体と製品
  6
CONTINUOUS
 62
    7
 10
283.1987573142319
 20
653.10296698125103
 11
301.09875731422699
 21
653.10296698125694
  0
LINE
  8
_0-3_躯体と製品
  6
CONTINUOUS
 62
    7
 10
301.09875731422699
 20
653.10296698125694
 11
318.99875731422298
 21
653.10296698125103
  0
ARC
  8
_0-3_躯体と製品
  6
CONTINUOUS
 62
    7
 10
318.99875731422355
 20
651.0029669812476
 40
2.1000000000034365
 50
0.0000000000962435
 51
90.000000000015433
  0
LINE
  8
_0-3_躯体と製品
  6
CONTINUOUS
 62
    7
 10
321.09875731422699
 20
651.00296698125112
 11
321.09875731422699
 21
615.2029669288961
  0
ARC
  8
_0-3_躯体と製品
  6
CONTINUOUS
 62
    7
 10
321.59875732731632
 20
615.20296699434527
 40
0.5000000130893372
 50
180.00000749992273
 51
269.99999850007293
  0
LINE
  8
_0-3_躯体と製品
  6
CONTINUOUS
 62
    7
 10
321.59875731422699
 20
614.70296698125594
 11
338.09875731422608
 21
614.70296698125594
  0
LINE
  8
_0-3_躯体と製品
  6
CONTINUOUS
 62
    7
 10
338.09875731422608
 20
614.70296698125594
 11
338.09875731422608
 21
613.10296698125694
  0
LINE
  8
_0-3_躯体と製品
  6
CONTINUOUS
 62
    7
 10
338.09875731422608
 20
613.10296698125694
 11
321.59875731422699
 21
613.10296698125512
  0
ARC
  8
_0-3_躯体と製品
  6
CONTINUOUS
 62
    7
 10
321.59875731422682
 20
615.20296698125571
 40
2.1000000000006454
 50
180.00000599997699
 51
270.00000000000506
  0
ARC
  8
_0-3_躯体と製品
  6
CONTINUOUS
 62
    7
 10
273.8957573142261
 20
612.91496698125866
 40
4.8189999999953264
 50
48.11175499908326
 51
96.517442000065401
  0
ARC
  8
_0-3_躯体と製品
  6
CONTINUOUS
 62
    7
 10
272.80175731427454
 20
612.91496698125218
 40
4.8190000000170672
 50
83.482563001162276
 51
131.88825099943148
  0
LINE
  8
_0-3_躯体と製品
  6
CONTINUOUS
 62
    7
 10
269.34875731425609
 20
614.90296698126713
 11
269.34875731425609
 21
615.35196698126106
  0
LINE
  8
_0-3_躯体と製品
  6
CONTINUOUS
 62
    7
 10
269.34875731425609
 20
615.35196698126106
 11
269.58375731427122
 21
616.50296698127295
  0
LINE
  8
_0-3_躯体と製品
  6
CONTINUOUS
 62
    7
 10
269.58375731427122
 20
616.50296698127295
 11
273.34875731425609
 21
616.50296698127295
  0
LINE
  8
_0-3_躯体と製品
  6
CONTINUOUS
 62
    7
 10
273.34875731425609
 20
616.50296698127295
 11
277.11375731427006
 21
616.50296698127295
  0
LINE
  8
_0-3_躯体と製品
  6
CONTINUOUS
 62
    7
 10
277.11375731427006
 20
616.50296698127295
 11
277.34875731425609
 21
615.35196698126106
  0
LINE
  8
_0-3_躯体と製品
  6
CONTINUOUS
 62
    7
 10
277.34875731425609
 20
615.35196698126106
 11
277.34875731428519
 21
614.90296698126713
  0
ARC
  8
_0-3_躯体と製品
  6
CONTINUOUS
 62
    7
 10
277.14875731950934
 20
614.90296697603185
 40
0.1999999947758626
 50
269.99999849992946
 51
0.0000014998099438
  0
LINE
  8
_0-3_躯体と製品
  6
CONTINUOUS
 62
    7
 10
277.1487573142731
 20
614.70296698125594
 11
273.34875731425609
 21
614.70296698125594
  0
LINE
  8
_0-3_躯体と製品
  6
CONTINUOUS
 62
    7
 10
273.34875731425609
 20
614.70296698125594
 11
269.5487573037899
 21
614.70296698125594
  0
ARC
  8
_0-3_躯体と製品
  6
CONTINUOUS
 62
    7
 10
269.54875731425886
 20
614.90296698125871
 40
0.2000000000027973
 50
180.00000600049705
 51
269.99999700085573
  0
ARC
  8
_0-3_躯体と製品
  6
CONTINUOUS
 62
    7
 10
329.39575731416789
 20
612.91496698125866
 40
4.8189999999953264
 50
48.11175499908326
 51
96.517442000065401
  0
ARC
  8
_0-3_躯体と製品
  6
CONTINUOUS
 62
    7
 10
328.30175731421588
 20
612.91496698125115
 40
4.8190000000181232
 50
83.482563001158255
 51
131.88825099942744
  0
LINE
  8
_0-3_躯体と製品
  6
CONTINUOUS
 62
    7
 10
324.84875731419697
 20
614.90296698126713
 11
324.84875731419697
 21
615.35196698126106
  0
LINE
  8
_0-3_躯体と製品
  6
CONTINUOUS
 62
    7
 10
324.84875731419697
 20
615.35196698126106
 11
325.08375731421211
 21
616.50296698127295
  0
LINE
  8
_0-3_躯体と製品
  6
CONTINUOUS
 62
    7
 10
325.08375731421211
 20
616.50296698127295
 11
328.84875731419788
 21
616.50296698127295
  0
LINE
  8
_0-3_躯体と製品
  6
CONTINUOUS
 62
    7
 10
328.84875731419788
 20
616.50296698127295
 11
332.61375731421185
 21
616.50296698127295
  0
LINE
  8
_0-3_躯体と製品
  6
CONTINUOUS
 62
    7
 10
332.61375731421185
 20
616.50296698127295
 11
332.84875731419697
 21
615.35196698126106
  0
LINE
  8
_0-3_躯体と製品
  6
CONTINUOUS
 62
    7
 10
332.84875731419697
 20
615.35196698126106
 11
332.84875731422699
 21
614.90296698126713
  0
ARC
  8
_0-3_躯体と製品
  6
CONTINUOUS
 62
    7
 10
332.64875731945114
 20
614.90296697603185
 40
0.1999999947758626
 50
269.99999849992946
 51
0.0000014998099438
  0
LINE
  8
_0-3_躯体と製品
  6
CONTINUOUS
 62
    7
 10
332.64875731421489
 20
614.70296698125594
 11
328.84875731419788
 21
614.70296698125594
  0
LINE
  8
_0-3_躯体と製品
  6
CONTINUOUS
 62
    7
 10
328.84875731419788
 20
614.70296698125594
 11
325.04875730373078
 21
614.70296698125594
  0
ARC
  8
_0-3_躯体と製品
  6
CONTINUOUS
 62
    7
 10
325.04875731419975
 20
614.90296698125871
 40
0.2000000000027973
 50
180.00000600049705
 51
269.99999700085573
  0
TEXT
  8
_0-4_文字-記号
 62
    7
 10
229.05502930836201
 20
628.699643832123
 40
12
 41
0.8000000000000001
 50
0
  1
大引鋼
  0
LINE
  8
_0-4_文字-記号
  6
CONTINUOUS
 62
    7
 10
281.09875731423108
 20
640.59897505519893
 11
266.72155472656414
 21
626.22177246753313
  0
LINE
  8
_0-4_文字-記号
  6
CONTINUOUS
 62
    7
 10
266.72155472656414
 20
626.22177246753313
 11
226.931499849587
 21
626.22177246753313
  0
INSERT
  2
-006-_D8
  8
_0-2_寸法
 10
-1965.173596693734
 20
-958.05681138812997
 41
1
 42
1
 50
0
  0
LINE
  8
_0-3_躯体と製品
  6
CONTINUOUS
 62
    3
 10
137.67022031061015
 20
695.10296698125694
 11
437.67022031061015
 21
695.10296698125694
  0
INSERT
  2
-007-_D9
  8
_0-2_寸法
 10
-1965.173596693734
 20
-958.05681138812997
 41
1
 42
1
 50
0
  0
INSERT
  2
-008-_D10
  8
_0-2_寸法
 10
-1965.173596693734
 20
-958.05681138812997
 41
1
 42
1
 50
0
  0
INSERT
  2
-009-_D11
  8
_0-2_寸法
 10
-1965.173596693734
 20
-958.05681138812997
 41
1
 42
1
 50
0
  0
INSERT
  2
-010-_D12
  8
_0-2_寸法
 10
-1965.173596693734
 20
-958.05681138812997
 41
1
 42
1
 50
0
  0
INSERT
  2
-011-_D13
  8
_0-2_寸法
 10
-1965.173596693734
 20
-958.05681138812997
 41
1
 42
1
 50
0
  0
INSERT
  2
-012-_D14
  8
_0-2_寸法
 10
-1965.173596693734
 20
-958.05681138812997
 41
1
 42
1
 50
0
  0
LINE
  8
_0-4_文字-記号
  6
CONTINUOUS
 62
    7
 10
232.91799275695621
 20
703.10296698126308
 11
256.54810662407317
 21
744.03152478774814
  0
LINE
  8
_0-4_文字-記号
  6
CONTINUOUS
 62
    7
 10
256.54810662407317
 20
744.03152478774814
 11
313.5563083046809
 21
744.03152478774814
  0
TEXT
  8
_0-4_文字-記号
 62
    7
 10
261.51101447941392
 20
747.50817213009714
 40
12
 41
0.8000000000000001
 50
0
  1
固定金具
  0
LINE
  8
_0-3_躯体と製品
  6
CONTINUOUS
 62
    4
 10
222.09875731422608
 20
696.10296698126308
 11
137.67022031061015
 21
696.10296698126308
  0
LINE
  8
_0-3_躯体と製品
  6
CONTINUOUS
 62
    4
 10
137.67022031061015
 20
723.10296698126308
 11
224.09875731422699
 21
723.10296698126308
  0
ARC
  8
_0-3_躯体と製品
  6
CONTINUOUS
 62
    4
 10
224.09875731422653
 20
722.10296698126353
 40
0.9999999999995451
 50
359.99999999997391
 51
89.999999999973952
  0
LINE
  8
_0-3_躯体と製品
  6
CONTINUOUS
 62
    4
 10
225.09875731422608
 20
722.10296698126308
 11
225.09875731422608
 21
717.60296698126308
  0
LINE
  8
_0-3_躯体と製品
  6
CONTINUOUS
 62
    4
 10
225.09875731422608
 20
717.60296698126308
 11
221.09875731422699
 21
717.60296698126308
  0
ARC
  8
_0-3_躯体と製品
  6
CONTINUOUS
 62
    4
 10
221.09875731422699
 20
714.60296698126308
 40
3
 50
90
 51
180
  0
LINE
  8
_0-3_躯体と製品
  6
CONTINUOUS
 62
    4
 10
218.09875731422699
 20
714.60296698126308
 11
218.09875731422699
 21
703.60296698126399
  0
ARC
  8
_0-3_躯体と製品
  6
CONTINUOUS
 62
    4
 10
221.09875731422744
 20
703.60296698126353
 40
3.0000000000004534
 50
179.99999999999133
 51
269.99999999999136
  0
LINE
  8
_0-3_躯体と製品
  6
CONTINUOUS
 62
    4
 10
221.09875731422699
 20
700.60296698126308
 11
225.09875731422608
 21
700.60296698126308
  0
LINE
  8
_0-3_躯体と製品
  6
CONTINUOUS
 62
    4
 10
225.09875731422608
 20
700.60296698126308
 11
225.09875731422608
 21
698.60296698126308
  0
ARC
  8
_0-3_躯体と製品
  6
CONTINUOUS
 62
    4
 10
223.59875731422608
 20
698.60296698126308
 40
1.5
 50
270
 51
0
  0
LINE
  8
_0-3_躯体と製品
  6
CONTINUOUS
 62
    4
 10
223.59875731422608
 20
697.10296698126308
 11
222.09875731422608
 21
697.10296698126308
  0
LINE
  8
_0-3_躯体と製品
  6
CONTINUOUS
 62
    4
 10
222.09875731422608
 20
697.10296698126308
 11
222.09875731422608
 21
695.60296698126308
  0
ARC
  8
_0-3_躯体と製品
  6
CONTINUOUS
 62
    4
 10
221.59875731422653
 20
695.60296698126263
 40
0.4999999999995452
 50
270.00000000005207
 51
0.0000000000521038
  0
LINE
  8
_0-3_躯体と製品
  6
CONTINUOUS
 62
    4
 10
221.59875731422699
 20
695.10296698126308
 11
137.67022031061015
 21
695.10296698126308
  0
LINE
  8
_0-3_躯体と製品
  6
CONTINUOUS
 62
    4
 10
137.67022031061015
 20
722.10296698126308
 11
224.09875731422699
 21
722.10296698126308
  0
LINE
  8
_0-3_躯体と製品
  6
CONTINUOUS
 62
    4
 10
224.09875731422699
 20
722.10296698126308
 11
224.09875731422699
 21
717.60296698126308
  0
LINE
  8
_0-3_躯体と製品
  6
CONTINUOUS
 62
    4
 10
137.67022031061015
 20
700.60296698126308
 11
142.09875731422608
 21
700.60296698126308
  0
LINE
  8
_0-3_躯体と製品
  6
CONTINUOUS
 62
    4
 10
142.09875731422608
 20
700.60296698126308
 11
142.59875731422699
 21
701.10296698126308
  0
LINE
  8
_0-3_躯体と製品
  6
CONTINUOUS
 62
    4
 10
142.59875731422699
 20
701.10296698126308
 11
142.59875731422699
 21
717.10296698126308
  0
LINE
  8
_0-3_躯体と製品
  6
CONTINUOUS
 62
    4
 10
142.59875731422699
 20
717.10296698126308
 11
142.09875731422608
 21
717.60296698126308
  0
LINE
  8
_0-3_躯体と製品
  6
CONTINUOUS
 62
    4
 10
142.09875731422608
 20
717.60296698126308
 11
137.67022031061015
 21
717.60296698126308
  0
LINE
  8
_0-3_躯体と製品
  6
CONTINUOUS
 62
    4
 10
187.59875731422699
 20
702.10296698126308
 11
180.59875731422699
 21
702.10296698126308
  0
LINE
  8
_0-3_躯体と製品
  6
CONTINUOUS
 62
    4
 10
180.59875731422699
 20
702.10296698126308
 11
180.09875731422699
 21
702.60296698126308
  0
LINE
  8
_0-3_躯体と製品
  6
CONTINUOUS
 62
    4
 10
180.09875731422699
 20
702.60296698126308
 11
180.09875731422699
 21
715.60296698126308
  0
LINE
  8
_0-3_躯体と製品
  6
CONTINUOUS
 62
    4
 10
180.09875731422699
 20
715.60296698126308
 11
180.59875731422699
 21
716.10296698126399
  0
LINE
  8
_0-3_躯体と製品
  6
CONTINUOUS
 62
    4
 10
180.59875731422699
 20
716.10296698126399
 11
187.59875731422699
 21
716.10296698126399
  0
LINE
  8
_0-3_躯体と製品
  6
CONTINUOUS
 62
    4
 10
187.59875731422699
 20
716.10296698126399
 11
188.09875731422699
 21
715.60296698126308
  0
LINE
  8
_0-3_躯体と製品
  6
CONTINUOUS
 62
    4
 10
188.09875731422699
 20
715.60296698126308
 11
188.09875731422699
 21
702.60296698126308
  0
LINE
  8
_0-3_躯体と製品
  6
CONTINUOUS
 62
    4
 10
188.09875731422699
 20
702.60296698126308
 11
187.59875731422699
 21
702.10296698126308
  0
LINE
  8
_0-3_躯体と製品
  6
CONTINUOUS
 62
    4
 10
175.09875731422699
 20
700.60296698126308
 11
148.09875731422608
 21
700.60296698126308
  0
LINE
  8
_0-3_躯体と製品
  6
CONTINUOUS
 62
    4
 10
148.09875731422608
 20
700.60296698126308
 11
147.59875731422699
 21
701.10296698126308
  0
LINE
  8
_0-3_躯体と製品
  6
CONTINUOUS
 62
    4
 10
147.59875731422699
 20
701.10296698126308
 11
147.59875731422699
 21
717.10296698126308
  0
LINE
  8
_0-3_躯体と製品
  6
CONTINUOUS
 62
    4
 10
147.59875731422699
 20
717.10296698126308
 11
148.09875731422608
 21
717.60296698126308
  0
LINE
  8
_0-3_躯体と製品
  6
CONTINUOUS
 62
    4
 10
148.09875731422608
 20
717.60296698126308
 11
175.09875731422699
 21
717.60296698126308
  0
LINE
  8
_0-3_躯体と製品
  6
CONTINUOUS
 62
    4
 10
175.09875731422699
 20
717.60296698126308
 11
175.59875731422608
 21
717.10296698126308
  0
LINE
  8
_0-3_躯体と製品
  6
CONTINUOUS
 62
    4
 10
175.59875731422608
 20
717.10296698126308
 11
175.59875731422608
 21
701.10296698126308
  0
LINE
  8
_0-3_躯体と製品
  6
CONTINUOUS
 62
    4
 10
175.59875731422608
 20
701.10296698126308
 11
175.09875731422699
 21
700.60296698126308
  0
LINE
  8
_0-3_躯体と製品
  6
CONTINUOUS
 62
    4
 10
212.59875731422699
 20
700.60296698126308
 11
193.09875731422608
 21
700.60296698126308
  0
LINE
  8
_0-3_躯体と製品
  6
CONTINUOUS
 62
    4
 10
193.09875731422608
 20
700.60296698126308
 11
192.59875731422699
 21
701.10296698126308
  0
LINE
  8
_0-3_躯体と製品
  6
CONTINUOUS
 62
    4
 10
192.59875731422699
 20
701.10296698126308
 11
192.59875731422699
 21
717.10296698126308
  0
LINE
  8
_0-3_躯体と製品
  6
CONTINUOUS
 62
    4
 10
192.59875731422699
 20
717.10296698126308
 11
193.09875731422608
 21
717.60296698126308
  0
LINE
  8
_0-3_躯体と製品
  6
CONTINUOUS
 62
    4
 10
193.09875731422608
 20
717.60296698126308
 11
212.59875731422699
 21
717.60296698126308
  0
LINE
  8
_0-3_躯体と製品
  6
CONTINUOUS
 62
    4
 10
212.59875731422699
 20
717.60296698126308
 11
213.09875731422608
 21
717.10296698126308
  0
LINE
  8
_0-3_躯体と製品
  6
CONTINUOUS
 62
    4
 10
213.09875731422608
 20
717.10296698126308
 11
213.09875731422608
 21
701.10296698126308
  0
LINE
  8
_0-3_躯体と製品
  6
CONTINUOUS
 62
    4
 10
213.09875731422608
 20
701.10296698126308
 11
212.59875731422699
 21
700.60296698126308
  0
LINE
  8
_0-3_躯体と製品
  6
CONTINUOUS
 62
    7
 10
218.59875731422608
 20
715.10296698126308
 11
218.59875731422608
 21
703.90296698126303
  0
ARC
  8
_0-3_躯体と製品
  6
CONTINUOUS
 62
    7
 10
221.59875731422653
 20
703.90296698126349
 40
3.0000000000004534
 50
180.00000000000867
 51
270.0000000000087
  0
LINE
  8
_0-3_躯体と製品
  6
CONTINUOUS
 62
    7
 10
221.59875731422699
 20
700.90296698126303
 11
221.59875731422699
 21
700.60296698126308
  0
LINE
  8
_0-3_躯体と製品
  6
CONTINUOUS
 62
    7
 10
221.59875731422699
 20
700.60296698126308
 11
222.59875731422699
 21
700.60296698126308
  0
LINE
  8
_0-3_躯体と製品
  6
CONTINUOUS
 62
    7
 10
222.59875731422699
 20
700.60296698126308
 11
222.59875731422699
 21
700.90296698126303
  0
LINE
  8
_0-3_躯体と製品
  6
CONTINUOUS
 62
    7
 10
222.59875731422699
 20
700.90296698126303
 11
223.59875731422608
 21
700.90296698126303
  0
LINE
  8
_0-3_躯体と製品
  6
CONTINUOUS
 62
    7
 10
223.59875731422608
 20
700.90296698126303
 11
223.59875731422608
 21
700.60296698126308
  0
LINE
  8
_0-3_躯体と製品
  6
CONTINUOUS
 62
    7
 10
223.59875731422608
 20
700.60296698126308
 11
224.39875731422717
 21
700.60296698126308
  0
LINE
  8
_0-3_躯体と製品
  6
CONTINUOUS
 62
    7
 10
224.39875731422717
 20
700.60296698126308
 11
224.39875731422717
 21
700.90296698126303
  0
LINE
  8
_0-3_躯体と製品
  6
CONTINUOUS
 62
    7
 10
224.39875731422717
 20
700.90296698126303
 11
224.7987573142259
 21
700.90296698126303
  0
ARC
  8
_0-3_躯体と製品
  6
CONTINUOUS
 62
    7
 10
224.79875731422601
 20
700.60296698126297
 40
0.3000000000000568
 50
0.0000000000195413
 51
90.000000000023888
  0
LINE
  8
_0-3_躯体と製品
  6
CONTINUOUS
 62
    7
 10
225.09875731422608
 20
700.60296698126308
 11
225.09875731422608
 21
697.10296698126308
  0
LINE
  8
_0-3_躯体と製品
  6
CONTINUOUS
 62
    7
 10
225.09875731422608
 20
697.10296698126308
 11
223.59875731422608
 21
697.10296698126308
  0
ARC
  8
_0-3_躯体と製品
  6
CONTINUOUS
 62
    7
 10
223.59875731422653
 20
696.60296698126353
 40
0.4999999999995452
 50
90.000000000052111
 51
180.0000000000521
  0
LINE
  8
_0-3_躯体と製品
  6
CONTINUOUS
 62
    7
 10
223.09875731422699
 20
696.60296698126308
 11
223.09875731422699
 21
695.60296698126308
  0
ARC
  8
_0-3_躯体と製品
  6
CONTINUOUS
 62
    7
 10
223.59875731422653
 20
695.60296698126263
 40
0.4999999999995452
 50
179.9999999999479
 51
269.99999999994787
  0
LINE
  8
_0-3_躯体と製品
  6
CONTINUOUS
 62
    7
 10
223.59875731422608
 20
695.10296698126308
 11
227.09875731422699
 21
695.10296698126308
  0
LINE
  8
_0-3_躯体と製品
  6
CONTINUOUS
 62
    7
 10
227.09875731422699
 20
695.10296698126308
 11
227.09875731422699
 21
695.40296698126303
  0
LINE
  8
_0-3_躯体と製品
  6
CONTINUOUS
 62
    7
 10
227.09875731422699
 20
695.40296698126303
 11
229.09875731422608
 21
695.40296698126303
  0
LINE
  8
_0-3_躯体と製品
  6
CONTINUOUS
 62
    7
 10
229.09875731422608
 20
695.40296698126303
 11
229.09875731422608
 21
695.10296698126308
  0
LINE
  8
_0-3_躯体と製品
  6
CONTINUOUS
 62
    7
 10
229.09875731422608
 20
695.10296698126308
 11
231.2987573142259
 21
695.10296698126308
  0
ARC
  8
_0-3_躯体と製品
  6
CONTINUOUS
 62
    7
 10
231.2987573142259
 20
695.60296698126308
 40
0.4999999999999999
 50
270
 51
0.0000000000000127
  0
LINE
  8
_0-3_躯体と製品
  6
CONTINUOUS
 62
    7
 10
231.7987573142259
 20
695.60296698126308
 11
231.7987573142259
 21
696.60296698126308
  0
ARC
  8
_0-3_躯体と製品
  6
CONTINUOUS
 62
    7
 10
231.2987573142259
 20
696.60296698126308
 40
0.4999999999999999
 50
0.0000000000000052
 51
90.000000000000014
  0
LINE
  8
_0-3_躯体と製品
  6
CONTINUOUS
 62
    7
 10
231.2987573142259
 20
697.10296698126308
 11
231.09875731422699
 21
697.10296698126308
  0
LINE
  8
_0-3_躯体と製品
  6
CONTINUOUS
 62
    7
 10
231.09875731422699
 20
697.10296698126308
 11
231.09875731422699
 21
700.60296698126308
  0
ARC
  8
_0-3_躯体と製品
  6
CONTINUOUS
 62
    7
 10
231.39875731422705
 20
700.60296698126297
 40
0.3000000000000568
 50
89.999999999976126
 51
179.99999999998047
  0
LINE
  8
_0-3_躯体と製品
  6
CONTINUOUS
 62
    7
 10
231.39875731422717
 20
700.90296698126303
 11
231.7987573142259
 21
700.90296698126303
  0
LINE
  8
_0-3_躯体と製品
  6
CONTINUOUS
 62
    7
 10
231.7987573142259
 20
700.90296698126303
 11
231.7987573142259
 21
700.60296698126308
  0
LINE
  8
_0-3_躯体と製品
  6
CONTINUOUS
 62
    7
 10
231.7987573142259
 20
700.60296698126308
 11
232.59875731422699
 21
700.60296698126308
  0
LINE
  8
_0-3_躯体と製品
  6
CONTINUOUS
 62
    7
 10
232.59875731422699
 20
700.60296698126308
 11
232.59875731422699
 21
700.90296698126303
  0
LINE
  8
_0-3_躯体と製品
  6
CONTINUOUS
 62
    7
 10
232.59875731422699
 20
700.90296698126303
 11
233.59875731422699
 21
700.90296698126303
  0
LINE
  8
_0-3_躯体と製品
  6
CONTINUOUS
 62
    7
 10
233.59875731422699
 20
700.90296698126303
 11
233.59875731422699
 21
700.60296698126308
  0
LINE
  8
_0-3_躯体と製品
  6
CONTINUOUS
 62
    7
 10
233.59875731422699
 20
700.60296698126308
 11
234.59875731422699
 21
700.60296698126308
  0
LINE
  8
_0-3_躯体と製品
  6
CONTINUOUS
 62
    7
 10
234.59875731422699
 20
700.60296698126308
 11
234.59875731422699
 21
700.90296698126303
  0
LINE
  8
_0-3_躯体と製品
  6
CONTINUOUS
 62
    7
 10
234.59875731422699
 20
700.90296698126303
 11
234.7987573142259
 21
700.90296698126303
  0
ARC
  8
_0-3_躯体と製品
  6
CONTINUOUS
 62
    7
 10
234.79875731422646
 20
701.70296698126356
 40
0.8000000000005115
 50
269.9999999999585
 51
359.9999999999601
  0
LINE
  8
_0-3_躯体と製品
  6
CONTINUOUS
 62
    7
 10
235.59875731422699
 20
701.70296698126299
 11
235.59875731422699
 21
704.60296698126308
  0
LINE
  8
_0-3_躯体と製品
  6
CONTINUOUS
 62
    7
 10
235.59875731422699
 20
704.60296698126308
 11
235.09875731422699
 21
704.60296698126308
  0
ARC
  8
_0-3_躯体と製品
  6
CONTINUOUS
 62
    7
 10
235.09875731422699
 20
704.10296698126308
 40
0.4999999999999999
 50
90
 51
180
  0
LINE
  8
_0-3_躯体と製品
  6
CONTINUOUS
 62
    7
 10
234.59875731422699
 20
704.10296698126308
 11
234.59875731422699
 21
703.60296698126399
  0
ARC
  8
_0-3_躯体と製品
  6
CONTINUOUS
 62
    7
 10
234.09875731422653
 20
703.60296698126353
 40
0.5000000000004547
 50
270.00000000005207
 51
0.0000000000521038
  0
LINE
  8
_0-3_躯体と製品
  6
CONTINUOUS
 62
    7
 10
234.09875731422699
 20
703.10296698126308
 11
228.39875731422717
 21
703.10296698126308
  0
LINE
  8
_0-3_躯体と製品
  6
CONTINUOUS
 62
    7
 10
228.39875731422717
 20
703.10296698126308
 11
228.09875731422699
 21
702.80296698126313
  0
LINE
  8
_0-3_躯体と製品
  6
CONTINUOUS
 62
    7
 10
228.09875731422699
 20
702.80296698126313
 11
227.7987573142259
 21
703.10296698126308
  0
LINE
  8
_0-3_躯体と製品
  6
CONTINUOUS
 62
    7
 10
227.7987573142259
 20
703.10296698126308
 11
221.09875731422699
 21
703.10296698126308
  0
ARC
  8
_0-3_躯体と製品
  6
CONTINUOUS
 62
    7
 10
221.09875731422699
 20
703.60296698126399
 40
0.5000000000009093
 50
180
 51
270
  0
LINE
  8
_0-3_躯体と製品
  6
CONTINUOUS
 62
    7
 10
220.59875731422608
 20
703.60296698126399
 11
220.59875731422608
 21
709.30296698126313
  0
LINE
  8
_0-3_躯体と製品
  6
CONTINUOUS
 62
    7
 10
220.59875731422608
 20
709.30296698126313
 11
220.2987573142268
 21
709.60296698126308
  0
LINE
  8
_0-3_躯体と製品
  6
CONTINUOUS
 62
    7
 10
220.2987573142268
 20
709.60296698126308
 11
220.59875731422608
 21
709.90296698126303
  0
LINE
  8
_0-3_躯体と製品
  6
CONTINUOUS
 62
    7
 10
220.59875731422608
 20
709.90296698126303
 11
220.59875731422608
 21
715.10296698126308
  0
LINE
  8
_0-3_躯体と製品
  6
CONTINUOUS
 62
    7
 10
220.59875731422608
 20
715.10296698126308
 11
218.59875731422608
 21
715.10296698126308
  0
LINE
  8
_0-3_躯体と製品
  6
CONTINUOUS
 62
    4
 10
388.09875731422699
 20
696.10296698126308
 11
234.09875731422699
 21
696.10296698126308
  0
LINE
  8
_0-3_躯体と製品
  6
CONTINUOUS
 62
    4
 10
387.59875731422699
 20
695.10296698126308
 11
234.59875731422699
 21
695.10296698126308
  0
ARC
  8
_0-3_躯体と製品
  6
CONTINUOUS
 62
    4
 10
234.59875731422699
 20
695.60296698126308
 40
0.4999999999999999
 50
180
 51
270
  0
LINE
  8
_0-3_躯体と製品
  6
CONTINUOUS
 62
    4
 10
234.09875731422699
 20
695.60296698126308
 11
234.09875731422699
 21
697.10296698126308
  0
LINE
  8
_0-3_躯体と製品
  6
CONTINUOUS
 62
    4
 10
234.09875731422699
 20
697.10296698126308
 11
232.59875731422699
 21
697.10296698126308
  0
ARC
  8
_0-3_躯体と製品
  6
CONTINUOUS
 62
    4
 10
232.59875731422699
 20
698.60296698126308
 40
1.4999999999999856
 50
179.99999999999943
 51
270.00000000000057
  0
LINE
  8
_0-3_躯体と製品
  6
CONTINUOUS
 62
    4
 10
231.09875731422699
 20
698.60296698126308
 11
231.09875731422699
 21
700.60296698126308
  0
LINE
  8
_0-3_躯体と製品
  6
CONTINUOUS
 62
    4
 10
231.09875731422699
 20
700.60296698126308
 11
235.09875731422699
 21
700.60296698126308
  0
ARC
  8
_0-3_躯体と製品
  6
CONTINUOUS
 62
    4
 10
235.09875731422608
 20
703.60296698126308
 40
3
 50
270.00000000001739
 51
0.0000000000173912
  0
LINE
  8
_0-3_躯体と製品
  6
CONTINUOUS
 62
    4
 10
238.09875731422608
 20
703.60296698126399
 11
238.09875731422608
 21
714.60296698126308
  0
ARC
  8
_0-3_躯体と製品
  6
CONTINUOUS
 62
    4
 10
235.09875731422653
 20
714.60296698126353
 40
2.9999999999995453
 50
359.9999999999913
 51
89.999999999991331
  0
LINE
  8
_0-3_躯体と製品
  6
CONTINUOUS
 62
    4
 10
235.09875731422699
 20
717.60296698126308
 11
231.09875731422699
 21
717.60296698126308
  0
LINE
  8
_0-3_躯体と製品
  6
CONTINUOUS
 62
    4
 10
231.09875731422699
 20
717.60296698126308
 11
231.09875731422699
 21
722.10296698126308
  0
ARC
  8
_0-3_躯体と製品
  6
CONTINUOUS
 62
    4
 10
232.09875731422699
 20
722.10296698126308
 40
0.9999999999999998
 50
89.999999999999986
 51
180
  0
LINE
  8
_0-3_躯体と製品
  6
CONTINUOUS
 62
    4
 10
232.09875731422699
 20
723.10296698126308
 11
390.09875731422608
 21
723.10296698126308
  0
ARC
  8
_0-3_躯体と製品
  6
CONTINUOUS
 62
    4
 10
390.09875731422653
 20
722.10296698126263
 40
1.0000000000004547
 50
0.0000000000260423
 51
90.000000000026048
  0
LINE
  8
_0-3_躯体と製品
  6
CONTINUOUS
 62
    4
 10
391.09875731422699
 20
722.10296698126308
 11
391.09875731422699
 21
717.60296698126308
  0
LINE
  8
_0-3_躯体と製品
  6
CONTINUOUS
 62
    4
 10
391.09875731422699
 20
717.60296698126308
 11
387.09875731422699
 21
717.60296698126308
  0
ARC
  8
_0-3_躯体と製品
  6
CONTINUOUS
 62
    4
 10
387.09875731422699
 20
714.60296698126308
 40
3
 50
90
 51
180
  0
LINE
  8
_0-3_躯体と製品
  6
CONTINUOUS
 62
    4
 10
384.09875731422699
 20
714.60296698126308
 11
384.09875731422699
 21
703.60296698126399
  0
ARC
  8
_0-3_躯体と製品
  6
CONTINUOUS
 62
    4
 10
387.09875731422744
 20
703.60296698126353
 40
3.0000000000004534
 50
179.99999999999133
 51
269.99999999999136
  0
LINE
  8
_0-3_躯体と製品
  6
CONTINUOUS
 62
    4
 10
387.09875731422699
 20
700.60296698126308
 11
391.09875731422699
 21
700.60296698126308
  0
LINE
  8
_0-3_躯体と製品
  6
CONTINUOUS
 62
    4
 10
391.09875731422699
 20
700.60296698126308
 11
391.09875731422699
 21
698.60296698126308
  0
ARC
  8
_0-3_躯体と製品
  6
CONTINUOUS
 62
    4
 10
389.59875731422699
 20
698.60296698126308
 40
1.5
 50
270
 51
0
  0
LINE
  8
_0-3_躯体と製品
  6
CONTINUOUS
 62
    4
 10
389.59875731422699
 20
697.10296698126308
 11
388.09875731422699
 21
697.10296698126308
  0
LINE
  8
_0-3_躯体と製品
  6
CONTINUOUS
 62
    4
 10
388.09875731422699
 20
697.10296698126308
 11
388.09875731422699
 21
695.60296698126308
  0
LINE
  8
_0-3_躯体と製品
  6
CONTINUOUS
 62
    4
 10
388.09875731422699
 20
695.60296698126308
 11
387.59875731422699
 21
695.10296698126308
  0
LINE
  8
_0-3_躯体と製品
  6
CONTINUOUS
 62
    4
 10
232.09875731422699
 20
717.60296698126308
 11
232.09875731422699
 21
722.10296698126308
  0
LINE
  8
_0-3_躯体と製品
  6
CONTINUOUS
 62
    4
 10
232.09875731422699
 20
722.10296698126308
 11
390.09875731422608
 21
722.10296698126308
  0
LINE
  8
_0-3_躯体と製品
  6
CONTINUOUS
 62
    4
 10
390.09875731422608
 20
722.10296698126308
 11
390.09875731422608
 21
717.60296698126308
  0
LINE
  8
_0-3_躯体と製品
  6
CONTINUOUS
 62
    4
 10
268.59875731422608
 20
702.10296698126308
 11
275.59875731422608
 21
702.10296698126308
  0
LINE
  8
_0-3_躯体と製品
  6
CONTINUOUS
 62
    4
 10
275.59875731422608
 20
702.10296698126308
 11
276.09875731422699
 21
702.60296698126308
  0
LINE
  8
_0-3_躯体と製品
  6
CONTINUOUS
 62
    4
 10
276.09875731422699
 20
702.60296698126308
 11
276.09875731422699
 21
715.60296698126308
  0
LINE
  8
_0-3_躯体と製品
  6
CONTINUOUS
 62
    4
 10
276.09875731422699
 20
715.60296698126308
 11
275.59875731422608
 21
716.10296698126399
  0
LINE
  8
_0-3_躯体と製品
  6
CONTINUOUS
 62
    4
 10
275.59875731422608
 20
716.10296698126399
 11
268.59875731422608
 21
716.10296698126399
  0
LINE
  8
_0-3_躯体と製品
  6
CONTINUOUS
 62
    4
 10
268.59875731422608
 20
716.10296698126399
 11
268.09875731422699
 21
715.60296698126308
  0
LINE
  8
_0-3_躯体と製品
  6
CONTINUOUS
 62
    4
 10
268.09875731422699
 20
715.60296698126308
 11
268.09875731422699
 21
702.60296698126308
  0
LINE
  8
_0-3_躯体と製品
  6
CONTINUOUS
 62
    4
 10
268.09875731422699
 20
702.60296698126308
 11
268.59875731422608
 21
702.10296698126308
  0
LINE
  8
_0-3_躯体と製品
  6
CONTINUOUS
 62
    4
 10
281.09875731422608
 20
700.60296698126308
 11
308.09875731422699
 21
700.60296698126308
  0
LINE
  8
_0-3_躯体と製品
  6
CONTINUOUS
 62
    4
 10
308.09875731422699
 20
700.60296698126308
 11
308.59875731422699
 21
701.10296698126308
  0
LINE
  8
_0-3_躯体と製品
  6
CONTINUOUS
 62
    4
 10
308.59875731422699
 20
701.10296698126308
 11
308.59875731422699
 21
717.10296698126308
  0
LINE
  8
_0-3_躯体と製品
  6
CONTINUOUS
 62
    4
 10
308.59875731422699
 20
717.10296698126308
 11
308.09875731422699
 21
717.60296698126308
  0
LINE
  8
_0-3_躯体と製品
  6
CONTINUOUS
 62
    4
 10
308.09875731422699
 20
717.60296698126308
 11
281.09875731422608
 21
717.60296698126308
  0
LINE
  8
_0-3_躯体と製品
  6
CONTINUOUS
 62
    4
 10
281.09875731422608
 20
717.60296698126308
 11
280.59875731422699
 21
717.10296698126308
  0
LINE
  8
_0-3_躯体と製品
  6
CONTINUOUS
 62
    4
 10
280.59875731422699
 20
717.10296698126308
 11
280.59875731422699
 21
701.10296698126308
  0
LINE
  8
_0-3_躯体と製品
  6
CONTINUOUS
 62
    4
 10
280.59875731422699
 20
701.10296698126308
 11
281.09875731422608
 21
700.60296698126308
  0
LINE
  8
_0-3_躯体と製品
  6
CONTINUOUS
 62
    4
 10
243.59875731422608
 20
700.60296698126308
 11
263.09875731422699
 21
700.60296698126308
  0
LINE
  8
_0-3_躯体と製品
  6
CONTINUOUS
 62
    4
 10
263.09875731422699
 20
700.60296698126308
 11
263.59875731422699
 21
701.10296698126308
  0
LINE
  8
_0-3_躯体と製品
  6
CONTINUOUS
 62
    4
 10
263.59875731422699
 20
701.10296698126308
 11
263.59875731422699
 21
717.10296698126308
  0
LINE
  8
_0-3_躯体と製品
  6
CONTINUOUS
 62
    4
 10
263.59875731422699
 20
717.10296698126308
 11
263.09875731422699
 21
717.60296698126308
  0
LINE
  8
_0-3_躯体と製品
  6
CONTINUOUS
 62
    4
 10
263.09875731422699
 20
717.60296698126308
 11
243.59875731422608
 21
717.60296698126308
  0
LINE
  8
_0-3_躯体と製品
  6
CONTINUOUS
 62
    4
 10
243.59875731422608
 20
717.60296698126308
 11
243.09875731422699
 21
717.10296698126308
  0
LINE
  8
_0-3_躯体と製品
  6
CONTINUOUS
 62
    4
 10
243.09875731422699
 20
717.10296698126308
 11
243.09875731422699
 21
701.10296698126308
  0
LINE
  8
_0-3_躯体と製品
  6
CONTINUOUS
 62
    4
 10
243.09875731422699
 20
701.10296698126308
 11
243.59875731422608
 21
700.60296698126308
  0
LINE
  8
_0-3_躯体と製品
  6
CONTINUOUS
 62
    4
 10
353.59875731422699
 20
702.10296698126308
 11
346.59875731422699
 21
702.10296698126308
  0
LINE
  8
_0-3_躯体と製品
  6
CONTINUOUS
 62
    4
 10
346.59875731422699
 20
702.10296698126308
 11
346.09875731422699
 21
702.60296698126308
  0
LINE
  8
_0-3_躯体と製品
  6
CONTINUOUS
 62
    4
 10
346.09875731422699
 20
702.60296698126308
 11
346.09875731422699
 21
715.60296698126308
  0
LINE
  8
_0-3_躯体と製品
  6
CONTINUOUS
 62
    4
 10
346.09875731422699
 20
715.60296698126308
 11
346.59875731422699
 21
716.10296698126399
  0
LINE
  8
_0-3_躯体と製品
  6
CONTINUOUS
 62
    4
 10
346.59875731422699
 20
716.10296698126399
 11
353.59875731422699
 21
716.10296698126399
  0
LINE
  8
_0-3_躯体と製品
  6
CONTINUOUS
 62
    4
 10
353.59875731422699
 20
716.10296698126399
 11
354.09875731422608
 21
715.60296698126308
  0
LINE
  8
_0-3_躯体と製品
  6
CONTINUOUS
 62
    4
 10
354.09875731422608
 20
715.60296698126308
 11
354.09875731422608
 21
702.60296698126308
  0
LINE
  8
_0-3_躯体と製品
  6
CONTINUOUS
 62
    4
 10
354.09875731422608
 20
702.60296698126308
 11
353.59875731422699
 21
702.10296698126308
  0
LINE
  8
_0-3_躯体と製品
  6
CONTINUOUS
 62
    4
 10
341.09875731422699
 20
700.60296698126308
 11
314.09875731422699
 21
700.60296698126308
  0
LINE
  8
_0-3_躯体と製品
  6
CONTINUOUS
 62
    4
 10
314.09875731422699
 20
700.60296698126308
 11
313.59875731422699
 21
701.10296698126308
  0
LINE
  8
_0-3_躯体と製品
  6
CONTINUOUS
 62
    4
 10
313.59875731422699
 20
701.10296698126308
 11
313.59875731422699
 21
717.10296698126308
  0
LINE
  8
_0-3_躯体と製品
  6
CONTINUOUS
 62
    4
 10
313.59875731422699
 20
717.10296698126308
 11
314.09875731422699
 21
717.60296698126308
  0
LINE
  8
_0-3_躯体と製品
  6
CONTINUOUS
 62
    4
 10
314.09875731422699
 20
717.60296698126308
 11
341.09875731422699
 21
717.60296698126308
  0
LINE
  8
_0-3_躯体と製品
  6
CONTINUOUS
 62
    4
 10
341.09875731422699
 20
717.60296698126308
 11
341.59875731422699
 21
717.10296698126308
  0
LINE
  8
_0-3_躯体と製品
  6
CONTINUOUS
 62
    4
 10
341.59875731422699
 20
717.10296698126308
 11
341.59875731422699
 21
701.10296698126308
  0
LINE
  8
_0-3_躯体と製品
  6
CONTINUOUS
 62
    4
 10
341.59875731422699
 20
701.10296698126308
 11
341.09875731422699
 21
700.60296698126308
  0
LINE
  8
_0-3_躯体と製品
  6
CONTINUOUS
 62
    4
 10
378.59875731422699
 20
700.60296698126308
 11
359.09875731422699
 21
700.60296698126308
  0
LINE
  8
_0-3_躯体と製品
  6
CONTINUOUS
 62
    4
 10
359.09875731422699
 20
700.60296698126308
 11
358.59875731422699
 21
701.10296698126308
  0
LINE
  8
_0-3_躯体と製品
  6
CONTINUOUS
 62
    4
 10
358.59875731422699
 20
701.10296698126308
 11
358.59875731422699
 21
717.10296698126308
  0
LINE
  8
_0-3_躯体と製品
  6
CONTINUOUS
 62
    4
 10
358.59875731422699
 20
717.10296698126308
 11
359.09875731422699
 21
717.60296698126308
  0
LINE
  8
_0-3_躯体と製品
  6
CONTINUOUS
 62
    4
 10
359.09875731422699
 20
717.60296698126308
 11
378.59875731422699
 21
717.60296698126308
  0
LINE
  8
_0-3_躯体と製品
  6
CONTINUOUS
 62
    4
 10
378.59875731422699
 20
717.60296698126308
 11
379.09875731422608
 21
717.10296698126308
  0
LINE
  8
_0-3_躯体と製品
  6
CONTINUOUS
 62
    4
 10
379.09875731422608
 20
717.10296698126308
 11
379.09875731422608
 21
701.10296698126308
  0
LINE
  8
_0-3_躯体と製品
  6
CONTINUOUS
 62
    4
 10
379.09875731422608
 20
701.10296698126308
 11
378.59875731422699
 21
700.60296698126308
  0
LINE
  8
_0-3_躯体と製品
  6
CONTINUOUS
 62
    7
 10
384.59875731422608
 20
715.10296698126308
 11
384.59875731422608
 21
703.90296698126303
  0
ARC
  8
_0-3_躯体と製品
  6
CONTINUOUS
 62
    7
 10
387.59875731422653
 20
703.90296698126349
 40
3.0000000000004534
 50
180.00000000000867
 51
270.0000000000087
  0
LINE
  8
_0-3_躯体と製品
  6
CONTINUOUS
 62
    7
 10
387.59875731422699
 20
700.90296698126303
 11
387.59875731422699
 21
700.60296698126308
  0
LINE
  8
_0-3_躯体と製品
  6
CONTINUOUS
 62
    7
 10
387.59875731422699
 20
700.60296698126308
 11
388.59875731422699
 21
700.60296698126308
  0
LINE
  8
_0-3_躯体と製品
  6
CONTINUOUS
 62
    7
 10
388.59875731422699
 20
700.60296698126308
 11
388.59875731422699
 21
700.90296698126303
  0
LINE
  8
_0-3_躯体と製品
  6
CONTINUOUS
 62
    7
 10
388.59875731422699
 20
700.90296698126303
 11
389.59875731422699
 21
700.90296698126303
  0
LINE
  8
_0-3_躯体と製品
  6
CONTINUOUS
 62
    7
 10
389.59875731422699
 20
700.90296698126303
 11
389.59875731422699
 21
700.60296698126308
  0
LINE
  8
_0-3_躯体と製品
  6
CONTINUOUS
 62
    7
 10
389.59875731422699
 20
700.60296698126308
 11
390.39875731422717
 21
700.60296698126308
  0
LINE
  8
_0-3_躯体と製品
  6
CONTINUOUS
 62
    7
 10
390.39875731422717
 20
700.60296698126308
 11
390.39875731422717
 21
700.90296698126303
  0
LINE
  8
_0-3_躯体と製品
  6
CONTINUOUS
 62
    7
 10
390.39875731422717
 20
700.90296698126303
 11
390.7987573142259
 21
700.90296698126303
  0
ARC
  8
_0-3_躯体と製品
  6
CONTINUOUS
 62
    7
 10
390.79875731422646
 20
700.60296698126251
 40
0.3000000000005115
 50
0.0000000001063959
 51
90.000000000110745
  0
LINE
  8
_0-3_躯体と製品
  6
CONTINUOUS
 62
    7
 10
391.09875731422699
 20
700.60296698126308
 11
391.09875731422699
 21
697.10296698126308
  0
LINE
  8
_0-3_躯体と製品
  6
CONTINUOUS
 62
    7
 10
391.09875731422699
 20
697.10296698126308
 11
389.59875731422699
 21
697.10296698126308
  0
ARC
  8
_0-3_躯体と製品
  6
CONTINUOUS
 62
    7
 10
389.59875731422699
 20
696.60296698126308
 40
0.4999999999999999
 50
90
 51
180
  0
LINE
  8
_0-3_躯体と製品
  6
CONTINUOUS
 62
    7
 10
389.09875731422699
 20
696.60296698126308
 11
389.09875731422699
 21
695.60296698126308
  0
ARC
  8
_0-3_躯体と製品
  6
CONTINUOUS
 62
    7
 10
389.59875731422699
 20
695.60296698126308
 40
0.4999999999999999
 50
180
 51
270
  0
LINE
  8
_0-3_躯体と製品
  6
CONTINUOUS
 62
    7
 10
389.59875731422699
 20
695.10296698126308
 11
393.09875731422699
 21
695.10296698126308
  0
LINE
  8
_0-3_躯体と製品
  6
CONTINUOUS
 62
    7
 10
393.09875731422699
 20
695.10296698126308
 11
393.09875731422699
 21
695.40296698126303
  0
LINE
  8
_0-3_躯体と製品
  6
CONTINUOUS
 62
    7
 10
393.09875731422699
 20
695.40296698126303
 11
395.09875731422608
 21
695.40296698126303
  0
LINE
  8
_0-3_躯体と製品
  6
CONTINUOUS
 62
    7
 10
395.09875731422608
 20
695.40296698126303
 11
395.09875731422608
 21
695.10296698126308
  0
LINE
  8
_0-3_躯体と製品
  6
CONTINUOUS
 62
    7
 10
395.09875731422608
 20
695.10296698126308
 11
397.2987573142268
 21
695.10296698126308
  0
ARC
  8
_0-3_躯体と製品
  6
CONTINUOUS
 62
    7
 10
397.29875731422635
 20
695.60296698126263
 40
0.4999999999995452
 50
270.00000000005213
 51
0.0000000000521229
  0
LINE
  8
_0-3_躯体と製品
  6
CONTINUOUS
 62
    7
 10
397.7987573142259
 20
695.60296698126308
 11
397.7987573142259
 21
696.60296698126308
  0
ARC
  8
_0-3_躯体と製品
  6
CONTINUOUS
 62
    7
 10
397.29875731422635
 20
696.60296698126353
 40
0.4999999999995452
 50
359.99999999994787
 51
89.999999999947903
  0
LINE
  8
_0-3_躯体と製品
  6
CONTINUOUS
 62
    7
 10
397.2987573142268
 20
697.10296698126308
 11
397.09875731422699
 21
697.10296698126308
  0
LINE
  8
_0-3_躯体と製品
  6
CONTINUOUS
 62
    7
 10
397.09875731422699
 20
697.10296698126308
 11
397.09875731422699
 21
700.60296698126308
  0
ARC
  8
_0-3_躯体と製品
  6
CONTINUOUS
 62
    7
 10
397.39875731422705
 20
700.60296698126297
 40
0.3000000000000568
 50
89.999999999976126
 51
179.99999999998047
  0
LINE
  8
_0-3_躯体と製品
  6
CONTINUOUS
 62
    7
 10
397.39875731422717
 20
700.90296698126303
 11
397.7987573142259
 21
700.90296698126303
  0
LINE
  8
_0-3_躯体と製品
  6
CONTINUOUS
 62
    7
 10
397.7987573142259
 20
700.90296698126303
 11
397.7987573142259
 21
700.60296698126308
  0
LINE
  8
_0-3_躯体と製品
  6
CONTINUOUS
 62
    7
 10
397.7987573142259
 20
700.60296698126308
 11
398.59875731422699
 21
700.60296698126308
  0
LINE
  8
_0-3_躯体と製品
  6
CONTINUOUS
 62
    7
 10
398.59875731422699
 20
700.60296698126308
 11
398.59875731422699
 21
700.90296698126303
  0
LINE
  8
_0-3_躯体と製品
  6
CONTINUOUS
 62
    7
 10
398.59875731422699
 20
700.90296698126303
 11
399.59875731422699
 21
700.90296698126303
  0
LINE
  8
_0-3_躯体と製品
  6
CONTINUOUS
 62
    7
 10
399.59875731422699
 20
700.90296698126303
 11
399.59875731422699
 21
700.60296698126308
  0
LINE
  8
_0-3_躯体と製品
  6
CONTINUOUS
 62
    7
 10
399.59875731422699
 20
700.60296698126308
 11
400.59875731422608
 21
700.60296698126308
  0
LINE
  8
_0-3_躯体と製品
  6
CONTINUOUS
 62
    7
 10
400.59875731422608
 20
700.60296698126308
 11
400.59875731422608
 21
700.90296698126303
  0
LINE
  8
_0-3_躯体と製品
  6
CONTINUOUS
 62
    7
 10
400.59875731422608
 20
700.90296698126303
 11
400.7987573142259
 21
700.90296698126303
  0
ARC
  8
_0-3_躯体と製品
  6
CONTINUOUS
 62
    7
 10
400.79875731422646
 20
701.70296698126356
 40
0.8000000000005115
 50
269.9999999999585
 51
359.9999999999601
  0
LINE
  8
_0-3_躯体と製品
  6
CONTINUOUS
 62
    7
 10
401.59875731422699
 20
701.70296698126299
 11
401.59875731422699
 21
704.60296698126308
  0
LINE
  8
_0-3_躯体と製品
  6
CONTINUOUS
 62
    7
 10
401.59875731422699
 20
704.60296698126308
 11
401.09875731422699
 21
704.60296698126308
  0
ARC
  8
_0-3_躯体と製品
  6
CONTINUOUS
 62
    7
 10
401.09875731422653
 20
704.10296698126263
 40
0.5000000000004547
 50
89.999999999947889
 51
179.9999999999479
  0
LINE
  8
_0-3_躯体と製品
  6
CONTINUOUS
 62
    7
 10
400.59875731422608
 20
704.10296698126308
 11
400.59875731422608
 21
703.60296698126399
  0
ARC
  8
_0-3_躯体と製品
  6
CONTINUOUS
 62
    7
 10
400.09875731422608
 20
703.60296698126308
 40
0.4999999999999999
 50
270.00000000010419
 51
0.000000000104213
  0
LINE
  8
_0-3_躯体と製品
  6
CONTINUOUS
 62
    7
 10
400.09875731422699
 20
703.10296698126308
 11
394.39875731422717
 21
703.10296698126308
  0
LINE
  8
_0-3_躯体と製品
  6
CONTINUOUS
 62
    7
 10
394.39875731422717
 20
703.10296698126308
 11
394.09875731422699
 21
702.80296698126313
  0
LINE
  8
_0-3_躯体と製品
  6
CONTINUOUS
 62
    7
 10
394.09875731422699
 20
702.80296698126313
 11
393.7987573142259
 21
703.10296698126308
  0
LINE
  8
_0-3_躯体と製品
  6
CONTINUOUS
 62
    7
 10
393.7987573142259
 20
703.10296698126308
 11
387.09875731422699
 21
703.10296698126308
  0
ARC
  8
_0-3_躯体と製品
  6
CONTINUOUS
 62
    7
 10
387.09875731422744
 20
703.60296698126353
 40
0.5000000000004547
 50
179.9999999999479
 51
269.99999999994787
  0
LINE
  8
_0-3_躯体と製品
  6
CONTINUOUS
 62
    7
 10
386.59875731422699
 20
703.60296698126399
 11
386.59875731422699
 21
709.30296698126313
  0
LINE
  8
_0-3_躯体と製品
  6
CONTINUOUS
 62
    7
 10
386.59875731422699
 20
709.30296698126313
 11
386.2987573142259
 21
709.60296698126308
  0
LINE
  8
_0-3_躯体と製品
  6
CONTINUOUS
 62
    7
 10
386.2987573142259
 20
709.60296698126308
 11
386.59875731422699
 21
709.90296698126303
  0
LINE
  8
_0-3_躯体と製品
  6
CONTINUOUS
 62
    7
 10
386.59875731422699
 20
709.90296698126303
 11
386.59875731422699
 21
715.10296698126308
  0
LINE
  8
_0-3_躯体と製品
  6
CONTINUOUS
 62
    7
 10
386.59875731422699
 20
715.10296698126308
 11
384.59875731422608
 21
715.10296698126308
  0
LINE
  8
_0-3_躯体と製品
  6
CONTINUOUS
 62
    4
 10
437.67030757608518
 20
696.10296698126308
 11
400.09875731422699
 21
696.10296698126308
  0
LINE
  8
_0-3_躯体と製品
  6
CONTINUOUS
 62
    4
 10
437.67022031061015
 20
695.10296698126308
 11
400.59875731422608
 21
695.10296698126308
  0
ARC
  8
_0-3_躯体と製品
  6
CONTINUOUS
 62
    4
 10
400.59875731422653
 20
695.60296698126263
 40
0.4999999999995452
 50
179.9999999999479
 51
269.99999999994787
  0
LINE
  8
_0-3_躯体と製品
  6
CONTINUOUS
 62
    4
 10
400.09875731422699
 20
695.60296698126308
 11
400.09875731422699
 21
697.10296698126308
  0
LINE
  8
_0-3_躯体と製品
  6
CONTINUOUS
 62
    4
 10
400.09875731422699
 20
697.10296698126308
 11
398.59875731422699
 21
697.10296698126308
  0
ARC
  8
_0-3_躯体と製品
  6
CONTINUOUS
 62
    4
 10
398.59875731422699
 20
698.60296698126308
 40
1.4999999999999856
 50
179.99999999999943
 51
270.00000000000057
  0
LINE
  8
_0-3_躯体と製品
  6
CONTINUOUS
 62
    4
 10
397.09875731422699
 20
698.60296698126308
 11
397.09875731422699
 21
700.60296698126308
  0
LINE
  8
_0-3_躯体と製品
  6
CONTINUOUS
 62
    4
 10
397.09875731422699
 20
700.60296698126308
 11
401.09875731422699
 21
700.60296698126308
  0
ARC
  8
_0-3_躯体と製品
  6
CONTINUOUS
 62
    4
 10
401.09875731422653
 20
703.60296698126353
 40
3.0000000000004534
 50
270.0000000000087
 51
0.0000000000087019
  0
LINE
  8
_0-3_躯体と製品
  6
CONTINUOUS
 62
    4
 10
404.09875731422699
 20
703.60296698126399
 11
404.09875731422699
 21
714.60296698126308
  0
ARC
  8
_0-3_躯体と製品
  6
CONTINUOUS
 62
    4
 10
401.09875731422699
 20
714.60296698126308
 40
3
 50
0.0000000000000052
 51
90.000000000000014
  0
LINE
  8
_0-3_躯体と製品
  6
CONTINUOUS
 62
    4
 10
401.09875731422699
 20
717.60296698126308
 11
397.09875731422699
 21
717.60296698126308
  0
LINE
  8
_0-3_躯体と製品
  6
CONTINUOUS
 62
    4
 10
397.09875731422699
 20
717.60296698126308
 11
397.09875731422699
 21
722.10296698126308
  0
ARC
  8
_0-3_躯体と製品
  6
CONTINUOUS
 62
    4
 10
398.09875731422653
 20
722.10296698126353
 40
0.9999999999995451
 50
90.000000000026034
 51
180.00000000002606
  0
LINE
  8
_0-3_躯体と製品
  6
CONTINUOUS
 62
    4
 10
398.09875731422608
 20
723.10296698126308
 11
437.6726637439092
 21
723.10296698126308
  0
LINE
  8
_0-3_躯体と製品
  6
CONTINUOUS
 62
    4
 10
398.09875731422608
 20
717.60296698126308
 11
398.09875731422608
 21
722.10296698126308
  0
LINE
  8
_0-3_躯体と製品
  6
CONTINUOUS
 62
    4
 10
398.09875731422608
 20
722.10296698126308
 11
437.67257647843417
 21
722.10296698126308
  0
LINE
  8
_0-3_躯体と製品
  6
CONTINUOUS
 62
    4
 10
437.67205288558398
 20
716.10296698126399
 11
434.59875731422699
 21
716.10296698126399
  0
LINE
  8
_0-3_躯体と製品
  6
CONTINUOUS
 62
    4
 10
434.59875731422699
 20
716.10296698126399
 11
434.09875731422699
 21
715.60296698126308
  0
LINE
  8
_0-3_躯体と製品
  6
CONTINUOUS
 62
    4
 10
434.09875731422699
 20
715.60296698126308
 11
434.09875731422699
 21
702.60296698126308
  0
LINE
  8
_0-3_躯体と製品
  6
CONTINUOUS
 62
    4
 10
434.09875731422699
 20
702.60296698126308
 11
434.59875731422699
 21
702.10296698126308
  0
LINE
  8
_0-3_躯体と製品
  6
CONTINUOUS
 62
    4
 10
434.59875731422699
 20
702.10296698126308
 11
437.67083116893491
 21
702.10296698126308
  0
LINE
  8
_0-3_躯体と製品
  6
CONTINUOUS
 62
    4
 10
409.59875731422608
 20
700.60296698126308
 11
429.09875731422699
 21
700.60296698126308
  0
LINE
  8
_0-3_躯体と製品
  6
CONTINUOUS
 62
    4
 10
429.09875731422699
 20
700.60296698126308
 11
429.59875731422699
 21
701.10296698126308
  0
LINE
  8
_0-3_躯体と製品
  6
CONTINUOUS
 62
    4
 10
429.59875731422699
 20
701.10296698126308
 11
429.59875731422699
 21
717.10296698126308
  0
LINE
  8
_0-3_躯体と製品
  6
CONTINUOUS
 62
    4
 10
429.59875731422699
 20
717.10296698126308
 11
429.09875731422699
 21
717.60296698126308
  0
LINE
  8
_0-3_躯体と製品
  6
CONTINUOUS
 62
    4
 10
429.09875731422699
 20
717.60296698126308
 11
409.59875731422608
 21
717.60296698126308
  0
LINE
  8
_0-3_躯体と製品
  6
CONTINUOUS
 62
    4
 10
409.59875731422608
 20
717.60296698126308
 11
409.09875731422699
 21
717.10296698126308
  0
LINE
  8
_0-3_躯体と製品
  6
CONTINUOUS
 62
    4
 10
409.09875731422699
 20
717.10296698126308
 11
409.09875731422699
 21
701.10296698126308
  0
LINE
  8
_0-3_躯体と製品
  6
CONTINUOUS
 62
    4
 10
409.09875731422699
 20
701.10296698126308
 11
409.59875731422608
 21
700.60296698126308
  0
ARC
  8
_0-3_躯体と製品
  6
CONTINUOUS
 62
    7
 10
228.64575731419654
 20
701.3149669812658
 40
4.8189999999963842
 50
48.111754999087267
 51
96.517442000069408
  0
ARC
  8
_0-3_躯体と製品
  6
CONTINUOUS
 62
    7
 10
227.55175731424544
 20
701.31496698126011
 40
4.8190000000170672
 50
83.482563001162276
 51
131.88825099943148
  0
LINE
  8
_0-3_躯体と製品
  6
CONTINUOUS
 62
    7
 10
224.09875731422699
 20
703.30296698127495
 11
224.09875731422699
 21
703.75196698126797
  0
LINE
  8
_0-3_躯体と製品
  6
CONTINUOUS
 62
    7
 10
224.09875731422699
 20
703.75196698126797
 11
224.33375731424212
 21
704.902966981281
  0
LINE
  8
_0-3_躯体と製品
  6
CONTINUOUS
 62
    7
 10
224.33375731424212
 20
704.902966981281
 11
228.09875731422699
 21
704.902966981281
  0
LINE
  8
_0-3_躯体と製品
  6
CONTINUOUS
 62
    7
 10
228.09875731422699
 20
704.902966981281
 11
231.86375731424005
 21
704.902966981281
  0
LINE
  8
_0-3_躯体と製品
  6
CONTINUOUS
 62
    7
 10
231.86375731424005
 20
704.902966981281
 11
232.09875731422699
 21
703.75196698126797
  0
LINE
  8
_0-3_躯体と製品
  6
CONTINUOUS
 62
    7
 10
232.09875731422699
 20
703.75196698126797
 11
232.09875731425609
 21
703.30296698127495
  0
ARC
  8
_0-3_躯体と製品
  6
CONTINUOUS
 62
    7
 10
231.8987573194799
 20
703.30296697603922
 40
0.1999999947762036
 50
269.99999850002717
 51
0.000001499907649
  0
LINE
  8
_0-3_躯体と製品
  6
CONTINUOUS
 62
    7
 10
231.89875731424399
 20
703.10296698126308
 11
228.09875731422699
 21
703.10296698126308
  0
LINE
  8
_0-3_躯体と製品
  6
CONTINUOUS
 62
    7
 10
228.09875731422699
 20
703.10296698126308
 11
224.29875730376079
 21
703.10296698126308
  0
ARC
  8
_0-3_躯体と製品
  6
CONTINUOUS
 62
    7
 10
224.29875731422965
 20
703.30296698126574
 40
0.2000000000026836
 50
180.00000600052962
 51
269.9999970008883
  0
ARC
  8
_0-3_躯体と製品
  6
CONTINUOUS
 62
    7
 10
394.645757314197
 20
701.31496698126671
 40
4.8189999999953264
 50
48.11175499908326
 51
96.517442000065401
  0
ARC
  8
_0-3_躯体と製品
  6
CONTINUOUS
 62
    7
 10
393.55175731424538
 20
701.31496698126011
 40
4.8190000000170672
 50
83.482563001162276
 51
131.88825099943148
  0
LINE
  8
_0-3_躯体と製品
  6
CONTINUOUS
 62
    7
 10
390.09875731422608
 20
703.30296698127495
 11
390.09875731422608
 21
703.75196698126797
  0
LINE
  8
_0-3_躯体と製品
  6
CONTINUOUS
 62
    7
 10
390.09875731422608
 20
703.75196698126797
 11
390.33375731424212
 21
704.902966981281
  0
LINE
  8
_0-3_躯体と製品
  6
CONTINUOUS
 62
    7
 10
390.33375731424212
 20
704.902966981281
 11
394.09875731422699
 21
704.902966981281
  0
LINE
  8
_0-3_躯体と製品
  6
CONTINUOUS
 62
    7
 10
394.09875731422699
 20
704.902966981281
 11
397.86375731424096
 21
704.902966981281
  0
LINE
  8
_0-3_躯体と製品
  6
CONTINUOUS
 62
    7
 10
397.86375731424096
 20
704.902966981281
 11
398.09875731422608
 21
703.75196698126797
  0
LINE
  8
_0-3_躯体と製品
  6
CONTINUOUS
 62
    7
 10
398.09875731422608
 20
703.75196698126797
 11
398.09875731425609
 21
703.30296698127495
  0
ARC
  8
_0-3_躯体と製品
  6
CONTINUOUS
 62
    7
 10
397.8987573194799
 20
703.30296697603922
 40
0.1999999947762036
 50
269.99999850002717
 51
0.000001499907649
  0
LINE
  8
_0-3_躯体と製品
  6
CONTINUOUS
 62
    7
 10
397.89875731424399
 20
703.10296698126308
 11
394.09875731422699
 21
703.10296698126308
  0
LINE
  8
_0-3_躯体と製品
  6
CONTINUOUS
 62
    7
 10
394.09875731422699
 20
703.10296698126308
 11
390.29875730376079
 21
703.10296698126308
  0
ARC
  8
_0-3_躯体と製品
  6
CONTINUOUS
 62
    7
 10
390.29875731422919
 20
703.3029669812662
 40
0.2000000000031384
 50
180.00000600065991
 51
269.99999700101853
  0
LINE
  8
_0-3_躯体と製品
  6
CONTINUOUS
 62
    4
 10
1083.3854510072092
 20
73.10296698126308
 11
783.38545100720921
 21
73.10296698126308
  0
LINE
  8
_0-5_中心線
  6
CENTER1
 62
    7
 10
933.38545100720921
 20
-14.644863018733076
 11
933.38545100720921
 21
636.36642808208398
  0
LINE
  8
_0-3_躯体と製品
  6
CONTINUOUS
 62
    4
 10
912.03545100720794
 20
158.30296698126403
 11
912.03545100720794
 21
487.90296511524002
  0
LINE
  8
_0-3_躯体と製品
  6
CONTINUOUS
 62
    4
 10
954.73545100720912
 20
158.30296698126403
 11
954.73545100720912
 21
487.90296511524002
  0
LINE
  8
_0-3_躯体と製品
  6
CONTINUOUS
 62
    3
 10
1023.8509010072062
 20
43.10296698126308
 11
1053.8509010072071
 21
73.10296698126308
  0
LINE
  8
_0-3_躯体と製品
  6
CONTINUOUS
 62
    3
 10
1018.1940460072078
 20
43.10296698126308
 11
1048.1940460072078
 21
73.10296698126308
  0
LINE
  8
_0-3_躯体と製品
  6
CONTINUOUS
 62
    3
 10
1029.50775600721
 20
43.10296698126308
 11
1059.50775600721
 21
73.10296698126308
  0
LINE
  8
_0-3_躯体と製品
  6
CONTINUOUS
 62
    4
 10
908.92045100720497
 20
158.30296698126403
 11
915.92045100720497
 21
158.30296698126403
  0
LINE
  8
_0-3_躯体と製品
  6
CONTINUOUS
 62
    4
 10
912.18545100720212
 20
135.10296698126012
 11
933.38545100720512
 21
135.10296698126012
  0
ARC
  8
_0-3_躯体と製品
  6
CONTINUOUS
 62
    4
 10
912.18545100720212
 20
139.10296698126308
 40
4
 50
180
 51
270
  0
LINE
  8
_0-3_躯体と製品
  6
CONTINUOUS
 62
    4
 10
908.92045100720497
 20
155.80296698126403
 11
907.99032100720615
 21
155.80296698126403
  0
LINE
  8
_0-3_躯体と製品
  6
CONTINUOUS
 62
    4
 10
908.92045100720497
 20
148.80296698125994
 11
907.99032100720615
 21
148.80296698125994
  0
ARC
  8
_0-3_躯体と製品
  6
CONTINUOUS
 62
    4
 10
912.32045100720416
 20
152.30296698126403
 40
6
 50
150.00000000000131
 51
209.99999999999858
  0
ARC
  8
_0-3_躯体と製品
  6
CONTINUOUS
 62
    4
 10
907.99032100720615
 20
154.80296698126403
 40
1
 50
90
 51
150.00000000000131
  0
ARC
  8
_0-3_躯体と製品
  6
CONTINUOUS
 62
    4
 10
907.99032100720615
 20
149.80296698126403
 40
1
 50
209.99999999999861
 51
270
  0
LINE
  8
_0-3_躯体と製品
  6
CONTINUOUS
 62
    4
 10
908.92045100720497
 20
146.30296698125994
 11
908.92045100720497
 21
158.30296698126403
  0
LINE
  8
_0-3_躯体と製品
  6
CONTINUOUS
 62
    4
 10
908.18545100720394
 20
146.30296698125994
 11
908.92045100720497
 21
146.30296698125994
  0
LINE
  8
_0-3_躯体と製品
  6
CONTINUOUS
 62
    4
 10
908.18545100720394
 20
139.10296698126308
 11
908.18545100720394
 21
146.30296698125994
  0
ARC
  8
_0-3_躯体と製品
  6
CONTINUOUS
 62
    4
 10
954.58545100720585
 20
139.10296698126308
 40
4
 50
270
 51
0
  0
ARC
  8
_0-3_躯体と製品
  6
CONTINUOUS
 62
    4
 10
949.38545100720694
 20
135.10296698126012
 40
2
 50
270
 51
0
  0
LINE
  8
_0-3_躯体と製品
  6
CONTINUOUS
 62
    4
 10
954.58545100720585
 20
135.10296698126012
 11
933.38545100720512
 21
135.10296698126012
  0
LINE
  8
_0-3_躯体と製品
  6
CONTINUOUS
 62
    4
 10
917.38545100720285
 20
133.10296698126308
 11
933.38545100720512
 21
133.10296698126308
  0
ARC
  8
_0-3_躯体と製品
  6
CONTINUOUS
 62
    4
 10
917.38545100720285
 20
135.10296698126012
 40
2
 50
180
 51
270
  0
LINE
  8
_0-3_躯体と製品
  6
CONTINUOUS
 62
    4
 10
949.38545100720694
 20
133.10296698126308
 11
933.38545100720512
 21
133.10296698126308
  0
LINE
  8
_0-3_躯体と製品
  6
CONTINUOUS
 62
    4
 10
957.85045100720481
 20
158.30296698126403
 11
950.85045100720299
 21
158.30296698126403
  0
LINE
  8
_0-3_躯体と製品
  6
CONTINUOUS
 62
    4
 10
950.85045100720299
 20
146.30296698125994
 11
915.92045100720497
 21
146.30296698125994
  0
LINE
  8
_0-3_躯体と製品
  6
CONTINUOUS
 62
    4
 10
915.92045100720497
 20
146.30296698125994
 11
915.92045100720497
 21
158.30296698126403
  0
LINE
  8
_0-3_躯体と製品
  6
CONTINUOUS
 62
    4
 10
950.85045100720299
 20
146.30296698125994
 11
950.85045100720299
 21
158.30296698126403
  0
LINE
  8
_0-3_躯体と製品
  6
CONTINUOUS
 62
    4
 10
957.85045100720481
 20
155.80296698126403
 11
958.78057600720422
 21
155.80296698126403
  0
LINE
  8
_0-3_躯体と製品
  6
CONTINUOUS
 62
    4
 10
957.85045100720481
 20
148.80296698125994
 11
958.78057600720422
 21
148.80296698125994
  0
ARC
  8
_0-3_躯体と製品
  6
CONTINUOUS
 62
    4
 10
954.45045100720517
 20
152.30296698126403
 40
6
 50
330.00000000000142
 51
29.999999999998629
  0
ARC
  8
_0-3_躯体と製品
  6
CONTINUOUS
 62
    4
 10
958.78057600720422
 20
154.80296698126403
 40
1
 50
29.999999999998661
 51
90
  0
ARC
  8
_0-3_躯体と製品
  6
CONTINUOUS
 62
    4
 10
958.78057600720422
 20
149.80296698126403
 40
1
 50
270
 51
330.00000000000142
  0
LINE
  8
_0-3_躯体と製品
  6
CONTINUOUS
 62
    4
 10
957.85045100720481
 20
146.30296698125994
 11
957.85045100720481
 21
158.30296698126403
  0
LINE
  8
_0-3_躯体と製品
  6
CONTINUOUS
 62
    4
 10
958.58545100720403
 20
146.30296698125994
 11
957.85045100720481
 21
146.30296698125994
  0
LINE
  8
_0-3_躯体と製品
  6
CONTINUOUS
 62
    4
 10
958.58545100720403
 20
139.10296698126308
 11
958.58545100720403
 21
146.30296698125994
  0
LINE
  8
_0-3_躯体と製品
  6
CONTINUOUS
 62
    4
 10
908.92045100720907
 20
487.90296511524002
 11
915.92045100720907
 21
487.90296511524002
  0
LINE
  8
_0-3_躯体と製品
  6
CONTINUOUS
 62
    4
 10
912.18545100720621
 20
511.10324511523709
 11
933.38545100720921
 21
511.10296511524098
  0
ARC
  8
_0-3_躯体と製品
  6
CONTINUOUS
 62
    4
 10
912.18545100720621
 20
507.10324511523709
 40
4
 50
90
 51
180
  0
LINE
  8
_0-3_躯体と製品
  6
CONTINUOUS
 62
    4
 10
908.92045100720907
 20
490.40296511524002
 11
907.99032100720979
 21
490.40296511524002
  0
LINE
  8
_0-3_躯体と製品
  6
CONTINUOUS
 62
    4
 10
908.92045100720907
 20
497.40296511523593
 11
907.99032100720979
 21
497.40296511523593
  0
ARC
  8
_0-3_躯体と製品
  6
CONTINUOUS
 62
    4
 10
912.32045100720779
 20
493.90296511523593
 40
6
 50
150.00000000000131
 51
209.99999999999858
  0
ARC
  8
_0-3_躯体と製品
  6
CONTINUOUS
 62
    4
 10
907.99032100720979
 20
491.40296511523593
 40
1
 50
209.99999999999861
 51
270
  0
ARC
  8
_0-3_躯体と製品
  6
CONTINUOUS
 62
    4
 10
907.99032100720979
 20
496.40296511523593
 40
1
 50
90
 51
150.00000000000131
  0
LINE
  8
_0-3_躯体と製品
  6
CONTINUOUS
 62
    4
 10
908.92045100720907
 20
499.90296511523593
 11
908.92045100720907
 21
487.90296511524002
  0
LINE
  8
_0-3_躯体と製品
  6
CONTINUOUS
 62
    4
 10
908.18545100720803
 20
499.90296511523593
 11
908.92045100720907
 21
499.90296511523593
  0
LINE
  8
_0-3_躯体と製品
  6
CONTINUOUS
 62
    4
 10
908.18545100720803
 20
507.10324511523709
 11
908.18545100720803
 21
499.90296511523593
  0
ARC
  8
_0-3_躯体と製品
  6
CONTINUOUS
 62
    4
 10
954.58545100720994
 20
507.10324511523709
 40
4
 50
0
 51
90
  0
LINE
  8
_0-3_躯体と製品
  6
CONTINUOUS
 62
    4
 10
957.8504510072089
 20
487.90296511524002
 11
950.85045100720708
 21
487.90296511524002
  0
LINE
  8
_0-3_躯体と製品
  6
CONTINUOUS
 62
    4
 10
950.85045100720708
 20
499.90296511523593
 11
915.92045100720907
 21
499.90296511523593
  0
LINE
  8
_0-3_躯体と製品
  6
CONTINUOUS
 62
    4
 10
915.92045100720907
 20
499.90296511523593
 11
915.92045100720907
 21
487.90296511524002
  0
LINE
  8
_0-3_躯体と製品
  6
CONTINUOUS
 62
    4
 10
950.85045100720708
 20
499.90296511523593
 11
950.85045100720708
 21
487.90296511524002
  0
LINE
  8
_0-3_躯体と製品
  6
CONTINUOUS
 62
    4
 10
957.8504510072089
 20
490.40296511524002
 11
958.78057600720786
 21
490.40296511524002
  0
LINE
  8
_0-3_躯体と製品
  6
CONTINUOUS
 62
    4
 10
957.8504510072089
 20
497.40296511523593
 11
958.78057600720786
 21
497.40296511523593
  0
ARC
  8
_0-3_躯体と製品
  6
CONTINUOUS
 62
    4
 10
954.45045100720881
 20
493.90296511523593
 40
6
 50
330.00000000000142
 51
29.999999999998629
  0
ARC
  8
_0-3_躯体と製品
  6
CONTINUOUS
 62
    4
 10
958.78057600720786
 20
491.40296511523593
 40
1
 50
270
 51
330.00000000000142
  0
ARC
  8
_0-3_躯体と製品
  6
CONTINUOUS
 62
    4
 10
958.78057600720786
 20
496.40296511523593
 40
1
 50
29.999999999998661
 51
90
  0
LINE
  8
_0-3_躯体と製品
  6
CONTINUOUS
 62
    4
 10
957.8504510072089
 20
499.90296511523593
 11
957.8504510072089
 21
487.90296511524002
  0
LINE
  8
_0-3_躯体と製品
  6
CONTINUOUS
 62
    4
 10
958.58545100720812
 20
499.90296511523593
 11
957.8504510072089
 21
499.90296511523593
  0
LINE
  8
_0-3_躯体と製品
  6
CONTINUOUS
 62
    4
 10
958.58545100720812
 20
507.10324511523709
 11
958.58545100720812
 21
499.90296511523593
  0
ARC
  8
_0-3_躯体と製品
  6
CONTINUOUS
 62
    4
 10
949.38545100721103
 20
511.10296511524098
 40
2
 50
0
 51
90
  0
LINE
  8
_0-3_躯体と製品
  6
CONTINUOUS
 62
    4
 10
954.58545100720994
 20
511.10324511523709
 11
933.38545100720921
 21
511.10296511524098
  0
LINE
  8
_0-3_躯体と製品
  6
CONTINUOUS
 62
    4
 10
917.38545100720694
 20
513.10296511523711
 11
933.38545100720921
 21
513.10296511523711
  0
ARC
  8
_0-3_躯体と製品
  6
CONTINUOUS
 62
    4
 10
917.38545100720694
 20
511.10296511524098
 40
2
 50
90
 51
180
  0
LINE
  8
_0-3_躯体と製品
  6
CONTINUOUS
 62
    4
 10
949.38545100721103
 20
513.10296511523711
 11
933.38545100720921
 21
513.10296511523711
  0
LINE
  8
_0-3_躯体と製品
  6
CONTINUOUS
 62
    7
 10
928.88545100720194
 20
596.10296715312506
 11
928.88545100720194
 21
532.40296494336894
  0
LINE
  8
_0-3_躯体と製品
  6
CONTINUOUS
 62
    7
 10
927.38545100720103
 20
596.20974207902395
 11
927.38545100720103
 21
532.29619001747005
  0
LINE
  8
_0-3_躯体と製品
  6
CONTINUOUS
 62
    7
 10
937.88545100720103
 20
596.10296715312506
 11
937.88545100720103
 21
532.40296494336894
  0
LINE
  8
_0-3_躯体と製品
  6
CONTINUOUS
 62
    7
 10
939.38545100720103
 20
596.20974207902213
 11
939.38545100720103
 21
532.29619001747301
  0
ARC
  8
_0-3_躯体と製品
  6
CONTINUOUS
 62
    7
 10
886.63545100720501
 20
607.85296698126115
 40
3.249999999995798
 50
90.000002999934651
 51
180.00000000007415
  0
LINE
  8
_0-3_躯体と製品
  6
CONTINUOUS
 62
    7
 10
883.38545100720921
 20
607.85296698125694
 11
883.38545100720921
 21
600.10296698125694
  0
LINE
  8
_0-3_躯体と製品
  6
CONTINUOUS
 62
    7
 10
883.38545100720921
 20
600.10296698125694
 11
983.38545100720921
 21
600.10296698125694
  0
LINE
  8
_0-3_躯体と製品
  6
CONTINUOUS
 62
    7
 10
983.38545100720921
 20
600.10296698125694
 11
983.38545100720921
 21
607.85296698125694
  0
ARC
  8
_0-3_躯体と製品
  6
CONTINUOUS
 62
    7
 10
980.13545100720921
 20
607.85296698125694
 40
3.2500000000000044
 50
0.0000000000000816
 51
89.999999999999929
  0
LINE
  8
_0-3_躯体と製品
  6
CONTINUOUS
 62
    7
 10
980.13545100720921
 20
611.10296698125694
 11
933.38545100720921
 21
611.10296698125694
  0
LINE
  8
_0-3_躯体と製品
  6
CONTINUOUS
 62
    7
 10
933.38545100720921
 20
611.10296698125694
 11
886.63545100720921
 21
611.10296698125694
  0
LINE
  8
_0-4_文字-記号
  6
CONTINUOUS
 62
    7
 10
969.04188263469587
 20
600.10296698125694
 11
985.11003776303596
 21
572.2721059150731
  0
LINE
  8
_0-4_文字-記号
  6
CONTINUOUS
 62
    7
 10
985.11003776303596
 20
572.2721059150731
 11
1033.2445053635201
 21
572.2721059150731
  0
TEXT
  8
_0-4_文字-記号
 62
    7
 10
987.26009015859518
 20
575.73571489186111
 40
12
 41
0.8000000000000001
 50
0
  1
受け金具
  0
LINE
  8
_0-3_躯体と製品
  6
CONTINUOUS
 62
    3
 10
809.70099100720699
 20
43.10296698126308
 11
839.70099100720699
 21
73.10296698126308
  0
LINE
  8
_0-3_躯体と製品
  6
CONTINUOUS
 62
    3
 10
798.387281007208
 20
43.10296698126308
 11
828.387281007208
 21
73.10296698126308
  0
LINE
  8
_0-3_躯体と製品
  6
CONTINUOUS
 62
    3
 10
804.04413600720909
 20
43.10296698126308
 11
834.04413600720909
 21
73.10296698126308
  0
LINE
  8
_0-3_躯体と製品
  6
CONTINUOUS
 62
    3
 10
1083.3854510072092
 20
614.70296698126208
 11
953.38545100720921
 21
614.70296698126208
  0
LINE
  8
_0-3_躯体と製品
  6
CONTINUOUS
 62
    3
 10
783.38545100720921
 20
613.10296698126308
 11
913.38545100720921
 21
613.10296698126308
  0
LINE
  8
_0-3_躯体と製品
  6
CONTINUOUS
 62
    3
 10
783.38545100720921
 20
653.10296698126308
 11
1083.3854510072092
 21
653.10296698126308
  0
LINE
  8
_0-4_文字-記号
  6
CONTINUOUS
 62
    7
 10
965.65593507276708
 20
723.10296698126308
 11
982.34194727510612
 21
752.0039878914281
  0
LINE
  8
_0-4_文字-記号
  6
CONTINUOUS
 62
    7
 10
982.34194727510612
 20
752.0039878914281
 11
1030.5805510733412
 21
752.0039878914281
  0
TEXT
  8
_0-4_文字-記号
 62
    7
 10
984.74030070784283
 20
756.1580578914361
 40
12
 41
0.8000000000000001
 50
0
  1
デッキ材
  0
LINE
  8
_0-4_文字-記号
  6
CONTINUOUS
 62
    7
 10
846.07238717984501
 20
714.10296698125694
 11
870.93449928211794
 21
757.16540832586793
  0
LINE
  8
_0-4_文字-記号
  6
CONTINUOUS
 62
    7
 10
870.93449928211794
 20
757.16540832586793
 11
922.03252430395287
 21
757.16540832586793
  0
TEXT
  8
_0-4_文字-記号
 62
    7
 10
873.33285271485602
 20
761.31947832587593
 40
12
 41
0.8000000000000001
 50
0
  1
固定金具
  0
TEXT
  8
_0-4_文字-記号
 62
    7
 10
793.69718569135784
 20
680.14966676309996
 40
12
 41
0.8000000000000001
 50
0
  1
根太鋼
  0
TEXT
  8
_0-4_文字-記号
 62
    7
 10
808.21205510109212
 20
584.35976500232914
 40
12
 41
0.8000000000000001
 50
0
  1
大引鋼
  0
LINE
  8
_0-4_文字-記号
  6
CONTINUOUS
 62
    7
 10
864.66275311976415
 20
613.10296698126308
 11
846.71516212590723
 21
582.01682750643704
  0
LINE
  8
_0-4_文字-記号
  6
CONTINUOUS
 62
    7
 10
846.71516212590723
 20
582.01682750643704
 11
805.43058269546191
 21
582.01682750643704
  0
INSERT
  2
-013-_D15
  8
_0-2_寸法
 10
-1965.173596693734
 20
-958.05681138812997
 41
1
 42
1
 50
0
  0
INSERT
  2
-014-_D16
  8
_0-2_寸法
 10
-1965.173596693734
 20
-958.05681138812997
 41
1
 42
1
 50
0
  0
TEXT
  8
_0-4_文字-記号
 62
    7
 10
260.2987573142259
 20
-35.323044350086093
 40
15
 41
0.8
 50
0
  1
大引きピッチ
  0
TEXT
  8
_0-4_文字-記号
 62
    7
 10
893.18396675574195
 20
-35.323044350086093
 40
15
 41
0.8
 50
0
  1
支持脚ピッチ
  0
TEXT
  8
_0-4_文字-記号
 62
    7
 10
119.86623024467917
 20
860.30523073859308
 40
15
 41
0.8
 50
0
  1
高床用　標準仕様　
  0
LINE
  8
_0-3_躯体と製品
  6
CONTINUOUS
 62
    7
 10
913.38545100720921
 20
618.10296698125694
 11
953.38545100720921
 21
618.10296698125694
  0
LINE
  8
_0-3_躯体と製品
  6
CONTINUOUS
 62
    7
 10
953.38545100720921
 20
618.10296698125694
 11
953.38545100720921
 21
611.10296698125694
  0
LINE
  8
_0-3_躯体と製品
  6
CONTINUOUS
 62
    7
 10
953.38545100720921
 20
611.10296698125694
 11
913.38545100720921
 21
611.10296698125694
  0
LINE
  8
_0-3_躯体と製品
  6
CONTINUOUS
 62
    7
 10
913.38545100720921
 20
611.10296698125694
 11
913.38545100720921
 21
618.10296698125694
  0
LINE
  8
_0-3_躯体と製品
  6
CONTINUOUS
 62
    7
 10
933.38545100720921
 20
600.10296698125694
 11
933.38545100720785
 21
597.10296698125899
  0
LINE
  8
_0-3_躯体と製品
  6
CONTINUOUS
 62
    7
 10
942.38163041013922
 20
597.10296698125899
 11
942.38163041014195
 21
600.10296698125694
  0
LINE
  8
_0-3_躯体と製品
  6
CONTINUOUS
 62
    7
 10
924.38927160427602
 20
597.10296698125899
 11
924.3892716042792
 21
600.10296698125694
  0
LINE
  8
_0-3_躯体と製品
  6
CONTINUOUS
 62
    7
 10
928.88736130574307
 20
596.10296698125694
 11
937.88354070867399
 21
596.10296698125694
  0
ARC
  8
_0-3_躯体と製品
  6
CONTINUOUS
 62
    7
 10
928.88736130574307
 20
606.71937246245511
 40
10.61640548119736
 50
244.93207904395467
 51
295.06792095604533
  0
ARC
  8
_0-3_躯体と製品
  6
CONTINUOUS
 62
    7
 10
937.88354070867399
 20
606.71937246245511
 40
10.61640548119736
 50
244.93207904395467
 51
295.06792095604533
  0
LINE
  8
_0-3_躯体と製品
  6
CONTINUOUS
 62
    7
 10
890.38545100720921
 20
658.10296698125694
 11
895.38545100720921
 21
658.10296698125694
  0
LINE
  8
_0-3_躯体と製品
  6
CONTINUOUS
 62
    7
 10
895.38545100720921
 20
658.10296698125694
 11
895.38545100720921
 21
655.10296698125694
  0
LINE
  8
_0-3_躯体と製品
  6
CONTINUOUS
 62
    7
 10
895.38545100720921
 20
655.10296698125694
 11
821.38545100720921
 21
655.10296698125694
  0
LINE
  8
_0-3_躯体と製品
  6
CONTINUOUS
 62
    7
 10
821.38545100720921
 20
655.10296698125694
 11
821.38545100720921
 21
658.10296698125694
  0
LINE
  8
_0-3_躯体と製品
  6
CONTINUOUS
 62
    7
 10
821.38545100720921
 20
658.10296698125694
 11
826.38545100720921
 21
658.10296698125694
  0
LINE
  8
_0-3_躯体と製品
  6
CONTINUOUS
 62
    7
 10
826.38545100720921
 20
658.10296698125694
 11
826.38545100720921
 21
660.10296698125694
  0
LINE
  8
_0-3_躯体と製品
  6
CONTINUOUS
 62
    7
 10
826.38545100720921
 20
660.10296698125694
 11
819.38545100720921
 21
660.10296698125694
  0
LINE
  8
_0-3_躯体と製品
  6
CONTINUOUS
 62
    7
 10
819.38545100720921
 20
660.10296698125694
 11
819.38545100720921
 21
653.10296698125694
  0
LINE
  8
_0-3_躯体と製品
  6
CONTINUOUS
 62
    7
 10
819.38545100720921
 20
653.10296698125694
 11
897.38545100720921
 21
653.10296698125694
  0
LINE
  8
_0-3_躯体と製品
  6
CONTINUOUS
 62
    7
 10
897.38545100720921
 20
653.10296698125694
 11
897.38545100720921
 21
660.10296698125694
  0
LINE
  8
_0-3_躯体と製品
  6
CONTINUOUS
 62
    7
 10
897.38545100720921
 20
660.10296698125694
 11
890.38545100720921
 21
660.10296698125694
  0
LINE
  8
_0-3_躯体と製品
  6
CONTINUOUS
 62
    7
 10
890.38545100720921
 20
660.10296698125694
 11
890.38545100720921
 21
658.10296698125694
  0
LINE
  8
_0-3_躯体と製品
  6
CONTINUOUS
 62
    3
 10
876.78545100720294
 20
657.20296698125594
 11
876.78545100720294
 21
693.00296698125112
  0
ARC
  8
_0-3_躯体と製品
  6
CONTINUOUS
 62
    3
 10
876.28545102029193
 20
693.00296699434102
 40
0.4999999869110074
 50
359.99999850000768
 51
90.000001499888128
  0
LINE
  8
_0-3_躯体と製品
  6
CONTINUOUS
 62
    3
 10
876.28545100720294
 20
693.50296698125203
 11
858.38545100720921
 21
693.50296698125203
  0
LINE
  8
_0-3_躯体と製品
  6
CONTINUOUS
 62
    3
 10
858.38545100720921
 20
693.50296698125203
 11
840.48545098103614
 21
693.50296698125203
  0
ARC
  8
_0-3_躯体と製品
  6
CONTINUOUS
 62
    3
 10
840.48545098103568
 20
693.00296700743138
 40
0.4999999738206506
 50
89.999999999947946
 51
180.00000300003686
  0
LINE
  8
_0-3_躯体と製品
  6
CONTINUOUS
 62
    3
 10
839.98545100721503
 20
693.00296698125112
 11
839.98545100720912
 21
657.20296698125594
  0
ARC
  8
_0-3_躯体と製品
  6
CONTINUOUS
 62
    3
 10
837.88545100720921
 20
657.20296698125594
 40
2.0999999999999654
 50
270.00000000000153
 51
359.99999999999847
  0
LINE
  8
_0-3_躯体と製品
  6
CONTINUOUS
 62
    3
 10
837.88545100720921
 20
655.10296698125603
 11
821.38545100720921
 21
655.10296698125694
  0
LINE
  8
_0-3_躯体と製品
  6
CONTINUOUS
 62
    3
 10
821.38545100720921
 20
655.10296698125694
 11
821.38545100720921
 21
656.70296698125594
  0
LINE
  8
_0-3_躯体と製品
  6
CONTINUOUS
 62
    3
 10
821.38545100720921
 20
656.70296698125594
 11
837.88545100720921
 21
656.70296698125594
  0
ARC
  8
_0-3_躯体と製品
  6
CONTINUOUS
 62
    3
 10
837.88545102029866
 20
657.20296696816649
 40
0.4999999869105527
 50
269.99999850005975
 51
0.0000014999402369
  0
LINE
  8
_0-3_躯体と製品
  6
CONTINUOUS
 62
    3
 10
838.38545100720921
 20
657.20296698125594
 11
838.38545100721421
 21
693.00296698125112
  0
ARC
  8
_0-3_躯体と製品
  6
CONTINUOUS
 62
    3
 10
840.48545100721458
 20
693.00296698125067
 40
2.1000000000003634
 50
89.999999999987594
 51
179.99999999998761
  0
LINE
  8
_0-3_躯体と製品
  6
CONTINUOUS
 62
    3
 10
840.48545100721503
 20
695.10296698125103
 11
858.38545100720921
 21
695.10296698125694
  0
LINE
  8
_0-3_躯体と製品
  6
CONTINUOUS
 62
    3
 10
858.38545100720921
 20
695.10296698125694
 11
876.28545100720612
 21
695.10296698125103
  0
ARC
  8
_0-3_躯体と製品
  6
CONTINUOUS
 62
    3
 10
876.28545100720623
 20
693.00296698124805
 40
2.1000000000029817
 50
0.0000000000838266
 51
90.000000000003013
  0
LINE
  8
_0-3_躯体と製品
  6
CONTINUOUS
 62
    3
 10
878.38545100720921
 20
693.00296698125112
 11
878.38545100720921
 21
657.2029669288961
  0
ARC
  8
_0-3_躯体と製品
  6
CONTINUOUS
 62
    3
 10
878.88545102029855
 20
657.20296699434527
 40
0.5000000130893372
 50
180.00000749992273
 51
269.99999850007293
  0
LINE
  8
_0-3_躯体と製品
  6
CONTINUOUS
 62
    3
 10
878.88545100720921
 20
656.70296698125594
 11
895.38545100720921
 21
656.70296698125594
  0
LINE
  8
_0-3_躯体と製品
  6
CONTINUOUS
 62
    3
 10
895.38545100720921
 20
656.70296698125594
 11
895.38545100720921
 21
655.10296698125694
  0
LINE
  8
_0-3_躯体と製品
  6
CONTINUOUS
 62
    3
 10
895.38545100720921
 20
655.10296698125694
 11
878.88545100720921
 21
655.10296698125603
  0
ARC
  8
_0-3_躯体と製品
  6
CONTINUOUS
 62
    3
 10
878.88545100720876
 20
657.20296698125594
 40
2.0999999999999632
 50
180.00000599998322
 51
270.00000000001125
  0
LINE
  8
_0-5_中心線
  6
CENTER1
 62
    7
 10
830.63545100723786
 20
640.70296698125594
 11
830.63545100723786
 21
663.6267169812561
  0
ARC
  8
_0-3_躯体と製品
  6
CONTINUOUS
 62
    7
 10
831.18245100720856
 20
654.91496698125718
 40
4.8189999999969126
 50
48.111754999089271
 51
96.517442000071412
  0
ARC
  8
_0-3_躯体と製品
  6
CONTINUOUS
 62
    7
 10
830.08845100725625
 20
654.91496698125218
 40
4.8190000000170672
 50
83.482563001162276
 51
131.88825099943148
  0
LINE
  8
_0-3_躯体と製品
  6
CONTINUOUS
 62
    7
 10
826.63545100723786
 20
656.90296698126804
 11
826.63545100723786
 21
657.35196698125992
  0
LINE
  8
_0-3_躯体と製品
  6
CONTINUOUS
 62
    7
 10
826.63545100723786
 20
657.35196698125992
 11
826.870451007253
 21
658.50296698127295
  0
LINE
  8
_0-3_躯体と製品
  6
CONTINUOUS
 62
    7
 10
826.870451007253
 20
658.50296698127295
 11
830.63545100723786
 21
658.50296698127295
  0
LINE
  8
_0-3_躯体と製品
  6
CONTINUOUS
 62
    7
 10
830.63545100723786
 20
658.50296698127295
 11
834.40045100725183
 21
658.50296698127295
  0
LINE
  8
_0-3_躯体と製品
  6
CONTINUOUS
 62
    7
 10
834.40045100725183
 20
658.50296698127295
 11
834.63545100723786
 21
657.35196698125992
  0
LINE
  8
_0-3_躯体と製品
  6
CONTINUOUS
 62
    7
 10
834.63545100723786
 20
657.35196698125992
 11
834.63545100726697
 21
656.90296698126804
  0
ARC
  8
_0-3_躯体と製品
  6
CONTINUOUS
 62
    7
 10
834.43545101249106
 20
656.90296697603185
 40
0.1999999947758626
 50
269.99999850019003
 51
0.000001500070494
  0
LINE
  8
_0-3_躯体と製品
  6
CONTINUOUS
 62
    7
 10
834.43545100725578
 20
656.70296698125594
 11
830.63545100723786
 21
656.70296698125594
  0
LINE
  8
_0-3_躯体と製品
  6
CONTINUOUS
 62
    7
 10
830.63545100723786
 20
656.70296698125594
 11
826.83545099677212
 21
656.70296698125594
  0
ARC
  8
_0-3_躯体と製品
  6
CONTINUOUS
 62
    7
 10
826.83545100724086
 20
656.90296698125894
 40
0.2000000000030247
 50
180.00000600056219
 51
269.99999700092087
  0
LINE
  8
_0-5_中心線
  6
CENTER1
 62
    7
 10
886.13545100718011
 20
640.70296698125594
 11
886.13545100718011
 21
663.6267169812561
  0
ARC
  8
_0-3_躯体と製品
  6
CONTINUOUS
 62
    7
 10
886.68245100715058
 20
654.91496698125775
 40
4.8189999999963842
 50
48.111754999087267
 51
96.517442000069408
  0
ARC
  8
_0-3_躯体と製品
  6
CONTINUOUS
 62
    7
 10
885.5884510071985
 20
654.91496698125218
 40
4.8190000000170672
 50
83.482563001162276
 51
131.88825099943148
  0
LINE
  8
_0-3_躯体と製品
  6
CONTINUOUS
 62
    7
 10
882.13545100718011
 20
656.90296698126804
 11
882.13545100718011
 21
657.35196698125992
  0
LINE
  8
_0-3_躯体と製品
  6
CONTINUOUS
 62
    7
 10
882.13545100718011
 20
657.35196698125992
 11
882.37045100719479
 21
658.50296698127295
  0
LINE
  8
_0-3_躯体と製品
  6
CONTINUOUS
 62
    7
 10
882.37045100719479
 20
658.50296698127295
 11
886.13545100718011
 21
658.50296698127295
  0
LINE
  8
_0-3_躯体と製品
  6
CONTINUOUS
 62
    7
 10
886.13545100718011
 20
658.50296698127295
 11
889.90045100719408
 21
658.50296698127295
  0
LINE
  8
_0-3_躯体と製品
  6
CONTINUOUS
 62
    7
 10
889.90045100719408
 20
658.50296698127295
 11
890.1354510071792
 21
657.35196698125992
  0
LINE
  8
_0-3_躯体と製品
  6
CONTINUOUS
 62
    7
 10
890.1354510071792
 20
657.35196698125992
 11
890.13545100720921
 21
656.90296698126804
  0
ARC
  8
_0-3_躯体と製品
  6
CONTINUOUS
 62
    7
 10
889.93545101243285
 20
656.9029669760323
 40
0.1999999947763173
 50
269.99999850005975
 51
0.0000014999402189
  0
LINE
  8
_0-3_躯体と製品
  6
CONTINUOUS
 62
    7
 10
889.93545100719712
 20
656.70296698125594
 11
886.13545100718011
 21
656.70296698125594
  0
LINE
  8
_0-3_躯体と製品
  6
CONTINUOUS
 62
    7
 10
886.13545100718011
 20
656.70296698125594
 11
882.33545099671392
 21
656.70296698125594
  0
ARC
  8
_0-3_躯体と製品
  6
CONTINUOUS
 62
    7
 10
882.33545100718288
 20
656.90296698125871
 40
0.2000000000027973
 50
180.00000600049705
 51
269.99999700085573
  0
LINE
  8
_0-5_中心線
  6
CENTER1
 62
    7
 10
849.38545100720921
 20
683.132236979455
 11
849.38545100720921
 21
707.44106909357492
  0
ARC
  8
_0-3_躯体と製品
  6
CONTINUOUS
 62
    7
 10
848.83845100723829
 20
701.31496698125989
 40
4.8189999999963842
 50
83.482557999930592
 51
131.88824500091275
  0
ARC
  8
_0-3_躯体と製品
  6
CONTINUOUS
 62
    7
 10
849.93245100719184
 20
701.31496698125352
 40
4.8190000000167297
 50
48.111749000581099
 51
96.517436998850286
  0
LINE
  8
_0-3_躯体と製品
  6
CONTINUOUS
 62
    7
 10
853.2117020932119
 20
704.60296698125694
 11
853.15045100719408
 21
704.90296698127509
  0
LINE
  8
_0-3_躯体と製品
  6
CONTINUOUS
 62
    7
 10
853.15045100719408
 20
704.90296698127509
 11
849.38545100720921
 21
704.90296698127509
  0
LINE
  8
_0-3_躯体と製品
  6
CONTINUOUS
 62
    7
 10
849.38545100720921
 20
704.90296698127509
 11
845.62045100719479
 21
704.90296698127509
  0
LINE
  8
_0-3_躯体と製品
  6
CONTINUOUS
 62
    7
 10
845.62045100719479
 20
704.90296698127509
 11
845.55919992118288
 21
704.60296698125694
  0
LINE
  8
_0-3_躯体と製品
  6
CONTINUOUS
 62
    7
 10
851.13545100720921
 20
691.75720298125793
 11
850.58545100720903
 21
691.43966298125792
  0
LINE
  8
_0-3_躯体と製品
  6
CONTINUOUS
 62
    7
 10
848.18545100720894
 20
691.36919298125508
 11
850.58545100720903
 21
692.07474798125509
  0
LINE
  8
_0-3_躯体と製品
  6
CONTINUOUS
 62
    7
 10
847.63545100720921
 20
691.05164798125497
 11
848.18545100720894
 21
691.36919298125508
  0
LINE
  8
_0-3_躯体と製品
  6
CONTINUOUS
 62
    7
 10
848.18545100720894
 20
691.36919298125508
 11
848.18545100720894
 21
692.14521798125611
  0
LINE
  8
_0-3_躯体と製品
  6
CONTINUOUS
 62
    7
 10
850.58545100720903
 20
689.25252298125611
 11
851.13545100720921
 21
688.93498298125701
  0
LINE
  8
_0-3_躯体と製品
  6
CONTINUOUS
 62
    7
 10
849.38545100720921
 20
688.58220298125593
 11
851.13545100720921
 21
688.93498298125701
  0
LINE
  8
_0-3_躯体と製品
  6
CONTINUOUS
 62
    7
 10
851.13545100720921
 20
688.93498298125701
 11
850.58545100720903
 21
688.61743798125804
  0
LINE
  8
_0-3_躯体と製品
  6
CONTINUOUS
 62
    7
 10
850.58545100720903
 20
690.66363798125599
 11
851.13545100720921
 21
690.34609298125702
  0
ARC
  8
_0-3_躯体と製品
  6
CONTINUOUS
 62
    7
 10
853.90975100720789
 20
685.20883198126307
 40
4.5414449999999427
 50
137.05380000001821
 51
175.02121999999059
  0
ARC
  8
_0-3_躯体と製品
  6
CONTINUOUS
 62
    7
 10
849.40425100720904
 20
684.27946698126107
 40
1.3236349999999331
 50
90.813543000016324
 51
157.04087000001931
  0
LINE
  8
_0-3_躯体と製品
  6
CONTINUOUS
 62
    7
 10
850.58545100720903
 20
688.30296698126199
 11
848.18545100720894
 21
688.30296698126199
  0
LINE
  8
_0-3_躯体と製品
  6
CONTINUOUS
 62
    7
 10
848.18545100720894
 20
690.73410798125701
 11
850.58545100720903
 21
691.43966298125792
  0
LINE
  8
_0-3_躯体と製品
  6
CONTINUOUS
 62
    7
 10
850.58545100720903
 20
691.43966298125792
 11
850.58545100720903
 21
690.66363798125599
  0
LINE
  8
_0-3_躯体と製品
  6
CONTINUOUS
 62
    7
 10
850.58545100720903
 20
690.66363798125599
 11
848.18545100720894
 21
689.95807798125611
  0
LINE
  8
_0-3_躯体と製品
  6
CONTINUOUS
 62
    7
 10
848.18545100720894
 20
689.95807798125611
 11
847.63545100720921
 21
689.6405379812561
  0
LINE
  8
_0-3_躯体と製品
  6
CONTINUOUS
 62
    7
 10
850.58545100720903
 20
690.02854798125509
 11
851.13545100720921
 21
690.34609298125702
  0
LINE
  8
_0-3_躯体と製品
  6
CONTINUOUS
 62
    7
 10
851.13545100720921
 20
690.34609298125702
 11
847.63545100720921
 21
689.6405379812561
  0
LINE
  8
_0-3_躯体と製品
  6
CONTINUOUS
 62
    7
 10
847.63545100720921
 20
689.6405379812561
 11
848.18545100720894
 21
689.32299298125599
  0
LINE
  8
_0-3_躯体と製品
  6
CONTINUOUS
 62
    7
 10
848.18545100720894
 20
689.32299298125599
 11
850.58545100720903
 21
690.02854798125509
  0
LINE
  8
_0-3_躯体と製品
  6
CONTINUOUS
 62
    7
 10
850.58545100720903
 20
690.02854798125509
 11
850.58545100720903
 21
689.25252298125611
  0
LINE
  8
_0-3_躯体と製品
  6
CONTINUOUS
 62
    7
 10
850.58545100720903
 20
689.25252298125611
 11
849.38545100720921
 21
688.58220298125593
  0
LINE
  8
_0-3_躯体と製品
  6
CONTINUOUS
 62
    7
 10
849.38545100720921
 20
688.58220298125593
 11
850.58545100720903
 21
688.61743798125804
  0
LINE
  8
_0-3_躯体と製品
  6
CONTINUOUS
 62
    7
 10
850.58545100720903
 20
688.61743798125804
 11
850.58545100720903
 21
684.79578698126193
  0
LINE
  8
_0-3_躯体と製品
  6
CONTINUOUS
 62
    7
 10
850.58545100720903
 20
684.79578698126193
 11
849.38545100720921
 21
684.10296698126399
  0
LINE
  8
_0-3_躯体と製品
  6
CONTINUOUS
 62
    7
 10
849.38545100720921
 20
685.63015198126413
 11
849.38545100720921
 21
684.10296698126399
  0
LINE
  8
_0-3_躯体と製品
  6
CONTINUOUS
 62
    7
 10
849.38545100720921
 20
684.10296698126399
 11
848.18545100720894
 21
684.79578698126193
  0
LINE
  8
_0-3_躯体と製品
  6
CONTINUOUS
 62
    7
 10
848.18545100720894
 20
684.79578698126193
 11
848.18545100720894
 21
690.73410798125701
  0
LINE
  8
_0-3_躯体と製品
  6
CONTINUOUS
 62
    7
 10
848.18545100720894
 20
690.73410798125701
 11
847.63545100720921
 21
691.05164798125497
  0
LINE
  8
_0-3_躯体と製品
  6
CONTINUOUS
 62
    7
 10
847.63545100720921
 20
691.05164798125497
 11
851.13545100720921
 21
691.75720298125793
  0
LINE
  8
_0-3_躯体と製品
  6
CONTINUOUS
 62
    7
 10
851.13545100720921
 20
691.75720298125793
 11
850.58545100720903
 21
692.07474798125509
  0
LINE
  8
_0-3_躯体と製品
  6
CONTINUOUS
 62
    7
 10
850.58545100720903
 20
692.07474798125509
 11
850.58545100720903
 21
692.85077298125498
  0
LINE
  8
_0-3_躯体と製品
  6
CONTINUOUS
 62
    4
 10
783.38545100720921
 20
695.10296698126308
 11
1083.3854510072092
 21
695.10296698126308
  0
LINE
  8
_0-3_躯体と製品
  6
CONTINUOUS
 62
    4
 10
783.38545100720921
 20
723.10296698126308
 11
1083.3854510072092
 21
723.10296698126308
  0
LINE
  8
_0-3_躯体と製品
  6
CONTINUOUS
 62
    7
 10
833.38545100720921
 20
704.60296698125694
 11
883.38545100720921
 21
704.60296698125694
  0
LINE
  8
_0-3_躯体と製品
  6
CONTINUOUS
 62
    7
 10
833.38545100720921
 20
709.60296698125694
 11
855.98545100720912
 21
709.60296698125694
  0
LINE
  8
_0-3_躯体と製品
  6
CONTINUOUS
 62
    7
 10
860.78545100720885
 20
709.60296698125694
 11
883.38545100720921
 21
709.60296698125694
  0
LINE
  8
_0-3_躯体と製品
  6
CONTINUOUS
 62
    7
 10
833.38545100720921
 20
709.90296698125712
 11
856.00427482725081
 21
709.90296698125712
  0
LINE
  8
_0-3_躯体と製品
  6
CONTINUOUS
 62
    7
 10
860.7666271871658
 20
709.90296698125712
 11
883.38545100720921
 21
709.90296698125712
  0
LINE
  8
_0-3_躯体と製品
  6
CONTINUOUS
 62
    7
 10
833.38545100720921
 20
709.30296698125699
 11
856.00427482725081
 21
709.30296698125699
  0
LINE
  8
_0-3_躯体と製品
  6
CONTINUOUS
 62
    7
 10
860.7666271871658
 20
709.30296698125699
 11
883.38545100720921
 21
709.30296698125699
  0
LINE
  8
_0-3_躯体と製品
  6
CONTINUOUS
 62
    7
 10
833.38545100720921
 20
695.10296698125694
 11
883.38545100720921
 21
695.10296698125694
  0
LINE
  8
_0-3_躯体と製品
  6
CONTINUOUS
 62
    7
 10
883.38545100720921
 20
695.10296698125694
 11
883.38545100720921
 21
716.10296698125694
  0
LINE
  8
_0-3_躯体と製品
  6
CONTINUOUS
 62
    7
 10
883.38545100720921
 20
716.10296698125694
 11
833.38545100720921
 21
716.10296698125694
  0
LINE
  8
_0-3_躯体と製品
  6
CONTINUOUS
 62
    7
 10
833.38545100720921
 20
716.10296698125694
 11
833.38545100720921
 21
695.10296698125694
  0
LINE
  8
_0-3_躯体と製品
  6
CONTINUOUS
 62
    7
 10
833.38545100720921
 20
700.90296698125712
 11
883.38545100720921
 21
700.90296698125712
  0
LINE
  8
_0-3_躯体と製品
  6
CONTINUOUS
 62
    7
 10
833.38545100720921
 20
700.60296698125694
 11
883.38545100720921
 21
700.60296698125694
  0
LINE
  8
_0-3_躯体と製品
  6
CONTINUOUS
 62
    7
 10
833.38545100720921
 20
697.10296698125694
 11
883.38545100720921
 21
697.10296698125694
  0
LINE
  8
_0-3_躯体と製品
  6
CONTINUOUS
 62
    4
 10
783.38545100720921
 20
717.60296698126399
 11
1083.3854510072092
 21
717.60296698126399
  0
LINE
  8
_0-3_躯体と製品
  6
CONTINUOUS
 62
    4
 10
783.38545100720921
 20
700.60296698126308
 11
833.38545100720921
 21
700.60296698126308
  0
LINE
  8
_0-3_躯体と製品
  6
CONTINUOUS
 62
    4
 10
883.38545100720921
 20
700.60296698126308
 11
1083.3854510072092
 21
700.60296698126308
  0
LINE
  8
_0-3_躯体と製品
  6
CONTINUOUS
 62
    4
 10
783.38545100720921
 20
697.10296698126399
 11
833.38545100720921
 21
697.10296698126399
  0
LINE
  8
_0-3_躯体と製品
  6
CONTINUOUS
 62
    4
 10
883.38545100720921
 20
697.10296698126399
 11
1083.3854510072092
 21
697.10296698126399
  0
CIRCLE
  8
_0-3_躯体と製品
  6
CONTINUOUS
 62
    7
 10
858.38545100720921
 20
709.60296698125694
 40
2.399999999999999
  0
LINE
  8
_0-3_躯体と製品
  6
CONTINUOUS
 62
    7
 10
851.13545100720921
 20
693.16831298125794
 11
850.58545100720903
 21
692.85077298125793
  0
LINE
  8
_0-3_躯体と製品
  6
CONTINUOUS
 62
    7
 10
848.18545100720894
 20
692.780302981256
 11
850.58545100720903
 21
693.48585798125714
  0
LINE
  8
_0-3_躯体と製品
  6
CONTINUOUS
 62
    7
 10
847.63545100720921
 20
692.46275798125612
 11
848.18545100720894
 21
692.780302981256
  0
LINE
  8
_0-3_躯体と製品
  6
CONTINUOUS
 62
    7
 10
848.18545100720894
 20
692.780302981256
 11
848.18545100720894
 21
693.50296698125203
  0
LINE
  8
_0-3_躯体と製品
  6
CONTINUOUS
 62
    7
 10
848.18545100720894
 20
692.14521798125793
 11
850.58545100720903
 21
692.85077298125793
  0
LINE
  8
_0-3_躯体と製品
  6
CONTINUOUS
 62
    7
 10
848.18545100720894
 20
692.14521798125793
 11
847.63545100720921
 21
692.46275798125612
  0
LINE
  8
_0-3_躯体と製品
  6
CONTINUOUS
 62
    7
 10
847.63545100720921
 20
692.46275798125612
 11
851.13545100720921
 21
693.16831298125794
  0
LINE
  8
_0-3_躯体と製品
  6
CONTINUOUS
 62
    7
 10
851.13545100720921
 20
693.16831298125794
 11
850.58545100720903
 21
693.48585798125714
  0
LINE
  8
_0-3_躯体と製品
  6
CONTINUOUS
 62
    7
 10
850.58545100720903
 20
693.48585798125714
 11
850.58545100720903
 21
693.50296698125203
  0
LINE
  8
_0-5_中心線
  6
CENTER1
 62
    7
 10
867.38545100720921
 20
683.132236979455
 11
867.38545100720921
 21
707.44106909357492
  0
ARC
  8
_0-3_躯体と製品
  6
CONTINUOUS
 62
    7
 10
866.83845100723738
 20
701.31496698125989
 40
4.8189999999963842
 50
83.482557999930592
 51
131.88824500091275
  0
ARC
  8
_0-3_躯体と製品
  6
CONTINUOUS
 62
    7
 10
867.93245100719059
 20
701.31496698125306
 40
4.8190000000172581
 50
48.111749000583096
 51
96.51743699885229
  0
LINE
  8
_0-3_躯体と製品
  6
CONTINUOUS
 62
    7
 10
871.2117020932119
 20
704.60296698125694
 11
871.15045100719317
 21
704.90296698127509
  0
LINE
  8
_0-3_躯体と製品
  6
CONTINUOUS
 62
    7
 10
871.15045100719317
 20
704.90296698127509
 11
867.38545100720785
 21
704.90296698127509
  0
LINE
  8
_0-3_躯体と製品
  6
CONTINUOUS
 62
    7
 10
867.38545100720785
 20
704.90296698127509
 11
863.62045100719388
 21
704.90296698127509
  0
LINE
  8
_0-3_躯体と製品
  6
CONTINUOUS
 62
    7
 10
863.62045100719388
 20
704.90296698127509
 11
863.55919992118288
 21
704.60296698125694
  0
LINE
  8
_0-3_躯体と製品
  6
CONTINUOUS
 62
    7
 10
869.13545100720921
 20
691.75720298125793
 11
868.58545100720903
 21
691.43966298125792
  0
LINE
  8
_0-3_躯体と製品
  6
CONTINUOUS
 62
    7
 10
866.18545100720894
 20
691.36919298125508
 11
868.58545100720903
 21
692.07474798125509
  0
LINE
  8
_0-3_躯体と製品
  6
CONTINUOUS
 62
    7
 10
865.63545100720785
 20
691.05164798125497
 11
866.18545100720894
 21
691.36919298125508
  0
LINE
  8
_0-3_躯体と製品
  6
CONTINUOUS
 62
    7
 10
866.18545100720894
 20
691.36919298125508
 11
866.18545100720894
 21
692.14521798125611
  0
LINE
  8
_0-3_躯体と製品
  6
CONTINUOUS
 62
    7
 10
868.58545100720903
 20
689.25252298125611
 11
869.13545100720921
 21
688.93498298125701
  0
LINE
  8
_0-3_躯体と製品
  6
CONTINUOUS
 62
    7
 10
867.38545100720921
 20
688.58220298125593
 11
869.13545100720921
 21
688.93498298125701
  0
LINE
  8
_0-3_躯体と製品
  6
CONTINUOUS
 62
    7
 10
869.13545100720921
 20
688.93498298125701
 11
868.58545100720903
 21
688.61743798125804
  0
LINE
  8
_0-3_躯体と製品
  6
CONTINUOUS
 62
    7
 10
868.58545100720903
 20
690.66363798125599
 11
869.13545100720921
 21
690.34609298125702
  0
ARC
  8
_0-3_躯体と製品
  6
CONTINUOUS
 62
    7
 10
871.90975100720789
 20
685.20883198126307
 40
4.5414449999999427
 50
137.05380000001821
 51
175.02121999999059
  0
ARC
  8
_0-3_躯体と製品
  6
CONTINUOUS
 62
    7
 10
867.40425100720813
 20
684.27946698126107
 40
1.3236349999999331
 50
90.813543000016324
 51
157.04087000001931
  0
LINE
  8
_0-3_躯体と製品
  6
CONTINUOUS
 62
    7
 10
868.58545100720903
 20
688.30296698126199
 11
866.18545100720894
 21
688.30296698126199
  0
LINE
  8
_0-3_躯体と製品
  6
CONTINUOUS
 62
    7
 10
866.18545100720894
 20
690.73410798125701
 11
868.58545100720903
 21
691.43966298125792
  0
LINE
  8
_0-3_躯体と製品
  6
CONTINUOUS
 62
    7
 10
868.58545100720903
 20
691.43966298125792
 11
868.58545100720903
 21
690.66363798125599
  0
LINE
  8
_0-3_躯体と製品
  6
CONTINUOUS
 62
    7
 10
868.58545100720903
 20
690.66363798125599
 11
866.18545100720894
 21
689.95807798125611
  0
LINE
  8
_0-3_躯体と製品
  6
CONTINUOUS
 62
    7
 10
866.18545100720894
 20
689.95807798125611
 11
865.63545100720785
 21
689.6405379812561
  0
LINE
  8
_0-3_躯体と製品
  6
CONTINUOUS
 62
    7
 10
868.58545100720903
 20
690.02854798125509
 11
869.13545100720921
 21
690.34609298125702
  0
LINE
  8
_0-3_躯体と製品
  6
CONTINUOUS
 62
    7
 10
869.13545100720921
 20
690.34609298125702
 11
865.63545100720785
 21
689.6405379812561
  0
LINE
  8
_0-3_躯体と製品
  6
CONTINUOUS
 62
    7
 10
865.63545100720785
 20
689.6405379812561
 11
866.18545100720894
 21
689.32299298125599
  0
LINE
  8
_0-3_躯体と製品
  6
CONTINUOUS
 62
    7
 10
866.18545100720894
 20
689.32299298125599
 11
868.58545100720903
 21
690.02854798125509
  0
LINE
  8
_0-3_躯体と製品
  6
CONTINUOUS
 62
    7
 10
868.58545100720903
 20
690.02854798125509
 11
868.58545100720903
 21
689.25252298125611
  0
LINE
  8
_0-3_躯体と製品
  6
CONTINUOUS
 62
    7
 10
868.58545100720903
 20
689.25252298125611
 11
867.38545100720921
 21
688.58220298125593
  0
LINE
  8
_0-3_躯体と製品
  6
CONTINUOUS
 62
    7
 10
867.38545100720921
 20
688.58220298125593
 11
868.58545100720903
 21
688.61743798125804
  0
LINE
  8
_0-3_躯体と製品
  6
CONTINUOUS
 62
    7
 10
868.58545100720903
 20
688.61743798125804
 11
868.58545100720903
 21
684.79578698126193
  0
LINE
  8
_0-3_躯体と製品
  6
CONTINUOUS
 62
    7
 10
868.58545100720903
 20
684.79578698126193
 11
867.38545100720921
 21
684.10296698126399
  0
LINE
  8
_0-3_躯体と製品
  6
CONTINUOUS
 62
    7
 10
867.38545100720921
 20
685.63015198126413
 11
867.38545100720921
 21
684.10296698126399
  0
LINE
  8
_0-3_躯体と製品
  6
CONTINUOUS
 62
    7
 10
867.38545100720921
 20
684.10296698126399
 11
866.18545100720894
 21
684.79578698126193
  0
LINE
  8
_0-3_躯体と製品
  6
CONTINUOUS
 62
    7
 10
866.18545100720894
 20
684.79578698126193
 11
866.18545100720894
 21
690.73410798125701
  0
LINE
  8
_0-3_躯体と製品
  6
CONTINUOUS
 62
    7
 10
866.18545100720894
 20
690.73410798125701
 11
865.63545100720785
 21
691.05164798125497
  0
LINE
  8
_0-3_躯体と製品
  6
CONTINUOUS
 62
    7
 10
865.63545100720785
 20
691.05164798125497
 11
869.13545100720921
 21
691.75720298125793
  0
LINE
  8
_0-3_躯体と製品
  6
CONTINUOUS
 62
    7
 10
869.13545100720921
 20
691.75720298125793
 11
868.58545100720903
 21
692.07474798125509
  0
LINE
  8
_0-3_躯体と製品
  6
CONTINUOUS
 62
    7
 10
868.58545100720903
 20
692.07474798125509
 11
868.58545100720903
 21
692.85077298125498
  0
LINE
  8
_0-3_躯体と製品
  6
CONTINUOUS
 62
    7
 10
869.13545100720921
 20
693.16831298125794
 11
868.58545100720903
 21
692.85077298125793
  0
LINE
  8
_0-3_躯体と製品
  6
CONTINUOUS
 62
    7
 10
866.18545100720894
 20
692.780302981256
 11
868.58545100720903
 21
693.48585798125714
  0
LINE
  8
_0-3_躯体と製品
  6
CONTINUOUS
 62
    7
 10
865.63545100720785
 20
692.46275798125612
 11
866.18545100720894
 21
692.780302981256
  0
LINE
  8
_0-3_躯体と製品
  6
CONTINUOUS
 62
    7
 10
866.18545100720894
 20
692.780302981256
 11
866.18545100720894
 21
693.50296698125203
  0
LINE
  8
_0-3_躯体と製品
  6
CONTINUOUS
 62
    7
 10
866.18545100720894
 20
692.14521798125793
 11
868.58545100720903
 21
692.85077298125793
  0
LINE
  8
_0-3_躯体と製品
  6
CONTINUOUS
 62
    7
 10
866.18545100720894
 20
692.14521798125793
 11
865.63545100720785
 21
692.46275798125612
  0
LINE
  8
_0-3_躯体と製品
  6
CONTINUOUS
 62
    7
 10
865.63545100720785
 20
692.46275798125612
 11
869.13545100720921
 21
693.16831298125794
  0
LINE
  8
_0-3_躯体と製品
  6
CONTINUOUS
 62
    7
 10
869.13545100720921
 20
693.16831298125794
 11
868.58545100720903
 21
693.48585798125714
  0
LINE
  8
_0-3_躯体と製品
  6
CONTINUOUS
 62
    7
 10
868.58545100720903
 20
693.48585798125714
 11
868.58545100720903
 21
693.50296698125203
  0
LINE
  8
_0-3_躯体と製品
  6
CONTINUOUS
 62
    3
 10
913.38545100720921
 20
614.70296698126208
 11
783.38545100720921
 21
614.70296698126208
  0
LINE
  8
_0-3_躯体と製品
  6
CONTINUOUS
 62
    3
 10
953.38545100720921
 20
613.10296698126308
 11
1083.3854510072092
 21
613.10296698126399
  0
LINE
  8
_0-3_躯体と製品
  6
CONTINUOUS
 62
    7
 10
281.09875731422608
 20
660.10296698126194
 11
321.09875731422699
 21
660.10296698126194
  0
LINE
  8
_0-3_躯体と製品
  6
CONTINUOUS
 62
    7
 10
321.09875731422699
 20
660.10296698126194
 11
321.09875731422699
 21
653.10296698126194
  0
LINE
  8
_0-3_躯体と製品
  6
CONTINUOUS
 62
    7
 10
321.09875731422699
 20
653.10296698126194
 11
281.09875731422608
 21
653.10296698126194
  0
LINE
  8
_0-3_躯体と製品
  6
CONTINUOUS
 62
    7
 10
281.09875731422608
 20
653.10296698126194
 11
281.09875731422608
 21
660.10296698126194
  0
LINE
  8
_0-3_躯体と製品
  6
CONTINUOUS
 62
    3
 10
281.09875731422608
 20
656.70296698125594
 11
137.67022031061015
 21
656.70296698125594
  0
LINE
  8
_0-3_躯体と製品
  6
CONTINUOUS
 62
    3
 10
321.09875731422699
 20
655.10296698125694
 11
437.67022031061015
 21
655.10296698125694
  0
LINE
  8
_0-5_中心線
  6
CENTER1
 62
    7
 10
228.09872414505617
 20
684.10296698126399
 11
228.09872414505617
 21
707.44106909358106
  0
LINE
  8
_0-5_中心線
  6
CENTER1
 62
    7
 10
394.09877348088094
 20
684.10296503884501
 11
394.09877348088094
 21
707.441067151163
  0
LINE
  8
_0-0_0
  6
CONTINUOUS
 62
    7
 10
838.38545100721103
 20
664.12095904252101
 11
830.45757518130085
 21
677.85244276909498
  0
LINE
  8
_0-0_0
  6
CONTINUOUS
 62
    7
 10
830.45757518130085
 20
677.85244276909498
 11
790.23828839672296
 21
677.85244276909498
  0
LINE
  8
_0-3_躯体と製品
  6
CONTINUOUS
 62
    4
 10
293.30783741428604
 20
532.40296511523707
 11
308.88967721416702
 21
532.40296511523707
  0
ARC
  8
_0-3_躯体と製品
  6
CONTINUOUS
 62
    4
 10
301.09875731422699
 20
518.41442447361692
 40
13.988540641619799
 50
68.204179552453951
 51
111.79582044754601
  0
LINE
  8
_0-3_躯体と製品
  6
CONTINUOUS
 62
    4
 10
295.9048107142662
 20
532.40296511523707
 11
293.30783741428604
 21
532.40296511523707
  0
ARC
  8
_0-3_躯体と製品
  6
CONTINUOUS
 62
    4
 10
293.30783741428604
 20
528.53082995483305
 40
3.8721351604048402
 50
47.880237441640077
 51
132.11976255835989
  0
ARC
  8
_0-3_躯体と製品
  6
CONTINUOUS
 62
    4
 10
308.88967721416702
 20
528.53082995483305
 40
3.8721351604048402
 50
47.880237441640077
 51
132.11976255835989
  0
LINE
  8
_0-3_躯体と製品
  6
CONTINUOUS
 62
    4
 10
290.71086411430588
 20
531.40296511523707
 11
290.71086411430588
 21
526.40296511523707
  0
LINE
  8
_0-3_躯体と製品
  6
CONTINUOUS
 62
    4
 10
311.48665051414719
 20
531.40296511523707
 11
311.48665051414719
 21
526.40296511523707
  0
LINE
  8
_0-3_躯体と製品
  6
CONTINUOUS
 62
    4
 10
306.29270391418504
 20
526.40296511523707
 11
306.29270391419004
 21
531.40296511524002
  0
LINE
  8
_0-3_躯体と製品
  6
CONTINUOUS
 62
    4
 10
295.9048107142612
 20
526.40296511523911
 11
295.9048107142662
 21
531.40296511523502
  0
ARC
  8
_0-3_躯体と製品
  6
CONTINUOUS
 62
    4
 10
301.09875731422699
 20
539.39150575685699
 40
13.988540641619799
 50
248.20417955245398
 51
291.79582044754602
  0
ARC
  8
_0-3_躯体と製品
  6
CONTINUOUS
 62
    4
 10
293.30783741428604
 20
529.27510027564199
 40
3.8721351604048402
 50
227.88023744164011
 51
312.11976255835992
  0
ARC
  8
_0-3_躯体と製品
  6
CONTINUOUS
 62
    4
 10
308.88967721416702
 20
529.27510027564199
 40
3.8721351604048402
 50
227.88023744164011
 51
312.11976255835992
  0
LINE
  8
_0-3_躯体と製品
  6
CONTINUOUS
 62
    4
 10
290.34875831422596
 20
523.10296511523711
 11
311.84875531422722
 21
523.10296511523711
  0
LINE
  8
_0-3_躯体と製品
  6
CONTINUOUS
 62
    4
 10
311.84875531422722
 20
523.10296511523711
 11
311.84875531422722
 21
525.40296511523707
  0
LINE
  8
_0-3_躯体と製品
  6
CONTINUOUS
 62
    4
 10
311.84875531422722
 20
525.40296511523707
 11
290.34875831422596
 21
525.40296511523707
  0
LINE
  8
_0-3_躯体と製品
  6
CONTINUOUS
 62
    4
 10
290.34875831422596
 20
525.40296511523707
 11
290.34875831422596
 21
523.10296511523711
  0
LINE
  8
_0-3_躯体と製品
  6
CONTINUOUS
 62
    4
 10
301.09875731422699
 20
523.10296511523711
 11
299.77085119509002
 21
525.40296511523707
  0
LINE
  8
_0-3_躯体と製品
  6
CONTINUOUS
 62
    4
 10
302.42666293336379
 20
523.10296511523711
 11
301.09875731422699
 21
525.40296511523707
  0
LINE
  8
_0-3_躯体と製品
  6
CONTINUOUS
 62
    4
 10
290.71086411430588
 20
513.10296511523711
 11
290.71086411430588
 21
522.10296511523802
  0
LINE
  8
_0-3_躯体と製品
  6
CONTINUOUS
 62
    4
 10
311.48665051414719
 20
513.10296511523711
 11
311.48665051414719
 21
522.10296511523711
  0
ARC
  8
_0-3_躯体と製品
  6
CONTINUOUS
 62
    4
 10
301.09875731422699
 20
509.11442447361696
 40
13.988540641619799
 50
68.204179552453951
 51
111.79582044754601
  0
ARC
  8
_0-3_躯体と製品
  6
CONTINUOUS
 62
    4
 10
293.30783741428604
 20
519.2308299548331
 40
3.8721351604048402
 50
47.880237441640048
 51
132.11976255835992
  0
ARC
  8
_0-3_躯体と製品
  6
CONTINUOUS
 62
    4
 10
308.88967721416702
 20
519.2308299548331
 40
3.8721351604048402
 50
47.880237441640048
 51
132.11976255835992
  0
LINE
  8
_0-3_躯体と製品
  6
CONTINUOUS
 62
    4
 10
306.29270391416685
 20
513.10296511523711
 11
306.29270391419004
 21
522.10296511524007
  0
LINE
  8
_0-3_躯体と製品
  6
CONTINUOUS
 62
    4
 10
295.90481071424301
 20
513.10296511523711
 11
295.9048107142662
 21
522.10296511523597
  0
LINE
  8
_0-3_躯体と製品
  6
CONTINUOUS
 62
    4
 10
293.30783741428604
 20
113.80296698126313
 11
308.88967721416702
 21
113.80296698126313
  0
ARC
  8
_0-3_躯体と製品
  6
CONTINUOUS
 62
    4
 10
301.09875731422699
 20
127.79150762288305
 40
13.988540641619799
 50
248.20417955245057
 51
291.79582044754937
  0
LINE
  8
_0-3_躯体と製品
  6
CONTINUOUS
 62
    4
 10
295.9048107142662
 20
113.80296698126313
 11
293.30783741428604
 21
113.80296698126313
  0
ARC
  8
_0-3_躯体と製品
  6
CONTINUOUS
 62
    4
 10
293.30783741428604
 20
117.67510214166805
 40
3.8721351604048402
 50
227.88023744164803
 51
312.11976255835202
  0
ARC
  8
_0-3_躯体と製品
  6
CONTINUOUS
 62
    4
 10
308.88967721416702
 20
117.67510214166805
 40
3.8721351604048402
 50
227.88023744164803
 51
312.11976255835202
  0
LINE
  8
_0-3_躯体と製品
  6
CONTINUOUS
 62
    4
 10
290.71086411430588
 20
114.80296698126313
 11
290.71086411430588
 21
119.80296698126313
  0
LINE
  8
_0-3_躯体と製品
  6
CONTINUOUS
 62
    4
 10
311.48665051414719
 20
114.80296698126313
 11
311.48665051414719
 21
119.80296698126313
  0
LINE
  8
_0-3_躯体と製品
  6
CONTINUOUS
 62
    4
 10
306.29270391418504
 20
119.80296698126403
 11
306.29270391419004
 21
114.80296698126108
  0
LINE
  8
_0-3_躯体と製品
  6
CONTINUOUS
 62
    4
 10
295.9048107142612
 20
119.80296698126108
 11
295.9048107142662
 21
114.80296698126494
  0
ARC
  8
_0-3_躯体と製品
  6
CONTINUOUS
 62
    4
 10
301.09875731422699
 20
106.81442633964298
 40
13.988540641619799
 50
68.204179552450654
 51
111.79582044754939
  0
ARC
  8
_0-3_躯体と製品
  6
CONTINUOUS
 62
    4
 10
293.30783741428604
 20
116.93083182085911
 40
3.8721351604048402
 50
47.880237441647992
 51
132.11976255835191
  0
ARC
  8
_0-3_躯体と製品
  6
CONTINUOUS
 62
    4
 10
308.88967721416702
 20
116.93083182085911
 40
3.8721351604048402
 50
47.880237441647992
 51
132.11976255835191
  0
LINE
  8
_0-3_躯体と製品
  6
CONTINUOUS
 62
    4
 10
290.34875831422596
 20
123.10296698126308
 11
311.84875531422722
 21
123.10296698126308
  0
LINE
  8
_0-3_躯体と製品
  6
CONTINUOUS
 62
    4
 10
311.84875531422722
 20
123.10296698126308
 11
311.84875531422722
 21
120.80296698126313
  0
LINE
  8
_0-3_躯体と製品
  6
CONTINUOUS
 62
    4
 10
311.84875531422722
 20
120.80296698126313
 11
290.34875831422596
 21
120.80296698126313
  0
LINE
  8
_0-3_躯体と製品
  6
CONTINUOUS
 62
    4
 10
290.34875831422596
 20
120.80296698126313
 11
290.34875831422596
 21
123.10296698126308
  0
LINE
  8
_0-3_躯体と製品
  6
CONTINUOUS
 62
    4
 10
301.09875731422699
 20
123.10296698126308
 11
299.77085119509002
 21
120.80296698126313
  0
LINE
  8
_0-3_躯体と製品
  6
CONTINUOUS
 62
    4
 10
302.42666293336379
 20
123.10296698126308
 11
301.09875731422699
 21
120.80296698126313
  0
LINE
  8
_0-3_躯体と製品
  6
CONTINUOUS
 62
    4
 10
290.71086411430588
 20
133.10296698126308
 11
290.71086411430588
 21
124.10296698126308
  0
LINE
  8
_0-3_躯体と製品
  6
CONTINUOUS
 62
    4
 10
311.48665051414719
 20
133.10296698126308
 11
311.48665051414719
 21
124.10296698126308
  0
ARC
  8
_0-3_躯体と製品
  6
CONTINUOUS
 62
    4
 10
301.09875731422699
 20
137.091507622883
 40
13.988540641619799
 50
248.20417955245057
 51
291.79582044754937
  0
ARC
  8
_0-3_躯体と製品
  6
CONTINUOUS
 62
    4
 10
293.30783741428604
 20
126.975102141668
 40
3.8721351604048402
 50
227.88023744164803
 51
312.11976255835202
  0
ARC
  8
_0-3_躯体と製品
  6
CONTINUOUS
 62
    4
 10
308.88967721416702
 20
126.975102141668
 40
3.8721351604048402
 50
227.88023744164803
 51
312.11976255835202
  0
LINE
  8
_0-3_躯体と製品
  6
CONTINUOUS
 62
    4
 10
306.29270391416685
 20
133.10296698126308
 11
306.29270391419004
 21
124.10296698126103
  0
LINE
  8
_0-3_躯体と製品
  6
CONTINUOUS
 62
    4
 10
295.90481071424301
 20
133.10296698126308
 11
295.9048107142662
 21
124.10296698126513
  0
LINE
  8
_0-3_躯体と製品
  6
CONTINUOUS
 62
    7
 10
307.09875731422699
 20
76.10296698126308
 11
307.09875731422699
 21
113.80296698126313
  0
LINE
  8
_0-3_躯体と製品
  6
CONTINUOUS
 62
    7
 10
305.59875731422699
 20
76.10296698126308
 11
305.59875731422699
 21
113.80296698126313
  0
LINE
  8
_0-3_躯体と製品
  6
CONTINUOUS
 62
    7
 10
296.59875731422699
 20
76.10296698126308
 11
296.59875731422699
 21
113.80296698126313
  0
LINE
  8
_0-3_躯体と製品
  6
CONTINUOUS
 62
    7
 10
295.09875731422699
 20
76.10296698126308
 11
295.09875731422699
 21
113.80296698126313
  0
LINE
  8
_0-3_躯体と製品
  6
CONTINUOUS
 62
    7
 10
316.09875731422699
 20
73.10296698126308
 11
286.09875731422608
 21
73.10296698126308
  0
LINE
  8
_0-3_躯体と製品
  6
CONTINUOUS
 62
    7
 10
286.09875731422608
 20
73.10296698126308
 11
286.09875731422608
 21
76.10296698126308
  0
LINE
  8
_0-3_躯体と製品
  6
CONTINUOUS
 62
    7
 10
286.09875731422608
 20
76.10296698126308
 11
316.09875731422699
 21
76.10296698126308
  0
LINE
  8
_0-3_躯体と製品
  6
CONTINUOUS
 62
    7
 10
316.09875731422699
 20
76.10296698126308
 11
316.09875731422699
 21
73.10296698126308
  0
LINE
  8
_0-3_躯体と製品
  6
PLINE2
 62
    7
 10
305.59875731422699
 20
38.102966981263535
 11
305.59875731422699
 21
73.10296698126308
  0
LINE
  8
_0-3_躯体と製品
  6
PLINE2
 62
    7
 10
307.09875731422699
 20
39.602966981263421
 11
307.09875731422699
 21
73.10296698126308
  0
LINE
  8
_0-3_躯体と製品
  6
PLINE2
 62
    7
 10
295.09875731422699
 20
39.602966981263421
 11
295.09875731422699
 21
73.10296698126308
  0
LINE
  8
_0-3_躯体と製品
  6
PLINE2
 62
    7
 10
296.59875731422699
 20
38.102966981263535
 11
296.59875731422699
 21
73.10296698126308
  0
LINE
  8
_0-3_躯体と製品
  6
PLINE2
 62
    7
 10
305.59875731422699
 20
38.102966981263535
 11
307.09875731422699
 21
39.602966981263421
  0
LINE
  8
_0-3_躯体と製品
  6
PLINE2
 62
    7
 10
307.09875731422699
 20
39.602966981263421
 11
295.09875731422699
 21
39.602966981263421
  0
LINE
  8
_0-3_躯体と製品
  6
PLINE2
 62
    7
 10
295.09875731422699
 20
39.602966981263421
 11
296.59875731422699
 21
38.102966981263535
  0
LINE
  8
_0-3_躯体と製品
  6
PLINE2
 62
    7
 10
296.59875731422699
 20
38.102966981263535
 11
305.59875731422699
 21
38.102966981263535
  0
LINE
  8
_0-3_躯体と製品
  6
PLINE2
 62
    7
 10
294.09875731422699
 20
73.10296698126308
 11
294.09875731422699
 21
37.397966981269178
  0
LINE
  8
_0-3_躯体と製品
  6
PLINE2
 62
    7
 10
294.09875731422699
 20
37.397966981269178
 11
301.09875731422699
 21
33.354966981271104
  0
LINE
  8
_0-3_躯体と製品
  6
PLINE2
 62
    7
 10
301.09875731422699
 20
33.354966981271104
 11
308.09875731422699
 21
37.397966981269178
  0
LINE
  8
_0-3_躯体と製品
  6
PLINE2
 62
    7
 10
308.09875731422699
 20
37.397966981269178
 11
308.09875731422699
 21
73.10296698126308
  0
LINE
  8
_0-4_文字-記号
  6
CONTINUOUS
 62
    7
 10
288.09875731422699
 20
372.81696872356906
 11
258.02489878174993
 21
424.90641968145701
  0
LINE
  8
_0-4_文字-記号
  6
CONTINUOUS
 62
    7
 10
258.02489878174993
 20
424.90641968145701
 11
221.05949329163923
 21
424.90641968145701
  0
TEXT
  8
_0-4_文字-記号
 62
    7
 10
221.05949329163923
 20
428.58481625656395
 40
12
 41
0.8000000000000001
 50
0
  1
支持脚
  0
LINE
  8
_0-3_躯体と製品
  6
CONTINUOUS
 62
    4
 10
933.38545100720921
 20
124.10056953628396
 11
933.38545100720921
 21
133.10296698126308
  0
LINE
  8
_0-3_躯体と製品
  6
CONTINUOUS
 62
    4
 10
942.38545100720921
 20
133.10117896542511
 11
942.38545100720285
 21
124.10235506804406
  0
LINE
  8
_0-3_躯体と製品
  6
CONTINUOUS
 62
    4
 10
924.38545100720921
 20
133.10117896542511
 11
924.38545100720921
 21
124.10715962387098
  0
ARC
  8
_0-3_躯体と製品
  6
CONTINUOUS
 62
    4
 10
928.892491789838
 20
133.71937314237698
 40
10.61640548121791
 50
244.87873572943391
 51
295.03735668435132
  0
ARC
  8
_0-3_躯体と製品
  6
CONTINUOUS
 62
    4
 10
937.88353830388814
 20
133.74247247572794
 40
10.63950570384702
 50
244.99026743095163
 51
295.03246666523472
  0
LINE
  8
_0-3_躯体と製品
  6
CONTINUOUS
 62
    4
 10
922.63545250720881
 20
120.80296404584806
 11
944.13544950720916
 21
120.80296404584806
  0
LINE
  8
_0-3_躯体と製品
  6
CONTINUOUS
 62
    4
 10
944.13544950720916
 20
120.80296404584806
 11
944.13544950720916
 21
123.10296698126308
  0
LINE
  8
_0-3_躯体と製品
  6
CONTINUOUS
 62
    4
 10
922.63545250720881
 20
123.10296698126308
 11
922.63545250720881
 21
120.80296404584806
  0
LINE
  8
_0-3_躯体と製品
  6
CONTINUOUS
 62
    4
 10
933.38545100720921
 20
119.80536149082695
 11
933.38545100720921
 21
114.80296698126494
  0
LINE
  8
_0-3_躯体と製品
  6
CONTINUOUS
 62
    4
 10
942.38545100720921
 20
114.80475499710406
 11
942.38545100720285
 21
119.80357595906708
  0
LINE
  8
_0-3_躯体と製品
  6
CONTINUOUS
 62
    4
 10
924.38545100720921
 20
114.80475499710406
 11
924.38545100720921
 21
119.79877140323993
  0
LINE
  8
_0-3_躯体と製品
  6
CONTINUOUS
 62
    4
 10
928.88736130574307
 20
113.80296698126313
 11
937.8835407086749
 21
113.80296698126313
  0
ARC
  8
_0-3_躯体と製品
  6
CONTINUOUS
 62
    4
 10
928.88736130574398
 20
124.41937246246107
 40
10.61640548119736
 50
244.90931331949582
 51
295.0679209561012
  0
ARC
  8
_0-3_躯体と製品
  6
CONTINUOUS
 62
    4
 10
937.8835407086749
 20
124.41937246246107
 40
10.61640548119736
 50
244.9320790438988
 51
295.09068668050418
  0
ARC
  8
_0-3_躯体と製品
  6
CONTINUOUS
 62
    4
 10
928.89249178983891
 20
110.18655788473393
 40
10.61640548121791
 50
64.962643315648322
 51
115.12126427056469
  0
ARC
  8
_0-3_躯体と製品
  6
CONTINUOUS
 62
    4
 10
937.88353830388905
 20
110.16345855138411
 40
10.63950570384702
 50
64.967533334763004
 51
115.0097325690457
  0
LINE
  8
_0-3_躯体と製品
  6
CONTINUOUS
 62
    4
 10
922.63545250720881
 20
123.10296698126308
 11
944.13544950720916
 21
123.10296698126308
  0
LINE
  8
_0-3_躯体と製品
  6
CONTINUOUS
 62
    7
 10
939.38545100720785
 20
76.10296698126308
 11
939.38545100720785
 21
113.80296698126313
  0
LINE
  8
_0-3_躯体と製品
  6
CONTINUOUS
 62
    7
 10
937.88545100720921
 20
76.10296698126308
 11
937.88545100720921
 21
113.80296698126313
  0
LINE
  8
_0-3_躯体と製品
  6
CONTINUOUS
 62
    7
 10
928.88545100720921
 20
76.10296698126308
 11
928.88545100720921
 21
113.80296698126313
  0
LINE
  8
_0-3_躯体と製品
  6
CONTINUOUS
 62
    7
 10
927.38545100720921
 20
76.10296698126308
 11
927.38545100720921
 21
113.80296698126313
  0
LINE
  8
_0-3_躯体と製品
  6
CONTINUOUS
 62
    7
 10
948.38545100720921
 20
73.10296698126308
 11
918.38545100720921
 21
73.10296698126308
  0
LINE
  8
_0-3_躯体と製品
  6
CONTINUOUS
 62
    7
 10
918.38545100720921
 20
73.10296698126308
 11
918.38545100720921
 21
76.10296698126308
  0
LINE
  8
_0-3_躯体と製品
  6
CONTINUOUS
 62
    7
 10
918.38545100720921
 20
76.10296698126308
 11
948.38545100720921
 21
76.10296698126308
  0
LINE
  8
_0-3_躯体と製品
  6
CONTINUOUS
 62
    7
 10
948.38545100720921
 20
76.10296698126308
 11
948.38545100720921
 21
73.10296698126308
  0
LINE
  8
_0-3_躯体と製品
  6
PLINE2
 62
    7
 10
937.88545100720921
 20
38.102966981263535
 11
937.88545100720921
 21
73.10296698126308
  0
LINE
  8
_0-3_躯体と製品
  6
PLINE2
 62
    7
 10
939.38545100720785
 20
39.602966981263421
 11
939.38545100720785
 21
73.10296698126308
  0
LINE
  8
_0-3_躯体と製品
  6
PLINE2
 62
    7
 10
927.38545100720921
 20
39.602966981263421
 11
927.38545100720921
 21
73.10296698126308
  0
LINE
  8
_0-3_躯体と製品
  6
PLINE2
 62
    7
 10
928.88545100720921
 20
38.102966981263535
 11
928.88545100720921
 21
73.10296698126308
  0
LINE
  8
_0-3_躯体と製品
  6
PLINE2
 62
    7
 10
937.88545100720921
 20
38.102966981263535
 11
939.38545100720785
 21
39.602966981263421
  0
LINE
  8
_0-3_躯体と製品
  6
PLINE2
 62
    7
 10
939.38545100720785
 20
39.602966981263421
 11
927.38545100720921
 21
39.602966981263421
  0
LINE
  8
_0-3_躯体と製品
  6
PLINE2
 62
    7
 10
927.38545100720921
 20
39.602966981263421
 11
928.88545100720921
 21
38.102966981263535
  0
LINE
  8
_0-3_躯体と製品
  6
PLINE2
 62
    7
 10
928.88545100720921
 20
38.102966981263535
 11
937.88545100720921
 21
38.102966981263535
  0
LINE
  8
_0-3_躯体と製品
  6
PLINE2
 62
    7
 10
926.38545100720921
 20
73.10296698126308
 11
926.38545100720921
 21
37.397966981269178
  0
LINE
  8
_0-3_躯体と製品
  6
PLINE2
 62
    7
 10
926.38545100720921
 20
37.397966981269178
 11
933.38545100720921
 21
33.354966981271104
  0
LINE
  8
_0-3_躯体と製品
  6
PLINE2
 62
    7
 10
933.38545100720921
 20
33.354966981271104
 11
940.38545100720921
 21
37.397966981269178
  0
LINE
  8
_0-3_躯体と製品
  6
PLINE2
 62
    7
 10
940.38545100720921
 20
37.397966981269178
 11
940.38545100720921
 21
73.10296698126308
  0
LINE
  8
_0-4_文字-記号
  6
CONTINUOUS
 62
    7
 10
920.38545100720921
 20
372.81696872356906
 11
890.31159247473306
 21
424.90641968145701
  0
LINE
  8
_0-4_文字-記号
  6
CONTINUOUS
 62
    7
 10
890.31159247473306
 20
424.90641968145701
 11
853.34618698462009
 21
424.90641968145701
  0
TEXT
  8
_0-4_文字-記号
 62
    7
 10
853.34618698462009
 20
428.58481625656395
 40
12
 41
0.8000000000000001
 50
0
  1
支持脚
  0
LINE
  8
_0-3_躯体と製品
  6
CONTINUOUS
 62
    4
 10
933.38545100720921
 20
522.10536256021692
 11
933.38545100720921
 21
513.10296511523711
  0
LINE
  8
_0-3_躯体と製品
  6
CONTINUOUS
 62
    4
 10
942.38545100720921
 20
513.104753131076
 11
942.38545100720285
 21
522.10357702845704
  0
LINE
  8
_0-3_躯体と製品
  6
CONTINUOUS
 62
    4
 10
924.38545100720921
 20
513.104753131076
 11
924.38545100720921
 21
522.09877247263012
  0
ARC
  8
_0-3_躯体と製品
  6
CONTINUOUS
 62
    4
 10
928.892491789838
 20
512.48655895412298
 40
10.61640548121791
 50
64.962643315654233
 51
115.12126427057001
  0
ARC
  8
_0-3_躯体と製品
  6
CONTINUOUS
 62
    4
 10
937.88353830388814
 20
512.46345962077294
 40
10.63950570384702
 50
64.967533334762749
 51
115.00973256905139
  0
LINE
  8
_0-3_躯体と製品
  6
CONTINUOUS
 62
    4
 10
922.63545250720881
 20
525.40296805065304
 11
944.13544950720916
 21
525.40296805065304
  0
LINE
  8
_0-3_躯体と製品
  6
CONTINUOUS
 62
    4
 10
944.13544950720916
 20
525.40296805065304
 11
944.13544950720916
 21
523.10296511523711
  0
LINE
  8
_0-3_躯体と製品
  6
CONTINUOUS
 62
    4
 10
922.63545250720881
 20
523.10296511523711
 11
922.63545250720881
 21
525.40296805065304
  0
LINE
  8
_0-3_躯体と製品
  6
CONTINUOUS
 62
    4
 10
933.38545100720921
 20
526.40057060567301
 11
933.38545100720921
 21
531.40296511523502
  0
LINE
  8
_0-3_躯体と製品
  6
CONTINUOUS
 62
    4
 10
942.38545100720921
 20
531.40117709939705
 11
942.38545100720285
 21
526.40235613743312
  0
LINE
  8
_0-3_躯体と製品
  6
CONTINUOUS
 62
    4
 10
924.38545100720921
 20
531.40117709939705
 11
924.38545100720921
 21
526.40716069326004
  0
LINE
  8
_0-3_躯体と製品
  6
CONTINUOUS
 62
    4
 10
928.88736130574307
 20
532.40296511523707
 11
937.8835407086749
 21
532.40296511523707
  0
ARC
  8
_0-3_躯体と製品
  6
CONTINUOUS
 62
    4
 10
928.88736130574398
 20
521.78655963404003
 40
10.61640548119736
 50
64.932079043895115
 51
115.0906866804995
  0
ARC
  8
_0-3_躯体と製品
  6
CONTINUOUS
 62
    4
 10
937.8835407086749
 20
521.78655963404003
 40
10.61640548119736
 50
64.909313319500455
 51
115.0679209561049
  0
ARC
  8
_0-3_躯体と製品
  6
CONTINUOUS
 62
    4
 10
928.89249178983891
 20
536.01937421176603
 40
10.61640548121791
 50
244.8787357294309
 51
295.03735668434598
  0
ARC
  8
_0-3_躯体と製品
  6
CONTINUOUS
 62
    4
 10
937.88353830388905
 20
536.04247354511699
 40
10.63950570384702
 50
244.99026743095038
 51
295.03246666523876
  0
LINE
  8
_0-3_躯体と製品
  6
CONTINUOUS
 62
    4
 10
922.63545250720881
 20
523.10296511523711
 11
944.13544950720916
 21
523.10296511523711
  0
LINE
  8
_0-4_文字-記号
  6
CONTINUOUS
 62
    7
 10
295.09875731422017
 20
563.14865507203695
 11
287.03531715467898
 21
577.11494311215301
  0
LINE
  8
_0-4_文字-記号
  6
CONTINUOUS
 62
    7
 10
287.03531715467898
 20
577.11494311215301
 11
147.87602097981789
 21
577.11494311215301
  0
TEXT
  8
_0-4_文字-記号
 62
    7
 10
149.70824236525414
 20
580.15438489216899
 40
12
 41
0.8000000000000001
 50
0
  1
ＳＵＳ調整ボルト Ｍ１２
  0
TEXT
  8
_0-4_文字-記号
 62
    7
 10
154.46932114002584
 20
830.78875043469611
 40
12
 41
1
 50
0
  1
基本ピッチ：支持脚 ９００×根太鋼 ５００×大引 900（再生木材）
  0
TEXT
  8
_0-4_文字-記号
 62
    7
 10
224.16793783840052
 20
810.06956086005823
 40
12
 41
1
 50
0
  1
支持脚 ９００×根太鋼 ６００×大引 900（天然木材）
  0
ENDSEC
  0
EOF
