  0
SECTION
  2
HEADER
  9
$ACADVER
  1
AC1009
  9
$INSBASE
 10
0
 20
0
 30
0
  9
$EXTMIN
 10
0
 20
0
  9
$EXTMAX
 10
594
 20
420
  9
$LIMMIN
 10
0
 20
0
  9
$LIMMAX
 10
594
 20
420
  9
$LTSCALE
 40
1
  0
ENDSEC
  0
SECTION
  2
TABLES
  0
TABLE
  2
LTYPE
 70
     9
  0
LTYPE
  2
CONTINUOUS
 70
    64
  3
実線
 72
    65
 73
     0
 40
0.0
  0
LTYPE
  2
DASHED1
 70
    64
  3
--  --  --  --  --  --  --  --  
 72
    65
 73
     2
 40
2.5
 49
1.25
 49
-1.25
  0
LTYPE
  2
DASHED2
 70
    64
  3
----    ----    ----    ----    
 72
    65
 73
     2
 40
5.0
 49
2.5
 49
-2.5
  0
LTYPE
  2
DASHED3
 70
    64
  3
------  ------  ------  ------  
 72
    65
 73
     2
 40
5.0
 49
3.75
 49
-1.25
  0
LTYPE
  2
CENTER1
 70
    64
  3
----- - ----- - ----- - ----- - 
 72
    65
 73
     4
 40
10.0
 49
6.25
 49
-1.25
 49
1.25
 49
-1.25
  0
LTYPE
  2
CENTER2
 70
    64
  3
----------  --  ----------  --  
 72
    65
 73
     4
 40
20.0
 49
12.5
 49
-2.5
 49
2.5
 49
-2.5
  0
LTYPE
  2
PHANTOM1
 70
    64
  3
--- - - --- - - --- - - --- - - 
 72
    65
 73
     6
 40
10.0
 49
3.25
 49
-1.25
 49
1.25
 49
-1.25
 49
1.25
 49
-1.25
  0
LTYPE
  2
PHANTOM2
 70
    64
  3
--------  -  -  --------  -  -  
 72
    65
 73
     6
 40
20.0
 49
10.0
 49
-2.5
 49
1.25
 49
-2.5
 49
1.25
 49
-2.5
  0
LTYPE
  2
DOT
 70
    64
  3
-   -   -   -   -   -   -   -   
 72
    65
 73
     2
 40
2.5
 49
0.625
 49
-1.875
  0
LTYPE
  2
DUMMY
 70
    64
  3
ダミー
 72
    65
 73
     0
 40
0.0
  0
LTYPE
  2
RAND1
 70
    64
  3
ランダム線1
 72
    65
 73
     4
 40
10.0
 49
1.0
 49
-2.0
 49
3.0
 49
-4.0
  0
LTYPE
  2
RAND2
 70
    64
  3
ランダム線2
 72
    65
 73
     4
 40
14.0
 49
2.0
 49
-3.0
 49
4.0
 49
-5.0
  0
LTYPE
  2
RAND3
 70
    64
  3
ランダム線3
 72
    65
 73
     4
 40
18.0
 49
3.0
 49
-4.0
 49
5.0
 49
-6.0
  0
LTYPE
  2
RAND4
 70
    64
  3
ランダム線4
 72
    65
 73
     4
 40
22.0
 49
4.0
 49
-5.0
 49
6.0
 49
-7.0
  0
LTYPE
  2
RAND5
 70
    64
  3
ランダム線5
 72
    65
 73
     4
 40
26.0
 49
5.0
 49
-6.0
 49
7.0
 49
-8.0
  0
LTYPE
  2
LONG1
 70
    64
  3
----------  --  ----------  --  
 72
    65
 73
     4
 40
40.0
 49
32.5
 49
-2.5
 49
2.5
 49
-2.5
  0
LTYPE
  2
LONG2
 70
    64
  3
--------  -  -  --------  -  -  
 72
    65
 73
     6
 40
40.0
 49
30.0
 49
-2.5
 49
1.25
 49
-2.5
 49
1.25
 49
-2.5
  0
LTYPE
  2
LONG3
 70
    64
  3
+++++++++++++++..+++++++++++++++
 72
    65
 73
     2
 40
40.0
 49
37.5
 49
-2.5
  0
LTYPE
  2
LONG4
 70
    64
  3
+++++++++++++++..+++++++++++++++
 72
    65
 73
     2
 40
80.0
 49
75.0
 49
-5.0
  0
LTYPE
  2
LONG5
 70
    64
  3
----------  --  ----------  --  
 72
    65
 73
     4
 40
60.0
 49
37.5
 49
-7.5
 49
7.5
 49
-7.5
  0
LTYPE
  2
dashed
 70
   64
  3
-------   -------------   ------
 72
   65
 73
    2
 40
7.5
 49
6
 49
-1.5
  0
LTYPE
  2
dashed_spaced
 70
   64
  3
----        --------        ----
 72
   65
 73
    2
 40
12
 49
6
 49
-6
  0
LTYPE
  2
long_dashed_dotted
 70
   64
  3
------------- --- --------------
 72
   65
 73
    4
 40
15.25
 49
12
 49
-1.5
 49
0.25
 49
-1.5
  0
LTYPE
  2
long_dashed_double-dotted
 70
   64
  3
----------- --- --- ------------
 72
   65
 73
    6
 40
17
 49
12
 49
-1.5
 49
0.25
 49
-1.5
 49
0.25
 49
-1.5
  0
LTYPE
  2
long_dashed_triplicate-dotted
 70
   64
  3
--------- --- --- --- ----------
 72
   65
 73
    8
 40
18.75
 49
12
 49
-1.5
 49
0.25
 49
-1.5
 49
0.25
 49
-1.5
 49
0.25
 49
-1.5
  0
LTYPE
  2
dotted
 70
   64
  3
   -       -       -       -    
 72
   65
 73
    2
 40
1.75
 49
0.25
 49
-1.5
  0
LTYPE
  2
chain
 70
   64
  3
-------------- -- --------------
 72
   65
 73
    4
 40
18.5
 49
12
 49
-1.5
 49
3.5
 49
-1.5
  0
LTYPE
  2
chain_double_dash
 70
   64
  3
------------ -- -- -------------
 72
   65
 73
    6
 40
23.5
 49
12
 49
-1.5
 49
3.5
 49
-1.5
 49
3.5
 49
-1.5
  0
LTYPE
  2
dashed_dotted
 70
   64
  3
-----------     -     ----------
 72
   65
 73
    4
 40
9.25
 49
6
 49
-1.5
 49
0.25
 49
-1.5
  0
LTYPE
  2
double-dashed_dotted
 70
   64
  3
------   -----------   -   -----
 72
   65
 73
    6
 40
16.75
 49
6
 49
-1.5
 49
6
 49
-1.5
 49
0.25
 49
-1.5
  0
LTYPE
  2
dashed_double-dotted
 70
   64
  3
---------    -    -    ---------
 72
   65
 73
    6
 40
11
 49
6
 49
-1.5
 49
0.25
 49
-1.5
 49
0.25
 49
-1.5
  0
LTYPE
  2
double-dashed_double-dotted
 70
   64
  3
-----   ---------   -   -   ----
 72
   65
 73
    8
 40
18.5
 49
6
 49
-1.5
 49
6
 49
-1.5
 49
0.25
 49
-1.5
 49
0.25
 49
-1.5
  0
LTYPE
  2
dashed_triplicate-dotted
 70
   64
  3
-------    -    -    -    ------
 72
   65
 73
    8
 40
12.75
 49
6
 49
-1.5
 49
0.25
 49
-1.5
 49
0.25
 49
-1.5
 49
0.25
 49
-1.5
  0
LTYPE
  2
double-dashed_triplicate-dotted
 70
   64
  3
-----  ---------  -  -  -  -----
 72
   65
 73
   10
 40
20.25
 49
6
 49
-1.5
 49
6
 49
-1.5
 49
0.25
 49
-1.5
 49
0.25
 49
-1.5
 49
0.25
 49
-1.5
  0
LTYPE
  2
undefined
 70
   64
  3
--------------------------------
 72
   65
 73
    0
 40
0
  0
LTYPE
  2
PLINE2
 70
   64
  3
------     -----------     -----
 72
   65
 73
    2
 40
3
 49
2.1000000000000001
 49
-0.9
  0
ENDTAB
  0
TABLE
  2
STYLE
  5
3
100
AcDbSymbolTable
 70
     1
  0
STYLE
  5
10
100
AcDbSymbolTableRecord
100
AcDbTextStyleTableRecord
  2
STANDARD
 70
     0
 40
0.0
 41
1.0
 50
0.0
 71
     0
 42
0.2
  3
txt
  4
bigfont.shx
  0
STYLE
  5
26
100
AcDbSymbolTableRecord
100
AcDbTextStyleTableRecord
  2
TATEGAKI
 70
    68
 40
0.0
 41
1.0
 50
0.0
 71
     0
 42
1.0
  3
txt
  4
bigfont.shx
  0
ENDTAB
  0
TABLE
  2
LAYER
 70
    5
  0
LAYER
  2
_0-2_寸法
 70
   64
 62
    7
  6
CONTINUOUS
  0
LAYER
  2
_0-3_躯体と製品
 70
   64
 62
    7
  6
CONTINUOUS
  0
LAYER
  2
_0-4_文字-記号
 70
   64
 62
    7
  6
CONTINUOUS
  0
LAYER
  2
_0-5_中心線
 70
   64
 62
    7
  6
CONTINUOUS
  0
LAYER
  2
ADD_LINE
 70
   64
 62
    7
  6
CONTINUOUS
  0
ENDTAB
  0
ENDSEC
  0
SECTION
  2
BLOCKS
  0
BLOCK
  2
-000-_Dot
 70
   64
 10
0
 20
0
 30
0
  0
CIRCLE
  8
_0-0_0
  6
CONTINUOUS
 62
    7
 10
0
 20
0
 40
0.25
  0
LINE
  8
_0-0_0
  6
CONTINUOUS
 62
    7
 10
0.25
 20
0
 11
-0.25
 21
0
  0
LINE
  8
_0-0_0
  6
CONTINUOUS
 62
    7
 10
-0.5
 20
0
 11
-1
 21
0
  0
ENDBLK
  0
BLOCK
  2
-001-_D3
 70
   64
 10
0
 20
0
 30
0
  0
LINE
  8
_0-2_寸法
  6
CONTINUOUS
 62
    4
 10
3262.0434261505161
 20
1255.920743118889
 11
3262.0434261505161
 21
1286.7830704892019
  0
LINE
  8
_0-2_寸法
  6
CONTINUOUS
 62
    4
 10
3422.0434261505161
 20
1255.920743118889
 11
3422.0434261505161
 21
1286.7830704892019
  0
LINE
  8
_0-2_寸法
  6
CONTINUOUS
 62
    4
 10
3263.0434261505161
 20
1286.7830704892019
 11
3421.043426150517
 21
1286.7830704892019
  0
INSERT
  2
-000-_Dot
  8
_0-2_寸法
 10
3262.0434261505161
 20
1286.7830704892019
 41
1
 42
1
 50
180
  0
INSERT
  2
-000-_Dot
  8
_0-2_寸法
 10
3422.0434261505161
 20
1286.7830704892019
 41
1
 42
1
 50
0
  0
TEXT
  8
_0-2_寸法
 62
    7
 10
3336.0434261505161
 20
1289.783070489201
 40
8
 41
1
 50
0
  1
160
  0
POINT
  8
_0-1_Defpoints
 62
    7
 10
3262.0434261505161
 20
1255.920743118889
  0
POINT
  8
_0-1_Defpoints
 62
    7
 10
3422.0434261505161
 20
1255.920743118889
  0
POINT
  8
_0-1_Defpoints
 62
    7
 10
3422.0434261505161
 20
1286.7830704892019
  0
ENDBLK
  0
BLOCK
  2
-002-_D4
 70
   64
 10
0
 20
0
 30
0
  0
LINE
  8
_0-2_寸法
  6
CONTINUOUS
 62
    4
 10
3256.043426150517
 20
1255.920743118889
 11
3256.043426150517
 21
1286.7830704892019
  0
LINE
  8
_0-2_寸法
  6
CONTINUOUS
 62
    4
 10
3262.0434261505161
 20
1255.920743118889
 11
3262.0434261505161
 21
1286.7830704892019
  0
LINE
  8
_0-2_寸法
  6
CONTINUOUS
 62
    4
 10
3255.0434261505161
 20
1286.7830704892019
 11
3254.0434261505161
 21
1286.7830704892019
  0
LINE
  8
_0-2_寸法
  6
CONTINUOUS
 62
    4
 10
3263.0434261505161
 20
1286.7830704892019
 11
3264.043426150517
 21
1286.7830704892019
  0
LINE
  8
_0-2_寸法
  6
CONTINUOUS
 62
    4
 10
3256.043426150517
 20
1286.7830704892019
 11
3262.0434261505161
 21
1286.7830704892019
  0
INSERT
  2
-000-_Dot
  8
_0-2_寸法
 10
3256.043426150517
 20
1286.7830704892019
 41
1
 42
1
 50
0
  0
INSERT
  2
-000-_Dot
  8
_0-2_寸法
 10
3262.0434261505161
 20
1286.7830704892019
 41
1
 42
1
 50
180
  0
TEXT
  8
_0-2_寸法
 62
    7
 10
3257.0434261505161
 20
1289.783070489201
 40
8
 41
1
 50
0
  1
6
  0
POINT
  8
_0-1_Defpoints
 62
    7
 10
3256.043426150517
 20
1255.920743118889
  0
POINT
  8
_0-1_Defpoints
 62
    7
 10
3262.0434261505161
 20
1255.920743118889
  0
POINT
  8
_0-1_Defpoints
 62
    7
 10
3262.0434261505161
 20
1286.7830704892019
  0
ENDBLK
  0
BLOCK
  2
-003-_D5
 70
   64
 10
0
 20
0
 30
0
  0
LINE
  8
_0-2_寸法
  6
CONTINUOUS
 62
    4
 10
3422.0434261505161
 20
1255.920743118889
 11
3422.0434261505161
 21
1286.7830704892019
  0
LINE
  8
_0-2_寸法
  6
CONTINUOUS
 62
    4
 10
3428.0434261505161
 20
1255.920743118889
 11
3428.0434261505161
 21
1286.7830704892019
  0
LINE
  8
_0-2_寸法
  6
CONTINUOUS
 62
    4
 10
3421.043426150517
 20
1286.7830704892019
 11
3420.0434261505161
 21
1286.7830704892019
  0
LINE
  8
_0-2_寸法
  6
CONTINUOUS
 62
    4
 10
3429.0434261505161
 20
1286.7830704892019
 11
3430.0434261505161
 21
1286.7830704892019
  0
LINE
  8
_0-2_寸法
  6
CONTINUOUS
 62
    4
 10
3422.0434261505161
 20
1286.7830704892019
 11
3428.0434261505161
 21
1286.7830704892019
  0
INSERT
  2
-000-_Dot
  8
_0-2_寸法
 10
3422.0434261505161
 20
1286.7830704892019
 41
1
 42
1
 50
0
  0
INSERT
  2
-000-_Dot
  8
_0-2_寸法
 10
3428.0434261505161
 20
1286.7830704892019
 41
1
 42
1
 50
180
  0
TEXT
  8
_0-2_寸法
 62
    7
 10
3423.0434261505161
 20
1289.783070489201
 40
8
 41
1
 50
0
  1
6
  0
POINT
  8
_0-1_Defpoints
 62
    7
 10
3422.0434261505161
 20
1255.920743118889
  0
POINT
  8
_0-1_Defpoints
 62
    7
 10
3428.0434261505161
 20
1255.920743118889
  0
POINT
  8
_0-1_Defpoints
 62
    7
 10
3428.0434261505161
 20
1286.7830704892019
  0
ENDBLK
  0
BLOCK
  2
-004-_D6
 70
   64
 10
0
 20
0
 30
0
  0
LINE
  8
_0-2_寸法
  6
CONTINUOUS
 62
    4
 10
3637.3667769916992
 20
1012.222903922917
 11
3736.3667769917001
 21
1012.222903922917
  0
INSERT
  2
-000-_Dot
  8
_0-2_寸法
 10
3737.3667769916992
 20
1012.222903922917
 41
1
 42
1
 50
0
  0
TEXT
  8
_0-2_寸法
 62
    7
 10
3678.8667769917001
 20
1015.222903922917
 40
8
 41
1
 50
0
  1
@500
  0
POINT
  8
_0-1_Defpoints
 62
    7
 10
3637.3667769916992
 20
1012.222903922917
  0
POINT
  8
_0-1_Defpoints
 62
    7
 10
3737.3667769916992
 20
1012.222903922917
  0
POINT
  8
_0-1_Defpoints
 62
    7
 10
3737.3667769916992
 20
1012.222903922917
  0
ENDBLK
  0
BLOCK
  2
-005-_D7
 70
   64
 10
0
 20
0
 30
0
  0
LINE
  8
_0-2_寸法
  6
CONTINUOUS
 62
    4
 10
3738.3667769916992
 20
1012.222903922917
 11
3837.3667769916992
 21
1012.222903922917
  0
INSERT
  2
-000-_Dot
  8
_0-2_寸法
 10
3737.3667769916992
 20
1012.222903922917
 41
1
 42
1
 50
180
  0
TEXT
  8
_0-2_寸法
 62
    7
 10
3779.8667769917001
 20
1015.222903922917
 40
8
 41
1
 50
0
  1
@500
  0
POINT
  8
_0-1_Defpoints
 62
    7
 10
3737.3667769916992
 20
1012.222903922917
  0
POINT
  8
_0-1_Defpoints
 62
    7
 10
3837.3667769916992
 20
1012.222903922917
  0
POINT
  8
_0-1_Defpoints
 62
    7
 10
3837.3667769916992
 20
1012.222903922917
  0
ENDBLK
  0
BLOCK
  2
-006-_D8
 70
   64
 10
0
 20
0
 30
0
  0
LINE
  8
_0-2_寸法
  6
CONTINUOUS
 62
    4
 10
3902.3667769916992
 20
1216.420743118895
 11
3927.1421069916992
 21
1216.420743118895
  0
LINE
  8
_0-2_寸法
  6
CONTINUOUS
 62
    4
 10
3902.3667769916992
 20
1244.420743118895
 11
3927.1421069916992
 21
1244.420743118895
  0
LINE
  8
_0-2_寸法
  6
CONTINUOUS
 62
    4
 10
3927.1421069916992
 20
1217.420743118895
 11
3927.1421069916992
 21
1243.420743118895
  0
INSERT
  2
-000-_Dot
  8
_0-2_寸法
 10
3927.1421069916992
 20
1216.420743118895
 41
1
 42
1
 50
270
  0
INSERT
  2
-000-_Dot
  8
_0-2_寸法
 10
3927.1421069916992
 20
1244.420743118895
 41
1
 42
1
 50
90
  0
TEXT
  8
_0-2_寸法
 62
    7
 10
3924.1421069916978
 20
1226.4207431188961
 40
8
 41
1
 50
90
  1
28
  0
POINT
  8
_0-1_Defpoints
 62
    7
 10
3902.3667769916992
 20
1216.420743118895
  0
POINT
  8
_0-1_Defpoints
 62
    7
 10
3902.3667769916992
 20
1244.420743118895
  0
POINT
  8
_0-1_Defpoints
 62
    7
 10
3927.1421069916992
 20
1244.420743118895
  0
ENDBLK
  0
BLOCK
  2
-007-_D9
 70
   64
 10
0
 20
0
 30
0
  0
LINE
  8
_0-2_寸法
  6
CONTINUOUS
 62
    4
 10
3902.3667769916992
 20
1084.420743118889
 11
3956.1421069916978
 21
1084.420743118889
  0
LINE
  8
_0-2_寸法
  6
CONTINUOUS
 62
    4
 10
3902.3667769916992
 20
1244.420743118895
 11
3956.1421069916978
 21
1244.420743118895
  0
LINE
  8
_0-2_寸法
  6
CONTINUOUS
 62
    4
 10
3956.1421069916978
 20
1085.420743118889
 11
3956.1421069916978
 21
1243.420743118895
  0
INSERT
  2
-000-_Dot
  8
_0-2_寸法
 10
3956.1421069916978
 20
1084.420743118889
 41
1
 42
1
 50
270
  0
INSERT
  2
-000-_Dot
  8
_0-2_寸法
 10
3956.1421069916978
 20
1244.420743118895
 41
1
 42
1
 50
90
  0
TEXT
  8
_0-2_寸法
 62
    7
 10
3953.1421069916978
 20
1150.4207431188929
 40
8
 41
1
 50
90
  1
92～300
  0
POINT
  8
_0-1_Defpoints
 62
    7
 10
3902.3667769916992
 20
1084.420743118889
  0
POINT
  8
_0-1_Defpoints
 62
    7
 10
3902.3667769916992
 20
1244.420743118895
  0
POINT
  8
_0-1_Defpoints
 62
    7
 10
3956.1421069916978
 20
1244.420743118895
  0
ENDBLK
  0
BLOCK
  2
-008-_D10
 70
   64
 10
0
 20
0
 30
0
  0
LINE
  8
_0-2_寸法
  6
CONTINUOUS
 62
    4
 10
3497.5434261505161
 20
1176.420743118889
 11
3515.1552168801959
 21
1176.420743118889
  0
LINE
  8
_0-2_寸法
  6
CONTINUOUS
 62
    4
 10
3497.5434261505161
 20
1216.420743118889
 11
3515.1552168801959
 21
1216.420743118889
  0
LINE
  8
_0-2_寸法
  6
CONTINUOUS
 62
    4
 10
3515.1552168801959
 20
1177.420743118889
 11
3515.1552168801959
 21
1215.420743118889
  0
INSERT
  2
-000-_Dot
  8
_0-2_寸法
 10
3515.1552168801959
 20
1176.420743118889
 41
1
 42
1
 50
270
  0
INSERT
  2
-000-_Dot
  8
_0-2_寸法
 10
3515.1552168801959
 20
1216.420743118889
 41
1
 42
1
 50
90
  0
TEXT
  8
_0-2_寸法
 62
    7
 10
3512.155216880195
 20
1192.42074311889
 40
8
 41
1
 50
90
  1
40
  0
POINT
  8
_0-1_Defpoints
 62
    7
 10
3497.5434261505161
 20
1176.420743118889
  0
POINT
  8
_0-1_Defpoints
 62
    7
 10
3497.5434261505161
 20
1216.420743118889
  0
POINT
  8
_0-1_Defpoints
 62
    7
 10
3515.1552168801959
 20
1216.420743118889
  0
ENDBLK
  0
BLOCK
  2
-009-_D11
 70
   64
 10
0
 20
0
 30
0
  0
LINE
  8
_0-2_寸法
  6
CONTINUOUS
 62
    4
 10
3497.5434261505161
 20
1216.420743118889
 11
3515.1552168801959
 21
1216.420743118889
  0
LINE
  8
_0-2_寸法
  6
CONTINUOUS
 62
    4
 10
3497.5434261505161
 20
1244.420743118895
 11
3515.1552168801959
 21
1244.420743118895
  0
LINE
  8
_0-2_寸法
  6
CONTINUOUS
 62
    4
 10
3515.1552168801959
 20
1217.420743118889
 11
3515.1552168801959
 21
1243.420743118895
  0
INSERT
  2
-000-_Dot
  8
_0-2_寸法
 10
3515.1552168801959
 20
1216.420743118889
 41
1
 42
1
 50
270
  0
INSERT
  2
-000-_Dot
  8
_0-2_寸法
 10
3515.1552168801959
 20
1244.420743118895
 41
1
 42
1
 50
90
  0
TEXT
  8
_0-2_寸法
 62
    7
 10
3512.155216880195
 20
1226.4207431188929
 40
8
 41
1
 50
90
  1
28
  0
POINT
  8
_0-1_Defpoints
 62
    7
 10
3497.5434261505161
 20
1216.420743118889
  0
POINT
  8
_0-1_Defpoints
 62
    7
 10
3497.5434261505161
 20
1244.420743118895
  0
POINT
  8
_0-1_Defpoints
 62
    7
 10
3515.1552168801959
 20
1244.420743118895
  0
ENDBLK
  0
BLOCK
  2
-010-_D12
 70
   64
 10
0
 20
0
 30
0
  0
LINE
  8
_0-2_寸法
  6
CONTINUOUS
 62
    4
 10
3497.0434261505161
 20
1084.417928118889
 11
3543.8623212066359
 21
1084.417928118889
  0
LINE
  8
_0-2_寸法
  6
CONTINUOUS
 62
    4
 10
3497.0434261505161
 20
1244.420743118895
 11
3543.8623212066359
 21
1244.420743118895
  0
LINE
  8
_0-2_寸法
  6
CONTINUOUS
 62
    4
 10
3543.8623212066359
 20
1085.417928118889
 11
3543.8623212066359
 21
1243.420743118895
  0
INSERT
  2
-000-_Dot
  8
_0-2_寸法
 10
3543.8623212066359
 20
1084.417928118889
 41
1
 42
1
 50
270
  0
INSERT
  2
-000-_Dot
  8
_0-2_寸法
 10
3543.8623212066359
 20
1244.420743118895
 41
1
 42
1
 50
90
  0
TEXT
  8
_0-2_寸法
 62
    7
 10
3540.8623212066359
 20
1150.4196808790659
 40
8
 41
1
 50
90
  1
92～300
  0
POINT
  8
_0-1_Defpoints
 62
    7
 10
3497.0434261505161
 20
1084.417928118889
  0
POINT
  8
_0-1_Defpoints
 62
    7
 10
3497.0434261505161
 20
1244.420743118895
  0
POINT
  8
_0-1_Defpoints
 62
    7
 10
3543.8623212066359
 20
1244.420743118895
  0
ENDBLK
  0
BLOCK
  2
-011-_D13
 70
   64
 10
0
 20
0
 30
0
  0
LINE
  8
_0-2_寸法
  6
CONTINUOUS
 62
    4
 10
3429.0434261505161
 20
1286.7830704892019
 11
3492.0434261505161
 21
1286.7830704892019
  0
INSERT
  2
-000-_Dot
  8
_0-2_寸法
 10
3428.0434261505161
 20
1286.7830704892019
 41
1
 42
1
 50
180
  0
TEXT
  8
_0-2_寸法
 62
    7
 10
3454.5434261505161
 20
1289.783070489201
 40
8
 41
1
 50
0
  1
160
  0
POINT
  8
_0-1_Defpoints
 62
    7
 10
3428.0434261505161
 20
1286.7830704892019
  0
POINT
  8
_0-1_Defpoints
 62
    7
 10
3492.0434261505161
 20
1286.7830704892019
  0
POINT
  8
_0-1_Defpoints
 62
    7
 10
3492.0434261505161
 20
1286.7830704892019
  0
ENDBLK
  0
BLOCK
  2
-012-_D14
 70
   64
 10
0
 20
0
 30
0
  0
LINE
  8
_0-2_寸法
  6
CONTINUOUS
 62
    4
 10
3192.0434261505161
 20
1286.7830704892019
 11
3255.0434261505161
 21
1286.7830704892019
  0
INSERT
  2
-000-_Dot
  8
_0-2_寸法
 10
3256.043426150517
 20
1286.7830704892019
 41
1
 42
1
 50
0
  0
TEXT
  8
_0-2_寸法
 62
    7
 10
3217.5434261505161
 20
1289.783070489201
 40
8
 41
1
 50
0
  1
160
  0
POINT
  8
_0-1_Defpoints
 62
    7
 10
3192.0434261505161
 20
1286.7830704892019
  0
POINT
  8
_0-1_Defpoints
 62
    7
 10
3256.043426150517
 20
1286.7830704892019
  0
POINT
  8
_0-1_Defpoints
 62
    7
 10
3256.043426150517
 20
1286.7830704892019
  0
ENDBLK
  0
BLOCK
  2
-013-_D15
 70
   64
 10
0
 20
0
 30
0
  0
LINE
  8
_0-2_寸法
  6
CONTINUOUS
 62
    4
 10
3202.043426150517
 20
1012.22290392292
 11
3331.043426150517
 21
1012.22290392292
  0
INSERT
  2
-000-_Dot
  8
_0-2_寸法
 10
3332.0434261505161
 20
1012.22290392292
 41
1
 42
1
 50
0
  0
TEXT
  8
_0-2_寸法
 62
    7
 10
3258.543426150517
 20
1015.22290392292
 40
8
 41
1
 50
0
  1
@900
  0
POINT
  8
_0-1_Defpoints
 62
    7
 10
3202.043426150517
 20
1012.22290392292
  0
POINT
  8
_0-1_Defpoints
 62
    7
 10
3332.0434261505161
 20
1012.22290392292
  0
POINT
  8
_0-1_Defpoints
 62
    7
 10
3332.0434261505161
 20
1012.22290392292
  0
ENDBLK
  0
BLOCK
  2
-014-_D16
 70
   64
 10
0
 20
0
 30
0
  0
LINE
  8
_0-2_寸法
  6
CONTINUOUS
 62
    4
 10
3333.043426150517
 20
1012.22290392292
 11
3462.043426150517
 21
1012.22290392292
  0
INSERT
  2
-000-_Dot
  8
_0-2_寸法
 10
3332.0434261505161
 20
1012.22290392292
 41
1
 42
1
 50
180
  0
TEXT
  8
_0-2_寸法
 62
    7
 10
3389.5434261505161
 20
1015.22290392292
 40
8
 41
1
 50
0
  1
@900
  0
POINT
  8
_0-1_Defpoints
 62
    7
 10
3332.0434261505161
 20
1012.22290392292
  0
POINT
  8
_0-1_Defpoints
 62
    7
 10
3462.043426150517
 20
1012.22290392292
  0
POINT
  8
_0-1_Defpoints
 62
    7
 10
3462.043426150517
 20
1012.22290392292
  0
ENDBLK
  0
BLOCK
  2
-015-_D17
 70
   64
 10
0
 20
0
 30
0
  0
LINE
  8
_0-2_寸法
  6
CONTINUOUS
 62
    4
 10
3779.3667769916769
 20
1176.420743118895
 11
3927.1421069916978
 21
1176.420743118895
  0
LINE
  8
_0-2_寸法
  6
CONTINUOUS
 62
    4
 10
3902.3667769916992
 20
1216.420743118895
 11
3927.1421069916978
 21
1216.420743118895
  0
LINE
  8
_0-2_寸法
  6
CONTINUOUS
 62
    4
 10
3927.1421069916978
 20
1177.420743118895
 11
3927.1421069916978
 21
1215.420743118895
  0
INSERT
  2
-000-_Dot
  8
_0-2_寸法
 10
3927.1421069916978
 20
1176.420743118895
 41
1
 42
1
 50
270
  0
INSERT
  2
-000-_Dot
  8
_0-2_寸法
 10
3927.1421069916978
 20
1216.420743118895
 41
1
 42
1
 50
90
  0
TEXT
  8
_0-2_寸法
 62
    7
 10
3924.1421069916969
 20
1192.4207431188961
 40
8
 41
1
 50
90
  1
40
  0
POINT
  8
_0-1_Defpoints
 62
    7
 10
3779.3667769916769
 20
1176.420743118895
  0
POINT
  8
_0-1_Defpoints
 62
    7
 10
3902.3667769916992
 20
1216.420743118895
  0
POINT
  8
_0-1_Defpoints
 62
    7
 10
3927.1421069916978
 20
1216.420743118895
  0
ENDBLK
  0
ENDSEC
  0
SECTION
  2
ENTITIES
  0
TEXT
  8
_0-4_文字-記号
 62
    7
 10
-87.510001358856698
 20
388.90549530213093
 40
12
 41
1
 50
0
  1
サニーデッキＳＤ（安全性を考慮した仕様）
  0
TEXT
  8
_0-4_文字-記号
 62
    7
 10
-86.014791849871017
 20
366.97741653002208
 40
12
 41
1
 50
0
  1
標準納まり図
  0
LINE
  8
_0-3_躯体と製品
  6
CONTINUOUS
 62
    7
 10
475.82513027335335
 20
127.70236727981705
 11
445.82513027335335
 21
127.70236727981705
  0
LINE
  8
_0-3_躯体と製品
  6
CONTINUOUS
 62
    7
 10
445.82513027335335
 20
127.70236727981705
 11
445.82513027335335
 21
130.70236727981705
  0
LINE
  8
_0-3_躯体と製品
  6
CONTINUOUS
 62
    7
 10
445.82513027335335
 20
130.70236727981705
 11
475.82513027335335
 21
130.70236727981705
  0
LINE
  8
_0-3_躯体と製品
  6
CONTINUOUS
 62
    7
 10
475.82513027335335
 20
130.70236727981705
 11
475.82513027335335
 21
127.70236727981705
  0
ARC
  8
_0-3_躯体と製品
  6
CONTINUOUS
 62
    7
 10
460.82513027335369
 20
213.55536727982314
 40
18.553000000000175
 50
251.13144099976682
 51
269.61088699992172
  0
ARC
  8
_0-3_躯体と製品
  6
CONTINUOUS
 62
    7
 10
414.07513027334915
 20
214.45236727982126
 40
3.249999999995798
 50
90.000002999934651
 51
180.00000000007415
  0
LINE
  8
_0-3_躯体と製品
  6
CONTINUOUS
 62
    7
 10
410.82513027335335
 20
214.45236727981705
 11
410.82513027335335
 21
206.70236727981705
  0
LINE
  8
_0-3_躯体と製品
  6
CONTINUOUS
 62
    7
 10
410.82513027335335
 20
206.70236727981705
 11
510.82513027335335
 21
206.70236727981705
  0
LINE
  8
_0-3_躯体と製品
  6
CONTINUOUS
 62
    7
 10
510.82513027335335
 20
206.70236727981705
 11
510.82513027335335
 21
214.45236727981705
  0
ARC
  8
_0-3_躯体と製品
  6
CONTINUOUS
 62
    7
 10
507.57513027335335
 20
214.45236727981705
 40
3.2500000000000044
 50
0.0000000000000816
 51
89.999999999999929
  0
LINE
  8
_0-3_躯体と製品
  6
CONTINUOUS
 62
    7
 10
507.57513027335335
 20
217.70236727981705
 11
460.82513027335335
 21
217.70236727981705
  0
LINE
  8
_0-3_躯体と製品
  6
CONTINUOUS
 62
    7
 10
460.82513027335335
 20
217.70236727981705
 11
414.07513027335335
 21
217.70236727981705
  0
LINE
  8
_0-3_躯体と製品
  6
CONTINUOUS
 62
    4
 10
300.82513027335335
 20
127.70236727981705
 11
620.82513027335335
 21
127.70236727981705
  0
ARC
  8
_0-3_躯体と製品
  6
CONTINUOUS
 62
    7
 10
451.8271302733616
 20
200.00636727981731
 40
5.0040000000004961
 50
233.13925800013828
 51
306.80349100001467
  0
LINE
  8
_0-3_躯体と製品
  6
CONTINUOUS
 62
    7
 10
454.82513027335426
 20
195.9993672798189
 11
454.82513027335426
 21
199.00236727981701
  0
LINE
  8
_0-3_躯体と製品
  6
CONTINUOUS
 62
    7
 10
448.82513027335426
 20
196.00236727982292
 11
448.82513027335426
 21
199.00236727981701
  0
LINE
  8
_0-5_中心線
  6
CENTER1
 62
    7
 10
460.82513027335335
 20
50.033963070673053
 11
460.82513027335335
 21
270.96447301389708
  0
ARC
  8
_0-3_躯体と製品
  6
CONTINUOUS
 62
    7
 10
469.82313027334499
 20
200.00636727981689
 40
5.0040000000003273
 50
233.19650300002598
 51
306.86073700002112
  0
LINE
  8
_0-3_躯体と製品
  6
CONTINUOUS
 62
    7
 10
469.82313027334612
 20
195.00236727982292
 11
460.82513027335335
 21
195.00236727982292
  0
LINE
  8
_0-3_躯体と製品
  6
CONTINUOUS
 62
    7
 10
460.82513027335335
 20
195.00236727982292
 11
451.82713027336104
 21
195.00236727982292
  0
ARC
  8
_0-3_躯体と製品
  6
CONTINUOUS
 62
    7
 10
460.82513027335233
 20
213.55536727982062
 40
18.552999999997315
 50
270.38910700018596
 51
288.86855299987076
  0
LINE
  8
_0-3_躯体と製品
  6
CONTINUOUS
 62
    7
 10
466.82513027335335
 20
199.00236727981701
 11
466.82513027335335
 21
195.9993672798189
  0
LINE
  8
_0-3_躯体と製品
  6
CONTINUOUS
 62
    7
 10
472.82513027335426
 20
196.00236727982292
 11
472.82513027335426
 21
199.00236727981701
  0
LINE
  8
_0-3_躯体と製品
  6
CONTINUOUS
 62
    7
 10
456.32513027334608
 20
195.00236727982292
 11
456.32513027334608
 21
130.70236727981705
  0
LINE
  8
_0-3_躯体と製品
  6
CONTINUOUS
 62
    7
 10
454.82513027334608
 20
195.00236727982292
 11
454.82513027334608
 21
130.70236727981705
  0
LINE
  8
_0-3_躯体と製品
  6
CONTINUOUS
 62
    7
 10
465.32513027334608
 20
195.00236727982292
 11
465.32513027334608
 21
130.70236727981705
  0
LINE
  8
_0-3_躯体と製品
  6
CONTINUOUS
 62
    7
 10
466.82513027334608
 20
195.00236727982292
 11
466.82513027334608
 21
130.70236727981705
  0
LINE
  8
_0-3_躯体と製品
  6
PLINE2
 62
    7
 10
456.32513027335335
 20
92.702367279817054
 11
456.32513027335335
 21
127.70236727981705
  0
LINE
  8
_0-3_躯体と製品
  6
PLINE2
 62
    7
 10
454.82513027335426
 20
94.202367279817054
 11
454.82513027335426
 21
127.70236727981705
  0
LINE
  8
_0-3_躯体と製品
  6
PLINE2
 62
    7
 10
466.82513027335335
 20
94.202367279817054
 11
466.82513027335335
 21
127.70236727981705
  0
LINE
  8
_0-3_躯体と製品
  6
PLINE2
 62
    7
 10
465.32513027335335
 20
92.702367279817054
 11
465.32513027335335
 21
127.70236727981705
  0
LINE
  8
_0-3_躯体と製品
  6
PLINE2
 62
    7
 10
465.32513027335335
 20
92.702367279817054
 11
456.32513027335335
 21
92.702367279817054
  0
LINE
  8
_0-3_躯体と製品
  6
PLINE2
 62
    7
 10
456.32513027335335
 20
92.702367279817054
 11
454.82513027335426
 21
94.202367279817054
  0
LINE
  8
_0-3_躯体と製品
  6
PLINE2
 62
    7
 10
454.82513027335426
 20
94.202367279817054
 11
466.82513027335335
 21
94.202367279817054
  0
LINE
  8
_0-3_躯体と製品
  6
PLINE2
 62
    7
 10
466.82513027335335
 20
94.202367279817054
 11
465.32513027335335
 21
92.702367279817054
  0
LINE
  8
_0-3_躯体と製品
  6
PLINE2
 62
    7
 10
467.82513027335335
 20
127.70236727981705
 11
467.82513027335335
 21
91.997367279821901
  0
LINE
  8
_0-3_躯体と製品
  6
PLINE2
 62
    7
 10
467.82513027335335
 20
91.997367279821901
 11
460.82513027335335
 21
87.954367279824964
  0
LINE
  8
_0-3_躯体と製品
  6
PLINE2
 62
    7
 10
460.82513027335335
 20
87.954367279824964
 11
453.82513027335335
 21
91.997367279821901
  0
LINE
  8
_0-3_躯体と製品
  6
PLINE2
 62
    7
 10
453.82513027335335
 20
91.997367279821901
 11
453.82513027335335
 21
127.70236727981705
  0
LINE
  8
_0-3_躯体と製品
  6
CONTINUOUS
 62
    7
 10
492.82513027335335
 20
222.70236727981705
 11
497.82513027335426
 21
222.70236727981705
  0
LINE
  8
_0-3_躯体と製品
  6
CONTINUOUS
 62
    7
 10
497.82513027335426
 20
222.70236727981705
 11
497.82513027335426
 21
219.70236727981705
  0
LINE
  8
_0-3_躯体と製品
  6
CONTINUOUS
 62
    7
 10
497.82513027335426
 20
219.70236727981705
 11
423.82513027335426
 21
219.70236727981705
  0
LINE
  8
_0-3_躯体と製品
  6
CONTINUOUS
 62
    7
 10
423.82513027335426
 20
219.70236727981705
 11
423.82513027335426
 21
222.70236727981705
  0
LINE
  8
_0-3_躯体と製品
  6
CONTINUOUS
 62
    7
 10
423.82513027335426
 20
222.70236727981705
 11
428.82513027335335
 21
222.70236727981705
  0
LINE
  8
_0-3_躯体と製品
  6
CONTINUOUS
 62
    7
 10
428.82513027335335
 20
222.70236727981705
 11
428.82513027335335
 21
224.70236727981705
  0
LINE
  8
_0-3_躯体と製品
  6
CONTINUOUS
 62
    7
 10
428.82513027335335
 20
224.70236727981705
 11
421.82513027335335
 21
224.70236727981705
  0
LINE
  8
_0-3_躯体と製品
  6
CONTINUOUS
 62
    7
 10
421.82513027335335
 20
224.70236727981705
 11
421.82513027335335
 21
217.70236727981705
  0
LINE
  8
_0-3_躯体と製品
  6
CONTINUOUS
 62
    7
 10
421.82513027335335
 20
217.70236727981705
 11
499.82513027335335
 21
217.70236727981705
  0
LINE
  8
_0-3_躯体と製品
  6
CONTINUOUS
 62
    7
 10
499.82513027335335
 20
217.70236727981705
 11
499.82513027335335
 21
224.70236727981705
  0
LINE
  8
_0-3_躯体と製品
  6
CONTINUOUS
 62
    7
 10
499.82513027335335
 20
224.70236727981705
 11
492.82513027335335
 21
224.70236727981705
  0
LINE
  8
_0-3_躯体と製品
  6
CONTINUOUS
 62
    7
 10
492.82513027335335
 20
224.70236727981705
 11
492.82513027335335
 21
222.70236727981705
  0
ARC
  8
_0-3_躯体と製品
  6
CONTINUOUS
 62
    7
 10
469.03813027337105
 20
223.45436727981075
 40
4.2479999999990028
 50
49.86977299946377
 51
130.1199190004036
  0
LINE
  8
_0-3_躯体と製品
  6
CONTINUOUS
 62
    7
 10
466.30113027334801
 20
221.70136727981298
 11
466.30113027334801
 21
226.70336727981407
  0
LINE
  8
_0-3_躯体と製品
  6
CONTINUOUS
 62
    7
 10
471.77613027335428
 20
226.70236727981705
 11
471.77613027335428
 21
221.70236727981705
  0
ARC
  8
_0-3_躯体と製品
  6
CONTINUOUS
 62
    7
 10
469.03813027337054
 20
224.95036727981585
 40
4.2479999999990037
 50
229.88008099960592
 51
310.13022700054574
  0
LINE
  8
_0-3_躯体と製品
  6
CONTINUOUS
 62
    7
 10
466.82513027335335
 20
241.20236727981705
 11
466.82513027335335
 21
227.70236727981705
  0
LINE
  8
_0-3_躯体と製品
  6
CONTINUOUS
 62
    7
 10
462.55713027337106
 20
220.70236727981705
 11
461.97979694002197
 21
219.70236727981705
  0
LINE
  8
_0-3_躯体と製品
  6
CONTINUOUS
 62
    7
 10
460.82513027335335
 20
220.70236727981705
 11
460.24779694003428
 21
219.70236727981705
  0
LINE
  8
_0-3_躯体と製品
  6
CONTINUOUS
 62
    7
 10
465.32513027335335
 20
242.70236727981705
 11
465.32513027335335
 21
227.70236727981705
  0
LINE
  8
_0-3_躯体と製品
  6
CONTINUOUS
 62
    7
 10
454.82513027335426
 20
241.20236727981705
 11
456.32513027335335
 21
242.70236727981705
  0
LINE
  8
_0-3_躯体と製品
  6
CONTINUOUS
 62
    7
 10
455.35113027336592
 20
221.70136727981298
 11
455.35113027336592
 21
226.70336727981407
  0
LINE
  8
_0-3_躯体と製品
  6
CONTINUOUS
 62
    7
 10
449.8761302733601
 20
226.70236727981705
 11
449.8761302733601
 21
221.70236727981705
  0
ARC
  8
_0-3_躯体と製品
  6
CONTINUOUS
 62
    7
 10
452.61413027337221
 20
223.45436727980996
 40
4.2479999999997524
 50
49.880087000096346
 51
130.1302330005017
  0
ARC
  8
_0-3_躯体と製品
  6
CONTINUOUS
 62
    7
 10
452.6141302733721
 20
224.95036727981608
 40
4.2479999999997551
 50
229.86976699950074
 51
310.11991299990603
  0
ARC
  8
_0-3_躯体と製品
  6
CONTINUOUS
 62
    7
 10
460.82513027335472
 20
212.20936727981535
 40
15.492999999999384
 50
69.301553000440691
 51
110.69022699919864
  0
LINE
  8
_0-3_躯体と製品
  6
CONTINUOUS
 62
    7
 10
454.82513027335426
 20
227.70236727981705
 11
454.82513027335426
 21
241.20236727981705
  0
LINE
  8
_0-3_躯体と製品
  6
CONTINUOUS
 62
    7
 10
454.82513027335426
 20
241.20236727981705
 11
466.82513027335335
 21
241.20236727981705
  0
LINE
  8
_0-3_躯体と製品
  6
CONTINUOUS
 62
    7
 10
466.82513027335335
 20
241.20236727981705
 11
465.32513027335335
 21
242.70236727981705
  0
LINE
  8
_0-3_躯体と製品
  6
CONTINUOUS
 62
    7
 10
465.32513027335335
 20
242.70236727981705
 11
456.32513027335335
 21
242.70236727981705
  0
LINE
  8
_0-3_躯体と製品
  6
CONTINUOUS
 62
    7
 10
456.32513027335335
 20
242.70236727981705
 11
456.32513027335335
 21
227.70236727981705
  0
ARC
  8
_0-3_躯体と製品
  6
CONTINUOUS
 62
    7
 10
460.82513027335324
 20
236.19536727981819
 40
15.492999999999377
 50
249.3097730008073
 51
290.69844699956525
  0
LINE
  8
_0-3_躯体と製品
  6
CONTINUOUS
 62
    7
 10
452.61313027335427
 20
227.70236727981705
 11
469.03713027335334
 21
227.70236727981705
  0
LINE
  8
_0-3_躯体と製品
  6
CONTINUOUS
 62
    7
 10
471.57513027335335
 20
219.70236727981705
 11
471.57513027335335
 21
220.70236727981705
  0
LINE
  8
_0-3_躯体と製品
  6
CONTINUOUS
 62
    7
 10
471.57513027335335
 20
220.70236727981705
 11
450.07513027335335
 21
220.70236727981705
  0
LINE
  8
_0-3_躯体と製品
  6
CONTINUOUS
 62
    7
 10
450.07513027335335
 20
220.70236727981705
 11
450.07513027335335
 21
219.70236727981705
  0
LINE
  8
_0-3_躯体と製品
  6
CONTINUOUS
 62
    3
 10
479.22513027334799
 20
221.80236727981492
 11
479.22513027334799
 21
257.60236727981101
  0
ARC
  8
_0-3_躯体と製品
  6
CONTINUOUS
 62
    3
 10
478.72513028643743
 20
257.60236729290045
 40
0.4999999869105527
 50
359.9999985000598
 51
90.00000149994024
  0
LINE
  8
_0-3_躯体と製品
  6
CONTINUOUS
 62
    3
 10
478.72513027334799
 20
258.10236727981101
 11
460.82513027335335
 21
258.10236727981101
  0
LINE
  8
_0-3_躯体と製品
  6
CONTINUOUS
 62
    3
 10
460.82513027335335
 20
258.10236727981101
 11
442.92513024718028
 21
258.10236727981101
  0
ARC
  8
_0-3_躯体と製品
  6
CONTINUOUS
 62
    3
 10
442.92513024717937
 20
257.60236730599081
 40
0.4999999738201959
 50
89.999999999895834
 51
180.00000299998476
  0
LINE
  8
_0-3_躯体と製品
  6
CONTINUOUS
 62
    3
 10
442.42513027335917
 20
257.60236727981101
 11
442.42513027335326
 21
221.80236727981492
  0
ARC
  8
_0-3_躯体と製品
  6
CONTINUOUS
 62
    3
 10
440.32513027335375
 20
221.80236727981543
 40
2.0999999999995107
 50
269.99999999998914
 51
359.99999999998602
  0
LINE
  8
_0-3_躯体と製品
  6
CONTINUOUS
 62
    3
 10
440.32513027335335
 20
219.70236727981592
 11
423.82513027335426
 21
219.70236727981705
  0
LINE
  8
_0-3_躯体と製品
  6
CONTINUOUS
 62
    3
 10
423.82513027335426
 20
219.70236727981705
 11
423.82513027335426
 21
221.30236727981605
  0
LINE
  8
_0-3_躯体と製品
  6
CONTINUOUS
 62
    3
 10
423.82513027335426
 20
221.30236727981605
 11
440.32513027335335
 21
221.30236727981605
  0
ARC
  8
_0-3_躯体と製品
  6
CONTINUOUS
 62
    3
 10
440.32513028644382
 20
221.80236726672649
 40
0.499999986910439
 50
269.99999849994254
 51
0.0000014998229889
  0
LINE
  8
_0-3_躯体と製品
  6
CONTINUOUS
 62
    3
 10
440.82513027335426
 20
221.80236727981492
 11
440.82513027335926
 21
257.60236727981101
  0
ARC
  8
_0-3_躯体と製品
  6
CONTINUOUS
 62
    3
 10
442.92513027335917
 20
257.60236727981101
 40
2.0999999999999086
 50
89.999999999999986
 51
180
  0
LINE
  8
_0-3_躯体と製品
  6
CONTINUOUS
 62
    3
 10
442.92513027335917
 20
259.70236727981091
 11
460.82513027335335
 21
259.70236727981705
  0
LINE
  8
_0-3_躯体と製品
  6
CONTINUOUS
 62
    3
 10
460.82513027335335
 20
259.70236727981705
 11
478.72513027335026
 21
259.70236727981091
  0
ARC
  8
_0-3_躯体と製品
  6
CONTINUOUS
 62
    3
 10
478.72513027335083
 20
257.60236727980748
 40
2.1000000000034365
 50
0.0000000000962435
 51
90.000000000015433
  0
LINE
  8
_0-3_躯体と製品
  6
CONTINUOUS
 62
    3
 10
480.82513027335426
 20
257.60236727981101
 11
480.82513027335426
 21
221.80236722745599
  0
ARC
  8
_0-3_躯体と製品
  6
CONTINUOUS
 62
    3
 10
481.32513028644303
 20
221.80236729290482
 40
0.5000000130887687
 50
180.00000749988365
 51
269.99999850003388
  0
LINE
  8
_0-3_躯体と製品
  6
CONTINUOUS
 62
    3
 10
481.32513027335335
 20
221.30236727981605
 11
497.82513027335426
 21
221.30236727981605
  0
LINE
  8
_0-3_躯体と製品
  6
CONTINUOUS
 62
    3
 10
497.82513027335426
 20
221.30236727981605
 11
497.82513027335426
 21
219.70236727981705
  0
LINE
  8
_0-3_躯体と製品
  6
CONTINUOUS
 62
    3
 10
497.82513027335426
 20
219.70236727981705
 11
481.32513027335335
 21
219.70236727981592
  0
ARC
  8
_0-3_躯体と製品
  6
CONTINUOUS
 62
    3
 10
481.3251302733529
 20
221.80236727981588
 40
2.0999999999999632
 50
180.00000599998322
 51
270.00000000001125
  0
LINE
  8
_0-3_躯体と製品
  6
CONTINUOUS
 62
    4
 10
-84.498220567829776
 20
127.70236727982297
 11
215.50177943217022
 21
127.70236727981796
  0
LINE
  8
_0-3_躯体と製品
  6
CONTINUOUS
 62
    3
 10
-84.498220567829776
 20
259.70236727982206
 11
215.50177943217022
 21
259.70236727981796
  0
LINE
  8
_0-3_躯体と製品
  6
CONTINUOUS
 62
    3
 10
215.50177943217022
 20
219.70236727981705
 11
75.501779432170224
 21
219.70236727981501
  0
LINE
  8
_0-3_躯体と製品
  6
CONTINUOUS
 62
    3
 10
75.501779432170224
 20
221.30236727982106
 11
215.50177943217022
 21
221.30236727981696
  0
INSERT
  2
-001-_D3
  8
_0-2_寸法
 10
-3276.5416467183459
 20
-956.718375839072
 41
1
 42
1
 50
0
  0
INSERT
  2
-002-_D4
  8
_0-2_寸法
 10
-3276.5416467183459
 20
-956.718375839072
 41
1
 42
1
 50
0
  0
LINE
  8
_0-3_躯体と製品
  6
CONTINUOUS
 62
    3
 10
-84.498220567829776
 20
219.70236727981592
 11
35.501779432170224
 21
219.70236727981501
  0
LINE
  8
_0-3_躯体と製品
  6
CONTINUOUS
 62
    3
 10
35.501779432170224
 20
221.30236727982106
 11
-84.498220567829776
 21
221.30236727981196
  0
INSERT
  2
-003-_D5
  8
_0-2_寸法
 10
-3276.5416467183459
 20
-956.718375839072
 41
1
 42
1
 50
0
  0
LINE
  8
_0-5_中心線
  6
CENTER1
 62
    7
 10
433.07513027338291
 20
205.30236727981492
 11
433.07513027338291
 21
228.22611727981598
  0
ARC
  8
_0-3_躯体と製品
  6
CONTINUOUS
 62
    7
 10
433.62213027335315
 20
219.5143672798163
 40
4.8189999999979687
 50
48.111754999093279
 51
96.517442000075434
  0
ARC
  8
_0-3_躯体と製品
  6
CONTINUOUS
 62
    7
 10
432.52813027340085
 20
219.51436727981303
 40
4.8190000000160103
 50
83.482563001166298
 51
131.88825099943548
  0
LINE
  8
_0-3_躯体と製品
  6
CONTINUOUS
 62
    7
 10
429.07513027338291
 20
221.50236727982701
 11
429.07513027338291
 21
221.95136727982003
  0
LINE
  8
_0-3_躯体と製品
  6
CONTINUOUS
 62
    7
 10
429.07513027338291
 20
221.95136727982003
 11
429.31013027339804
 21
223.10236727983306
  0
LINE
  8
_0-3_躯体と製品
  6
CONTINUOUS
 62
    7
 10
429.31013027339804
 20
223.10236727983306
 11
433.07513027338291
 21
223.10236727983306
  0
LINE
  8
_0-3_躯体と製品
  6
CONTINUOUS
 62
    7
 10
433.07513027338291
 20
223.10236727983306
 11
436.84013027339597
 21
223.10236727983306
  0
LINE
  8
_0-3_躯体と製品
  6
CONTINUOUS
 62
    7
 10
436.84013027339597
 20
223.10236727983306
 11
437.07513027338291
 21
221.95136727982003
  0
LINE
  8
_0-3_躯体と製品
  6
CONTINUOUS
 62
    7
 10
437.07513027338291
 20
221.95136727982003
 11
437.07513027341201
 21
221.50236727982701
  0
ARC
  8
_0-3_躯体と製品
  6
CONTINUOUS
 62
    7
 10
436.87513027863628
 20
221.50236727459179
 40
0.1999999947757489
 50
269.99999849989695
 51
0.0000014997773739
  0
LINE
  8
_0-3_躯体と製品
  6
CONTINUOUS
 62
    7
 10
436.87513027339992
 20
221.30236727981605
 11
433.07513027338291
 21
221.30236727981605
  0
LINE
  8
_0-3_躯体と製品
  6
CONTINUOUS
 62
    7
 10
433.07513027338291
 20
221.30236727981605
 11
429.27513026291717
 21
221.30236727981605
  0
ARC
  8
_0-3_躯体と製品
  6
CONTINUOUS
 62
    7
 10
429.2751302733858
 20
221.50236727981897
 40
0.200000000002911
 50
180.00000600059477
 51
269.99999700095339
  0
LINE
  8
_0-5_中心線
  6
CENTER1
 62
    7
 10
488.57513027332425
 20
205.30236727981492
 11
488.57513027332425
 21
228.22611727981598
  0
ARC
  8
_0-3_躯体と製品
  6
CONTINUOUS
 62
    7
 10
489.12213027329517
 20
219.51436727981681
 40
4.8189999999974402
 50
48.111754999091275
 51
96.517442000073416
  0
ARC
  8
_0-3_躯体と製品
  6
CONTINUOUS
 62
    7
 10
488.02813027334309
 20
219.51436727981303
 40
4.8190000000160103
 50
83.482563001166298
 51
131.88825099943548
  0
LINE
  8
_0-3_躯体と製品
  6
CONTINUOUS
 62
    7
 10
484.57513027332425
 20
221.50236727982701
 11
484.57513027332425
 21
221.95136727982003
  0
LINE
  8
_0-3_躯体と製品
  6
CONTINUOUS
 62
    7
 10
484.57513027332425
 20
221.95136727982003
 11
484.81013027333893
 21
223.10236727983306
  0
LINE
  8
_0-3_躯体と製品
  6
CONTINUOUS
 62
    7
 10
484.81013027333893
 20
223.10236727983306
 11
488.57513027332425
 21
223.10236727983306
  0
LINE
  8
_0-3_躯体と製品
  6
CONTINUOUS
 62
    7
 10
488.57513027332425
 20
223.10236727983306
 11
492.34013027333913
 21
223.10236727983306
  0
LINE
  8
_0-3_躯体と製品
  6
CONTINUOUS
 62
    7
 10
492.34013027333913
 20
223.10236727983306
 11
492.57513027332425
 21
221.95136727982003
  0
LINE
  8
_0-3_躯体と製品
  6
CONTINUOUS
 62
    7
 10
492.57513027332425
 20
221.95136727982003
 11
492.57513027335426
 21
221.50236727982701
  0
ARC
  8
_0-3_躯体と製品
  6
CONTINUOUS
 62
    7
 10
492.37513027857852
 20
221.50236727459179
 40
0.1999999947757489
 50
269.99999849989695
 51
0.0000014997773739
  0
LINE
  8
_0-3_躯体と製品
  6
CONTINUOUS
 62
    7
 10
492.37513027334217
 20
221.30236727981605
 11
488.57513027332425
 21
221.30236727981605
  0
LINE
  8
_0-3_躯体と製品
  6
CONTINUOUS
 62
    7
 10
488.57513027332425
 20
221.30236727981605
 11
484.77513026285897
 21
221.30236727981605
  0
ARC
  8
_0-3_躯体と製品
  6
CONTINUOUS
 62
    7
 10
484.77513027332736
 20
221.5023672798192
 40
0.2000000000031384
 50
180.00000600065991
 51
269.99999700101853
  0
LINE
  8
_0-3_躯体と製品
  6
CENTER1
 62
    7
 10
451.82513027335426
 20
247.73163727801398
 11
451.82513027335426
 21
272.04046939213504
  0
ARC
  8
_0-3_躯体と製品
  6
CONTINUOUS
 62
    7
 10
451.27813027338391
 20
265.91436727982028
 40
4.8189999999956639
 50
83.482557999947161
 51
131.88824500092932
  0
ARC
  8
_0-3_躯体と製品
  6
CONTINUOUS
 62
    7
 10
452.37213027333621
 20
265.91436727981363
 40
4.8190000000166453
 50
48.11174900058424
 51
96.517436998853427
  0
LINE
  8
_0-3_躯体と製品
  6
CONTINUOUS
 62
    7
 10
455.65138135935604
 20
269.20236727981705
 11
455.59013027333822
 21
269.50236727983497
  0
LINE
  8
_0-3_躯体と製品
  6
CONTINUOUS
 62
    7
 10
455.59013027333822
 20
269.50236727983497
 11
451.82513027335426
 21
269.50236727983497
  0
LINE
  8
_0-3_躯体と製品
  6
CONTINUOUS
 62
    7
 10
451.82513027335426
 20
269.50236727983497
 11
448.06013027333893
 21
269.50236727983497
  0
LINE
  8
_0-3_躯体と製品
  6
CONTINUOUS
 62
    7
 10
448.06013027333893
 20
269.50236727983497
 11
447.99887918732702
 21
269.20236727981705
  0
LINE
  8
_0-4_文字-記号
  6
CONTINUOUS
 62
    7
 10
496.48156190084001
 20
206.70236727981705
 11
507.6475139008412
 21
187.3623712798169
  0
LINE
  8
_0-4_文字-記号
  6
CONTINUOUS
 62
    7
 10
507.6475139008412
 20
187.3623712798169
 11
548.877014900841
 21
187.3623712798169
  0
TEXT
  8
_0-4_文字-記号
 62
    7
 10
509.92130790084093
 20
189.75180627981695
 40
10
 41
0.8
 50
0
  1
受け金具
  0
TEXT
  8
_0-4_文字-記号
 62
    7
 10
427.79344842931732
 20
19.116003083845044
 40
10
 41
0.8
 50
0
  1
（根太ピッチ）
  0
INSERT
  2
-004-_D6
  8
_0-2_寸法
 10
-3276.5416467183459
 20
-956.718375839072
 41
1
 42
1
 50
0
  0
INSERT
  2
-005-_D7
  8
_0-2_寸法
 10
-3276.5416467183459
 20
-956.718375839072
 41
1
 42
1
 50
0
  0
INSERT
  2
-006-_D8
  8
_0-2_寸法
 10
-3276.5416467183459
 20
-956.718375839072
 41
1
 42
1
 50
0
  0
INSERT
  2
-007-_D9
  8
_0-2_寸法
 10
-3276.5416467183459
 20
-956.718375839072
 41
1
 42
1
 50
0
  0
INSERT
  2
-008-_D10
  8
_0-2_寸法
 10
-3276.5416467183459
 20
-956.718375839072
 41
1
 42
1
 50
0
  0
INSERT
  2
-009-_D11
  8
_0-2_寸法
 10
-3276.5416467183459
 20
-956.718375839072
 41
1
 42
1
 50
0
  0
INSERT
  2
-010-_D12
  8
_0-2_寸法
 10
-3276.5416467183459
 20
-956.718375839072
 41
1
 42
1
 50
0
  0
LINE
  8
_0-3_躯体と製品
  6
CONTINUOUS
 62
    7
 10
453.57513027335426
 20
256.35660327981691
 11
453.02513027335408
 21
256.0390632798169
  0
LINE
  8
_0-3_躯体と製品
  6
CONTINUOUS
 62
    7
 10
450.62513027335399
 20
255.96859327981497
 11
453.02513027335408
 21
256.67414827981497
  0
LINE
  8
_0-3_躯体と製品
  6
CONTINUOUS
 62
    7
 10
450.07513027335335
 20
255.65104827981509
 11
450.62513027335399
 21
255.96859327981497
  0
LINE
  8
_0-3_躯体と製品
  6
CONTINUOUS
 62
    7
 10
450.62513027335399
 20
255.96859327981497
 11
450.62513027335399
 21
256.744618279816
  0
LINE
  8
_0-3_躯体と製品
  6
CONTINUOUS
 62
    7
 10
453.02513027335408
 20
253.85192327981599
 11
453.57513027335426
 21
253.53438327981689
  0
LINE
  8
_0-3_躯体と製品
  6
CONTINUOUS
 62
    7
 10
451.82513027335426
 20
253.18160327981604
 11
453.57513027335426
 21
253.53438327981689
  0
LINE
  8
_0-3_躯体と製品
  6
CONTINUOUS
 62
    7
 10
453.57513027335426
 20
253.53438327981689
 11
453.02513027335408
 21
253.21683827981701
  0
LINE
  8
_0-3_躯体と製品
  6
CONTINUOUS
 62
    7
 10
453.02513027335408
 20
255.2630382798161
 11
453.57513027335426
 21
254.9454932798169
  0
ARC
  8
_0-3_躯体と製品
  6
CONTINUOUS
 62
    7
 10
456.34943027335294
 20
249.80823227982296
 40
4.5414449999999427
 50
137.05380000001753
 51
175.02121999999022
  0
ARC
  8
_0-3_躯体と製品
  6
CONTINUOUS
 62
    7
 10
451.84393027335318
 20
248.87886727982095
 40
1.3236349999999331
 50
90.813543000016324
 51
157.04087000002121
  0
LINE
  8
_0-3_躯体と製品
  6
CONTINUOUS
 62
    7
 10
453.02513027335408
 20
252.9023672798221
 11
450.62513027335399
 21
252.9023672798221
  0
LINE
  8
_0-3_躯体と製品
  6
CONTINUOUS
 62
    7
 10
450.62513027335399
 20
255.3335082798169
 11
453.02513027335408
 21
256.0390632798169
  0
LINE
  8
_0-3_躯体と製品
  6
CONTINUOUS
 62
    7
 10
453.02513027335408
 20
256.0390632798169
 11
453.02513027335408
 21
255.2630382798161
  0
LINE
  8
_0-3_躯体と製品
  6
CONTINUOUS
 62
    7
 10
453.02513027335408
 20
255.2630382798161
 11
450.62513027335399
 21
254.557478279816
  0
LINE
  8
_0-3_躯体と製品
  6
CONTINUOUS
 62
    7
 10
450.62513027335399
 20
254.557478279816
 11
450.07513027335335
 21
254.23993827981599
  0
LINE
  8
_0-3_躯体と製品
  6
CONTINUOUS
 62
    7
 10
453.02513027335408
 20
254.62794827981497
 11
453.57513027335426
 21
254.9454932798169
  0
LINE
  8
_0-3_躯体と製品
  6
CONTINUOUS
 62
    7
 10
453.57513027335426
 20
254.9454932798169
 11
450.07513027335335
 21
254.23993827981599
  0
LINE
  8
_0-3_躯体と製品
  6
CONTINUOUS
 62
    7
 10
450.07513027335335
 20
254.23993827981599
 11
450.62513027335399
 21
253.92239327981611
  0
LINE
  8
_0-3_躯体と製品
  6
CONTINUOUS
 62
    7
 10
450.62513027335399
 20
253.92239327981611
 11
453.02513027335408
 21
254.62794827981497
  0
LINE
  8
_0-3_躯体と製品
  6
CONTINUOUS
 62
    7
 10
453.02513027335408
 20
254.62794827981497
 11
453.02513027335408
 21
253.85192327981599
  0
LINE
  8
_0-3_躯体と製品
  6
CONTINUOUS
 62
    7
 10
453.02513027335408
 20
253.85192327981599
 11
451.82513027335426
 21
253.18160327981604
  0
LINE
  8
_0-3_躯体と製品
  6
CONTINUOUS
 62
    7
 10
451.82513027335426
 20
253.18160327981604
 11
453.02513027335408
 21
253.21683827981701
  0
LINE
  8
_0-3_躯体と製品
  6
CONTINUOUS
 62
    7
 10
453.02513027335408
 20
253.21683827981701
 11
453.02513027335408
 21
249.39518727982204
  0
LINE
  8
_0-3_躯体と製品
  6
CONTINUOUS
 62
    7
 10
453.02513027335408
 20
249.39518727982204
 11
451.82513027335426
 21
248.70236727982297
  0
LINE
  8
_0-3_躯体と製品
  6
CONTINUOUS
 62
    7
 10
451.82513027335426
 20
250.22955227982402
 11
451.82513027335426
 21
248.70236727982297
  0
LINE
  8
_0-3_躯体と製品
  6
CONTINUOUS
 62
    7
 10
451.82513027335426
 20
248.70236727982297
 11
450.62513027335399
 21
249.39518727982204
  0
LINE
  8
_0-3_躯体と製品
  6
CONTINUOUS
 62
    7
 10
450.62513027335399
 20
249.39518727982204
 11
450.62513027335399
 21
255.3335082798169
  0
LINE
  8
_0-3_躯体と製品
  6
CONTINUOUS
 62
    7
 10
450.62513027335399
 20
255.3335082798169
 11
450.07513027335335
 21
255.65104827981509
  0
LINE
  8
_0-3_躯体と製品
  6
CONTINUOUS
 62
    7
 10
450.07513027335335
 20
255.65104827981509
 11
453.57513027335426
 21
256.35660327981691
  0
LINE
  8
_0-3_躯体と製品
  6
CONTINUOUS
 62
    7
 10
453.57513027335426
 20
256.35660327981691
 11
453.02513027335408
 21
256.67414827981497
  0
LINE
  8
_0-3_躯体と製品
  6
CONTINUOUS
 62
    7
 10
453.02513027335408
 20
256.67414827981497
 11
453.02513027335408
 21
257.45017327981509
  0
INSERT
  2
-011-_D13
  8
_0-2_寸法
 10
-3276.5416467183459
 20
-956.718375839072
 41
1
 42
1
 50
0
  0
INSERT
  2
-012-_D14
  8
_0-2_寸法
 10
-3276.5416467183459
 20
-956.718375839072
 41
1
 42
1
 50
0
  0
LINE
  8
_0-4_文字-記号
  6
CONTINUOUS
 62
    7
 10
-13.540347823030061
 20
266.60757738276902
 11
11.321764279244235
 21
309.67001872738001
  0
LINE
  8
_0-4_文字-記号
  6
CONTINUOUS
 62
    7
 10
11.321764279244235
 20
309.67001872738001
 11
55.44544222490822
 21
309.67001872738001
  0
TEXT
  8
_0-4_文字-記号
 62
    7
 10
13.958629279244178
 20
312.22408872737901
 40
10
 41
0.8
 50
0
  1
固定金具
  0
LINE
  8
_0-4_文字-記号
  6
CONTINUOUS
 62
    7
 10
437.76958221172026
 20
287.70236727982297
 11
423.55425467659825
 21
312.32403634626394
  0
LINE
  8
_0-4_文字-記号
  6
CONTINUOUS
 62
    7
 10
423.55425467659825
 20
312.32403634626394
 11
386.38098313887531
 21
312.32403634626394
  0
TEXT
  8
_0-4_文字-記号
 62
    7
 10
386.12922183344017
 20
315.08501585728891
 40
10
 41
0.8
 50
0
  1
デッキ材
  0
LINE
  8
_0-3_躯体と製品
  6
CONTINUOUS
 62
    3
 10
372.80499027335418
 20
107.70236727981705
 11
392.80499027335418
 21
127.70236727981705
  0
LINE
  8
_0-3_躯体と製品
  6
CONTINUOUS
 62
    3
 10
367.14813527335491
 20
107.70236727981705
 11
387.148135273354
 21
127.70236727981705
  0
LINE
  8
_0-3_躯体と製品
  6
CONTINUOUS
 62
    3
 10
378.4618452733539
 20
107.70236727981705
 11
398.4618452733539
 21
127.70236727981705
  0
LINE
  8
_0-3_躯体と製品
  6
CONTINUOUS
 62
    3
 10
548.38092027335415
 20
107.70236727981705
 11
568.38092027335415
 21
127.70236727981705
  0
LINE
  8
_0-3_躯体と製品
  6
CONTINUOUS
 62
    3
 10
542.72406527335397
 20
107.70236727981705
 11
562.72406527335397
 21
127.70236727981705
  0
LINE
  8
_0-3_躯体と製品
  6
CONTINUOUS
 62
    3
 10
537.06721527335503
 20
107.70236727981705
 11
557.06721527335412
 21
127.70236727981705
  0
LINE
  8
_0-3_躯体と製品
  6
CONTINUOUS
 62
    7
 10
61.501779432170224
 20
130.70236727982092
 11
61.501779432170224
 21
194.10914237758698
  0
LINE
  8
_0-3_躯体と製品
  6
CONTINUOUS
 62
    7
 10
60.001779432170224
 20
130.70236727982092
 11
60.001779432170224
 21
194.002367451689
  0
LINE
  8
_0-3_躯体と製品
  6
CONTINUOUS
 62
    7
 10
51.001779432171134
 20
130.70236727982092
 11
51.001779432170224
 21
194.002367451689
  0
LINE
  8
_0-3_躯体と製品
  6
CONTINUOUS
 62
    7
 10
49.501779432171134
 20
130.70236727982092
 11
49.501779432170224
 21
194.10914237758607
  0
LINE
  8
_0-5_中心線
  6
CENTER1
 62
    7
 10
55.501779432170224
 20
50.033963070676009
 11
55.501779432170224
 21
232.74229926940802
  0
LINE
  8
_0-3_躯体と製品
  6
CONTINUOUS
 62
    7
 10
70.501779432171134
 20
127.70236727982092
 11
40.501779432171134
 21
127.70236727982092
  0
LINE
  8
_0-3_躯体と製品
  6
CONTINUOUS
 62
    7
 10
40.501779432171134
 20
127.70236727982092
 11
40.501779432171134
 21
130.70236727982092
  0
LINE
  8
_0-3_躯体と製品
  6
CONTINUOUS
 62
    7
 10
40.501779432171134
 20
130.70236727982092
 11
70.501779432171134
 21
130.70236727982092
  0
LINE
  8
_0-3_躯体と製品
  6
CONTINUOUS
 62
    7
 10
70.501779432171134
 20
130.70236727982092
 11
70.501779432171134
 21
127.70236727982092
  0
LINE
  8
_0-3_躯体と製品
  6
PLINE2
 62
    7
 10
60.001779432170224
 20
92.702367279820919
 11
60.001779432170224
 21
127.70236727982092
  0
LINE
  8
_0-3_躯体と製品
  6
PLINE2
 62
    7
 10
61.501779432170224
 20
94.202367279820919
 11
61.501779432170224
 21
127.70236727982092
  0
LINE
  8
_0-3_躯体と製品
  6
PLINE2
 62
    7
 10
49.501779432171134
 20
94.202367279820919
 11
49.501779432171134
 21
127.70236727982092
  0
LINE
  8
_0-3_躯体と製品
  6
PLINE2
 62
    7
 10
51.001779432171134
 20
92.702367279820919
 11
51.001779432171134
 21
127.70236727982092
  0
LINE
  8
_0-3_躯体と製品
  6
PLINE2
 62
    7
 10
60.001779432170224
 20
92.702367279820919
 11
61.501779432170224
 21
94.202367279820919
  0
LINE
  8
_0-3_躯体と製品
  6
PLINE2
 62
    7
 10
61.501779432170224
 20
94.202367279820919
 11
49.501779432171134
 21
94.202367279820919
  0
LINE
  8
_0-3_躯体と製品
  6
PLINE2
 62
    7
 10
49.501779432171134
 20
94.202367279820919
 11
51.001779432171134
 21
92.702367279820919
  0
LINE
  8
_0-3_躯体と製品
  6
PLINE2
 62
    7
 10
51.001779432171134
 20
92.702367279820919
 11
60.001779432170224
 21
92.702367279820919
  0
LINE
  8
_0-3_躯体と製品
  6
PLINE2
 62
    7
 10
48.501779432171134
 20
127.70236727982092
 11
48.501779432171134
 21
91.997367279825994
  0
LINE
  8
_0-3_躯体と製品
  6
PLINE2
 62
    7
 10
48.501779432171134
 20
91.997367279825994
 11
55.501779432170224
 21
87.95436727982792
  0
LINE
  8
_0-3_躯体と製品
  6
PLINE2
 62
    7
 10
55.501779432170224
 20
87.95436727982792
 11
62.501779432170224
 21
91.997367279825994
  0
LINE
  8
_0-3_躯体と製品
  6
PLINE2
 62
    7
 10
62.501779432170224
 20
91.997367279825994
 11
62.501779432170224
 21
127.70236727982092
  0
LINE
  8
_0-3_躯体と製品
  6
CONTINUOUS
 62
    7
 10
35.501779432170224
 20
224.70236727982092
 11
75.501779432170224
 21
224.70236727982092
  0
LINE
  8
_0-3_躯体と製品
  6
CONTINUOUS
 62
    7
 10
75.501779432170224
 20
224.70236727982092
 11
75.501779432170224
 21
217.70236727982092
  0
LINE
  8
_0-3_躯体と製品
  6
CONTINUOUS
 62
    7
 10
75.501779432170224
 20
217.70236727982092
 11
35.501779432170224
 21
217.70236727982092
  0
LINE
  8
_0-3_躯体と製品
  6
CONTINUOUS
 62
    7
 10
35.501779432170224
 20
217.70236727982092
 11
35.501779432170224
 21
224.70236727982092
  0
ARC
  8
_0-3_躯体と製品
  6
CONTINUOUS
 62
    7
 10
8.7517794321660176
 20
214.45236727982513
 40
3.249999999995798
 50
90.000002999934651
 51
180.00000000007415
  0
LINE
  8
_0-3_躯体と製品
  6
CONTINUOUS
 62
    7
 10
5.501779432170224
 20
214.45236727982092
 11
5.501779432170224
 21
206.70236727982092
  0
LINE
  8
_0-3_躯体と製品
  6
CONTINUOUS
 62
    7
 10
5.501779432170224
 20
206.70236727982092
 11
105.50177943217113
 21
206.70236727982092
  0
LINE
  8
_0-3_躯体と製品
  6
CONTINUOUS
 62
    7
 10
105.50177943217113
 20
206.70236727982092
 11
105.50177943217113
 21
214.45236727982092
  0
ARC
  8
_0-3_躯体と製品
  6
CONTINUOUS
 62
    7
 10
102.25177943217113
 20
214.45236727982092
 40
3.2500000000000044
 50
0.0000000000000816
 51
89.999999999999929
  0
LINE
  8
_0-3_躯体と製品
  6
CONTINUOUS
 62
    7
 10
102.25177943217113
 20
217.70236727982092
 11
55.501779432170224
 21
217.70236727982092
  0
LINE
  8
_0-3_躯体と製品
  6
CONTINUOUS
 62
    7
 10
55.501779432170224
 20
217.70236727982092
 11
8.751779432170224
 21
217.70236727982092
  0
LINE
  8
_0-4_文字-記号
  6
CONTINUOUS
 62
    7
 10
162.59879819380194
 20
219.70236727982001
 11
173.76475019380314
 21
200.36237127982008
  0
LINE
  8
_0-4_文字-記号
  6
CONTINUOUS
 62
    7
 10
173.76475019380314
 20
200.36237127982008
 11
205.90629313645832
 21
200.36237127982008
  0
TEXT
  8
_0-4_文字-記号
 62
    7
 10
176.03854419380195
 20
202.7518062798199
 40
10
 41
0.8
 50
0
  1
根太鋼
  0
LINE
  8
_0-4_文字-記号
  6
CONTINUOUS
 62
    7
 10
91.158211059657333
 20
206.70236727982092
 11
102.32416305965808
 21
187.36237127982008
  0
LINE
  8
_0-4_文字-記号
  6
CONTINUOUS
 62
    7
 10
102.32416305965808
 20
187.36237127982008
 11
143.55366405965833
 21
187.36237127982008
  0
TEXT
  8
_0-4_文字-記号
 62
    7
 10
104.59795705965826
 20
189.75180627982104
 40
10
 41
0.8
 50
0
  1
受け金具
  0
TEXT
  8
_0-4_文字-記号
 62
    7
 10
22.193375927344277
 20
19.116003083848568
 40
10
 41
0.8
 50
0
  1
（支持脚ピッチ）
  0
INSERT
  2
-013-_D15
  8
_0-2_寸法
 10
-3276.5416467183459
 20
-956.718375839072
 41
1
 42
1
 50
0
  0
INSERT
  2
-014-_D16
  8
_0-2_寸法
 10
-3276.5416467183459
 20
-956.718375839072
 41
1
 42
1
 50
0
  0
LINE
  8
_0-3_躯体と製品
  6
CONTINUOUS
 62
    3
 10
-28.493415739336797
 20
107.70236727981592
 11
-8.4934157393367968
 21
127.70236727981592
  0
LINE
  8
_0-3_躯体と製品
  6
CONTINUOUS
 62
    3
 10
-34.150270739336065
 20
107.70236727981592
 11
-14.150270739336975
 21
127.70236727981592
  0
LINE
  8
_0-3_躯体と製品
  6
CONTINUOUS
 62
    3
 10
-22.836560739337074
 20
107.70236727981592
 11
-2.8365607393370738
 21
127.70236727981592
  0
LINE
  8
_0-3_躯体と製品
  6
CONTINUOUS
 62
    3
 10
147.08251426066317
 20
107.70236727981592
 11
167.08251426066317
 21
127.70236727981592
  0
LINE
  8
_0-3_躯体と製品
  6
CONTINUOUS
 62
    3
 10
141.42565926066391
 20
107.70236727981592
 11
161.42565926066391
 21
127.70236727981592
  0
LINE
  8
_0-3_躯体と製品
  6
CONTINUOUS
 62
    3
 10
135.76880926066315
 20
107.70236727981592
 11
155.76880926066315
 21
127.70236727981592
  0
LINE
  8
_0-3_躯体と製品
  6
CONTINUOUS
 62
    4
 10
300.82513027335335
 20
259.70236727982297
 11
620.82513027335335
 21
259.70236727982297
  0
LINE
  8
_0-3_躯体と製品
  6
CONTINUOUS
 62
    4
 10
300.82513027335335
 20
287.70236727982297
 11
620.82513027335335
 21
287.70236727982297
  0
LINE
  8
_0-3_躯体と製品
  6
CONTINUOUS
 62
    7
 10
435.82513027335335
 20
269.20236727981705
 11
485.82513027335335
 21
269.20236727981705
  0
LINE
  8
_0-3_躯体と製品
  6
CONTINUOUS
 62
    7
 10
435.82513027335335
 20
274.20236727981705
 11
458.42513027335417
 21
274.20236727981705
  0
LINE
  8
_0-3_躯体と製品
  6
CONTINUOUS
 62
    7
 10
463.22513027335299
 20
274.20236727981705
 11
485.82513027335335
 21
274.20236727981705
  0
LINE
  8
_0-3_躯体と製品
  6
CONTINUOUS
 62
    7
 10
435.82513027335335
 20
274.50236727981701
 11
458.44395409339631
 21
274.50236727981701
  0
LINE
  8
_0-3_躯体と製品
  6
CONTINUOUS
 62
    7
 10
463.2063064533113
 20
274.50236727981701
 11
485.82513027335335
 21
274.50236727981701
  0
LINE
  8
_0-3_躯体と製品
  6
CONTINUOUS
 62
    7
 10
435.82513027335335
 20
273.9023672798171
 11
458.44395409339631
 21
273.9023672798171
  0
LINE
  8
_0-3_躯体と製品
  6
CONTINUOUS
 62
    7
 10
463.2063064533113
 20
273.9023672798171
 11
485.82513027335335
 21
273.9023672798171
  0
LINE
  8
_0-3_躯体と製品
  6
CONTINUOUS
 62
    7
 10
435.82513027335335
 20
259.70236727981705
 11
485.82513027335335
 21
259.70236727981705
  0
LINE
  8
_0-3_躯体と製品
  6
CONTINUOUS
 62
    7
 10
485.82513027335335
 20
259.70236727981705
 11
485.82513027335335
 21
280.70236727981705
  0
LINE
  8
_0-3_躯体と製品
  6
CONTINUOUS
 62
    7
 10
485.82513027335335
 20
280.70236727981705
 11
435.82513027335335
 21
280.70236727981705
  0
LINE
  8
_0-3_躯体と製品
  6
CONTINUOUS
 62
    7
 10
435.82513027335335
 20
280.70236727981705
 11
435.82513027335335
 21
259.70236727981705
  0
LINE
  8
_0-3_躯体と製品
  6
CONTINUOUS
 62
    7
 10
435.82513027335335
 20
265.50236727981701
 11
485.82513027335335
 21
265.50236727981701
  0
LINE
  8
_0-3_躯体と製品
  6
CONTINUOUS
 62
    7
 10
435.82513027335335
 20
265.20236727981705
 11
485.82513027335335
 21
265.20236727981705
  0
LINE
  8
_0-3_躯体と製品
  6
CONTINUOUS
 62
    7
 10
435.82513027335335
 20
261.70236727981705
 11
485.82513027335335
 21
261.70236727981705
  0
LINE
  8
_0-3_躯体と製品
  6
CONTINUOUS
 62
    4
 10
300.82513027335335
 20
282.2023672798241
 11
620.82513027335335
 21
282.2023672798241
  0
LINE
  8
_0-3_躯体と製品
  6
CONTINUOUS
 62
    4
 10
300.82513027335335
 20
265.20236727982297
 11
435.82513027335335
 21
265.20236727982297
  0
LINE
  8
_0-3_躯体と製品
  6
CONTINUOUS
 62
    4
 10
485.82513027335335
 20
265.20236727982297
 11
620.82513027335335
 21
265.20236727982297
  0
LINE
  8
_0-3_躯体と製品
  6
CONTINUOUS
 62
    4
 10
300.82513027335335
 20
261.7023672798241
 11
435.82513027335335
 21
261.7023672798241
  0
LINE
  8
_0-3_躯体と製品
  6
CONTINUOUS
 62
    4
 10
485.82513027335335
 20
261.7023672798241
 11
620.82513027335335
 21
261.7023672798241
  0
CIRCLE
  8
_0-3_躯体と製品
  6
CONTINUOUS
 62
    7
 10
460.82513027335335
 20
274.20236727981705
 40
2.399999999999999
  0
LINE
  8
_0-3_躯体と製品
  6
CONTINUOUS
 62
    7
 10
453.57513027335426
 20
257.76771327981805
 11
453.02513027335408
 21
257.45017327981805
  0
LINE
  8
_0-3_躯体と製品
  6
CONTINUOUS
 62
    7
 10
450.62513027335399
 20
257.37970327981611
 11
453.02513027335408
 21
258.08525827981703
  0
LINE
  8
_0-3_躯体と製品
  6
CONTINUOUS
 62
    7
 10
450.07513027335335
 20
257.062158279816
 11
450.62513027335399
 21
257.37970327981611
  0
LINE
  8
_0-3_躯体と製品
  6
CONTINUOUS
 62
    7
 10
450.62513027335399
 20
257.37970327981611
 11
450.62513027335399
 21
258.10236727981101
  0
LINE
  8
_0-3_躯体と製品
  6
CONTINUOUS
 62
    7
 10
450.62513027335399
 20
256.74461827981804
 11
453.02513027335408
 21
257.45017327981805
  0
LINE
  8
_0-3_躯体と製品
  6
CONTINUOUS
 62
    7
 10
450.62513027335399
 20
256.74461827981804
 11
450.07513027335335
 21
257.062158279816
  0
LINE
  8
_0-3_躯体と製品
  6
CONTINUOUS
 62
    7
 10
450.07513027335335
 20
257.062158279816
 11
453.57513027335426
 21
257.76771327981805
  0
LINE
  8
_0-3_躯体と製品
  6
CONTINUOUS
 62
    7
 10
453.57513027335426
 20
257.76771327981805
 11
453.02513027335408
 21
258.08525827981703
  0
LINE
  8
_0-3_躯体と製品
  6
CONTINUOUS
 62
    7
 10
453.02513027335408
 20
258.08525827981703
 11
453.02513027335408
 21
258.10236727981101
  0
LINE
  8
_0-3_躯体と製品
  6
CENTER1
 62
    7
 10
469.82513027335335
 20
247.73163727801398
 11
469.82513027335335
 21
272.04046939213504
  0
ARC
  8
_0-3_躯体と製品
  6
CONTINUOUS
 62
    7
 10
469.27813027338345
 20
265.91436727981926
 40
4.8189999999967217
 50
83.482557999943168
 51
131.88824500092531
  0
ARC
  8
_0-3_躯体と製品
  6
CONTINUOUS
 62
    7
 10
470.37213027333553
 20
265.91436727981511
 40
4.8190000000150608
 50
48.111749000578222
 51
96.517436998847415
  0
LINE
  8
_0-3_躯体と製品
  6
CONTINUOUS
 62
    7
 10
473.65138135935695
 20
269.20236727981705
 11
473.59013027333731
 21
269.50236727983497
  0
LINE
  8
_0-3_躯体と製品
  6
CONTINUOUS
 62
    7
 10
473.59013027333731
 20
269.50236727983497
 11
469.82513027335199
 21
269.50236727983497
  0
LINE
  8
_0-3_躯体と製品
  6
CONTINUOUS
 62
    7
 10
469.82513027335199
 20
269.50236727983497
 11
466.06013027333893
 21
269.50236727983497
  0
LINE
  8
_0-3_躯体と製品
  6
CONTINUOUS
 62
    7
 10
466.06013027333893
 20
269.50236727983497
 11
465.99887918732702
 21
269.20236727981705
  0
LINE
  8
_0-3_躯体と製品
  6
CONTINUOUS
 62
    7
 10
471.57513027335335
 20
256.35660327981691
 11
471.02513027335317
 21
256.0390632798169
  0
LINE
  8
_0-3_躯体と製品
  6
CONTINUOUS
 62
    7
 10
468.62513027335399
 20
255.96859327981497
 11
471.02513027335317
 21
256.67414827981497
  0
LINE
  8
_0-3_躯体と製品
  6
CONTINUOUS
 62
    7
 10
468.07513027335199
 20
255.65104827981509
 11
468.62513027335399
 21
255.96859327981497
  0
LINE
  8
_0-3_躯体と製品
  6
CONTINUOUS
 62
    7
 10
468.62513027335399
 20
255.96859327981497
 11
468.62513027335399
 21
256.744618279816
  0
LINE
  8
_0-3_躯体と製品
  6
CONTINUOUS
 62
    7
 10
471.02513027335317
 20
253.85192327981599
 11
471.57513027335335
 21
253.53438327981689
  0
LINE
  8
_0-3_躯体と製品
  6
CONTINUOUS
 62
    7
 10
469.82513027335335
 20
253.18160327981604
 11
471.57513027335335
 21
253.53438327981689
  0
LINE
  8
_0-3_躯体と製品
  6
CONTINUOUS
 62
    7
 10
471.57513027335335
 20
253.53438327981689
 11
471.02513027335317
 21
253.21683827981701
  0
LINE
  8
_0-3_躯体と製品
  6
CONTINUOUS
 62
    7
 10
471.02513027335317
 20
255.2630382798161
 11
471.57513027335335
 21
254.9454932798169
  0
ARC
  8
_0-3_躯体と製品
  6
CONTINUOUS
 62
    7
 10
474.34943027335294
 20
249.80823227982296
 40
4.5414449999999427
 50
137.05380000001753
 51
175.02121999999022
  0
ARC
  8
_0-3_躯体と製品
  6
CONTINUOUS
 62
    7
 10
469.84393027335227
 20
248.87886727982095
 40
1.3236349999999331
 50
90.813543000016324
 51
157.04087000002121
  0
LINE
  8
_0-3_躯体と製品
  6
CONTINUOUS
 62
    7
 10
471.02513027335317
 20
252.9023672798221
 11
468.62513027335399
 21
252.9023672798221
  0
LINE
  8
_0-3_躯体と製品
  6
CONTINUOUS
 62
    7
 10
468.62513027335399
 20
255.3335082798169
 11
471.02513027335317
 21
256.0390632798169
  0
LINE
  8
_0-3_躯体と製品
  6
CONTINUOUS
 62
    7
 10
471.02513027335317
 20
256.0390632798169
 11
471.02513027335317
 21
255.2630382798161
  0
LINE
  8
_0-3_躯体と製品
  6
CONTINUOUS
 62
    7
 10
471.02513027335317
 20
255.2630382798161
 11
468.62513027335399
 21
254.557478279816
  0
LINE
  8
_0-3_躯体と製品
  6
CONTINUOUS
 62
    7
 10
468.62513027335399
 20
254.557478279816
 11
468.07513027335199
 21
254.23993827981599
  0
LINE
  8
_0-3_躯体と製品
  6
CONTINUOUS
 62
    7
 10
471.02513027335317
 20
254.62794827981497
 11
471.57513027335335
 21
254.9454932798169
  0
LINE
  8
_0-3_躯体と製品
  6
CONTINUOUS
 62
    7
 10
471.57513027335335
 20
254.9454932798169
 11
468.07513027335199
 21
254.23993827981599
  0
LINE
  8
_0-3_躯体と製品
  6
CONTINUOUS
 62
    7
 10
468.07513027335199
 20
254.23993827981599
 11
468.62513027335399
 21
253.92239327981611
  0
LINE
  8
_0-3_躯体と製品
  6
CONTINUOUS
 62
    7
 10
468.62513027335399
 20
253.92239327981611
 11
471.02513027335317
 21
254.62794827981497
  0
LINE
  8
_0-3_躯体と製品
  6
CONTINUOUS
 62
    7
 10
471.02513027335317
 20
254.62794827981497
 11
471.02513027335317
 21
253.85192327981599
  0
LINE
  8
_0-3_躯体と製品
  6
CONTINUOUS
 62
    7
 10
471.02513027335317
 20
253.85192327981599
 11
469.82513027335335
 21
253.18160327981604
  0
LINE
  8
_0-3_躯体と製品
  6
CONTINUOUS
 62
    7
 10
469.82513027335335
 20
253.18160327981604
 11
471.02513027335317
 21
253.21683827981701
  0
LINE
  8
_0-3_躯体と製品
  6
CONTINUOUS
 62
    7
 10
471.02513027335317
 20
253.21683827981701
 11
471.02513027335317
 21
249.39518727982204
  0
LINE
  8
_0-3_躯体と製品
  6
CONTINUOUS
 62
    7
 10
471.02513027335317
 20
249.39518727982204
 11
469.82513027335335
 21
248.70236727982297
  0
LINE
  8
_0-3_躯体と製品
  6
CONTINUOUS
 62
    7
 10
469.82513027335335
 20
250.22955227982402
 11
469.82513027335335
 21
248.70236727982297
  0
LINE
  8
_0-3_躯体と製品
  6
CONTINUOUS
 62
    7
 10
469.82513027335335
 20
248.70236727982297
 11
468.62513027335399
 21
249.39518727982204
  0
LINE
  8
_0-3_躯体と製品
  6
CONTINUOUS
 62
    7
 10
468.62513027335399
 20
249.39518727982204
 11
468.62513027335399
 21
255.3335082798169
  0
LINE
  8
_0-3_躯体と製品
  6
CONTINUOUS
 62
    7
 10
468.62513027335399
 20
255.3335082798169
 11
468.07513027335199
 21
255.65104827981509
  0
LINE
  8
_0-3_躯体と製品
  6
CONTINUOUS
 62
    7
 10
468.07513027335199
 20
255.65104827981509
 11
471.57513027335335
 21
256.35660327981691
  0
LINE
  8
_0-3_躯体と製品
  6
CONTINUOUS
 62
    7
 10
471.57513027335335
 20
256.35660327981691
 11
471.02513027335317
 21
256.67414827981497
  0
LINE
  8
_0-3_躯体と製品
  6
CONTINUOUS
 62
    7
 10
471.02513027335317
 20
256.67414827981497
 11
471.02513027335317
 21
257.45017327981509
  0
LINE
  8
_0-3_躯体と製品
  6
CONTINUOUS
 62
    7
 10
471.57513027335335
 20
257.76771327981805
 11
471.02513027335317
 21
257.45017327981805
  0
LINE
  8
_0-3_躯体と製品
  6
CONTINUOUS
 62
    7
 10
468.62513027335399
 20
257.37970327981611
 11
471.02513027335317
 21
258.08525827981703
  0
LINE
  8
_0-3_躯体と製品
  6
CONTINUOUS
 62
    7
 10
468.07513027335199
 20
257.062158279816
 11
468.62513027335399
 21
257.37970327981611
  0
LINE
  8
_0-3_躯体と製品
  6
CONTINUOUS
 62
    7
 10
468.62513027335399
 20
257.37970327981611
 11
468.62513027335399
 21
258.10236727981101
  0
LINE
  8
_0-3_躯体と製品
  6
CONTINUOUS
 62
    7
 10
468.62513027335399
 20
256.74461827981804
 11
471.02513027335317
 21
257.45017327981805
  0
LINE
  8
_0-3_躯体と製品
  6
CONTINUOUS
 62
    7
 10
468.62513027335399
 20
256.74461827981804
 11
468.07513027335199
 21
257.062158279816
  0
LINE
  8
_0-3_躯体と製品
  6
CONTINUOUS
 62
    7
 10
468.07513027335199
 20
257.062158279816
 11
471.57513027335335
 21
257.76771327981805
  0
LINE
  8
_0-3_躯体と製品
  6
CONTINUOUS
 62
    7
 10
471.57513027335335
 20
257.76771327981805
 11
471.02513027335317
 21
258.08525827981703
  0
LINE
  8
_0-3_躯体と製品
  6
CONTINUOUS
 62
    7
 10
471.02513027335317
 20
258.08525827981703
 11
471.02513027335317
 21
258.10236727981101
  0
INSERT
  2
-015-_D17
  8
_0-2_寸法
 10
-3276.5416467183459
 20
-956.718375839072
 41
1
 42
1
 50
0
  0
LINE
  8
_0-3_躯体と製品
  6
CONTINUOUS
 62
    4
 10
-23.498220567828866
 20
260.70236727982297
 11
-84.498220567829776
 21
260.70236727982297
  0
LINE
  8
_0-3_躯体と製品
  6
CONTINUOUS
 62
    4
 10
-84.498220567829776
 20
287.70236727982297
 11
-21.498220567829776
 21
287.70236727982297
  0
ARC
  8
_0-3_躯体と製品
  6
CONTINUOUS
 62
    4
 10
-21.498220567829321
 20
286.70236727982251
 40
1.0000000000004547
 50
0.0000000000260423
 51
90.000000000026048
  0
LINE
  8
_0-3_躯体と製品
  6
CONTINUOUS
 62
    4
 10
-20.498220567828866
 20
286.70236727982297
 11
-20.498220567828866
 21
282.20236727982297
  0
LINE
  8
_0-3_躯体と製品
  6
CONTINUOUS
 62
    4
 10
-20.498220567828866
 20
282.20236727982297
 11
-24.498220567829776
 21
282.20236727982297
  0
ARC
  8
_0-3_躯体と製品
  6
CONTINUOUS
 62
    4
 10
-24.498220567829776
 20
279.20236727982297
 40
3
 50
90
 51
180
  0
LINE
  8
_0-3_躯体と製品
  6
CONTINUOUS
 62
    4
 10
-27.498220567829776
 20
279.20236727982297
 11
-27.498220567829776
 21
268.20236727982297
  0
ARC
  8
_0-3_躯体と製品
  6
CONTINUOUS
 62
    4
 10
-24.498220567829776
 20
268.20236727982297
 40
3
 50
180
 51
270
  0
LINE
  8
_0-3_躯体と製品
  6
CONTINUOUS
 62
    4
 10
-24.498220567829776
 20
265.20236727982297
 11
-20.498220567828866
 21
265.20236727982297
  0
LINE
  8
_0-3_躯体と製品
  6
CONTINUOUS
 62
    4
 10
-20.498220567828866
 20
265.20236727982297
 11
-20.498220567828866
 21
263.20236727982297
  0
ARC
  8
_0-3_躯体と製品
  6
CONTINUOUS
 62
    4
 10
-21.998220567828866
 20
263.20236727982297
 40
1.5
 50
270
 51
0
  0
LINE
  8
_0-3_躯体と製品
  6
CONTINUOUS
 62
    4
 10
-21.998220567828866
 20
261.70236727982297
 11
-23.498220567828866
 21
261.70236727982297
  0
LINE
  8
_0-3_躯体と製品
  6
CONTINUOUS
 62
    4
 10
-23.498220567828866
 20
261.70236727982297
 11
-23.498220567828866
 21
260.20236727982297
  0
ARC
  8
_0-3_躯体と製品
  6
CONTINUOUS
 62
    4
 10
-23.998220567829321
 20
260.20236727982342
 40
0.5000000000004547
 50
269.99999999994787
 51
359.99999999994787
  0
LINE
  8
_0-3_躯体と製品
  6
CONTINUOUS
 62
    4
 10
-23.998220567829776
 20
259.70236727982297
 11
-84.498220567829776
 21
259.70236727982297
  0
LINE
  8
_0-3_躯体と製品
  6
CONTINUOUS
 62
    4
 10
-84.498220567829776
 20
286.70236727982297
 11
-21.498220567829776
 21
286.70236727982297
  0
LINE
  8
_0-3_躯体と製品
  6
CONTINUOUS
 62
    4
 10
-21.498220567829776
 20
286.70236727982297
 11
-21.498220567829776
 21
282.20236727982297
  0
LINE
  8
_0-3_躯体と製品
  6
CONTINUOUS
 62
    4
 10
-57.998220567828866
 20
266.70236727982297
 11
-64.998220567829776
 21
266.70236727982297
  0
LINE
  8
_0-3_躯体と製品
  6
CONTINUOUS
 62
    4
 10
-64.998220567829776
 20
266.70236727982297
 11
-65.498220567829776
 21
267.20236727982297
  0
LINE
  8
_0-3_躯体と製品
  6
CONTINUOUS
 62
    4
 10
-65.498220567829776
 20
267.20236727982297
 11
-65.498220567829776
 21
280.20236727982297
  0
LINE
  8
_0-3_躯体と製品
  6
CONTINUOUS
 62
    4
 10
-65.498220567829776
 20
280.20236727982297
 11
-64.998220567829776
 21
280.70236727982297
  0
LINE
  8
_0-3_躯体と製品
  6
CONTINUOUS
 62
    4
 10
-64.998220567829776
 20
280.70236727982297
 11
-57.998220567828866
 21
280.70236727982297
  0
LINE
  8
_0-3_躯体と製品
  6
CONTINUOUS
 62
    4
 10
-57.998220567828866
 20
280.70236727982297
 11
-57.498220567829776
 21
280.20236727982297
  0
LINE
  8
_0-3_躯体と製品
  6
CONTINUOUS
 62
    4
 10
-57.498220567829776
 20
280.20236727982297
 11
-57.498220567829776
 21
267.20236727982297
  0
LINE
  8
_0-3_躯体と製品
  6
CONTINUOUS
 62
    4
 10
-57.498220567829776
 20
267.20236727982297
 11
-57.998220567828866
 21
266.70236727982297
  0
LINE
  8
_0-3_躯体と製品
  6
CONTINUOUS
 62
    4
 10
-84.498220567829776
 20
282.20236727982297
 11
-70.498220567828866
 21
282.20236727982297
  0
LINE
  8
_0-3_躯体と製品
  6
CONTINUOUS
 62
    4
 10
-70.498220567828866
 20
282.20236727982297
 11
-69.998220567829776
 21
281.70236727982297
  0
LINE
  8
_0-3_躯体と製品
  6
CONTINUOUS
 62
    4
 10
-69.998220567829776
 20
281.70236727982297
 11
-69.998220567829776
 21
265.70236727982297
  0
LINE
  8
_0-3_躯体と製品
  6
CONTINUOUS
 62
    4
 10
-69.998220567829776
 20
265.70236727982297
 11
-70.498220567828866
 21
265.20236727982297
  0
LINE
  8
_0-3_躯体と製品
  6
CONTINUOUS
 62
    4
 10
-70.498220567828866
 20
265.20236727982297
 11
-84.498220567829776
 21
265.20236727982297
  0
LINE
  8
_0-3_躯体と製品
  6
CONTINUOUS
 62
    4
 10
-32.998220567829776
 20
265.20236727982297
 11
-52.498220567828866
 21
265.20236727982297
  0
LINE
  8
_0-3_躯体と製品
  6
CONTINUOUS
 62
    4
 10
-52.498220567828866
 20
265.20236727982297
 11
-52.998220567829776
 21
265.70236727982297
  0
LINE
  8
_0-3_躯体と製品
  6
CONTINUOUS
 62
    4
 10
-52.998220567829776
 20
265.70236727982297
 11
-52.998220567829776
 21
281.70236727982297
  0
LINE
  8
_0-3_躯体と製品
  6
CONTINUOUS
 62
    4
 10
-52.998220567829776
 20
281.70236727982297
 11
-52.498220567828866
 21
282.20236727982297
  0
LINE
  8
_0-3_躯体と製品
  6
CONTINUOUS
 62
    4
 10
-52.498220567828866
 20
282.20236727982297
 11
-32.998220567829776
 21
282.20236727982297
  0
LINE
  8
_0-3_躯体と製品
  6
CONTINUOUS
 62
    4
 10
-32.998220567829776
 20
282.20236727982297
 11
-32.498220567829776
 21
281.70236727982297
  0
LINE
  8
_0-3_躯体と製品
  6
CONTINUOUS
 62
    4
 10
-32.498220567829776
 20
281.70236727982297
 11
-32.498220567829776
 21
265.70236727982297
  0
LINE
  8
_0-3_躯体と製品
  6
CONTINUOUS
 62
    4
 10
-32.498220567829776
 20
265.70236727982297
 11
-32.998220567829776
 21
265.20236727982297
  0
LINE
  8
_0-3_躯体と製品
  6
CONTINUOUS
 62
    7
 10
-26.998220567829776
 20
279.70236727982297
 11
-26.998220567829776
 21
268.50236727982292
  0
ARC
  8
_0-3_躯体と製品
  6
CONTINUOUS
 62
    7
 10
-23.998220567829776
 20
268.50236727982292
 40
3
 50
180
 51
270
  0
LINE
  8
_0-3_躯体と製品
  6
CONTINUOUS
 62
    7
 10
-23.998220567829776
 20
265.50236727982292
 11
-23.998220567829776
 21
265.20236727982297
  0
LINE
  8
_0-3_躯体と製品
  6
CONTINUOUS
 62
    7
 10
-23.998220567829776
 20
265.20236727982297
 11
-22.998220567829776
 21
265.20236727982297
  0
LINE
  8
_0-3_躯体と製品
  6
CONTINUOUS
 62
    7
 10
-22.998220567829776
 20
265.20236727982297
 11
-22.998220567829776
 21
265.50236727982292
  0
LINE
  8
_0-3_躯体と製品
  6
CONTINUOUS
 62
    7
 10
-22.998220567829776
 20
265.50236727982292
 11
-21.998220567828866
 21
265.50236727982292
  0
LINE
  8
_0-3_躯体と製品
  6
CONTINUOUS
 62
    7
 10
-21.998220567828866
 20
265.50236727982292
 11
-21.998220567828866
 21
265.20236727982297
  0
LINE
  8
_0-3_躯体と製品
  6
CONTINUOUS
 62
    7
 10
-21.998220567828866
 20
265.20236727982297
 11
-21.198220567830049
 21
265.20236727982297
  0
LINE
  8
_0-3_躯体と製品
  6
CONTINUOUS
 62
    7
 10
-21.198220567830049
 20
265.20236727982297
 11
-21.198220567830049
 21
265.50236727982292
  0
LINE
  8
_0-3_躯体と製品
  6
CONTINUOUS
 62
    7
 10
-21.198220567830049
 20
265.50236727982292
 11
-20.798220567829958
 21
265.50236727982292
  0
ARC
  8
_0-3_躯体と製品
  6
CONTINUOUS
 62
    7
 10
-20.798220567829389
 20
265.2023672798224
 40
0.3000000000005115
 50
0.0000000001063959
 51
90.000000000110745
  0
LINE
  8
_0-3_躯体と製品
  6
CONTINUOUS
 62
    7
 10
-20.498220567828866
 20
265.20236727982297
 11
-20.498220567828866
 21
261.70236727982297
  0
LINE
  8
_0-3_躯体と製品
  6
CONTINUOUS
 62
    7
 10
-20.498220567828866
 20
261.70236727982297
 11
-21.998220567828866
 21
261.70236727982297
  0
ARC
  8
_0-3_躯体と製品
  6
CONTINUOUS
 62
    7
 10
-21.998220567829321
 20
261.20236727982251
 40
0.5000000000004547
 50
89.999999999947889
 51
179.9999999999479
  0
LINE
  8
_0-3_躯体と製品
  6
CONTINUOUS
 62
    7
 10
-22.498220567829776
 20
261.20236727982297
 11
-22.498220567829776
 21
260.20236727982297
  0
ARC
  8
_0-3_躯体と製品
  6
CONTINUOUS
 62
    7
 10
-21.998220567829321
 20
260.20236727982342
 40
0.5000000000004547
 50
180.0000000000521
 51
270.00000000005213
  0
LINE
  8
_0-3_躯体と製品
  6
CONTINUOUS
 62
    7
 10
-21.998220567828866
 20
259.70236727982297
 11
-18.498220567829776
 21
259.70236727982297
  0
LINE
  8
_0-3_躯体と製品
  6
CONTINUOUS
 62
    7
 10
-18.498220567829776
 20
259.70236727982297
 11
-18.498220567829776
 21
260.00236727982292
  0
LINE
  8
_0-3_躯体と製品
  6
CONTINUOUS
 62
    7
 10
-18.498220567829776
 20
260.00236727982292
 11
-16.498220567828866
 21
260.00236727982292
  0
LINE
  8
_0-3_躯体と製品
  6
CONTINUOUS
 62
    7
 10
-16.498220567828866
 20
260.00236727982292
 11
-16.498220567828866
 21
259.70236727982297
  0
LINE
  8
_0-3_躯体と製品
  6
CONTINUOUS
 62
    7
 10
-16.498220567828866
 20
259.70236727982297
 11
-14.298220567829958
 21
259.70236727982297
  0
ARC
  8
_0-3_躯体と製品
  6
CONTINUOUS
 62
    7
 10
-14.298220567829958
 20
260.20236727982297
 40
0.4999999999999999
 50
270
 51
0.0000000000000127
  0
LINE
  8
_0-3_躯体と製品
  6
CONTINUOUS
 62
    7
 10
-13.798220567829958
 20
260.20236727982297
 11
-13.798220567829958
 21
261.20236727982297
  0
ARC
  8
_0-3_躯体と製品
  6
CONTINUOUS
 62
    7
 10
-14.298220567829958
 20
261.20236727982297
 40
0.4999999999999999
 50
0.0000000000000052
 51
90.000000000000014
  0
LINE
  8
_0-3_躯体と製品
  6
CONTINUOUS
 62
    7
 10
-14.298220567829958
 20
261.70236727982297
 11
-14.498220567829776
 21
261.70236727982297
  0
LINE
  8
_0-3_躯体と製品
  6
CONTINUOUS
 62
    7
 10
-14.498220567829776
 20
261.70236727982297
 11
-14.498220567829776
 21
265.20236727982297
  0
ARC
  8
_0-3_躯体と製品
  6
CONTINUOUS
 62
    7
 10
-14.198220567829935
 20
265.20236727982308
 40
0.2999999999998294
 50
90.000000000019554
 51
180.0000000000239
  0
LINE
  8
_0-3_躯体と製品
  6
CONTINUOUS
 62
    7
 10
-14.198220567830049
 20
265.50236727982292
 11
-13.798220567829958
 21
265.50236727982292
  0
LINE
  8
_0-3_躯体と製品
  6
CONTINUOUS
 62
    7
 10
-13.798220567829958
 20
265.50236727982292
 11
-13.798220567829958
 21
265.20236727982297
  0
LINE
  8
_0-3_躯体と製品
  6
CONTINUOUS
 62
    7
 10
-13.798220567829958
 20
265.20236727982297
 11
-12.998220567829776
 21
265.20236727982297
  0
LINE
  8
_0-3_躯体と製品
  6
CONTINUOUS
 62
    7
 10
-12.998220567829776
 20
265.20236727982297
 11
-12.998220567829776
 21
265.50236727982292
  0
LINE
  8
_0-3_躯体と製品
  6
CONTINUOUS
 62
    7
 10
-12.998220567829776
 20
265.50236727982292
 11
-11.998220567829776
 21
265.50236727982292
  0
LINE
  8
_0-3_躯体と製品
  6
CONTINUOUS
 62
    7
 10
-11.998220567829776
 20
265.50236727982292
 11
-11.998220567829776
 21
265.20236727982297
  0
LINE
  8
_0-3_躯体と製品
  6
CONTINUOUS
 62
    7
 10
-11.998220567829776
 20
265.20236727982297
 11
-10.998220567828866
 21
265.20236727982297
  0
LINE
  8
_0-3_躯体と製品
  6
CONTINUOUS
 62
    7
 10
-10.998220567828866
 20
265.20236727982297
 11
-10.998220567828866
 21
265.50236727982292
  0
LINE
  8
_0-3_躯体と製品
  6
CONTINUOUS
 62
    7
 10
-10.998220567828866
 20
265.50236727982292
 11
-10.798220567829958
 21
265.50236727982292
  0
ARC
  8
_0-3_躯体と製品
  6
CONTINUOUS
 62
    7
 10
-10.798220567829958
 20
266.3023672798231
 40
0.8000000000001704
 50
269.9999999999992
 51
0.0000000000008269
  0
LINE
  8
_0-3_躯体と製品
  6
CONTINUOUS
 62
    7
 10
-9.998220567829776
 20
266.3023672798231
 11
-9.998220567829776
 21
269.20236727982297
  0
LINE
  8
_0-3_躯体と製品
  6
CONTINUOUS
 62
    7
 10
-9.998220567829776
 20
269.20236727982297
 11
-10.498220567829776
 21
269.20236727982297
  0
ARC
  8
_0-3_躯体と製品
  6
CONTINUOUS
 62
    7
 10
-10.498220567829321
 20
268.70236727982342
 40
0.4999999999995452
 50
90.000000000052111
 51
180.0000000000521
  0
LINE
  8
_0-3_躯体と製品
  6
CONTINUOUS
 62
    7
 10
-10.998220567828866
 20
268.70236727982297
 11
-10.998220567828866
 21
268.20236727982297
  0
ARC
  8
_0-3_躯体と製品
  6
CONTINUOUS
 62
    7
 10
-11.498220567829321
 20
268.20236727982342
 40
0.5000000000004547
 50
269.99999999994787
 51
359.99999999994787
  0
LINE
  8
_0-3_躯体と製品
  6
CONTINUOUS
 62
    7
 10
-11.498220567829776
 20
267.70236727982297
 11
-17.198220567828685
 21
267.70236727982297
  0
LINE
  8
_0-3_躯体と製品
  6
CONTINUOUS
 62
    7
 10
-17.198220567828685
 20
267.70236727982297
 11
-17.498220567829776
 21
267.40236727982301
  0
LINE
  8
_0-3_躯体と製品
  6
CONTINUOUS
 62
    7
 10
-17.498220567829776
 20
267.40236727982301
 11
-17.798220567829958
 21
267.70236727982297
  0
LINE
  8
_0-3_躯体と製品
  6
CONTINUOUS
 62
    7
 10
-17.798220567829958
 20
267.70236727982297
 11
-24.498220567829776
 21
267.70236727982297
  0
ARC
  8
_0-3_躯体と製品
  6
CONTINUOUS
 62
    7
 10
-24.498220567829776
 20
268.20236727982297
 40
0.4999999999999999
 50
180
 51
270
  0
LINE
  8
_0-3_躯体と製品
  6
CONTINUOUS
 62
    7
 10
-24.998220567829776
 20
268.20236727982297
 11
-24.998220567829776
 21
273.90236727982301
  0
LINE
  8
_0-3_躯体と製品
  6
CONTINUOUS
 62
    7
 10
-24.998220567829776
 20
273.90236727982301
 11
-25.298220567829958
 21
274.20236727982297
  0
LINE
  8
_0-3_躯体と製品
  6
CONTINUOUS
 62
    7
 10
-25.298220567829958
 20
274.20236727982297
 11
-24.998220567829776
 21
274.50236727982292
  0
LINE
  8
_0-3_躯体と製品
  6
CONTINUOUS
 62
    7
 10
-24.998220567829776
 20
274.50236727982292
 11
-24.998220567829776
 21
279.70236727982297
  0
LINE
  8
_0-3_躯体と製品
  6
CONTINUOUS
 62
    7
 10
-24.998220567829776
 20
279.70236727982297
 11
-26.998220567829776
 21
279.70236727982297
  0
LINE
  8
_0-3_躯体と製品
  6
CONTINUOUS
 62
    4
 10
142.50177943217022
 20
260.70236727982297
 11
-11.498220567829776
 21
260.70236727982297
  0
LINE
  8
_0-3_躯体と製品
  6
CONTINUOUS
 62
    4
 10
142.00177943217113
 20
259.70236727982297
 11
-10.998220567828866
 21
259.70236727982297
  0
ARC
  8
_0-3_躯体と製品
  6
CONTINUOUS
 62
    4
 10
-10.998220567829321
 20
260.20236727982342
 40
0.5000000000004547
 50
180.0000000000521
 51
270.00000000005213
  0
LINE
  8
_0-3_躯体と製品
  6
CONTINUOUS
 62
    4
 10
-11.498220567829776
 20
260.20236727982297
 11
-11.498220567829776
 21
261.70236727982297
  0
LINE
  8
_0-3_躯体と製品
  6
CONTINUOUS
 62
    4
 10
-11.498220567829776
 20
261.70236727982297
 11
-12.998220567829776
 21
261.70236727982297
  0
ARC
  8
_0-3_躯体と製品
  6
CONTINUOUS
 62
    4
 10
-12.998220567829776
 20
263.20236727982297
 40
1.4999999999999856
 50
179.99999999999943
 51
270.00000000000057
  0
LINE
  8
_0-3_躯体と製品
  6
CONTINUOUS
 62
    4
 10
-14.498220567829776
 20
263.20236727982297
 11
-14.498220567829776
 21
265.20236727982297
  0
LINE
  8
_0-3_躯体と製品
  6
CONTINUOUS
 62
    4
 10
-14.498220567829776
 20
265.20236727982297
 11
-10.498220567829776
 21
265.20236727982297
  0
ARC
  8
_0-3_躯体と製品
  6
CONTINUOUS
 62
    4
 10
-10.498220567829776
 20
268.20236727982297
 40
3
 50
270
 51
0.0000000000000127
  0
LINE
  8
_0-3_躯体と製品
  6
CONTINUOUS
 62
    4
 10
-7.498220567829776
 20
268.20236727982297
 11
-7.498220567829776
 21
279.20236727982297
  0
ARC
  8
_0-3_躯体と製品
  6
CONTINUOUS
 62
    4
 10
-10.498220567829776
 20
279.20236727982297
 40
3
 50
0.0000000000000052
 51
90.000000000000014
  0
LINE
  8
_0-3_躯体と製品
  6
CONTINUOUS
 62
    4
 10
-10.498220567829776
 20
282.20236727982297
 11
-14.498220567829776
 21
282.20236727982297
  0
LINE
  8
_0-3_躯体と製品
  6
CONTINUOUS
 62
    4
 10
-14.498220567829776
 20
282.20236727982297
 11
-14.498220567829776
 21
286.70236727982297
  0
ARC
  8
_0-3_躯体と製品
  6
CONTINUOUS
 62
    4
 10
-13.498220567829776
 20
286.70236727982297
 40
0.9999999999999998
 50
89.999999999999986
 51
180
  0
LINE
  8
_0-3_躯体と製品
  6
CONTINUOUS
 62
    4
 10
-13.498220567829776
 20
287.70236727982297
 11
144.50177943217113
 21
287.70236727982297
  0
ARC
  8
_0-3_躯体と製品
  6
CONTINUOUS
 62
    4
 10
144.50177943217068
 20
286.70236727982342
 40
0.9999999999995451
 50
359.99999999997391
 51
89.999999999973952
  0
LINE
  8
_0-3_躯体と製品
  6
CONTINUOUS
 62
    4
 10
145.50177943217022
 20
286.70236727982297
 11
145.50177943217022
 21
282.20236727982297
  0
LINE
  8
_0-3_躯体と製品
  6
CONTINUOUS
 62
    4
 10
145.50177943217022
 20
282.20236727982297
 11
141.50177943217113
 21
282.20236727982297
  0
ARC
  8
_0-3_躯体と製品
  6
CONTINUOUS
 62
    4
 10
141.50177943217068
 20
279.20236727982251
 40
3.0000000000004534
 50
89.999999999991303
 51
179.9999999999913
  0
LINE
  8
_0-3_躯体と製品
  6
CONTINUOUS
 62
    4
 10
138.50177943217022
 20
279.20236727982297
 11
138.50177943217022
 21
268.20236727982297
  0
ARC
  8
_0-3_躯体と製品
  6
CONTINUOUS
 62
    4
 10
141.50177943217068
 20
268.20236727982342
 40
3.0000000000004534
 50
180.00000000000867
 51
270.0000000000087
  0
LINE
  8
_0-3_躯体と製品
  6
CONTINUOUS
 62
    4
 10
141.50177943217113
 20
265.20236727982297
 11
145.50177943217022
 21
265.20236727982297
  0
LINE
  8
_0-3_躯体と製品
  6
CONTINUOUS
 62
    4
 10
145.50177943217022
 20
265.20236727982297
 11
145.50177943217022
 21
263.20236727982297
  0
ARC
  8
_0-3_躯体と製品
  6
CONTINUOUS
 62
    4
 10
144.00177943217022
 20
263.20236727982297
 40
1.5
 50
270
 51
0
  0
LINE
  8
_0-3_躯体と製品
  6
CONTINUOUS
 62
    4
 10
144.00177943217022
 20
261.70236727982297
 11
142.50177943217022
 21
261.70236727982297
  0
LINE
  8
_0-3_躯体と製品
  6
CONTINUOUS
 62
    4
 10
142.50177943217022
 20
261.70236727982297
 11
142.50177943217022
 21
260.20236727982297
  0
LINE
  8
_0-3_躯体と製品
  6
CONTINUOUS
 62
    4
 10
142.50177943217022
 20
260.20236727982297
 11
142.00177943217113
 21
259.70236727982297
  0
LINE
  8
_0-3_躯体と製品
  6
CONTINUOUS
 62
    4
 10
-13.498220567829776
 20
282.20236727982297
 11
-13.498220567829776
 21
286.70236727982297
  0
LINE
  8
_0-3_躯体と製品
  6
CONTINUOUS
 62
    4
 10
-13.498220567829776
 20
286.70236727982297
 11
144.50177943217113
 21
286.70236727982297
  0
LINE
  8
_0-3_躯体と製品
  6
CONTINUOUS
 62
    4
 10
144.50177943217113
 20
286.70236727982297
 11
144.50177943217113
 21
282.20236727982297
  0
LINE
  8
_0-3_躯体と製品
  6
CONTINUOUS
 62
    4
 10
23.001779432170224
 20
266.70236727982297
 11
30.001779432170224
 21
266.70236727982297
  0
LINE
  8
_0-3_躯体と製品
  6
CONTINUOUS
 62
    4
 10
30.001779432170224
 20
266.70236727982297
 11
30.501779432170224
 21
267.20236727982297
  0
LINE
  8
_0-3_躯体と製品
  6
CONTINUOUS
 62
    4
 10
30.501779432170224
 20
267.20236727982297
 11
30.501779432170224
 21
280.20236727982297
  0
LINE
  8
_0-3_躯体と製品
  6
CONTINUOUS
 62
    4
 10
30.501779432170224
 20
280.20236727982297
 11
30.001779432170224
 21
280.70236727982297
  0
LINE
  8
_0-3_躯体と製品
  6
CONTINUOUS
 62
    4
 10
30.001779432170224
 20
280.70236727982297
 11
23.001779432170224
 21
280.70236727982297
  0
LINE
  8
_0-3_躯体と製品
  6
CONTINUOUS
 62
    4
 10
23.001779432170224
 20
280.70236727982297
 11
22.501779432171134
 21
280.20236727982297
  0
LINE
  8
_0-3_躯体と製品
  6
CONTINUOUS
 62
    4
 10
22.501779432171134
 20
280.20236727982297
 11
22.501779432171134
 21
267.20236727982297
  0
LINE
  8
_0-3_躯体と製品
  6
CONTINUOUS
 62
    4
 10
22.501779432171134
 20
267.20236727982297
 11
23.001779432170224
 21
266.70236727982297
  0
LINE
  8
_0-3_躯体と製品
  6
CONTINUOUS
 62
    4
 10
35.501779432170224
 20
265.20236727982297
 11
62.501779432170224
 21
265.20236727982297
  0
LINE
  8
_0-3_躯体と製品
  6
CONTINUOUS
 62
    4
 10
62.501779432170224
 20
265.20236727982297
 11
63.001779432170224
 21
265.70236727982297
  0
LINE
  8
_0-3_躯体と製品
  6
CONTINUOUS
 62
    4
 10
63.001779432170224
 20
265.70236727982297
 11
63.001779432170224
 21
281.70236727982297
  0
LINE
  8
_0-3_躯体と製品
  6
CONTINUOUS
 62
    4
 10
63.001779432170224
 20
281.70236727982297
 11
62.501779432170224
 21
282.20236727982297
  0
LINE
  8
_0-3_躯体と製品
  6
CONTINUOUS
 62
    4
 10
62.501779432170224
 20
282.20236727982297
 11
35.501779432170224
 21
282.20236727982297
  0
LINE
  8
_0-3_躯体と製品
  6
CONTINUOUS
 62
    4
 10
35.501779432170224
 20
282.20236727982297
 11
35.001779432170224
 21
281.70236727982297
  0
LINE
  8
_0-3_躯体と製品
  6
CONTINUOUS
 62
    4
 10
35.001779432170224
 20
281.70236727982297
 11
35.001779432170224
 21
265.70236727982297
  0
LINE
  8
_0-3_躯体と製品
  6
CONTINUOUS
 62
    4
 10
35.001779432170224
 20
265.70236727982297
 11
35.501779432170224
 21
265.20236727982297
  0
LINE
  8
_0-3_躯体と製品
  6
CONTINUOUS
 62
    4
 10
-1.998220567829776
 20
265.20236727982297
 11
17.501779432170224
 21
265.20236727982297
  0
LINE
  8
_0-3_躯体と製品
  6
CONTINUOUS
 62
    4
 10
17.501779432170224
 20
265.20236727982297
 11
18.001779432171134
 21
265.70236727982297
  0
LINE
  8
_0-3_躯体と製品
  6
CONTINUOUS
 62
    4
 10
18.001779432171134
 20
265.70236727982297
 11
18.001779432171134
 21
281.70236727982297
  0
LINE
  8
_0-3_躯体と製品
  6
CONTINUOUS
 62
    4
 10
18.001779432171134
 20
281.70236727982297
 11
17.501779432170224
 21
282.20236727982297
  0
LINE
  8
_0-3_躯体と製品
  6
CONTINUOUS
 62
    4
 10
17.501779432170224
 20
282.20236727982297
 11
-1.998220567829776
 21
282.20236727982297
  0
LINE
  8
_0-3_躯体と製品
  6
CONTINUOUS
 62
    4
 10
-1.998220567829776
 20
282.20236727982297
 11
-2.498220567829776
 21
281.70236727982297
  0
LINE
  8
_0-3_躯体と製品
  6
CONTINUOUS
 62
    4
 10
-2.498220567829776
 20
281.70236727982297
 11
-2.498220567829776
 21
265.70236727982297
  0
LINE
  8
_0-3_躯体と製品
  6
CONTINUOUS
 62
    4
 10
-2.498220567829776
 20
265.70236727982297
 11
-1.998220567829776
 21
265.20236727982297
  0
LINE
  8
_0-3_躯体と製品
  6
CONTINUOUS
 62
    4
 10
108.00177943217022
 20
266.70236727982297
 11
101.00177943217022
 21
266.70236727982297
  0
LINE
  8
_0-3_躯体と製品
  6
CONTINUOUS
 62
    4
 10
101.00177943217022
 20
266.70236727982297
 11
100.50177943217022
 21
267.20236727982297
  0
LINE
  8
_0-3_躯体と製品
  6
CONTINUOUS
 62
    4
 10
100.50177943217022
 20
267.20236727982297
 11
100.50177943217022
 21
280.20236727982297
  0
LINE
  8
_0-3_躯体と製品
  6
CONTINUOUS
 62
    4
 10
100.50177943217022
 20
280.20236727982297
 11
101.00177943217022
 21
280.70236727982297
  0
LINE
  8
_0-3_躯体と製品
  6
CONTINUOUS
 62
    4
 10
101.00177943217022
 20
280.70236727982297
 11
108.00177943217022
 21
280.70236727982297
  0
LINE
  8
_0-3_躯体と製品
  6
CONTINUOUS
 62
    4
 10
108.00177943217022
 20
280.70236727982297
 11
108.50177943217113
 21
280.20236727982297
  0
LINE
  8
_0-3_躯体と製品
  6
CONTINUOUS
 62
    4
 10
108.50177943217113
 20
280.20236727982297
 11
108.50177943217113
 21
267.20236727982297
  0
LINE
  8
_0-3_躯体と製品
  6
CONTINUOUS
 62
    4
 10
108.50177943217113
 20
267.20236727982297
 11
108.00177943217022
 21
266.70236727982297
  0
LINE
  8
_0-3_躯体と製品
  6
CONTINUOUS
 62
    4
 10
95.501779432170224
 20
265.20236727982297
 11
68.501779432170224
 21
265.20236727982297
  0
LINE
  8
_0-3_躯体と製品
  6
CONTINUOUS
 62
    4
 10
68.501779432170224
 20
265.20236727982297
 11
68.001779432170224
 21
265.70236727982297
  0
LINE
  8
_0-3_躯体と製品
  6
CONTINUOUS
 62
    4
 10
68.001779432170224
 20
265.70236727982297
 11
68.001779432170224
 21
281.70236727982297
  0
LINE
  8
_0-3_躯体と製品
  6
CONTINUOUS
 62
    4
 10
68.001779432170224
 20
281.70236727982297
 11
68.501779432170224
 21
282.20236727982297
  0
LINE
  8
_0-3_躯体と製品
  6
CONTINUOUS
 62
    4
 10
68.501779432170224
 20
282.20236727982297
 11
95.501779432170224
 21
282.20236727982297
  0
LINE
  8
_0-3_躯体と製品
  6
CONTINUOUS
 62
    4
 10
95.501779432170224
 20
282.20236727982297
 11
96.001779432170224
 21
281.70236727982297
  0
LINE
  8
_0-3_躯体と製品
  6
CONTINUOUS
 62
    4
 10
96.001779432170224
 20
281.70236727982297
 11
96.001779432170224
 21
265.70236727982297
  0
LINE
  8
_0-3_躯体と製品
  6
CONTINUOUS
 62
    4
 10
96.001779432170224
 20
265.70236727982297
 11
95.501779432170224
 21
265.20236727982297
  0
LINE
  8
_0-3_躯体と製品
  6
CONTINUOUS
 62
    4
 10
133.00177943217022
 20
265.20236727982297
 11
113.50177943217022
 21
265.20236727982297
  0
LINE
  8
_0-3_躯体と製品
  6
CONTINUOUS
 62
    4
 10
113.50177943217022
 20
265.20236727982297
 11
113.00177943217022
 21
265.70236727982297
  0
LINE
  8
_0-3_躯体と製品
  6
CONTINUOUS
 62
    4
 10
113.00177943217022
 20
265.70236727982297
 11
113.00177943217022
 21
281.70236727982297
  0
LINE
  8
_0-3_躯体と製品
  6
CONTINUOUS
 62
    4
 10
113.00177943217022
 20
281.70236727982297
 11
113.50177943217022
 21
282.20236727982297
  0
LINE
  8
_0-3_躯体と製品
  6
CONTINUOUS
 62
    4
 10
113.50177943217022
 20
282.20236727982297
 11
133.00177943217022
 21
282.20236727982297
  0
LINE
  8
_0-3_躯体と製品
  6
CONTINUOUS
 62
    4
 10
133.00177943217022
 20
282.20236727982297
 11
133.50177943217113
 21
281.70236727982297
  0
LINE
  8
_0-3_躯体と製品
  6
CONTINUOUS
 62
    4
 10
133.50177943217113
 20
281.70236727982297
 11
133.50177943217113
 21
265.70236727982297
  0
LINE
  8
_0-3_躯体と製品
  6
CONTINUOUS
 62
    4
 10
133.50177943217113
 20
265.70236727982297
 11
133.00177943217022
 21
265.20236727982297
  0
LINE
  8
_0-3_躯体と製品
  6
CONTINUOUS
 62
    7
 10
139.00177943217113
 20
279.70236727982297
 11
139.00177943217113
 21
268.50236727982292
  0
ARC
  8
_0-3_躯体と製品
  6
CONTINUOUS
 62
    7
 10
142.00177943217113
 20
268.50236727982292
 40
3
 50
180
 51
270
  0
LINE
  8
_0-3_躯体と製品
  6
CONTINUOUS
 62
    7
 10
142.00177943217113
 20
265.50236727982292
 11
142.00177943217113
 21
265.20236727982297
  0
LINE
  8
_0-3_躯体と製品
  6
CONTINUOUS
 62
    7
 10
142.00177943217113
 20
265.20236727982297
 11
143.00177943217113
 21
265.20236727982297
  0
LINE
  8
_0-3_躯体と製品
  6
CONTINUOUS
 62
    7
 10
143.00177943217113
 20
265.20236727982297
 11
143.00177943217113
 21
265.50236727982292
  0
LINE
  8
_0-3_躯体と製品
  6
CONTINUOUS
 62
    7
 10
143.00177943217113
 20
265.50236727982292
 11
144.00177943217022
 21
265.50236727982292
  0
LINE
  8
_0-3_躯体と製品
  6
CONTINUOUS
 62
    7
 10
144.00177943217022
 20
265.50236727982292
 11
144.00177943217022
 21
265.20236727982297
  0
LINE
  8
_0-3_躯体と製品
  6
CONTINUOUS
 62
    7
 10
144.00177943217022
 20
265.20236727982297
 11
144.80177943216995
 21
265.20236727982297
  0
LINE
  8
_0-3_躯体と製品
  6
CONTINUOUS
 62
    7
 10
144.80177943216995
 20
265.20236727982297
 11
144.80177943216995
 21
265.50236727982292
  0
LINE
  8
_0-3_躯体と製品
  6
CONTINUOUS
 62
    7
 10
144.80177943216995
 20
265.50236727982292
 11
145.20177943217004
 21
265.50236727982292
  0
ARC
  8
_0-3_躯体と製品
  6
CONTINUOUS
 62
    7
 10
145.20177943217016
 20
265.20236727982285
 40
0.3000000000000568
 50
0.0000000000195413
 51
90.000000000023888
  0
LINE
  8
_0-3_躯体と製品
  6
CONTINUOUS
 62
    7
 10
145.50177943217022
 20
265.20236727982297
 11
145.50177943217022
 21
261.70236727982297
  0
LINE
  8
_0-3_躯体と製品
  6
CONTINUOUS
 62
    7
 10
145.50177943217022
 20
261.70236727982297
 11
144.00177943217022
 21
261.70236727982297
  0
ARC
  8
_0-3_躯体と製品
  6
CONTINUOUS
 62
    7
 10
144.00177943217022
 20
261.20236727982297
 40
0.4999999999999999
 50
90
 51
180
  0
LINE
  8
_0-3_躯体と製品
  6
CONTINUOUS
 62
    7
 10
143.50177943217022
 20
261.20236727982297
 11
143.50177943217022
 21
260.20236727982297
  0
ARC
  8
_0-3_躯体と製品
  6
CONTINUOUS
 62
    7
 10
144.00177943217022
 20
260.20236727982297
 40
0.4999999999999999
 50
180
 51
270
  0
LINE
  8
_0-3_躯体と製品
  6
CONTINUOUS
 62
    7
 10
144.00177943217022
 20
259.70236727982297
 11
147.50177943217113
 21
259.70236727982297
  0
LINE
  8
_0-3_躯体と製品
  6
CONTINUOUS
 62
    7
 10
147.50177943217113
 20
259.70236727982297
 11
147.50177943217113
 21
260.00236727982292
  0
LINE
  8
_0-3_躯体と製品
  6
CONTINUOUS
 62
    7
 10
147.50177943217113
 20
260.00236727982292
 11
149.50177943217022
 21
260.00236727982292
  0
LINE
  8
_0-3_躯体と製品
  6
CONTINUOUS
 62
    7
 10
149.50177943217022
 20
260.00236727982292
 11
149.50177943217022
 21
259.70236727982297
  0
LINE
  8
_0-3_躯体と製品
  6
CONTINUOUS
 62
    7
 10
149.50177943217022
 20
259.70236727982297
 11
151.70177943217004
 21
259.70236727982297
  0
ARC
  8
_0-3_躯体と製品
  6
CONTINUOUS
 62
    7
 10
151.70177943217004
 20
260.20236727982297
 40
0.4999999999999999
 50
270
 51
0.0000000000000127
  0
LINE
  8
_0-3_躯体と製品
  6
CONTINUOUS
 62
    7
 10
152.20177943217004
 20
260.20236727982297
 11
152.20177943217004
 21
261.20236727982297
  0
ARC
  8
_0-3_躯体と製品
  6
CONTINUOUS
 62
    7
 10
151.70177943217004
 20
261.20236727982297
 40
0.4999999999999999
 50
0.0000000000000052
 51
90.000000000000014
  0
LINE
  8
_0-3_躯体と製品
  6
CONTINUOUS
 62
    7
 10
151.70177943217004
 20
261.70236727982297
 11
151.50177943217022
 21
261.70236727982297
  0
LINE
  8
_0-3_躯体と製品
  6
CONTINUOUS
 62
    7
 10
151.50177943217022
 20
261.70236727982297
 11
151.50177943217022
 21
265.20236727982297
  0
ARC
  8
_0-3_躯体と製品
  6
CONTINUOUS
 62
    7
 10
151.80177943217075
 20
265.2023672798224
 40
0.3000000000005115
 50
89.999999999889269
 51
179.99999999989362
  0
LINE
  8
_0-3_躯体と製品
  6
CONTINUOUS
 62
    7
 10
151.80177943217132
 20
265.50236727982292
 11
152.20177943217004
 21
265.50236727982292
  0
LINE
  8
_0-3_躯体と製品
  6
CONTINUOUS
 62
    7
 10
152.20177943217004
 20
265.50236727982292
 11
152.20177943217004
 21
265.20236727982297
  0
LINE
  8
_0-3_躯体と製品
  6
CONTINUOUS
 62
    7
 10
152.20177943217004
 20
265.20236727982297
 11
153.00177943217022
 21
265.20236727982297
  0
LINE
  8
_0-3_躯体と製品
  6
CONTINUOUS
 62
    7
 10
153.00177943217022
 20
265.20236727982297
 11
153.00177943217022
 21
265.50236727982292
  0
LINE
  8
_0-3_躯体と製品
  6
CONTINUOUS
 62
    7
 10
153.00177943217022
 20
265.50236727982292
 11
154.00177943217022
 21
265.50236727982292
  0
LINE
  8
_0-3_躯体と製品
  6
CONTINUOUS
 62
    7
 10
154.00177943217022
 20
265.50236727982292
 11
154.00177943217022
 21
265.20236727982297
  0
LINE
  8
_0-3_躯体と製品
  6
CONTINUOUS
 62
    7
 10
154.00177943217022
 20
265.20236727982297
 11
155.00177943217022
 21
265.20236727982297
  0
LINE
  8
_0-3_躯体と製品
  6
CONTINUOUS
 62
    7
 10
155.00177943217022
 20
265.20236727982297
 11
155.00177943217022
 21
265.50236727982292
  0
LINE
  8
_0-3_躯体と製品
  6
CONTINUOUS
 62
    7
 10
155.00177943217022
 20
265.50236727982292
 11
155.20177943217095
 21
265.50236727982292
  0
ARC
  8
_0-3_躯体と製品
  6
CONTINUOUS
 62
    7
 10
155.2017794321705
 20
266.30236727982265
 40
0.7999999999997156
 50
270.00000000003178
 51
0.0000000000333958
  0
LINE
  8
_0-3_躯体と製品
  6
CONTINUOUS
 62
    7
 10
156.00177943217022
 20
266.3023672798231
 11
156.00177943217022
 21
269.20236727982297
  0
LINE
  8
_0-3_躯体と製品
  6
CONTINUOUS
 62
    7
 10
156.00177943217022
 20
269.20236727982297
 11
155.50177943217022
 21
269.20236727982297
  0
ARC
  8
_0-3_躯体と製品
  6
CONTINUOUS
 62
    7
 10
155.50177943217022
 20
268.70236727982297
 40
0.4999999999999999
 50
90
 51
180
  0
LINE
  8
_0-3_躯体と製品
  6
CONTINUOUS
 62
    7
 10
155.00177943217022
 20
268.70236727982297
 11
155.00177943217022
 21
268.20236727982297
  0
ARC
  8
_0-3_躯体と製品
  6
CONTINUOUS
 62
    7
 10
154.50177943217022
 20
268.20236727982297
 40
0.4999999999999999
 50
270
 51
0
  0
LINE
  8
_0-3_躯体と製品
  6
CONTINUOUS
 62
    7
 10
154.50177943217022
 20
267.70236727982297
 11
148.80177943216995
 21
267.70236727982297
  0
LINE
  8
_0-3_躯体と製品
  6
CONTINUOUS
 62
    7
 10
148.80177943216995
 20
267.70236727982297
 11
148.50177943217022
 21
267.40236727982301
  0
LINE
  8
_0-3_躯体と製品
  6
CONTINUOUS
 62
    7
 10
148.50177943217022
 20
267.40236727982301
 11
148.20177943217004
 21
267.70236727982297
  0
LINE
  8
_0-3_躯体と製品
  6
CONTINUOUS
 62
    7
 10
148.20177943217004
 20
267.70236727982297
 11
141.50177943217113
 21
267.70236727982297
  0
ARC
  8
_0-3_躯体と製品
  6
CONTINUOUS
 62
    7
 10
141.50177943217068
 20
268.20236727982342
 40
0.5000000000004547
 50
180.0000000000521
 51
270.00000000005213
  0
LINE
  8
_0-3_躯体と製品
  6
CONTINUOUS
 62
    7
 10
141.00177943217022
 20
268.20236727982297
 11
141.00177943217022
 21
273.90236727982301
  0
LINE
  8
_0-3_躯体と製品
  6
CONTINUOUS
 62
    7
 10
141.00177943217022
 20
273.90236727982301
 11
140.70177943217004
 21
274.20236727982297
  0
LINE
  8
_0-3_躯体と製品
  6
CONTINUOUS
 62
    7
 10
140.70177943217004
 20
274.20236727982297
 11
141.00177943217022
 21
274.50236727982292
  0
LINE
  8
_0-3_躯体と製品
  6
CONTINUOUS
 62
    7
 10
141.00177943217022
 20
274.50236727982292
 11
141.00177943217022
 21
279.70236727982297
  0
LINE
  8
_0-3_躯体と製品
  6
CONTINUOUS
 62
    7
 10
141.00177943217022
 20
279.70236727982297
 11
139.00177943217113
 21
279.70236727982297
  0
LINE
  8
_0-5_中心線
  6
CENTER1
 62
    7
 10
-17.498220567829776
 20
248.70236727982297
 11
-17.498220567829776
 21
274.62611727982403
  0
ARC
  8
_0-3_躯体と製品
  6
CONTINUOUS
 62
    7
 10
-16.951220567860332
 20
265.91436727982517
 40
4.8189999999967217
 50
48.111754999074705
 51
96.51744200005686
  0
ARC
  8
_0-3_躯体と製品
  6
CONTINUOUS
 62
    7
 10
-18.045220567812351
 20
265.91436727981966
 40
4.8190000000167297
 50
83.482563001149714
 51
131.88825099941889
  0
LINE
  8
_0-3_躯体と製品
  6
CONTINUOUS
 62
    7
 10
-21.498220567829776
 20
267.90236727983506
 11
-21.498220567829776
 21
268.35136727982808
  0
LINE
  8
_0-3_躯体と製品
  6
CONTINUOUS
 62
    7
 10
-21.498220567829776
 20
268.35136727982808
 11
-21.263220567813732
 21
269.50236727984111
  0
LINE
  8
_0-3_躯体と製品
  6
CONTINUOUS
 62
    7
 10
-21.263220567813732
 20
269.50236727984111
 11
-17.498220567829776
 21
269.50236727984111
  0
LINE
  8
_0-3_躯体と製品
  6
CONTINUOUS
 62
    7
 10
-17.498220567829776
 20
269.50236727984111
 11
-13.733220567815806
 21
269.50236727984111
  0
LINE
  8
_0-3_躯体と製品
  6
CONTINUOUS
 62
    7
 10
-13.733220567815806
 20
269.50236727984111
 11
-13.498220567829776
 21
268.35136727982808
  0
LINE
  8
_0-3_躯体と製品
  6
CONTINUOUS
 62
    7
 10
-13.498220567829776
 20
268.35136727982808
 11
-13.498220567800672
 21
267.90236727983506
  0
ARC
  8
_0-3_躯体と製品
  6
CONTINUOUS
 62
    7
 10
-13.698220562576523
 20
267.90236727459882
 40
0.1999999947758626
 50
269.99999850019003
 51
0.000001500070494
  0
LINE
  8
_0-3_躯体と製品
  6
CONTINUOUS
 62
    7
 10
-13.698220567811859
 20
267.70236727982297
 11
-17.498220567829776
 21
267.70236727982297
  0
LINE
  8
_0-3_躯体と製品
  6
CONTINUOUS
 62
    7
 10
-17.498220567829776
 20
267.70236727982297
 11
-21.298220578295059
 21
267.70236727982297
  0
ARC
  8
_0-3_躯体と製品
  6
CONTINUOUS
 62
    7
 10
-21.298220567826547
 20
267.90236727982619
 40
0.200000000003252
 50
180.00000600062739
 51
269.99999700098601
  0
LINE
  8
_0-5_中心線
  6
CENTER1
 62
    7
 10
148.50177943217022
 20
248.70236727982297
 11
148.50177943217022
 21
274.62611727982403
  0
ARC
  8
_0-3_躯体と製品
  6
CONTINUOUS
 62
    7
 10
149.04877943213967
 20
265.91436727982517
 40
4.8189999999967217
 50
48.111754999074705
 51
96.51744200005686
  0
ARC
  8
_0-3_躯体と製品
  6
CONTINUOUS
 62
    7
 10
147.9547794321881
 20
265.91436727981863
 40
4.8190000000177866
 50
83.482563001145692
 51
131.88825099941488
  0
LINE
  8
_0-3_躯体と製品
  6
CONTINUOUS
 62
    7
 10
144.50177943217113
 20
267.90236727983506
 11
144.50177943217113
 21
268.35136727982808
  0
LINE
  8
_0-3_躯体と製品
  6
CONTINUOUS
 62
    7
 10
144.50177943217113
 20
268.35136727982808
 11
144.7367794321849
 21
269.50236727984111
  0
LINE
  8
_0-3_躯体と製品
  6
CONTINUOUS
 62
    7
 10
144.7367794321849
 20
269.50236727984111
 11
148.50177943217022
 21
269.50236727984111
  0
LINE
  8
_0-3_躯体と製品
  6
CONTINUOUS
 62
    7
 10
148.50177943217022
 20
269.50236727984111
 11
152.26677943218419
 21
269.50236727984111
  0
LINE
  8
_0-3_躯体と製品
  6
CONTINUOUS
 62
    7
 10
152.26677943218419
 20
269.50236727984111
 11
152.50177943217022
 21
268.35136727982808
  0
LINE
  8
_0-3_躯体と製品
  6
CONTINUOUS
 62
    7
 10
152.50177943217022
 20
268.35136727982808
 11
152.50177943220024
 21
267.90236727983506
  0
ARC
  8
_0-3_躯体と製品
  6
CONTINUOUS
 62
    7
 10
152.30177943742393
 20
267.90236727459927
 40
0.1999999947763173
 50
269.99999850005975
 51
0.0000014999402189
  0
LINE
  8
_0-3_躯体と製品
  6
CONTINUOUS
 62
    7
 10
152.30177943218814
 20
267.70236727982297
 11
148.50177943217022
 21
267.70236727982297
  0
LINE
  8
_0-3_躯体と製品
  6
CONTINUOUS
 62
    7
 10
148.50177943217022
 20
267.70236727982297
 11
144.70177942170403
 21
267.70236727982297
  0
ARC
  8
_0-3_躯体と製品
  6
CONTINUOUS
 62
    7
 10
144.70177943217348
 20
267.90236727982528
 40
0.2000000000023426
 50
180.00000600036677
 51
269.99999700072544
  0
TEXT
  8
_0-4_文字-記号
 62
    7
 10
394.94100664189727
 20
164.95982482869999
 40
10
 41
0.8
 50
0
  1
支持脚
  0
LINE
  8
_0-4_文字-記号
  6
CONTINUOUS
 62
    7
 10
393.23022564493112
 20
162.40575482870008
 11
454.82513027335426
 21
162.40575482870008
  0
TEXT
  8
_0-4_文字-記号
 62
    7
 10
-10.382344199285853
 20
164.95982482870295
 40
10
 41
0.8
 50
0
  1
支持脚
  0
LINE
  8
_0-4_文字-記号
  6
CONTINUOUS
 62
    7
 10
-12.093125196252913
 20
162.40575482870304
 11
49.501779432170224
 21
162.40575482870304
  0
TEXT
  8
_0-4_文字-記号
 62
    7
 10
384.63767247950591
 20
244.48965571892791
 40
10
 41
0.8
 50
0
  1
根太鋼
  0
LINE
  8
_0-4_文字-記号
  6
CONTINUOUS
 62
    7
 10
440.82513027335426
 20
237.73224615953995
 11
433.7392609361832
 21
250.00533186733901
  0
LINE
  8
_0-4_文字-記号
  6
CONTINUOUS
 62
    7
 10
433.7392609361832
 20
250.00533186733901
 11
414.66944930064892
 21
250.00533186733901
  0
LINE
  8
_0-3_躯体と製品
  6
CONTINUOUS
 62
    7
 10
55.501779432170224
 20
199.0023672798211
 11
55.50177943216795
 21
195.00236727982292
  0
LINE
  8
_0-3_躯体と製品
  6
CONTINUOUS
 62
    7
 10
64.497958835100235
 20
195.00236727982292
 11
64.497958835102963
 21
199.0023672798211
  0
LINE
  8
_0-3_躯体と製品
  6
CONTINUOUS
 62
    7
 10
46.50560002923703
 20
195.00236727982292
 11
46.505600029241123
 21
199.0023672798211
  0
LINE
  8
_0-3_躯体と製品
  6
CONTINUOUS
 62
    7
 10
51.003689730704082
 20
194.0023672798211
 11
59.999869133635002
 21
194.0023672798211
  0
ARC
  8
_0-3_躯体と製品
  6
CONTINUOUS
 62
    7
 10
51.003689730704082
 20
204.61877276101791
 40
10.61640548119736
 50
244.9320790439549
 51
295.06792095604521
  0
ARC
  8
_0-3_躯体と製品
  6
CONTINUOUS
 62
    7
 10
59.999869133635002
 20
204.61877276101791
 40
10.61640548119736
 50
244.9320790439549
 51
295.06792095604521
  0
LINE
  8
_0-3_躯体と製品
  6
CONTINUOUS
 62
    7
 10
33.001779432170224
 20
199.0023672798211
 11
78.001779432171134
 21
199.0023672798211
  0
LINE
  8
_0-3_躯体と製品
  6
CONTINUOUS
 62
    7
 10
33.001779432170224
 20
202.20236727982092
 11
78.001779432171134
 21
202.20236727982092
  0
LINE
  8
_0-3_躯体と製品
  6
CONTINUOUS
 62
    7
 10
33.001779432170224
 20
199.0023672798211
 11
33.001779432170224
 21
206.70236727982092
  0
LINE
  8
_0-3_躯体と製品
  6
CONTINUOUS
 62
    7
 10
78.001779432171134
 20
199.0023672798211
 11
78.001779432171134
 21
206.70236727982092
  0
LINE
  8
_0-3_躯体と製品
  6
CONTINUOUS
 62
    7
 10
50.567577187712232
 20
202.20236731161708
 11
46.067586187692996
 21
206.70236731161594
  0
LINE
  8
_0-3_躯体と製品
  6
CONTINUOUS
 62
    7
 10
63.139923184876352
 20
202.20236731161708
 11
58.639932312054043
 21
206.70236718441811
  0
LINE
  8
_0-3_躯体と製品
  6
CONTINUOUS
 62
    7
 10
52.363626615886005
 20
202.20236731161708
 11
47.863635615864951
 21
206.70236731161594
  0
LINE
  8
_0-3_躯体と製品
  6
CONTINUOUS
 62
    7
 10
64.9359726130333
 20
202.20236731161708
 11
60.435981740211901
 21
206.70236718441811
  0
LINE
  8
_0-3_躯体と製品
  6
CONTINUOUS
 62
    7
 10
37.99523119054993
 20
202.20236731161708
 11
33.49524019052933
 21
206.70236731161594
  0
LINE
  8
_0-3_躯体と製品
  6
CONTINUOUS
 62
    7
 10
39.79128061872234
 20
202.20236731161708
 11
35.291289618702194
 21
206.70236731161594
  0
LINE
  8
_0-3_躯体と製品
  6
CONTINUOUS
 62
    7
 10
75.712269182040018
 20
202.20236731161708
 11
71.212278309218163
 21
206.70236718441811
  0
LINE
  8
_0-3_躯体と製品
  6
CONTINUOUS
 62
    7
 10
77.50831861019833
 20
202.20236731161708
 11
73.008327737376021
 21
206.70236718441811
  0
LINE
  8
_0-4_文字-記号
  6
CONTINUOUS
 62
    7
 10
42.871735902774162
 20
204.3815487264169
 11
33.045709131715284
 21
187.36237127982008
  0
LINE
  8
_0-4_文字-記号
  6
CONTINUOUS
 62
    7
 10
33.045709131715284
 20
187.36237127982008
 11
-32.065564042617098
 21
187.36237127982008
  0
TEXT
  8
_0-4_文字-記号
 62
    7
 10
-31.89766664174067
 20
189.75180627982104
 40
10
 41
0.8
 50
0
  1
防振ゴム
  0
LINE
  8
_0-3_躯体と製品
  6
CONTINUOUS
 62
    7
 10
438.32513027335335
 20
199.00236727981701
 11
483.32513027335426
 21
199.00236727981701
  0
LINE
  8
_0-3_躯体と製品
  6
CONTINUOUS
 62
    7
 10
438.32513027335335
 20
202.20236727981705
 11
483.32513027335426
 21
202.20236727981705
  0
LINE
  8
_0-3_躯体と製品
  6
CONTINUOUS
 62
    7
 10
438.32513027335335
 20
199.00236727981701
 11
438.32513027335335
 21
206.70236727981705
  0
LINE
  8
_0-3_躯体と製品
  6
CONTINUOUS
 62
    7
 10
483.32513027335426
 20
199.00236727981701
 11
483.32513027335426
 21
206.70236727981705
  0
LINE
  8
_0-3_躯体と製品
  6
CONTINUOUS
 62
    7
 10
455.8909280288949
 20
202.20236731161299
 11
451.39093702887612
 21
206.70236731161208
  0
LINE
  8
_0-3_躯体と製品
  6
CONTINUOUS
 62
    7
 10
468.46327402605903
 20
202.20236731161299
 11
463.96328315323717
 21
206.70236718441492
  0
LINE
  8
_0-3_躯体と製品
  6
CONTINUOUS
 62
    7
 10
457.68697745706913
 20
202.20236731161299
 11
453.18698645704808
 21
206.70236731161208
  0
LINE
  8
_0-3_躯体と製品
  6
CONTINUOUS
 62
    7
 10
470.25932345421734
 20
202.20236731161299
 11
465.75933258139503
 21
206.70236718441492
  0
LINE
  8
_0-3_躯体と製品
  6
CONTINUOUS
 62
    7
 10
443.31858203173306
 20
202.20236731161299
 11
438.818591031712
 21
206.70236731161208
  0
LINE
  8
_0-3_躯体と製品
  6
CONTINUOUS
 62
    7
 10
445.11463145990501
 20
202.20236731161299
 11
440.61464045988532
 21
206.70236731161208
  0
LINE
  8
_0-3_躯体と製品
  6
CONTINUOUS
 62
    7
 10
481.03562002322406
 20
202.20236731161299
 11
476.53562915040129
 21
206.70236718441492
  0
LINE
  8
_0-3_躯体と製品
  6
CONTINUOUS
 62
    7
 10
482.831669451381
 20
202.20236731161299
 11
478.33167857855915
 21
206.70236718441492
  0
LINE
  8
_0-4_文字-記号
  6
CONTINUOUS
 62
    7
 10
448.19508674395593
 20
204.38154872641303
 11
438.36905997289796
 21
187.3623712798169
  0
LINE
  8
_0-4_文字-記号
  6
CONTINUOUS
 62
    7
 10
438.36905997289796
 20
187.3623712798169
 11
373.25778679856603
 21
187.3623712798169
  0
TEXT
  8
_0-4_文字-記号
 62
    7
 10
373.425684199442
 20
189.75180627981695
 40
10
 41
0.8
 50
0
  1
防振ゴム
  0
LINE
  8
_0-3_躯体と製品
  6
CONTINUOUS
 62
    4
 10
215.50177943217022
 20
260.70236727982297
 11
154.50177943217022
 21
260.70236727982297
  0
LINE
  8
_0-3_躯体と製品
  6
CONTINUOUS
 62
    4
 10
215.50177943217022
 20
259.70236727982297
 11
155.00177943217022
 21
259.70236727982297
  0
ARC
  8
_0-3_躯体と製品
  6
CONTINUOUS
 62
    4
 10
155.00177943217022
 20
260.20236727982297
 40
0.4999999999999999
 50
180
 51
270
  0
LINE
  8
_0-3_躯体と製品
  6
CONTINUOUS
 62
    4
 10
154.50177943217022
 20
260.20236727982297
 11
154.50177943217022
 21
261.70236727982297
  0
LINE
  8
_0-3_躯体と製品
  6
CONTINUOUS
 62
    4
 10
154.50177943217022
 20
261.70236727982297
 11
153.00177943217022
 21
261.70236727982297
  0
ARC
  8
_0-3_躯体と製品
  6
CONTINUOUS
 62
    4
 10
153.0017794321702
 20
263.20236727982297
 40
1.4999999999999856
 50
179.99999999999943
 51
270.00000000000057
  0
LINE
  8
_0-3_躯体と製品
  6
CONTINUOUS
 62
    4
 10
151.50177943217022
 20
263.20236727982297
 11
151.50177943217022
 21
265.20236727982297
  0
LINE
  8
_0-3_躯体と製品
  6
CONTINUOUS
 62
    4
 10
151.50177943217022
 20
265.20236727982297
 11
155.50177943217022
 21
265.20236727982297
  0
ARC
  8
_0-3_躯体と製品
  6
CONTINUOUS
 62
    4
 10
155.50177943217022
 20
268.20236727982297
 40
3
 50
270
 51
0.0000000000000127
  0
LINE
  8
_0-3_躯体と製品
  6
CONTINUOUS
 62
    4
 10
158.50177943217022
 20
268.20236727982297
 11
158.50177943217022
 21
279.20236727982297
  0
ARC
  8
_0-3_躯体と製品
  6
CONTINUOUS
 62
    4
 10
155.50177943217022
 20
279.20236727982297
 40
3
 50
0.0000000000000052
 51
90.000000000000014
  0
LINE
  8
_0-3_躯体と製品
  6
CONTINUOUS
 62
    4
 10
155.50177943217022
 20
282.20236727982297
 11
151.50177943217022
 21
282.20236727982297
  0
LINE
  8
_0-3_躯体と製品
  6
CONTINUOUS
 62
    4
 10
151.50177943217022
 20
282.20236727982297
 11
151.50177943217022
 21
286.70236727982297
  0
ARC
  8
_0-3_躯体と製品
  6
CONTINUOUS
 62
    4
 10
152.50177943217022
 20
286.70236727982297
 40
0.9999999999999998
 50
89.999999999999986
 51
180
  0
LINE
  8
_0-3_躯体と製品
  6
CONTINUOUS
 62
    4
 10
152.50177943217022
 20
287.70236727982297
 11
215.50177943217022
 21
287.70236727982297
  0
LINE
  8
_0-3_躯体と製品
  6
CONTINUOUS
 62
    4
 10
152.50177943217022
 20
282.20236727982297
 11
152.50177943217022
 21
286.70236727982297
  0
LINE
  8
_0-3_躯体と製品
  6
CONTINUOUS
 62
    4
 10
152.50177943217022
 20
286.70236727982297
 11
215.50177943217022
 21
286.70236727982297
  0
LINE
  8
_0-3_躯体と製品
  6
CONTINUOUS
 62
    4
 10
189.00177943217022
 20
266.70236727982297
 11
196.00177943217113
 21
266.70236727982297
  0
LINE
  8
_0-3_躯体と製品
  6
CONTINUOUS
 62
    4
 10
196.00177943217113
 20
266.70236727982297
 11
196.50177943217022
 21
267.20236727982297
  0
LINE
  8
_0-3_躯体と製品
  6
CONTINUOUS
 62
    4
 10
196.50177943217022
 20
267.20236727982297
 11
196.50177943217022
 21
280.20236727982297
  0
LINE
  8
_0-3_躯体と製品
  6
CONTINUOUS
 62
    4
 10
196.50177943217022
 20
280.20236727982297
 11
196.00177943217113
 21
280.70236727982297
  0
LINE
  8
_0-3_躯体と製品
  6
CONTINUOUS
 62
    4
 10
196.00177943217113
 20
280.70236727982297
 11
189.00177943217022
 21
280.70236727982297
  0
LINE
  8
_0-3_躯体と製品
  6
CONTINUOUS
 62
    4
 10
189.00177943217022
 20
280.70236727982297
 11
188.50177943217022
 21
280.20236727982297
  0
LINE
  8
_0-3_躯体と製品
  6
CONTINUOUS
 62
    4
 10
188.50177943217022
 20
280.20236727982297
 11
188.50177943217022
 21
267.20236727982297
  0
LINE
  8
_0-3_躯体と製品
  6
CONTINUOUS
 62
    4
 10
188.50177943217022
 20
267.20236727982297
 11
189.00177943217022
 21
266.70236727982297
  0
LINE
  8
_0-3_躯体と製品
  6
CONTINUOUS
 62
    4
 10
215.50177943217022
 20
282.20236727982297
 11
201.50177943217113
 21
282.20236727982297
  0
LINE
  8
_0-3_躯体と製品
  6
CONTINUOUS
 62
    4
 10
201.50177943217113
 20
282.20236727982297
 11
201.00177943217022
 21
281.70236727982297
  0
LINE
  8
_0-3_躯体と製品
  6
CONTINUOUS
 62
    4
 10
201.00177943217022
 20
281.70236727982297
 11
201.00177943217022
 21
265.70236727982297
  0
LINE
  8
_0-3_躯体と製品
  6
CONTINUOUS
 62
    4
 10
201.00177943217022
 20
265.70236727982297
 11
201.50177943217113
 21
265.20236727982297
  0
LINE
  8
_0-3_躯体と製品
  6
CONTINUOUS
 62
    4
 10
201.50177943217113
 20
265.20236727982297
 11
215.50177943217022
 21
265.20236727982297
  0
LINE
  8
_0-3_躯体と製品
  6
CONTINUOUS
 62
    4
 10
164.00177943217113
 20
265.20236727982297
 11
183.50177943217022
 21
265.20236727982297
  0
LINE
  8
_0-3_躯体と製品
  6
CONTINUOUS
 62
    4
 10
183.50177943217022
 20
265.20236727982297
 11
184.00177943217022
 21
265.70236727982297
  0
LINE
  8
_0-3_躯体と製品
  6
CONTINUOUS
 62
    4
 10
184.00177943217022
 20
265.70236727982297
 11
184.00177943217022
 21
281.70236727982297
  0
LINE
  8
_0-3_躯体と製品
  6
CONTINUOUS
 62
    4
 10
184.00177943217022
 20
281.70236727982297
 11
183.50177943217022
 21
282.20236727982297
  0
LINE
  8
_0-3_躯体と製品
  6
CONTINUOUS
 62
    4
 10
183.50177943217022
 20
282.20236727982297
 11
164.00177943217113
 21
282.20236727982297
  0
LINE
  8
_0-3_躯体と製品
  6
CONTINUOUS
 62
    4
 10
164.00177943217113
 20
282.20236727982297
 11
163.50177943217022
 21
281.70236727982297
  0
LINE
  8
_0-3_躯体と製品
  6
CONTINUOUS
 62
    4
 10
163.50177943217022
 20
281.70236727982297
 11
163.50177943217022
 21
265.70236727982297
  0
LINE
  8
_0-3_躯体と製品
  6
CONTINUOUS
 62
    4
 10
163.50177943217022
 20
265.70236727982297
 11
164.00177943217113
 21
265.20236727982297
  0
TEXT
  8
_0-4_文字-記号
 62
    7
 10
20.57686526211819
 20
366.97741653002208
 40
12
 41
1
 50
0
  1
基本ピッチ：支持脚 ９００×根太鋼 ５００
  0
ENDSEC
  0
EOF
