  0
SECTION
  2
HEADER
  9
$ACADVER
  1
AC1009
  9
$INSBASE
 10
0
 20
0
 30
0
  9
$EXTMIN
 10
0
 20
0
  9
$EXTMAX
 10
1188
 20
840
  9
$LIMMIN
 10
0
 20
0
  9
$LIMMAX
 10
1188
 20
840
  9
$LTSCALE
 40
2
  0
ENDSEC
  0
SECTION
  2
TABLES
  0
TABLE
  2
LTYPE
 70
     9
  0
LTYPE
  2
CONTINUOUS
 70
    64
  3
実線
 72
    65
 73
     0
 40
0.0
  0
LTYPE
  2
DASHED1
 70
    64
  3
--  --  --  --  --  --  --  --  
 72
    65
 73
     2
 40
2.5
 49
1.25
 49
-1.25
  0
LTYPE
  2
DASHED2
 70
    64
  3
----    ----    ----    ----    
 72
    65
 73
     2
 40
5.0
 49
2.5
 49
-2.5
  0
LTYPE
  2
DASHED3
 70
    64
  3
------  ------  ------  ------  
 72
    65
 73
     2
 40
5.0
 49
3.75
 49
-1.25
  0
LTYPE
  2
CENTER1
 70
    64
  3
----- - ----- - ----- - ----- - 
 72
    65
 73
     4
 40
10.0
 49
6.25
 49
-1.25
 49
1.25
 49
-1.25
  0
LTYPE
  2
CENTER2
 70
    64
  3
----------  --  ----------  --  
 72
    65
 73
     4
 40
20.0
 49
12.5
 49
-2.5
 49
2.5
 49
-2.5
  0
LTYPE
  2
PHANTOM1
 70
    64
  3
--- - - --- - - --- - - --- - - 
 72
    65
 73
     6
 40
10.0
 49
3.25
 49
-1.25
 49
1.25
 49
-1.25
 49
1.25
 49
-1.25
  0
LTYPE
  2
PHANTOM2
 70
    64
  3
--------  -  -  --------  -  -  
 72
    65
 73
     6
 40
20.0
 49
10.0
 49
-2.5
 49
1.25
 49
-2.5
 49
1.25
 49
-2.5
  0
LTYPE
  2
DOT
 70
    64
  3
-   -   -   -   -   -   -   -   
 72
    65
 73
     2
 40
2.5
 49
0.625
 49
-1.875
  0
LTYPE
  2
DUMMY
 70
    64
  3
ダミー
 72
    65
 73
     0
 40
0.0
  0
LTYPE
  2
RAND1
 70
    64
  3
ランダム線1
 72
    65
 73
     4
 40
10.0
 49
1.0
 49
-2.0
 49
3.0
 49
-4.0
  0
LTYPE
  2
RAND2
 70
    64
  3
ランダム線2
 72
    65
 73
     4
 40
14.0
 49
2.0
 49
-3.0
 49
4.0
 49
-5.0
  0
LTYPE
  2
RAND3
 70
    64
  3
ランダム線3
 72
    65
 73
     4
 40
18.0
 49
3.0
 49
-4.0
 49
5.0
 49
-6.0
  0
LTYPE
  2
RAND4
 70
    64
  3
ランダム線4
 72
    65
 73
     4
 40
22.0
 49
4.0
 49
-5.0
 49
6.0
 49
-7.0
  0
LTYPE
  2
RAND5
 70
    64
  3
ランダム線5
 72
    65
 73
     4
 40
26.0
 49
5.0
 49
-6.0
 49
7.0
 49
-8.0
  0
LTYPE
  2
LONG1
 70
    64
  3
----------  --  ----------  --  
 72
    65
 73
     4
 40
40.0
 49
32.5
 49
-2.5
 49
2.5
 49
-2.5
  0
LTYPE
  2
LONG2
 70
    64
  3
--------  -  -  --------  -  -  
 72
    65
 73
     6
 40
40.0
 49
30.0
 49
-2.5
 49
1.25
 49
-2.5
 49
1.25
 49
-2.5
  0
LTYPE
  2
LONG3
 70
    64
  3
+++++++++++++++..+++++++++++++++
 72
    65
 73
     2
 40
40.0
 49
37.5
 49
-2.5
  0
LTYPE
  2
LONG4
 70
    64
  3
+++++++++++++++..+++++++++++++++
 72
    65
 73
     2
 40
80.0
 49
75.0
 49
-5.0
  0
LTYPE
  2
LONG5
 70
    64
  3
----------  --  ----------  --  
 72
    65
 73
     4
 40
60.0
 49
37.5
 49
-7.5
 49
7.5
 49
-7.5
  0
LTYPE
  2
dashed
 70
   64
  3
-------   -------------   ------
 72
   65
 73
    2
 40
7.5
 49
6
 49
-1.5
  0
LTYPE
  2
dashed_spaced
 70
   64
  3
----        --------        ----
 72
   65
 73
    2
 40
12
 49
6
 49
-6
  0
LTYPE
  2
long_dashed_dotted
 70
   64
  3
------------- --- --------------
 72
   65
 73
    4
 40
15.25
 49
12
 49
-1.5
 49
0.25
 49
-1.5
  0
LTYPE
  2
long_dashed_double-dotted
 70
   64
  3
----------- --- --- ------------
 72
   65
 73
    6
 40
17
 49
12
 49
-1.5
 49
0.25
 49
-1.5
 49
0.25
 49
-1.5
  0
LTYPE
  2
long_dashed_triplicate-dotted
 70
   64
  3
--------- --- --- --- ----------
 72
   65
 73
    8
 40
18.75
 49
12
 49
-1.5
 49
0.25
 49
-1.5
 49
0.25
 49
-1.5
 49
0.25
 49
-1.5
  0
LTYPE
  2
dotted
 70
   64
  3
   -       -       -       -    
 72
   65
 73
    2
 40
1.75
 49
0.25
 49
-1.5
  0
LTYPE
  2
chain
 70
   64
  3
-------------- -- --------------
 72
   65
 73
    4
 40
18.5
 49
12
 49
-1.5
 49
3.5
 49
-1.5
  0
LTYPE
  2
chain_double_dash
 70
   64
  3
------------ -- -- -------------
 72
   65
 73
    6
 40
23.5
 49
12
 49
-1.5
 49
3.5
 49
-1.5
 49
3.5
 49
-1.5
  0
LTYPE
  2
dashed_dotted
 70
   64
  3
-----------     -     ----------
 72
   65
 73
    4
 40
9.25
 49
6
 49
-1.5
 49
0.25
 49
-1.5
  0
LTYPE
  2
double-dashed_dotted
 70
   64
  3
------   -----------   -   -----
 72
   65
 73
    6
 40
16.75
 49
6
 49
-1.5
 49
6
 49
-1.5
 49
0.25
 49
-1.5
  0
LTYPE
  2
dashed_double-dotted
 70
   64
  3
---------    -    -    ---------
 72
   65
 73
    6
 40
11
 49
6
 49
-1.5
 49
0.25
 49
-1.5
 49
0.25
 49
-1.5
  0
LTYPE
  2
double-dashed_double-dotted
 70
   64
  3
-----   ---------   -   -   ----
 72
   65
 73
    8
 40
18.5
 49
6
 49
-1.5
 49
6
 49
-1.5
 49
0.25
 49
-1.5
 49
0.25
 49
-1.5
  0
LTYPE
  2
dashed_triplicate-dotted
 70
   64
  3
-------    -    -    -    ------
 72
   65
 73
    8
 40
12.75
 49
6
 49
-1.5
 49
0.25
 49
-1.5
 49
0.25
 49
-1.5
 49
0.25
 49
-1.5
  0
LTYPE
  2
double-dashed_triplicate-dotted
 70
   64
  3
-----  ---------  -  -  -  -----
 72
   65
 73
   10
 40
20.25
 49
6
 49
-1.5
 49
6
 49
-1.5
 49
0.25
 49
-1.5
 49
0.25
 49
-1.5
 49
0.25
 49
-1.5
  0
LTYPE
  2
undefined
 70
   64
  3
--------------------------------
 72
   65
 73
    0
 40
0
  0
LTYPE
  2
PLINE2
 70
   64
  3
------     -----------     -----
 72
   65
 73
    2
 40
3
 49
2.1000000000000001
 49
-0.9
  0
ENDTAB
  0
TABLE
  2
STYLE
  5
3
100
AcDbSymbolTable
 70
     1
  0
STYLE
  5
10
100
AcDbSymbolTableRecord
100
AcDbTextStyleTableRecord
  2
STANDARD
 70
     0
 40
0.0
 41
1.0
 50
0.0
 71
     0
 42
0.2
  3
txt
  4
bigfont.shx
  0
STYLE
  5
26
100
AcDbSymbolTableRecord
100
AcDbTextStyleTableRecord
  2
TATEGAKI
 70
    68
 40
0.0
 41
1.0
 50
0.0
 71
     0
 42
1.0
  3
txt
  4
bigfont.shx
  0
ENDTAB
  0
TABLE
  2
LAYER
 70
    5
  0
LAYER
  2
_0-2_寸法
 70
   64
 62
    7
  6
CONTINUOUS
  0
LAYER
  2
_0-3_躯体と製品
 70
   64
 62
    7
  6
CONTINUOUS
  0
LAYER
  2
_0-4_文字-記号
 70
   64
 62
    7
  6
CONTINUOUS
  0
LAYER
  2
_0-5_中心線
 70
   64
 62
    7
  6
CONTINUOUS
  0
LAYER
  2
ADD_LINE
 70
   64
 62
    7
  6
CONTINUOUS
  0
ENDTAB
  0
ENDSEC
  0
SECTION
  2
BLOCKS
  0
BLOCK
  2
-000-_Dot
 70
   64
 10
0
 20
0
 30
0
  0
CIRCLE
  8
_0-0_0
  6
CONTINUOUS
 62
    7
 10
0
 20
0
 40
0.25
  0
LINE
  8
_0-0_0
  6
CONTINUOUS
 62
    7
 10
0.25
 20
0
 11
-0.25
 21
0
  0
LINE
  8
_0-0_0
  6
CONTINUOUS
 62
    7
 10
-0.5
 20
0
 11
-1
 21
0
  0
ENDBLK
  0
BLOCK
  2
-001-_D2
 70
   64
 10
0
 20
0
 30
0
  0
LINE
  8
_0-2_寸法
  6
CONTINUOUS
 62
    4
 10
2394.6856035411361
 20
1321.8985932288531
 11
2394.6856035411361
 21
1352.760920599165
  0
LINE
  8
_0-2_寸法
  6
CONTINUOUS
 62
    4
 10
2554.6856035411361
 20
1321.8985932288531
 11
2554.6856035411361
 21
1352.760920599165
  0
LINE
  8
_0-2_寸法
  6
CONTINUOUS
 62
    4
 10
2395.6856035411361
 20
1352.760920599165
 11
2553.6856035411361
 21
1352.760920599165
  0
INSERT
  2
-000-_Dot
  8
_0-2_寸法
 10
2394.6856035411361
 20
1352.760920599165
 41
1
 42
1
 50
180
  0
INSERT
  2
-000-_Dot
  8
_0-2_寸法
 10
2554.6856035411361
 20
1352.760920599165
 41
1
 42
1
 50
0
  0
TEXT
  8
_0-2_寸法
 62
    7
 10
2468.6856035411361
 20
1355.760920599166
 40
8
 41
1
 50
0
  1
160
  0
POINT
  8
_0-1_Defpoints
 62
    7
 10
2394.6856035411361
 20
1321.8985932288531
  0
POINT
  8
_0-1_Defpoints
 62
    7
 10
2554.6856035411361
 20
1321.8985932288531
  0
POINT
  8
_0-1_Defpoints
 62
    7
 10
2554.6856035411361
 20
1352.760920599165
  0
ENDBLK
  0
BLOCK
  2
-002-_D3
 70
   64
 10
0
 20
0
 30
0
  0
LINE
  8
_0-2_寸法
  6
CONTINUOUS
 62
    4
 10
2388.6856035411352
 20
1321.8985932288531
 11
2388.6856035411352
 21
1352.760920599165
  0
LINE
  8
_0-2_寸法
  6
CONTINUOUS
 62
    4
 10
2394.6856035411361
 20
1321.8985932288531
 11
2394.6856035411361
 21
1352.760920599165
  0
LINE
  8
_0-2_寸法
  6
CONTINUOUS
 62
    4
 10
2387.6856035411361
 20
1352.760920599165
 11
2386.6856035411361
 21
1352.760920599165
  0
LINE
  8
_0-2_寸法
  6
CONTINUOUS
 62
    4
 10
2395.6856035411361
 20
1352.760920599165
 11
2396.6856035411361
 21
1352.760920599165
  0
LINE
  8
_0-2_寸法
  6
CONTINUOUS
 62
    4
 10
2388.6856035411352
 20
1352.760920599165
 11
2394.6856035411361
 21
1352.760920599165
  0
INSERT
  2
-000-_Dot
  8
_0-2_寸法
 10
2388.6856035411352
 20
1352.760920599165
 41
1
 42
1
 50
0
  0
INSERT
  2
-000-_Dot
  8
_0-2_寸法
 10
2394.6856035411361
 20
1352.760920599165
 41
1
 42
1
 50
180
  0
TEXT
  8
_0-2_寸法
 62
    7
 10
2389.6856035411361
 20
1355.760920599166
 40
8
 41
1
 50
0
  1
6
  0
POINT
  8
_0-1_Defpoints
 62
    7
 10
2388.6856035411352
 20
1321.8985932288531
  0
POINT
  8
_0-1_Defpoints
 62
    7
 10
2394.6856035411361
 20
1321.8985932288531
  0
POINT
  8
_0-1_Defpoints
 62
    7
 10
2394.6856035411361
 20
1352.760920599165
  0
ENDBLK
  0
BLOCK
  2
-003-_D4
 70
   64
 10
0
 20
0
 30
0
  0
LINE
  8
_0-2_寸法
  6
CONTINUOUS
 62
    4
 10
2222.6856035411352
 20
1321.8985932288531
 11
2222.6856035411352
 21
1352.760920599165
  0
LINE
  8
_0-2_寸法
  6
CONTINUOUS
 62
    4
 10
2228.6856035411361
 20
1321.8985932288531
 11
2228.6856035411361
 21
1352.760920599165
  0
LINE
  8
_0-2_寸法
  6
CONTINUOUS
 62
    4
 10
2221.6856035411361
 20
1352.760920599165
 11
2220.6856035411361
 21
1352.760920599165
  0
LINE
  8
_0-2_寸法
  6
CONTINUOUS
 62
    4
 10
2229.6856035411361
 20
1352.760920599165
 11
2230.6856035411361
 21
1352.760920599165
  0
LINE
  8
_0-2_寸法
  6
CONTINUOUS
 62
    4
 10
2222.6856035411352
 20
1352.760920599165
 11
2228.6856035411361
 21
1352.760920599165
  0
INSERT
  2
-000-_Dot
  8
_0-2_寸法
 10
2222.6856035411352
 20
1352.760920599165
 41
1
 42
1
 50
0
  0
INSERT
  2
-000-_Dot
  8
_0-2_寸法
 10
2228.6856035411361
 20
1352.760920599165
 41
1
 42
1
 50
180
  0
TEXT
  8
_0-2_寸法
 62
    7
 10
2223.6856035411361
 20
1355.760920599166
 40
8
 41
1
 50
0
  1
6
  0
POINT
  8
_0-1_Defpoints
 62
    7
 10
2222.6856035411352
 20
1321.8985932288531
  0
POINT
  8
_0-1_Defpoints
 62
    7
 10
2228.6856035411361
 20
1321.8985932288531
  0
POINT
  8
_0-1_Defpoints
 62
    7
 10
2228.6856035411361
 20
1352.760920599165
  0
ENDBLK
  0
BLOCK
  2
-004-_D5
 70
   64
 10
0
 20
0
 30
0
  0
LINE
  8
_0-2_寸法
  6
CONTINUOUS
 62
    4
 10
2228.6856035411361
 20
1321.8985932288531
 11
2228.6856035411361
 21
1352.760920599165
  0
LINE
  8
_0-2_寸法
  6
CONTINUOUS
 62
    4
 10
2388.6856035411352
 20
1321.8985932288531
 11
2388.6856035411352
 21
1352.760920599165
  0
LINE
  8
_0-2_寸法
  6
CONTINUOUS
 62
    4
 10
2229.6856035411361
 20
1352.760920599165
 11
2387.6856035411361
 21
1352.760920599165
  0
INSERT
  2
-000-_Dot
  8
_0-2_寸法
 10
2228.6856035411361
 20
1352.760920599165
 41
1
 42
1
 50
180
  0
INSERT
  2
-000-_Dot
  8
_0-2_寸法
 10
2388.6856035411352
 20
1352.760920599165
 41
1
 42
1
 50
0
  0
TEXT
  8
_0-2_寸法
 62
    7
 10
2302.6856035411352
 20
1355.760920599166
 40
8
 41
1
 50
0
  1
160
  0
POINT
  8
_0-1_Defpoints
 62
    7
 10
2228.6856035411361
 20
1321.8985932288531
  0
POINT
  8
_0-1_Defpoints
 62
    7
 10
2388.6856035411352
 20
1321.8985932288531
  0
POINT
  8
_0-1_Defpoints
 62
    7
 10
2388.6856035411352
 20
1352.760920599165
  0
ENDBLK
  0
BLOCK
  2
-005-_D6
 70
   64
 10
0
 20
0
 30
0
  0
LINE
  8
_0-2_寸法
  6
CONTINUOUS
 62
    4
 10
2554.6856035411361
 20
1321.8985932288531
 11
2554.6856035411361
 21
1352.760920599165
  0
LINE
  8
_0-2_寸法
  6
CONTINUOUS
 62
    4
 10
2560.6856035411361
 20
1321.8985932288531
 11
2560.6856035411361
 21
1352.760920599165
  0
LINE
  8
_0-2_寸法
  6
CONTINUOUS
 62
    4
 10
2553.6856035411361
 20
1352.760920599165
 11
2552.6856035411361
 21
1352.760920599165
  0
LINE
  8
_0-2_寸法
  6
CONTINUOUS
 62
    4
 10
2561.6856035411361
 20
1352.760920599165
 11
2562.6856035411361
 21
1352.760920599165
  0
LINE
  8
_0-2_寸法
  6
CONTINUOUS
 62
    4
 10
2554.6856035411361
 20
1352.760920599165
 11
2560.6856035411361
 21
1352.760920599165
  0
INSERT
  2
-000-_Dot
  8
_0-2_寸法
 10
2554.6856035411361
 20
1352.760920599165
 41
1
 42
1
 50
0
  0
INSERT
  2
-000-_Dot
  8
_0-2_寸法
 10
2560.6856035411361
 20
1352.760920599165
 41
1
 42
1
 50
180
  0
TEXT
  8
_0-2_寸法
 62
    7
 10
2555.6856035411361
 20
1355.760920599166
 40
8
 41
1
 50
0
  1
6
  0
POINT
  8
_0-1_Defpoints
 62
    7
 10
2554.6856035411361
 20
1321.8985932288531
  0
POINT
  8
_0-1_Defpoints
 62
    7
 10
2560.6856035411361
 20
1321.8985932288531
  0
POINT
  8
_0-1_Defpoints
 62
    7
 10
2560.6856035411361
 20
1352.760920599165
  0
ENDBLK
  0
BLOCK
  2
-006-_D7
 70
   64
 10
0
 20
0
 30
0
  0
LINE
  8
_0-2_寸法
  6
CONTINUOUS
 62
    4
 10
2787.0089543823192
 20
1078.2007540328809
 11
2886.0089543823192
 21
1078.2007540328809
  0
INSERT
  2
-000-_Dot
  8
_0-2_寸法
 10
2887.0089543823192
 20
1078.2007540328809
 41
1
 42
1
 50
0
  0
TEXT
  8
_0-2_寸法
 62
    7
 10
2828.5089543823192
 20
1081.2007540328809
 40
8
 41
1
 50
0
  1
@500
  0
POINT
  8
_0-1_Defpoints
 62
    7
 10
2787.0089543823192
 20
1078.2007540328809
  0
POINT
  8
_0-1_Defpoints
 62
    7
 10
2887.0089543823192
 20
1078.2007540328809
  0
POINT
  8
_0-1_Defpoints
 62
    7
 10
2887.0089543823192
 20
1078.2007540328809
  0
ENDBLK
  0
BLOCK
  2
-007-_D8
 70
   64
 10
0
 20
0
 30
0
  0
LINE
  8
_0-2_寸法
  6
CONTINUOUS
 62
    4
 10
2888.0089543823192
 20
1078.2007540328809
 11
2987.0089543823192
 21
1078.2007540328809
  0
INSERT
  2
-000-_Dot
  8
_0-2_寸法
 10
2887.0089543823192
 20
1078.2007540328809
 41
1
 42
1
 50
180
  0
TEXT
  8
_0-2_寸法
 62
    7
 10
2929.5089543823201
 20
1081.2007540328809
 40
8
 41
1
 50
0
  1
@500
  0
POINT
  8
_0-1_Defpoints
 62
    7
 10
2887.0089543823192
 20
1078.2007540328809
  0
POINT
  8
_0-1_Defpoints
 62
    7
 10
2987.0089543823192
 20
1078.2007540328809
  0
POINT
  8
_0-1_Defpoints
 62
    7
 10
2987.0089543823192
 20
1078.2007540328809
  0
ENDBLK
  0
BLOCK
  2
-008-_D9
 70
   64
 10
0
 20
0
 30
0
  0
LINE
  8
_0-2_寸法
  6
CONTINUOUS
 62
    4
 10
3052.0089543823178
 20
1282.398593228859
 11
3076.7842843823182
 21
1282.398593228859
  0
LINE
  8
_0-2_寸法
  6
CONTINUOUS
 62
    4
 10
3052.0089543823178
 20
1310.398593228859
 11
3076.7842843823182
 21
1310.398593228859
  0
LINE
  8
_0-2_寸法
  6
CONTINUOUS
 62
    4
 10
3076.7842843823182
 20
1283.398593228859
 11
3076.7842843823182
 21
1309.398593228859
  0
INSERT
  2
-000-_Dot
  8
_0-2_寸法
 10
3076.7842843823182
 20
1282.398593228859
 41
1
 42
1
 50
270
  0
INSERT
  2
-000-_Dot
  8
_0-2_寸法
 10
3076.7842843823182
 20
1310.398593228859
 41
1
 42
1
 50
90
  0
TEXT
  8
_0-2_寸法
 62
    7
 10
3073.7842843823182
 20
1292.3985932288599
 40
8
 41
1
 50
90
  1
28
  0
POINT
  8
_0-1_Defpoints
 62
    7
 10
3052.0089543823178
 20
1282.398593228859
  0
POINT
  8
_0-1_Defpoints
 62
    7
 10
3052.0089543823178
 20
1310.398593228859
  0
POINT
  8
_0-1_Defpoints
 62
    7
 10
3076.7842843823182
 20
1310.398593228859
  0
ENDBLK
  0
BLOCK
  2
-009-_D10
 70
   64
 10
0
 20
0
 30
0
  0
LINE
  8
_0-2_寸法
  6
CONTINUOUS
 62
    4
 10
3052.0089543823178
 20
1150.3985932288531
 11
3105.7842843823182
 21
1150.3985932288531
  0
LINE
  8
_0-2_寸法
  6
CONTINUOUS
 62
    4
 10
3052.0089543823178
 20
1310.398593228859
 11
3105.7842843823182
 21
1310.398593228859
  0
LINE
  8
_0-2_寸法
  6
CONTINUOUS
 62
    4
 10
3105.7842843823182
 20
1151.3985932288531
 11
3105.7842843823182
 21
1309.398593228859
  0
INSERT
  2
-000-_Dot
  8
_0-2_寸法
 10
3105.7842843823182
 20
1150.3985932288531
 41
1
 42
1
 50
270
  0
INSERT
  2
-000-_Dot
  8
_0-2_寸法
 10
3105.7842843823182
 20
1310.398593228859
 41
1
 42
1
 50
90
  0
TEXT
  8
_0-2_寸法
 62
    7
 10
3102.7842843823182
 20
1216.398593228857
 40
8
 41
1
 50
90
  1
92～300
  0
POINT
  8
_0-1_Defpoints
 62
    7
 10
3052.0089543823178
 20
1150.3985932288531
  0
POINT
  8
_0-1_Defpoints
 62
    7
 10
3052.0089543823178
 20
1310.398593228859
  0
POINT
  8
_0-1_Defpoints
 62
    7
 10
3105.7842843823182
 20
1310.398593228859
  0
ENDBLK
  0
BLOCK
  2
-010-_D11
 70
   64
 10
0
 20
0
 30
0
  0
LINE
  8
_0-2_寸法
  6
CONTINUOUS
 62
    4
 10
2605.8713492357761
 20
1242.3985932288531
 11
2623.4831399654549
 21
1242.3985932288531
  0
LINE
  8
_0-2_寸法
  6
CONTINUOUS
 62
    4
 10
2605.8713492357761
 20
1282.3985932288531
 11
2623.4831399654549
 21
1282.3985932288531
  0
LINE
  8
_0-2_寸法
  6
CONTINUOUS
 62
    4
 10
2623.4831399654549
 20
1243.3985932288531
 11
2623.4831399654549
 21
1281.3985932288531
  0
INSERT
  2
-000-_Dot
  8
_0-2_寸法
 10
2623.4831399654549
 20
1242.3985932288531
 41
1
 42
1
 50
270
  0
INSERT
  2
-000-_Dot
  8
_0-2_寸法
 10
2623.4831399654549
 20
1282.3985932288531
 41
1
 42
1
 50
90
  0
TEXT
  8
_0-2_寸法
 62
    7
 10
2620.4831399654549
 20
1258.3985932288531
 40
8
 41
1
 50
90
  1
40
  0
POINT
  8
_0-1_Defpoints
 62
    7
 10
2605.8713492357761
 20
1242.3985932288531
  0
POINT
  8
_0-1_Defpoints
 62
    7
 10
2605.8713492357761
 20
1282.3985932288531
  0
POINT
  8
_0-1_Defpoints
 62
    7
 10
2623.4831399654549
 20
1282.3985932288531
  0
ENDBLK
  0
BLOCK
  2
-011-_D12
 70
   64
 10
0
 20
0
 30
0
  0
LINE
  8
_0-2_寸法
  6
CONTINUOUS
 62
    4
 10
2605.8713492357761
 20
1282.3985932288531
 11
2623.4831399654549
 21
1282.3985932288531
  0
LINE
  8
_0-2_寸法
  6
CONTINUOUS
 62
    4
 10
2605.8713492357761
 20
1310.398593228859
 11
2623.4831399654549
 21
1310.398593228859
  0
LINE
  8
_0-2_寸法
  6
CONTINUOUS
 62
    4
 10
2623.4831399654549
 20
1283.3985932288531
 11
2623.4831399654549
 21
1309.398593228859
  0
INSERT
  2
-000-_Dot
  8
_0-2_寸法
 10
2623.4831399654549
 20
1282.3985932288531
 41
1
 42
1
 50
270
  0
INSERT
  2
-000-_Dot
  8
_0-2_寸法
 10
2623.4831399654549
 20
1310.398593228859
 41
1
 42
1
 50
90
  0
TEXT
  8
_0-2_寸法
 62
    7
 10
2620.4831399654549
 20
1292.398593228857
 40
8
 41
1
 50
90
  1
28
  0
POINT
  8
_0-1_Defpoints
 62
    7
 10
2605.8713492357761
 20
1282.3985932288531
  0
POINT
  8
_0-1_Defpoints
 62
    7
 10
2605.8713492357761
 20
1310.398593228859
  0
POINT
  8
_0-1_Defpoints
 62
    7
 10
2623.4831399654549
 20
1310.398593228859
  0
ENDBLK
  0
BLOCK
  2
-012-_D13
 70
   64
 10
0
 20
0
 30
0
  0
LINE
  8
_0-2_寸法
  6
CONTINUOUS
 62
    4
 10
2605.3713492357761
 20
1150.395778228853
 11
2652.1902442918959
 21
1150.395778228853
  0
LINE
  8
_0-2_寸法
  6
CONTINUOUS
 62
    4
 10
2605.3713492357761
 20
1310.398593228859
 11
2652.1902442918959
 21
1310.398593228859
  0
LINE
  8
_0-2_寸法
  6
CONTINUOUS
 62
    4
 10
2652.1902442918959
 20
1151.395778228853
 11
2652.1902442918959
 21
1309.398593228859
  0
INSERT
  2
-000-_Dot
  8
_0-2_寸法
 10
2652.1902442918959
 20
1150.395778228853
 41
1
 42
1
 50
270
  0
INSERT
  2
-000-_Dot
  8
_0-2_寸法
 10
2652.1902442918959
 20
1310.398593228859
 41
1
 42
1
 50
90
  0
TEXT
  8
_0-2_寸法
 62
    7
 10
2649.1902442918949
 20
1216.39753098903
 40
8
 41
1
 50
90
  1
92～300
  0
POINT
  8
_0-1_Defpoints
 62
    7
 10
2605.3713492357761
 20
1150.395778228853
  0
POINT
  8
_0-1_Defpoints
 62
    7
 10
2605.3713492357761
 20
1310.398593228859
  0
POINT
  8
_0-1_Defpoints
 62
    7
 10
2652.1902442918959
 20
1310.398593228859
  0
ENDBLK
  0
BLOCK
  2
-013-_D14
 70
   64
 10
0
 20
0
 30
0
  0
LINE
  8
_0-2_寸法
  6
CONTINUOUS
 62
    4
 10
2561.6856035411361
 20
1352.760920599165
 11
2601.2632067394361
 21
1352.760920599165
  0
INSERT
  2
-000-_Dot
  8
_0-2_寸法
 10
2560.6856035411361
 20
1352.760920599165
 41
1
 42
1
 50
180
  0
TEXT
  8
_0-2_寸法
 62
    7
 10
2575.4744051402859
 20
1355.760920599166
 40
8
 41
1
 50
0
  1
160
  0
POINT
  8
_0-1_Defpoints
 62
    7
 10
2560.6856035411361
 20
1352.760920599165
  0
POINT
  8
_0-1_Defpoints
 62
    7
 10
2601.2632067394361
 20
1352.760920599165
  0
POINT
  8
_0-1_Defpoints
 62
    7
 10
2601.2632067394361
 20
1352.760920599165
  0
ENDBLK
  0
BLOCK
  2
-014-_D15
 70
   64
 10
0
 20
0
 30
0
  0
LINE
  8
_0-2_寸法
  6
CONTINUOUS
 62
    4
 10
2182.4080688312229
 20
1352.760920599165
 11
2221.6856035411361
 21
1352.760920599165
  0
INSERT
  2
-000-_Dot
  8
_0-2_寸法
 10
2222.6856035411352
 20
1352.760920599165
 41
1
 42
1
 50
0
  0
TEXT
  8
_0-2_寸法
 62
    7
 10
2196.0468361861799
 20
1355.760920599166
 40
8
 41
1
 50
0
  1
160
  0
POINT
  8
_0-1_Defpoints
 62
    7
 10
2182.4080688312229
 20
1352.760920599165
  0
POINT
  8
_0-1_Defpoints
 62
    7
 10
2222.6856035411352
 20
1352.760920599165
  0
POINT
  8
_0-1_Defpoints
 62
    7
 10
2222.6856035411352
 20
1352.760920599165
  0
ENDBLK
  0
BLOCK
  2
-015-_D16
 70
   64
 10
0
 20
0
 30
0
  0
LINE
  8
_0-2_寸法
  6
CONTINUOUS
 62
    4
 10
2251.6856035411361
 20
1078.2007540328841
 11
2380.6856035411361
 21
1078.2007540328841
  0
INSERT
  2
-000-_Dot
  8
_0-2_寸法
 10
2381.6856035411361
 20
1078.2007540328841
 41
1
 42
1
 50
0
  0
TEXT
  8
_0-2_寸法
 62
    7
 10
2308.1856035411361
 20
1081.2007540328841
 40
8
 41
1
 50
0
  1
@900
  0
POINT
  8
_0-1_Defpoints
 62
    7
 10
2251.6856035411361
 20
1078.2007540328841
  0
POINT
  8
_0-1_Defpoints
 62
    7
 10
2381.6856035411361
 20
1078.2007540328841
  0
POINT
  8
_0-1_Defpoints
 62
    7
 10
2381.6856035411361
 20
1078.2007540328841
  0
ENDBLK
  0
BLOCK
  2
-016-_D17
 70
   64
 10
0
 20
0
 30
0
  0
LINE
  8
_0-2_寸法
  6
CONTINUOUS
 62
    4
 10
2382.6856035411361
 20
1078.2007540328841
 11
2511.6856035411361
 21
1078.2007540328841
  0
INSERT
  2
-000-_Dot
  8
_0-2_寸法
 10
2381.6856035411361
 20
1078.2007540328841
 41
1
 42
1
 50
180
  0
TEXT
  8
_0-2_寸法
 62
    7
 10
2439.1856035411361
 20
1081.2007540328841
 40
8
 41
1
 50
0
  1
@900
  0
POINT
  8
_0-1_Defpoints
 62
    7
 10
2381.6856035411361
 20
1078.2007540328841
  0
POINT
  8
_0-1_Defpoints
 62
    7
 10
2511.6856035411361
 20
1078.2007540328841
  0
POINT
  8
_0-1_Defpoints
 62
    7
 10
2511.6856035411361
 20
1078.2007540328841
  0
ENDBLK
  0
BLOCK
  2
-017-_D18
 70
   64
 10
0
 20
0
 30
0
  0
LINE
  8
_0-2_寸法
  6
CONTINUOUS
 62
    4
 10
2929.008954382296
 20
1242.398593228859
 11
3076.7842843823182
 21
1242.398593228859
  0
LINE
  8
_0-2_寸法
  6
CONTINUOUS
 62
    4
 10
3052.0089543823178
 20
1282.398593228859
 11
3076.7842843823182
 21
1282.398593228859
  0
LINE
  8
_0-2_寸法
  6
CONTINUOUS
 62
    4
 10
3076.7842843823182
 20
1243.398593228859
 11
3076.7842843823182
 21
1281.398593228859
  0
INSERT
  2
-000-_Dot
  8
_0-2_寸法
 10
3076.7842843823182
 20
1242.398593228859
 41
1
 42
1
 50
270
  0
INSERT
  2
-000-_Dot
  8
_0-2_寸法
 10
3076.7842843823182
 20
1282.398593228859
 41
1
 42
1
 50
90
  0
TEXT
  8
_0-2_寸法
 62
    7
 10
3073.7842843823169
 20
1258.3985932288599
 40
8
 41
1
 50
90
  1
40
  0
POINT
  8
_0-1_Defpoints
 62
    7
 10
2929.008954382296
 20
1242.398593228859
  0
POINT
  8
_0-1_Defpoints
 62
    7
 10
3052.0089543823178
 20
1282.398593228859
  0
POINT
  8
_0-1_Defpoints
 62
    7
 10
3076.7842843823182
 20
1282.398593228859
  0
ENDBLK
  0
ENDSEC
  0
SECTION
  2
ENTITIES
  0
LINE
  8
_0-3_躯体と製品
  6
CONTINUOUS
 62
    7
 10
852.02401042059182
 20
325.36262040242514
 11
822.02401042059182
 21
325.36262040242514
  0
LINE
  8
_0-3_躯体と製品
  6
CONTINUOUS
 62
    7
 10
822.02401042059182
 20
325.36262040242514
 11
822.02401042059182
 21
328.36262040242514
  0
LINE
  8
_0-3_躯体と製品
  6
CONTINUOUS
 62
    7
 10
822.02401042059182
 20
328.36262040242514
 11
852.02401042059182
 21
328.36262040242514
  0
LINE
  8
_0-3_躯体と製品
  6
CONTINUOUS
 62
    7
 10
852.02401042059182
 20
328.36262040242514
 11
852.02401042059182
 21
325.36262040242514
  0
ARC
  8
_0-3_躯体と製品
  6
CONTINUOUS
 62
    7
 10
837.02401042059125
 20
418.91562040243127
 40
18.553000000000175
 50
251.13144099976682
 51
269.61088699992172
  0
ARC
  8
_0-3_躯体と製品
  6
CONTINUOUS
 62
    7
 10
790.27401042058762
 20
412.11262040242934
 40
3.249999999995798
 50
90.000002999934651
 51
180.00000000007415
  0
LINE
  8
_0-3_躯体と製品
  6
CONTINUOUS
 62
    7
 10
787.02401042059182
 20
412.11262040242514
 11
787.02401042059182
 21
404.36262040242514
  0
LINE
  8
_0-3_躯体と製品
  6
CONTINUOUS
 62
    7
 10
787.02401042059182
 20
404.36262040242514
 11
887.02401042059182
 21
404.36262040242514
  0
LINE
  8
_0-3_躯体と製品
  6
CONTINUOUS
 62
    7
 10
887.02401042059182
 20
404.36262040242514
 11
887.02401042059182
 21
412.11262040242514
  0
ARC
  8
_0-3_躯体と製品
  6
CONTINUOUS
 62
    7
 10
883.77401042059182
 20
412.11262040242514
 40
3.2500000000000044
 50
0.0000000000000816
 51
89.999999999999929
  0
LINE
  8
_0-3_躯体と製品
  6
CONTINUOUS
 62
    7
 10
883.77401042059182
 20
415.36262040242514
 11
837.02401042059182
 21
415.36262040242514
  0
LINE
  8
_0-3_躯体と製品
  6
CONTINUOUS
 62
    7
 10
837.02401042059182
 20
415.36262040242514
 11
790.27401042059182
 21
415.36262040242514
  0
LINE
  8
_0-3_躯体と製品
  6
CONTINUOUS
 62
    4
 10
677.02401042059182
 20
325.36262040242514
 11
997.02401042059182
 21
325.36262040242514
  0
ARC
  8
_0-3_躯体と製品
  6
CONTINUOUS
 62
    7
 10
828.02601042060019
 20
405.36662040242436
 40
5.0039999999997375
 50
233.13925800012962
 51
306.80349100000603
  0
LINE
  8
_0-3_躯体と製品
  6
CONTINUOUS
 62
    7
 10
831.02401042059182
 20
401.35962040242703
 11
831.02401042059182
 21
404.36262040242514
  0
LINE
  8
_0-3_躯体と製品
  6
CONTINUOUS
 62
    7
 10
825.02401042059182
 20
401.36262040243105
 11
825.02401042059182
 21
404.36262040242514
  0
LINE
  8
_0-5_中心線
  6
CENTER1
 62
    7
 10
837.02401042059182
 20
247.69421619328114
 11
837.02401042059182
 21
468.62472613650516
  0
ARC
  8
_0-3_躯体と製品
  6
CONTINUOUS
 62
    7
 10
846.02201042058368
 20
405.36662040242487
 40
5.0040000000003273
 50
233.19650300002377
 51
306.86073700001896
  0
LINE
  8
_0-3_躯体と製品
  6
CONTINUOUS
 62
    7
 10
846.02201042058368
 20
400.36262040243105
 11
837.02401042059182
 21
400.36262040243105
  0
LINE
  8
_0-3_躯体と製品
  6
CONTINUOUS
 62
    7
 10
837.02401042059182
 20
400.36262040243105
 11
828.0260104205995
 21
400.36262040243105
  0
ARC
  8
_0-3_躯体と製品
  6
CONTINUOUS
 62
    7
 10
837.02401042058966
 20
418.91562040243144
 40
18.553000000000228
 50
270.3891070001867
 51
288.86855299987144
  0
LINE
  8
_0-3_躯体と製品
  6
CONTINUOUS
 62
    7
 10
843.02401042059182
 20
404.36262040242514
 11
843.02401042059182
 21
401.35962040242703
  0
LINE
  8
_0-3_躯体と製品
  6
CONTINUOUS
 62
    7
 10
849.02401042059182
 20
401.36262040243105
 11
849.02401042059182
 21
404.36262040242514
  0
LINE
  8
_0-3_躯体と製品
  6
CONTINUOUS
 62
    7
 10
832.52401042058364
 20
400.36262040243105
 11
832.52401042058455
 21
328.36262040242514
  0
LINE
  8
_0-3_躯体と製品
  6
CONTINUOUS
 62
    7
 10
831.02401042058364
 20
400.36262040243105
 11
831.02401042058455
 21
328.36262040242514
  0
LINE
  8
_0-3_躯体と製品
  6
CONTINUOUS
 62
    7
 10
841.52401042058455
 20
400.36262040243105
 11
841.52401042058455
 21
328.36262040242514
  0
LINE
  8
_0-3_躯体と製品
  6
CONTINUOUS
 62
    7
 10
843.02401042058455
 20
400.36262040243105
 11
843.02401042058455
 21
328.36262040242514
  0
LINE
  8
_0-3_躯体と製品
  6
PLINE2
 62
    7
 10
832.52401042059182
 20
290.36262040242514
 11
832.52401042059182
 21
325.36262040242514
  0
LINE
  8
_0-3_躯体と製品
  6
PLINE2
 62
    7
 10
831.02401042059182
 20
291.86262040242514
 11
831.02401042059182
 21
325.36262040242514
  0
LINE
  8
_0-3_躯体と製品
  6
PLINE2
 62
    7
 10
843.02401042059182
 20
291.86262040242514
 11
843.02401042059182
 21
325.36262040242514
  0
LINE
  8
_0-3_躯体と製品
  6
PLINE2
 62
    7
 10
841.52401042059182
 20
290.36262040242514
 11
841.52401042059182
 21
325.36262040242514
  0
LINE
  8
_0-3_躯体と製品
  6
PLINE2
 62
    7
 10
841.52401042059182
 20
290.36262040242514
 11
832.52401042059182
 21
290.36262040242514
  0
LINE
  8
_0-3_躯体と製品
  6
PLINE2
 62
    7
 10
832.52401042059182
 20
290.36262040242514
 11
831.02401042059182
 21
291.86262040242514
  0
LINE
  8
_0-3_躯体と製品
  6
PLINE2
 62
    7
 10
831.02401042059182
 20
291.86262040242514
 11
843.02401042059182
 21
291.86262040242514
  0
LINE
  8
_0-3_躯体と製品
  6
PLINE2
 62
    7
 10
843.02401042059182
 20
291.86262040242514
 11
841.52401042059182
 21
290.36262040242514
  0
LINE
  8
_0-3_躯体と製品
  6
PLINE2
 62
    7
 10
844.02401042059182
 20
325.36262040242514
 11
844.02401042059182
 21
289.65762040243112
  0
LINE
  8
_0-3_躯体と製品
  6
PLINE2
 62
    7
 10
844.02401042059182
 20
289.65762040243112
 11
837.02401042059182
 21
285.61462040243305
  0
LINE
  8
_0-3_躯体と製品
  6
PLINE2
 62
    7
 10
837.02401042059182
 20
285.61462040243305
 11
830.02401042059182
 21
289.65762040243112
  0
LINE
  8
_0-3_躯体と製品
  6
PLINE2
 62
    7
 10
830.02401042059182
 20
289.65762040243112
 11
830.02401042059182
 21
325.36262040242514
  0
LINE
  8
_0-3_躯体と製品
  6
CONTINUOUS
 62
    7
 10
869.02401042059182
 20
420.36262040242514
 11
874.02401042059182
 21
420.36262040242514
  0
LINE
  8
_0-3_躯体と製品
  6
CONTINUOUS
 62
    7
 10
874.02401042059182
 20
420.36262040242514
 11
874.02401042059182
 21
417.36262040242514
  0
LINE
  8
_0-3_躯体と製品
  6
CONTINUOUS
 62
    7
 10
874.02401042059182
 20
417.36262040242514
 11
800.02401042059182
 21
417.36262040242514
  0
LINE
  8
_0-3_躯体と製品
  6
CONTINUOUS
 62
    7
 10
800.02401042059182
 20
417.36262040242514
 11
800.02401042059182
 21
420.36262040242514
  0
LINE
  8
_0-3_躯体と製品
  6
CONTINUOUS
 62
    7
 10
800.02401042059182
 20
420.36262040242514
 11
805.02401042059182
 21
420.36262040242514
  0
LINE
  8
_0-3_躯体と製品
  6
CONTINUOUS
 62
    7
 10
805.02401042059182
 20
420.36262040242514
 11
805.02401042059182
 21
422.36262040242514
  0
LINE
  8
_0-3_躯体と製品
  6
CONTINUOUS
 62
    7
 10
805.02401042059182
 20
422.36262040242514
 11
798.02401042059182
 21
422.36262040242514
  0
LINE
  8
_0-3_躯体と製品
  6
CONTINUOUS
 62
    7
 10
798.02401042059182
 20
422.36262040242514
 11
798.02401042059182
 21
415.36262040242514
  0
LINE
  8
_0-3_躯体と製品
  6
CONTINUOUS
 62
    7
 10
798.02401042059182
 20
415.36262040242514
 11
876.02401042059182
 21
415.36262040242514
  0
LINE
  8
_0-3_躯体と製品
  6
CONTINUOUS
 62
    7
 10
876.02401042059182
 20
415.36262040242514
 11
876.02401042059182
 21
422.36262040242514
  0
LINE
  8
_0-3_躯体と製品
  6
CONTINUOUS
 62
    7
 10
876.02401042059182
 20
422.36262040242514
 11
869.02401042059182
 21
422.36262040242514
  0
LINE
  8
_0-3_躯体と製品
  6
CONTINUOUS
 62
    7
 10
869.02401042059182
 20
422.36262040242514
 11
869.02401042059182
 21
420.36262040242514
  0
ARC
  8
_0-3_躯体と製品
  6
CONTINUOUS
 62
    7
 10
845.23701042060941
 20
421.11462040241764
 40
4.2480000000004141
 50
49.869772999461397
 51
130.11991900040121
  0
LINE
  8
_0-3_躯体と製品
  6
CONTINUOUS
 62
    7
 10
842.50001042058648
 20
419.36162040242107
 11
842.50001042058648
 21
424.36362040242216
  0
LINE
  8
_0-3_躯体と製品
  6
CONTINUOUS
 62
    7
 10
847.97501042059275
 20
424.36262040242514
 11
847.97501042059275
 21
419.36262040242514
  0
ARC
  8
_0-3_躯体と製品
  6
CONTINUOUS
 62
    7
 10
845.23701042060884
 20
422.6106204024249
 40
4.248000000000415
 50
229.88008099960831
 51
310.13022700054813
  0
LINE
  8
_0-3_躯体と製品
  6
CONTINUOUS
 62
    7
 10
843.02401042059182
 20
438.86262040242514
 11
843.02401042059182
 21
425.36262040242514
  0
LINE
  8
_0-3_躯体と製品
  6
CONTINUOUS
 62
    7
 10
838.75601042060953
 20
418.36262040242514
 11
838.17867708726044
 21
417.36262040242514
  0
LINE
  8
_0-3_躯体と製品
  6
CONTINUOUS
 62
    7
 10
837.02401042059182
 20
418.36262040242514
 11
836.44667708727184
 21
417.36262040242514
  0
LINE
  8
_0-3_躯体と製品
  6
CONTINUOUS
 62
    7
 10
841.52401042059182
 20
440.36262040242514
 11
841.52401042059182
 21
425.36262040242514
  0
LINE
  8
_0-3_躯体と製品
  6
CONTINUOUS
 62
    7
 10
831.02401042059182
 20
438.86262040242514
 11
832.52401042059182
 21
440.36262040242514
  0
LINE
  8
_0-3_躯体と製品
  6
CONTINUOUS
 62
    7
 10
831.55001042060485
 20
419.36162040242107
 11
831.55001042060485
 21
424.36362040242216
  0
LINE
  8
_0-3_躯体と製品
  6
CONTINUOUS
 62
    7
 10
826.07501042059857
 20
424.36262040242514
 11
826.07501042059857
 21
419.36262040242514
  0
ARC
  8
_0-3_躯体と製品
  6
CONTINUOUS
 62
    7
 10
828.81301042061068
 20
421.11462040241804
 40
4.2479999999997524
 50
49.880087000096346
 51
130.1302330005017
  0
ARC
  8
_0-3_躯体と製品
  6
CONTINUOUS
 62
    7
 10
828.81301042061068
 20
422.61062040242405
 40
4.2479999999997551
 50
229.86976699949832
 51
310.11991299990365
  0
ARC
  8
_0-3_躯体と製品
  6
CONTINUOUS
 62
    7
 10
837.02401042059159
 20
409.8696204024227
 40
15.493000000000674
 50
69.301553000435931
 51
110.69022699919388
  0
LINE
  8
_0-3_躯体と製品
  6
CONTINUOUS
 62
    7
 10
831.02401042059182
 20
425.36262040242514
 11
831.02401042059182
 21
438.86262040242514
  0
LINE
  8
_0-3_躯体と製品
  6
CONTINUOUS
 62
    7
 10
831.02401042059182
 20
438.86262040242514
 11
843.02401042059182
 21
438.86262040242514
  0
LINE
  8
_0-3_躯体と製品
  6
CONTINUOUS
 62
    7
 10
843.02401042059182
 20
438.86262040242514
 11
841.52401042059182
 21
440.36262040242514
  0
LINE
  8
_0-3_躯体と製品
  6
CONTINUOUS
 62
    7
 10
841.52401042059182
 20
440.36262040242514
 11
832.52401042059182
 21
440.36262040242514
  0
LINE
  8
_0-3_躯体と製品
  6
CONTINUOUS
 62
    7
 10
832.52401042059182
 20
440.36262040242514
 11
832.52401042059182
 21
425.36262040242514
  0
ARC
  8
_0-3_躯体と製品
  6
CONTINUOUS
 62
    7
 10
837.02401042059273
 20
433.85562040242803
 40
15.493000000000661
 50
249.30977300080136
 51
290.69844699955934
  0
LINE
  8
_0-3_躯体と製品
  6
CONTINUOUS
 62
    7
 10
828.81201042059183
 20
425.36262040242514
 11
845.23601042059181
 21
425.36262040242514
  0
LINE
  8
_0-3_躯体と製品
  6
CONTINUOUS
 62
    7
 10
847.77401042059182
 20
417.36262040242514
 11
847.77401042059182
 21
418.36262040242514
  0
LINE
  8
_0-3_躯体と製品
  6
CONTINUOUS
 62
    7
 10
847.77401042059182
 20
418.36262040242514
 11
826.27401042059182
 21
418.36262040242514
  0
LINE
  8
_0-3_躯体と製品
  6
CONTINUOUS
 62
    7
 10
826.27401042059182
 20
418.36262040242514
 11
826.27401042059182
 21
417.36262040242514
  0
LINE
  8
_0-3_躯体と製品
  6
CONTINUOUS
 62
    3
 10
855.42401042058555
 20
419.46262040242414
 11
855.42401042058555
 21
455.26262040241909
  0
ARC
  8
_0-3_躯体と製品
  6
CONTINUOUS
 62
    3
 10
854.92401043367499
 20
455.26262041550854
 40
0.4999999869105527
 50
359.9999985000598
 51
90.00000149994024
  0
LINE
  8
_0-3_躯体と製品
  6
CONTINUOUS
 62
    3
 10
854.92401042058555
 20
455.76262040241909
 11
837.02401042059182
 21
455.76262040241909
  0
LINE
  8
_0-3_躯体と製品
  6
CONTINUOUS
 62
    3
 10
837.02401042059182
 20
455.76262040241909
 11
819.12401039441875
 21
455.76262040241909
  0
ARC
  8
_0-3_躯体と製品
  6
CONTINUOUS
 62
    3
 10
819.12401039441784
 20
455.26262042859889
 40
0.4999999738201959
 50
89.999999999895834
 51
180.00000299998476
  0
LINE
  8
_0-3_躯体と製品
  6
CONTINUOUS
 62
    3
 10
818.62401042059764
 20
455.26262040241909
 11
818.62401042059173
 21
419.46262040242414
  0
ARC
  8
_0-3_躯体と製品
  6
CONTINUOUS
 62
    3
 10
816.52401042059114
 20
419.46262040242362
 40
2.1000000000005343
 50
270.00000000001705
 51
0.0000000000139516
  0
LINE
  8
_0-3_躯体と製品
  6
CONTINUOUS
 62
    3
 10
816.52401042059182
 20
417.36262040242309
 11
800.02401042059182
 21
417.36262040242514
  0
LINE
  8
_0-3_躯体と製品
  6
CONTINUOUS
 62
    3
 10
800.02401042059182
 20
417.36262040242514
 11
800.02401042059182
 21
418.96262040242414
  0
LINE
  8
_0-3_躯体と製品
  6
CONTINUOUS
 62
    3
 10
800.02401042059182
 20
418.96262040242414
 11
816.52401042059182
 21
418.96262040242414
  0
ARC
  8
_0-3_躯体と製品
  6
CONTINUOUS
 62
    3
 10
816.52401043368127
 20
419.46262038933469
 40
0.4999999869105527
 50
269.99999850005975
 51
0.0000014999402369
  0
LINE
  8
_0-3_躯体と製品
  6
CONTINUOUS
 62
    3
 10
817.02401042059182
 20
419.46262040242414
 11
817.02401042059773
 21
455.26262040241909
  0
ARC
  8
_0-3_躯体と製品
  6
CONTINUOUS
 62
    3
 10
819.12401042059764
 20
455.26262040241909
 40
2.0999999999999086
 50
89.999999999999986
 51
180
  0
LINE
  8
_0-3_躯体と製品
  6
CONTINUOUS
 62
    3
 10
819.12401042059764
 20
457.362620402419
 11
837.02401042059182
 21
457.36262040242514
  0
LINE
  8
_0-3_躯体と製品
  6
CONTINUOUS
 62
    3
 10
837.02401042059182
 20
457.36262040242514
 11
854.92401042058873
 21
457.362620402419
  0
ARC
  8
_0-3_躯体と製品
  6
CONTINUOUS
 62
    3
 10
854.92401042058884
 20
455.26262040241602
 40
2.1000000000029817
 50
0.0000000000838266
 51
90.000000000003013
  0
LINE
  8
_0-3_躯体と製品
  6
CONTINUOUS
 62
    3
 10
857.02401042059182
 20
455.26262040241909
 11
857.02401042059182
 21
419.46262035006407
  0
ARC
  8
_0-3_躯体と製品
  6
CONTINUOUS
 62
    3
 10
857.52401043368104
 20
419.46262041551336
 40
0.5000000130892234
 50
180.00000749993578
 51
269.99999850008601
  0
LINE
  8
_0-3_躯体と製品
  6
CONTINUOUS
 62
    3
 10
857.52401042059182
 20
418.96262040242414
 11
874.02401042059182
 21
418.96262040242414
  0
LINE
  8
_0-3_躯体と製品
  6
CONTINUOUS
 62
    3
 10
874.02401042059182
 20
418.96262040242414
 11
874.02401042059182
 21
417.36262040242514
  0
LINE
  8
_0-3_躯体と製品
  6
CONTINUOUS
 62
    3
 10
874.02401042059182
 20
417.36262040242514
 11
857.52401042059182
 21
417.36262040242309
  0
ARC
  8
_0-3_躯体と製品
  6
CONTINUOUS
 62
    3
 10
857.52401042059182
 20
419.46262040242351
 40
2.1000000000004175
 50
180.0000059999708
 51
269.99999999999886
  0
LINE
  8
_0-3_躯体と製品
  6
CONTINUOUS
 62
    4
 10
131.70065957940869
 20
325.36262040243309
 11
551.70065957940869
 21
325.36262040242514
  0
LINE
  8
_0-3_躯体と製品
  6
CONTINUOUS
 62
    3
 10
131.70065957940869
 20
457.36262040243105
 11
551.69821614610964
 21
457.36262040242514
  0
LINE
  8
_0-3_躯体と製品
  6
CONTINUOUS
 62
    3
 10
551.69472552711068
 20
417.36262040242514
 11
351.70065957940869
 21
417.36262040242309
  0
LINE
  8
_0-3_躯体と製品
  6
CONTINUOUS
 62
    3
 10
351.70065957940869
 20
418.96262040242914
 11
551.69486515187145
 21
418.962620402423
  0
INSERT
  2
-001-_D2
  8
_0-2_寸法
 10
-2049.9849439617274
 20
-825.03597282642795
 41
1
 42
1
 50
0
  0
INSERT
  2
-002-_D3
  8
_0-2_寸法
 10
-2049.9849439617274
 20
-825.03597282642795
 41
1
 42
1
 50
0
  0
INSERT
  2
-003-_D4
  8
_0-2_寸法
 10
-2049.9849439617274
 20
-825.03597282642795
 41
1
 42
1
 50
0
  0
INSERT
  2
-004-_D5
  8
_0-2_寸法
 10
-2049.9849439617274
 20
-825.03597282642795
 41
1
 42
1
 50
0
  0
LINE
  8
_0-3_躯体と製品
  6
CONTINUOUS
 62
    3
 10
131.70065957940869
 20
417.36262040242514
 11
311.70065957940869
 21
417.36262040242309
  0
LINE
  8
_0-3_躯体と製品
  6
CONTINUOUS
 62
    3
 10
311.70065957940869
 20
418.96262040242914
 11
131.70079920416856
 21
418.96262040241595
  0
INSERT
  2
-005-_D6
  8
_0-2_寸法
 10
-2049.9849439617274
 20
-825.03597282642795
 41
1
 42
1
 50
0
  0
LINE
  8
_0-5_中心線
  6
CENTER1
 62
    7
 10
809.27401042062047
 20
402.962620402423
 11
809.27401042062047
 21
425.88637040242406
  0
ARC
  8
_0-3_躯体と製品
  6
CONTINUOUS
 62
    7
 10
809.8210104205906
 20
417.17462040242725
 40
4.8189999999957482
 50
48.11175499906755
 51
96.517442000049712
  0
ARC
  8
_0-3_躯体と製品
  6
CONTINUOUS
 62
    7
 10
808.72701042063886
 20
417.17462040242009
 40
4.8190000000170672
 50
83.482563001162276
 51
131.88825099943148
  0
LINE
  8
_0-3_躯体と製品
  6
CONTINUOUS
 62
    7
 10
805.27401042062047
 20
419.1626204024351
 11
805.27401042062047
 21
419.61162040242812
  0
LINE
  8
_0-3_躯体と製品
  6
CONTINUOUS
 62
    7
 10
805.27401042062047
 20
419.61162040242812
 11
805.50901042063651
 21
420.76262040244114
  0
LINE
  8
_0-3_躯体と製品
  6
CONTINUOUS
 62
    7
 10
805.50901042063651
 20
420.76262040244114
 11
809.27401042062047
 21
420.76262040244114
  0
LINE
  8
_0-3_躯体と製品
  6
CONTINUOUS
 62
    7
 10
809.27401042062047
 20
420.76262040244114
 11
813.0390104206358
 21
420.76262040244114
  0
LINE
  8
_0-3_躯体と製品
  6
CONTINUOUS
 62
    7
 10
813.0390104206358
 20
420.76262040244114
 11
813.27401042062183
 21
419.61162040242812
  0
LINE
  8
_0-3_躯体と製品
  6
CONTINUOUS
 62
    7
 10
813.27401042062183
 20
419.61162040242812
 11
813.27401042065048
 21
419.1626204024351
  0
ARC
  8
_0-3_躯体と製品
  6
CONTINUOUS
 62
    7
 10
813.07401042587503
 20
419.16262039719965
 40
0.1999999947755216
 50
269.99999849996209
 51
0.0000014998425137
  0
LINE
  8
_0-3_躯体と製品
  6
CONTINUOUS
 62
    7
 10
813.07401042063884
 20
418.96262040242414
 11
809.27401042062047
 21
418.96262040242414
  0
LINE
  8
_0-3_躯体と製品
  6
CONTINUOUS
 62
    7
 10
809.27401042062047
 20
418.96262040242414
 11
805.47401041015564
 21
418.96262040242414
  0
ARC
  8
_0-3_躯体と製品
  6
CONTINUOUS
 62
    7
 10
805.47401042062381
 20
419.16262040242748
 40
0.2000000000033658
 50
180.00000600072505
 51
269.99999700108367
  0
LINE
  8
_0-5_中心線
  6
CENTER1
 62
    7
 10
864.77401042056181
 20
402.962620402423
 11
864.77401042056181
 21
425.88637040242406
  0
ARC
  8
_0-3_躯体と製品
  6
CONTINUOUS
 62
    7
 10
865.32101042053182
 20
417.17462040242623
 40
4.8189999999968052
 50
48.111754999071557
 51
96.517442000053705
  0
ARC
  8
_0-3_躯体と製品
  6
CONTINUOUS
 62
    7
 10
864.22701042058111
 20
417.17462040242009
 40
4.8190000000170672
 50
83.482563001162276
 51
131.88825099943148
  0
LINE
  8
_0-3_躯体と製品
  6
CONTINUOUS
 62
    7
 10
860.77401042056272
 20
419.1626204024351
 11
860.77401042056272
 21
419.61162040242812
  0
LINE
  8
_0-3_躯体と製品
  6
CONTINUOUS
 62
    7
 10
860.77401042056272
 20
419.61162040242812
 11
861.00901042057876
 21
420.76262040244114
  0
LINE
  8
_0-3_躯体と製品
  6
CONTINUOUS
 62
    7
 10
861.00901042057876
 20
420.76262040244114
 11
864.77401042056363
 21
420.76262040244114
  0
LINE
  8
_0-3_躯体と製品
  6
CONTINUOUS
 62
    7
 10
864.77401042056363
 20
420.76262040244114
 11
868.53901042057669
 21
420.76262040244114
  0
LINE
  8
_0-3_躯体と製品
  6
CONTINUOUS
 62
    7
 10
868.53901042057669
 20
420.76262040244114
 11
868.77401042056272
 21
419.61162040242812
  0
LINE
  8
_0-3_躯体と製品
  6
CONTINUOUS
 62
    7
 10
868.77401042056272
 20
419.61162040242812
 11
868.77401042059182
 21
419.1626204024351
  0
ARC
  8
_0-3_躯体と製品
  6
CONTINUOUS
 62
    7
 10
868.5740104258166
 20
419.16262039719942
 40
0.1999999947752941
 50
269.99999850002717
 51
0.0000014999076535
  0
LINE
  8
_0-3_躯体と製品
  6
CONTINUOUS
 62
    7
 10
868.57401042058063
 20
418.96262040242414
 11
864.77401042056363
 21
418.96262040242414
  0
LINE
  8
_0-3_躯体と製品
  6
CONTINUOUS
 62
    7
 10
864.77401042056363
 20
418.96262040242414
 11
860.97401041009743
 21
418.96262040242414
  0
ARC
  8
_0-3_躯体と製品
  6
CONTINUOUS
 62
    7
 10
860.97401042056583
 20
419.16262040242725
 40
0.2000000000031384
 50
180.00000600065991
 51
269.99999700101853
  0
LINE
  8
_0-3_躯体と製品
  6
CENTER1
 62
    7
 10
828.02401042059182
 20
445.39189040062206
 11
828.02401042059182
 21
469.70072251474312
  0
ARC
  8
_0-3_躯体と製品
  6
CONTINUOUS
 62
    7
 10
827.4770104206217
 20
463.57462040242825
 40
4.8189999999957482
 50
83.482557999950316
 51
131.88824500093247
  0
ARC
  8
_0-3_躯体と製品
  6
CONTINUOUS
 62
    7
 10
828.57101042057354
 20
463.57462040242115
 40
4.8190000000171738
 50
48.111749000586236
 51
96.51743699885543
  0
LINE
  8
_0-3_躯体と製品
  6
CONTINUOUS
 62
    7
 10
831.85026150659451
 20
466.86262040242514
 11
831.78901042057578
 21
467.16262040244305
  0
LINE
  8
_0-3_躯体と製品
  6
CONTINUOUS
 62
    7
 10
831.78901042057578
 20
467.16262040244305
 11
828.02401042059046
 21
467.16262040244305
  0
LINE
  8
_0-3_躯体と製品
  6
CONTINUOUS
 62
    7
 10
828.02401042059046
 20
467.16262040244305
 11
824.25901042057649
 21
467.16262040244305
  0
LINE
  8
_0-3_躯体と製品
  6
CONTINUOUS
 62
    7
 10
824.25901042057649
 20
467.16262040244305
 11
824.19775933456549
 21
466.86262040242514
  0
LINE
  8
_0-4_文字-記号
  6
CONTINUOUS
 62
    7
 10
872.68044204807848
 20
404.36262040242514
 11
883.84639404807876
 21
385.02262440242498
  0
LINE
  8
_0-4_文字-記号
  6
CONTINUOUS
 62
    7
 10
883.84639404807876
 20
385.02262440242498
 11
925.07589504807947
 21
385.02262440242498
  0
TEXT
  8
_0-4_文字-記号
 62
    7
 10
886.12018804807849
 20
387.41205940242503
 40
10
 41
0.8
 50
0
  1
受け金具
  0
TEXT
  8
_0-4_文字-記号
 62
    7
 10
803.99232857655443
 20
216.77625620645313
 40
10
 41
0.8
 50
0
  1
（根太ピッチ）
  0
INSERT
  2
-006-_D7
  8
_0-2_寸法
 10
-2049.9849439617274
 20
-825.03597282642795
 41
1
 42
1
 50
0
  0
INSERT
  2
-007-_D8
  8
_0-2_寸法
 10
-2049.9849439617274
 20
-825.03597282642795
 41
1
 42
1
 50
0
  0
INSERT
  2
-008-_D9
  8
_0-2_寸法
 10
-2049.9849439617274
 20
-825.03597282642795
 41
1
 42
1
 50
0
  0
INSERT
  2
-009-_D10
  8
_0-2_寸法
 10
-2049.9849439617274
 20
-825.03597282642795
 41
1
 42
1
 50
0
  0
INSERT
  2
-010-_D11
  8
_0-2_寸法
 10
-2049.9849439617274
 20
-825.03597282642795
 41
1
 42
1
 50
0
  0
INSERT
  2
-011-_D12
  8
_0-2_寸法
 10
-2049.9849439617274
 20
-825.03597282642795
 41
1
 42
1
 50
0
  0
INSERT
  2
-012-_D13
  8
_0-2_寸法
 10
-2049.9849439617274
 20
-825.03597282642795
 41
1
 42
1
 50
0
  0
LINE
  8
_0-3_躯体と製品
  6
CONTINUOUS
 62
    7
 10
829.77401042059182
 20
454.01685640242499
 11
829.22401042059164
 21
453.69931640242498
  0
LINE
  8
_0-3_躯体と製品
  6
CONTINUOUS
 62
    7
 10
826.82401042059155
 20
453.62884640242305
 11
829.22401042059164
 21
454.33440140242396
  0
LINE
  8
_0-3_躯体と製品
  6
CONTINUOUS
 62
    7
 10
826.27401042059046
 20
453.31130140242294
 11
826.82401042059155
 21
453.62884640242305
  0
LINE
  8
_0-3_躯体と製品
  6
CONTINUOUS
 62
    7
 10
826.82401042059155
 20
453.62884640242305
 11
826.82401042059155
 21
454.40487140242408
  0
LINE
  8
_0-3_躯体と製品
  6
CONTINUOUS
 62
    7
 10
829.22401042059164
 20
451.51217640242407
 11
829.77401042059182
 21
451.19463640242611
  0
LINE
  8
_0-3_躯体と製品
  6
CONTINUOUS
 62
    7
 10
828.02401042059182
 20
450.84185640242413
 11
829.77401042059182
 21
451.19463640242611
  0
LINE
  8
_0-3_躯体と製品
  6
CONTINUOUS
 62
    7
 10
829.77401042059182
 20
451.19463640242611
 11
829.22401042059164
 21
450.877091402426
  0
LINE
  8
_0-3_躯体と製品
  6
CONTINUOUS
 62
    7
 10
829.22401042059164
 20
452.92329140242396
 11
829.77401042059182
 21
452.60574640242407
  0
ARC
  8
_0-3_躯体と製品
  6
CONTINUOUS
 62
    7
 10
832.5483104205905
 20
447.46848540243104
 40
4.5414449999999427
 50
137.05380000001753
 51
175.02121999999039
  0
ARC
  8
_0-3_躯体と製品
  6
CONTINUOUS
 62
    7
 10
828.04281042059074
 20
446.53912040242903
 40
1.3236349999999331
 50
90.813543000016423
 51
157.04087000001471
  0
LINE
  8
_0-3_躯体と製品
  6
CONTINUOUS
 62
    7
 10
829.22401042059164
 20
450.56262040242996
 11
826.82401042059155
 21
450.56262040242996
  0
LINE
  8
_0-3_躯体と製品
  6
CONTINUOUS
 62
    7
 10
826.82401042059155
 20
452.99376140242498
 11
829.22401042059164
 21
453.69931640242498
  0
LINE
  8
_0-3_躯体と製品
  6
CONTINUOUS
 62
    7
 10
829.22401042059164
 20
453.69931640242498
 11
829.22401042059164
 21
452.92329140242396
  0
LINE
  8
_0-3_躯体と製品
  6
CONTINUOUS
 62
    7
 10
829.22401042059164
 20
452.92329140242396
 11
826.82401042059155
 21
452.21773140242408
  0
LINE
  8
_0-3_躯体と製品
  6
CONTINUOUS
 62
    7
 10
826.82401042059155
 20
452.21773140242408
 11
826.27401042059046
 21
451.90019140242407
  0
LINE
  8
_0-3_躯体と製品
  6
CONTINUOUS
 62
    7
 10
829.22401042059164
 20
452.28820140242306
 11
829.77401042059182
 21
452.60574640242407
  0
LINE
  8
_0-3_躯体と製品
  6
CONTINUOUS
 62
    7
 10
829.77401042059182
 20
452.60574640242407
 11
826.27401042059046
 21
451.90019140242407
  0
LINE
  8
_0-3_躯体と製品
  6
CONTINUOUS
 62
    7
 10
826.27401042059046
 20
451.90019140242407
 11
826.82401042059155
 21
451.58264640242396
  0
LINE
  8
_0-3_躯体と製品
  6
CONTINUOUS
 62
    7
 10
826.82401042059155
 20
451.58264640242396
 11
829.22401042059164
 21
452.28820140242306
  0
LINE
  8
_0-3_躯体と製品
  6
CONTINUOUS
 62
    7
 10
829.22401042059164
 20
452.28820140242306
 11
829.22401042059164
 21
451.51217640242407
  0
LINE
  8
_0-3_躯体と製品
  6
CONTINUOUS
 62
    7
 10
829.22401042059164
 20
451.51217640242407
 11
828.02401042059182
 21
450.84185640242413
  0
LINE
  8
_0-3_躯体と製品
  6
CONTINUOUS
 62
    7
 10
828.02401042059182
 20
450.84185640242413
 11
829.22401042059164
 21
450.877091402426
  0
LINE
  8
_0-3_躯体と製品
  6
CONTINUOUS
 62
    7
 10
829.22401042059164
 20
450.877091402426
 11
829.22401042059164
 21
447.05544040243012
  0
LINE
  8
_0-3_躯体と製品
  6
CONTINUOUS
 62
    7
 10
829.22401042059164
 20
447.05544040243012
 11
828.02401042059182
 21
446.36262040243105
  0
LINE
  8
_0-3_躯体と製品
  6
CONTINUOUS
 62
    7
 10
828.02401042059182
 20
447.8898054024321
 11
828.02401042059182
 21
446.36262040243105
  0
LINE
  8
_0-3_躯体と製品
  6
CONTINUOUS
 62
    7
 10
828.02401042059182
 20
446.36262040243105
 11
826.82401042059155
 21
447.05544040243012
  0
LINE
  8
_0-3_躯体と製品
  6
CONTINUOUS
 62
    7
 10
826.82401042059155
 20
447.05544040243012
 11
826.82401042059155
 21
452.99376140242498
  0
LINE
  8
_0-3_躯体と製品
  6
CONTINUOUS
 62
    7
 10
826.82401042059155
 20
452.99376140242498
 11
826.27401042059046
 21
453.31130140242294
  0
LINE
  8
_0-3_躯体と製品
  6
CONTINUOUS
 62
    7
 10
826.27401042059046
 20
453.31130140242294
 11
829.77401042059182
 21
454.01685640242499
  0
LINE
  8
_0-3_躯体と製品
  6
CONTINUOUS
 62
    7
 10
829.77401042059182
 20
454.01685640242499
 11
829.22401042059164
 21
454.33440140242396
  0
LINE
  8
_0-3_躯体と製品
  6
CONTINUOUS
 62
    7
 10
829.22401042059164
 20
454.33440140242396
 11
829.22401042059164
 21
455.11042640242295
  0
INSERT
  2
-013-_D14
  8
_0-2_寸法
 10
-2049.9849439617274
 20
-825.03597282642795
 41
1
 42
1
 50
0
  0
INSERT
  2
-014-_D15
  8
_0-2_寸法
 10
-2049.9849439617274
 20
-825.03597282642795
 41
1
 42
1
 50
0
  0
LINE
  8
_0-4_文字-記号
  6
CONTINUOUS
 62
    7
 10
345.6585323242075
 20
464.26783050537711
 11
370.5206444264827
 21
507.33027184998809
  0
LINE
  8
_0-4_文字-記号
  6
CONTINUOUS
 62
    7
 10
370.5206444264827
 20
507.33027184998809
 11
414.64432237214669
 21
507.33027184998809
  0
TEXT
  8
_0-4_文字-記号
 62
    7
 10
373.15750942648174
 20
509.884341849988
 40
10
 41
0.8
 50
0
  1
固定金具
  0
LINE
  8
_0-4_文字-記号
  6
CONTINUOUS
 62
    7
 10
813.96846235895873
 20
485.36262040243105
 11
799.75313482383672
 21
509.98428946887202
  0
LINE
  8
_0-4_文字-記号
  6
CONTINUOUS
 62
    7
 10
799.75313482383672
 20
509.98428946887202
 11
762.57986328611378
 21
509.98428946887202
  0
TEXT
  8
_0-4_文字-記号
 62
    7
 10
762.32810198067864
 20
512.74526897989699
 40
10
 41
0.8
 50
0
  1
デッキ材
  0
TEXT
  8
_0-4_文字-記号
 62
    7
 10
134.63761258610884
 20
583.07947367417114
 40
12
 41
1
 50
0
  1
標準納まり図
  0
LINE
  8
_0-3_躯体と製品
  6
CONTINUOUS
 62
    3
 10
749.00387042059174
 20
305.36262040242514
 11
769.00387042059174
 21
325.36262040242514
  0
LINE
  8
_0-3_躯体と製品
  6
CONTINUOUS
 62
    3
 10
743.34701542059247
 20
305.36262040242514
 11
763.34701542059247
 21
325.36262040242514
  0
LINE
  8
_0-3_躯体と製品
  6
CONTINUOUS
 62
    3
 10
754.66072542059146
 20
305.36262040242514
 11
774.66072542059283
 21
325.36262040242514
  0
LINE
  8
_0-3_躯体と製品
  6
CONTINUOUS
 62
    3
 10
924.57980042059171
 20
305.36262040242514
 11
944.57980042059171
 21
325.36262040242514
  0
LINE
  8
_0-3_躯体と製品
  6
CONTINUOUS
 62
    3
 10
918.92294542059244
 20
305.36262040242514
 11
938.92294542059244
 21
325.36262040242514
  0
LINE
  8
_0-3_躯体と製品
  6
CONTINUOUS
 62
    3
 10
913.26609542059259
 20
305.36262040242514
 11
933.26609542059259
 21
325.36262040242514
  0
LINE
  8
_0-3_躯体と製品
  6
CONTINUOUS
 62
    7
 10
337.70065957940869
 20
328.362620402429
 11
337.70065957940869
 21
400.46939550019397
  0
LINE
  8
_0-3_躯体と製品
  6
CONTINUOUS
 62
    7
 10
336.20065957940869
 20
328.362620402429
 11
336.20065957940869
 21
400.36262057429713
  0
LINE
  8
_0-3_躯体と製品
  6
CONTINUOUS
 62
    7
 10
327.20065957940869
 20
328.362620402429
 11
327.20065957940869
 21
400.36262057429713
  0
LINE
  8
_0-3_躯体と製品
  6
CONTINUOUS
 62
    7
 10
325.70065957940869
 20
328.362620402429
 11
325.70065957940869
 21
400.46939550019397
  0
LINE
  8
_0-5_中心線
  6
CENTER1
 62
    7
 10
331.70065957940869
 20
247.69421619328409
 11
331.70065957940869
 21
430.40255239201701
  0
LINE
  8
_0-3_躯体と製品
  6
CONTINUOUS
 62
    7
 10
346.70065957940869
 20
325.362620402429
 11
316.70065957940869
 21
325.362620402429
  0
LINE
  8
_0-3_躯体と製品
  6
CONTINUOUS
 62
    7
 10
316.70065957940869
 20
325.362620402429
 11
316.70065957940869
 21
328.362620402429
  0
LINE
  8
_0-3_躯体と製品
  6
CONTINUOUS
 62
    7
 10
316.70065957940869
 20
328.362620402429
 11
346.70065957940869
 21
328.362620402429
  0
LINE
  8
_0-3_躯体と製品
  6
CONTINUOUS
 62
    7
 10
346.70065957940869
 20
328.362620402429
 11
346.70065957940869
 21
325.362620402429
  0
LINE
  8
_0-3_躯体と製品
  6
PLINE2
 62
    7
 10
336.20065957940869
 20
290.362620402429
 11
336.20065957940869
 21
325.362620402429
  0
LINE
  8
_0-3_躯体と製品
  6
PLINE2
 62
    7
 10
337.70065957940869
 20
291.862620402429
 11
337.70065957940869
 21
325.362620402429
  0
LINE
  8
_0-3_躯体と製品
  6
PLINE2
 62
    7
 10
325.70065957940869
 20
291.862620402429
 11
325.70065957940869
 21
325.362620402429
  0
LINE
  8
_0-3_躯体と製品
  6
PLINE2
 62
    7
 10
327.20065957940869
 20
290.362620402429
 11
327.20065957940869
 21
325.362620402429
  0
LINE
  8
_0-3_躯体と製品
  6
PLINE2
 62
    7
 10
336.20065957940869
 20
290.362620402429
 11
337.70065957940869
 21
291.862620402429
  0
LINE
  8
_0-3_躯体と製品
  6
PLINE2
 62
    7
 10
337.70065957940869
 20
291.862620402429
 11
325.70065957940869
 21
291.862620402429
  0
LINE
  8
_0-3_躯体と製品
  6
PLINE2
 62
    7
 10
325.70065957940869
 20
291.862620402429
 11
327.20065957940869
 21
290.362620402429
  0
LINE
  8
_0-3_躯体と製品
  6
PLINE2
 62
    7
 10
327.20065957940869
 20
290.362620402429
 11
336.20065957940869
 21
290.362620402429
  0
LINE
  8
_0-3_躯体と製品
  6
PLINE2
 62
    7
 10
324.70065957940869
 20
325.362620402429
 11
324.70065957940869
 21
289.65762040243408
  0
LINE
  8
_0-3_躯体と製品
  6
PLINE2
 62
    7
 10
324.70065957940869
 20
289.65762040243408
 11
331.70065957940869
 21
285.614620402436
  0
LINE
  8
_0-3_躯体と製品
  6
PLINE2
 62
    7
 10
331.70065957940869
 20
285.614620402436
 11
338.70065957940869
 21
289.65762040243408
  0
LINE
  8
_0-3_躯体と製品
  6
PLINE2
 62
    7
 10
338.70065957940869
 20
289.65762040243408
 11
338.70065957940869
 21
325.362620402429
  0
LINE
  8
_0-3_躯体と製品
  6
CONTINUOUS
 62
    7
 10
311.70065957940869
 20
422.362620402429
 11
351.70065957940869
 21
422.362620402429
  0
LINE
  8
_0-3_躯体と製品
  6
CONTINUOUS
 62
    7
 10
351.70065957940869
 20
422.362620402429
 11
351.70065957940869
 21
415.362620402429
  0
LINE
  8
_0-3_躯体と製品
  6
CONTINUOUS
 62
    7
 10
351.70065957940869
 20
415.362620402429
 11
311.70065957940869
 21
415.362620402429
  0
LINE
  8
_0-3_躯体と製品
  6
CONTINUOUS
 62
    7
 10
311.70065957940869
 20
415.362620402429
 11
311.70065957940869
 21
422.362620402429
  0
ARC
  8
_0-3_躯体と製品
  6
CONTINUOUS
 62
    7
 10
284.95065957940358
 20
412.11262040243321
 40
3.249999999995798
 50
90.000002999934651
 51
180.00000000007415
  0
LINE
  8
_0-3_躯体と製品
  6
CONTINUOUS
 62
    7
 10
281.70065957940778
 20
412.112620402429
 11
281.70065957940778
 21
404.362620402429
  0
LINE
  8
_0-3_躯体と製品
  6
CONTINUOUS
 62
    7
 10
281.70065957940778
 20
404.362620402429
 11
381.70065957940869
 21
404.362620402429
  0
LINE
  8
_0-3_躯体と製品
  6
CONTINUOUS
 62
    7
 10
381.70065957940869
 20
404.362620402429
 11
381.70065957940869
 21
412.112620402429
  0
ARC
  8
_0-3_躯体と製品
  6
CONTINUOUS
 62
    7
 10
378.45065957940869
 20
412.112620402429
 40
3.2500000000000044
 50
0.0000000000000816
 51
89.999999999999929
  0
LINE
  8
_0-3_躯体と製品
  6
CONTINUOUS
 62
    7
 10
378.45065957940869
 20
415.362620402429
 11
331.70065957940869
 21
415.362620402429
  0
LINE
  8
_0-3_躯体と製品
  6
CONTINUOUS
 62
    7
 10
331.70065957940869
 20
415.362620402429
 11
284.95065957940869
 21
415.362620402429
  0
LINE
  8
_0-4_文字-記号
  6
CONTINUOUS
 62
    7
 10
467.83197859294251
 20
417.36262040242809
 11
478.99793059294279
 21
398.02262440242794
  0
LINE
  8
_0-4_文字-記号
  6
CONTINUOUS
 62
    7
 10
478.99793059294279
 20
398.02262440242794
 11
511.13947353559843
 21
398.02262440242794
  0
TEXT
  8
_0-4_文字-記号
 62
    7
 10
481.27172459294252
 20
400.41205940242799
 40
10
 41
0.8
 50
0
  1
根太鋼
  0
LINE
  8
_0-4_文字-記号
  6
CONTINUOUS
 62
    7
 10
367.3570912068958
 20
404.362620402429
 11
378.52304320689564
 21
385.02262440242907
  0
LINE
  8
_0-4_文字-記号
  6
CONTINUOUS
 62
    7
 10
378.52304320689564
 20
385.02262440242907
 11
419.7525442068968
 21
385.02262440242907
  0
TEXT
  8
_0-4_文字-記号
 62
    7
 10
380.79683720689582
 20
387.41205940242912
 40
10
 41
0.8
 50
0
  1
受け金具
  0
TEXT
  8
_0-4_文字-記号
 62
    7
 10
298.39225607458275
 20
216.77625620645699
 40
10
 41
0.8
 50
0
  1
（支持脚ピッチ）
  0
INSERT
  2
-015-_D16
  8
_0-2_寸法
 10
-2049.9849439617274
 20
-825.03597282642795
 41
1
 42
1
 50
0
  0
INSERT
  2
-016-_D17
  8
_0-2_寸法
 10
-2049.9849439617274
 20
-825.03597282642795
 41
1
 42
1
 50
0
  0
LINE
  8
_0-3_躯体と製品
  6
CONTINUOUS
 62
    7
 10
331.70065957940869
 20
404.362620402429
 11
331.70065957940642
 21
401.36262040243105
  0
LINE
  8
_0-3_躯体と製品
  6
CONTINUOUS
 62
    7
 10
340.69683898233779
 20
401.36262040243014
 11
340.69683898234143
 21
404.362620402429
  0
LINE
  8
_0-3_躯体と製品
  6
CONTINUOUS
 62
    7
 10
322.7044801764755
 20
401.36262040243105
 11
322.70448017647868
 21
404.362620402429
  0
LINE
  8
_0-3_躯体と製品
  6
CONTINUOUS
 62
    7
 10
327.20256987794255
 20
400.362620402429
 11
336.19874928087347
 21
400.362620402429
  0
ARC
  8
_0-3_躯体と製品
  6
CONTINUOUS
 62
    7
 10
327.20256987794255
 20
410.97902588362604
 40
10.61640548119736
 50
244.93207904395709
 51
295.06792095604288
  0
ARC
  8
_0-3_躯体と製品
  6
CONTINUOUS
 62
    7
 10
336.19874928087347
 20
410.97902588362604
 40
10.61640548119736
 50
244.93207904395709
 51
295.06792095604288
  0
LINE
  8
_0-3_躯体と製品
  6
CONTINUOUS
 62
    3
 10
247.70546440790167
 20
305.362620402424
 11
267.70546440790167
 21
325.362620402424
  0
LINE
  8
_0-3_躯体と製品
  6
CONTINUOUS
 62
    3
 10
242.04860940790149
 20
305.362620402424
 11
262.04860940790149
 21
325.362620402424
  0
LINE
  8
_0-3_躯体と製品
  6
CONTINUOUS
 62
    3
 10
253.36231940790049
 20
305.362620402424
 11
273.36231940790049
 21
325.362620402424
  0
LINE
  8
_0-3_躯体と製品
  6
CONTINUOUS
 62
    3
 10
423.28139440790164
 20
305.362620402424
 11
443.28139440790164
 21
325.362620402424
  0
LINE
  8
_0-3_躯体と製品
  6
CONTINUOUS
 62
    3
 10
417.62453940790147
 20
305.362620402424
 11
437.62453940790147
 21
325.362620402424
  0
LINE
  8
_0-3_躯体と製品
  6
CONTINUOUS
 62
    3
 10
411.96768940790162
 20
305.362620402424
 11
431.96768940790071
 21
325.362620402424
  0
LINE
  8
_0-3_躯体と製品
  6
CONTINUOUS
 62
    4
 10
677.02401042059182
 20
457.36262040243105
 11
997.02401042059182
 21
457.36262040243105
  0
LINE
  8
_0-3_躯体と製品
  6
CONTINUOUS
 62
    4
 10
677.02401042059182
 20
485.36262040243105
 11
997.02401042059182
 21
485.36262040243105
  0
LINE
  8
_0-3_躯体と製品
  6
CONTINUOUS
 62
    7
 10
812.02401042059182
 20
466.86262040242514
 11
862.02401042059182
 21
466.86262040242514
  0
LINE
  8
_0-3_躯体と製品
  6
CONTINUOUS
 62
    7
 10
812.02401042059182
 20
471.86262040242514
 11
834.62401042059173
 21
471.86262040242514
  0
LINE
  8
_0-3_躯体と製品
  6
CONTINUOUS
 62
    7
 10
839.42401042059146
 20
471.86262040242514
 11
862.02401042059182
 21
471.86262040242514
  0
LINE
  8
_0-3_躯体と製品
  6
CONTINUOUS
 62
    7
 10
812.02401042059182
 20
472.16262040242509
 11
834.64283424063342
 21
472.16262040242509
  0
LINE
  8
_0-3_躯体と製品
  6
CONTINUOUS
 62
    7
 10
839.40518660054977
 20
472.16262040242509
 11
862.02401042059182
 21
472.16262040242509
  0
LINE
  8
_0-3_躯体と製品
  6
CONTINUOUS
 62
    7
 10
812.02401042059182
 20
471.56262040242495
 11
834.64283424063342
 21
471.56262040242495
  0
LINE
  8
_0-3_躯体と製品
  6
CONTINUOUS
 62
    7
 10
839.40518660054977
 20
471.56262040242495
 11
862.02401042059182
 21
471.56262040242495
  0
LINE
  8
_0-3_躯体と製品
  6
CONTINUOUS
 62
    7
 10
812.02401042059182
 20
457.36262040242514
 11
862.02401042059182
 21
457.36262040242514
  0
LINE
  8
_0-3_躯体と製品
  6
CONTINUOUS
 62
    7
 10
862.02401042059182
 20
457.36262040242514
 11
862.02401042059182
 21
478.36262040242514
  0
LINE
  8
_0-3_躯体と製品
  6
CONTINUOUS
 62
    7
 10
862.02401042059182
 20
478.36262040242514
 11
812.02401042059182
 21
478.36262040242514
  0
LINE
  8
_0-3_躯体と製品
  6
CONTINUOUS
 62
    7
 10
812.02401042059182
 20
478.36262040242514
 11
812.02401042059182
 21
457.36262040242514
  0
LINE
  8
_0-3_躯体と製品
  6
CONTINUOUS
 62
    7
 10
812.02401042059182
 20
463.16262040242509
 11
862.02401042059182
 21
463.16262040242509
  0
LINE
  8
_0-3_躯体と製品
  6
CONTINUOUS
 62
    7
 10
812.02401042059182
 20
462.86262040242514
 11
862.02401042059182
 21
462.86262040242514
  0
LINE
  8
_0-3_躯体と製品
  6
CONTINUOUS
 62
    7
 10
812.02401042059182
 20
459.36262040242514
 11
862.02401042059182
 21
459.36262040242514
  0
LINE
  8
_0-3_躯体と製品
  6
CONTINUOUS
 62
    4
 10
677.02401042059182
 20
479.86262040243196
 11
997.02401042059182
 21
479.86262040243196
  0
LINE
  8
_0-3_躯体と製品
  6
CONTINUOUS
 62
    4
 10
677.02401042059182
 20
462.86262040243105
 11
812.02401042059182
 21
462.86262040243105
  0
LINE
  8
_0-3_躯体と製品
  6
CONTINUOUS
 62
    4
 10
862.02401042059182
 20
462.86262040243105
 11
997.02401042059182
 21
462.86262040243105
  0
LINE
  8
_0-3_躯体と製品
  6
CONTINUOUS
 62
    4
 10
677.02401042059182
 20
459.36262040243196
 11
812.02401042059182
 21
459.36262040243105
  0
LINE
  8
_0-3_躯体と製品
  6
CONTINUOUS
 62
    4
 10
862.02401042059182
 20
459.36262040243105
 11
997.02401042059182
 21
459.36262040243196
  0
CIRCLE
  8
_0-3_躯体と製品
  6
CONTINUOUS
 62
    7
 10
837.02401042059182
 20
471.86262040242514
 40
2.399999999999999
  0
LINE
  8
_0-3_躯体と製品
  6
CONTINUOUS
 62
    7
 10
829.77401042059182
 20
455.42796640242705
 11
829.22401042059164
 21
455.11042640242613
  0
LINE
  8
_0-3_躯体と製品
  6
CONTINUOUS
 62
    7
 10
826.82401042059155
 20
455.03995640242397
 11
829.22401042059164
 21
455.74551140242397
  0
LINE
  8
_0-3_躯体と製品
  6
CONTINUOUS
 62
    7
 10
826.27401042059046
 20
454.72241140242409
 11
826.82401042059155
 21
455.03995640242397
  0
LINE
  8
_0-3_躯体と製品
  6
CONTINUOUS
 62
    7
 10
826.82401042059155
 20
455.03995640242397
 11
826.82401042059155
 21
455.76262040241909
  0
LINE
  8
_0-3_躯体と製品
  6
CONTINUOUS
 62
    7
 10
826.82401042059155
 20
454.40487140242612
 11
829.22401042059164
 21
455.11042640242613
  0
LINE
  8
_0-3_躯体と製品
  6
CONTINUOUS
 62
    7
 10
826.82401042059155
 20
454.40487140242612
 11
826.27401042059046
 21
454.72241140242409
  0
LINE
  8
_0-3_躯体と製品
  6
CONTINUOUS
 62
    7
 10
826.27401042059046
 20
454.72241140242409
 11
829.77401042059182
 21
455.42796640242705
  0
LINE
  8
_0-3_躯体と製品
  6
CONTINUOUS
 62
    7
 10
829.77401042059182
 20
455.42796640242705
 11
829.22401042059164
 21
455.74551140242397
  0
LINE
  8
_0-3_躯体と製品
  6
CONTINUOUS
 62
    7
 10
829.22401042059164
 20
455.74551140242397
 11
829.22401042059164
 21
455.76262040241909
  0
LINE
  8
_0-3_躯体と製品
  6
CENTER1
 62
    7
 10
846.02401042059182
 20
445.39189040062206
 11
846.02401042059182
 21
469.70072251474312
  0
ARC
  8
_0-3_躯体と製品
  6
CONTINUOUS
 62
    7
 10
845.47701042062124
 20
463.57462040242723
 40
4.8189999999968052
 50
83.482557999946295
 51
131.88824500092844
  0
ARC
  8
_0-3_躯体と製品
  6
CONTINUOUS
 62
    7
 10
846.57101042057354
 20
463.57462040242115
 40
4.8190000000171738
 50
48.111749000586236
 51
96.51743699885543
  0
LINE
  8
_0-3_躯体と製品
  6
CONTINUOUS
 62
    7
 10
849.85026150659451
 20
466.86262040242514
 11
849.78901042057578
 21
467.16262040244305
  0
LINE
  8
_0-3_躯体と製品
  6
CONTINUOUS
 62
    7
 10
849.78901042057578
 20
467.16262040244305
 11
846.02401042059046
 21
467.16262040244305
  0
LINE
  8
_0-3_躯体と製品
  6
CONTINUOUS
 62
    7
 10
846.02401042059046
 20
467.16262040244305
 11
842.25901042057649
 21
467.16262040244305
  0
LINE
  8
_0-3_躯体と製品
  6
CONTINUOUS
 62
    7
 10
842.25901042057649
 20
467.16262040244305
 11
842.19775933456549
 21
466.86262040242514
  0
LINE
  8
_0-3_躯体と製品
  6
CONTINUOUS
 62
    7
 10
847.77401042059182
 20
454.01685640242499
 11
847.22401042059164
 21
453.69931640242498
  0
LINE
  8
_0-3_躯体と製品
  6
CONTINUOUS
 62
    7
 10
844.82401042059155
 20
453.62884640242305
 11
847.22401042059164
 21
454.33440140242396
  0
LINE
  8
_0-3_躯体と製品
  6
CONTINUOUS
 62
    7
 10
844.27401042059046
 20
453.31130140242294
 11
844.82401042059155
 21
453.62884640242305
  0
LINE
  8
_0-3_躯体と製品
  6
CONTINUOUS
 62
    7
 10
844.82401042059155
 20
453.62884640242305
 11
844.82401042059155
 21
454.40487140242408
  0
LINE
  8
_0-3_躯体と製品
  6
CONTINUOUS
 62
    7
 10
847.22401042059164
 20
451.51217640242407
 11
847.77401042059182
 21
451.19463640242611
  0
LINE
  8
_0-3_躯体と製品
  6
CONTINUOUS
 62
    7
 10
846.02401042059182
 20
450.84185640242413
 11
847.77401042059182
 21
451.19463640242611
  0
LINE
  8
_0-3_躯体と製品
  6
CONTINUOUS
 62
    7
 10
847.77401042059182
 20
451.19463640242611
 11
847.22401042059164
 21
450.877091402426
  0
LINE
  8
_0-3_躯体と製品
  6
CONTINUOUS
 62
    7
 10
847.22401042059164
 20
452.92329140242396
 11
847.77401042059182
 21
452.60574640242407
  0
ARC
  8
_0-3_躯体と製品
  6
CONTINUOUS
 62
    7
 10
850.5483104205905
 20
447.46848540243104
 40
4.5414449999999427
 50
137.05380000001753
 51
175.02121999999039
  0
ARC
  8
_0-3_躯体と製品
  6
CONTINUOUS
 62
    7
 10
846.04281042059074
 20
446.53912040242903
 40
1.3236349999999331
 50
90.813543000016423
 51
157.04087000001471
  0
LINE
  8
_0-3_躯体と製品
  6
CONTINUOUS
 62
    7
 10
847.22401042059164
 20
450.56262040242996
 11
844.82401042059155
 21
450.56262040242996
  0
LINE
  8
_0-3_躯体と製品
  6
CONTINUOUS
 62
    7
 10
844.82401042059155
 20
452.99376140242498
 11
847.22401042059164
 21
453.69931640242498
  0
LINE
  8
_0-3_躯体と製品
  6
CONTINUOUS
 62
    7
 10
847.22401042059164
 20
453.69931640242498
 11
847.22401042059164
 21
452.92329140242396
  0
LINE
  8
_0-3_躯体と製品
  6
CONTINUOUS
 62
    7
 10
847.22401042059164
 20
452.92329140242396
 11
844.82401042059155
 21
452.21773140242408
  0
LINE
  8
_0-3_躯体と製品
  6
CONTINUOUS
 62
    7
 10
844.82401042059155
 20
452.21773140242408
 11
844.27401042059046
 21
451.90019140242407
  0
LINE
  8
_0-3_躯体と製品
  6
CONTINUOUS
 62
    7
 10
847.22401042059164
 20
452.28820140242306
 11
847.77401042059182
 21
452.60574640242407
  0
LINE
  8
_0-3_躯体と製品
  6
CONTINUOUS
 62
    7
 10
847.77401042059182
 20
452.60574640242407
 11
844.27401042059046
 21
451.90019140242407
  0
LINE
  8
_0-3_躯体と製品
  6
CONTINUOUS
 62
    7
 10
844.27401042059046
 20
451.90019140242407
 11
844.82401042059155
 21
451.58264640242396
  0
LINE
  8
_0-3_躯体と製品
  6
CONTINUOUS
 62
    7
 10
844.82401042059155
 20
451.58264640242396
 11
847.22401042059164
 21
452.28820140242306
  0
LINE
  8
_0-3_躯体と製品
  6
CONTINUOUS
 62
    7
 10
847.22401042059164
 20
452.28820140242306
 11
847.22401042059164
 21
451.51217640242407
  0
LINE
  8
_0-3_躯体と製品
  6
CONTINUOUS
 62
    7
 10
847.22401042059164
 20
451.51217640242407
 11
846.02401042059182
 21
450.84185640242413
  0
LINE
  8
_0-3_躯体と製品
  6
CONTINUOUS
 62
    7
 10
846.02401042059182
 20
450.84185640242413
 11
847.22401042059164
 21
450.877091402426
  0
LINE
  8
_0-3_躯体と製品
  6
CONTINUOUS
 62
    7
 10
847.22401042059164
 20
450.877091402426
 11
847.22401042059164
 21
447.05544040243012
  0
LINE
  8
_0-3_躯体と製品
  6
CONTINUOUS
 62
    7
 10
847.22401042059164
 20
447.05544040243012
 11
846.02401042059182
 21
446.36262040243105
  0
LINE
  8
_0-3_躯体と製品
  6
CONTINUOUS
 62
    7
 10
846.02401042059182
 20
447.8898054024321
 11
846.02401042059182
 21
446.36262040243105
  0
LINE
  8
_0-3_躯体と製品
  6
CONTINUOUS
 62
    7
 10
846.02401042059182
 20
446.36262040243105
 11
844.82401042059155
 21
447.05544040243012
  0
LINE
  8
_0-3_躯体と製品
  6
CONTINUOUS
 62
    7
 10
844.82401042059155
 20
447.05544040243012
 11
844.82401042059155
 21
452.99376140242498
  0
LINE
  8
_0-3_躯体と製品
  6
CONTINUOUS
 62
    7
 10
844.82401042059155
 20
452.99376140242498
 11
844.27401042059046
 21
453.31130140242294
  0
LINE
  8
_0-3_躯体と製品
  6
CONTINUOUS
 62
    7
 10
844.27401042059046
 20
453.31130140242294
 11
847.77401042059182
 21
454.01685640242499
  0
LINE
  8
_0-3_躯体と製品
  6
CONTINUOUS
 62
    7
 10
847.77401042059182
 20
454.01685640242499
 11
847.22401042059164
 21
454.33440140242396
  0
LINE
  8
_0-3_躯体と製品
  6
CONTINUOUS
 62
    7
 10
847.22401042059164
 20
454.33440140242396
 11
847.22401042059164
 21
455.11042640242295
  0
LINE
  8
_0-3_躯体と製品
  6
CONTINUOUS
 62
    7
 10
847.77401042059182
 20
455.42796640242705
 11
847.22401042059164
 21
455.11042640242613
  0
LINE
  8
_0-3_躯体と製品
  6
CONTINUOUS
 62
    7
 10
844.82401042059155
 20
455.03995640242397
 11
847.22401042059164
 21
455.74551140242397
  0
LINE
  8
_0-3_躯体と製品
  6
CONTINUOUS
 62
    7
 10
844.27401042059046
 20
454.72241140242409
 11
844.82401042059155
 21
455.03995640242397
  0
LINE
  8
_0-3_躯体と製品
  6
CONTINUOUS
 62
    7
 10
844.82401042059155
 20
455.03995640242397
 11
844.82401042059155
 21
455.76262040241909
  0
LINE
  8
_0-3_躯体と製品
  6
CONTINUOUS
 62
    7
 10
844.82401042059155
 20
454.40487140242612
 11
847.22401042059164
 21
455.11042640242613
  0
LINE
  8
_0-3_躯体と製品
  6
CONTINUOUS
 62
    7
 10
844.82401042059155
 20
454.40487140242612
 11
844.27401042059046
 21
454.72241140242409
  0
LINE
  8
_0-3_躯体と製品
  6
CONTINUOUS
 62
    7
 10
844.27401042059046
 20
454.72241140242409
 11
847.77401042059182
 21
455.42796640242705
  0
LINE
  8
_0-3_躯体と製品
  6
CONTINUOUS
 62
    7
 10
847.77401042059182
 20
455.42796640242705
 11
847.22401042059164
 21
455.74551140242397
  0
LINE
  8
_0-3_躯体と製品
  6
CONTINUOUS
 62
    7
 10
847.22401042059164
 20
455.74551140242397
 11
847.22401042059164
 21
455.76262040241909
  0
INSERT
  2
-017-_D18
  8
_0-2_寸法
 10
-2049.9849439617274
 20
-825.03597282642795
 41
1
 42
1
 50
0
  0
LINE
  8
_0-3_躯体と製品
  6
CONTINUOUS
 62
    4
 10
169.70065957940869
 20
458.36262040243105
 11
131.70074684488372
 21
458.36262040243696
  0
LINE
  8
_0-3_躯体と製品
  6
CONTINUOUS
 62
    4
 10
131.70310301270683
 20
485.36262040243696
 11
171.70065957940869
 21
485.36262040243105
  0
ARC
  8
_0-3_躯体と製品
  6
CONTINUOUS
 62
    4
 10
171.70065957940824
 20
484.3626204024315
 40
0.9999999999995451
 50
359.99999999997391
 51
89.999999999973952
  0
LINE
  8
_0-3_躯体と製品
  6
CONTINUOUS
 62
    4
 10
172.70065957940778
 20
484.36262040243105
 11
172.70065957940778
 21
479.86262040243105
  0
LINE
  8
_0-3_躯体と製品
  6
CONTINUOUS
 62
    4
 10
172.70065957940778
 20
479.86262040243105
 11
168.70065957940778
 21
479.86262040243105
  0
ARC
  8
_0-3_躯体と製品
  6
CONTINUOUS
 62
    4
 10
168.70065957940778
 20
476.86262040243105
 40
3
 50
90
 51
180
  0
LINE
  8
_0-3_躯体と製品
  6
CONTINUOUS
 62
    4
 10
165.70065957940778
 20
476.86262040243105
 11
165.70065957940778
 21
465.86262040243105
  0
ARC
  8
_0-3_躯体と製品
  6
CONTINUOUS
 62
    4
 10
168.70065957940778
 20
465.86262040243105
 40
3
 50
180
 51
270
  0
LINE
  8
_0-3_躯体と製品
  6
CONTINUOUS
 62
    4
 10
168.70065957940778
 20
462.86262040243105
 11
172.70065957940778
 21
462.86262040243105
  0
LINE
  8
_0-3_躯体と製品
  6
CONTINUOUS
 62
    4
 10
172.70065957940778
 20
462.86262040243105
 11
172.70065957940778
 21
460.86262040243105
  0
ARC
  8
_0-3_躯体と製品
  6
CONTINUOUS
 62
    4
 10
171.20065957940778
 20
460.86262040243105
 40
1.5
 50
270
 51
0
  0
LINE
  8
_0-3_躯体と製品
  6
CONTINUOUS
 62
    4
 10
171.20065957940778
 20
459.36262040243105
 11
169.70065957940869
 21
459.36262040243105
  0
LINE
  8
_0-3_躯体と製品
  6
CONTINUOUS
 62
    4
 10
169.70065957940869
 20
459.36262040243105
 11
169.70065957940869
 21
457.86262040243105
  0
ARC
  8
_0-3_躯体と製品
  6
CONTINUOUS
 62
    4
 10
169.20065957940869
 20
457.86262040243105
 40
0.4999999999999999
 50
270
 51
0
  0
LINE
  8
_0-3_躯体と製品
  6
CONTINUOUS
 62
    4
 10
169.20065957940869
 20
457.36262040243105
 11
131.70065957940869
 21
457.36262040243696
  0
LINE
  8
_0-3_躯体と製品
  6
CONTINUOUS
 62
    4
 10
131.7030157472318
 20
484.3626204024381
 11
171.70065957940869
 21
484.36262040243105
  0
LINE
  8
_0-3_躯体と製品
  6
CONTINUOUS
 62
    4
 10
171.70065957940869
 20
484.36262040243105
 11
171.70065957940869
 21
479.86262040243105
  0
LINE
  8
_0-3_躯体と製品
  6
CONTINUOUS
 62
    4
 10
131.70249215438253
 20
478.36262040243696
 11
135.20065957940778
 21
478.36262040243105
  0
LINE
  8
_0-3_躯体と製品
  6
CONTINUOUS
 62
    4
 10
135.20065957940778
 20
478.36262040243105
 11
135.70065957940869
 21
477.86262040243105
  0
LINE
  8
_0-3_躯体と製品
  6
CONTINUOUS
 62
    4
 10
135.70065957940869
 20
477.86262040243105
 11
135.70065957940869
 21
464.86262040243105
  0
LINE
  8
_0-3_躯体と製品
  6
CONTINUOUS
 62
    4
 10
135.70065957940869
 20
464.86262040243105
 11
135.20065957940778
 21
464.36262040243105
  0
LINE
  8
_0-3_躯体と製品
  6
CONTINUOUS
 62
    4
 10
135.20065957940778
 20
464.36262040243105
 11
131.70127043773255
 21
464.36262040243696
  0
LINE
  8
_0-3_躯体と製品
  6
CONTINUOUS
 62
    4
 10
160.20065957940869
 20
462.86262040243105
 11
140.70065957940778
 21
462.86262040243105
  0
LINE
  8
_0-3_躯体と製品
  6
CONTINUOUS
 62
    4
 10
140.70065957940778
 20
462.86262040243105
 11
140.20065957940869
 21
463.36262040243105
  0
LINE
  8
_0-3_躯体と製品
  6
CONTINUOUS
 62
    4
 10
140.20065957940869
 20
463.36262040243105
 11
140.20065957940869
 21
479.36262040243105
  0
LINE
  8
_0-3_躯体と製品
  6
CONTINUOUS
 62
    4
 10
140.20065957940869
 20
479.36262040243105
 11
140.70065957940778
 21
479.86262040243105
  0
LINE
  8
_0-3_躯体と製品
  6
CONTINUOUS
 62
    4
 10
140.70065957940778
 20
479.86262040243105
 11
160.20065957940869
 21
479.86262040243105
  0
LINE
  8
_0-3_躯体と製品
  6
CONTINUOUS
 62
    4
 10
160.20065957940869
 20
479.86262040243105
 11
160.70065957940869
 21
479.36262040243105
  0
LINE
  8
_0-3_躯体と製品
  6
CONTINUOUS
 62
    4
 10
160.70065957940869
 20
479.36262040243105
 11
160.70065957940869
 21
463.36262040243105
  0
LINE
  8
_0-3_躯体と製品
  6
CONTINUOUS
 62
    4
 10
160.70065957940869
 20
463.36262040243105
 11
160.20065957940869
 21
462.86262040243105
  0
LINE
  8
_0-3_躯体と製品
  6
CONTINUOUS
 62
    7
 10
166.20065957940869
 20
477.36262040243105
 11
166.20065957940869
 21
466.162620402431
  0
ARC
  8
_0-3_躯体と製品
  6
CONTINUOUS
 62
    7
 10
169.20065957940869
 20
466.162620402431
 40
3
 50
180
 51
270
  0
LINE
  8
_0-3_躯体と製品
  6
CONTINUOUS
 62
    7
 10
169.20065957940869
 20
463.162620402431
 11
169.20065957940869
 21
462.86262040243105
  0
LINE
  8
_0-3_躯体と製品
  6
CONTINUOUS
 62
    7
 10
169.20065957940869
 20
462.86262040243105
 11
170.20065957940869
 21
462.86262040243105
  0
LINE
  8
_0-3_躯体と製品
  6
CONTINUOUS
 62
    7
 10
170.20065957940869
 20
462.86262040243105
 11
170.20065957940869
 21
463.162620402431
  0
LINE
  8
_0-3_躯体と製品
  6
CONTINUOUS
 62
    7
 10
170.20065957940869
 20
463.162620402431
 11
171.20065957940778
 21
463.162620402431
  0
LINE
  8
_0-3_躯体と製品
  6
CONTINUOUS
 62
    7
 10
171.20065957940778
 20
463.162620402431
 11
171.20065957940778
 21
462.86262040243105
  0
LINE
  8
_0-3_躯体と製品
  6
CONTINUOUS
 62
    7
 10
171.20065957940778
 20
462.86262040243105
 11
172.00065957940842
 21
462.86262040243105
  0
LINE
  8
_0-3_躯体と製品
  6
CONTINUOUS
 62
    7
 10
172.00065957940842
 20
462.86262040243105
 11
172.00065957940842
 21
463.162620402431
  0
LINE
  8
_0-3_躯体と製品
  6
CONTINUOUS
 62
    7
 10
172.00065957940842
 20
463.162620402431
 11
172.40065957940851
 21
463.162620402431
  0
ARC
  8
_0-3_躯体と製品
  6
CONTINUOUS
 62
    7
 10
172.40065957940817
 20
462.86262040243139
 40
0.299999999999602
 50
359.9999999999327
 51
89.999999999937046
  0
LINE
  8
_0-3_躯体と製品
  6
CONTINUOUS
 62
    7
 10
172.70065957940778
 20
462.86262040243105
 11
172.70065957940778
 21
459.36262040243105
  0
LINE
  8
_0-3_躯体と製品
  6
CONTINUOUS
 62
    7
 10
172.70065957940778
 20
459.36262040243105
 11
171.20065957940778
 21
459.36262040243105
  0
ARC
  8
_0-3_躯体と製品
  6
CONTINUOUS
 62
    7
 10
171.20065957940824
 20
458.8626204024315
 40
0.4999999999995452
 50
90.000000000052111
 51
180.0000000000521
  0
LINE
  8
_0-3_躯体と製品
  6
CONTINUOUS
 62
    7
 10
170.70065957940869
 20
458.86262040243105
 11
170.70065957940869
 21
457.86262040243105
  0
ARC
  8
_0-3_躯体と製品
  6
CONTINUOUS
 62
    7
 10
171.20065957940824
 20
457.86262040243059
 40
0.4999999999995452
 50
179.9999999999479
 51
269.99999999994787
  0
LINE
  8
_0-3_躯体と製品
  6
CONTINUOUS
 62
    7
 10
171.20065957940778
 20
457.36262040243105
 11
174.70065957940869
 21
457.36262040243105
  0
LINE
  8
_0-3_躯体と製品
  6
CONTINUOUS
 62
    7
 10
174.70065957940869
 20
457.36262040243105
 11
174.70065957940869
 21
457.662620402431
  0
LINE
  8
_0-3_躯体と製品
  6
CONTINUOUS
 62
    7
 10
174.70065957940869
 20
457.662620402431
 11
176.70065957940869
 21
457.662620402431
  0
LINE
  8
_0-3_躯体と製品
  6
CONTINUOUS
 62
    7
 10
176.70065957940869
 20
457.662620402431
 11
176.70065957940869
 21
457.36262040243105
  0
LINE
  8
_0-3_躯体と製品
  6
CONTINUOUS
 62
    7
 10
176.70065957940869
 20
457.36262040243105
 11
178.9006595794076
 21
457.36262040243105
  0
ARC
  8
_0-3_躯体と製品
  6
CONTINUOUS
 62
    7
 10
178.9006595794076
 20
457.86262040243105
 40
0.4999999999999999
 50
270
 51
0.0000000000000127
  0
LINE
  8
_0-3_躯体と製品
  6
CONTINUOUS
 62
    7
 10
179.4006595794076
 20
457.86262040243105
 11
179.4006595794076
 21
458.86262040243105
  0
ARC
  8
_0-3_躯体と製品
  6
CONTINUOUS
 62
    7
 10
178.9006595794076
 20
458.86262040243105
 40
0.4999999999999999
 50
0.0000000000000052
 51
90.000000000000014
  0
LINE
  8
_0-3_躯体と製品
  6
CONTINUOUS
 62
    7
 10
178.9006595794076
 20
459.36262040243105
 11
178.70065957940869
 21
459.36262040243105
  0
LINE
  8
_0-3_躯体と製品
  6
CONTINUOUS
 62
    7
 10
178.70065957940869
 20
459.36262040243105
 11
178.70065957940869
 21
462.86262040243105
  0
ARC
  8
_0-3_躯体と製品
  6
CONTINUOUS
 62
    7
 10
179.00065957940853
 20
462.86262040243116
 40
0.2999999999998294
 50
90.000000000019554
 51
180.0000000000239
  0
LINE
  8
_0-3_躯体と製品
  6
CONTINUOUS
 62
    7
 10
179.00065957940842
 20
463.162620402431
 11
179.4006595794076
 21
463.162620402431
  0
LINE
  8
_0-3_躯体と製品
  6
CONTINUOUS
 62
    7
 10
179.4006595794076
 20
463.162620402431
 11
179.4006595794076
 21
462.86262040243105
  0
LINE
  8
_0-3_躯体と製品
  6
CONTINUOUS
 62
    7
 10
179.4006595794076
 20
462.86262040243105
 11
180.20065957940869
 21
462.86262040243105
  0
LINE
  8
_0-3_躯体と製品
  6
CONTINUOUS
 62
    7
 10
180.20065957940869
 20
462.86262040243105
 11
180.20065957940869
 21
463.162620402431
  0
LINE
  8
_0-3_躯体と製品
  6
CONTINUOUS
 62
    7
 10
180.20065957940869
 20
463.162620402431
 11
181.20065957940869
 21
463.162620402431
  0
LINE
  8
_0-3_躯体と製品
  6
CONTINUOUS
 62
    7
 10
181.20065957940869
 20
463.162620402431
 11
181.20065957940869
 21
462.86262040243105
  0
LINE
  8
_0-3_躯体と製品
  6
CONTINUOUS
 62
    7
 10
181.20065957940869
 20
462.86262040243105
 11
182.20065957940869
 21
462.86262040243105
  0
LINE
  8
_0-3_躯体と製品
  6
CONTINUOUS
 62
    7
 10
182.20065957940869
 20
462.86262040243105
 11
182.20065957940869
 21
463.162620402431
  0
LINE
  8
_0-3_躯体と製品
  6
CONTINUOUS
 62
    7
 10
182.20065957940869
 20
463.162620402431
 11
182.40065957940851
 21
463.162620402431
  0
ARC
  8
_0-3_躯体と製品
  6
CONTINUOUS
 62
    7
 10
182.40065957940817
 20
463.96262040243062
 40
0.7999999999996019
 50
270.00000000002365
 51
0.0000000000252536
  0
LINE
  8
_0-3_躯体と製品
  6
CONTINUOUS
 62
    7
 10
183.20065957940778
 20
463.96262040243096
 11
183.20065957940778
 21
466.86262040243105
  0
LINE
  8
_0-3_躯体と製品
  6
CONTINUOUS
 62
    7
 10
183.20065957940778
 20
466.86262040243105
 11
182.70065957940869
 21
466.86262040243105
  0
ARC
  8
_0-3_躯体と製品
  6
CONTINUOUS
 62
    7
 10
182.70065957940869
 20
466.36262040243105
 40
0.4999999999999999
 50
90
 51
180
  0
LINE
  8
_0-3_躯体と製品
  6
CONTINUOUS
 62
    7
 10
182.20065957940869
 20
466.36262040243105
 11
182.20065957940869
 21
465.86262040243105
  0
ARC
  8
_0-3_躯体と製品
  6
CONTINUOUS
 62
    7
 10
181.70065957940824
 20
465.8626204024315
 40
0.5000000000004547
 50
269.99999999994787
 51
359.99999999994787
  0
LINE
  8
_0-3_躯体と製品
  6
CONTINUOUS
 62
    7
 10
181.70065957940778
 20
465.36262040243105
 11
176.00065957940842
 21
465.36262040243105
  0
LINE
  8
_0-3_躯体と製品
  6
CONTINUOUS
 62
    7
 10
176.00065957940842
 20
465.36262040243105
 11
175.70065957940869
 21
465.06262040243109
  0
LINE
  8
_0-3_躯体と製品
  6
CONTINUOUS
 62
    7
 10
175.70065957940869
 20
465.06262040243109
 11
175.40065957940851
 21
465.36262040243105
  0
LINE
  8
_0-3_躯体と製品
  6
CONTINUOUS
 62
    7
 10
175.40065957940851
 20
465.36262040243105
 11
168.70065957940778
 21
465.36262040243105
  0
ARC
  8
_0-3_躯体と製品
  6
CONTINUOUS
 62
    7
 10
168.70065957940824
 20
465.86262040243059
 40
0.4999999999995452
 50
179.9999999999479
 51
269.99999999994787
  0
LINE
  8
_0-3_躯体と製品
  6
CONTINUOUS
 62
    7
 10
168.20065957940869
 20
465.86262040243105
 11
168.20065957940869
 21
471.56262040243109
  0
LINE
  8
_0-3_躯体と製品
  6
CONTINUOUS
 62
    7
 10
168.20065957940869
 20
471.56262040243109
 11
167.90065957940851
 21
471.86262040243105
  0
LINE
  8
_0-3_躯体と製品
  6
CONTINUOUS
 62
    7
 10
167.90065957940851
 20
471.86262040243105
 11
168.20065957940869
 21
472.162620402431
  0
LINE
  8
_0-3_躯体と製品
  6
CONTINUOUS
 62
    7
 10
168.20065957940869
 20
472.162620402431
 11
168.20065957940869
 21
477.36262040243105
  0
LINE
  8
_0-3_躯体と製品
  6
CONTINUOUS
 62
    7
 10
168.20065957940869
 20
477.36262040243105
 11
166.20065957940869
 21
477.36262040243105
  0
LINE
  8
_0-3_躯体と製品
  6
CONTINUOUS
 62
    4
 10
335.70065957940869
 20
458.36262040243105
 11
181.70065957940778
 21
458.36262040243105
  0
LINE
  8
_0-3_躯体と製品
  6
CONTINUOUS
 62
    4
 10
335.20065957940869
 20
457.36262040243105
 11
182.20065957940869
 21
457.36262040243105
  0
ARC
  8
_0-3_躯体と製品
  6
CONTINUOUS
 62
    4
 10
182.20065957940824
 20
457.8626204024315
 40
0.5000000000004547
 50
180.0000000000521
 51
270.00000000005213
  0
LINE
  8
_0-3_躯体と製品
  6
CONTINUOUS
 62
    4
 10
181.70065957940778
 20
457.86262040243105
 11
181.70065957940778
 21
459.36262040243105
  0
LINE
  8
_0-3_躯体と製品
  6
CONTINUOUS
 62
    4
 10
181.70065957940778
 20
459.36262040243105
 11
180.20065957940869
 21
459.36262040243105
  0
ARC
  8
_0-3_躯体と製品
  6
CONTINUOUS
 62
    4
 10
180.20065957940869
 20
460.86262040243105
 40
1.4999999999999856
 50
179.99999999999943
 51
270.00000000000057
  0
LINE
  8
_0-3_躯体と製品
  6
CONTINUOUS
 62
    4
 10
178.70065957940869
 20
460.86262040243105
 11
178.70065957940869
 21
462.86262040243105
  0
LINE
  8
_0-3_躯体と製品
  6
CONTINUOUS
 62
    4
 10
178.70065957940869
 20
462.86262040243105
 11
182.70065957940869
 21
462.86262040243105
  0
ARC
  8
_0-3_躯体と製品
  6
CONTINUOUS
 62
    4
 10
182.70065957940869
 20
465.86262040243105
 40
3
 50
270
 51
0.0000000000000127
  0
LINE
  8
_0-3_躯体と製品
  6
CONTINUOUS
 62
    4
 10
185.70065957940869
 20
465.86262040243105
 11
185.70065957940869
 21
476.86262040243105
  0
ARC
  8
_0-3_躯体と製品
  6
CONTINUOUS
 62
    4
 10
182.70065957940869
 20
476.86262040243105
 40
3
 50
0.0000000000000052
 51
90.000000000000014
  0
LINE
  8
_0-3_躯体と製品
  6
CONTINUOUS
 62
    4
 10
182.70065957940869
 20
479.86262040243105
 11
178.70065957940869
 21
479.86262040243105
  0
LINE
  8
_0-3_躯体と製品
  6
CONTINUOUS
 62
    4
 10
178.70065957940869
 20
479.86262040243105
 11
178.70065957940869
 21
484.36262040243105
  0
ARC
  8
_0-3_躯体と製品
  6
CONTINUOUS
 62
    4
 10
179.70065957940869
 20
484.36262040243105
 40
0.9999999999999998
 50
89.999999999999986
 51
180
  0
LINE
  8
_0-3_躯体と製品
  6
CONTINUOUS
 62
    4
 10
179.70065957940869
 20
485.36262040243105
 11
337.70065957940869
 21
485.36262040243105
  0
ARC
  8
_0-3_躯体と製品
  6
CONTINUOUS
 62
    4
 10
337.70065957940824
 20
484.3626204024315
 40
0.9999999999995451
 50
359.99999999997391
 51
89.999999999973952
  0
LINE
  8
_0-3_躯体と製品
  6
CONTINUOUS
 62
    4
 10
338.70065957940778
 20
484.36262040243105
 11
338.70065957940778
 21
479.86262040243105
  0
LINE
  8
_0-3_躯体と製品
  6
CONTINUOUS
 62
    4
 10
338.70065957940778
 20
479.86262040243105
 11
334.70065957940869
 21
479.86262040243105
  0
ARC
  8
_0-3_躯体と製品
  6
CONTINUOUS
 62
    4
 10
334.70065957940869
 20
476.86262040243105
 40
3
 50
90
 51
180
  0
LINE
  8
_0-3_躯体と製品
  6
CONTINUOUS
 62
    4
 10
331.70065957940869
 20
476.86262040243105
 11
331.70065957940869
 21
465.86262040243105
  0
ARC
  8
_0-3_躯体と製品
  6
CONTINUOUS
 62
    4
 10
334.70065957940869
 20
465.86262040243105
 40
3
 50
180
 51
270
  0
LINE
  8
_0-3_躯体と製品
  6
CONTINUOUS
 62
    4
 10
334.70065957940869
 20
462.86262040243105
 11
338.70065957940778
 21
462.86262040243105
  0
LINE
  8
_0-3_躯体と製品
  6
CONTINUOUS
 62
    4
 10
338.70065957940778
 20
462.86262040243105
 11
338.70065957940778
 21
460.86262040243105
  0
ARC
  8
_0-3_躯体と製品
  6
CONTINUOUS
 62
    4
 10
337.20065957940778
 20
460.86262040243105
 40
1.5
 50
270
 51
0
  0
LINE
  8
_0-3_躯体と製品
  6
CONTINUOUS
 62
    4
 10
337.20065957940778
 20
459.36262040243105
 11
335.70065957940869
 21
459.36262040243105
  0
LINE
  8
_0-3_躯体と製品
  6
CONTINUOUS
 62
    4
 10
335.70065957940869
 20
459.36262040243105
 11
335.70065957940869
 21
457.86262040243105
  0
LINE
  8
_0-3_躯体と製品
  6
CONTINUOUS
 62
    4
 10
335.70065957940869
 20
457.86262040243105
 11
335.20065957940869
 21
457.36262040243105
  0
LINE
  8
_0-3_躯体と製品
  6
CONTINUOUS
 62
    4
 10
179.70065957940869
 20
479.86262040243105
 11
179.70065957940869
 21
484.36262040243105
  0
LINE
  8
_0-3_躯体と製品
  6
CONTINUOUS
 62
    4
 10
179.70065957940869
 20
484.36262040243105
 11
337.70065957940869
 21
484.36262040243105
  0
LINE
  8
_0-3_躯体と製品
  6
CONTINUOUS
 62
    4
 10
337.70065957940869
 20
484.36262040243105
 11
337.70065957940869
 21
479.86262040243105
  0
LINE
  8
_0-3_躯体と製品
  6
CONTINUOUS
 62
    4
 10
216.20065957940869
 20
464.36262040243105
 11
223.20065957940869
 21
464.36262040243105
  0
LINE
  8
_0-3_躯体と製品
  6
CONTINUOUS
 62
    4
 10
223.20065957940869
 20
464.36262040243105
 11
223.70065957940869
 21
464.86262040243105
  0
LINE
  8
_0-3_躯体と製品
  6
CONTINUOUS
 62
    4
 10
223.70065957940869
 20
464.86262040243105
 11
223.70065957940869
 21
477.86262040243105
  0
LINE
  8
_0-3_躯体と製品
  6
CONTINUOUS
 62
    4
 10
223.70065957940869
 20
477.86262040243105
 11
223.20065957940869
 21
478.36262040243105
  0
LINE
  8
_0-3_躯体と製品
  6
CONTINUOUS
 62
    4
 10
223.20065957940869
 20
478.36262040243105
 11
216.20065957940869
 21
478.36262040243105
  0
LINE
  8
_0-3_躯体と製品
  6
CONTINUOUS
 62
    4
 10
216.20065957940869
 20
478.36262040243105
 11
215.70065957940869
 21
477.86262040243105
  0
LINE
  8
_0-3_躯体と製品
  6
CONTINUOUS
 62
    4
 10
215.70065957940869
 20
477.86262040243105
 11
215.70065957940869
 21
464.86262040243105
  0
LINE
  8
_0-3_躯体と製品
  6
CONTINUOUS
 62
    4
 10
215.70065957940869
 20
464.86262040243105
 11
216.20065957940869
 21
464.36262040243105
  0
LINE
  8
_0-3_躯体と製品
  6
CONTINUOUS
 62
    4
 10
228.70065957940869
 20
462.86262040243105
 11
255.70065957940869
 21
462.86262040243105
  0
LINE
  8
_0-3_躯体と製品
  6
CONTINUOUS
 62
    4
 10
255.70065957940869
 20
462.86262040243105
 11
256.20065957940869
 21
463.36262040243105
  0
LINE
  8
_0-3_躯体と製品
  6
CONTINUOUS
 62
    4
 10
256.20065957940869
 20
463.36262040243105
 11
256.20065957940869
 21
479.36262040243105
  0
LINE
  8
_0-3_躯体と製品
  6
CONTINUOUS
 62
    4
 10
256.20065957940869
 20
479.36262040243105
 11
255.70065957940869
 21
479.86262040243105
  0
LINE
  8
_0-3_躯体と製品
  6
CONTINUOUS
 62
    4
 10
255.70065957940869
 20
479.86262040243105
 11
228.70065957940869
 21
479.86262040243105
  0
LINE
  8
_0-3_躯体と製品
  6
CONTINUOUS
 62
    4
 10
228.70065957940869
 20
479.86262040243105
 11
228.20065957940778
 21
479.36262040243105
  0
LINE
  8
_0-3_躯体と製品
  6
CONTINUOUS
 62
    4
 10
228.20065957940778
 20
479.36262040243105
 11
228.20065957940778
 21
463.36262040243105
  0
LINE
  8
_0-3_躯体と製品
  6
CONTINUOUS
 62
    4
 10
228.20065957940778
 20
463.36262040243105
 11
228.70065957940869
 21
462.86262040243105
  0
LINE
  8
_0-3_躯体と製品
  6
CONTINUOUS
 62
    4
 10
191.20065957940869
 20
462.86262040243105
 11
210.70065957940869
 21
462.86262040243105
  0
LINE
  8
_0-3_躯体と製品
  6
CONTINUOUS
 62
    4
 10
210.70065957940869
 20
462.86262040243105
 11
211.20065957940869
 21
463.36262040243105
  0
LINE
  8
_0-3_躯体と製品
  6
CONTINUOUS
 62
    4
 10
211.20065957940869
 20
463.36262040243105
 11
211.20065957940869
 21
479.36262040243105
  0
LINE
  8
_0-3_躯体と製品
  6
CONTINUOUS
 62
    4
 10
211.20065957940869
 20
479.36262040243105
 11
210.70065957940869
 21
479.86262040243105
  0
LINE
  8
_0-3_躯体と製品
  6
CONTINUOUS
 62
    4
 10
210.70065957940869
 20
479.86262040243105
 11
191.20065957940869
 21
479.86262040243105
  0
LINE
  8
_0-3_躯体と製品
  6
CONTINUOUS
 62
    4
 10
191.20065957940869
 20
479.86262040243105
 11
190.70065957940869
 21
479.36262040243105
  0
LINE
  8
_0-3_躯体と製品
  6
CONTINUOUS
 62
    4
 10
190.70065957940869
 20
479.36262040243105
 11
190.70065957940869
 21
463.36262040243105
  0
LINE
  8
_0-3_躯体と製品
  6
CONTINUOUS
 62
    4
 10
190.70065957940869
 20
463.36262040243105
 11
191.20065957940869
 21
462.86262040243105
  0
LINE
  8
_0-3_躯体と製品
  6
CONTINUOUS
 62
    4
 10
301.20065957940869
 20
464.36262040243105
 11
294.20065957940869
 21
464.36262040243105
  0
LINE
  8
_0-3_躯体と製品
  6
CONTINUOUS
 62
    4
 10
294.20065957940869
 20
464.36262040243105
 11
293.70065957940778
 21
464.86262040243105
  0
LINE
  8
_0-3_躯体と製品
  6
CONTINUOUS
 62
    4
 10
293.70065957940778
 20
464.86262040243105
 11
293.70065957940778
 21
477.86262040243105
  0
LINE
  8
_0-3_躯体と製品
  6
CONTINUOUS
 62
    4
 10
293.70065957940778
 20
477.86262040243105
 11
294.20065957940869
 21
478.36262040243105
  0
LINE
  8
_0-3_躯体と製品
  6
CONTINUOUS
 62
    4
 10
294.20065957940869
 20
478.36262040243105
 11
301.20065957940869
 21
478.36262040243105
  0
LINE
  8
_0-3_躯体と製品
  6
CONTINUOUS
 62
    4
 10
301.20065957940869
 20
478.36262040243105
 11
301.70065957940869
 21
477.86262040243105
  0
LINE
  8
_0-3_躯体と製品
  6
CONTINUOUS
 62
    4
 10
301.70065957940869
 20
477.86262040243105
 11
301.70065957940869
 21
464.86262040243105
  0
LINE
  8
_0-3_躯体と製品
  6
CONTINUOUS
 62
    4
 10
301.70065957940869
 20
464.86262040243105
 11
301.20065957940869
 21
464.36262040243105
  0
LINE
  8
_0-3_躯体と製品
  6
CONTINUOUS
 62
    4
 10
288.70065957940869
 20
462.86262040243105
 11
261.70065957940778
 21
462.86262040243105
  0
LINE
  8
_0-3_躯体と製品
  6
CONTINUOUS
 62
    4
 10
261.70065957940778
 20
462.86262040243105
 11
261.20065957940869
 21
463.36262040243105
  0
LINE
  8
_0-3_躯体と製品
  6
CONTINUOUS
 62
    4
 10
261.20065957940869
 20
463.36262040243105
 11
261.20065957940869
 21
479.36262040243105
  0
LINE
  8
_0-3_躯体と製品
  6
CONTINUOUS
 62
    4
 10
261.20065957940869
 20
479.36262040243105
 11
261.70065957940778
 21
479.86262040243105
  0
LINE
  8
_0-3_躯体と製品
  6
CONTINUOUS
 62
    4
 10
261.70065957940778
 20
479.86262040243105
 11
288.70065957940869
 21
479.86262040243105
  0
LINE
  8
_0-3_躯体と製品
  6
CONTINUOUS
 62
    4
 10
288.70065957940869
 20
479.86262040243105
 11
289.20065957940869
 21
479.36262040243105
  0
LINE
  8
_0-3_躯体と製品
  6
CONTINUOUS
 62
    4
 10
289.20065957940869
 20
479.36262040243105
 11
289.20065957940869
 21
463.36262040243105
  0
LINE
  8
_0-3_躯体と製品
  6
CONTINUOUS
 62
    4
 10
289.20065957940869
 20
463.36262040243105
 11
288.70065957940869
 21
462.86262040243105
  0
LINE
  8
_0-3_躯体と製品
  6
CONTINUOUS
 62
    4
 10
326.20065957940869
 20
462.86262040243105
 11
306.70065957940778
 21
462.86262040243105
  0
LINE
  8
_0-3_躯体と製品
  6
CONTINUOUS
 62
    4
 10
306.70065957940778
 20
462.86262040243105
 11
306.20065957940869
 21
463.36262040243105
  0
LINE
  8
_0-3_躯体と製品
  6
CONTINUOUS
 62
    4
 10
306.20065957940869
 20
463.36262040243105
 11
306.20065957940869
 21
479.36262040243105
  0
LINE
  8
_0-3_躯体と製品
  6
CONTINUOUS
 62
    4
 10
306.20065957940869
 20
479.36262040243105
 11
306.70065957940778
 21
479.86262040243105
  0
LINE
  8
_0-3_躯体と製品
  6
CONTINUOUS
 62
    4
 10
306.70065957940778
 20
479.86262040243105
 11
326.20065957940869
 21
479.86262040243105
  0
LINE
  8
_0-3_躯体と製品
  6
CONTINUOUS
 62
    4
 10
326.20065957940869
 20
479.86262040243105
 11
326.70065957940869
 21
479.36262040243105
  0
LINE
  8
_0-3_躯体と製品
  6
CONTINUOUS
 62
    4
 10
326.70065957940869
 20
479.36262040243105
 11
326.70065957940869
 21
463.36262040243105
  0
LINE
  8
_0-3_躯体と製品
  6
CONTINUOUS
 62
    4
 10
326.70065957940869
 20
463.36262040243105
 11
326.20065957940869
 21
462.86262040243105
  0
LINE
  8
_0-3_躯体と製品
  6
CONTINUOUS
 62
    7
 10
332.20065957940869
 20
477.36262040243105
 11
332.20065957940869
 21
466.162620402431
  0
ARC
  8
_0-3_躯体と製品
  6
CONTINUOUS
 62
    7
 10
335.20065957940869
 20
466.162620402431
 40
3
 50
180
 51
270
  0
LINE
  8
_0-3_躯体と製品
  6
CONTINUOUS
 62
    7
 10
335.20065957940869
 20
463.162620402431
 11
335.20065957940869
 21
462.86262040243105
  0
LINE
  8
_0-3_躯体と製品
  6
CONTINUOUS
 62
    7
 10
335.20065957940869
 20
462.86262040243105
 11
336.20065957940869
 21
462.86262040243105
  0
LINE
  8
_0-3_躯体と製品
  6
CONTINUOUS
 62
    7
 10
336.20065957940869
 20
462.86262040243105
 11
336.20065957940869
 21
463.162620402431
  0
LINE
  8
_0-3_躯体と製品
  6
CONTINUOUS
 62
    7
 10
336.20065957940869
 20
463.162620402431
 11
337.20065957940778
 21
463.162620402431
  0
LINE
  8
_0-3_躯体と製品
  6
CONTINUOUS
 62
    7
 10
337.20065957940778
 20
463.162620402431
 11
337.20065957940778
 21
462.86262040243105
  0
LINE
  8
_0-3_躯体と製品
  6
CONTINUOUS
 62
    7
 10
337.20065957940778
 20
462.86262040243105
 11
338.00065957940842
 21
462.86262040243105
  0
LINE
  8
_0-3_躯体と製品
  6
CONTINUOUS
 62
    7
 10
338.00065957940842
 20
462.86262040243105
 11
338.00065957940842
 21
463.162620402431
  0
LINE
  8
_0-3_躯体と製品
  6
CONTINUOUS
 62
    7
 10
338.00065957940842
 20
463.162620402431
 11
338.40065957940851
 21
463.162620402431
  0
ARC
  8
_0-3_躯体と製品
  6
CONTINUOUS
 62
    7
 10
338.40065957940817
 20
462.86262040243139
 40
0.299999999999602
 50
359.9999999999327
 51
89.999999999937046
  0
LINE
  8
_0-3_躯体と製品
  6
CONTINUOUS
 62
    7
 10
338.70065957940778
 20
462.86262040243105
 11
338.70065957940778
 21
459.36262040243105
  0
LINE
  8
_0-3_躯体と製品
  6
CONTINUOUS
 62
    7
 10
338.70065957940778
 20
459.36262040243105
 11
337.20065957940778
 21
459.36262040243105
  0
ARC
  8
_0-3_躯体と製品
  6
CONTINUOUS
 62
    7
 10
337.20065957940824
 20
458.8626204024315
 40
0.4999999999995452
 50
90.000000000052111
 51
180.0000000000521
  0
LINE
  8
_0-3_躯体と製品
  6
CONTINUOUS
 62
    7
 10
336.70065957940869
 20
458.86262040243105
 11
336.70065957940869
 21
457.86262040243105
  0
ARC
  8
_0-3_躯体と製品
  6
CONTINUOUS
 62
    7
 10
337.20065957940824
 20
457.86262040243059
 40
0.4999999999995452
 50
179.9999999999479
 51
269.99999999994787
  0
LINE
  8
_0-3_躯体と製品
  6
CONTINUOUS
 62
    7
 10
337.20065957940778
 20
457.36262040243105
 11
340.70065957940869
 21
457.36262040243105
  0
LINE
  8
_0-3_躯体と製品
  6
CONTINUOUS
 62
    7
 10
340.70065957940869
 20
457.36262040243105
 11
340.70065957940869
 21
457.662620402431
  0
LINE
  8
_0-3_躯体と製品
  6
CONTINUOUS
 62
    7
 10
340.70065957940869
 20
457.662620402431
 11
342.70065957940869
 21
457.662620402431
  0
LINE
  8
_0-3_躯体と製品
  6
CONTINUOUS
 62
    7
 10
342.70065957940869
 20
457.662620402431
 11
342.70065957940869
 21
457.36262040243105
  0
LINE
  8
_0-3_躯体と製品
  6
CONTINUOUS
 62
    7
 10
342.70065957940869
 20
457.36262040243105
 11
344.9006595794076
 21
457.36262040243105
  0
ARC
  8
_0-3_躯体と製品
  6
CONTINUOUS
 62
    7
 10
344.90065957940806
 20
457.8626204024315
 40
0.5000000000004547
 50
269.99999999994787
 51
359.99999999994787
  0
LINE
  8
_0-3_躯体と製品
  6
CONTINUOUS
 62
    7
 10
345.40065957940851
 20
457.86262040243105
 11
345.40065957940851
 21
458.86262040243105
  0
ARC
  8
_0-3_躯体と製品
  6
CONTINUOUS
 62
    7
 10
344.90065957940806
 20
458.86262040243059
 40
0.5000000000004547
 50
0.0000000000521144
 51
90.000000000052125
  0
LINE
  8
_0-3_躯体と製品
  6
CONTINUOUS
 62
    7
 10
344.9006595794076
 20
459.36262040243105
 11
344.70065957940869
 21
459.36262040243105
  0
LINE
  8
_0-3_躯体と製品
  6
CONTINUOUS
 62
    7
 10
344.70065957940869
 20
459.36262040243105
 11
344.70065957940869
 21
462.86262040243105
  0
ARC
  8
_0-3_躯体と製品
  6
CONTINUOUS
 62
    7
 10
345.00065957940853
 20
462.86262040243116
 40
0.2999999999998294
 50
90.000000000019554
 51
180.0000000000239
  0
LINE
  8
_0-3_躯体と製品
  6
CONTINUOUS
 62
    7
 10
345.00065957940842
 20
463.162620402431
 11
345.40065957940851
 21
463.162620402431
  0
LINE
  8
_0-3_躯体と製品
  6
CONTINUOUS
 62
    7
 10
345.40065957940851
 20
463.162620402431
 11
345.40065957940851
 21
462.86262040243105
  0
LINE
  8
_0-3_躯体と製品
  6
CONTINUOUS
 62
    7
 10
345.40065957940851
 20
462.86262040243105
 11
346.20065957940869
 21
462.86262040243105
  0
LINE
  8
_0-3_躯体と製品
  6
CONTINUOUS
 62
    7
 10
346.20065957940869
 20
462.86262040243105
 11
346.20065957940869
 21
463.162620402431
  0
LINE
  8
_0-3_躯体と製品
  6
CONTINUOUS
 62
    7
 10
346.20065957940869
 20
463.162620402431
 11
347.20065957940869
 21
463.162620402431
  0
LINE
  8
_0-3_躯体と製品
  6
CONTINUOUS
 62
    7
 10
347.20065957940869
 20
463.162620402431
 11
347.20065957940869
 21
462.86262040243105
  0
LINE
  8
_0-3_躯体と製品
  6
CONTINUOUS
 62
    7
 10
347.20065957940869
 20
462.86262040243105
 11
348.20065957940869
 21
462.86262040243105
  0
LINE
  8
_0-3_躯体と製品
  6
CONTINUOUS
 62
    7
 10
348.20065957940869
 20
462.86262040243105
 11
348.20065957940869
 21
463.162620402431
  0
LINE
  8
_0-3_躯体と製品
  6
CONTINUOUS
 62
    7
 10
348.20065957940869
 20
463.162620402431
 11
348.4006595794076
 21
463.162620402431
  0
ARC
  8
_0-3_躯体と製品
  6
CONTINUOUS
 62
    7
 10
348.40065957940817
 20
463.96262040243153
 40
0.8000000000005115
 50
269.9999999999585
 51
359.9999999999601
  0
LINE
  8
_0-3_躯体と製品
  6
CONTINUOUS
 62
    7
 10
349.20065957940869
 20
463.96262040243096
 11
349.20065957940869
 21
466.86262040243105
  0
LINE
  8
_0-3_躯体と製品
  6
CONTINUOUS
 62
    7
 10
349.20065957940869
 20
466.86262040243105
 11
348.70065957940869
 21
466.86262040243105
  0
ARC
  8
_0-3_躯体と製品
  6
CONTINUOUS
 62
    7
 10
348.70065957940869
 20
466.36262040243105
 40
0.4999999999999999
 50
90
 51
180
  0
LINE
  8
_0-3_躯体と製品
  6
CONTINUOUS
 62
    7
 10
348.20065957940869
 20
466.36262040243105
 11
348.20065957940869
 21
465.86262040243105
  0
ARC
  8
_0-3_躯体と製品
  6
CONTINUOUS
 62
    7
 10
347.70065957940869
 20
465.86262040243105
 40
0.4999999999999999
 50
270
 51
0
  0
LINE
  8
_0-3_躯体と製品
  6
CONTINUOUS
 62
    7
 10
347.70065957940869
 20
465.36262040243105
 11
342.00065957940842
 21
465.36262040243105
  0
LINE
  8
_0-3_躯体と製品
  6
CONTINUOUS
 62
    7
 10
342.00065957940842
 20
465.36262040243105
 11
341.70065957940869
 21
465.06262040243109
  0
LINE
  8
_0-3_躯体と製品
  6
CONTINUOUS
 62
    7
 10
341.70065957940869
 20
465.06262040243109
 11
341.40065957940851
 21
465.36262040243105
  0
LINE
  8
_0-3_躯体と製品
  6
CONTINUOUS
 62
    7
 10
341.40065957940851
 20
465.36262040243105
 11
334.70065957940869
 21
465.36262040243105
  0
ARC
  8
_0-3_躯体と製品
  6
CONTINUOUS
 62
    7
 10
334.70065957940869
 20
465.86262040243105
 40
0.4999999999999999
 50
180
 51
270
  0
LINE
  8
_0-3_躯体と製品
  6
CONTINUOUS
 62
    7
 10
334.20065957940869
 20
465.86262040243105
 11
334.20065957940869
 21
471.56262040243109
  0
LINE
  8
_0-3_躯体と製品
  6
CONTINUOUS
 62
    7
 10
334.20065957940869
 20
471.56262040243109
 11
333.9006595794076
 21
471.86262040243105
  0
LINE
  8
_0-3_躯体と製品
  6
CONTINUOUS
 62
    7
 10
333.9006595794076
 20
471.86262040243105
 11
334.20065957940869
 21
472.162620402431
  0
LINE
  8
_0-3_躯体と製品
  6
CONTINUOUS
 62
    7
 10
334.20065957940869
 20
472.162620402431
 11
334.20065957940869
 21
477.36262040243105
  0
LINE
  8
_0-3_躯体と製品
  6
CONTINUOUS
 62
    7
 10
334.20065957940869
 20
477.36262040243105
 11
332.20065957940869
 21
477.36262040243105
  0
LINE
  8
_0-3_躯体と製品
  6
CONTINUOUS
 62
    4
 10
501.70065957940869
 20
458.36262040243105
 11
347.70065957940869
 21
458.36262040243105
  0
LINE
  8
_0-3_躯体と製品
  6
CONTINUOUS
 62
    4
 10
501.20065957940778
 20
457.36262040243105
 11
348.20065957940869
 21
457.36262040243105
  0
ARC
  8
_0-3_躯体と製品
  6
CONTINUOUS
 62
    4
 10
348.20065957940869
 20
457.86262040243105
 40
0.4999999999999999
 50
180
 51
270
  0
LINE
  8
_0-3_躯体と製品
  6
CONTINUOUS
 62
    4
 10
347.70065957940869
 20
457.86262040243105
 11
347.70065957940869
 21
459.36262040243105
  0
LINE
  8
_0-3_躯体と製品
  6
CONTINUOUS
 62
    4
 10
347.70065957940869
 20
459.36262040243105
 11
346.20065957940869
 21
459.36262040243105
  0
ARC
  8
_0-3_躯体と製品
  6
CONTINUOUS
 62
    4
 10
346.20065957940869
 20
460.86262040243105
 40
1.4999999999999856
 50
179.99999999999943
 51
270.00000000000057
  0
LINE
  8
_0-3_躯体と製品
  6
CONTINUOUS
 62
    4
 10
344.70065957940869
 20
460.86262040243105
 11
344.70065957940869
 21
462.86262040243105
  0
LINE
  8
_0-3_躯体と製品
  6
CONTINUOUS
 62
    4
 10
344.70065957940869
 20
462.86262040243105
 11
348.70065957940869
 21
462.86262040243105
  0
ARC
  8
_0-3_躯体と製品
  6
CONTINUOUS
 62
    4
 10
348.70065957940869
 20
465.86262040243105
 40
3
 50
270
 51
0.0000000000000127
  0
LINE
  8
_0-3_躯体と製品
  6
CONTINUOUS
 62
    4
 10
351.70065957940869
 20
465.86262040243105
 11
351.70065957940869
 21
476.86262040243105
  0
ARC
  8
_0-3_躯体と製品
  6
CONTINUOUS
 62
    4
 10
348.70065957940869
 20
476.86262040243105
 40
3
 50
0.0000000000000052
 51
90.000000000000014
  0
LINE
  8
_0-3_躯体と製品
  6
CONTINUOUS
 62
    4
 10
348.70065957940869
 20
479.86262040243105
 11
344.70065957940869
 21
479.86262040243105
  0
LINE
  8
_0-3_躯体と製品
  6
CONTINUOUS
 62
    4
 10
344.70065957940869
 20
479.86262040243105
 11
344.70065957940869
 21
484.36262040243105
  0
ARC
  8
_0-3_躯体と製品
  6
CONTINUOUS
 62
    4
 10
345.70065957940869
 20
484.36262040243105
 40
0.9999999999999998
 50
89.999999999999986
 51
180
  0
LINE
  8
_0-3_躯体と製品
  6
CONTINUOUS
 62
    4
 10
345.70065957940869
 20
485.36262040243105
 11
503.70065957940869
 21
485.36262040243105
  0
ARC
  8
_0-3_躯体と製品
  6
CONTINUOUS
 62
    4
 10
503.70065957940869
 20
484.36262040243105
 40
0.9999999999999998
 50
0
 51
90
  0
LINE
  8
_0-3_躯体と製品
  6
CONTINUOUS
 62
    4
 10
504.70065957940869
 20
484.36262040243105
 11
504.70065957940869
 21
479.86262040243105
  0
LINE
  8
_0-3_躯体と製品
  6
CONTINUOUS
 62
    4
 10
504.70065957940869
 20
479.86262040243105
 11
500.70065957940869
 21
479.86262040243105
  0
ARC
  8
_0-3_躯体と製品
  6
CONTINUOUS
 62
    4
 10
500.70065957940869
 20
476.86262040243105
 40
3
 50
90
 51
180
  0
LINE
  8
_0-3_躯体と製品
  6
CONTINUOUS
 62
    4
 10
497.70065957940869
 20
476.86262040243105
 11
497.70065957940869
 21
465.86262040243105
  0
ARC
  8
_0-3_躯体と製品
  6
CONTINUOUS
 62
    4
 10
500.70065957940869
 20
465.86262040243105
 40
3
 50
180
 51
270
  0
LINE
  8
_0-3_躯体と製品
  6
CONTINUOUS
 62
    4
 10
500.70065957940869
 20
462.86262040243105
 11
504.70065957940869
 21
462.86262040243105
  0
LINE
  8
_0-3_躯体と製品
  6
CONTINUOUS
 62
    4
 10
504.70065957940869
 20
462.86262040243105
 11
504.70065957940869
 21
460.86262040243105
  0
ARC
  8
_0-3_躯体と製品
  6
CONTINUOUS
 62
    4
 10
503.20065957940869
 20
460.86262040243105
 40
1.5
 50
270
 51
0
  0
LINE
  8
_0-3_躯体と製品
  6
CONTINUOUS
 62
    4
 10
503.20065957940869
 20
459.36262040243105
 11
501.70065957940869
 21
459.36262040243105
  0
LINE
  8
_0-3_躯体と製品
  6
CONTINUOUS
 62
    4
 10
501.70065957940869
 20
459.36262040243105
 11
501.70065957940869
 21
457.86262040243105
  0
LINE
  8
_0-3_躯体と製品
  6
CONTINUOUS
 62
    4
 10
501.70065957940869
 20
457.86262040243105
 11
501.20065957940778
 21
457.36262040243105
  0
LINE
  8
_0-3_躯体と製品
  6
CONTINUOUS
 62
    4
 10
345.70065957940869
 20
479.86262040243105
 11
345.70065957940869
 21
484.36262040243105
  0
LINE
  8
_0-3_躯体と製品
  6
CONTINUOUS
 62
    4
 10
345.70065957940869
 20
484.36262040243105
 11
503.70065957940869
 21
484.36262040243105
  0
LINE
  8
_0-3_躯体と製品
  6
CONTINUOUS
 62
    4
 10
503.70065957940869
 20
484.36262040243105
 11
503.70065957940869
 21
479.86262040243105
  0
LINE
  8
_0-3_躯体と製品
  6
CONTINUOUS
 62
    4
 10
382.20065957940869
 20
464.36262040243105
 11
389.20065957940869
 21
464.36262040243105
  0
LINE
  8
_0-3_躯体と製品
  6
CONTINUOUS
 62
    4
 10
389.20065957940869
 20
464.36262040243105
 11
389.70065957940869
 21
464.86262040243105
  0
LINE
  8
_0-3_躯体と製品
  6
CONTINUOUS
 62
    4
 10
389.70065957940869
 20
464.86262040243105
 11
389.70065957940869
 21
477.86262040243105
  0
LINE
  8
_0-3_躯体と製品
  6
CONTINUOUS
 62
    4
 10
389.70065957940869
 20
477.86262040243105
 11
389.20065957940869
 21
478.36262040243105
  0
LINE
  8
_0-3_躯体と製品
  6
CONTINUOUS
 62
    4
 10
389.20065957940869
 20
478.36262040243105
 11
382.20065957940869
 21
478.36262040243105
  0
LINE
  8
_0-3_躯体と製品
  6
CONTINUOUS
 62
    4
 10
382.20065957940869
 20
478.36262040243105
 11
381.70065957940869
 21
477.86262040243105
  0
LINE
  8
_0-3_躯体と製品
  6
CONTINUOUS
 62
    4
 10
381.70065957940869
 20
477.86262040243105
 11
381.70065957940869
 21
464.86262040243105
  0
LINE
  8
_0-3_躯体と製品
  6
CONTINUOUS
 62
    4
 10
381.70065957940869
 20
464.86262040243105
 11
382.20065957940869
 21
464.36262040243105
  0
LINE
  8
_0-3_躯体と製品
  6
CONTINUOUS
 62
    4
 10
394.70065957940869
 20
462.86262040243105
 11
421.70065957940869
 21
462.86262040243105
  0
LINE
  8
_0-3_躯体と製品
  6
CONTINUOUS
 62
    4
 10
421.70065957940869
 20
462.86262040243105
 11
422.20065957940869
 21
463.36262040243105
  0
LINE
  8
_0-3_躯体と製品
  6
CONTINUOUS
 62
    4
 10
422.20065957940869
 20
463.36262040243105
 11
422.20065957940869
 21
479.36262040243105
  0
LINE
  8
_0-3_躯体と製品
  6
CONTINUOUS
 62
    4
 10
422.20065957940869
 20
479.36262040243105
 11
421.70065957940869
 21
479.86262040243105
  0
LINE
  8
_0-3_躯体と製品
  6
CONTINUOUS
 62
    4
 10
421.70065957940869
 20
479.86262040243105
 11
394.70065957940869
 21
479.86262040243105
  0
LINE
  8
_0-3_躯体と製品
  6
CONTINUOUS
 62
    4
 10
394.70065957940869
 20
479.86262040243105
 11
394.20065957940869
 21
479.36262040243105
  0
LINE
  8
_0-3_躯体と製品
  6
CONTINUOUS
 62
    4
 10
394.20065957940869
 20
479.36262040243105
 11
394.20065957940869
 21
463.36262040243105
  0
LINE
  8
_0-3_躯体と製品
  6
CONTINUOUS
 62
    4
 10
394.20065957940869
 20
463.36262040243105
 11
394.70065957940869
 21
462.86262040243105
  0
LINE
  8
_0-3_躯体と製品
  6
CONTINUOUS
 62
    4
 10
357.20065957940869
 20
462.86262040243105
 11
376.70065957940869
 21
462.86262040243105
  0
LINE
  8
_0-3_躯体と製品
  6
CONTINUOUS
 62
    4
 10
376.70065957940869
 20
462.86262040243105
 11
377.20065957940869
 21
463.36262040243105
  0
LINE
  8
_0-3_躯体と製品
  6
CONTINUOUS
 62
    4
 10
377.20065957940869
 20
463.36262040243105
 11
377.20065957940869
 21
479.36262040243105
  0
LINE
  8
_0-3_躯体と製品
  6
CONTINUOUS
 62
    4
 10
377.20065957940869
 20
479.36262040243105
 11
376.70065957940869
 21
479.86262040243105
  0
LINE
  8
_0-3_躯体と製品
  6
CONTINUOUS
 62
    4
 10
376.70065957940869
 20
479.86262040243105
 11
357.20065957940869
 21
479.86262040243105
  0
LINE
  8
_0-3_躯体と製品
  6
CONTINUOUS
 62
    4
 10
357.20065957940869
 20
479.86262040243105
 11
356.70065957940869
 21
479.36262040243105
  0
LINE
  8
_0-3_躯体と製品
  6
CONTINUOUS
 62
    4
 10
356.70065957940869
 20
479.36262040243105
 11
356.70065957940869
 21
463.36262040243105
  0
LINE
  8
_0-3_躯体と製品
  6
CONTINUOUS
 62
    4
 10
356.70065957940869
 20
463.36262040243105
 11
357.20065957940869
 21
462.86262040243105
  0
LINE
  8
_0-3_躯体と製品
  6
CONTINUOUS
 62
    4
 10
467.20065957940869
 20
464.36262040243105
 11
460.20065957940869
 21
464.36262040243105
  0
LINE
  8
_0-3_躯体と製品
  6
CONTINUOUS
 62
    4
 10
460.20065957940869
 20
464.36262040243105
 11
459.70065957940869
 21
464.86262040243105
  0
LINE
  8
_0-3_躯体と製品
  6
CONTINUOUS
 62
    4
 10
459.70065957940869
 20
464.86262040243105
 11
459.70065957940869
 21
477.86262040243105
  0
LINE
  8
_0-3_躯体と製品
  6
CONTINUOUS
 62
    4
 10
459.70065957940869
 20
477.86262040243105
 11
460.20065957940869
 21
478.36262040243105
  0
LINE
  8
_0-3_躯体と製品
  6
CONTINUOUS
 62
    4
 10
460.20065957940869
 20
478.36262040243105
 11
467.20065957940869
 21
478.36262040243105
  0
LINE
  8
_0-3_躯体と製品
  6
CONTINUOUS
 62
    4
 10
467.20065957940869
 20
478.36262040243105
 11
467.70065957940869
 21
477.86262040243105
  0
LINE
  8
_0-3_躯体と製品
  6
CONTINUOUS
 62
    4
 10
467.70065957940869
 20
477.86262040243105
 11
467.70065957940869
 21
464.86262040243105
  0
LINE
  8
_0-3_躯体と製品
  6
CONTINUOUS
 62
    4
 10
467.70065957940869
 20
464.86262040243105
 11
467.20065957940869
 21
464.36262040243105
  0
LINE
  8
_0-3_躯体と製品
  6
CONTINUOUS
 62
    4
 10
454.70065957940869
 20
462.86262040243105
 11
427.70065957940869
 21
462.86262040243105
  0
LINE
  8
_0-3_躯体と製品
  6
CONTINUOUS
 62
    4
 10
427.70065957940869
 20
462.86262040243105
 11
427.20065957940869
 21
463.36262040243105
  0
LINE
  8
_0-3_躯体と製品
  6
CONTINUOUS
 62
    4
 10
427.20065957940869
 20
463.36262040243105
 11
427.20065957940869
 21
479.36262040243105
  0
LINE
  8
_0-3_躯体と製品
  6
CONTINUOUS
 62
    4
 10
427.20065957940869
 20
479.36262040243105
 11
427.70065957940869
 21
479.86262040243105
  0
LINE
  8
_0-3_躯体と製品
  6
CONTINUOUS
 62
    4
 10
427.70065957940869
 20
479.86262040243105
 11
454.70065957940869
 21
479.86262040243105
  0
LINE
  8
_0-3_躯体と製品
  6
CONTINUOUS
 62
    4
 10
454.70065957940869
 20
479.86262040243105
 11
455.20065957940869
 21
479.36262040243105
  0
LINE
  8
_0-3_躯体と製品
  6
CONTINUOUS
 62
    4
 10
455.20065957940869
 20
479.36262040243105
 11
455.20065957940869
 21
463.36262040243105
  0
LINE
  8
_0-3_躯体と製品
  6
CONTINUOUS
 62
    4
 10
455.20065957940869
 20
463.36262040243105
 11
454.70065957940869
 21
462.86262040243105
  0
LINE
  8
_0-3_躯体と製品
  6
CONTINUOUS
 62
    4
 10
492.20065957940869
 20
462.86262040243105
 11
472.70065957940869
 21
462.86262040243105
  0
LINE
  8
_0-3_躯体と製品
  6
CONTINUOUS
 62
    4
 10
472.70065957940869
 20
462.86262040243105
 11
472.20065957940869
 21
463.36262040243105
  0
LINE
  8
_0-3_躯体と製品
  6
CONTINUOUS
 62
    4
 10
472.20065957940869
 20
463.36262040243105
 11
472.20065957940869
 21
479.36262040243105
  0
LINE
  8
_0-3_躯体と製品
  6
CONTINUOUS
 62
    4
 10
472.20065957940869
 20
479.36262040243105
 11
472.70065957940869
 21
479.86262040243105
  0
LINE
  8
_0-3_躯体と製品
  6
CONTINUOUS
 62
    4
 10
472.70065957940869
 20
479.86262040243105
 11
492.20065957940869
 21
479.86262040243105
  0
LINE
  8
_0-3_躯体と製品
  6
CONTINUOUS
 62
    4
 10
492.20065957940869
 20
479.86262040243105
 11
492.70065957940869
 21
479.36262040243105
  0
LINE
  8
_0-3_躯体と製品
  6
CONTINUOUS
 62
    4
 10
492.70065957940869
 20
479.36262040243105
 11
492.70065957940869
 21
463.36262040243105
  0
LINE
  8
_0-3_躯体と製品
  6
CONTINUOUS
 62
    4
 10
492.70065957940869
 20
463.36262040243105
 11
492.20065957940869
 21
462.86262040243105
  0
LINE
  8
_0-3_躯体と製品
  6
CONTINUOUS
 62
    7
 10
498.20065957940869
 20
477.36262040243105
 11
498.20065957940869
 21
466.162620402431
  0
ARC
  8
_0-3_躯体と製品
  6
CONTINUOUS
 62
    7
 10
501.20065957940824
 20
466.16262040243055
 40
2.9999999999995453
 50
179.99999999999133
 51
269.99999999999136
  0
LINE
  8
_0-3_躯体と製品
  6
CONTINUOUS
 62
    7
 10
501.20065957940778
 20
463.162620402431
 11
501.20065957940778
 21
462.86262040243105
  0
LINE
  8
_0-3_躯体と製品
  6
CONTINUOUS
 62
    7
 10
501.20065957940778
 20
462.86262040243105
 11
502.20065957940869
 21
462.86262040243105
  0
LINE
  8
_0-3_躯体と製品
  6
CONTINUOUS
 62
    7
 10
502.20065957940869
 20
462.86262040243105
 11
502.20065957940869
 21
463.162620402431
  0
LINE
  8
_0-3_躯体と製品
  6
CONTINUOUS
 62
    7
 10
502.20065957940869
 20
463.162620402431
 11
503.20065957940869
 21
463.162620402431
  0
LINE
  8
_0-3_躯体と製品
  6
CONTINUOUS
 62
    7
 10
503.20065957940869
 20
463.162620402431
 11
503.20065957940869
 21
462.86262040243105
  0
LINE
  8
_0-3_躯体と製品
  6
CONTINUOUS
 62
    7
 10
503.20065957940869
 20
462.86262040243105
 11
504.00065957940842
 21
462.86262040243105
  0
LINE
  8
_0-3_躯体と製品
  6
CONTINUOUS
 62
    7
 10
504.00065957940842
 20
462.86262040243105
 11
504.00065957940842
 21
463.162620402431
  0
LINE
  8
_0-3_躯体と製品
  6
CONTINUOUS
 62
    7
 10
504.00065957940842
 20
463.162620402431
 11
504.40065957940851
 21
463.162620402431
  0
ARC
  8
_0-3_躯体と製品
  6
CONTINUOUS
 62
    7
 10
504.40065957940863
 20
462.86262040243093
 40
0.3000000000000568
 50
0.0000000000195413
 51
90.000000000023888
  0
LINE
  8
_0-3_躯体と製品
  6
CONTINUOUS
 62
    7
 10
504.70065957940869
 20
462.86262040243105
 11
504.70065957940869
 21
459.36262040243105
  0
LINE
  8
_0-3_躯体と製品
  6
CONTINUOUS
 62
    7
 10
504.70065957940869
 20
459.36262040243105
 11
503.20065957940869
 21
459.36262040243105
  0
ARC
  8
_0-3_躯体と製品
  6
CONTINUOUS
 62
    7
 10
503.20065957940869
 20
458.86262040243105
 40
0.4999999999999999
 50
90
 51
180
  0
LINE
  8
_0-3_躯体と製品
  6
CONTINUOUS
 62
    7
 10
502.70065957940869
 20
458.86262040243105
 11
502.70065957940869
 21
457.86262040243105
  0
ARC
  8
_0-3_躯体と製品
  6
CONTINUOUS
 62
    7
 10
503.20065957940869
 20
457.86262040243105
 40
0.4999999999999999
 50
180
 51
270
  0
LINE
  8
_0-3_躯体と製品
  6
CONTINUOUS
 62
    7
 10
503.20065957940869
 20
457.36262040243105
 11
506.70065957940869
 21
457.36262040243105
  0
LINE
  8
_0-3_躯体と製品
  6
CONTINUOUS
 62
    7
 10
506.70065957940869
 20
457.36262040243105
 11
506.70065957940869
 21
457.662620402431
  0
LINE
  8
_0-3_躯体と製品
  6
CONTINUOUS
 62
    7
 10
506.70065957940869
 20
457.662620402431
 11
508.70065957940869
 21
457.662620402431
  0
LINE
  8
_0-3_躯体と製品
  6
CONTINUOUS
 62
    7
 10
508.70065957940869
 20
457.662620402431
 11
508.70065957940869
 21
457.36262040243105
  0
LINE
  8
_0-3_躯体と製品
  6
CONTINUOUS
 62
    7
 10
508.70065957940869
 20
457.36262040243105
 11
510.90065957940851
 21
457.36262040243105
  0
ARC
  8
_0-3_躯体と製品
  6
CONTINUOUS
 62
    7
 10
510.90065957940851
 20
457.86262040243105
 40
0.4999999999999999
 50
270
 51
0.0000000000000127
  0
LINE
  8
_0-3_躯体と製品
  6
CONTINUOUS
 62
    7
 10
511.40065957940851
 20
457.86262040243105
 11
511.40065957940851
 21
458.86262040243105
  0
ARC
  8
_0-3_躯体と製品
  6
CONTINUOUS
 62
    7
 10
510.90065957940851
 20
458.86262040243105
 40
0.4999999999999999
 50
0.0000000000000052
 51
90.000000000000014
  0
LINE
  8
_0-3_躯体と製品
  6
CONTINUOUS
 62
    7
 10
510.90065957940851
 20
459.36262040243105
 11
510.70065957940869
 21
459.36262040243105
  0
LINE
  8
_0-3_躯体と製品
  6
CONTINUOUS
 62
    7
 10
510.70065957940869
 20
459.36262040243105
 11
510.70065957940869
 21
462.86262040243105
  0
ARC
  8
_0-3_躯体と製品
  6
CONTINUOUS
 62
    7
 10
511.00065957940853
 20
462.86262040243116
 40
0.2999999999998294
 50
90.000000000019554
 51
180.0000000000239
  0
LINE
  8
_0-3_躯体と製品
  6
CONTINUOUS
 62
    7
 10
511.00065957940842
 20
463.162620402431
 11
511.40065957940851
 21
463.162620402431
  0
LINE
  8
_0-3_躯体と製品
  6
CONTINUOUS
 62
    7
 10
511.40065957940851
 20
463.162620402431
 11
511.40065957940851
 21
462.86262040243105
  0
LINE
  8
_0-3_躯体と製品
  6
CONTINUOUS
 62
    7
 10
511.40065957940851
 20
462.86262040243105
 11
512.20065957940869
 21
462.86262040243105
  0
LINE
  8
_0-3_躯体と製品
  6
CONTINUOUS
 62
    7
 10
512.20065957940869
 20
462.86262040243105
 11
512.20065957940869
 21
463.162620402431
  0
LINE
  8
_0-3_躯体と製品
  6
CONTINUOUS
 62
    7
 10
512.20065957940869
 20
463.162620402431
 11
513.20065957940869
 21
463.162620402431
  0
LINE
  8
_0-3_躯体と製品
  6
CONTINUOUS
 62
    7
 10
513.20065957940869
 20
463.162620402431
 11
513.20065957940869
 21
462.86262040243105
  0
LINE
  8
_0-3_躯体と製品
  6
CONTINUOUS
 62
    7
 10
513.20065957940869
 20
462.86262040243105
 11
514.20065957940869
 21
462.86262040243105
  0
LINE
  8
_0-3_躯体と製品
  6
CONTINUOUS
 62
    7
 10
514.20065957940869
 20
462.86262040243105
 11
514.20065957940869
 21
463.162620402431
  0
LINE
  8
_0-3_躯体と製品
  6
CONTINUOUS
 62
    7
 10
514.20065957940869
 20
463.162620402431
 11
514.4006595794076
 21
463.162620402431
  0
ARC
  8
_0-3_躯体と製品
  6
CONTINUOUS
 62
    7
 10
514.40065957940817
 20
463.96262040243153
 40
0.8000000000005115
 50
269.9999999999585
 51
359.9999999999601
  0
LINE
  8
_0-3_躯体と製品
  6
CONTINUOUS
 62
    7
 10
515.20065957940869
 20
463.96262040243096
 11
515.20065957940869
 21
466.86262040243105
  0
LINE
  8
_0-3_躯体と製品
  6
CONTINUOUS
 62
    7
 10
515.20065957940869
 20
466.86262040243105
 11
514.70065957940869
 21
466.86262040243105
  0
ARC
  8
_0-3_躯体と製品
  6
CONTINUOUS
 62
    7
 10
514.70065957940869
 20
466.36262040243105
 40
0.4999999999999999
 50
90
 51
180
  0
LINE
  8
_0-3_躯体と製品
  6
CONTINUOUS
 62
    7
 10
514.20065957940869
 20
466.36262040243105
 11
514.20065957940869
 21
465.86262040243105
  0
ARC
  8
_0-3_躯体と製品
  6
CONTINUOUS
 62
    7
 10
513.70065957940869
 20
465.86262040243105
 40
0.4999999999999999
 50
270
 51
0
  0
LINE
  8
_0-3_躯体と製品
  6
CONTINUOUS
 62
    7
 10
513.70065957940869
 20
465.36262040243105
 11
508.00065957940842
 21
465.36262040243105
  0
LINE
  8
_0-3_躯体と製品
  6
CONTINUOUS
 62
    7
 10
508.00065957940842
 20
465.36262040243105
 11
507.70065957940869
 21
465.06262040243109
  0
LINE
  8
_0-3_躯体と製品
  6
CONTINUOUS
 62
    7
 10
507.70065957940869
 20
465.06262040243109
 11
507.4006595794076
 21
465.36262040243105
  0
LINE
  8
_0-3_躯体と製品
  6
CONTINUOUS
 62
    7
 10
507.4006595794076
 20
465.36262040243105
 11
500.70065957940869
 21
465.36262040243105
  0
ARC
  8
_0-3_躯体と製品
  6
CONTINUOUS
 62
    7
 10
500.70065957940869
 20
465.86262040243105
 40
0.4999999999999999
 50
180
 51
270
  0
LINE
  8
_0-3_躯体と製品
  6
CONTINUOUS
 62
    7
 10
500.20065957940869
 20
465.86262040243105
 11
500.20065957940869
 21
471.56262040243109
  0
LINE
  8
_0-3_躯体と製品
  6
CONTINUOUS
 62
    7
 10
500.20065957940869
 20
471.56262040243109
 11
499.9006595794076
 21
471.86262040243105
  0
LINE
  8
_0-3_躯体と製品
  6
CONTINUOUS
 62
    7
 10
499.9006595794076
 20
471.86262040243105
 11
500.20065957940869
 21
472.162620402431
  0
LINE
  8
_0-3_躯体と製品
  6
CONTINUOUS
 62
    7
 10
500.20065957940869
 20
472.162620402431
 11
500.20065957940869
 21
477.36262040243105
  0
LINE
  8
_0-3_躯体と製品
  6
CONTINUOUS
 62
    7
 10
500.20065957940869
 20
477.36262040243105
 11
498.20065957940869
 21
477.36262040243105
  0
LINE
  8
_0-3_躯体と製品
  6
CONTINUOUS
 62
    4
 10
551.69830341158467
 20
458.36262040243105
 11
513.70065957940869
 21
458.36262040243105
  0
LINE
  8
_0-3_躯体と製品
  6
CONTINUOUS
 62
    4
 10
551.69821614610964
 20
457.36262040243105
 11
514.20065957940869
 21
457.36262040243105
  0
ARC
  8
_0-3_躯体と製品
  6
CONTINUOUS
 62
    4
 10
514.20065957940869
 20
457.86262040243105
 40
0.4999999999999999
 50
180
 51
270
  0
LINE
  8
_0-3_躯体と製品
  6
CONTINUOUS
 62
    4
 10
513.70065957940869
 20
457.86262040243105
 11
513.70065957940869
 21
459.36262040243105
  0
LINE
  8
_0-3_躯体と製品
  6
CONTINUOUS
 62
    4
 10
513.70065957940869
 20
459.36262040243105
 11
512.20065957940869
 21
459.36262040243105
  0
ARC
  8
_0-3_躯体と製品
  6
CONTINUOUS
 62
    4
 10
512.20065957940869
 20
460.86262040243105
 40
1.4999999999999856
 50
179.99999999999943
 51
270.00000000000057
  0
LINE
  8
_0-3_躯体と製品
  6
CONTINUOUS
 62
    4
 10
510.70065957940869
 20
460.86262040243105
 11
510.70065957940869
 21
462.86262040243105
  0
LINE
  8
_0-3_躯体と製品
  6
CONTINUOUS
 62
    4
 10
510.70065957940869
 20
462.86262040243105
 11
514.70065957940869
 21
462.86262040243105
  0
ARC
  8
_0-3_躯体と製品
  6
CONTINUOUS
 62
    4
 10
514.70065957940869
 20
465.86262040243105
 40
3
 50
270
 51
0.0000000000000127
  0
LINE
  8
_0-3_躯体と製品
  6
CONTINUOUS
 62
    4
 10
517.70065957940869
 20
465.86262040243105
 11
517.70065957940869
 21
476.86262040243105
  0
ARC
  8
_0-3_躯体と製品
  6
CONTINUOUS
 62
    4
 10
514.70065957940869
 20
476.86262040243105
 40
3
 50
0.0000000000000052
 51
90.000000000000014
  0
LINE
  8
_0-3_躯体と製品
  6
CONTINUOUS
 62
    4
 10
514.70065957940869
 20
479.86262040243105
 11
510.70065957940869
 21
479.86262040243105
  0
LINE
  8
_0-3_躯体と製品
  6
CONTINUOUS
 62
    4
 10
510.70065957940869
 20
479.86262040243105
 11
510.70065957940869
 21
484.36262040243105
  0
ARC
  8
_0-3_躯体と製品
  6
CONTINUOUS
 62
    4
 10
511.70065957940869
 20
484.36262040243105
 40
0.9999999999999998
 50
89.999999999999986
 51
180
  0
LINE
  8
_0-3_躯体と製品
  6
CONTINUOUS
 62
    4
 10
511.70065957940869
 20
485.36262040243105
 11
551.70065957940869
 21
485.36262040243105
  0
LINE
  8
_0-3_躯体と製品
  6
CONTINUOUS
 62
    4
 10
511.70065957940869
 20
479.86262040243105
 11
511.70065957940869
 21
484.36262040243105
  0
LINE
  8
_0-3_躯体と製品
  6
CONTINUOUS
 62
    4
 10
511.70065957940869
 20
484.36262040243105
 11
551.70057231393366
 21
484.36262040243105
  0
LINE
  8
_0-3_躯体と製品
  6
CONTINUOUS
 62
    4
 10
551.70004872108348
 20
478.36262040243105
 11
548.20065957940869
 21
478.36262040243105
  0
LINE
  8
_0-3_躯体と製品
  6
CONTINUOUS
 62
    4
 10
548.20065957940869
 20
478.36262040243105
 11
547.70065957940778
 21
477.86262040243105
  0
LINE
  8
_0-3_躯体と製品
  6
CONTINUOUS
 62
    4
 10
547.70065957940778
 20
477.86262040243105
 11
547.70065957940778
 21
464.86262040243105
  0
LINE
  8
_0-3_躯体と製品
  6
CONTINUOUS
 62
    4
 10
547.70065957940778
 20
464.86262040243105
 11
548.20065957940869
 21
464.36262040243105
  0
LINE
  8
_0-3_躯体と製品
  6
CONTINUOUS
 62
    4
 10
548.20065957940869
 20
464.36262040243105
 11
551.69882700443441
 21
464.36262040243105
  0
LINE
  8
_0-3_躯体と製品
  6
CONTINUOUS
 62
    4
 10
523.20065957940869
 20
462.86262040243105
 11
542.70065957940869
 21
462.86262040243105
  0
LINE
  8
_0-3_躯体と製品
  6
CONTINUOUS
 62
    4
 10
542.70065957940869
 20
462.86262040243105
 11
543.20065957940869
 21
463.36262040243105
  0
LINE
  8
_0-3_躯体と製品
  6
CONTINUOUS
 62
    4
 10
543.20065957940869
 20
463.36262040243105
 11
543.20065957940869
 21
479.36262040243105
  0
LINE
  8
_0-3_躯体と製品
  6
CONTINUOUS
 62
    4
 10
543.20065957940869
 20
479.36262040243105
 11
542.70065957940869
 21
479.86262040243105
  0
LINE
  8
_0-3_躯体と製品
  6
CONTINUOUS
 62
    4
 10
542.70065957940869
 20
479.86262040243105
 11
523.20065957940869
 21
479.86262040243105
  0
LINE
  8
_0-3_躯体と製品
  6
CONTINUOUS
 62
    4
 10
523.20065957940869
 20
479.86262040243105
 11
522.70065957940869
 21
479.36262040243105
  0
LINE
  8
_0-3_躯体と製品
  6
CONTINUOUS
 62
    4
 10
522.70065957940869
 20
479.36262040243105
 11
522.70065957940869
 21
463.36262040243105
  0
LINE
  8
_0-3_躯体と製品
  6
CONTINUOUS
 62
    4
 10
522.70065957940869
 20
463.36262040243105
 11
523.20065957940869
 21
462.86262040243105
  0
LINE
  8
_0-5_中心線
  6
CENTER1
 62
    7
 10
341.70065957940869
 20
446.36262040243105
 11
341.70065957940869
 21
472.28637040243211
  0
ARC
  8
_0-3_躯体と製品
  6
CONTINUOUS
 62
    7
 10
342.24765957937871
 20
463.57462040243274
 40
4.8189999999974402
 50
48.111754999091275
 51
96.517442000073416
  0
ARC
  8
_0-3_躯体と製品
  6
CONTINUOUS
 62
    7
 10
341.15365957942606
 20
463.57462040242774
 40
4.8190000000167297
 50
83.482563001149714
 51
131.88825099941889
  0
LINE
  8
_0-3_躯体と製品
  6
CONTINUOUS
 62
    7
 10
337.70065957940869
 20
465.56262040244314
 11
337.70065957940869
 21
466.01162040243594
  0
LINE
  8
_0-3_躯体と製品
  6
CONTINUOUS
 62
    7
 10
337.70065957940869
 20
466.01162040243594
 11
337.93565957942383
 21
467.16262040244897
  0
LINE
  8
_0-3_躯体と製品
  6
CONTINUOUS
 62
    7
 10
337.93565957942383
 20
467.16262040244897
 11
341.70065957940869
 21
467.16262040244897
  0
LINE
  8
_0-3_躯体と製品
  6
CONTINUOUS
 62
    7
 10
341.70065957940869
 20
467.16262040244897
 11
345.46565957942266
 21
467.16262040244897
  0
LINE
  8
_0-3_躯体と製品
  6
CONTINUOUS
 62
    7
 10
345.46565957942266
 20
467.16262040244897
 11
345.70065957940869
 21
466.01162040243594
  0
LINE
  8
_0-3_躯体と製品
  6
CONTINUOUS
 62
    7
 10
345.70065957940869
 20
466.01162040243594
 11
345.7006595794378
 21
465.56262040244314
  0
ARC
  8
_0-3_躯体と製品
  6
CONTINUOUS
 62
    7
 10
345.50065958466149
 20
465.56262039720735
 40
0.1999999947763173
 50
269.99999850005975
 51
0.0000014999402189
  0
LINE
  8
_0-3_躯体と製品
  6
CONTINUOUS
 62
    7
 10
345.5006595794257
 20
465.36262040243105
 11
341.70065957940869
 21
465.36262040243105
  0
LINE
  8
_0-3_躯体と製品
  6
CONTINUOUS
 62
    7
 10
341.70065957940869
 20
465.36262040243105
 11
337.9006595689425
 21
465.36262040243105
  0
ARC
  8
_0-3_躯体と製品
  6
CONTINUOUS
 62
    7
 10
337.90065957941147
 20
465.56262040243382
 40
0.2000000000027973
 50
180.00000600049705
 51
269.99999700085573
  0
LINE
  8
_0-5_中心線
  6
CENTER1
 62
    7
 10
507.70065957940778
 20
446.36262040243105
 11
507.70065957940778
 21
472.28637040243211
  0
ARC
  8
_0-3_躯体と製品
  6
CONTINUOUS
 62
    7
 10
508.24765957937916
 20
463.57462040243371
 40
4.8189999999963842
 50
48.111754999087267
 51
96.517442000069408
  0
ARC
  8
_0-3_躯体と製品
  6
CONTINUOUS
 62
    7
 10
507.15365957942612
 20
463.57462040242774
 40
4.8190000000167297
 50
83.482563001149714
 51
131.88825099941889
  0
LINE
  8
_0-3_躯体と製品
  6
CONTINUOUS
 62
    7
 10
503.70065957940869
 20
465.56262040244314
 11
503.70065957940869
 21
466.01162040243594
  0
LINE
  8
_0-3_躯体と製品
  6
CONTINUOUS
 62
    7
 10
503.70065957940869
 20
466.01162040243594
 11
503.93565957942383
 21
467.16262040244897
  0
LINE
  8
_0-3_躯体と製品
  6
CONTINUOUS
 62
    7
 10
503.93565957942383
 20
467.16262040244897
 11
507.70065957940869
 21
467.16262040244897
  0
LINE
  8
_0-3_躯体と製品
  6
CONTINUOUS
 62
    7
 10
507.70065957940869
 20
467.16262040244897
 11
511.46565957942266
 21
467.16262040244897
  0
LINE
  8
_0-3_躯体と製品
  6
CONTINUOUS
 62
    7
 10
511.46565957942266
 20
467.16262040244897
 11
511.70065957940869
 21
466.01162040243594
  0
LINE
  8
_0-3_躯体と製品
  6
CONTINUOUS
 62
    7
 10
511.70065957940869
 20
466.01162040243594
 11
511.7006595794378
 21
465.56262040244314
  0
ARC
  8
_0-3_躯体と製品
  6
CONTINUOUS
 62
    7
 10
511.50065958466149
 20
465.56262039720735
 40
0.1999999947763173
 50
269.99999850005975
 51
0.0000014999402189
  0
LINE
  8
_0-3_躯体と製品
  6
CONTINUOUS
 62
    7
 10
511.5006595794257
 20
465.36262040243105
 11
507.70065957940869
 21
465.36262040243105
  0
LINE
  8
_0-3_躯体と製品
  6
CONTINUOUS
 62
    7
 10
507.70065957940869
 20
465.36262040243105
 11
503.9006595689425
 21
465.36262040243105
  0
ARC
  8
_0-3_躯体と製品
  6
CONTINUOUS
 62
    7
 10
503.90065957941147
 20
465.56262040243382
 40
0.2000000000027973
 50
180.00000600049705
 51
269.99999700085573
  0
LINE
  8
_0-5_中心線
  6
CENTER1
 62
    7
 10
175.70065957940778
 20
446.36262040243105
 11
175.70065957940778
 21
472.28637040243211
  0
ARC
  8
_0-3_躯体と製品
  6
CONTINUOUS
 62
    7
 10
176.24765957937871
 20
463.57462040243274
 40
4.8189999999974402
 50
48.111754999091275
 51
96.517442000073416
  0
ARC
  8
_0-3_躯体と製品
  6
CONTINUOUS
 62
    7
 10
175.15365957942612
 20
463.57462040242774
 40
4.8190000000167297
 50
83.482563001149714
 51
131.88825099941889
  0
LINE
  8
_0-3_躯体と製品
  6
CONTINUOUS
 62
    7
 10
171.70065957940869
 20
465.56262040244314
 11
171.70065957940869
 21
466.01162040243594
  0
LINE
  8
_0-3_躯体と製品
  6
CONTINUOUS
 62
    7
 10
171.70065957940869
 20
466.01162040243594
 11
171.93565957942383
 21
467.16262040244897
  0
LINE
  8
_0-3_躯体と製品
  6
CONTINUOUS
 62
    7
 10
171.93565957942383
 20
467.16262040244897
 11
175.70065957940869
 21
467.16262040244897
  0
LINE
  8
_0-3_躯体と製品
  6
CONTINUOUS
 62
    7
 10
175.70065957940869
 20
467.16262040244897
 11
179.46565957942266
 21
467.16262040244897
  0
LINE
  8
_0-3_躯体と製品
  6
CONTINUOUS
 62
    7
 10
179.46565957942266
 20
467.16262040244897
 11
179.70065957940869
 21
466.01162040243594
  0
LINE
  8
_0-3_躯体と製品
  6
CONTINUOUS
 62
    7
 10
179.70065957940869
 20
466.01162040243594
 11
179.7006595794378
 21
465.56262040244314
  0
ARC
  8
_0-3_躯体と製品
  6
CONTINUOUS
 62
    7
 10
179.50065958466149
 20
465.56262039720735
 40
0.1999999947763173
 50
269.99999850005975
 51
0.0000014999402189
  0
LINE
  8
_0-3_躯体と製品
  6
CONTINUOUS
 62
    7
 10
179.5006595794257
 20
465.36262040243105
 11
175.70065957940869
 21
465.36262040243105
  0
LINE
  8
_0-3_躯体と製品
  6
CONTINUOUS
 62
    7
 10
175.70065957940869
 20
465.36262040243105
 11
171.9006595689425
 21
465.36262040243105
  0
ARC
  8
_0-3_躯体と製品
  6
CONTINUOUS
 62
    7
 10
171.90065957941147
 20
465.56262040243382
 40
0.2000000000027973
 50
180.00000600049705
 51
269.99999700085573
  0
TEXT
  8
_0-4_文字-記号
 62
    7
 10
771.13988678913574
 20
366.97007795130708
 40
10
 41
0.8
 50
0
  1
支持脚
  0
LINE
  8
_0-4_文字-記号
  6
CONTINUOUS
 62
    7
 10
769.42910579216868
 20
364.41600795130807
 11
831.02401042059182
 21
364.41600795130807
  0
TEXT
  8
_0-4_文字-記号
 62
    7
 10
265.81653594795262
 20
366.97007795131094
 40
10
 41
0.8
 50
0
  1
支持脚
  0
LINE
  8
_0-4_文字-記号
  6
CONTINUOUS
 62
    7
 10
264.10575495098556
 20
364.41600795131103
 11
325.70065957940869
 21
364.41600795131103
  0
TEXT
  8
_0-4_文字-記号
 62
    7
 10
760.83655262674483
 20
442.14990884153599
 40
10
 41
0.8
 50
0
  1
根太鋼
  0
LINE
  8
_0-4_文字-記号
  6
CONTINUOUS
 62
    7
 10
817.02401042059182
 20
435.39249928214804
 11
809.93814108342167
 21
447.66558498994596
  0
LINE
  8
_0-4_文字-記号
  6
CONTINUOUS
 62
    7
 10
809.93814108342167
 20
447.66558498994596
 11
790.86832944788785
 21
447.66558498994596
  0
TEXT
  8
_0-4_文字-記号
 62
    7
 10
134.69387755102042
 20
610.59183673469386
 40
12
 41
1
 50
0
  1
サニーデッキＮＳＷ（人口木材）ｔ２８×ｗ１６０
  0
TEXT
  8
_0-4_文字-記号
 62
    7
 10
241.2292696980976
 20
583.07947367417114
 40
12
 41
1
 50
0
  1
基本ピッチ：支持脚 ９００×根太鋼 ５００
  0
ENDSEC
  0
EOF
