  0
SECTION
  2
HEADER
  9
$ACADVER
  1
AC1009
  9
$INSBASE
 10
0
 20
0
 30
0
  9
$EXTMIN
 10
0
 20
0
  9
$EXTMAX
 10
594
 20
420
  9
$LIMMIN
 10
0
 20
0
  9
$LIMMAX
 10
594
 20
420
  9
$LTSCALE
 40
1
  0
ENDSEC
  0
SECTION
  2
TABLES
  0
TABLE
  2
LTYPE
 70
     9
  0
LTYPE
  2
CONTINUOUS
 70
    64
  3
実線
 72
    65
 73
     0
 40
0.0
  0
LTYPE
  2
DASHED1
 70
    64
  3
--  --  --  --  --  --  --  --  
 72
    65
 73
     2
 40
2.5
 49
1.25
 49
-1.25
  0
LTYPE
  2
DASHED2
 70
    64
  3
----    ----    ----    ----    
 72
    65
 73
     2
 40
5.0
 49
2.5
 49
-2.5
  0
LTYPE
  2
DASHED3
 70
    64
  3
------  ------  ------  ------  
 72
    65
 73
     2
 40
5.0
 49
3.75
 49
-1.25
  0
LTYPE
  2
CENTER1
 70
    64
  3
----- - ----- - ----- - ----- - 
 72
    65
 73
     4
 40
10.0
 49
6.25
 49
-1.25
 49
1.25
 49
-1.25
  0
LTYPE
  2
CENTER2
 70
    64
  3
----------  --  ----------  --  
 72
    65
 73
     4
 40
20.0
 49
12.5
 49
-2.5
 49
2.5
 49
-2.5
  0
LTYPE
  2
PHANTOM1
 70
    64
  3
--- - - --- - - --- - - --- - - 
 72
    65
 73
     6
 40
10.0
 49
3.25
 49
-1.25
 49
1.25
 49
-1.25
 49
1.25
 49
-1.25
  0
LTYPE
  2
PHANTOM2
 70
    64
  3
--------  -  -  --------  -  -  
 72
    65
 73
     6
 40
20.0
 49
10.0
 49
-2.5
 49
1.25
 49
-2.5
 49
1.25
 49
-2.5
  0
LTYPE
  2
DOT
 70
    64
  3
-   -   -   -   -   -   -   -   
 72
    65
 73
     2
 40
2.5
 49
0.625
 49
-1.875
  0
LTYPE
  2
DUMMY
 70
    64
  3
ダミー
 72
    65
 73
     0
 40
0.0
  0
LTYPE
  2
RAND1
 70
    64
  3
ランダム線1
 72
    65
 73
     4
 40
10.0
 49
1.0
 49
-2.0
 49
3.0
 49
-4.0
  0
LTYPE
  2
RAND2
 70
    64
  3
ランダム線2
 72
    65
 73
     4
 40
14.0
 49
2.0
 49
-3.0
 49
4.0
 49
-5.0
  0
LTYPE
  2
RAND3
 70
    64
  3
ランダム線3
 72
    65
 73
     4
 40
18.0
 49
3.0
 49
-4.0
 49
5.0
 49
-6.0
  0
LTYPE
  2
RAND4
 70
    64
  3
ランダム線4
 72
    65
 73
     4
 40
22.0
 49
4.0
 49
-5.0
 49
6.0
 49
-7.0
  0
LTYPE
  2
RAND5
 70
    64
  3
ランダム線5
 72
    65
 73
     4
 40
26.0
 49
5.0
 49
-6.0
 49
7.0
 49
-8.0
  0
LTYPE
  2
LONG1
 70
    64
  3
----------  --  ----------  --  
 72
    65
 73
     4
 40
40.0
 49
32.5
 49
-2.5
 49
2.5
 49
-2.5
  0
LTYPE
  2
LONG2
 70
    64
  3
--------  -  -  --------  -  -  
 72
    65
 73
     6
 40
40.0
 49
30.0
 49
-2.5
 49
1.25
 49
-2.5
 49
1.25
 49
-2.5
  0
LTYPE
  2
LONG3
 70
    64
  3
+++++++++++++++..+++++++++++++++
 72
    65
 73
     2
 40
40.0
 49
37.5
 49
-2.5
  0
LTYPE
  2
LONG4
 70
    64
  3
+++++++++++++++..+++++++++++++++
 72
    65
 73
     2
 40
80.0
 49
75.0
 49
-5.0
  0
LTYPE
  2
LONG5
 70
    64
  3
----------  --  ----------  --  
 72
    65
 73
     4
 40
60.0
 49
37.5
 49
-7.5
 49
7.5
 49
-7.5
  0
LTYPE
  2
dashed
 70
   64
  3
-------   -------------   ------
 72
   65
 73
    2
 40
7.5
 49
6
 49
-1.5
  0
LTYPE
  2
dashed_spaced
 70
   64
  3
----        --------        ----
 72
   65
 73
    2
 40
12
 49
6
 49
-6
  0
LTYPE
  2
long_dashed_dotted
 70
   64
  3
------------- --- --------------
 72
   65
 73
    4
 40
15.25
 49
12
 49
-1.5
 49
0.25
 49
-1.5
  0
LTYPE
  2
long_dashed_double-dotted
 70
   64
  3
----------- --- --- ------------
 72
   65
 73
    6
 40
17
 49
12
 49
-1.5
 49
0.25
 49
-1.5
 49
0.25
 49
-1.5
  0
LTYPE
  2
long_dashed_triplicate-dotted
 70
   64
  3
--------- --- --- --- ----------
 72
   65
 73
    8
 40
18.75
 49
12
 49
-1.5
 49
0.25
 49
-1.5
 49
0.25
 49
-1.5
 49
0.25
 49
-1.5
  0
LTYPE
  2
dotted
 70
   64
  3
   -       -       -       -    
 72
   65
 73
    2
 40
1.75
 49
0.25
 49
-1.5
  0
LTYPE
  2
chain
 70
   64
  3
-------------- -- --------------
 72
   65
 73
    4
 40
18.5
 49
12
 49
-1.5
 49
3.5
 49
-1.5
  0
LTYPE
  2
chain_double_dash
 70
   64
  3
------------ -- -- -------------
 72
   65
 73
    6
 40
23.5
 49
12
 49
-1.5
 49
3.5
 49
-1.5
 49
3.5
 49
-1.5
  0
LTYPE
  2
dashed_dotted
 70
   64
  3
-----------     -     ----------
 72
   65
 73
    4
 40
9.25
 49
6
 49
-1.5
 49
0.25
 49
-1.5
  0
LTYPE
  2
double-dashed_dotted
 70
   64
  3
------   -----------   -   -----
 72
   65
 73
    6
 40
16.75
 49
6
 49
-1.5
 49
6
 49
-1.5
 49
0.25
 49
-1.5
  0
LTYPE
  2
dashed_double-dotted
 70
   64
  3
---------    -    -    ---------
 72
   65
 73
    6
 40
11
 49
6
 49
-1.5
 49
0.25
 49
-1.5
 49
0.25
 49
-1.5
  0
LTYPE
  2
double-dashed_double-dotted
 70
   64
  3
-----   ---------   -   -   ----
 72
   65
 73
    8
 40
18.5
 49
6
 49
-1.5
 49
6
 49
-1.5
 49
0.25
 49
-1.5
 49
0.25
 49
-1.5
  0
LTYPE
  2
dashed_triplicate-dotted
 70
   64
  3
-------    -    -    -    ------
 72
   65
 73
    8
 40
12.75
 49
6
 49
-1.5
 49
0.25
 49
-1.5
 49
0.25
 49
-1.5
 49
0.25
 49
-1.5
  0
LTYPE
  2
double-dashed_triplicate-dotted
 70
   64
  3
-----  ---------  -  -  -  -----
 72
   65
 73
   10
 40
20.25
 49
6
 49
-1.5
 49
6
 49
-1.5
 49
0.25
 49
-1.5
 49
0.25
 49
-1.5
 49
0.25
 49
-1.5
  0
LTYPE
  2
undefined
 70
   64
  3
--------------------------------
 72
   65
 73
    0
 40
0
  0
LTYPE
  2
PLINE2
 70
   64
  3
------     -----------     -----
 72
   65
 73
    2
 40
3
 49
2.1000000000000001
 49
-0.9
  0
ENDTAB
  0
TABLE
  2
STYLE
  5
3
100
AcDbSymbolTable
 70
     1
  0
STYLE
  5
10
100
AcDbSymbolTableRecord
100
AcDbTextStyleTableRecord
  2
STANDARD
 70
     0
 40
0.0
 41
1.0
 50
0.0
 71
     0
 42
0.2
  3
txt
  4
bigfont.shx
  0
STYLE
  5
26
100
AcDbSymbolTableRecord
100
AcDbTextStyleTableRecord
  2
TATEGAKI
 70
    68
 40
0.0
 41
1.0
 50
0.0
 71
     0
 42
1.0
  3
txt
  4
bigfont.shx
  0
ENDTAB
  0
TABLE
  2
LAYER
 70
    6
  0
LAYER
  2
_0-0_0
 70
   64
 62
    7
  6
CONTINUOUS
  0
LAYER
  2
_0-1_文字-記号
 70
   64
 62
    7
  6
CONTINUOUS
  0
LAYER
  2
_0-2_躯体と製品
 70
   64
 62
    7
  6
CONTINUOUS
  0
LAYER
  2
_0-4_寸法
 70
   64
 62
    7
  6
CONTINUOUS
  0
LAYER
  2
_0-5_中心線
 70
   64
 62
    7
  6
CONTINUOUS
  0
LAYER
  2
ADD_LINE
 70
   64
 62
    7
  6
CONTINUOUS
  0
ENDTAB
  0
ENDSEC
  0
SECTION
  2
BLOCKS
  0
BLOCK
  2
-000-_Dot
 70
   64
 10
0
 20
0
 30
0
  0
CIRCLE
  8
_0-0_0
  6
CONTINUOUS
 62
    7
 10
0
 20
0
 40
0.25
  0
LINE
  8
_0-0_0
  6
CONTINUOUS
 62
    7
 10
0.25
 20
0
 11
-0.25
 21
0
  0
LINE
  8
_0-0_0
  6
CONTINUOUS
 62
    7
 10
-0.5
 20
0
 11
-1
 21
0
  0
ENDBLK
  0
BLOCK
  2
-001-_D2
 70
   64
 10
0
 20
0
 30
0
  0
LINE
  8
_0-4_寸法
  6
CONTINUOUS
 62
    4
 10
389.45935400000002
 20
334.94643453784772
 11
389.45935400000002
 21
360.64615270572489
  0
LINE
  8
_0-4_寸法
  6
CONTINUOUS
 62
    4
 10
394.45940100000001
 20
334.94643453784772
 11
394.45940100000001
 21
360.64615270572489
  0
LINE
  8
_0-4_寸法
  6
CONTINUOUS
 62
    4
 10
388.45935400000002
 20
360.64615270572489
 11
387.45935400000002
 21
360.64615270572489
  0
LINE
  8
_0-4_寸法
  6
CONTINUOUS
 62
    4
 10
395.45940100000001
 20
360.64615270572489
 11
396.45940100000001
 21
360.64615270572489
  0
LINE
  8
_0-4_寸法
  6
CONTINUOUS
 62
    4
 10
389.45935400000002
 20
360.64615270572489
 11
394.45940100000001
 21
360.64615270572489
  0
INSERT
  2
-000-_Dot
  8
_0-4_寸法
 10
389.45935400000002
 20
360.64615270572489
 41
1
 42
1
 50
0
  0
INSERT
  2
-000-_Dot
  8
_0-4_寸法
 10
394.45940100000001
 20
360.64615270572489
 41
1
 42
1
 50
180
  0
TEXT
  8
_0-4_寸法
 62
    7
 10
389.95937750000002
 20
363.646152705725
 40
8
 41
1
 50
0
  1
5
  0
POINT
  8
_0-3_Defpoints
 62
    7
 10
389.45935400000002
 20
334.94643453784772
  0
POINT
  8
_0-3_Defpoints
 62
    7
 10
394.45940100000001
 20
334.94643453784772
  0
POINT
  8
_0-3_Defpoints
 62
    7
 10
394.45940100000001
 20
360.64615270572489
  0
ENDBLK
  0
BLOCK
  2
-002-_D3
 70
   64
 10
0
 20
0
 30
0
  0
LINE
  8
_0-4_寸法
  6
CONTINUOUS
 62
    4
 10
239.45930799999999
 20
334.94643453784772
 11
239.45930799999999
 21
360.64615270572489
  0
LINE
  8
_0-4_寸法
  6
CONTINUOUS
 62
    4
 10
244.4598091628252
 20
335.19379342173329
 11
244.4598091628252
 21
360.64615270572489
  0
LINE
  8
_0-4_寸法
  6
CONTINUOUS
 62
    4
 10
238.45930799999999
 20
360.64615270572489
 11
237.45930799999999
 21
360.64615270572489
  0
LINE
  8
_0-4_寸法
  6
CONTINUOUS
 62
    4
 10
245.4598091628252
 20
360.64615270572489
 11
246.4598091628252
 21
360.64615270572489
  0
LINE
  8
_0-4_寸法
  6
CONTINUOUS
 62
    4
 10
239.45930799999999
 20
360.64615270572489
 11
244.4598091628252
 21
360.64615270572489
  0
INSERT
  2
-000-_Dot
  8
_0-4_寸法
 10
239.45930799999999
 20
360.64615270572489
 41
1
 42
1
 50
0
  0
INSERT
  2
-000-_Dot
  8
_0-4_寸法
 10
244.4598091628252
 20
360.64615270572489
 41
1
 42
1
 50
180
  0
TEXT
  8
_0-4_寸法
 62
    7
 10
239.95955858141261
 20
363.646152705725
 40
8
 41
1
 50
0
  1
5
  0
POINT
  8
_0-3_Defpoints
 62
    7
 10
239.45930799999999
 20
334.94643453784772
  0
POINT
  8
_0-3_Defpoints
 62
    7
 10
244.4598091628252
 20
335.19379342173329
  0
POINT
  8
_0-3_Defpoints
 62
    7
 10
244.4598091628252
 20
360.64615270572489
  0
ENDBLK
  0
BLOCK
  2
-003-_D4
 70
   64
 10
0
 20
0
 30
0
  0
LINE
  8
_0-4_寸法
  6
CONTINUOUS
 62
    4
 10
244.4598091628252
 20
335.19379342173329
 11
244.4598091628252
 21
360.64615270572489
  0
LINE
  8
_0-4_寸法
  6
CONTINUOUS
 62
    4
 10
389.45935400000002
 20
334.94643453784772
 11
389.45935400000002
 21
360.64615270572489
  0
LINE
  8
_0-4_寸法
  6
CONTINUOUS
 62
    4
 10
245.4598091628252
 20
360.64615270572489
 11
388.45935400000002
 21
360.64615270572489
  0
INSERT
  2
-000-_Dot
  8
_0-4_寸法
 10
244.4598091628252
 20
360.64615270572489
 41
1
 42
1
 50
180
  0
INSERT
  2
-000-_Dot
  8
_0-4_寸法
 10
389.45935400000002
 20
360.64615270572489
 41
1
 42
1
 50
0
  0
TEXT
  8
_0-4_寸法
 62
    7
 10
310.95958158141258
 20
363.646152705725
 40
8
 41
1
 50
0
  1
145
  0
POINT
  8
_0-3_Defpoints
 62
    7
 10
244.4598091628252
 20
335.19379342173329
  0
POINT
  8
_0-3_Defpoints
 62
    7
 10
389.45935400000002
 20
334.94643453784772
  0
POINT
  8
_0-3_Defpoints
 62
    7
 10
389.45935400000002
 20
360.64615270572489
  0
ENDBLK
  0
BLOCK
  2
-004-_D5
 70
   64
 10
0
 20
0
 30
0
  0
LINE
  8
_0-4_寸法
  6
CONTINUOUS
 62
    4
 10
166.9593540000001
 20
360.64615270572489
 11
238.45930799999999
 21
360.64615270572489
  0
INSERT
  2
-000-_Dot
  8
_0-4_寸法
 10
239.45930799999999
 20
360.64615270572489
 41
1
 42
1
 50
0
  0
TEXT
  8
_0-4_寸法
 62
    7
 10
196.70933099999999
 20
363.646152705725
 40
8
 41
1
 50
0
  1
145
  0
POINT
  8
_0-3_Defpoints
 62
    7
 10
166.9593540000001
 20
360.64615270572489
  0
POINT
  8
_0-3_Defpoints
 62
    7
 10
239.45930799999999
 20
360.64615270572489
  0
POINT
  8
_0-3_Defpoints
 62
    7
 10
239.45930799999999
 20
360.64615270572489
  0
ENDBLK
  0
BLOCK
  2
-005-_D6
 70
   64
 10
0
 20
0
 30
0
  0
LINE
  8
_0-4_寸法
  6
CONTINUOUS
 62
    4
 10
466.95935399999991
 20
360.64615270572489
 11
395.45940100000001
 21
360.64615270572489
  0
INSERT
  2
-000-_Dot
  8
_0-4_寸法
 10
394.45940100000001
 20
360.64615270572489
 41
1
 42
1
 50
180
  0
TEXT
  8
_0-4_寸法
 62
    7
 10
425.20937750000002
 20
363.646152705725
 40
8
 41
1
 50
0
  1
145
  0
POINT
  8
_0-3_Defpoints
 62
    7
 10
466.95935399999991
 20
360.64615270572489
  0
POINT
  8
_0-3_Defpoints
 62
    7
 10
394.45940100000001
 20
360.64615270572489
  0
POINT
  8
_0-3_Defpoints
 62
    7
 10
394.45940100000001
 20
360.64615270572489
  0
ENDBLK
  0
BLOCK
  2
-006-_D7
 70
   64
 10
0
 20
0
 30
0
  0
LINE
  8
_0-4_寸法
  6
CONTINUOUS
 62
    4
 10
473.86796467132018
 20
255.33101163028621
 11
491.47975540099958
 21
255.33101163028621
  0
LINE
  8
_0-4_寸法
  6
CONTINUOUS
 62
    4
 10
473.86796467132018
 20
295.33101163028618
 11
491.47975540099958
 21
295.33101163028618
  0
LINE
  8
_0-4_寸法
  6
CONTINUOUS
 62
    4
 10
491.47975540099958
 20
256.33101163028618
 11
491.47975540099958
 21
294.33101163028618
  0
INSERT
  2
-000-_Dot
  8
_0-4_寸法
 10
491.47975540099958
 20
255.33101163028621
 41
1
 42
1
 50
270
  0
INSERT
  2
-000-_Dot
  8
_0-4_寸法
 10
491.47975540099958
 20
295.33101163028618
 41
1
 42
1
 50
90
  0
TEXT
  8
_0-4_寸法
 62
    7
 10
488.47975540099952
 20
271.33101163028618
 40
8
 41
1
 50
90
  1
40
  0
POINT
  8
_0-3_Defpoints
 62
    7
 10
473.86796467132018
 20
255.33101163028621
  0
POINT
  8
_0-3_Defpoints
 62
    7
 10
473.86796467132018
 20
295.33101163028618
  0
POINT
  8
_0-3_Defpoints
 62
    7
 10
491.47975540099958
 20
295.33101163028618
  0
ENDBLK
  0
BLOCK
  2
-007-_D8
 70
   64
 10
0
 20
0
 30
0
  0
LINE
  8
_0-4_寸法
  6
CONTINUOUS
 62
    4
 10
473.86796467132018
 20
295.33101163028618
 11
491.47975540099958
 21
295.33101163028618
  0
LINE
  8
_0-4_寸法
  6
CONTINUOUS
 62
    4
 10
473.86796467132018
 20
325.33101163028618
 11
491.47975540099958
 21
325.33101163028618
  0
LINE
  8
_0-4_寸法
  6
CONTINUOUS
 62
    4
 10
491.47975540099958
 20
296.33101163028618
 11
491.47975540099958
 21
324.33101163028618
  0
INSERT
  2
-000-_Dot
  8
_0-4_寸法
 10
491.47975540099958
 20
295.33101163028618
 41
1
 42
1
 50
270
  0
INSERT
  2
-000-_Dot
  8
_0-4_寸法
 10
491.47975540099958
 20
325.33101163028618
 41
1
 42
1
 50
90
  0
TEXT
  8
_0-4_寸法
 62
    7
 10
488.47975540099952
 20
306.33101163028618
 40
8
 41
1
 50
90
  1
30
  0
POINT
  8
_0-3_Defpoints
 62
    7
 10
473.86796467132018
 20
295.33101163028618
  0
POINT
  8
_0-3_Defpoints
 62
    7
 10
473.86796467132018
 20
325.33101163028618
  0
POINT
  8
_0-3_Defpoints
 62
    7
 10
491.47975540099958
 20
325.33101163028618
  0
ENDBLK
  0
BLOCK
  2
-008-_D9
 70
   64
 10
0
 20
0
 30
0
  0
LINE
  8
_0-4_寸法
  6
CONTINUOUS
 62
    4
 10
473.36798267132019
 20
185.3310116302863
 11
520.18687772743942
 21
185.3310116302863
  0
LINE
  8
_0-4_寸法
  6
CONTINUOUS
 62
    4
 10
473.36796467132018
 20
325.33101163028618
 11
520.18687772743954
 21
325.33101163028618
  0
LINE
  8
_0-4_寸法
  6
CONTINUOUS
 62
    4
 10
520.18687772743942
 20
186.3310116302863
 11
520.18687772743954
 21
324.33101163028618
  0
INSERT
  2
-000-_Dot
  8
_0-4_寸法
 10
520.18687772743942
 20
185.3310116302863
 41
1
 42
1
 50
270
  0
INSERT
  2
-000-_Dot
  8
_0-4_寸法
 10
520.18687772743954
 20
325.33101163028618
 41
1
 42
1
 50
90
  0
TEXT
  8
_0-4_寸法
 62
    7
 10
517.18687772743942
 20
241.3310116302863
 40
8
 41
1
 50
90
  1
92～300
  0
POINT
  8
_0-3_Defpoints
 62
    7
 10
473.36798267132019
 20
185.3310116302863
  0
POINT
  8
_0-3_Defpoints
 62
    7
 10
473.36796467132018
 20
325.33101163028618
  0
POINT
  8
_0-3_Defpoints
 62
    7
 10
520.18687772743954
 20
325.33101163028618
  0
ENDBLK
  0
BLOCK
  2
-009-_D10
 70
   64
 10
0
 20
0
 30
0
  0
LINE
  8
_0-4_寸法
  6
CONTINUOUS
 62
    4
 10
176.95947899999999
 20
124.38923568710401
 11
305.9594790000001
 21
124.38923568710401
  0
INSERT
  2
-000-_Dot
  8
_0-4_寸法
 10
306.95947899999999
 20
124.38923568710401
 41
1
 42
1
 50
0
  0
TEXT
  8
_0-4_寸法
 62
    7
 10
233.4594790000001
 20
127.38923568710399
 40
8
 41
1
 50
0
  1
@900
  0
POINT
  8
_0-3_Defpoints
 62
    7
 10
176.95947899999999
 20
124.38923568710401
  0
POINT
  8
_0-3_Defpoints
 62
    7
 10
306.95947899999999
 20
124.38923568710401
  0
POINT
  8
_0-3_Defpoints
 62
    7
 10
306.95947899999999
 20
124.38923568710401
  0
ENDBLK
  0
BLOCK
  2
-010-_D11
 70
   64
 10
0
 20
0
 30
0
  0
LINE
  8
_0-4_寸法
  6
CONTINUOUS
 62
    4
 10
307.9594790000001
 20
124.38923568710401
 11
436.95947899999999
 21
124.38923568710401
  0
INSERT
  2
-000-_Dot
  8
_0-4_寸法
 10
306.95947899999999
 20
124.38923568710401
 41
1
 42
1
 50
180
  0
TEXT
  8
_0-4_寸法
 62
    7
 10
364.4594790000001
 20
127.38923568710399
 40
8
 41
1
 50
0
  1
@900
  0
POINT
  8
_0-3_Defpoints
 62
    7
 10
306.95947899999999
 20
124.38923568710401
  0
POINT
  8
_0-3_Defpoints
 62
    7
 10
436.95947899999999
 20
124.38923568710401
  0
POINT
  8
_0-3_Defpoints
 62
    7
 10
436.95947899999999
 20
124.38923568710401
  0
ENDBLK
  0
BLOCK
  2
-011-_D12
 70
   64
 10
0
 20
0
 30
0
  0
LINE
  8
_0-4_寸法
  6
CONTINUOUS
 62
    4
 10
604.12326725929915
 20
124.38923568713361
 11
703.12326725929904
 21
124.38923568713361
  0
INSERT
  2
-000-_Dot
  8
_0-4_寸法
 10
704.12326725929904
 20
124.38923568713361
 41
1
 42
1
 50
0
  0
TEXT
  8
_0-4_寸法
 62
    7
 10
645.62326725929915
 20
127.38923568713361
 40
8
 41
1
 50
0
  1
@500
  0
POINT
  8
_0-3_Defpoints
 62
    7
 10
604.12326725929915
 20
124.38923568713361
  0
POINT
  8
_0-3_Defpoints
 62
    7
 10
704.12326725929904
 20
124.38923568713361
  0
POINT
  8
_0-3_Defpoints
 62
    7
 10
704.12326725929904
 20
124.38923568713361
  0
ENDBLK
  0
BLOCK
  2
-012-_D13
 70
   64
 10
0
 20
0
 30
0
  0
LINE
  8
_0-4_寸法
  6
CONTINUOUS
 62
    4
 10
705.12326725929904
 20
124.38923568713361
 11
804.12326725929904
 21
124.38923568713361
  0
INSERT
  2
-000-_Dot
  8
_0-4_寸法
 10
704.12326725929904
 20
124.38923568713361
 41
1
 42
1
 50
180
  0
TEXT
  8
_0-4_寸法
 62
    7
 10
746.62326725929904
 20
127.38923568713361
 40
8
 41
1
 50
0
  1
@500
  0
POINT
  8
_0-3_Defpoints
 62
    7
 10
704.12326725929904
 20
124.38923568713361
  0
POINT
  8
_0-3_Defpoints
 62
    7
 10
804.12326725929904
 20
124.38923568713361
  0
POINT
  8
_0-3_Defpoints
 62
    7
 10
804.12326725929904
 20
124.38923568713361
  0
ENDBLK
  0
ENDSEC
  0
SECTION
  2
ENTITIES
  0
LINE
  8
_0-5_中心線
  6
CENTER1
 62
    7
 10
93.725370403537454
 20
59.014727580746353
 11
93.725352403537443
 21
210.84648521926488
  0
LINE
  8
_0-2_躯体と製品
  6
CONTINUOUS
 62
    7
 10
73.725256403537458
 20
193.08472958464668
 11
73.725245403537485
 21
198.68472958464667
  0
LINE
  8
_0-2_躯体と製品
  6
CONTINUOUS
 62
    7
 10
73.725245403537485
 20
198.68472958464667
 11
113.72524540353749
 21
198.68472958464667
  0
LINE
  8
_0-2_躯体と製品
  6
CONTINUOUS
 62
    7
 10
113.72524540353749
 20
198.68472958464667
 11
113.72525640353746
 21
193.08472958464668
  0
LINE
  8
_0-2_躯体と製品
  6
CONTINUOUS
 62
    7
 10
46.975352403537443
 20
193.08472958464668
 11
140.47535240353744
 21
193.08472958464668
  0
LINE
  8
_0-2_躯体と製品
  6
CONTINUOUS
 62
    7
 10
143.72535240353744
 20
189.83472958464668
 11
143.72535240353744
 21
182.08469958464667
  0
ARC
  8
_0-2_躯体と製品
  6
CONTINUOUS
 62
    7
 10
140.47535240353744
 20
189.83472958464668
 40
3.25
 50
0
 51
90
  0
LINE
  8
_0-2_躯体と製品
  6
CONTINUOUS
 62
    7
 10
43.725352403537443
 20
189.83472958464668
 11
43.725352403537443
 21
182.08469958464667
  0
LINE
  8
_0-2_躯体と製品
  6
CONTINUOUS
 62
    7
 10
143.72535240353744
 20
182.08469958464667
 11
43.725352403537443
 21
182.08469958464667
  0
ARC
  8
_0-2_躯体と製品
  6
CONTINUOUS
 62
    7
 10
46.975352403537443
 20
189.83472958464668
 40
3.25
 50
90
 51
180
  0
LINE
  8
_0-2_躯体と製品
  6
CONTINUOUS
 62
    7
 10
90.18802440353744
 20
193.08472958464668
 11
97.263734403537455
 21
193.08472958464668
  0
LINE
  8
_0-2_躯体と製品
  6
CONTINUOUS
 62
    7
 10
78.725352403537443
 20
128.28472958464675
 11
108.72535240353756
 21
128.28472958464675
  0
LINE
  8
_0-2_躯体と製品
  6
CONTINUOUS
 62
    7
 10
108.72535240353756
 20
128.28472958464675
 11
108.72535240353756
 21
125.08472958464677
  0
LINE
  8
_0-2_躯体と製品
  6
CONTINUOUS
 62
    7
 10
108.72535240353756
 20
125.08472958464677
 11
78.725352403537443
 21
125.08472958464677
  0
LINE
  8
_0-2_躯体と製品
  6
CONTINUOUS
 62
    7
 10
78.725352403537443
 20
125.08472958464677
 11
78.725352403537443
 21
128.28472958464675
  0
LINE
  8
_0-2_躯体と製品
  6
CONTINUOUS
 62
    3
 10
253.72524540353737
 20
196.68472958464667
 11
113.72524933210889
 21
196.68472958464667
  0
LINE
  8
_0-2_躯体と製品
  6
CONTINUOUS
 62
    3
 10
253.72524540353737
 20
195.08472958464668
 11
113.72525247496606
 21
195.08472958464657
  0
LINE
  8
_0-2_躯体と製品
  6
CONTINUOUS
 62
    3
 10
-46.274754596462458
 20
196.68472958464667
 11
73.725249332108945
 21
196.68472958464667
  0
LINE
  8
_0-2_躯体と製品
  6
CONTINUOUS
 62
    3
 10
73.725252474966055
 20
195.08472958464668
 11
-46.274754596462458
 21
195.08472958464668
  0
LINE
  8
_0-2_躯体と製品
  6
CONTINUOUS
 62
    4
 10
-46.274754596462458
 20
125.08472958464677
 11
253.72526340353738
 21
125.08472958464677
  0
LINE
  8
_0-2_躯体と製品
  6
CONTINUOUS
 62
    3
 10
-46.274754596462458
 20
235.08472958464665
 11
253.72524540353737
 21
235.08472958464665
  0
ARC
  8
_0-2_躯体と製品
  6
CONTINUOUS
 62
    4
 10
34.225245403537429
 20
262.08472958464665
 40
3
 50
90
 51
180
  0
LINE
  8
_0-2_躯体と製品
  6
CONTINUOUS
 62
    4
 10
31.225245403537429
 20
261.19980758464675
 11
31.225245403537429
 21
262.08472958464665
  0
LINE
  8
_0-2_躯体と製品
  6
CONTINUOUS
 62
    4
 10
176.22524540353749
 20
262.08472958464665
 11
176.22524540353749
 21
261.19980758464675
  0
ARC
  8
_0-2_躯体と製品
  6
CONTINUOUS
 62
    4
 10
169.72524540353749
 20
236.58472958464665
 40
1.5
 50
270
 51
0
  0
ARC
  8
_0-2_躯体と製品
  6
CONTINUOUS
 62
    4
 10
37.725245403537429
 20
236.58472958464665
 40
1.5
 50
180
 51
270
  0
LINE
  8
_0-2_躯体と製品
  6
CONTINUOUS
 62
    4
 10
169.72524540353749
 20
235.08472958464665
 11
37.725245403537429
 21
235.08472958464665
  0
ARC
  8
_0-2_躯体と製品
  6
CONTINUOUS
 62
    4
 10
173.22524540353749
 20
262.08472958464665
 40
3
 50
0
 51
90
  0
LINE
  8
_0-2_躯体と製品
  6
CONTINUOUS
 62
    4
 10
173.22524540353749
 20
265.08472958464665
 11
34.225245403537429
 21
265.08472958464665
  0
LINE
  8
_0-2_躯体と製品
  6
CONTINUOUS
 62
    4
 10
36.225245403537429
 20
241.58472958464665
 11
36.225245403537429
 21
236.58472958464665
  0
ARC
  8
_0-2_躯体と製品
  6
CONTINUOUS
 62
    4
 10
169.72524540353749
 20
241.58472958464665
 40
1.5
 50
0
 51
90
  0
LINE
  8
_0-2_躯体と製品
  6
CONTINUOUS
 62
    7
 10
171.22524540353749
 20
236.58472958464665
 11
171.22524540353749
 21
241.58472958464665
  0
ARC
  8
_0-2_躯体と製品
  6
CONTINUOUS
 62
    4
 10
164.72524540353749
 20
244.58472958464665
 40
1.5
 50
180
 51
270
  0
LINE
  8
_0-2_躯体と製品
  6
CONTINUOUS
 62
    4
 10
166.51818540353747
 20
243.08472958464665
 11
164.72524540353749
 21
243.08472958464665
  0
ARC
  8
_0-2_躯体と製品
  6
CONTINUOUS
 62
    4
 10
42.725223403537456
 20
244.58472958464665
 40
1.5
 50
270
 51
0
  0
ARC
  8
_0-2_躯体と製品
  6
CONTINUOUS
 62
    4
 10
37.725245403537429
 20
241.58472958464665
 40
1.5
 50
90
 51
180
  0
LINE
  8
_0-2_躯体と製品
  6
CONTINUOUS
 62
    4
 10
42.725223403537456
 20
243.08472958464665
 11
37.725245403537429
 21
243.08472958464665
  0
LINE
  8
_0-2_躯体と製品
  6
CONTINUOUS
 62
    4
 10
44.225245403537485
 20
255.56965158464669
 11
44.225225403537479
 21
244.58472958464665
  0
ARC
  8
_0-2_躯体と製品
  6
CONTINUOUS
 62
    4
 10
165.72524540353749
 20
255.56965158464669
 40
2.5
 50
94.39870599999999
 51
180
  0
LINE
  8
_0-2_躯体と製品
  6
CONTINUOUS
 62
    4
 10
163.22524540353749
 20
244.58472958464665
 11
163.22524540353749
 21
255.56965158464669
  0
ARC
  8
_0-2_躯体と製品
  6
CONTINUOUS
 62
    4
 10
41.725245403537457
 20
255.56965158464669
 40
2.5
 50
0
 51
85.601293999999996
  0
ARC
  8
_0-2_躯体と製品
  6
CONTINUOUS
 62
    4
 10
33.725245403537429
 20
261.19980758464675
 40
2.5
 50
180
 51
265.601294
  0
LINE
  8
_0-2_躯体と製品
  6
CONTINUOUS
 62
    4
 10
41.916987403537462
 20
258.06228858464669
 11
33.533504403537449
 21
258.70717158464669
  0
ARC
  8
_0-2_躯体と製品
  6
CONTINUOUS
 62
    4
 10
173.72524540353749
 20
261.19980758464675
 40
2.5
 50
274.398706
 51
0
  0
LINE
  8
_0-2_躯体と製品
  6
CONTINUOUS
 62
    4
 10
173.91698740353746
 20
258.70717158464669
 11
165.53350440353745
 21
258.06228858464669
  0
LINE
  8
_0-2_躯体と製品
  6
CONTINUOUS
 62
    7
 10
41.070545403537466
 20
248.08472958464665
 11
40.031314403537465
 21
247.48472958464669
  0
ARC
  8
_0-2_躯体と製品
  6
CONTINUOUS
 62
    7
 10
42.225245403537457
 20
244.08472958464665
 40
1
 50
270
 51
29.999999999999993
  0
LINE
  8
_0-2_躯体と製品
  6
CONTINUOUS
 62
    7
 10
43.091271403537462
 20
244.58472958464665
 11
41.070545403537466
 21
248.08472958464665
  0
LINE
  8
_0-2_躯体と製品
  6
CONTINUOUS
 62
    7
 10
41.878835403537465
 20
244.28472958464664
 11
40.031314403537465
 21
247.48472958464669
  0
LINE
  8
_0-2_躯体と製品
  6
CONTINUOUS
 62
    4
 10
16.871692403537509
 20
242.93828358464668
 11
17.725245403537429
 21
242.08472958464665
  0
LINE
  8
_0-2_躯体と製品
  6
CONTINUOUS
 62
    4
 10
17.725245403537429
 20
242.08472958464665
 11
18.57879940353746
 21
242.93828358464668
  0
LINE
  8
_0-2_躯体と製品
  6
CONTINUOUS
 62
    7
 10
22.425245403537474
 20
243.28472958464664
 11
22.425245403537474
 21
236.28472958464664
  0
LINE
  8
_0-2_躯体と製品
  6
CONTINUOUS
 62
    7
 10
21.225245403537429
 20
243.08472958464665
 11
21.225245403537429
 21
236.08472958464665
  0
LINE
  8
_0-2_躯体と製品
  6
CONTINUOUS
 62
    7
 10
36.225245403537429
 20
243.08472958464665
 11
36.225245403537429
 21
236.08472958464665
  0
LINE
  8
_0-2_躯体と製品
  6
CONTINUOUS
 62
    7
 10
35.025245403537497
 20
243.28472958464664
 11
35.025245403537497
 21
236.28472958464664
  0
LINE
  8
_0-2_躯体と製品
  6
CONTINUOUS
 62
    7
 10
22.425245403537474
 20
236.28472958464664
 11
28.725245403537429
 21
236.28472958464664
  0
LINE
  8
_0-2_躯体と製品
  6
CONTINUOUS
 62
    7
 10
22.225245403537429
 20
235.08472958464665
 11
28.725245403537429
 21
235.08472958464665
  0
ARC
  8
_0-2_躯体と製品
  6
CONTINUOUS
 62
    7
 10
22.225245403537429
 20
236.08472958464665
 40
1
 50
180
 51
270
  0
ARC
  8
_0-2_躯体と製品
  6
CONTINUOUS
 62
    7
 10
35.225245403537429
 20
236.08472958464665
 40
1
 50
270
 51
0
  0
LINE
  8
_0-2_躯体と製品
  6
CONTINUOUS
 62
    7
 10
35.025245403537497
 20
236.28472958464664
 11
28.725245403537429
 21
236.28472958464664
  0
LINE
  8
_0-2_躯体と製品
  6
CONTINUOUS
 62
    7
 10
35.225245403537429
 20
235.08472958464665
 11
28.725245403537429
 21
235.08472958464665
  0
LINE
  8
_0-2_躯体と製品
  6
CONTINUOUS
 62
    7
 10
41.878835403537465
 20
244.28472958464664
 11
36.025245403537497
 21
244.28472958464664
  0
LINE
  8
_0-2_躯体と製品
  6
CONTINUOUS
 62
    7
 10
42.225245403537457
 20
243.08472958464665
 11
36.225245403537429
 21
243.08472958464665
  0
LINE
  8
_0-2_躯体と製品
  6
CONTINUOUS
 62
    7
 10
15.225245403537429
 20
243.08472958464665
 11
16.518139403537475
 21
243.08472958464665
  0
ARC
  8
_0-2_躯体と製品
  6
CONTINUOUS
 62
    7
 10
21.425245403537474
 20
243.28472958464664
 40
1
 50
0
 51
90
  0
LINE
  8
_0-2_躯体と製品
  6
CONTINUOUS
 62
    7
 10
16.871692403537509
 20
244.13828358464667
 11
17.725245403537429
 21
243.28472958464664
  0
LINE
  8
_0-2_躯体と製品
  6
CONTINUOUS
 62
    7
 10
17.725245403537429
 20
243.28472958464664
 11
18.57879940353746
 21
244.13828358464667
  0
ARC
  8
_0-2_躯体と製品
  6
CONTINUOUS
 62
    7
 10
18.932352403537493
 20
243.78472958464664
 40
0.5
 50
90
 51
134.99999999999989
  0
ARC
  8
_0-2_躯体と製品
  6
CONTINUOUS
 62
    4
 10
18.932352403537493
 20
242.58472958464665
 40
0.5
 50
90
 51
134.99999999999989
  0
LINE
  8
_0-2_躯体と製品
  6
CONTINUOUS
 62
    4
 10
16.518139403537475
 20
243.08472958464665
 11
14.725199403537431
 21
243.08472958464665
  0
LINE
  8
_0-2_躯体と製品
  6
CONTINUOUS
 62
    7
 10
15.225245403537429
 20
243.08472958464665
 11
15.225245403537429
 21
244.28472958464664
  0
LINE
  8
_0-2_躯体と製品
  6
CONTINUOUS
 62
    7
 10
15.225245403537429
 20
244.28472958464664
 11
21.425245403537474
 21
244.28472958464664
  0
ARC
  8
_0-2_躯体と製品
  6
CONTINUOUS
 62
    7
 10
16.518139403537475
 20
243.78472958464664
 40
0.5
 50
45.000000000000014
 51
90
  0
ARC
  8
_0-2_躯体と製品
  6
CONTINUOUS
 62
    4
 10
16.518139403537475
 20
242.58472958464665
 40
0.5
 50
45.000000000000014
 51
90
  0
ARC
  8
_0-2_躯体と製品
  6
CONTINUOUS
 62
    7
 10
36.025245403537497
 20
243.28472958464664
 40
1
 50
90
 51
180
  0
LINE
  8
_0-2_躯体と製品
  6
CONTINUOUS
 62
    4
 10
26.225199403537431
 20
262.08472958464665
 11
26.225199403537431
 21
261.19980758464675
  0
ARC
  8
_0-2_躯体と製品
  6
CONTINUOUS
 62
    4
 10
19.725199403537431
 20
236.58472958464665
 40
1.5
 50
270
 51
0
  0
ARC
  8
_0-2_躯体と製品
  6
CONTINUOUS
 62
    4
 10
23.225199403537431
 20
262.08472958464665
 40
3
 50
0
 51
90
  0
ARC
  8
_0-2_躯体と製品
  6
CONTINUOUS
 62
    4
 10
19.725198403537433
 20
241.58472958464665
 40
1.5
 50
0
 51
90
  0
LINE
  8
_0-2_躯体と製品
  6
CONTINUOUS
 62
    7
 10
21.225199403537431
 20
236.58472958464665
 11
21.225198403537433
 21
241.58472958464665
  0
ARC
  8
_0-2_躯体と製品
  6
CONTINUOUS
 62
    4
 10
14.725199403537431
 20
244.58472958464665
 40
1.5
 50
180
 51
270
  0
LINE
  8
_0-2_躯体と製品
  6
CONTINUOUS
 62
    4
 10
19.725198403537433
 20
243.08472958464665
 11
18.932352403537493
 21
243.08472958464665
  0
ARC
  8
_0-2_躯体と製品
  6
CONTINUOUS
 62
    4
 10
15.725199403537431
 20
255.56965158464669
 40
2.5
 50
94.39870599999999
 51
180
  0
LINE
  8
_0-2_躯体と製品
  6
CONTINUOUS
 62
    4
 10
13.225199403537431
 20
244.58472958464665
 11
13.225199403537431
 21
255.56965158464669
  0
ARC
  8
_0-2_躯体と製品
  6
CONTINUOUS
 62
    4
 10
23.725199403537431
 20
261.19980758464675
 40
2.5
 50
274.398706
 51
0
  0
LINE
  8
_0-2_躯体と製品
  6
CONTINUOUS
 62
    4
 10
23.916940403537467
 20
258.70717158464669
 11
15.533457403537454
 21
258.06228858464669
  0
ARC
  8
_0-2_躯体と製品
  6
CONTINUOUS
 62
    4
 10
184.22529240353748
 20
262.08472958464665
 40
3
 50
90
 51
180
  0
LINE
  8
_0-2_躯体と製品
  6
CONTINUOUS
 62
    4
 10
181.22529240353748
 20
261.19980758464675
 11
181.22529240353748
 21
262.08472958464665
  0
ARC
  8
_0-2_躯体と製品
  6
CONTINUOUS
 62
    4
 10
187.72529240353737
 20
236.58472958464665
 40
1.5
 50
180
 51
270
  0
LINE
  8
_0-2_躯体と製品
  6
CONTINUOUS
 62
    4
 10
186.22529240353748
 20
241.58472958464665
 11
186.22529240353748
 21
236.58472958464665
  0
ARC
  8
_0-2_躯体と製品
  6
CONTINUOUS
 62
    7
 10
192.72526940353748
 20
244.58472958464665
 40
1.5
 50
270
 51
0
  0
ARC
  8
_0-2_躯体と製品
  6
CONTINUOUS
 62
    4
 10
187.72529240353737
 20
241.58472958464665
 40
1.5
 50
90
 51
180
  0
LINE
  8
_0-2_躯体と製品
  6
CONTINUOUS
 62
    4
 10
192.72526940353748
 20
243.08472958464665
 11
187.72529240353737
 21
243.08472958464665
  0
LINE
  8
_0-2_躯体と製品
  6
CONTINUOUS
 62
    4
 10
194.22529240353748
 20
255.56965158464669
 11
194.22527240353747
 21
244.58472958464665
  0
ARC
  8
_0-2_躯体と製品
  6
CONTINUOUS
 62
    4
 10
191.72529240353737
 20
255.56965158464669
 40
2.5
 50
0
 51
85.601293999999996
  0
ARC
  8
_0-2_躯体と製品
  6
CONTINUOUS
 62
    4
 10
183.72529240353748
 20
261.19980758464675
 40
2.5
 50
180
 51
265.601294
  0
LINE
  8
_0-2_躯体と製品
  6
CONTINUOUS
 62
    4
 10
191.91703440353734
 20
258.06228858464669
 11
183.53355140353744
 21
258.70717158464669
  0
LINE
  8
_0-2_躯体と製品
  6
CONTINUOUS
 62
    7
 10
191.07059240353749
 20
248.08472958464665
 11
190.03136140353746
 21
247.48472958464669
  0
ARC
  8
_0-2_躯体と製品
  6
CONTINUOUS
 62
    7
 10
192.22529240353748
 20
244.08472958464665
 40
1
 50
270
 51
29.999999999999993
  0
LINE
  8
_0-2_躯体と製品
  6
CONTINUOUS
 62
    7
 10
193.09131740353735
 20
244.58472958464665
 11
191.07059240353749
 21
248.08472958464665
  0
LINE
  8
_0-2_躯体と製品
  6
CONTINUOUS
 62
    7
 10
191.87888240353749
 20
244.28472958464664
 11
190.03136140353746
 21
247.48472958464669
  0
LINE
  8
_0-2_躯体と製品
  6
CONTINUOUS
 62
    4
 10
166.87173940353745
 20
242.93828358464668
 11
167.72529240353748
 21
242.08472958464665
  0
LINE
  8
_0-2_躯体と製品
  6
CONTINUOUS
 62
    4
 10
167.72529240353748
 20
242.08472958464665
 11
168.57884540353746
 21
242.93828358464668
  0
LINE
  8
_0-2_躯体と製品
  6
CONTINUOUS
 62
    7
 10
172.42529240353747
 20
243.28472958464664
 11
172.42529240353747
 21
236.28472958464664
  0
LINE
  8
_0-2_躯体と製品
  6
CONTINUOUS
 62
    7
 10
171.22529240353748
 20
243.08472958464665
 11
171.22529240353748
 21
236.08472958464665
  0
LINE
  8
_0-2_躯体と製品
  6
CONTINUOUS
 62
    7
 10
186.22529240353748
 20
243.08472958464665
 11
186.22529240353748
 21
236.08472958464665
  0
LINE
  8
_0-2_躯体と製品
  6
CONTINUOUS
 62
    7
 10
185.02529240353749
 20
243.28472958464664
 11
185.02529240353749
 21
236.28472958464664
  0
LINE
  8
_0-2_躯体と製品
  6
CONTINUOUS
 62
    7
 10
172.42529240353747
 20
236.28472958464664
 11
178.72529240353748
 21
236.28472958464664
  0
LINE
  8
_0-2_躯体と製品
  6
CONTINUOUS
 62
    7
 10
172.22529240353748
 20
235.08472958464665
 11
178.72529240353748
 21
235.08472958464665
  0
ARC
  8
_0-2_躯体と製品
  6
CONTINUOUS
 62
    7
 10
172.22529240353748
 20
236.08472958464665
 40
1
 50
180
 51
270
  0
ARC
  8
_0-2_躯体と製品
  6
CONTINUOUS
 62
    7
 10
185.22529240353748
 20
236.08472958464665
 40
1
 50
270
 51
0
  0
LINE
  8
_0-2_躯体と製品
  6
CONTINUOUS
 62
    7
 10
185.02529240353749
 20
236.28472958464664
 11
178.72529240353748
 21
236.28472958464664
  0
LINE
  8
_0-2_躯体と製品
  6
CONTINUOUS
 62
    7
 10
185.22529240353748
 20
235.08472958464665
 11
178.72529240353748
 21
235.08472958464665
  0
LINE
  8
_0-2_躯体と製品
  6
CONTINUOUS
 62
    7
 10
191.87888240353749
 20
244.28472958464664
 11
186.02529240353749
 21
244.28472958464664
  0
LINE
  8
_0-2_躯体と製品
  6
CONTINUOUS
 62
    7
 10
192.22529240353748
 20
243.08472958464665
 11
186.22529240353748
 21
243.08472958464665
  0
LINE
  8
_0-2_躯体と製品
  6
CONTINUOUS
 62
    7
 10
165.22529240353748
 20
243.08472958464665
 11
166.51818540353747
 21
243.08472958464665
  0
ARC
  8
_0-2_躯体と製品
  6
CONTINUOUS
 62
    7
 10
171.42529240353747
 20
243.28472958464664
 40
1
 50
0
 51
90
  0
LINE
  8
_0-2_躯体と製品
  6
CONTINUOUS
 62
    7
 10
166.87173940353745
 20
244.13828358464667
 11
167.72529240353748
 21
243.28472958464664
  0
LINE
  8
_0-2_躯体と製品
  6
CONTINUOUS
 62
    7
 10
167.72529240353748
 20
243.28472958464664
 11
168.57884540353746
 21
244.13828358464667
  0
ARC
  8
_0-2_躯体と製品
  6
CONTINUOUS
 62
    7
 10
168.93239940353749
 20
243.78472958464664
 40
0.5
 50
90
 51
134.99999999999989
  0
ARC
  8
_0-2_躯体と製品
  6
CONTINUOUS
 62
    4
 10
168.93239940353749
 20
242.58472958464665
 40
0.5
 50
90
 51
134.99999999999989
  0
LINE
  8
_0-2_躯体と製品
  6
CONTINUOUS
 62
    7
 10
165.22529240353748
 20
243.08472958464665
 11
165.22529240353748
 21
244.28472958464664
  0
LINE
  8
_0-2_躯体と製品
  6
CONTINUOUS
 62
    4
 10
168.93239940353749
 20
243.08472958464665
 11
169.72524540353749
 21
243.08472958464665
  0
LINE
  8
_0-2_躯体と製品
  6
CONTINUOUS
 62
    7
 10
165.22529240353748
 20
244.28472958464664
 11
171.42529240353747
 21
244.28472958464664
  0
ARC
  8
_0-2_躯体と製品
  6
CONTINUOUS
 62
    7
 10
166.51818540353747
 20
243.78472958464664
 40
0.5
 50
45.000000000000014
 51
90
  0
ARC
  8
_0-2_躯体と製品
  6
CONTINUOUS
 62
    4
 10
166.51818540353747
 20
242.58472958464665
 40
0.5
 50
45.000000000000014
 51
90
  0
ARC
  8
_0-2_躯体と製品
  6
CONTINUOUS
 62
    7
 10
186.02529240353749
 20
243.28472958464664
 40
1
 50
90
 51
180
  0
LINE
  8
_0-2_躯体と製品
  6
CONTINUOUS
 62
    4
 10
253.72524540353737
 20
235.08472958464665
 11
187.72529240353737
 21
235.08472958464665
  0
LINE
  8
_0-2_躯体と製品
  6
CONTINUOUS
 62
    4
 10
253.72524540353737
 20
265.08472958464665
 11
184.22529240353748
 21
265.08472958464665
  0
LINE
  8
_0-2_躯体と製品
  6
CONTINUOUS
 62
    4
 10
-46.274754596462458
 20
265.08472958464665
 11
23.225199403537431
 21
265.08472958464665
  0
LINE
  8
_0-1_文字-記号
  6
CONTINUOUS
 62
    7
 10
128.66046923917889
 20
184.69954611710676
 11
139.82642123917907
 21
165.35955011710658
  0
LINE
  8
_0-1_文字-記号
  6
CONTINUOUS
 62
    7
 10
139.82642123917907
 20
165.35955011710658
 11
181.05592223917989
 21
165.35955011710658
  0
TEXT
  8
_0-1_文字-記号
 62
    7
 10
142.10021523917885
 20
167.74898511710657
 40
10
 41
0.8
 50
0
  1
受け金具
  0
LINE
  8
_0-2_躯体と製品
  6
CONTINUOUS
 62
    7
 10
99.725374248912146
 20
128.28468272501595
 11
99.72535624899956
 21
178.19147523196037
  0
LINE
  8
_0-2_躯体と製品
  6
CONTINUOUS
 62
    7
 10
98.225374248912146
 20
128.28468272501595
 11
98.225356248911851
 21
178.08494327169856
  0
LINE
  8
_0-2_躯体と製品
  6
CONTINUOUS
 62
    7
 10
89.225374248912146
 20
128.28468272501595
 11
89.225356248911851
 21
178.08494327169856
  0
LINE
  8
_0-2_躯体と製品
  6
CONTINUOUS
 62
    7
 10
87.725374248912146
 20
128.28468272501595
 11
87.725356248999844
 21
178.19147413286566
  0
LINE
  8
_0-2_躯体と製品
  6
PLINE2
 62
    7
 10
98.225362570788548
 20
90.084729584646766
 11
98.225362570788548
 21
125.08472958464677
  0
LINE
  8
_0-2_躯体と製品
  6
PLINE2
 62
    7
 10
99.725362570788661
 20
91.584729584646766
 11
99.725362570788661
 21
125.08472958464677
  0
LINE
  8
_0-2_躯体と製品
  6
PLINE2
 62
    7
 10
87.725362570788548
 20
91.584729584646766
 11
87.725362570788548
 21
125.08472958464677
  0
LINE
  8
_0-2_躯体と製品
  6
PLINE2
 62
    7
 10
89.225362570788661
 20
90.084729584646766
 11
89.225362570788661
 21
125.08472958464677
  0
LINE
  8
_0-2_躯体と製品
  6
PLINE2
 62
    7
 10
98.225362570788548
 20
90.084729584646766
 11
99.725362570788661
 21
91.584729584646766
  0
LINE
  8
_0-2_躯体と製品
  6
PLINE2
 62
    7
 10
99.725362570788661
 20
91.584729584646766
 11
87.725362570788548
 21
91.584729584646766
  0
LINE
  8
_0-2_躯体と製品
  6
PLINE2
 62
    7
 10
87.725362570788548
 20
91.584729584646766
 11
89.225362570788661
 21
90.084729584646766
  0
LINE
  8
_0-2_躯体と製品
  6
PLINE2
 62
    7
 10
89.225362570788661
 20
90.084729584646766
 11
98.225362570788548
 21
90.084729584646766
  0
LINE
  8
_0-2_躯体と製品
  6
PLINE2
 62
    7
 10
86.725362570788548
 20
125.08472958464677
 11
86.725362570788548
 21
89.379729584652267
  0
LINE
  8
_0-2_躯体と製品
  6
PLINE2
 62
    7
 10
86.725362570788548
 20
89.379729584652267
 11
93.725362570788548
 21
85.336729584654478
  0
LINE
  8
_0-2_躯体と製品
  6
PLINE2
 62
    7
 10
93.725362570788548
 20
85.336729584654478
 11
100.72536257078855
 21
89.379729584652267
  0
LINE
  8
_0-2_躯体と製品
  6
PLINE2
 62
    7
 10
100.72536257078855
 20
89.379729584652267
 11
100.72536257078855
 21
125.08472958464677
  0
LINE
  8
_0-1_文字-記号
  6
CONTINUOUS
 62
    7
 10
36.025245964729777
 20
244.28473017497629
 11
60.887358067003674
 21
278.18428925980214
  0
LINE
  8
_0-1_文字-記号
  6
CONTINUOUS
 62
    7
 10
60.887358067003674
 20
278.18428925980214
 11
105.01103601266806
 21
278.18428925980214
  0
TEXT
  8
_0-1_文字-記号
 62
    7
 10
64.32740060475345
 20
281.75582861829309
 40
10
 41
0.8
 50
0
  1
固定金具
  0
INSERT
  2
-001-_D2
  8
_0-4_寸法
 10
-213.23410859646253
 20
-60.246282045639532
 41
1
 42
1
 50
0
  0
INSERT
  2
-002-_D3
  8
_0-4_寸法
 10
-213.23410859646253
 20
-60.246282045639532
 41
1
 42
1
 50
0
  0
INSERT
  2
-003-_D4
  8
_0-4_寸法
 10
-213.23410859646253
 20
-60.246282045639532
 41
1
 42
1
 50
0
  0
INSERT
  2
-004-_D5
  8
_0-4_寸法
 10
-213.23410859646253
 20
-60.246282045639532
 41
1
 42
1
 50
0
  0
INSERT
  2
-005-_D6
  8
_0-4_寸法
 10
-213.23410859646253
 20
-60.246282045639532
 41
1
 42
1
 50
0
  0
LINE
  8
_0-2_躯体と製品
  6
CONTINUOUS
 62
    3
 10
1.6916930993274946
 20
105.08472958464677
 11
21.691693099327495
 21
125.08472958464677
  0
LINE
  8
_0-2_躯体と製品
  6
CONTINUOUS
 62
    3
 10
-3.9651619006722285
 20
105.08472958464677
 11
16.034838099327771
 21
125.08472958464677
  0
LINE
  8
_0-2_躯体と製品
  6
CONTINUOUS
 62
    3
 10
7.3485480993272745
 20
105.08472958464677
 11
27.348548099327274
 21
125.08472958464677
  0
LINE
  8
_0-2_躯体と製品
  6
CONTINUOUS
 62
    3
 10
177.26762309932758
 20
105.08472958464677
 11
197.26762309932747
 21
125.08472958464677
  0
LINE
  8
_0-2_躯体と製品
  6
CONTINUOUS
 62
    3
 10
171.61076809932774
 20
105.08472958464677
 11
191.61076809932774
 21
125.08472958464677
  0
LINE
  8
_0-2_躯体と製品
  6
CONTINUOUS
 62
    3
 10
165.95391809932744
 20
105.08472958464677
 11
185.95391809932744
 21
125.08472958464677
  0
TEXT
  8
_0-1_文字-記号
 62
    7
 10
-56.913325481528318
 20
339.66659091583608
 40
12
 41
1
 50
0
  1
標準納まり図
  0
INSERT
  2
-006-_D7
  8
_0-4_寸法
 10
-213.23410859646253
 20
-60.246282045639532
 41
1
 42
1
 50
0
  0
INSERT
  2
-007-_D8
  8
_0-4_寸法
 10
-213.23410859646253
 20
-60.246282045639532
 41
1
 42
1
 50
0
  0
INSERT
  2
-008-_D9
  8
_0-4_寸法
 10
-213.23410859646253
 20
-60.246282045639532
 41
1
 42
1
 50
0
  0
TEXT
  8
_0-1_文字-記号
 62
    7
 10
56.982155162349954
 20
40.190041798013056
 40
10
 41
0.8
 50
0
  1
（支持脚ピッチ）
  0
INSERT
  2
-009-_D10
  8
_0-4_寸法
 10
-213.23410859646253
 20
-60.246282045639532
 41
1
 42
1
 50
0
  0
INSERT
  2
-010-_D11
  8
_0-4_寸法
 10
-213.23410859646253
 20
-60.246282045639532
 41
1
 42
1
 50
0
  0
LINE
  8
_0-5_中心線
  6
CENTER1
 62
    7
 10
490.88915866283651
 20
58.501271791653949
 11
490.88915866283651
 21
254.66724232021045
  0
LINE
  8
_0-2_躯体と製品
  6
CONTINUOUS
 62
    7
 10
444.13915866283651
 20
193.08472958464677
 11
537.63915866283651
 21
193.08472958464677
  0
LINE
  8
_0-2_躯体と製品
  6
CONTINUOUS
 62
    7
 10
540.88915866283651
 20
189.83472958464668
 11
540.88915866283651
 21
182.08469958465108
  0
ARC
  8
_0-2_躯体と製品
  6
CONTINUOUS
 62
    7
 10
537.63915866283651
 20
189.83472958464668
 40
3.25
 50
0
 51
90
  0
LINE
  8
_0-2_躯体と製品
  6
CONTINUOUS
 62
    7
 10
440.88915866283651
 20
189.83472958464668
 11
440.88915866283651
 21
182.08469958465108
  0
LINE
  8
_0-2_躯体と製品
  6
CONTINUOUS
 62
    7
 10
540.88915866283651
 20
182.08469958465108
 11
440.88915866283651
 21
182.08469958465108
  0
ARC
  8
_0-2_躯体と製品
  6
CONTINUOUS
 62
    7
 10
444.13915866283651
 20
189.83472958464668
 40
3.25
 50
90
 51
180
  0
LINE
  8
_0-2_躯体と製品
  6
CONTINUOUS
 62
    7
 10
475.88914066281575
 20
128.28472958465838
 11
505.88914066281575
 21
128.28472958465838
  0
LINE
  8
_0-2_躯体と製品
  6
CONTINUOUS
 62
    7
 10
505.88914066281575
 20
128.28472958465838
 11
505.88914066281575
 21
125.08472958464668
  0
LINE
  8
_0-2_躯体と製品
  6
CONTINUOUS
 62
    7
 10
505.88914066281575
 20
125.08472958464668
 11
475.88914066281575
 21
125.08472958464668
  0
LINE
  8
_0-2_躯体と製品
  6
CONTINUOUS
 62
    7
 10
475.88914066281575
 20
125.08472958464668
 11
475.88914066281575
 21
128.28472958465838
  0
LINE
  8
_0-2_躯体と製品
  6
CONTINUOUS
 62
    4
 10
330.88915866283662
 20
125.08472958464677
 11
650.88915866283662
 21
125.08472958464677
  0
LINE
  8
_0-1_文字-記号
  6
CONTINUOUS
 62
    7
 10
525.82427549847353
 20
184.69954611705876
 11
536.99022749845471
 21
165.35955011706366
  0
LINE
  8
_0-1_文字-記号
  6
CONTINUOUS
 62
    7
 10
536.99022749845471
 20
165.35955011706366
 11
578.21972849847816
 21
165.35955011706366
  0
TEXT
  8
_0-1_文字-記号
 62
    7
 10
539.26402149846251
 20
167.74898511708278
 40
10
 41
0.8
 50
0
  1
受け金具
  0
LINE
  8
_0-2_躯体と製品
  6
CONTINUOUS
 62
    7
 10
496.88916774187112
 20
128.28472958465397
 11
496.88916774187112
 21
178.08469958464667
  0
LINE
  8
_0-2_躯体と製品
  6
CONTINUOUS
 62
    7
 10
495.38916774187112
 20
128.28472958465397
 11
495.38916774187112
 21
178.08499013132936
  0
LINE
  8
_0-2_躯体と製品
  6
CONTINUOUS
 62
    7
 10
486.38916774187112
 20
128.28472958465397
 11
486.38916774187112
 21
178.08499013132936
  0
LINE
  8
_0-2_躯体と製品
  6
CONTINUOUS
 62
    7
 10
484.88916774187112
 20
128.28472958465397
 11
484.88916774187112
 21
178.08469958464667
  0
LINE
  8
_0-2_躯体と製品
  6
PLINE2
 62
    7
 10
495.389174025138
 20
90.084729584646766
 11
495.389174025138
 21
125.08472958464668
  0
LINE
  8
_0-2_躯体と製品
  6
PLINE2
 62
    7
 10
496.889174025138
 20
91.584729584646681
 11
496.889174025138
 21
125.08472958464668
  0
LINE
  8
_0-2_躯体と製品
  6
PLINE2
 62
    7
 10
484.889174025138
 20
91.584729584646681
 11
484.889174025138
 21
125.08472958464668
  0
LINE
  8
_0-2_躯体と製品
  6
PLINE2
 62
    7
 10
486.389174025138
 20
90.084729584646766
 11
486.389174025138
 21
125.08472958464668
  0
LINE
  8
_0-2_躯体と製品
  6
PLINE2
 62
    7
 10
495.389174025138
 20
90.084729584646766
 11
496.889174025138
 21
91.584729584646681
  0
LINE
  8
_0-2_躯体と製品
  6
PLINE2
 62
    7
 10
496.889174025138
 20
91.584729584646681
 11
484.889174025138
 21
91.584729584646681
  0
LINE
  8
_0-2_躯体と製品
  6
PLINE2
 62
    7
 10
484.889174025138
 20
91.584729584646681
 11
486.389174025138
 21
90.084729584646766
  0
LINE
  8
_0-2_躯体と製品
  6
PLINE2
 62
    7
 10
486.389174025138
 20
90.084729584646766
 11
495.389174025138
 21
90.084729584646766
  0
LINE
  8
_0-2_躯体と製品
  6
PLINE2
 62
    7
 10
483.889174025138
 20
125.08472958464668
 11
483.889174025138
 21
89.379729584688675
  0
LINE
  8
_0-2_躯体と製品
  6
PLINE2
 62
    7
 10
483.889174025138
 20
89.379729584688675
 11
490.889174025138
 21
85.336729584683468
  0
LINE
  8
_0-2_躯体と製品
  6
PLINE2
 62
    7
 10
490.889174025138
 20
85.336729584683468
 11
497.889174025138
 21
89.379729584688675
  0
LINE
  8
_0-2_躯体と製品
  6
PLINE2
 62
    7
 10
497.889174025138
 20
89.379729584688675
 11
497.889174025138
 21
125.08472958464668
  0
LINE
  8
_0-2_躯体と製品
  6
CONTINUOUS
 62
    3
 10
368.29041603401731
 20
105.08472958464668
 11
388.29041603401731
 21
125.08472958464668
  0
LINE
  8
_0-2_躯体と製品
  6
CONTINUOUS
 62
    3
 10
362.63356103400884
 20
105.08472958464668
 11
382.63356103400884
 21
125.08472958464668
  0
LINE
  8
_0-2_躯体と製品
  6
CONTINUOUS
 62
    3
 10
373.94727103402556
 20
105.08472958464668
 11
393.94727103402568
 21
125.08472958464668
  0
LINE
  8
_0-2_躯体と製品
  6
CONTINUOUS
 62
    3
 10
543.86634603400898
 20
105.08472958464668
 11
563.86634603400898
 21
125.08472958464668
  0
LINE
  8
_0-2_躯体と製品
  6
CONTINUOUS
 62
    3
 10
538.20949103402961
 20
105.08472958464668
 11
558.20949103402961
 21
125.08472958464668
  0
LINE
  8
_0-2_躯体と製品
  6
CONTINUOUS
 62
    3
 10
532.55264103403022
 20
105.08472958464668
 11
552.55264103403033
 21
125.08472958464668
  0
LINE
  8
_0-2_躯体と製品
  6
CONTINUOUS
 62
    7
 10
522.88915866283651
 20
198.08472958464665
 11
527.88915866283651
 21
198.08472958464665
  0
LINE
  8
_0-2_躯体と製品
  6
CONTINUOUS
 62
    7
 10
527.88915866283651
 20
198.08472958464665
 11
527.88915866283651
 21
195.08472958464677
  0
LINE
  8
_0-2_躯体と製品
  6
CONTINUOUS
 62
    7
 10
527.88915866283651
 20
195.08472958464677
 11
453.88915866283651
 21
195.08472958464677
  0
LINE
  8
_0-2_躯体と製品
  6
CONTINUOUS
 62
    7
 10
453.88915866283651
 20
195.08472958464677
 11
453.88915866283651
 21
198.08472958464665
  0
LINE
  8
_0-2_躯体と製品
  6
CONTINUOUS
 62
    7
 10
453.88915866283651
 20
198.08472958464665
 11
458.88915866283651
 21
198.08472958464665
  0
LINE
  8
_0-2_躯体と製品
  6
CONTINUOUS
 62
    7
 10
458.88915866283651
 20
198.08472958464665
 11
458.88915866283651
 21
200.08472958464665
  0
LINE
  8
_0-2_躯体と製品
  6
CONTINUOUS
 62
    7
 10
458.88915866283651
 20
200.08472958464665
 11
451.88915866283651
 21
200.08472958464665
  0
LINE
  8
_0-2_躯体と製品
  6
CONTINUOUS
 62
    7
 10
451.88915866283651
 20
200.08472958464665
 11
451.88915866283651
 21
193.08472958464677
  0
LINE
  8
_0-2_躯体と製品
  6
CONTINUOUS
 62
    7
 10
451.88915866283651
 20
193.08472958464677
 11
529.88915866283651
 21
193.08472958464677
  0
LINE
  8
_0-2_躯体と製品
  6
CONTINUOUS
 62
    7
 10
529.88915866283651
 20
193.08472958464677
 11
529.88915866283651
 21
200.08472958464665
  0
LINE
  8
_0-2_躯体と製品
  6
CONTINUOUS
 62
    7
 10
529.88915866283651
 20
200.08472958464665
 11
522.88915866283651
 21
200.08472958464665
  0
LINE
  8
_0-2_躯体と製品
  6
CONTINUOUS
 62
    7
 10
522.88915866283651
 20
200.08472958464665
 11
522.88915866283651
 21
198.08472958464665
  0
ARC
  8
_0-2_躯体と製品
  6
CONTINUOUS
 62
    7
 10
499.10115866283661
 20
198.83672958463603
 40
4.2479999999885099
 50
49.869772999028932
 51
130.11991899996877
  0
LINE
  8
_0-2_躯体と製品
  6
CONTINUOUS
 62
    7
 10
496.36415866282778
 20
197.08372958459915
 11
496.36415866282778
 21
202.08572958463594
  0
LINE
  8
_0-2_躯体と製品
  6
CONTINUOUS
 62
    7
 10
501.8391586628336
 20
202.08472958464665
 11
501.8391586628336
 21
197.08472958464677
  0
ARC
  8
_0-2_躯体と製品
  6
CONTINUOUS
 62
    7
 10
499.10115866287106
 20
200.33272958462823
 40
4.2479999999885063
 50
229.88008099942331
 51
310.13022700036311
  0
LINE
  8
_0-2_躯体と製品
  6
CONTINUOUS
 62
    7
 10
496.88915866283651
 20
208.58472958464665
 11
496.88915866283651
 21
203.08472958464665
  0
LINE
  8
_0-2_躯体と製品
  6
CONTINUOUS
 62
    7
 10
492.62115866285455
 20
196.08472958464665
 11
492.04382532950547
 21
195.08472958464677
  0
LINE
  8
_0-2_躯体と製品
  6
CONTINUOUS
 62
    7
 10
490.88915866283651
 20
196.08472958464665
 11
490.31182532951652
 21
195.08472958464677
  0
LINE
  8
_0-2_躯体と製品
  6
CONTINUOUS
 62
    7
 10
495.38915866283651
 20
210.08472958464665
 11
495.38915866283651
 21
203.08472958464665
  0
LINE
  8
_0-2_躯体と製品
  6
CONTINUOUS
 62
    7
 10
484.88915866283651
 20
208.58472958464665
 11
486.38915866283651
 21
210.08472958464665
  0
LINE
  8
_0-2_躯体と製品
  6
CONTINUOUS
 62
    7
 10
485.41415866284513
 20
197.08372958459915
 11
485.41415866284513
 21
202.08572958463594
  0
LINE
  8
_0-2_躯体と製品
  6
CONTINUOUS
 62
    7
 10
479.93915866283942
 20
202.08472958464665
 11
479.93915866283942
 21
197.08472958464677
  0
ARC
  8
_0-2_躯体と製品
  6
CONTINUOUS
 62
    7
 10
482.67715866289609
 20
198.83672958461085
 40
4.2480000000068125
 50
49.880087000610274
 51
130.13023300101563
  0
ARC
  8
_0-2_躯体と製品
  6
CONTINUOUS
 62
    7
 10
482.67715866286147
 20
200.33272958465349
 40
4.2480000000068108
 50
229.86976699959411
 51
310.11991299999943
  0
ARC
  8
_0-2_躯体と製品
  6
CONTINUOUS
 62
    7
 10
490.88815866280993
 20
187.59172958462008
 40
15.492999999999389
 50
69.301553000273231
 51
110.69022699903117
  0
LINE
  8
_0-2_躯体と製品
  6
CONTINUOUS
 62
    7
 10
484.88915866283651
 20
203.08472958464665
 11
484.88915866283651
 21
208.58472958464665
  0
LINE
  8
_0-2_躯体と製品
  6
CONTINUOUS
 62
    7
 10
484.88915866283651
 20
208.58472958464665
 11
496.88915866283651
 21
208.58472958464665
  0
LINE
  8
_0-2_躯体と製品
  6
CONTINUOUS
 62
    7
 10
496.88915866283651
 20
208.58472958464665
 11
495.38915866283651
 21
210.08472958464665
  0
LINE
  8
_0-2_躯体と製品
  6
CONTINUOUS
 62
    7
 10
495.38915866283651
 20
210.08472958464665
 11
486.38915866283651
 21
210.08472958464665
  0
LINE
  8
_0-2_躯体と製品
  6
CONTINUOUS
 62
    7
 10
486.38915866283651
 20
210.08472958464665
 11
486.38915866283651
 21
203.08472958464665
  0
ARC
  8
_0-2_躯体と製品
  6
CONTINUOUS
 62
    7
 10
490.88815866280981
 20
211.5777295846151
 40
15.49299999999938
 50
249.30977300096913
 51
290.69844699972708
  0
LINE
  8
_0-2_躯体と製品
  6
CONTINUOUS
 62
    7
 10
482.67615866283313
 20
203.08472958464665
 11
499.1001586628322
 21
203.08472958464665
  0
LINE
  8
_0-2_躯体と製品
  6
CONTINUOUS
 62
    7
 10
501.63915866283651
 20
195.08472958464677
 11
501.63915866283651
 21
196.08472958464665
  0
LINE
  8
_0-2_躯体と製品
  6
CONTINUOUS
 62
    7
 10
501.63915866283651
 20
196.08472958464665
 11
480.13915866283651
 21
196.08472958464665
  0
LINE
  8
_0-2_躯体と製品
  6
CONTINUOUS
 62
    7
 10
480.13915866283651
 20
196.08472958464665
 11
480.13915866283651
 21
195.08472958464677
  0
LINE
  8
_0-2_躯体と製品
  6
CONTINUOUS
 62
    3
 10
509.28915866283069
 20
197.18472958462348
 11
509.28915866283069
 21
232.98472958461178
  0
ARC
  8
_0-2_躯体と製品
  6
CONTINUOUS
 62
    3
 10
508.78915867592013
 20
232.98472959770123
 40
0.4999999869105527
 50
359.9999985000598
 51
90.00000149994024
  0
LINE
  8
_0-2_躯体と製品
  6
CONTINUOUS
 62
    3
 10
508.78915866283069
 20
233.48472958461178
 11
490.88915866283651
 21
233.48472958461178
  0
LINE
  8
_0-2_躯体と製品
  6
CONTINUOUS
 62
    3
 10
490.88915866283651
 20
233.48472958461178
 11
472.98915863667798
 21
233.48472958461178
  0
ARC
  8
_0-2_躯体と製品
  6
CONTINUOUS
 62
    3
 10
472.98915863666974
 20
232.98472961078426
 40
0.4999999738275287
 50
89.999999999055547
 51
180.00000299914447
  0
LINE
  8
_0-2_躯体と製品
  6
CONTINUOUS
 62
    3
 10
472.48915866284221
 20
232.98472958461178
 11
472.48915866284221
 21
197.18472958462348
  0
ARC
  8
_0-2_躯体と製品
  6
CONTINUOUS
 62
    3
 10
470.38915866285095
 20
197.18472958463803
 40
2.0999999999912689
 50
269.99999999960608
 51
359.99999999960295
  0
LINE
  8
_0-2_躯体と製品
  6
CONTINUOUS
 62
    3
 10
470.38915866283651
 20
195.08472958464677
 11
453.88915866283651
 21
195.08472958464677
  0
LINE
  8
_0-2_躯体と製品
  6
CONTINUOUS
 62
    3
 10
453.88915866283651
 20
195.08472958464677
 11
453.88915866283651
 21
196.68472958462337
  0
LINE
  8
_0-2_躯体と製品
  6
CONTINUOUS
 62
    3
 10
453.88915866283651
 20
196.68472958462337
 11
470.38915866283651
 21
196.68472958462337
  0
ARC
  8
_0-2_躯体と製品
  6
CONTINUOUS
 62
    3
 10
470.3891586759259
 20
197.18472957153398
 40
0.4999999869106095
 50
269.99999850006628
 51
0.0000014999467507
  0
LINE
  8
_0-2_躯体と製品
  6
CONTINUOUS
 62
    3
 10
470.88915866283651
 20
197.18472958462348
 11
470.88915866283651
 21
232.98472958461178
  0
ARC
  8
_0-2_躯体と製品
  6
CONTINUOUS
 62
    3
 10
472.98915866285677
 20
232.98472958462636
 40
2.1000000000202874
 50
90.00000000039779
 51
180.00000000039779
  0
LINE
  8
_0-2_躯体と製品
  6
CONTINUOUS
 62
    3
 10
472.98915866284221
 20
235.08472958464665
 11
490.88915866283651
 21
235.08472958464665
  0
LINE
  8
_0-2_躯体と製品
  6
CONTINUOUS
 62
    3
 10
490.88915866283651
 20
235.08472958464665
 11
508.78915866283069
 21
235.08472958464665
  0
ARC
  8
_0-2_躯体と製品
  6
CONTINUOUS
 62
    3
 10
508.78915866281466
 20
232.98472958462483
 40
2.1000000000218253
 50
359.99999999964416
 51
89.999999999563329
  0
LINE
  8
_0-2_躯体と製品
  6
CONTINUOUS
 62
    3
 10
510.88915866283651
 20
232.98472958461178
 11
510.88915866283651
 21
197.18472953223659
  0
ARC
  8
_0-2_躯体と製品
  6
CONTINUOUS
 62
    3
 10
511.38915867591237
 20
197.18472959769923
 40
0.5000000130758653
 50
180.00000750146651
 51
269.99999850161674
  0
LINE
  8
_0-2_躯体と製品
  6
CONTINUOUS
 62
    3
 10
511.38915866283651
 20
196.68472958462337
 11
527.88915866283651
 21
196.68472958462337
  0
LINE
  8
_0-2_躯体と製品
  6
CONTINUOUS
 62
    3
 10
527.88915866283651
 20
196.68472958462337
 11
527.88915866283651
 21
195.08472958464677
  0
LINE
  8
_0-2_躯体と製品
  6
CONTINUOUS
 62
    3
 10
527.88915866283651
 20
195.08472958464677
 11
511.38915866283651
 21
195.08472958464677
  0
ARC
  8
_0-2_躯体と製品
  6
CONTINUOUS
 62
    3
 10
511.38915866282287
 20
197.18472958463897
 40
2.0999999999922041
 50
180.0000060003438
 51
270.00000000037187
  0
LINE
  8
_0-5_中心線
  6
CENTER1
 62
    7
 10
463.13915866286561
 20
180.68472958462345
 11
463.13915866286561
 21
203.60847958463978
  0
ARC
  8
_0-2_躯体と製品
  6
CONTINUOUS
 62
    7
 10
463.68615866280311
 20
194.89672958464018
 40
4.8190000000073567
 50
48.111754998678123
 51
96.517441999660264
  0
ARC
  8
_0-2_躯体と製品
  6
CONTINUOUS
 62
    7
 10
462.59215866288355
 20
194.89672958462
 40
4.8190000000167865
 50
83.482563001157288
 51
131.88825099942648
  0
LINE
  8
_0-2_躯体と製品
  6
CONTINUOUS
 62
    7
 10
459.13915866286561
 20
196.88472958463507
 11
459.13915866286561
 21
197.33372958465748
  0
LINE
  8
_0-2_躯体と製品
  6
CONTINUOUS
 62
    7
 10
459.13915866286561
 20
197.33372958465748
 11
459.37415866288075
 21
198.48472958466999
  0
LINE
  8
_0-2_躯体と製品
  6
CONTINUOUS
 62
    7
 10
459.37415866288075
 20
198.48472958466999
 11
463.13915866286561
 21
198.48472958466999
  0
LINE
  8
_0-2_躯体と製品
  6
CONTINUOUS
 62
    7
 10
463.13915866286561
 20
198.48472958466999
 11
466.90415866287958
 21
198.48472958466999
  0
LINE
  8
_0-2_躯体と製品
  6
CONTINUOUS
 62
    7
 10
466.90415866287958
 20
198.48472958466999
 11
467.13915866286561
 21
197.33372958465748
  0
LINE
  8
_0-2_躯体と製品
  6
CONTINUOUS
 62
    7
 10
467.13915866286561
 20
197.33372958465748
 11
467.13915866289472
 21
196.88472958463507
  0
ARC
  8
_0-2_躯体と製品
  6
CONTINUOUS
 62
    7
 10
466.93915866811881
 20
196.88472957939931
 40
0.1999999947759479
 50
269.99999850005162
 51
0.0000014999320776
  0
LINE
  8
_0-2_躯体と製品
  6
CONTINUOUS
 62
    7
 10
466.93915866288296
 20
196.68472958462337
 11
463.13915866286561
 21
196.68472958462337
  0
LINE
  8
_0-2_躯体と製品
  6
CONTINUOUS
 62
    7
 10
463.13915866286561
 20
196.68472958462337
 11
459.33915865239987
 21
196.68472958462337
  0
ARC
  8
_0-2_躯体と製品
  6
CONTINUOUS
 62
    7
 10
459.33915866286861
 20
196.88472958462634
 40
0.2000000000029678
 50
180.00000600057848
 51
269.99999700093713
  0
LINE
  8
_0-5_中心線
  6
CENTER1
 62
    7
 10
518.6391586628074
 20
180.68472958462345
 11
518.6391586628074
 21
203.60847958463978
  0
ARC
  8
_0-2_躯体と製品
  6
CONTINUOUS
 62
    7
 10
519.1861586627449
 20
194.89672958464018
 40
4.8190000000073567
 50
48.111754998678123
 51
96.517441999660264
  0
ARC
  8
_0-2_躯体と製品
  6
CONTINUOUS
 62
    7
 10
518.09215866282534
 20
194.89672958462
 40
4.8190000000167865
 50
83.482563001157288
 51
131.88825099942648
  0
LINE
  8
_0-2_躯体と製品
  6
CONTINUOUS
 62
    7
 10
514.6391586628074
 20
196.88472958463507
 11
514.6391586628074
 21
197.33372958465748
  0
LINE
  8
_0-2_躯体と製品
  6
CONTINUOUS
 62
    7
 10
514.6391586628074
 20
197.33372958465748
 11
514.87415866282254
 21
198.48472958466999
  0
LINE
  8
_0-2_躯体と製品
  6
CONTINUOUS
 62
    7
 10
514.87415866282254
 20
198.48472958466999
 11
518.6391586628074
 21
198.48472958466999
  0
LINE
  8
_0-2_躯体と製品
  6
CONTINUOUS
 62
    7
 10
518.6391586628074
 20
198.48472958466999
 11
522.40415866282137
 21
198.48472958466999
  0
LINE
  8
_0-2_躯体と製品
  6
CONTINUOUS
 62
    7
 10
522.40415866282137
 20
198.48472958466999
 11
522.6391586628074
 21
197.33372958465748
  0
LINE
  8
_0-2_躯体と製品
  6
CONTINUOUS
 62
    7
 10
522.6391586628074
 20
197.33372958465748
 11
522.63915866283651
 21
196.88472958463507
  0
ARC
  8
_0-2_躯体と製品
  6
CONTINUOUS
 62
    7
 10
522.4391586680606
 20
196.88472957939931
 40
0.1999999947759479
 50
269.99999850005162
 51
0.0000014999320776
  0
LINE
  8
_0-2_躯体と製品
  6
CONTINUOUS
 62
    7
 10
522.43915866282475
 20
196.68472958462337
 11
518.6391586628074
 21
196.68472958462337
  0
LINE
  8
_0-2_躯体と製品
  6
CONTINUOUS
 62
    7
 10
518.6391586628074
 20
196.68472958462337
 11
514.83915865234167
 21
196.68472958462337
  0
ARC
  8
_0-2_躯体と製品
  6
CONTINUOUS
 62
    7
 10
514.83915866281041
 20
196.88472958462634
 40
0.2000000000029678
 50
180.00000600057848
 51
269.99999700093713
  0
LINE
  8
_0-0_0
  6
CONTINUOUS
 62
    7
 10
470.88915866283651
 20
248.08472958464665
 11
510.88915866283651
 21
248.08472958464665
  0
LINE
  8
_0-0_0
  6
CONTINUOUS
 62
    7
 10
470.88915866283651
 20
244.28472958460014
 11
510.88915866283651
 21
244.28472958460014
  0
LINE
  8
_0-0_0
  6
CONTINUOUS
 62
    7
 10
470.88915866283651
 20
243.08472958464677
 11
510.88915866283651
 21
243.08472958464677
  0
LINE
  8
_0-0_0
  6
CONTINUOUS
 62
    7
 10
470.88915866283651
 20
236.28472958460014
 11
510.88915866283651
 21
236.28472958460014
  0
LINE
  8
_0-0_0
  6
CONTINUOUS
 62
    7
 10
470.88915866283651
 20
235.08472958464665
 11
510.88915866283651
 21
235.08472958464665
  0
LINE
  8
_0-0_0
  6
CONTINUOUS
 62
    7
 10
510.88915866283651
 20
235.08472958464665
 11
510.88915866283651
 21
248.08472958464665
  0
LINE
  8
_0-0_0
  6
CONTINUOUS
 62
    7
 10
510.88915866283651
 20
248.08472958464665
 11
470.88915866283651
 21
248.08472958464665
  0
LINE
  8
_0-0_0
  6
CONTINUOUS
 62
    7
 10
470.88915866283651
 20
248.08472958464665
 11
470.88915866283651
 21
235.08472958464665
  0
LINE
  8
_0-5_中心線
  6
CENTER1
 62
    7
 10
481.88915866283651
 20
219.38536033937964
 11
481.88915866283651
 21
241.12276610809175
  0
LINE
  8
_0-5_中心線
  6
CENTER1
 62
    7
 10
499.88915866283651
 20
219.38536033937964
 11
499.88915866283651
 21
241.12276610809175
  0
TEXT
  8
_0-1_文字-記号
 62
    7
 10
458.4476099109288
 20
42.081516909252684
 40
10
 41
0.8
 50
0
  1
（根太ピッチ）
  0
INSERT
  2
-011-_D12
  8
_0-4_寸法
 10
-213.23410859646253
 20
-60.246282045639532
 41
1
 42
1
 50
0
  0
INSERT
  2
-012-_D13
  8
_0-4_寸法
 10
-213.23410859646253
 20
-60.246282045639532
 41
1
 42
1
 50
0
  0
LINE
  8
_0-2_躯体と製品
  6
CONTINUOUS
 62
    4
 10
330.88915866283662
 20
265.08472958464665
 11
650.88915866283662
 21
265.08472958464665
  0
LINE
  8
_0-2_躯体と製品
  6
CONTINUOUS
 62
    4
 10
330.88915866283662
 20
243.08472958464677
 11
470.88915866283651
 21
243.08472958464677
  0
LINE
  8
_0-2_躯体と製品
  6
CONTINUOUS
 62
    4
 10
510.88915866283651
 20
243.08472958464677
 11
650.88915866283662
 21
243.08472958464677
  0
LINE
  8
_0-2_躯体と製品
  6
CONTINUOUS
 62
    4
 10
330.88915866283662
 20
258.70717137302535
 11
650.88915866283662
 21
258.70717137302535
  0
LINE
  8
_0-2_躯体と製品
  6
CONTINUOUS
 62
    4
 10
330.88915866283662
 20
235.08472958464665
 11
650.88915866283662
 21
235.08472958464665
  0
ARC
  8
_0-2_躯体と製品
  6
CONTINUOUS
 62
    7
 10
481.3421586628989
 20
234.49672958461696
 40
4.8190000000073141
 50
83.482558000338173
 51
131.88824500132031
  0
ARC
  8
_0-2_躯体と製品
  6
CONTINUOUS
 62
    7
 10
482.43615866281846
 20
234.49672958459672
 40
4.8190000000167865
 50
48.111749000573532
 51
96.517436998842712
  0
ARC
  8
_0-2_躯体と製品
  6
CONTINUOUS
 62
    7
 10
485.68915865235624
 20
236.48472959508044
 40
0.2000000104802908
 50
270.00000600059468
 51
359.99999700095339
  0
LINE
  8
_0-2_躯体と製品
  6
CONTINUOUS
 62
    7
 10
485.88915866283651
 20
236.48472958461178
 11
485.88915866283651
 21
236.93372958463419
  0
LINE
  8
_0-2_躯体と製品
  6
CONTINUOUS
 62
    7
 10
485.88915866283651
 20
236.93372958463419
 11
485.65415866282137
 21
238.08472958464665
  0
LINE
  8
_0-2_躯体と製品
  6
CONTINUOUS
 62
    7
 10
485.65415866282137
 20
238.08472958464665
 11
481.88915866283651
 21
238.08472958464665
  0
LINE
  8
_0-2_躯体と製品
  6
CONTINUOUS
 62
    7
 10
481.88915866283651
 20
238.08472958464665
 11
478.12415866282242
 21
238.08472958464665
  0
LINE
  8
_0-2_躯体と製品
  6
CONTINUOUS
 62
    7
 10
478.12415866282242
 20
238.08472958464665
 11
477.88915866283651
 21
236.93372958463419
  0
LINE
  8
_0-2_躯体と製品
  6
CONTINUOUS
 62
    7
 10
477.88915866283651
 20
236.93372958463419
 11
477.8891586628074
 21
236.48472958461178
  0
ARC
  8
_0-2_躯体と製品
  6
CONTINUOUS
 62
    7
 10
478.08915866282189
 20
236.48472958461463
 40
0.2000000000144951
 50
180.00000000081744
 51
270.00000300069792
  0
LINE
  8
_0-2_躯体と製品
  6
CONTINUOUS
 62
    7
 10
483.63915866283651
 20
231.03385458463134
 11
483.08915866284815
 21
230.71631458461314
  0
LINE
  8
_0-2_躯体と製品
  6
CONTINUOUS
 62
    7
 10
480.68915866285386
 20
230.64584458463617
 11
483.08915866284815
 21
231.35139958462946
  0
LINE
  8
_0-2_躯体と製品
  6
CONTINUOUS
 62
    7
 10
480.13915866283651
 20
230.32829958463816
 11
480.68915866285386
 21
230.64584458463617
  0
LINE
  8
_0-2_躯体と製品
  6
CONTINUOUS
 62
    7
 10
480.68915866285386
 20
230.64584458463617
 11
480.68915866285386
 21
231.42186958460638
  0
LINE
  8
_0-2_躯体と製品
  6
CONTINUOUS
 62
    7
 10
483.08915866284815
 20
228.52917458461854
 11
483.63915866283651
 21
228.21163458460035
  0
LINE
  8
_0-2_躯体と製品
  6
CONTINUOUS
 62
    7
 10
481.88915866283651
 20
227.85885458464298
 11
483.63915866283651
 21
228.21163458460035
  0
LINE
  8
_0-2_躯体と製品
  6
CONTINUOUS
 62
    7
 10
483.63915866283651
 20
228.21163458460035
 11
483.08915866284815
 21
227.89408958460234
  0
LINE
  8
_0-2_躯体と製品
  6
CONTINUOUS
 62
    7
 10
483.08915866284815
 20
229.94028958464304
 11
483.63915866283651
 21
229.62274458464498
  0
ARC
  8
_0-2_躯体と製品
  6
CONTINUOUS
 62
    7
 10
486.41345866282643
 20
224.39059458459059
 40
4.5414450000013344
 50
137.05379999971314
 51
175.02121999885892
  0
ARC
  8
_0-2_躯体と製品
  6
CONTINUOUS
 62
    7
 10
481.90795866282713
 20
223.46122958460154
 40
1.323634999989078
 50
90.813542998856775
 51
157.04087000110979
  0
LINE
  8
_0-2_躯体と製品
  6
CONTINUOUS
 62
    7
 10
483.08915866284815
 20
227.48472958461178
 11
480.68915866285386
 21
227.48472958461178
  0
LINE
  8
_0-2_躯体と製品
  6
CONTINUOUS
 62
    7
 10
480.68915866285386
 20
230.01075958461996
 11
483.08915866284815
 21
230.71631458461314
  0
LINE
  8
_0-2_躯体と製品
  6
CONTINUOUS
 62
    7
 10
483.08915866284815
 20
230.71631458461314
 11
483.08915866284815
 21
229.94028958464304
  0
LINE
  8
_0-2_躯体と製品
  6
CONTINUOUS
 62
    7
 10
483.08915866284815
 20
229.94028958464304
 11
480.68915866285386
 21
229.23472958461178
  0
LINE
  8
_0-2_躯体と製品
  6
CONTINUOUS
 62
    7
 10
480.68915866285386
 20
229.23472958461178
 11
480.13915866283651
 21
228.91718958459359
  0
LINE
  8
_0-2_躯体と製品
  6
CONTINUOUS
 62
    7
 10
483.08915866284815
 20
229.30519958458876
 11
483.63915866283651
 21
229.62274458464498
  0
LINE
  8
_0-2_躯体と製品
  6
CONTINUOUS
 62
    7
 10
483.63915866283651
 20
229.62274458464498
 11
480.13915866283651
 21
228.91718958459359
  0
LINE
  8
_0-2_躯体と製品
  6
CONTINUOUS
 62
    7
 10
480.13915866283651
 20
228.91718958459359
 11
480.68915866285386
 21
228.59964458459547
  0
LINE
  8
_0-2_躯体と製品
  6
CONTINUOUS
 62
    7
 10
480.68915866285386
 20
228.59964458459547
 11
483.08915866284815
 21
229.30519958458876
  0
LINE
  8
_0-2_躯体と製品
  6
CONTINUOUS
 62
    7
 10
483.08915866284815
 20
229.30519958458876
 11
483.08915866284815
 21
228.52917458461854
  0
LINE
  8
_0-2_躯体と製品
  6
CONTINUOUS
 62
    7
 10
483.08915866284815
 20
228.52917458461854
 11
481.88915866283651
 21
227.85885458464298
  0
LINE
  8
_0-2_躯体と製品
  6
CONTINUOUS
 62
    7
 10
481.88915866283651
 20
227.85885458464298
 11
483.08915866284815
 21
227.89408958460234
  0
LINE
  8
_0-2_躯体と製品
  6
CONTINUOUS
 62
    7
 10
483.08915866284815
 20
227.89408958460234
 11
483.08915866284815
 21
223.97754958459677
  0
LINE
  8
_0-2_躯体と製品
  6
CONTINUOUS
 62
    7
 10
483.08915866284815
 20
223.97754958459677
 11
481.88915866283651
 21
223.28472958460014
  0
LINE
  8
_0-2_躯体と製品
  6
CONTINUOUS
 62
    7
 10
481.88915866283651
 20
224.81191458461365
 11
481.88915866283651
 21
223.28472958460014
  0
LINE
  8
_0-2_躯体と製品
  6
CONTINUOUS
 62
    7
 10
481.88915866283651
 20
223.28472958460014
 11
480.68915866285386
 21
223.97754958459677
  0
LINE
  8
_0-2_躯体と製品
  6
CONTINUOUS
 62
    7
 10
480.68915866285386
 20
223.97754958459677
 11
480.68915866285386
 21
230.01075958461996
  0
LINE
  8
_0-2_躯体と製品
  6
CONTINUOUS
 62
    7
 10
480.68915866285386
 20
230.01075958461996
 11
480.13915866283651
 21
230.32829958463816
  0
LINE
  8
_0-2_躯体と製品
  6
CONTINUOUS
 62
    7
 10
480.13915866283651
 20
230.32829958463816
 11
483.63915866283651
 21
231.03385458463134
  0
LINE
  8
_0-2_躯体と製品
  6
CONTINUOUS
 62
    7
 10
483.63915866283651
 20
231.03385458463134
 11
483.08915866284815
 21
231.35139958462946
  0
LINE
  8
_0-2_躯体と製品
  6
CONTINUOUS
 62
    7
 10
483.08915866284815
 20
231.35139958462946
 11
483.08915866284815
 21
232.12742458459945
  0
LINE
  8
_0-2_躯体と製品
  6
CONTINUOUS
 62
    7
 10
483.63915866283651
 20
232.44496458461765
 11
483.08915866284815
 21
232.12742458459945
  0
LINE
  8
_0-2_躯体と製品
  6
CONTINUOUS
 62
    7
 10
480.68915866285386
 20
232.05695458462259
 11
483.08915866284815
 21
232.76250958461577
  0
LINE
  8
_0-2_躯体と製品
  6
CONTINUOUS
 62
    7
 10
480.13915866283651
 20
231.73940958462458
 11
480.68915866285386
 21
232.05695458462259
  0
LINE
  8
_0-2_躯体と製品
  6
CONTINUOUS
 62
    7
 10
480.68915866285386
 20
232.05695458462259
 11
480.68915866285386
 21
232.83297958459269
  0
LINE
  8
_0-2_躯体と製品
  6
CONTINUOUS
 62
    7
 10
480.68915866285386
 20
231.42186958460638
 11
483.08915866284815
 21
232.12742458459945
  0
LINE
  8
_0-2_躯体と製品
  6
CONTINUOUS
 62
    7
 10
480.68915866285386
 20
231.42186958460638
 11
480.13915866283651
 21
231.73940958462458
  0
LINE
  8
_0-2_躯体と製品
  6
CONTINUOUS
 62
    7
 10
480.13915866283651
 20
231.73940958462458
 11
483.63915866283651
 21
232.44496458461765
  0
LINE
  8
_0-2_躯体と製品
  6
CONTINUOUS
 62
    7
 10
483.63915866283651
 20
232.44496458461765
 11
483.08915866284815
 21
232.76250958461577
  0
LINE
  8
_0-2_躯体と製品
  6
CONTINUOUS
 62
    7
 10
483.08915866284815
 20
232.76250958461577
 11
483.08915866284815
 21
233.48472958461178
  0
LINE
  8
_0-2_躯体と製品
  6
CONTINUOUS
 62
    7
 10
480.68915866285386
 20
233.46806458460895
 11
480.74584595159683
 21
233.48472958461178
  0
LINE
  8
_0-2_躯体と製品
  6
CONTINUOUS
 62
    7
 10
480.13915866283651
 20
233.15051958461089
 11
480.68915866285386
 21
233.46806458460895
  0
LINE
  8
_0-2_躯体と製品
  6
CONTINUOUS
 62
    7
 10
480.68915866285386
 20
233.46806458460895
 11
480.68915866285386
 21
233.48472958461178
  0
LINE
  8
_0-2_躯体と製品
  6
CONTINUOUS
 62
    7
 10
480.68915866285386
 20
232.83297958459269
 11
482.90613678652733
 21
233.48472958461178
  0
LINE
  8
_0-2_躯体と製品
  6
CONTINUOUS
 62
    7
 10
480.68915866285386
 20
232.83297958459269
 11
480.13915866283651
 21
233.15051958461089
  0
LINE
  8
_0-2_躯体と製品
  6
CONTINUOUS
 62
    7
 10
480.13915866283651
 20
233.15051958461089
 11
481.79705209426766
 21
233.48472958461178
  0
ARC
  8
_0-2_躯体と製品
  6
CONTINUOUS
 62
    7
 10
499.29215866291054
 20
234.49672958461696
 40
4.8190000000073141
 50
83.482558000338173
 51
131.88824500132031
  0
ARC
  8
_0-2_躯体と製品
  6
CONTINUOUS
 62
    7
 10
500.38615866283016
 20
234.49672958459661
 40
4.8190000000169189
 50
48.111749000574022
 51
96.517436998843209
  0
ARC
  8
_0-2_躯体と製品
  6
CONTINUOUS
 62
    7
 10
503.63915865236777
 20
236.48472959508038
 40
0.200000010480234
 50
270.00000600061099
 51
359.99999700096964
  0
LINE
  8
_0-2_躯体と製品
  6
CONTINUOUS
 62
    7
 10
503.83915866284804
 20
236.48472958461178
 11
503.83915866284804
 21
236.93372958463419
  0
LINE
  8
_0-2_躯体と製品
  6
CONTINUOUS
 62
    7
 10
503.83915866284804
 20
236.93372958463419
 11
503.60415866283302
 21
238.08472958464665
  0
LINE
  8
_0-2_躯体と製品
  6
CONTINUOUS
 62
    7
 10
503.60415866283302
 20
238.08472958464665
 11
499.83915866284804
 21
238.08472958464665
  0
LINE
  8
_0-2_躯体と製品
  6
CONTINUOUS
 62
    7
 10
499.83915866284804
 20
238.08472958464665
 11
496.07415866283407
 21
238.08472958464665
  0
LINE
  8
_0-2_躯体と製品
  6
CONTINUOUS
 62
    7
 10
496.07415866283407
 20
238.08472958464665
 11
495.83915866284804
 21
236.93372958463419
  0
LINE
  8
_0-2_躯体と製品
  6
CONTINUOUS
 62
    7
 10
495.83915866284804
 20
236.93372958463419
 11
495.83915866281905
 21
236.48472958461178
  0
ARC
  8
_0-2_躯体と製品
  6
CONTINUOUS
 62
    7
 10
496.03915866283359
 20
236.48472958461468
 40
0.200000000014552
 50
180.00000000083372
 51
270.00000300071417
  0
LINE
  8
_0-2_躯体と製品
  6
CONTINUOUS
 62
    7
 10
501.58915866284804
 20
231.03385458463134
 11
501.03915866285979
 21
230.71631458461314
  0
LINE
  8
_0-2_躯体と製品
  6
CONTINUOUS
 62
    7
 10
498.63915866286561
 20
230.64584458463617
 11
501.03915866285979
 21
231.35139958462946
  0
LINE
  8
_0-2_躯体と製品
  6
CONTINUOUS
 62
    7
 10
498.08915866284804
 20
230.32829958463816
 11
498.63915866286561
 21
230.64584458463617
  0
LINE
  8
_0-2_躯体と製品
  6
CONTINUOUS
 62
    7
 10
498.63915866286561
 20
230.64584458463617
 11
498.63915866286561
 21
231.42186958460638
  0
LINE
  8
_0-2_躯体と製品
  6
CONTINUOUS
 62
    7
 10
501.03915866285979
 20
228.52917458461854
 11
501.58915866284804
 21
228.21163458460035
  0
LINE
  8
_0-2_躯体と製品
  6
CONTINUOUS
 62
    7
 10
499.83915866284804
 20
227.85885458464298
 11
501.58915866284804
 21
228.21163458460035
  0
LINE
  8
_0-2_躯体と製品
  6
CONTINUOUS
 62
    7
 10
501.58915866284804
 20
228.21163458460035
 11
501.03915866285979
 21
227.89408958460234
  0
LINE
  8
_0-2_躯体と製品
  6
CONTINUOUS
 62
    7
 10
501.03915866285979
 20
229.94028958464304
 11
501.58915866284804
 21
229.62274458464498
  0
ARC
  8
_0-2_躯体と製品
  6
CONTINUOUS
 62
    7
 10
504.36345866283818
 20
224.39059458459059
 40
4.5414450000013344
 50
137.05379999971314
 51
175.02121999885892
  0
ARC
  8
_0-2_躯体と製品
  6
CONTINUOUS
 62
    7
 10
499.85795866283877
 20
223.46122958460154
 40
1.323634999989078
 50
90.813542998856775
 51
157.04087000110979
  0
LINE
  8
_0-2_躯体と製品
  6
CONTINUOUS
 62
    7
 10
501.03915866285979
 20
227.48472958461178
 11
498.63915866286561
 21
227.48472958461178
  0
LINE
  8
_0-2_躯体と製品
  6
CONTINUOUS
 62
    7
 10
498.63915866286561
 20
230.01075958461996
 11
501.03915866285979
 21
230.71631458461314
  0
LINE
  8
_0-2_躯体と製品
  6
CONTINUOUS
 62
    7
 10
501.03915866285979
 20
230.71631458461314
 11
501.03915866285979
 21
229.94028958464304
  0
LINE
  8
_0-2_躯体と製品
  6
CONTINUOUS
 62
    7
 10
501.03915866285979
 20
229.94028958464304
 11
498.63915866286561
 21
229.23472958461178
  0
LINE
  8
_0-2_躯体と製品
  6
CONTINUOUS
 62
    7
 10
498.63915866286561
 20
229.23472958461178
 11
498.08915866284804
 21
228.91718958459359
  0
LINE
  8
_0-2_躯体と製品
  6
CONTINUOUS
 62
    7
 10
501.03915866285979
 20
229.30519958458876
 11
501.58915866284804
 21
229.62274458464498
  0
LINE
  8
_0-2_躯体と製品
  6
CONTINUOUS
 62
    7
 10
501.58915866284804
 20
229.62274458464498
 11
498.08915866284804
 21
228.91718958459359
  0
LINE
  8
_0-2_躯体と製品
  6
CONTINUOUS
 62
    7
 10
498.08915866284804
 20
228.91718958459359
 11
498.63915866286561
 21
228.59964458459547
  0
LINE
  8
_0-2_躯体と製品
  6
CONTINUOUS
 62
    7
 10
498.63915866286561
 20
228.59964458459547
 11
501.03915866285979
 21
229.30519958458876
  0
LINE
  8
_0-2_躯体と製品
  6
CONTINUOUS
 62
    7
 10
501.03915866285979
 20
229.30519958458876
 11
501.03915866285979
 21
228.52917458461854
  0
LINE
  8
_0-2_躯体と製品
  6
CONTINUOUS
 62
    7
 10
501.03915866285979
 20
228.52917458461854
 11
499.83915866284804
 21
227.85885458464298
  0
LINE
  8
_0-2_躯体と製品
  6
CONTINUOUS
 62
    7
 10
499.83915866284804
 20
227.85885458464298
 11
501.03915866285979
 21
227.89408958460234
  0
LINE
  8
_0-2_躯体と製品
  6
CONTINUOUS
 62
    7
 10
501.03915866285979
 20
227.89408958460234
 11
501.03915866285979
 21
223.97754958459677
  0
LINE
  8
_0-2_躯体と製品
  6
CONTINUOUS
 62
    7
 10
501.03915866285979
 20
223.97754958459677
 11
499.83915866284804
 21
223.28472958460014
  0
LINE
  8
_0-2_躯体と製品
  6
CONTINUOUS
 62
    7
 10
499.83915866284804
 20
224.81191458461365
 11
499.83915866284804
 21
223.28472958460014
  0
LINE
  8
_0-2_躯体と製品
  6
CONTINUOUS
 62
    7
 10
499.83915866284804
 20
223.28472958460014
 11
498.63915866286561
 21
223.97754958459677
  0
LINE
  8
_0-2_躯体と製品
  6
CONTINUOUS
 62
    7
 10
498.63915866286561
 20
223.97754958459677
 11
498.63915866286561
 21
230.01075958461996
  0
LINE
  8
_0-2_躯体と製品
  6
CONTINUOUS
 62
    7
 10
498.63915866286561
 20
230.01075958461996
 11
498.08915866284804
 21
230.32829958463816
  0
LINE
  8
_0-2_躯体と製品
  6
CONTINUOUS
 62
    7
 10
498.08915866284804
 20
230.32829958463816
 11
501.58915866284804
 21
231.03385458463134
  0
LINE
  8
_0-2_躯体と製品
  6
CONTINUOUS
 62
    7
 10
501.58915866284804
 20
231.03385458463134
 11
501.03915866285979
 21
231.35139958462946
  0
LINE
  8
_0-2_躯体と製品
  6
CONTINUOUS
 62
    7
 10
501.03915866285979
 20
231.35139958462946
 11
501.03915866285979
 21
232.12742458459945
  0
LINE
  8
_0-2_躯体と製品
  6
CONTINUOUS
 62
    7
 10
501.58915866284804
 20
232.44496458461765
 11
501.03915866285979
 21
232.12742458459945
  0
LINE
  8
_0-2_躯体と製品
  6
CONTINUOUS
 62
    7
 10
498.63915866286561
 20
232.05695458462259
 11
501.03915866285979
 21
232.76250958461577
  0
LINE
  8
_0-2_躯体と製品
  6
CONTINUOUS
 62
    7
 10
498.08915866284804
 20
231.73940958462458
 11
498.63915866286561
 21
232.05695458462259
  0
LINE
  8
_0-2_躯体と製品
  6
CONTINUOUS
 62
    7
 10
498.63915866286561
 20
232.05695458462259
 11
498.63915866286561
 21
232.83297958459269
  0
LINE
  8
_0-2_躯体と製品
  6
CONTINUOUS
 62
    7
 10
498.63915866286561
 20
231.42186958460638
 11
501.03915866285979
 21
232.12742458459945
  0
LINE
  8
_0-2_躯体と製品
  6
CONTINUOUS
 62
    7
 10
498.63915866286561
 20
231.42186958460638
 11
498.08915866284804
 21
231.73940958462458
  0
LINE
  8
_0-2_躯体と製品
  6
CONTINUOUS
 62
    7
 10
498.08915866284804
 20
231.73940958462458
 11
501.58915866284804
 21
232.44496458461765
  0
LINE
  8
_0-2_躯体と製品
  6
CONTINUOUS
 62
    7
 10
501.58915866284804
 20
232.44496458461765
 11
501.03915866285979
 21
232.76250958461577
  0
LINE
  8
_0-2_躯体と製品
  6
CONTINUOUS
 62
    7
 10
501.03915866285979
 20
232.76250958461577
 11
501.03915866285979
 21
233.48472958461178
  0
LINE
  8
_0-2_躯体と製品
  6
CONTINUOUS
 62
    7
 10
498.63915866286561
 20
233.46806458460895
 11
498.69584595160859
 21
233.48472958461178
  0
LINE
  8
_0-2_躯体と製品
  6
CONTINUOUS
 62
    7
 10
498.08915866284804
 20
233.15051958461089
 11
498.63915866286561
 21
233.46806458460895
  0
LINE
  8
_0-2_躯体と製品
  6
CONTINUOUS
 62
    7
 10
498.63915866286561
 20
233.46806458460895
 11
498.63915866286561
 21
233.48472958461178
  0
LINE
  8
_0-2_躯体と製品
  6
CONTINUOUS
 62
    7
 10
498.63915866286561
 20
232.83297958459269
 11
500.85613678653897
 21
233.48472958461178
  0
LINE
  8
_0-2_躯体と製品
  6
CONTINUOUS
 62
    7
 10
498.63915866286561
 20
232.83297958459269
 11
498.08915866284804
 21
233.15051958461089
  0
LINE
  8
_0-2_躯体と製品
  6
CONTINUOUS
 62
    7
 10
498.08915866284804
 20
233.15051958461089
 11
499.7470520942793
 21
233.48472958461178
  0
LINE
  8
_0-1_文字-記号
  6
CONTINUOUS
 62
    7
 10
424.5040416122697
 20
252.87997592884278
 11
439.89509646877082
 21
290.83724228899786
  0
LINE
  8
_0-1_文字-記号
  6
CONTINUOUS
 62
    7
 10
439.89509646877082
 20
290.83724228899786
 11
458.9649081043051
 21
290.83724228899786
  0
TEXT
  8
_0-1_文字-記号
 62
    7
 10
461.69598103454575
 20
286.61286587054786
 40
10
 41
0.8
 50
0
  1
デッキ材
  0
LINE
  8
_0-1_文字-記号
  6
CONTINUOUS
 62
    7
 10
510.88915866283651
 20
211.61460846436938
 11
517.97502800000666
 21
223.88769417216798
  0
LINE
  8
_0-1_文字-記号
  6
CONTINUOUS
 62
    7
 10
517.97502800000666
 20
223.88769417216798
 11
537.04483963554082
 21
223.88769417216798
  0
TEXT
  8
_0-1_文字-記号
 62
    7
 10
539.77591256578171
 20
218.37201802375756
 40
10
 41
0.8
 50
0
  1
根太鋼
  0
ARC
  8
_0-2_躯体と製品
  6
CONTINUOUS
 62
    7
 10
28.178245403599817
 20
234.49672958466346
 40
4.8190000000073141
 50
83.482558000338173
 51
131.88824500132031
  0
ARC
  8
_0-2_躯体と製品
  6
CONTINUOUS
 62
    7
 10
29.272245403519491
 20
234.49672958464322
 40
4.8190000000167865
 50
48.111749000573532
 51
96.517436998842712
  0
ARC
  8
_0-2_躯体と製品
  6
CONTINUOUS
 62
    7
 10
32.525245393057162
 20
236.48472959512694
 40
0.2000000104802908
 50
270.00000600059468
 51
359.99999700095339
  0
LINE
  8
_0-2_躯体と製品
  6
CONTINUOUS
 62
    7
 10
32.725245403537429
 20
236.48472958465828
 11
32.725245403537429
 21
236.93372958468069
  0
LINE
  8
_0-2_躯体と製品
  6
CONTINUOUS
 62
    7
 10
32.725245403537429
 20
236.93372958468069
 11
32.490245403522295
 21
238.08472958469315
  0
LINE
  8
_0-2_躯体と製品
  6
CONTINUOUS
 62
    7
 10
32.490245403522295
 20
238.08472958469315
 11
28.725245403537429
 21
238.08472958469315
  0
LINE
  8
_0-2_躯体と製品
  6
CONTINUOUS
 62
    7
 10
28.725245403537429
 20
238.08472958469315
 11
24.960245403523459
 21
238.08472958469315
  0
LINE
  8
_0-2_躯体と製品
  6
CONTINUOUS
 62
    7
 10
24.960245403523459
 20
238.08472958469315
 11
24.725245403537429
 21
236.93372958468069
  0
LINE
  8
_0-2_躯体と製品
  6
CONTINUOUS
 62
    7
 10
24.725245403537429
 20
236.93372958468069
 11
24.725245403508325
 21
236.48472958465828
  0
ARC
  8
_0-2_躯体と製品
  6
CONTINUOUS
 62
    7
 10
24.925245403522865
 20
236.48472958466118
 40
0.200000000014552
 50
180.00000000083372
 51
270.00000300071417
  0
LINE
  8
_0-5_中心線
  6
CENTER1
 62
    7
 10
28.725245403537429
 20
223.51004319807078
 11
28.725245403537429
 21
239.96074698801635
  0
ARC
  8
_0-2_躯体と製品
  6
CONTINUOUS
 62
    7
 10
178.17829240359987
 20
234.49672958466331
 40
4.8190000000074464
 50
83.48255800033769
 51
131.88824500131983
  0
ARC
  8
_0-2_躯体と製品
  6
CONTINUOUS
 62
    7
 10
179.27229240351949
 20
234.49672958464322
 40
4.8190000000167865
 50
48.111749000573532
 51
96.517436998842712
  0
ARC
  8
_0-2_躯体と製品
  6
CONTINUOUS
 62
    7
 10
182.52529239305716
 20
236.48472959512696
 40
0.2000000104803192
 50
270.00000600058655
 51
359.9999970009452
  0
LINE
  8
_0-2_躯体と製品
  6
CONTINUOUS
 62
    7
 10
182.72529240353748
 20
236.48472958465828
 11
182.72529240353748
 21
236.93372958468069
  0
LINE
  8
_0-2_躯体と製品
  6
CONTINUOUS
 62
    7
 10
182.72529240353748
 20
236.93372958468069
 11
182.49029240352235
 21
238.08472958469315
  0
LINE
  8
_0-2_躯体と製品
  6
CONTINUOUS
 62
    7
 10
182.49029240352235
 20
238.08472958469315
 11
178.72529240353748
 21
238.08472958469315
  0
LINE
  8
_0-2_躯体と製品
  6
CONTINUOUS
 62
    7
 10
178.72529240353748
 20
238.08472958469315
 11
174.96029240352345
 21
238.08472958469315
  0
LINE
  8
_0-2_躯体と製品
  6
CONTINUOUS
 62
    7
 10
174.96029240352345
 20
238.08472958469315
 11
174.72529240353748
 21
236.93372958468069
  0
LINE
  8
_0-2_躯体と製品
  6
CONTINUOUS
 62
    7
 10
174.72529240353748
 20
236.93372958468069
 11
174.72529240350838
 21
236.48472958465828
  0
ARC
  8
_0-2_躯体と製品
  6
CONTINUOUS
 62
    7
 10
174.92529240352292
 20
236.48472958466115
 40
0.2000000000145236
 50
180.00000000082557
 51
270.00000300070604
  0
LINE
  8
_0-5_中心線
  6
CENTER1
 62
    7
 10
178.72529240353748
 20
223.51004319807078
 11
178.72529240353748
 21
239.96074698801635
  0
TEXT
  8
_0-1_文字-記号
 62
    7
 10
425.00500686410885
 20
151.89837611710647
 40
10
 41
0.8
 50
0
  1
支持脚
  0
LINE
  8
_0-1_文字-記号
  6
CONTINUOUS
 62
    7
 10
423.29422586714213
 20
149.34430611710675
 11
484.8891304955647
 21
149.34430611710675
  0
TEXT
  8
_0-1_文字-記号
 62
    7
 10
27.841228772087106
 20
151.89832929736647
 40
10
 41
0.8
 50
0
  1
支持脚
  0
LINE
  8
_0-1_文字-記号
  6
CONTINUOUS
 62
    7
 10
26.130447775120501
 20
149.34425929736676
 11
87.725352403542956
 21
149.34425929736676
  0
ARC
  8
_0-2_躯体と製品
  6
CONTINUOUS
 62
    7
 10
499.10115866283655
 20
182.33269954476944
 40
4.2479999999885099
 50
229.88008100003213
 51
310.13022700097196
  0
LINE
  8
_0-2_躯体と製品
  6
CONTINUOUS
 62
    7
 10
496.36415866282778
 20
182.08469958465108
 11
496.36415866282778
 21
179.08369954476947
  0
LINE
  8
_0-2_躯体と製品
  6
CONTINUOUS
 62
    7
 10
501.8391586628336
 20
179.08469954475876
 11
501.8391586628336
 21
182.08469958465108
  0
LINE
  8
_0-2_躯体と製品
  6
CONTINUOUS
 62
    7
 10
485.41415866284513
 20
182.08469958465108
 11
485.41415866284513
 21
179.08369954476947
  0
LINE
  8
_0-2_躯体と製品
  6
CONTINUOUS
 62
    7
 10
479.93915866283942
 20
179.08469954475876
 11
479.93915866283942
 21
182.08469958465108
  0
ARC
  8
_0-2_躯体と製品
  6
CONTINUOUS
 62
    7
 10
482.67715866289603
 20
182.33269954479468
 40
4.2480000000068125
 50
229.86976699898469
 51
310.11991299939001
  0
ARC
  8
_0-2_躯体と製品
  6
CONTINUOUS
 62
    7
 10
490.88815866280993
 20
193.57769954478536
 40
15.492999999999389
 50
249.30977300096885
 51
290.6984469997268
  0
LINE
  8
_0-2_躯体と製品
  6
CONTINUOUS
 62
    7
 10
482.67615866283313
 20
178.08469954475876
 11
499.1001586628322
 21
178.08469954475876
  0
LINE
  8
_0-2_躯体と製品
  6
CONTINUOUS
 62
    4
 10
-46.274754596462458
 20
235.08472958464665
 11
19.725199403537374
 21
235.08472958464665
  0
LINE
  8
_0-2_躯体と製品
  6
CONTINUOUS
 62
    7
 10
18.932352403537493
 20
243.08472958464665
 11
21.225245403537429
 21
243.08472958464665
  0
LINE
  8
_0-2_躯体と製品
  6
CONTINUOUS
 62
    7
 10
168.93239940353749
 20
243.08472958464665
 11
171.22529240353748
 21
243.08472958464665
  0
ARC
  8
_0-2_躯体と製品
  6
CONTINUOUS
 62
    4
 10
88.975251903537469
 20
242.58456158464668
 40
2
 50
180
 51
270
  0
LINE
  8
_0-2_躯体と製品
  6
CONTINUOUS
 62
    4
 10
118.47691290353748
 20
240.58473358464664
 11
88.975251903537469
 21
240.58457258464665
  0
LINE
  8
_0-2_躯体と製品
  6
CONTINUOUS
 62
    4
 10
118.47523890353744
 20
258.88473458464665
 11
88.975251903537469
 21
258.88448958464664
  0
ARC
  8
_0-2_躯体と製品
  6
CONTINUOUS
 62
    4
 10
88.975251903537469
 20
256.88447258464669
 40
2
 50
90
 51
180
  0
LINE
  8
_0-2_躯体と製品
  6
CONTINUOUS
 62
    4
 10
86.975251903537469
 20
242.58456158464668
 11
86.975251903537469
 21
256.88447258464669
  0
ARC
  8
_0-2_躯体と製品
  6
CONTINUOUS
 62
    4
 10
118.47523890353744
 20
242.58456158464668
 40
2
 50
270
 51
0
  0
ARC
  8
_0-2_躯体と製品
  6
CONTINUOUS
 62
    4
 10
118.47523890353744
 20
256.88447258464669
 40
2
 50
0.000000000000007
 51
90.000000000000014
  0
LINE
  8
_0-2_躯体と製品
  6
CONTINUOUS
 62
    4
 10
120.47523890353744
 20
242.58456158464668
 11
120.47523890353744
 21
256.88447258464669
  0
ARC
  8
_0-2_躯体と製品
  6
CONTINUOUS
 62
    4
 10
126.22525190353747
 20
242.58456158464668
 40
2
 50
180
 51
270
  0
LINE
  8
_0-2_躯体と製品
  6
CONTINUOUS
 62
    4
 10
155.72691290353748
 20
240.58473358464664
 11
126.22525190353747
 21
240.58457258464665
  0
LINE
  8
_0-2_躯体と製品
  6
CONTINUOUS
 62
    4
 10
155.72523890353744
 20
258.88473458464665
 11
126.22525190353747
 21
258.88448958464664
  0
ARC
  8
_0-2_躯体と製品
  6
CONTINUOUS
 62
    4
 10
126.22525190353747
 20
256.88447258464669
 40
2
 50
90
 51
180
  0
LINE
  8
_0-2_躯体と製品
  6
CONTINUOUS
 62
    4
 10
124.22525190353747
 20
242.58456158464668
 11
124.22525190353747
 21
256.88447258464669
  0
ARC
  8
_0-2_躯体と製品
  6
CONTINUOUS
 62
    4
 10
155.72523890353756
 20
242.58456158464668
 40
2
 50
270
 51
0
  0
ARC
  8
_0-2_躯体と製品
  6
CONTINUOUS
 62
    4
 10
155.72523890353756
 20
256.88447258464669
 40
2
 50
0.000000000000007
 51
90.000000000000014
  0
LINE
  8
_0-2_躯体と製品
  6
CONTINUOUS
 62
    4
 10
157.72523890353756
 20
242.58456158464668
 11
157.72523890353756
 21
256.88447258464669
  0
ARC
  8
_0-2_躯体と製品
  6
CONTINUOUS
 62
    4
 10
51.725251903537469
 20
242.58456158464668
 40
2
 50
180
 51
270
  0
LINE
  8
_0-2_躯体と製品
  6
CONTINUOUS
 62
    4
 10
81.226912903537368
 20
240.58473358464664
 11
51.725251903537469
 21
240.58457258464665
  0
LINE
  8
_0-2_躯体と製品
  6
CONTINUOUS
 62
    4
 10
81.225238903537445
 20
258.88473458464665
 11
51.725251903537469
 21
258.88448958464664
  0
ARC
  8
_0-2_躯体と製品
  6
CONTINUOUS
 62
    4
 10
51.725251903537469
 20
256.88447258464669
 40
2
 50
90
 51
180
  0
LINE
  8
_0-2_躯体と製品
  6
CONTINUOUS
 62
    4
 10
49.725251903537469
 20
242.58456158464668
 11
49.725251903537469
 21
256.88447258464669
  0
ARC
  8
_0-2_躯体と製品
  6
CONTINUOUS
 62
    4
 10
81.225238903537445
 20
242.58456158464668
 40
2
 50
270
 51
0
  0
ARC
  8
_0-2_躯体と製品
  6
CONTINUOUS
 62
    4
 10
81.225238903537445
 20
256.88447258464669
 40
2
 50
0.000000000000007
 51
90.000000000000014
  0
LINE
  8
_0-2_躯体と製品
  6
CONTINUOUS
 62
    4
 10
83.225238903537445
 20
242.58456158464668
 11
83.225238903537445
 21
256.88447258464669
  0
ARC
  8
_0-2_躯体と製品
  6
CONTINUOUS
 62
    4
 10
238.97525190353747
 20
242.58456158464668
 40
2
 50
180
 51
270
  0
LINE
  8
_0-2_躯体と製品
  6
CONTINUOUS
 62
    4
 10
253.72524540353737
 20
240.58465308007885
 11
238.97525190353747
 21
240.58457258464665
  0
LINE
  8
_0-2_躯体と製品
  6
CONTINUOUS
 62
    4
 10
253.72524540353737
 20
258.88461208464668
 11
238.97525190353747
 21
258.88448958464664
  0
ARC
  8
_0-2_躯体と製品
  6
CONTINUOUS
 62
    4
 10
238.97525190353747
 20
256.88447258464669
 40
2
 50
90
 51
180
  0
LINE
  8
_0-2_躯体と製品
  6
CONTINUOUS
 62
    4
 10
236.97525190353736
 20
242.58456158464668
 11
236.97525190353736
 21
256.88447258464669
  0
ARC
  8
_0-2_躯体と製品
  6
CONTINUOUS
 62
    4
 10
201.72525190353736
 20
242.58456158464668
 40
2
 50
180
 51
270
  0
LINE
  8
_0-2_躯体と製品
  6
CONTINUOUS
 62
    4
 10
231.22691290353737
 20
240.58473358464664
 11
201.72525190353736
 21
240.58457258464665
  0
LINE
  8
_0-2_躯体と製品
  6
CONTINUOUS
 62
    4
 10
231.22523890353739
 20
258.88473458464665
 11
201.72525190353736
 21
258.88448958464664
  0
ARC
  8
_0-2_躯体と製品
  6
CONTINUOUS
 62
    4
 10
201.72525190353736
 20
256.88447258464669
 40
2
 50
90
 51
180
  0
LINE
  8
_0-2_躯体と製品
  6
CONTINUOUS
 62
    4
 10
199.72525190353747
 20
242.58456158464668
 11
199.72525190353747
 21
256.88447258464669
  0
ARC
  8
_0-2_躯体と製品
  6
CONTINUOUS
 62
    4
 10
231.22523890353744
 20
242.58456158464668
 40
2
 50
270
 51
0
  0
ARC
  8
_0-2_躯体と製品
  6
CONTINUOUS
 62
    4
 10
231.22523890353744
 20
256.88447258464669
 40
2
 50
0.000000000000007
 51
90.000000000000014
  0
LINE
  8
_0-2_躯体と製品
  6
CONTINUOUS
 62
    4
 10
233.22523890353744
 20
242.58456158464668
 11
233.22523890353744
 21
256.88447258464669
  0
LINE
  8
_0-2_躯体と製品
  6
CONTINUOUS
 62
    4
 10
-31.523087096462632
 20
240.58473358464664
 11
-46.274754596462458
 21
240.58465773811037
  0
LINE
  8
_0-2_躯体と製品
  6
CONTINUOUS
 62
    4
 10
-31.524761096462498
 20
258.88473458464665
 11
-46.274754596462458
 21
258.88461917331125
  0
ARC
  8
_0-2_躯体と製品
  6
CONTINUOUS
 62
    4
 10
-31.524761096462498
 20
242.58456158464668
 40
2
 50
270
 51
0
  0
ARC
  8
_0-2_躯体と製品
  6
CONTINUOUS
 62
    4
 10
-31.524761096462498
 20
256.88447258464669
 40
2
 50
0.000000000000007
 51
90.000000000000014
  0
LINE
  8
_0-2_躯体と製品
  6
CONTINUOUS
 62
    4
 10
-29.524761096462498
 20
242.58456158464668
 11
-29.524761096462498
 21
256.88447258464669
  0
ARC
  8
_0-2_躯体と製品
  6
CONTINUOUS
 62
    4
 10
-23.774748096462531
 20
242.58456158464668
 40
2
 50
180
 51
270
  0
LINE
  8
_0-2_躯体と製品
  6
CONTINUOUS
 62
    4
 10
5.7269129035374817
 20
240.58473358464664
 11
-23.774748096462531
 21
240.58457258464665
  0
LINE
  8
_0-2_躯体と製品
  6
CONTINUOUS
 62
    4
 10
5.7252389035375018
 20
258.88473458464665
 11
-23.774748096462531
 21
258.88448958464664
  0
ARC
  8
_0-2_躯体と製品
  6
CONTINUOUS
 62
    4
 10
-23.774748096462531
 20
256.88447258464669
 40
2
 50
90
 51
180
  0
LINE
  8
_0-2_躯体と製品
  6
CONTINUOUS
 62
    4
 10
-25.774748096462531
 20
242.58456158464668
 11
-25.774748096462531
 21
256.88447258464669
  0
ARC
  8
_0-2_躯体と製品
  6
CONTINUOUS
 62
    4
 10
5.7252389035375586
 20
242.58456158464668
 40
2
 50
270
 51
0
  0
ARC
  8
_0-2_躯体と製品
  6
CONTINUOUS
 62
    4
 10
5.7252389035375586
 20
256.88447258464669
 40
2
 50
0.000000000000007
 51
90.000000000000014
  0
LINE
  8
_0-2_躯体と製品
  6
CONTINUOUS
 62
    4
 10
7.7252389035375586
 20
242.58456158464668
 11
7.7252389035375586
 21
256.88447258464669
  0
LINE
  8
_0-2_躯体と製品
  6
CONTINUOUS
 62
    7
 10
93.725352403537443
 20
182.08469958464667
 11
93.725352403536192
 21
179.08469958464846
  0
LINE
  8
_0-2_躯体と製品
  6
CONTINUOUS
 62
    7
 10
102.72153180646745
 20
179.08469958464806
 11
102.72153180647069
 21
182.08469958464667
  0
LINE
  8
_0-2_躯体と製品
  6
CONTINUOUS
 62
    7
 10
84.72917300060476
 20
179.08469958464846
 11
84.729173000607943
 21
182.08469958464667
  0
LINE
  8
_0-2_躯体と製品
  6
CONTINUOUS
 62
    7
 10
89.227262702071357
 20
178.08469958464667
 11
98.223442105002789
 21
178.08469958464667
  0
ARC
  8
_0-2_躯体と製品
  6
CONTINUOUS
 62
    7
 10
89.227262702071357
 20
188.70110506584416
 40
10.61640548119736
 50
244.93207904395808
 51
295.06792095604197
  0
ARC
  8
_0-2_躯体と製品
  6
CONTINUOUS
 62
    7
 10
98.223442105002789
 20
188.70110506584416
 40
10.61640548119736
 50
244.93207904395808
 51
295.06792095604197
  0
TEXT
  8
_0-1_文字-記号
 62
    7
 10
-56.908163265306086
 20
367.59183673469386
 40
12
 41
1
 50
0
  1
サニーデッキAW　　ｔ30×ｗ145
  0
TEXT
  8
_0-1_文字-記号
 62
    7
 10
49.678331630460491
 20
339.66659091583608
 40
12
 41
1
 50
0
  1
基本ピッチ：支持脚 ９００×根太鋼 ５００
  0
ENDSEC
  0
EOF
