  0
SECTION
  2
HEADER
  9
$ACADVER
  1
AC1009
  9
$INSBASE
 10
0
 20
0
 30
0
  9
$EXTMIN
 10
0
 20
0
  9
$EXTMAX
 10
841
 20
594
  9
$LIMMIN
 10
0
 20
0
  9
$LIMMAX
 10
841
 20
594
  9
$LTSCALE
 40
1
  0
ENDSEC
  0
SECTION
  2
TABLES
  0
TABLE
  2
LTYPE
 70
     9
  0
LTYPE
  2
CONTINUOUS
 70
    64
  3
実線
 72
    65
 73
     0
 40
0.0
  0
LTYPE
  2
DASHED1
 70
    64
  3
--  --  --  --  --  --  --  --  
 72
    65
 73
     2
 40
2.5
 49
1.25
 49
-1.25
  0
LTYPE
  2
DASHED2
 70
    64
  3
----    ----    ----    ----    
 72
    65
 73
     2
 40
5.0
 49
2.5
 49
-2.5
  0
LTYPE
  2
DASHED3
 70
    64
  3
------  ------  ------  ------  
 72
    65
 73
     2
 40
5.0
 49
3.75
 49
-1.25
  0
LTYPE
  2
CENTER1
 70
    64
  3
----- - ----- - ----- - ----- - 
 72
    65
 73
     4
 40
10.0
 49
6.25
 49
-1.25
 49
1.25
 49
-1.25
  0
LTYPE
  2
CENTER2
 70
    64
  3
----------  --  ----------  --  
 72
    65
 73
     4
 40
20.0
 49
12.5
 49
-2.5
 49
2.5
 49
-2.5
  0
LTYPE
  2
PHANTOM1
 70
    64
  3
--- - - --- - - --- - - --- - - 
 72
    65
 73
     6
 40
10.0
 49
3.25
 49
-1.25
 49
1.25
 49
-1.25
 49
1.25
 49
-1.25
  0
LTYPE
  2
PHANTOM2
 70
    64
  3
--------  -  -  --------  -  -  
 72
    65
 73
     6
 40
20.0
 49
10.0
 49
-2.5
 49
1.25
 49
-2.5
 49
1.25
 49
-2.5
  0
LTYPE
  2
DOT
 70
    64
  3
-   -   -   -   -   -   -   -   
 72
    65
 73
     2
 40
2.5
 49
0.625
 49
-1.875
  0
LTYPE
  2
DUMMY
 70
    64
  3
ダミー
 72
    65
 73
     0
 40
0.0
  0
LTYPE
  2
RAND1
 70
    64
  3
ランダム線1
 72
    65
 73
     4
 40
10.0
 49
1.0
 49
-2.0
 49
3.0
 49
-4.0
  0
LTYPE
  2
RAND2
 70
    64
  3
ランダム線2
 72
    65
 73
     4
 40
14.0
 49
2.0
 49
-3.0
 49
4.0
 49
-5.0
  0
LTYPE
  2
RAND3
 70
    64
  3
ランダム線3
 72
    65
 73
     4
 40
18.0
 49
3.0
 49
-4.0
 49
5.0
 49
-6.0
  0
LTYPE
  2
RAND4
 70
    64
  3
ランダム線4
 72
    65
 73
     4
 40
22.0
 49
4.0
 49
-5.0
 49
6.0
 49
-7.0
  0
LTYPE
  2
RAND5
 70
    64
  3
ランダム線5
 72
    65
 73
     4
 40
26.0
 49
5.0
 49
-6.0
 49
7.0
 49
-8.0
  0
LTYPE
  2
LONG1
 70
    64
  3
----------  --  ----------  --  
 72
    65
 73
     4
 40
40.0
 49
32.5
 49
-2.5
 49
2.5
 49
-2.5
  0
LTYPE
  2
LONG2
 70
    64
  3
--------  -  -  --------  -  -  
 72
    65
 73
     6
 40
40.0
 49
30.0
 49
-2.5
 49
1.25
 49
-2.5
 49
1.25
 49
-2.5
  0
LTYPE
  2
LONG3
 70
    64
  3
+++++++++++++++..+++++++++++++++
 72
    65
 73
     2
 40
40.0
 49
37.5
 49
-2.5
  0
LTYPE
  2
LONG4
 70
    64
  3
+++++++++++++++..+++++++++++++++
 72
    65
 73
     2
 40
80.0
 49
75.0
 49
-5.0
  0
LTYPE
  2
LONG5
 70
    64
  3
----------  --  ----------  --  
 72
    65
 73
     4
 40
60.0
 49
37.5
 49
-7.5
 49
7.5
 49
-7.5
  0
LTYPE
  2
dashed
 70
   64
  3
-------   -------------   ------
 72
   65
 73
    2
 40
7.5
 49
6
 49
-1.5
  0
LTYPE
  2
dashed_spaced
 70
   64
  3
----        --------        ----
 72
   65
 73
    2
 40
12
 49
6
 49
-6
  0
LTYPE
  2
long_dashed_dotted
 70
   64
  3
------------- --- --------------
 72
   65
 73
    4
 40
15.25
 49
12
 49
-1.5
 49
0.25
 49
-1.5
  0
LTYPE
  2
long_dashed_double-dotted
 70
   64
  3
----------- --- --- ------------
 72
   65
 73
    6
 40
17
 49
12
 49
-1.5
 49
0.25
 49
-1.5
 49
0.25
 49
-1.5
  0
LTYPE
  2
long_dashed_triplicate-dotted
 70
   64
  3
--------- --- --- --- ----------
 72
   65
 73
    8
 40
18.75
 49
12
 49
-1.5
 49
0.25
 49
-1.5
 49
0.25
 49
-1.5
 49
0.25
 49
-1.5
  0
LTYPE
  2
dotted
 70
   64
  3
   -       -       -       -    
 72
   65
 73
    2
 40
1.75
 49
0.25
 49
-1.5
  0
LTYPE
  2
chain
 70
   64
  3
-------------- -- --------------
 72
   65
 73
    4
 40
18.5
 49
12
 49
-1.5
 49
3.5
 49
-1.5
  0
LTYPE
  2
chain_double_dash
 70
   64
  3
------------ -- -- -------------
 72
   65
 73
    6
 40
23.5
 49
12
 49
-1.5
 49
3.5
 49
-1.5
 49
3.5
 49
-1.5
  0
LTYPE
  2
dashed_dotted
 70
   64
  3
-----------     -     ----------
 72
   65
 73
    4
 40
9.25
 49
6
 49
-1.5
 49
0.25
 49
-1.5
  0
LTYPE
  2
double-dashed_dotted
 70
   64
  3
------   -----------   -   -----
 72
   65
 73
    6
 40
16.75
 49
6
 49
-1.5
 49
6
 49
-1.5
 49
0.25
 49
-1.5
  0
LTYPE
  2
dashed_double-dotted
 70
   64
  3
---------    -    -    ---------
 72
   65
 73
    6
 40
11
 49
6
 49
-1.5
 49
0.25
 49
-1.5
 49
0.25
 49
-1.5
  0
LTYPE
  2
double-dashed_double-dotted
 70
   64
  3
-----   ---------   -   -   ----
 72
   65
 73
    8
 40
18.5
 49
6
 49
-1.5
 49
6
 49
-1.5
 49
0.25
 49
-1.5
 49
0.25
 49
-1.5
  0
LTYPE
  2
dashed_triplicate-dotted
 70
   64
  3
-------    -    -    -    ------
 72
   65
 73
    8
 40
12.75
 49
6
 49
-1.5
 49
0.25
 49
-1.5
 49
0.25
 49
-1.5
 49
0.25
 49
-1.5
  0
LTYPE
  2
double-dashed_triplicate-dotted
 70
   64
  3
-----  ---------  -  -  -  -----
 72
   65
 73
   10
 40
20.25
 49
6
 49
-1.5
 49
6
 49
-1.5
 49
0.25
 49
-1.5
 49
0.25
 49
-1.5
 49
0.25
 49
-1.5
  0
LTYPE
  2
undefined
 70
   64
  3
--------------------------------
 72
   65
 73
    0
 40
0
  0
LTYPE
  2
_
 70
   64
  3
                                
 72
   65
 73
    0
 40
0
  0
LTYPE
  2
__18
 70
   64
  3
                                
 72
   65
 73
    0
 40
0
  0
LTYPE
  2
__19
 70
   64
  3
                                
 72
   65
 73
    0
 40
0
  0
LTYPE
  2
__20
 70
   64
  3
                                
 72
   65
 73
    0
 40
0
  0
LTYPE
  2
__21
 70
   64
  3
                                
 72
   65
 73
    0
 40
0
  0
LTYPE
  2
__22
 70
   64
  3
                                
 72
   65
 73
    0
 40
0
  0
LTYPE
  2
__23
 70
   64
  3
                                
 72
   65
 73
    0
 40
0
  0
LTYPE
  2
__24
 70
   64
  3
                                
 72
   65
 73
    0
 40
0
  0
LTYPE
  2
__25
 70
   64
  3
                                
 72
   65
 73
    0
 40
0
  0
LTYPE
  2
__26
 70
   64
  3
                                
 72
   65
 73
    0
 40
0
  0
LTYPE
  2
__27
 70
   64
  3
                                
 72
   65
 73
    0
 40
0
  0
LTYPE
  2
__28
 70
   64
  3
                                
 72
   65
 73
    0
 40
0
  0
LTYPE
  2
__29
 70
   64
  3
                                
 72
   65
 73
    0
 40
0
  0
LTYPE
  2
__30
 70
   64
  3
                                
 72
   65
 73
    0
 40
0
  0
LTYPE
  2
__31
 70
   64
  3
                                
 72
   65
 73
    0
 40
0
  0
LTYPE
  2
__32
 70
   64
  3
                                
 72
   65
 73
    0
 40
0
  0
ENDTAB
  0
TABLE
  2
STYLE
  5
3
100
AcDbSymbolTable
 70
     1
  0
STYLE
  5
10
100
AcDbSymbolTableRecord
100
AcDbTextStyleTableRecord
  2
STANDARD
 70
     0
 40
0.0
 41
1.0
 50
0.0
 71
     0
 42
0.2
  3
txt
  4
bigfont.shx
  0
STYLE
  5
26
100
AcDbSymbolTableRecord
100
AcDbTextStyleTableRecord
  2
TATEGAKI
 70
    68
 40
0.0
 41
1.0
 50
0.0
 71
     0
 42
1.0
  3
txt
  4
bigfont.shx
  0
ENDTAB
  0
TABLE
  2
LAYER
 70
    6
  0
LAYER
  2
_0-0_0
 70
   64
 62
    7
  6
CONTINUOUS
  0
LAYER
  2
_0-2_寸法
 70
   64
 62
    7
  6
CONTINUOUS
  0
LAYER
  2
_0-3_躯体と製品
 70
   64
 62
    7
  6
CONTINUOUS
  0
LAYER
  2
_0-4_文字-記号
 70
   64
 62
    7
  6
CONTINUOUS
  0
LAYER
  2
_0-5_中心線
 70
   64
 62
    7
  6
CONTINUOUS
  0
LAYER
  2
ADD_LINE
 70
   64
 62
    7
  6
CONTINUOUS
  0
ENDTAB
  0
ENDSEC
  0
SECTION
  2
BLOCKS
  0
BLOCK
  2
-000-_Small
 70
   64
 10
0
 20
0
 30
0
  0
CIRCLE
  8
_0-0_0
  6
CONTINUOUS
 62
    7
 10
0
 20
0
 40
0.5
  0
ENDBLK
  0
ENDSEC
  0
SECTION
  2
ENTITIES
  0
LINE
  8
_0-3_躯体と製品
  6
CONTINUOUS
 62
    4
 10
182.9341299703101
 20
249.79408543180944
 11
615.08398902968884
 21
249.79408543180944
  0
LINE
  8
_0-3_躯体と製品
  6
CONTINUOUS
 62
    4
 10
182.9341299703101
 20
187.7940854318108
 11
615.08398902968884
 21
187.7940854318108
  0
LINE
  8
_0-3_躯体と製品
  6
CONTINUOUS
 62
    3
 10
234.14482354624397
 20
187.7940854318108
 11
214.14482354624397
 21
167.7940854318108
  0
LINE
  8
_0-3_躯体と製品
  6
CONTINUOUS
 62
    3
 10
241.215891358107
 20
187.7940854318108
 11
221.215891358107
 21
167.7940854318108
  0
LINE
  8
_0-3_躯体と製品
  6
CONTINUOUS
 62
    3
 10
248.28695916997685
 20
187.7940854318108
 11
228.28695916997685
 21
167.7940854318108
  0
LINE
  8
_0-3_躯体と製品
  6
CONTINUOUS
 62
    3
 10
409.14482354624306
 20
187.7940854318108
 11
389.14482354624397
 21
167.7940854318108
  0
LINE
  8
_0-3_躯体と製品
  6
CONTINUOUS
 62
    3
 10
416.215891358107
 20
187.7940854318108
 11
396.215891358107
 21
167.7940854318108
  0
LINE
  8
_0-3_躯体と製品
  6
CONTINUOUS
 62
    3
 10
423.28695916997685
 20
187.7940854318108
 11
403.28695916997685
 21
167.7940854318108
  0
LINE
  8
_0-3_躯体と製品
  6
CONTINUOUS
 62
    4
 10
386.00905950000015
 20
224.7940854318108
 11
412.00905950000015
 21
224.7940854318108
  0
LINE
  8
_0-3_躯体と製品
  6
CONTINUOUS
 62
    4
 10
351.00905950000015
 20
249.79408543180944
 11
351.00905950000015
 21
242.79408543180989
  0
LINE
  8
_0-3_躯体と製品
  6
CONTINUOUS
 62
    4
 10
388.50905950000015
 20
249.79408543180944
 11
409.50905950000015
 21
249.79408543180944
  0
LINE
  8
_0-3_躯体と製品
  6
CONTINUOUS
 62
    4
 10
386.00905950000015
 20
225.57650336800998
 11
386.00905950000015
 21
224.7940854318108
  0
LINE
  8
_0-3_躯体と製品
  6
CONTINUOUS
 62
    4
 10
412.00905950000015
 20
224.7940854318108
 11
412.00905950000015
 21
225.57650336800998
  0
LINE
  8
_0-3_躯体と製品
  6
CONTINUOUS
 62
    4
 10
388.00905950000015
 20
250.09408543181326
 11
387.50905950000015
 21
249.79408543180944
  0
LINE
  8
_0-3_躯体と製品
  6
CONTINUOUS
 62
    4
 10
388.50905950000015
 20
249.79408543180944
 11
388.00905950000015
 21
250.09408543181326
  0
LINE
  8
_0-3_躯体と製品
  6
CONTINUOUS
 62
    4
 10
410.00905950000015
 20
250.09408543181326
 11
409.50905950000015
 21
249.79408543180944
  0
LINE
  8
_0-3_躯体と製品
  6
CONTINUOUS
 62
    4
 10
410.50905950000015
 20
249.79408543180944
 11
410.00905950000015
 21
250.09408543181326
  0
ARC
  8
_0-3_躯体と製品
  6
CONTINUOUS
 62
    4
 10
446.00905950000015
 20
242.79408543180989
 40
1
 50
270
 51
0
  0
LINE
  8
_0-3_躯体と製品
  6
CONTINUOUS
 62
    4
 10
447.00905950000015
 20
249.79408543180944
 11
447.00905950000015
 21
242.79408543180989
  0
ARC
  8
_0-3_躯体と製品
  6
CONTINUOUS
 62
    4
 10
352.00905950000015
 20
242.79408543180989
 40
1
 50
180
 51
270
  0
LINE
  8
_0-3_躯体と製品
  6
CONTINUOUS
 62
    4
 10
398.25905950000015
 20
234.01770768381084
 11
398.25905950000015
 21
241.79408543180989
  0
LINE
  8
_0-3_躯体と製品
  6
CONTINUOUS
 62
    4
 10
399.75905950000015
 20
234.01770768381084
 11
399.25918295680094
 21
234.02210681620863
  0
LINE
  8
_0-3_躯体と製品
  6
CONTINUOUS
 62
    4
 10
399.25918295680094
 20
234.02210681620863
 11
398.75893604299881
 21
234.02210681620863
  0
LINE
  8
_0-3_躯体と製品
  6
CONTINUOUS
 62
    4
 10
398.75893604299881
 20
234.02210681620863
 11
398.25905950000015
 21
234.01770768381084
  0
LINE
  8
_0-3_躯体と製品
  6
CONTINUOUS
 62
    4
 10
399.75905950000015
 20
234.01770768381084
 11
399.75905950000015
 21
241.79408543180989
  0
LINE
  8
_0-3_躯体と製品
  6
CONTINUOUS
 62
    4
 10
412.86024780739899
 20
235.07940926381161
 11
443.66285273179892
 21
241.79408543180989
  0
LINE
  8
_0-3_躯体と製品
  6
CONTINUOUS
 62
    4
 10
412.63267187320116
 20
234.79858599241106
 11
444.72351290359802
 21
241.79408543180989
  0
LINE
  8
_0-3_躯体と製品
  6
CONTINUOUS
 62
    4
 10
414.36406069799978
 20
236.93507848000672
 11
414.36406069799978
 21
236.79408543180989
  0
LINE
  8
_0-3_躯体と製品
  6
CONTINUOUS
 62
    4
 10
385.38544712660178
 20
234.79858599241106
 11
353.29460609619809
 21
241.79408543180989
  0
LINE
  8
_0-3_躯体と製品
  6
CONTINUOUS
 62
    4
 10
385.15787119260085
 20
235.07940926381161
 11
354.35526626800083
 21
241.79408543180989
  0
LINE
  8
_0-3_躯体と製品
  6
CONTINUOUS
 62
    4
 10
383.65405830199916
 20
236.79408543180989
 11
383.65405830199916
 21
236.93507848000672
  0
LINE
  8
_0-3_躯体と製品
  6
CONTINUOUS
 62
    4
 10
416.43485054939811
 20
241.79408543180989
 11
416.43485054939811
 21
241.77047432081099
  0
LINE
  8
_0-3_躯体と製品
  6
CONTINUOUS
 62
    4
 10
418.2826096143981
 20
241.79408543180989
 11
418.2826096143981
 21
241.77047432081099
  0
LINE
  8
_0-3_躯体と製品
  6
CONTINUOUS
 62
    4
 10
418.2826096143981
 20
241.77047432081099
 11
416.43485054939811
 21
241.77047432081099
  0
LINE
  8
_0-3_躯体と製品
  6
CONTINUOUS
 62
    4
 10
418.2826096143981
 20
241.77047432081099
 11
404.89308322199895
 21
225.24811831361376
  0
LINE
  8
_0-3_躯体と製品
  6
CONTINUOUS
 62
    4
 10
403.04532415699896
 20
225.24811831361376
 11
403.67407505620213
 21
225.26428572841087
  0
LINE
  8
_0-3_躯体と製品
  6
CONTINUOUS
 62
    4
 10
403.67407505620213
 20
225.26428572841087
 11
404.29053609479888
 21
225.26428572841087
  0
LINE
  8
_0-3_躯体と製品
  6
CONTINUOUS
 62
    4
 10
404.29053609479888
 20
225.26428572841087
 11
404.89308322199895
 21
225.24811831361376
  0
LINE
  8
_0-3_躯体と製品
  6
CONTINUOUS
 62
    4
 10
416.43485054939811
 20
241.77047432081099
 11
403.04532415699896
 21
225.24811831361376
  0
LINE
  8
_0-3_躯体と製品
  6
CONTINUOUS
 62
    4
 10
403.04532415699896
 20
225.24811831361376
 11
403.04532415699896
 21
236.79408543180989
  0
LINE
  8
_0-3_躯体と製品
  6
CONTINUOUS
 62
    4
 10
406.67640171640187
 20
241.79408543180989
 11
406.67640171640187
 21
236.79408543180989
  0
LINE
  8
_0-3_躯体と製品
  6
CONTINUOUS
 62
    4
 10
381.58326845060174
 20
241.77047432081099
 11
379.73550938560174
 21
241.77047432081099
  0
LINE
  8
_0-3_躯体と製品
  6
CONTINUOUS
 62
    4
 10
381.58326845060174
 20
241.77047432081099
 11
394.97279484300088
 21
225.24811831361376
  0
LINE
  8
_0-3_躯体と製品
  6
CONTINUOUS
 62
    4
 10
393.12503577799998
 20
225.24811831361376
 11
393.72758290520096
 21
225.26428572841087
  0
LINE
  8
_0-3_躯体と製品
  6
CONTINUOUS
 62
    4
 10
393.72758290520096
 20
225.26428572841087
 11
394.34404394360081
 21
225.26428572841087
  0
LINE
  8
_0-3_躯体と製品
  6
CONTINUOUS
 62
    4
 10
394.34404394360081
 20
225.26428572841087
 11
394.97279484300088
 21
225.24811831361376
  0
LINE
  8
_0-3_躯体と製品
  6
CONTINUOUS
 62
    4
 10
379.73550938560174
 20
241.77047432081099
 11
393.12503577799998
 21
225.24811831361376
  0
LINE
  8
_0-3_躯体と製品
  6
CONTINUOUS
 62
    4
 10
391.34171728340107
 20
236.79408543180989
 11
391.34171728340107
 21
241.79408543180989
  0
LINE
  8
_0-3_躯体と製品
  6
CONTINUOUS
 62
    4
 10
394.97279484300088
 20
225.24811831361376
 11
394.97279484300088
 21
236.79408543180989
  0
LINE
  8
_0-3_躯体と製品
  6
CONTINUOUS
 62
    4
 10
381.58326845060174
 20
241.79408543180989
 11
381.58326845060174
 21
241.77047432081099
  0
LINE
  8
_0-3_躯体と製品
  6
CONTINUOUS
 62
    4
 10
379.73550938560174
 20
241.79408543180989
 11
379.73550938560174
 21
241.77047432081099
  0
LINE
  8
_0-3_躯体と製品
  6
CONTINUOUS
 62
    4
 10
400.23128172220004
 20
241.79408543180989
 11
400.23128172220004
 21
236.79408543180989
  0
LINE
  8
_0-3_躯体と製品
  6
CONTINUOUS
 62
    4
 10
397.7868372777989
 20
236.79408543180989
 11
397.7868372777989
 21
241.79408543180989
  0
LINE
  8
_0-3_躯体と製品
  6
CONTINUOUS
 62
    4
 10
406.05434189580001
 20
236.79408543180989
 11
406.05434189580001
 21
241.79408543180989
  0
LINE
  8
_0-3_躯体と製品
  6
CONTINUOUS
 62
    4
 10
391.96377710419983
 20
241.79408543180989
 11
391.96377710419983
 21
236.79408543180989
  0
LINE
  8
_0-3_躯体と製品
  6
CONTINUOUS
 62
    4
 10
443.00506243400014
 20
241.41947950341591
 11
411.36659030579904
 21
225.24811831361376
  0
LINE
  8
_0-3_躯体と製品
  6
CONTINUOUS
 62
    4
 10
410.601223441201
 20
225.24811831361376
 11
410.88786436320197
 21
225.26428572841087
  0
LINE
  8
_0-3_躯体と製品
  6
CONTINUOUS
 62
    4
 10
410.88786436320197
 20
225.26428572841087
 11
411.143210885999
 21
225.26428572841087
  0
LINE
  8
_0-3_躯体と製品
  6
CONTINUOUS
 62
    4
 10
411.143210885999
 20
225.26428572841087
 11
411.36659030579904
 21
225.24811831361376
  0
LINE
  8
_0-3_躯体と製品
  6
CONTINUOUS
 62
    4
 10
441.6705367063978
 20
241.1285655330089
 11
410.601223441201
 21
225.24811831361376
  0
LINE
  8
_0-3_躯体と製品
  6
CONTINUOUS
 62
    4
 10
410.601223441201
 20
225.24811831361376
 11
410.601223441201
 21
232.29182711080966
  0
LINE
  8
_0-3_躯体と製品
  6
CONTINUOUS
 62
    4
 10
387.41689555879884
 20
225.24811831361376
 11
387.41689555879884
 21
232.29182711080966
  0
LINE
  8
_0-3_躯体と製品
  6
CONTINUOUS
 62
    4
 10
356.34758229339786
 20
241.1285655330089
 11
387.41689555879884
 21
225.24811831361376
  0
LINE
  8
_0-3_躯体と製品
  6
CONTINUOUS
 62
    4
 10
386.65152869400117
 20
225.24811831361376
 11
386.87490811399675
 21
225.26428572841087
  0
LINE
  8
_0-3_躯体と製品
  6
CONTINUOUS
 62
    4
 10
386.87490811399675
 20
225.26428572841087
 11
387.13025463680196
 21
225.26428572841087
  0
LINE
  8
_0-3_躯体と製品
  6
CONTINUOUS
 62
    4
 10
387.13025463680196
 20
225.26428572841087
 11
387.41689555879884
 21
225.24811831361376
  0
LINE
  8
_0-3_躯体と製品
  6
CONTINUOUS
 62
    4
 10
355.01305656580007
 20
241.41947950341591
 11
386.65152869400117
 21
225.24811831361376
  0
LINE
  8
_0-3_躯体と製品
  6
CONTINUOUS
 62
    4
 10
414.36406069799978
 20
236.79408543180989
 11
414.24980156099991
 21
236.79408543180989
  0
LINE
  8
_0-3_躯体と製品
  6
CONTINUOUS
 62
    4
 10
383.76831743899993
 20
236.79408543180989
 11
383.65405830199916
 21
236.79408543180989
  0
LINE
  8
_0-3_躯体と製品
  6
CONTINUOUS
 62
    4
 10
441.90078746139989
 20
240.85505182301404
 11
446.00905950000015
 21
241.79408543180989
  0
LINE
  8
_0-3_躯体と製品
  6
CONTINUOUS
 62
    4
 10
356.11733153839987
 20
240.85505182301404
 11
352.00905950000015
 21
241.79408543180989
  0
LINE
  8
_0-3_躯体と製品
  6
CONTINUOUS
 62
    4
 10
351.00905950000015
 20
249.79408543180944
 11
387.50905950000015
 21
249.79408543180944
  0
LINE
  8
_0-3_躯体と製品
  6
CONTINUOUS
 62
    4
 10
351.00905950000015
 20
242.79408543180989
 11
447.00905950000015
 21
242.79408543180989
  0
LINE
  8
_0-3_躯体と製品
  6
CONTINUOUS
 62
    4
 10
442.00905950000015
 20
249.79408543180944
 11
442.00905950000015
 21
241.79408543180989
  0
LINE
  8
_0-3_躯体と製品
  6
CONTINUOUS
 62
    4
 10
410.50905950000015
 20
249.79408543180944
 11
447.00905950000015
 21
249.79408543180944
  0
LINE
  8
_0-3_躯体と製品
  6
CONTINUOUS
 62
    4
 10
356.00905950000015
 20
249.79408543180944
 11
356.00905950000015
 21
241.79408543180989
  0
LINE
  8
_0-3_躯体と製品
  6
CONTINUOUS
 62
    4
 10
446.00905950000015
 20
241.79408543180989
 11
352.00905950000015
 21
241.79408543180989
  0
LINE
  8
_0-3_躯体と製品
  6
CONTINUOUS
 62
    4
 10
398.25905950000015
 20
236.79408543180989
 11
391.34171728340107
 21
236.79408543180989
  0
LINE
  8
_0-3_躯体と製品
  6
CONTINUOUS
 62
    4
 10
406.67640171640187
 20
236.79408543180989
 11
399.75905950000015
 21
236.79408543180989
  0
LINE
  8
_0-5_中心線
  6
CENTER1
 62
    7
 10
399.00905950000015
 20
255.27650056436869
 11
399.00905950000015
 21
183.03559345056465
  0
LINE
  8
_0-3_躯体と製品
  6
CONTINUOUS
 62
    4
 10
410.50905950000015
 20
264.79408543180944
 11
410.50905950000015
 21
249.79408543180944
  0
LINE
  8
_0-3_躯体と製品
  6
CONTINUOUS
 62
    4
 10
387.50905950000015
 20
264.79408543180944
 11
387.50905950000015
 21
249.79408543180944
  0
LINE
  8
_0-3_躯体と製品
  6
CONTINUOUS
 62
    4
 10
400.50905950000015
 20
224.7940854318108
 11
400.50905950000015
 21
216.7940854318108
  0
LINE
  8
_0-3_躯体と製品
  6
CONTINUOUS
 62
    4
 10
389.00905950000015
 20
224.7940854318108
 11
389.00905950000015
 21
216.7940854318108
  0
LINE
  8
_0-3_躯体と製品
  6
CONTINUOUS
 62
    4
 10
397.50905950000015
 20
224.7940854318108
 11
397.50905950000015
 21
216.7940854318108
  0
LINE
  8
_0-3_躯体と製品
  6
CONTINUOUS
 62
    4
 10
390.36205950000294
 20
224.7940854318108
 11
390.36205950000294
 21
216.7940854318108
  0
LINE
  8
_0-3_躯体と製品
  6
CONTINUOUS
 62
    4
 10
409.00905950000015
 20
224.7940854318108
 11
409.00905950000015
 21
216.7940854318108
  0
LINE
  8
_0-3_躯体と製品
  6
CONTINUOUS
 62
    4
 10
389.00905950000015
 20
216.7940854318108
 11
409.00905950000015
 21
216.7940854318108
  0
LINE
  8
_0-3_躯体と製品
  6
CONTINUOUS
 62
    4
 10
407.65605950000099
 20
224.7940854318108
 11
407.65605950000099
 21
216.7940854318108
  0
TEXT
  8
_0-4_文字-記号
 62
    7
 10
296.80829481182491
 20
216.80491331833764
 40
9
 41
1
 50
0
  1
クッションゴム
  0
LINE
  8
_0-4_文字-記号
  6
CONTINUOUS
 62
    7
 10
426.04868207409208
 20
233.3393732891227
 11
434.08333963322502
 21
219.42293817528889
  0
LINE
  8
_0-4_文字-記号
  6
CONTINUOUS
 62
    7
 10
434.08333963322502
 20
219.42293817528889
 11
496.549412267359
 21
219.42293817528889
  0
TEXT
  8
_0-4_文字-記号
 62
    7
 10
437.52287689061313
 20
221.90159165955674
 40
9
 41
1
 50
0
  1
ボード受け
  0
LINE
  8
_0-4_文字-記号
  6
CONTINUOUS
 62
    7
 10
380.09306710513192
 20
202.51460539528398
 11
374.80906997539296
 21
211.66675689104204
  0
LINE
  8
_0-4_文字-記号
  6
CONTINUOUS
 62
    7
 10
374.80906997539296
 20
211.66675689104204
 11
292.32750193441098
 21
211.66675689104204
  0
LINE
  8
_0-4_文字-記号
  6
CONTINUOUS
 62
    7
 10
294.0995734849198
 20
279.79408543180944
 11
328.45151353763504
 21
339.29339094167426
  0
LINE
  8
_0-4_文字-記号
  6
CONTINUOUS
 62
    7
 10
328.45151353763504
 20
339.29339094167426
 11
487.5970072401019
 21
339.29339094167426
  0
TEXT
  8
_0-4_文字-記号
 62
    7
 10
331.33322985067207
 20
343.88814134198947
 40
9
 41
1
 50
0
  1
フローリング t＝１５ｍｍ以上
  0
LINE
  8
_0-4_文字-記号
  6
CONTINUOUS
 62
    7
 10
317.14825382341678
 20
259.90698393271578
 11
345.71676540883482
 21
309.38909749528011
  0
LINE
  8
_0-4_文字-記号
  6
CONTINUOUS
 62
    7
 10
345.71676540883482
 20
309.38909749528011
 11
493.57894311551581
 21
309.38909749528011
  0
TEXT
  8
_0-4_文字-記号
 62
    7
 10
348.59848172187276
 20
313.98384789559805
 40
9
 41
1
 50
0
  1
特殊高比重合板 t＝１５ｍｍ
  0
TEXT
  8
_0-4_文字-記号
 62
    7
 10
185.92457162933988
 20
382.08628542331007
 40
15
 41
1
 50
0
  1
【ＭＰフロア Ｅタイプ（小学校・中学校 用）】
  0
TEXT
  8
_0-4_文字-記号
 62
    7
 10
185.92457162933988
 20
411.20591456818875
 40
15
 41
1
 50
0
  1
～文教施設用二重床システム～
  0
LINE
  8
_0-3_躯体と製品
  6
CONTINUOUS
 62
    3
 10
584.14482354624397
 20
187.7940854318108
 11
564.14482354624397
 21
167.7940854318108
  0
LINE
  8
_0-3_躯体と製品
  6
CONTINUOUS
 62
    3
 10
591.215891358107
 20
187.7940854318108
 11
571.215891358107
 21
167.7940854318108
  0
LINE
  8
_0-3_躯体と製品
  6
CONTINUOUS
 62
    3
 10
598.28695916997685
 20
187.7940854318108
 11
578.28695916997685
 21
167.7940854318108
  0
LINE
  8
_0-3_躯体と製品
  6
CONTINUOUS
 62
    4
 10
182.9341299703101
 20
264.79408543180944
 11
615.08398902968884
 21
264.79408543180944
  0
LINE
  8
_0-3_躯体と製品
  6
CONTINUOUS
 62
    4
 10
182.9341299703101
 20
279.79408543180944
 11
615.08398902968884
 21
279.79408543180944
  0
LINE
  8
_0-3_躯体と製品
  6
CONTINUOUS
 62
    3
 10
182.9341299703101
 20
259.79408543181125
 11
387.50905950000015
 21
259.79408543181125
  0
LINE
  8
_0-3_躯体と製品
  6
CONTINUOUS
 62
    3
 10
410.50905950000015
 20
259.79408543181125
 11
615.08398902968884
 21
259.79408543181125
  0
LINE
  8
_0-3_躯体と製品
  6
CONTINUOUS
 62
    3
 10
182.9341299703101
 20
254.79408543180944
 11
387.50905950000015
 21
254.79408543180944
  0
LINE
  8
_0-3_躯体と製品
  6
CONTINUOUS
 62
    3
 10
410.50905950000015
 20
254.79408543180944
 11
615.08398902968884
 21
254.79408543180944
  0
LINE
  8
_0-0_0
  6
CONTINUOUS
 62
    4
 10
410.20377654407014
 20
216.79408543181083
 11
411.81434245593016
 21
216.79408543181083
  0
LINE
  8
_0-0_0
  6
CONTINUOUS
 62
    4
 10
415.20377654407014
 20
213.47789662511082
 11
383.20377654407014
 21
213.47789662511082
  0
LINE
  8
_0-0_0
  6
CONTINUOUS
 62
    4
 10
412.20377654407014
 20
216.79408543181083
 11
386.20377654407014
 21
216.79408543181083
  0
LINE
  8
_0-0_0
  6
CONTINUOUS
 62
    4
 10
383.20377654407014
 20
213.47789662511082
 11
386.20377654407014
 21
216.79408543181083
  0
LINE
  8
_0-0_0
  6
CONTINUOUS
 62
    4
 10
412.20377654407014
 20
216.79408543181083
 11
415.20377654407014
 21
213.47789662511082
  0
LINE
  8
_0-0_0
  6
CONTINUOUS
 62
    4
 10
420.20377654407014
 20
188.79408543181083
 11
399.20377654407014
 21
188.79408543181083
  0
LINE
  8
_0-0_0
  6
CONTINUOUS
 62
    4
 10
419.20377654407014
 20
187.7940854318108
 11
399.20377654407014
 21
187.7940854318108
  0
LINE
  8
_0-0_0
  6
CONTINUOUS
 62
    4
 10
420.20377654407014
 20
188.79408543181083
 11
419.20377654407014
 21
187.7940854318108
  0
LINE
  8
_0-0_0
  6
CONTINUOUS
 62
    4
 10
415.20377654407014
 20
213.47789662511082
 11
420.20377654407014
 21
188.79408543181083
  0
LINE
  8
_0-0_0
  6
CONTINUOUS
 62
    4
 10
378.20377654407014
 20
188.79408543181083
 11
399.20377654407014
 21
188.79408543181083
  0
LINE
  8
_0-0_0
  6
CONTINUOUS
 62
    4
 10
379.20377654407014
 20
187.7940854318108
 11
399.20377654407014
 21
187.7940854318108
  0
LINE
  8
_0-0_0
  6
CONTINUOUS
 62
    4
 10
378.20377654407014
 20
188.79408543181083
 11
379.20377654407014
 21
187.7940854318108
  0
LINE
  8
_0-0_0
  6
CONTINUOUS
 62
    4
 10
383.20377654407014
 20
213.47789662511082
 11
378.20377654407014
 21
188.79408543181083
  0
LINE
  8
_0-2_寸法
  6
CONTINUOUS
 62
    4
 10
618.08398902968884
 20
187.7940854318108
 11
657.3158700296899
 21
187.7940854318108
  0
LINE
  8
_0-2_寸法
  6
CONTINUOUS
 62
    4
 10
618.08398902968884
 20
264.79408543180944
 11
657.3158700296899
 21
264.79408543180944
  0
LINE
  8
_0-2_寸法
  6
CONTINUOUS
 62
    4
 10
657.3158700296899
 20
187.7940854318108
 11
657.3158700296899
 21
264.79408543180944
  0
INSERT
  2
-000-_Small
  8
_0-2_寸法
 10
657.3158700296899
 20
187.7940854318108
 41
1.5
 42
1.5
 50
270
  0
INSERT
  2
-000-_Small
  8
_0-2_寸法
 10
657.3158700296899
 20
264.79408543180944
 41
1.5
 42
1.5
 50
90
  0
POINT
  8
_0-2_寸法
 62
    7
 10
618.08398902968884
 20
187.7940854318108
  0
POINT
  8
_0-2_寸法
 62
    7
 10
618.08398902968884
 20
264.79408543180944
  0
POINT
  8
_0-2_寸法
 62
    7
 10
657.3158700296899
 20
264.79408543180944
  0
TEXT
  8
_0-2_寸法
 62
    7
 10
652.20408163265301
 20
221.19557823129253
 40
9
 41
1
 50
90
  1
h
  0
ENDSEC
  0
EOF
