  0
SECTION
  2
HEADER
  9
$ACADVER
  1
AC1009
  9
$INSBASE
 10
0
 20
0
 30
0
  9
$EXTMIN
 10
0
 20
0
  9
$EXTMAX
 10
841
 20
594
  9
$LIMMIN
 10
0
 20
0
  9
$LIMMAX
 10
841
 20
594
  9
$LTSCALE
 40
1
  0
ENDSEC
  0
SECTION
  2
TABLES
  0
TABLE
  2
LTYPE
 70
     9
  0
LTYPE
  2
CONTINUOUS
 70
    64
  3
実線
 72
    65
 73
     0
 40
0.0
  0
LTYPE
  2
DASHED1
 70
    64
  3
--  --  --  --  --  --  --  --  
 72
    65
 73
     2
 40
2.5
 49
1.25
 49
-1.25
  0
LTYPE
  2
DASHED2
 70
    64
  3
----    ----    ----    ----    
 72
    65
 73
     2
 40
5.0
 49
2.5
 49
-2.5
  0
LTYPE
  2
DASHED3
 70
    64
  3
------  ------  ------  ------  
 72
    65
 73
     2
 40
5.0
 49
3.75
 49
-1.25
  0
LTYPE
  2
CENTER1
 70
    64
  3
----- - ----- - ----- - ----- - 
 72
    65
 73
     4
 40
10.0
 49
6.25
 49
-1.25
 49
1.25
 49
-1.25
  0
LTYPE
  2
CENTER2
 70
    64
  3
----------  --  ----------  --  
 72
    65
 73
     4
 40
20.0
 49
12.5
 49
-2.5
 49
2.5
 49
-2.5
  0
LTYPE
  2
PHANTOM1
 70
    64
  3
--- - - --- - - --- - - --- - - 
 72
    65
 73
     6
 40
10.0
 49
3.25
 49
-1.25
 49
1.25
 49
-1.25
 49
1.25
 49
-1.25
  0
LTYPE
  2
PHANTOM2
 70
    64
  3
--------  -  -  --------  -  -  
 72
    65
 73
     6
 40
20.0
 49
10.0
 49
-2.5
 49
1.25
 49
-2.5
 49
1.25
 49
-2.5
  0
LTYPE
  2
DOT
 70
    64
  3
-   -   -   -   -   -   -   -   
 72
    65
 73
     2
 40
2.5
 49
0.625
 49
-1.875
  0
LTYPE
  2
DUMMY
 70
    64
  3
ダミー
 72
    65
 73
     0
 40
0.0
  0
LTYPE
  2
RAND1
 70
    64
  3
ランダム線1
 72
    65
 73
     4
 40
10.0
 49
1.0
 49
-2.0
 49
3.0
 49
-4.0
  0
LTYPE
  2
RAND2
 70
    64
  3
ランダム線2
 72
    65
 73
     4
 40
14.0
 49
2.0
 49
-3.0
 49
4.0
 49
-5.0
  0
LTYPE
  2
RAND3
 70
    64
  3
ランダム線3
 72
    65
 73
     4
 40
18.0
 49
3.0
 49
-4.0
 49
5.0
 49
-6.0
  0
LTYPE
  2
RAND4
 70
    64
  3
ランダム線4
 72
    65
 73
     4
 40
22.0
 49
4.0
 49
-5.0
 49
6.0
 49
-7.0
  0
LTYPE
  2
RAND5
 70
    64
  3
ランダム線5
 72
    65
 73
     4
 40
26.0
 49
5.0
 49
-6.0
 49
7.0
 49
-8.0
  0
LTYPE
  2
LONG1
 70
    64
  3
----------  --  ----------  --  
 72
    65
 73
     4
 40
40.0
 49
32.5
 49
-2.5
 49
2.5
 49
-2.5
  0
LTYPE
  2
LONG2
 70
    64
  3
--------  -  -  --------  -  -  
 72
    65
 73
     6
 40
40.0
 49
30.0
 49
-2.5
 49
1.25
 49
-2.5
 49
1.25
 49
-2.5
  0
LTYPE
  2
LONG3
 70
    64
  3
+++++++++++++++..+++++++++++++++
 72
    65
 73
     2
 40
40.0
 49
37.5
 49
-2.5
  0
LTYPE
  2
LONG4
 70
    64
  3
+++++++++++++++..+++++++++++++++
 72
    65
 73
     2
 40
80.0
 49
75.0
 49
-5.0
  0
LTYPE
  2
LONG5
 70
    64
  3
----------  --  ----------  --  
 72
    65
 73
     4
 40
60.0
 49
37.5
 49
-7.5
 49
7.5
 49
-7.5
  0
LTYPE
  2
dashed
 70
   64
  3
-------   -------------   ------
 72
   65
 73
    2
 40
7.5
 49
6
 49
-1.5
  0
LTYPE
  2
dashed_spaced
 70
   64
  3
----        --------        ----
 72
   65
 73
    2
 40
12
 49
6
 49
-6
  0
LTYPE
  2
long_dashed_dotted
 70
   64
  3
------------- --- --------------
 72
   65
 73
    4
 40
15.25
 49
12
 49
-1.5
 49
0.25
 49
-1.5
  0
LTYPE
  2
long_dashed_double-dotted
 70
   64
  3
----------- --- --- ------------
 72
   65
 73
    6
 40
17
 49
12
 49
-1.5
 49
0.25
 49
-1.5
 49
0.25
 49
-1.5
  0
LTYPE
  2
long_dashed_triplicate-dotted
 70
   64
  3
--------- --- --- --- ----------
 72
   65
 73
    8
 40
18.75
 49
12
 49
-1.5
 49
0.25
 49
-1.5
 49
0.25
 49
-1.5
 49
0.25
 49
-1.5
  0
LTYPE
  2
dotted
 70
   64
  3
   -       -       -       -    
 72
   65
 73
    2
 40
1.75
 49
0.25
 49
-1.5
  0
LTYPE
  2
chain
 70
   64
  3
-------------- -- --------------
 72
   65
 73
    4
 40
18.5
 49
12
 49
-1.5
 49
3.5
 49
-1.5
  0
LTYPE
  2
chain_double_dash
 70
   64
  3
------------ -- -- -------------
 72
   65
 73
    6
 40
23.5
 49
12
 49
-1.5
 49
3.5
 49
-1.5
 49
3.5
 49
-1.5
  0
LTYPE
  2
dashed_dotted
 70
   64
  3
-----------     -     ----------
 72
   65
 73
    4
 40
9.25
 49
6
 49
-1.5
 49
0.25
 49
-1.5
  0
LTYPE
  2
double-dashed_dotted
 70
   64
  3
------   -----------   -   -----
 72
   65
 73
    6
 40
16.75
 49
6
 49
-1.5
 49
6
 49
-1.5
 49
0.25
 49
-1.5
  0
LTYPE
  2
dashed_double-dotted
 70
   64
  3
---------    -    -    ---------
 72
   65
 73
    6
 40
11
 49
6
 49
-1.5
 49
0.25
 49
-1.5
 49
0.25
 49
-1.5
  0
LTYPE
  2
double-dashed_double-dotted
 70
   64
  3
-----   ---------   -   -   ----
 72
   65
 73
    8
 40
18.5
 49
6
 49
-1.5
 49
6
 49
-1.5
 49
0.25
 49
-1.5
 49
0.25
 49
-1.5
  0
LTYPE
  2
dashed_triplicate-dotted
 70
   64
  3
-------    -    -    -    ------
 72
   65
 73
    8
 40
12.75
 49
6
 49
-1.5
 49
0.25
 49
-1.5
 49
0.25
 49
-1.5
 49
0.25
 49
-1.5
  0
LTYPE
  2
double-dashed_triplicate-dotted
 70
   64
  3
-----  ---------  -  -  -  -----
 72
   65
 73
   10
 40
20.25
 49
6
 49
-1.5
 49
6
 49
-1.5
 49
0.25
 49
-1.5
 49
0.25
 49
-1.5
 49
0.25
 49
-1.5
  0
LTYPE
  2
undefined
 70
   64
  3
--------------------------------
 72
   65
 73
    0
 40
0
  0
LTYPE
  2
PLINE2
 70
   64
  3
------     -----------     -----
 72
   65
 73
    2
 40
3
 49
2.1000000000000001
 49
-0.9
  0
LTYPE
  2
HASEN
 70
   64
  3
-----      ----------      -----
 72
   65
 73
    2
 40
2.5
 49
1.5
 49
-1
  0
LTYPE
  2
PLINE3
 70
   64
  3
------------   ---   -----------
 72
   65
 73
    4
 40
10
 49
7
 49
-1
 49
1
 49
-1
  0
ENDTAB
  0
TABLE
  2
STYLE
  5
3
100
AcDbSymbolTable
 70
     1
  0
STYLE
  5
10
100
AcDbSymbolTableRecord
100
AcDbTextStyleTableRecord
  2
STANDARD
 70
     0
 40
0.0
 41
1.0
 50
0.0
 71
     0
 42
0.2
  3
txt
  4
bigfont.shx
  0
STYLE
  5
26
100
AcDbSymbolTableRecord
100
AcDbTextStyleTableRecord
  2
TATEGAKI
 70
    68
 40
0.0
 41
1.0
 50
0.0
 71
     0
 42
1.0
  3
txt
  4
bigfont.shx
  0
ENDTAB
  0
TABLE
  2
LAYER
 70
    6
  0
LAYER
  2
_0-0_0
 70
   64
 62
    7
  6
CONTINUOUS
  0
LAYER
  2
_0-1_PRO0
 70
   64
 62
    7
  6
CONTINUOUS
  0
LAYER
  2
_0-3_躯体と製品
 70
   64
 62
    7
  6
CONTINUOUS
  0
LAYER
  2
_0-4_文字-記号
 70
   64
 62
    7
  6
CONTINUOUS
  0
LAYER
  2
_0-5_中心線
 70
   64
 62
    7
  6
CONTINUOUS
  0
LAYER
  2
ADD_LINE
 70
   64
 62
    7
  6
CONTINUOUS
  0
ENDTAB
  0
ENDSEC
  0
SECTION
  2
BLOCKS
  0
BLOCK
  2
-000-_Dot
 70
   64
 10
0
 20
0
 30
0
  0
CIRCLE
  8
_0-0_0
  6
CONTINUOUS
 62
    7
 10
0
 20
0
 40
0.25
  0
LINE
  8
_0-0_0
  6
CONTINUOUS
 62
    7
 10
0.25
 20
0
 11
-0.25
 21
0
  0
LINE
  8
_0-0_0
  6
CONTINUOUS
 62
    7
 10
-0.5
 20
0
 11
-1
 21
0
  0
ENDBLK
  0
BLOCK
  2
-001-_D2
 70
   64
 10
0
 20
0
 30
0
  0
LINE
  8
_0-0_0
  6
CONTINUOUS
 62
    4
 10
3536.0411725124318
 20
533.13562119627341
 11
3575.5753988825459
 21
533.13562119627341
  0
LINE
  8
_0-0_0
  6
CONTINUOUS
 62
    4
 10
3536.0411725124318
 20
633.13562119627341
 11
3575.5753988825459
 21
633.13562119627341
  0
LINE
  8
_0-0_0
  6
CONTINUOUS
 62
    4
 10
3575.5753988825459
 20
534.13562119627329
 11
3575.5753988825459
 21
632.13562119627341
  0
INSERT
  2
-000-_Dot
  8
_0-0_0
 10
3575.5753988825459
 20
533.13562119627341
 41
1
 42
1
 50
270
  0
INSERT
  2
-000-_Dot
  8
_0-0_0
 10
3575.5753988825459
 20
633.13562119627341
 41
1
 42
1
 50
90
  0
TEXT
  8
_0-0_0
 62
    7
 10
3572.5753988825468
 20
578.63562119627397
 40
9
 41
1
 50
90
  1
Ｈ
  0
POINT
  8
_0-2_Defpoints
 62
    7
 10
3536.0411725124318
 20
533.13562119627341
  0
POINT
  8
_0-2_Defpoints
 62
    7
 10
3536.0411725124318
 20
633.13562119627341
  0
POINT
  8
_0-2_Defpoints
 62
    7
 10
3575.5753988825459
 20
633.13562119627341
  0
ENDBLK
  0
BLOCK
  2
-002-_D3
 70
   64
 10
0
 20
0
 30
0
  0
LINE
  8
_0-0_0
  6
CONTINUOUS
 62
    4
 10
3536.0411725124318
 20
633.13562119627341
 11
3559.3305661009481
 21
633.13562119627341
  0
LINE
  8
_0-0_0
  6
CONTINUOUS
 62
    4
 10
3536.0411725124318
 20
626.63562119627625
 11
3559.3305661009481
 21
626.63562119627625
  0
LINE
  8
_0-0_0
  6
CONTINUOUS
 62
    4
 10
3559.3305661009481
 20
634.13562119627329
 11
3559.3305661009481
 21
635.13562119627341
  0
LINE
  8
_0-0_0
  6
CONTINUOUS
 62
    4
 10
3559.3305661009481
 20
625.63562119627636
 11
3559.3305661009481
 21
624.63562119627625
  0
INSERT
  2
-000-_Dot
  8
_0-0_0
 10
3559.3305661009481
 20
633.13562119627341
 41
1
 42
1
 50
270
  0
INSERT
  2
-000-_Dot
  8
_0-0_0
 10
3559.3305661009481
 20
626.63562119627625
 41
1
 42
1
 50
90
  0
TEXT
  8
_0-0_0
 62
    7
 10
3556.330566100949
 20
623.13562119627545
 40
9
 41
1
 50
90
  1
6.5
  0
POINT
  8
_0-2_Defpoints
 62
    7
 10
3536.0411725124318
 20
633.13562119627341
  0
POINT
  8
_0-2_Defpoints
 62
    7
 10
3536.0411725124318
 20
626.63562119627625
  0
POINT
  8
_0-2_Defpoints
 62
    7
 10
3559.3305661009481
 20
626.63562119627625
  0
ENDBLK
  0
BLOCK
  2
-003-_D12
 70
   64
 10
0
 20
0
 30
0
  0
LINE
  8
_0-0_0
  6
CONTINUOUS
 62
    4
 10
2921.6241674063581
 20
633.0668693863222
 11
2831.6794795072419
 21
633.0668693863222
  0
LINE
  8
_0-0_0
  6
CONTINUOUS
 62
    4
 10
2922.9846784063589
 20
533.13562119627341
 11
2831.6794795072419
 21
533.13562119627341
  0
LINE
  8
_0-0_0
  6
CONTINUOUS
 62
    4
 10
2831.6794795072419
 20
632.0668693863222
 11
2831.6794795072419
 21
534.13562119627329
  0
INSERT
  2
-000-_Dot
  8
_0-0_0
 10
2831.6794795072419
 20
633.0668693863222
 41
1
 42
1
 50
90
  0
INSERT
  2
-000-_Dot
  8
_0-0_0
 10
2831.6794795072419
 20
533.13562119627341
 41
1
 42
1
 50
270
  0
TEXT
  8
_0-0_0
 62
    7
 10
2828.6794795072419
 20
567.35124529129826
 40
9
 41
1
 50
90
  1
71～105
  0
POINT
  8
_0-2_Defpoints
 62
    7
 10
2921.6241674063581
 20
633.0668693863222
  0
POINT
  8
_0-2_Defpoints
 62
    7
 10
2922.9846784063589
 20
533.13562119627341
  0
POINT
  8
_0-2_Defpoints
 62
    7
 10
2831.6794795072419
 20
533.13562119627341
  0
ENDBLK
  0
ENDSEC
  0
SECTION
  2
ENTITIES
  0
LINE
  8
_0-3_躯体と製品
  6
CONTINUOUS
 62
    7
 10
193.37272793595366
 20
166.1256673272967
 11
11.262105734190754
 21
166.1256673272967
  0
LINE
  8
_0-3_躯体と製品
  6
CONTINUOUS
 62
    3
 10
698.76576074033073
 20
167.90566733565959
 11
698.76576074032982
 21
187.10566732730126
  0
LINE
  8
_0-3_躯体と製品
  6
CONTINUOUS
 62
    3
 10
688.76576072804755
 20
167.90566733565959
 11
688.76576072804755
 21
187.10566732730126
  0
LINE
  8
_0-3_躯体と製品
  6
CONTINUOUS
 62
    3
 10
700.76576074277546
 20
167.90566733565959
 11
700.76576074277455
 21
187.10566732730126
  0
LINE
  8
_0-3_躯体と製品
  6
CONTINUOUS
 62
    3
 10
686.76576072554462
 20
167.90566733565959
 11
686.76576072554462
 21
187.10566732730126
  0
LINE
  8
_0-3_躯体と製品
  6
CONTINUOUS
 62
    3
 10
731.26576078031758
 20
163.10566732975599
 11
731.26576078031758
 21
161.10566732729671
  0
LINE
  8
_0-3_躯体と製品
  6
CONTINUOUS
 62
    3
 10
656.2657606880598
 20
163.10566732975599
 11
656.2657606880598
 21
161.10566732729671
  0
LINE
  8
_0-3_躯体と製品
  6
CONTINUOUS
 62
    3
 10
656.2657606880598
 20
161.10566732729671
 11
731.26576078031758
 21
161.10566732729671
  0
LINE
  8
_0-3_躯体と製品
  6
CONTINUOUS
 62
    3
 10
681.92547318526249
 20
167.90566733565959
 11
706.62265681883446
 21
167.90566733565959
  0
LINE
  8
_0-3_躯体と製品
  6
CONTINUOUS
 62
    3
 10
665.36732936424141
 20
165.10566733222254
 11
721.27257894981267
 21
165.10566733222254
  0
LINE
  8
_0-3_躯体と製品
  6
CONTINUOUS
 62
    3
 10
656.2657606880598
 20
163.10566732975599
 11
731.26576078031758
 21
163.10566732975599
  0
LINE
  8
_0-3_躯体と製品
  6
CONTINUOUS
 62
    3
 10
681.92547318526249
 20
165.10566733222254
 11
681.92547318526249
 21
167.90566733565959
  0
LINE
  8
_0-3_躯体と製品
  6
CONTINUOUS
 62
    3
 10
669.51576070435658
 20
164.20566733111514
 11
670.8977610935176
 21
163.10566732975599
  0
LINE
  8
_0-3_躯体と製品
  6
CONTINUOUS
 62
    3
 10
669.51576070435658
 20
164.20566733111514
 11
660.51576069329758
 21
164.20566733111514
  0
LINE
  8
_0-3_躯体と製品
  6
CONTINUOUS
 62
    3
 10
660.51576069329758
 20
164.20566733111514
 11
659.13376069156766
 21
163.10566732975599
  0
LINE
  8
_0-3_躯体と製品
  6
CONTINUOUS
 62
    3
 10
664.74551118165846
 20
164.20566733111514
 11
665.36732936424141
 21
165.10566733222254
  0
LINE
  8
_0-3_躯体と製品
  6
CONTINUOUS
 62
    3
 10
706.62265681883446
 20
165.10566733222254
 11
706.62265681883446
 21
167.90566733565959
  0
LINE
  8
_0-3_躯体と製品
  6
CONTINUOUS
 62
    3
 10
727.0157607750798
 20
164.20566733111514
 11
728.39776077675151
 21
163.10566732975599
  0
LINE
  8
_0-3_躯体と製品
  6
CONTINUOUS
 62
    3
 10
718.01576076401943
 20
164.20566733111514
 11
716.63376037486069
 21
163.10566732975599
  0
LINE
  8
_0-3_躯体と製品
  6
CONTINUOUS
 62
    3
 10
721.27257894981267
 20
165.10566733222254
 11
721.89439713239562
 21
164.20566733111514
  0
LINE
  8
_0-3_躯体と製品
  6
CONTINUOUS
 62
    3
 10
718.01576076401943
 20
164.20566733111514
 11
727.0157607750798
 21
164.20566733111514
  0
LINE
  8
_0-3_躯体と製品
  6
CONTINUOUS
 62
    3
 10
704.76576073418846
 20
194.60566732730126
 11
704.76576073418846
 21
218.60566732730126
  0
LINE
  8
_0-3_躯体と製品
  6
CONTINUOUS
 62
    3
 10
682.76576073418846
 20
194.60566732730126
 11
682.76576073418846
 21
218.60566732730126
  0
LINE
  8
_0-3_躯体と製品
  6
CONTINUOUS
 62
    3
 10
682.76576073418846
 20
194.60566732730126
 11
704.76576073418846
 21
194.60566732730126
  0
LINE
  8
_0-3_躯体と製品
  6
CONTINUOUS
 62
    3
 10
728.76576073418846
 20
225.60566732730126
 11
658.76576073418846
 21
225.60566732730126
  0
LINE
  8
_0-3_躯体と製品
  6
CONTINUOUS
 62
    3
 10
683.76576073424667
 20
245.10566732730126
 11
683.76576073424667
 21
225.60566732730126
  0
LINE
  8
_0-3_躯体と製品
  6
CONTINUOUS
 62
    3
 10
700.76575897563362
 20
226.58385169705775
 11
700.29082828878654
 21
249.12735916886197
  0
LINE
  8
_0-3_躯体と製品
  6
CONTINUOUS
 62
    3
 10
686.76576073266051
 20
226.58385180992229
 11
687.24069586060659
 21
249.12748221234835
  0
LINE
  8
_0-3_躯体と製品
  6
CONTINUOUS
 62
    3
 10
667.26576073420347
 20
218.60566732730126
 11
667.26576073420347
 21
222.60566732730126
  0
LINE
  8
_0-3_躯体と製品
  6
CONTINUOUS
 62
    3
 10
728.76576073418846
 20
218.60566732730126
 11
658.76576073418846
 21
218.60566732730126
  0
LINE
  8
_0-3_躯体と製品
  6
CONTINUOUS
 62
    3
 10
658.76576073418846
 20
222.60566732730126
 11
728.76576073418846
 21
222.60566732730126
  0
LINE
  8
_0-3_躯体と製品
  6
CONTINUOUS
 62
    3
 10
658.76576073418846
 20
218.60566732730126
 11
658.76576073418846
 21
225.60566732730126
  0
LINE
  8
_0-3_躯体と製品
  6
CONTINUOUS
 62
    3
 10
720.26576073420347
 20
222.60566732730126
 11
720.26576073420347
 21
218.60566732730126
  0
LINE
  8
_0-3_躯体と製品
  6
CONTINUOUS
 62
    3
 10
686.86847829617045
 20
225.60566673886547
 11
686.89292933008164
 21
225.60641646704937
  0
ARC
  8
_0-3_躯体と製品
  6
CONTINUOUS
 62
    3
 10
685.76597578325072
 20
226.60568811302414
 40
1.0000213744606741
 50
270.00141269522987
 51
358.74880180357042
  0
ARC
  8
_0-3_躯体と製品
  6
CONTINUOUS
 62
    3
 10
701.7655439367436
 20
226.60568826303256
 40
1.0000216427943811
 50
181.2512132394387
 51
269.99862594469772
  0
LINE
  8
_0-3_躯体と製品
  6
CONTINUOUS
 62
    3
 10
703.76576073424667
 20
245.10448540203993
 11
703.76576073424667
 21
225.60566732730126
  0
LINE
  8
_0-3_躯体と製品
  6
CONTINUOUS
 62
    3
 10
728.76576073418846
 20
218.60566732730126
 11
728.76576073418846
 21
225.60566732730126
  0
LINE
  8
_0-3_躯体と製品
  6
CONTINUOUS
 62
    3
 10
723.26575479619169
 20
226.58385089256956
 11
723.26575479619169
 21
245.10448540203993
  0
ARC
  8
_0-3_躯体と製品
  6
CONTINUOUS
 62
    3
 10
710.26596984678145
 20
226.60568811302414
 40
1.0000213744606741
 50
270.00141269522987
 51
358.74880180357042
  0
ARC
  8
_0-3_躯体と製品
  6
CONTINUOUS
 62
    3
 10
724.26553799874682
 20
226.60568742017108
 40
1.0000216427943811
 50
181.2512132394387
 51
269.99862594469772
  0
LINE
  8
_0-3_躯体と製品
  6
CONTINUOUS
 62
    3
 10
711.2657547961926
 20
226.5838483734002
 11
711.2657547961926
 21
245.10448540203993
  0
LINE
  8
_0-3_躯体と製品
  6
CONTINUOUS
 62
    3
 10
664.26576667218569
 20
226.58385089256956
 11
664.26576667218569
 21
245.10448540203993
  0
ARC
  8
_0-3_躯体と製品
  6
CONTINUOUS
 62
    3
 10
677.26555162159457
 20
226.60568811302414
 40
1.0000213744606741
 50
181.25119819642921
 51
269.99858730477013
  0
ARC
  8
_0-3_躯体と製品
  6
CONTINUOUS
 62
    3
 10
663.26598346962282
 20
226.60568742017108
 40
1.0000216427943811
 50
270.00137405530222
 51
358.74878676056119
  0
LINE
  8
_0-3_躯体と製品
  6
CONTINUOUS
 62
    3
 10
676.26576667218478
 20
226.5838483734002
 11
676.26576667218478
 21
245.10448540203993
  0
LINE
  8
_0-3_躯体と製品
  6
CONTINUOUS
 62
    3
 10
723.26575477861252
 20
226.58385169705775
 11
711.2657527833785
 21
226.58385169705775
  0
LINE
  8
_0-3_躯体と製品
  6
CONTINUOUS
 62
    3
 10
700.76576073501883
 20
226.58385169705775
 11
686.7657587198396
 21
226.58385169705775
  0
LINE
  8
_0-3_躯体と製品
  6
CONTINUOUS
 62
    3
 10
664.26576668974849
 20
226.58385169705775
 11
676.2657686849916
 21
226.58385169705775
  0
LINE
  8
_0-3_躯体と製品
  6
CONTINUOUS
 62
    3
 10
674.26576073420347
 20
218.60566732730126
 11
674.26576073420347
 21
222.60566732730126
  0
LINE
  8
_0-3_躯体と製品
  6
CONTINUOUS
 62
    3
 10
713.26576073420347
 20
222.60566732730126
 11
713.26576073420347
 21
218.60566732730126
  0
ARC
  8
_0-3_躯体と製品
  6
CONTINUOUS
 62
    3
 10
688.24048872647745
 20
249.10563580791836
 40
1.000031519520032
 50
90.000914411585498
 51
178.74823310219008
  0
ARC
  8
_0-3_躯体と製品
  6
CONTINUOUS
 62
    3
 10
699.29103274188583
 20
249.10563580791109
 40
1.000031519520032
 50
1.2517668978098631
 51
89.999085588414502
  0
LINE
  8
_0-3_躯体と製品
  6
CONTINUOUS
 62
    4
 10
685.01576073418846
 20
250.60566732730126
 11
685.01576073418846
 21
245.10566732730126
  0
LINE
  8
_0-3_躯体と製品
  6
CONTINUOUS
 62
    4
 10
663.86946175582671
 20
245.10448540203993
 11
686.51576073418846
 21
245.10448540203993
  0
LINE
  8
_0-3_躯体と製品
  6
CONTINUOUS
 62
    4
 10
693.51576073418846
 20
254.60566732725579
 11
694.01576073418846
 21
254.60566732725579
  0
LINE
  8
_0-3_躯体と製品
  6
CONTINUOUS
 62
    4
 10
694.01576073418846
 20
254.60566732725579
 11
694.01576073418846
 21
250.60566732730126
  0
LINE
  8
_0-3_躯体と製品
  6
CONTINUOUS
 62
    4
 10
693.51576073418846
 20
254.60566732725579
 11
693.51576073418846
 21
250.60566732730126
  0
LINE
  8
_0-3_躯体と製品
  6
CONTINUOUS
 62
    4
 10
686.51576073418846
 20
250.10566732730126
 11
686.51576073418846
 21
245.10448540203993
  0
LINE
  8
_0-3_躯体と製品
  6
CONTINUOUS
 62
    4
 10
686.51576073418846
 20
250.10566732730126
 11
701.01576073418846
 21
250.10566732730126
  0
LINE
  8
_0-3_躯体と製品
  6
CONTINUOUS
 62
    4
 10
723.66205971255067
 20
245.10448540203993
 11
701.01576073418846
 21
245.10448540203993
  0
LINE
  8
_0-3_躯体と製品
  6
CONTINUOUS
 62
    4
 10
701.01576073418846
 20
250.10566732730126
 11
701.01576073418846
 21
245.10174678969236
  0
LINE
  8
_0-3_躯体と製品
  6
CONTINUOUS
 62
    4
 10
724.26576073418846
 20
250.60566732730126
 11
663.26576073418846
 21
250.60566732730126
  0
LINE
  8
_0-3_躯体と製品
  6
CONTINUOUS
 62
    4
 10
707.26576073418846
 20
250.60566732730126
 11
707.26576073418846
 21
254.60566732725579
  0
LINE
  8
_0-3_躯体と製品
  6
CONTINUOUS
 62
    4
 10
702.51576073418846
 20
250.60566732730126
 11
702.51576073418846
 21
245.10566732730126
  0
LINE
  8
_0-3_躯体と製品
  6
CONTINUOUS
 62
    4
 10
716.01576073418846
 20
254.60566732725579
 11
707.26576073418846
 21
254.60566732725579
  0
LINE
  8
_0-3_躯体と製品
  6
CONTINUOUS
 62
    4
 10
716.01576073418846
 20
250.60566732730126
 11
716.01576073418846
 21
254.60566732725579
  0
LINE
  8
_0-3_躯体と製品
  6
CONTINUOUS
 62
    4
 10
678.61031616795572
 20
250.60566732730126
 11
678.61031616795572
 21
245.10566732730126
  0
LINE
  8
_0-3_躯体と製品
  6
CONTINUOUS
 62
    4
 10
708.92120530040756
 20
250.60566732730126
 11
708.92120530040756
 21
245.10566732730126
  0
LINE
  8
_0-3_躯体と製品
  6
CONTINUOUS
 62
    4
 10
680.26576073418846
 20
250.60566732730126
 11
680.26576073418846
 21
254.60566732725579
  0
LINE
  8
_0-3_躯体と製品
  6
CONTINUOUS
 62
    4
 10
671.51576073418846
 20
254.60566732725579
 11
680.26576073418846
 21
254.60566732725579
  0
LINE
  8
_0-3_躯体と製品
  6
CONTINUOUS
 62
    4
 10
671.51576073418846
 20
250.60566732730126
 11
671.51576073418846
 21
254.60566732725579
  0
LINE
  8
_0-3_躯体と製品
  6
CONTINUOUS
 62
    4
 10
663.26576073418846
 20
254.60566732725579
 11
669.01576073418846
 21
254.60566732725579
  0
LINE
  8
_0-3_躯体と製品
  6
CONTINUOUS
 62
    4
 10
669.01576073418846
 20
250.60566732730126
 11
669.01576073418846
 21
254.60566732725579
  0
LINE
  8
_0-3_躯体と製品
  6
CONTINUOUS
 62
    4
 10
663.26576073418846
 20
250.10566732730126
 11
663.26576073418846
 21
254.60566732725579
  0
LINE
  8
_0-3_躯体と製品
  6
CONTINUOUS
 62
    4
 10
664.26576073418846
 20
250.60566732730126
 11
664.26576073418846
 21
245.10448540203993
  0
LINE
  8
_0-3_躯体と製品
  6
CONTINUOUS
 62
    4
 10
663.86946175582671
 20
250.10566732730126
 11
663.26576073418846
 21
250.10566732730126
  0
LINE
  8
_0-3_躯体と製品
  6
CONTINUOUS
 62
    4
 10
663.86946175582671
 20
250.10566732730126
 11
663.86946175582671
 21
245.10448540203993
  0
LINE
  8
_0-3_躯体と製品
  6
CONTINUOUS
 62
    4
 10
724.26576073418073
 20
254.60566732725579
 11
718.51576073418846
 21
254.60566732725579
  0
LINE
  8
_0-3_躯体と製品
  6
CONTINUOUS
 62
    4
 10
718.51576073418846
 20
250.60566732730126
 11
718.51576073418846
 21
254.60566732725579
  0
LINE
  8
_0-3_躯体と製品
  6
CONTINUOUS
 62
    4
 10
724.26576073418073
 20
250.10566732730126
 11
724.26576073418073
 21
254.60566732725579
  0
LINE
  8
_0-3_躯体と製品
  6
CONTINUOUS
 62
    4
 10
723.26576073418846
 20
250.60566732730126
 11
723.26576073418846
 21
245.10448540203993
  0
LINE
  8
_0-3_躯体と製品
  6
CONTINUOUS
 62
    4
 10
723.66205971255067
 20
250.10566732730126
 11
724.26576073418846
 21
250.10566732730126
  0
LINE
  8
_0-3_躯体と製品
  6
CONTINUOUS
 62
    4
 10
723.66205971255067
 20
250.10566732730126
 11
723.66205971255067
 21
245.10448540203993
  0
LINE
  8
_0-3_躯体と製品
  6
CONTINUOUS
 62
    6
 10
706.76576073415981
 20
190.90247295669883
 11
706.76576073415981
 21
188.10566732730126
  0
LINE
  8
_0-3_躯体と製品
  6
CONTINUOUS
 62
    6
 10
706.76576073415981
 20
188.10566732730126
 11
644.76576073415981
 21
188.10566732730126
  0
LINE
  8
_0-3_躯体と製品
  6
CONTINUOUS
 62
    6
 10
644.76576073415981
 20
188.10566732730126
 11
644.76576073415981
 21
190.90247295669883
  0
ARC
  8
_0-3_躯体と製品
  6
CONTINUOUS
 62
    6
 10
645.96895510476588
 20
190.90247295669519
 40
1.2031943706060699
 50
89.999999999826755
 51
179.99999999982677
  0
LINE
  8
_0-3_躯体と製品
  6
CONTINUOUS
 62
    6
 10
645.96895510476952
 20
192.10566732730126
 11
705.56256636354965
 21
192.10566732730126
  0
LINE
  8
_0-3_躯体と製品
  6
CONTINUOUS
 62
    6
 10
705.56256636354965
 20
192.10566732730126
 11
706.76576073415981
 21
190.90247295669883
  0
LINE
  8
_0-3_躯体と製品
  6
CONTINUOUS
 62
    6
 10
686.26576073415981
 20
188.10566732730126
 11
686.26576073415981
 21
187.10566732730126
  0
LINE
  8
_0-3_躯体と製品
  6
CONTINUOUS
 62
    6
 10
686.26576073415981
 20
187.10566732730126
 11
701.26576073415981
 21
187.10566732730126
  0
LINE
  8
_0-3_躯体と製品
  6
CONTINUOUS
 62
    6
 10
701.26576073415981
 20
187.10566732730126
 11
701.26576073415981
 21
188.10566732730126
  0
LINE
  8
_0-3_躯体と製品
  6
CONTINUOUS
 62
    6
 10
706.76576073415981
 20
194.08497932730438
 11
706.76576073419574
 21
192.62635532729814
  0
ARC
  8
_0-3_躯体と製品
  6
CONTINUOUS
 62
    6
 10
706.24507273419863
 20
192.62635532729837
 40
0.5206879999971079
 50
269.99999999997499
 51
359.99999999997499
  0
LINE
  8
_0-3_躯体と製品
  6
CONTINUOUS
 62
    6
 10
706.2450727341984
 20
192.10566732730126
 11
681.28644873417852
 21
192.10566732730126
  0
ARC
  8
_0-3_躯体と製品
  6
CONTINUOUS
 62
    6
 10
681.28644873416761
 20
192.62635532730906
 40
0.5206880000077944
 50
180.00000000120099
 51
270.00000000120099
  0
LINE
  8
_0-3_躯体と製品
  6
CONTINUOUS
 62
    6
 10
680.76576073415981
 20
192.62635532729814
 11
680.76576073418164
 21
194.08497932730438
  0
ARC
  8
_0-3_躯体と製品
  6
CONTINUOUS
 62
    6
 10
681.28644873417852
 20
194.08497932730438
 40
0.5206879999968804
 50
89.999999999999986
 51
180
  0
LINE
  8
_0-3_躯体と製品
  6
CONTINUOUS
 62
    6
 10
681.28644873417852
 20
194.60566732730126
 11
706.2450727341984
 21
194.60566732730126
  0
LINE
  8
_0-3_躯体と製品
  6
CONTINUOUS
 62
    6
 10
706.2450727341984
 20
194.60566732730126
 11
706.76576073415981
 21
194.08497932730438
  0
LINE
  8
_0-3_躯体と製品
  6
CONTINUOUS
 62
    3
 10
194.26210473418951
 20
254.60566732729762
 11
833.2799515614538
 21
254.60566732729956
  0
LINE
  8
_0-3_躯体と製品
  6
CONTINUOUS
 62
    3
 10
248.76576074032982
 20
167.90566733565959
 11
248.76576074032982
 21
186.10566732730069
  0
LINE
  8
_0-3_躯体と製品
  6
CONTINUOUS
 62
    3
 10
238.76576072804755
 20
167.90566733565959
 11
238.76576072804755
 21
186.10566732730069
  0
LINE
  8
_0-3_躯体と製品
  6
CONTINUOUS
 62
    3
 10
250.76576074277364
 20
167.90566733565959
 11
250.76576074277455
 21
186.10566732730069
  0
LINE
  8
_0-3_躯体と製品
  6
CONTINUOUS
 62
    3
 10
236.76576072554462
 20
167.90566733565959
 11
236.76576072554462
 21
186.10566732730069
  0
LINE
  8
_0-3_躯体と製品
  6
CONTINUOUS
 62
    3
 10
281.26576078031849
 20
163.10566732975599
 11
281.26576078031849
 21
161.10566732729671
  0
LINE
  8
_0-3_躯体と製品
  6
CONTINUOUS
 62
    3
 10
206.26576068805844
 20
163.10566732975599
 11
206.26576068805844
 21
161.10566732729671
  0
LINE
  8
_0-3_躯体と製品
  6
CONTINUOUS
 62
    3
 10
206.26576068805844
 20
161.10566732729671
 11
281.26576078031849
 21
161.10566732729671
  0
LINE
  8
_0-3_躯体と製品
  6
CONTINUOUS
 62
    3
 10
231.92547318526249
 20
167.90566733565959
 11
256.62265681883446
 21
167.90566733565959
  0
LINE
  8
_0-3_躯体と製品
  6
CONTINUOUS
 62
    3
 10
215.3673293642405
 20
165.10566733222254
 11
271.27257894981358
 21
165.10566733222254
  0
LINE
  8
_0-3_躯体と製品
  6
CONTINUOUS
 62
    3
 10
206.26576068805844
 20
163.10566732975599
 11
281.26576078031849
 21
163.10566732975599
  0
LINE
  8
_0-3_躯体と製品
  6
CONTINUOUS
 62
    3
 10
231.92547318526249
 20
165.10566733222254
 11
231.92547318526249
 21
167.90566733565959
  0
LINE
  8
_0-3_躯体と製品
  6
CONTINUOUS
 62
    3
 10
219.51576070435749
 20
164.20566733111514
 11
220.89776109351669
 21
163.10566732975599
  0
LINE
  8
_0-3_躯体と製品
  6
CONTINUOUS
 62
    3
 10
219.51576070435749
 20
164.20566733111514
 11
210.51576069329758
 21
164.20566733111514
  0
LINE
  8
_0-3_躯体と製品
  6
CONTINUOUS
 62
    3
 10
210.51576069329758
 20
164.20566733111514
 11
209.13376069156857
 21
163.10566732975599
  0
LINE
  8
_0-3_躯体と製品
  6
CONTINUOUS
 62
    3
 10
214.74551118165846
 20
164.20566733111514
 11
215.3673293642405
 21
165.10566733222254
  0
LINE
  8
_0-3_躯体と製品
  6
CONTINUOUS
 62
    3
 10
256.62265681883446
 20
165.10566733222254
 11
256.62265681883446
 21
167.90566733565959
  0
LINE
  8
_0-3_躯体と製品
  6
CONTINUOUS
 62
    3
 10
277.0157607750798
 20
164.20566733111514
 11
278.3977607767506
 21
163.10566732975599
  0
LINE
  8
_0-3_躯体と製品
  6
CONTINUOUS
 62
    3
 10
268.01576076401943
 20
164.20566733111514
 11
266.63376037486069
 21
163.10566732975599
  0
LINE
  8
_0-3_躯体と製品
  6
CONTINUOUS
 62
    3
 10
271.27257894981358
 20
165.10566733222254
 11
271.89439713239562
 21
164.20566733111514
  0
LINE
  8
_0-3_躯体と製品
  6
CONTINUOUS
 62
    3
 10
268.01576076401943
 20
164.20566733111514
 11
277.0157607750798
 21
164.20566733111514
  0
LINE
  8
_0-3_躯体と製品
  6
CONTINUOUS
 62
    6
 10
230.76576073421757
 20
189.90247295669826
 11
230.76576073421757
 21
187.10566732730069
  0
LINE
  8
_0-3_躯体と製品
  6
CONTINUOUS
 62
    6
 10
230.76576073421757
 20
187.10566732730069
 11
292.76576073421757
 21
187.10566732730069
  0
LINE
  8
_0-3_躯体と製品
  6
CONTINUOUS
 62
    6
 10
292.76576073421757
 20
187.10566732730069
 11
292.76576073421757
 21
189.90247295669826
  0
ARC
  8
_0-3_躯体と製品
  6
CONTINUOUS
 62
    6
 10
291.56256636361127
 20
189.9024729566944
 40
1.2031943706062975
 50
0.0000000001840717
 51
90.000000000184087
  0
LINE
  8
_0-3_躯体と製品
  6
CONTINUOUS
 62
    6
 10
291.5625663636074
 20
191.10566732730069
 11
231.96895510482773
 21
191.10566732730069
  0
LINE
  8
_0-3_躯体と製品
  6
CONTINUOUS
 62
    6
 10
231.96895510482773
 20
191.10566732730069
 11
230.76576073421757
 21
189.90247295669826
  0
LINE
  8
_0-3_躯体と製品
  6
CONTINUOUS
 62
    6
 10
251.26576073421757
 20
187.10566732730069
 11
251.26576073421757
 21
186.10566732730069
  0
LINE
  8
_0-3_躯体と製品
  6
CONTINUOUS
 62
    6
 10
251.26576073421757
 20
186.10566732730069
 11
236.26576073421757
 21
186.10566732730069
  0
LINE
  8
_0-3_躯体と製品
  6
CONTINUOUS
 62
    6
 10
236.26576073421757
 20
186.10566732730069
 11
236.26576073421757
 21
187.10566732730069
  0
LINE
  8
_0-3_躯体と製品
  6
CONTINUOUS
 62
    6
 10
230.76576073421757
 20
193.08497932730381
 11
230.76576073418164
 21
191.62635532729757
  0
ARC
  8
_0-3_躯体と製品
  6
CONTINUOUS
 62
    6
 10
231.28644873417852
 20
191.62635532729757
 40
0.5206879999968804
 50
180
 51
270
  0
LINE
  8
_0-3_躯体と製品
  6
CONTINUOUS
 62
    6
 10
231.28644873417852
 20
191.10566732730069
 11
256.2450727341984
 21
191.10566732730069
  0
ARC
  8
_0-3_躯体と製品
  6
CONTINUOUS
 62
    6
 10
256.24507273420954
 20
191.62635532730872
 40
0.5206880000080218
 50
269.999999998774
 51
359.99999999877406
  0
LINE
  8
_0-3_躯体と製品
  6
CONTINUOUS
 62
    6
 10
256.76576073421757
 20
191.62635532729757
 11
256.76576073419574
 21
193.08497932730381
  0
ARC
  8
_0-3_躯体と製品
  6
CONTINUOUS
 62
    6
 10
256.24507273419857
 20
193.08497932730364
 40
0.5206879999971647
 50
0.0000000000187708
 51
90.000000000018773
  0
LINE
  8
_0-3_躯体と製品
  6
CONTINUOUS
 62
    6
 10
256.2450727341984
 20
193.60566732730081
 11
231.28644873417852
 21
193.60566732730081
  0
LINE
  8
_0-3_躯体と製品
  6
CONTINUOUS
 62
    6
 10
231.28644873417852
 20
193.60566732730081
 11
230.76576073421757
 21
193.08497932730381
  0
LINE
  8
_0-3_躯体と製品
  6
CONTINUOUS
 62
    3
 10
254.76576073418846
 20
193.60566732730081
 11
254.76576073418846
 21
217.60566732730081
  0
LINE
  8
_0-3_躯体と製品
  6
CONTINUOUS
 62
    3
 10
232.76576073418846
 20
193.60566732730081
 11
232.76576073418846
 21
217.60566732730081
  0
LINE
  8
_0-3_躯体と製品
  6
CONTINUOUS
 62
    3
 10
232.76576073418846
 20
193.60566732730081
 11
254.76576073418846
 21
193.60566732730081
  0
LINE
  8
_0-3_躯体と製品
  6
CONTINUOUS
 62
    4
 10
207.06576073417682
 20
224.60566732730069
 11
280.46576073420056
 21
224.60566732730069
  0
LINE
  8
_0-3_躯体と製品
  6
CONTINUOUS
 62
    4
 10
280.46576073420056
 20
224.60566732730069
 11
280.46576073420056
 21
225.60566732730081
  0
LINE
  8
_0-3_躯体と製品
  6
CONTINUOUS
 62
    4
 10
280.46576073420056
 20
225.60566732730081
 11
207.06576073417682
 21
225.60566732730081
  0
LINE
  8
_0-3_躯体と製品
  6
CONTINUOUS
 62
    4
 10
207.06576073417682
 20
225.60566732730081
 11
207.06576073417682
 21
224.60566732730069
  0
LINE
  8
_0-3_躯体と製品
  6
CONTINUOUS
 62
    3
 10
278.76576073418846
 20
217.60566732730081
 11
208.76576073418846
 21
217.60566732730081
  0
LINE
  8
_0-3_躯体と製品
  6
CONTINUOUS
 62
    3
 10
208.76576073418846
 20
221.60566732730081
 11
233.26576073418846
 21
221.60566732730081
  0
LINE
  8
_0-3_躯体と製品
  6
CONTINUOUS
 62
    3
 10
236.26576073418846
 20
221.60566732730081
 11
251.26576073418846
 21
221.60566732730081
  0
LINE
  8
_0-3_躯体と製品
  6
CONTINUOUS
 62
    3
 10
254.26576073418846
 20
221.60566732730081
 11
278.76576073418846
 21
221.60566732730081
  0
LINE
  8
_0-3_躯体と製品
  6
CONTINUOUS
 62
    3
 10
208.76576073418846
 20
217.60566732730081
 11
208.76576073418846
 21
224.60566732730069
  0
LINE
  8
_0-3_躯体と製品
  6
CONTINUOUS
 62
    3
 10
278.76576073418846
 20
217.60566732730081
 11
278.76576073418846
 21
224.60566732730069
  0
LINE
  8
_0-3_躯体と製品
  6
CONTINUOUS
 62
    4
 10
220.79076073415354
 20
221.60566732730081
 11
220.79076073415354
 21
218.80566732730506
  0
LINE
  8
_0-3_躯体と製品
  6
CONTINUOUS
 62
    4
 10
220.79076073415354
 20
218.80566732730506
 11
215.74076073416563
 21
218.80566732730506
  0
LINE
  8
_0-3_躯体と製品
  6
CONTINUOUS
 62
    4
 10
215.74076073416563
 20
221.60566732730081
 11
215.74076073416563
 21
218.80566732730506
  0
LINE
  8
_0-3_躯体と製品
  6
CONTINUOUS
 62
    4
 10
266.74076073422384
 20
221.60566732730081
 11
266.74076073422384
 21
218.80566732730506
  0
LINE
  8
_0-3_躯体と製品
  6
CONTINUOUS
 62
    4
 10
266.74076073422384
 20
218.80566732730506
 11
271.79076073421174
 21
218.80566732730506
  0
LINE
  8
_0-3_躯体と製品
  6
CONTINUOUS
 62
    4
 10
271.79076073421174
 20
221.60566732730081
 11
271.79076073421174
 21
218.80566732730506
  0
LINE
  8
_0-3_躯体と製品
  6
CONTINUOUS
 62
    3
 10
251.26576073418846
 20
221.60566732730081
 11
251.51576073418846
 21
217.60566732730081
  0
LINE
  8
_0-3_躯体と製品
  6
CONTINUOUS
 62
    3
 10
251.51576073418846
 20
217.60566732730081
 11
254.01576073418846
 21
217.60566732730081
  0
LINE
  8
_0-3_躯体と製品
  6
CONTINUOUS
 62
    3
 10
254.01576073418846
 20
217.60566732730081
 11
254.26576073418846
 21
221.60566732730081
  0
LINE
  8
_0-3_躯体と製品
  6
CONTINUOUS
 62
    3
 10
236.26576073418846
 20
221.60566732730081
 11
236.01576073418846
 21
217.60566732730081
  0
LINE
  8
_0-3_躯体と製品
  6
CONTINUOUS
 62
    3
 10
236.01576073418846
 20
217.60566732730081
 11
233.51576073418846
 21
217.60566732730081
  0
LINE
  8
_0-3_躯体と製品
  6
CONTINUOUS
 62
    3
 10
233.51576073418846
 20
217.60566732730081
 11
233.26576073418846
 21
221.60566732730081
  0
LINE
  8
_0-3_躯体と製品
  6
CONTINUOUS
 62
    4
 10
479.97182856044947
 20
161.10566732729671
 11
449.97182856044856
 21
131.10566732729671
  0
LINE
  8
_0-3_躯体と製品
  6
CONTINUOUS
 62
    4
 10
489.97182856044947
 20
161.10566732729671
 11
459.97182856044947
 21
131.10566732729671
  0
LINE
  8
_0-3_躯体と製品
  6
CONTINUOUS
 62
    4
 10
499.97182856044947
 20
161.10566732729671
 11
469.97182856044856
 21
131.10566732729671
  0
LINE
  8
_0-3_躯体と製品
  6
CONTINUOUS
 62
    4
 10
679.70146315601869
 20
161.10566732729671
 11
649.70146315602551
 21
131.10566732729671
  0
LINE
  8
_0-3_躯体と製品
  6
CONTINUOUS
 62
    4
 10
689.70146315601869
 20
161.10566732729671
 11
659.70146315601869
 21
131.10566732729671
  0
LINE
  8
_0-3_躯体と製品
  6
CONTINUOUS
 62
    4
 10
699.70146315601869
 20
161.10566732729671
 11
669.70146315601869
 21
131.10566732729671
  0
LINE
  8
_0-3_躯体と製品
  6
CONTINUOUS
 62
    3
 10
194.26210473418951
 20
255.60566732729762
 11
833.2799515614538
 21
255.60566732729956
  0
LINE
  8
_0-3_躯体と製品
  6
CONTINUOUS
 62
    3
 10
198.76210473418951
 20
256.60566732729751
 11
833.2799515614538
 21
256.60566732729956
  0
LINE
  8
_0-3_躯体と製品
  6
CONTINUOUS
 62
    4
 10
280.24219396487979
 20
161.10566732729671
 11
250.24219396487979
 21
131.10566732729671
  0
LINE
  8
_0-3_躯体と製品
  6
CONTINUOUS
 62
    4
 10
290.24219396487979
 20
161.10566732729671
 11
260.24219396487979
 21
131.10566732729671
  0
LINE
  8
_0-3_躯体と製品
  6
CONTINUOUS
 62
    4
 10
300.24219396487979
 20
161.10566732729671
 11
270.24219396487979
 21
131.10566732729671
  0
ARC
  8
_0-3_躯体と製品
  6
CONTINUOUS
 62
    2
 10
694.96576073418873
 20
253.90566732730645
 40
0.6999999999999999
 50
90
 51
270
  0
LINE
  8
_0-3_躯体と製品
  6
CONTINUOUS
 62
    2
 10
694.96576073418873
 20
254.60566732729671
 11
833.2799515614538
 21
254.60566732729694
  0
LINE
  8
_0-3_躯体と製品
  6
CONTINUOUS
 62
    2
 10
833.2799515614538
 20
253.20566732730686
 11
724.26576073418073
 21
253.20566732730663
  0
LINE
  8
_0-3_躯体と製品
  6
CONTINUOUS
 62
    2
 10
718.51576073418846
 20
253.20566732730663
 11
716.01576073418846
 21
253.20566732730606
  0
LINE
  8
_0-3_躯体と製品
  6
CONTINUOUS
 62
    2
 10
707.26576073419074
 20
253.20566732730606
 11
694.96576073418873
 21
253.20566732730663
  0
ARC
  8
_0-3_躯体と製品
  6
CONTINUOUS
 62
    2
 10
694.96576073418873
 20
253.90566732730645
 40
0.6999999999999999
 50
90
 51
270
  0
LINE
  8
_0-3_躯体と製品
  6
CONTINUOUS
 62
    2
 10
833.2799515614538
 20
227.60566732730103
 11
766.46576073418964
 21
227.60566732730069
  0
ARC
  8
_0-3_躯体と製品
  6
CONTINUOUS
 62
    2
 10
707.26576073419255
 20
229.10566732730081
 40
3.5
 50
180
 51
270
  0
LINE
  8
_0-3_躯体と製品
  6
CONTINUOUS
 62
    2
 10
703.76576073419164
 20
229.10566732730081
 11
703.76576073419483
 21
245.10448540203936
  0
LINE
  8
_0-3_躯体と製品
  6
CONTINUOUS
 62
    2
 10
703.76576073419164
 20
250.60566732730126
 11
703.76576073419164
 21
252.20566732730663
  0
LINE
  8
_0-3_躯体と製品
  6
CONTINUOUS
 62
    2
 10
833.2799515614538
 20
225.60566732730081
 11
707.26576073419255
 21
225.60566732730081
  0
LINE
  8
_0-3_躯体と製品
  6
CONTINUOUS
 62
    2
 10
766.46576073418964
 20
227.60566732730797
 11
766.46576073418964
 21
225.60566732730081
  0
ARC
  8
_0-3_躯体と製品
  6
CONTINUOUS
 62
    2
 10
702.76576073418983
 20
252.20566732730526
 40
1.0000000000018188
 50
0.0000000000781719
 51
89.999999999895806
  0
ARC
  8
_0-3_躯体と製品
  6
CONTINUOUS
 62
    2
 10
194.96576073418964
 20
253.90566732730645
 40
0.6999999999999999
 50
90
 51
270
  0
LINE
  8
_0-3_躯体と製品
  6
CONTINUOUS
 62
    2
 10
194.96576073418964
 20
254.60566732729671
 11
692.56576073418773
 21
254.60566732729671
  0
LINE
  8
_0-3_躯体と製品
  6
CONTINUOUS
 62
    2
 10
692.56576073418773
 20
253.20566732730663
 11
680.26576073418846
 21
253.20566732730663
  0
LINE
  8
_0-3_躯体と製品
  6
CONTINUOUS
 62
    2
 10
671.51576073419074
 20
253.20566732730663
 11
669.01576073419074
 21
253.20566732730663
  0
LINE
  8
_0-3_躯体と製品
  6
CONTINUOUS
 62
    2
 10
663.26576073418846
 20
253.20566732730663
 11
194.96576073418964
 21
253.20566732730663
  0
ARC
  8
_0-3_躯体と製品
  6
CONTINUOUS
 62
    2
 10
194.96576073418964
 20
253.90566732730645
 40
0.6999999999999999
 50
90
 51
270
  0
LINE
  8
_0-3_躯体と製品
  6
CONTINUOUS
 62
    2
 10
621.06576073418773
 20
227.60566732730069
 11
266.46576073418964
 21
227.60566732730069
  0
ARC
  8
_0-3_躯体と製品
  6
CONTINUOUS
 62
    2
 10
207.26576073419255
 20
229.10566732730081
 40
3.5
 50
180
 51
270
  0
LINE
  8
_0-3_躯体と製品
  6
CONTINUOUS
 62
    2
 10
203.76576073419255
 20
229.10566732730081
 11
203.76576073419255
 21
252.20566732730663
  0
LINE
  8
_0-3_躯体と製品
  6
CONTINUOUS
 62
    2
 10
680.26576073419164
 20
225.60566732730081
 11
207.26576073419255
 21
225.60566732730081
  0
LINE
  8
_0-3_躯体と製品
  6
CONTINUOUS
 62
    2
 10
266.46576073418964
 20
227.60566732730797
 11
266.46576073418964
 21
225.60566732730081
  0
LINE
  8
_0-3_躯体と製品
  6
CONTINUOUS
 62
    2
 10
621.06576073418773
 20
225.60566732730081
 11
621.06576073418773
 21
227.60566732730797
  0
ARC
  8
_0-3_躯体と製品
  6
CONTINUOUS
 62
    2
 10
680.26576073419164
 20
229.10566732730081
 40
3.5
 50
270
 51
0
  0
LINE
  8
_0-3_躯体と製品
  6
CONTINUOUS
 62
    2
 10
683.76576073419255
 20
252.20566732730663
 11
683.76576073419255
 21
250.60566732730126
  0
LINE
  8
_0-3_躯体と製品
  6
CONTINUOUS
 62
    2
 10
683.76576073419346
 20
245.10448540203936
 11
683.76576073419255
 21
229.10566732730081
  0
ARC
  8
_0-3_躯体と製品
  6
CONTINUOUS
 62
    2
 10
202.76576073419028
 20
252.20566732730481
 40
1.0000000000022737
 50
0.0000000001042287
 51
89.999999999921855
  0
ARC
  8
_0-3_躯体と製品
  6
CONTINUOUS
 62
    2
 10
692.56576073418773
 20
253.90566732730645
 40
0.6999999999999999
 50
270
 51
90
  0
ARC
  8
_0-3_躯体と製品
  6
CONTINUOUS
 62
    2
 10
692.56576073418773
 20
253.90566732730645
 40
0.6999999999999999
 50
270
 51
90
  0
ARC
  8
_0-3_躯体と製品
  6
CONTINUOUS
 62
    2
 10
684.7657607341871
 20
252.20566732730481
 40
1.0000000000022737
 50
90.000000000078145
 51
179.99999999989578
  0
LINE
  8
_0-3_躯体と製品
  6
HASEN
 62
    2
 10
220.79076073415354
 20
222.13055052245466
 11
215.74076073416563
 21
222.13055052245466
  0
LINE
  8
_0-3_躯体と製品
  6
HASEN
 62
    2
 10
220.79076073415354
 20
221.63055052245466
 11
215.74076073416563
 21
221.63055052245466
  0
ARC
  8
_0-3_躯体と製品
  6
HASEN
 62
    2
 10
220.73451073418846
 20
221.88055052245466
 40
0.2562499999998978
 50
282.68038349357067
 51
77.31961650642927
  0
ARC
  8
_0-3_躯体と製品
  6
HASEN
 62
    2
 10
215.79701073418846
 20
221.88055052245466
 40
0.2562500000005634
 50
102.68038349357069
 51
257.31961650642933
  0
LINE
  8
_0-3_躯体と製品
  6
HASEN
 62
    2
 10
220.79076073415354
 20
221.60566732730081
 11
220.79076073414672
 21
221.63055052245466
  0
LINE
  8
_0-3_躯体と製品
  6
HASEN
 62
    2
 10
220.79076073414672
 20
222.13055052245466
 11
220.79076073414672
 21
224.60566732730069
  0
LINE
  8
_0-3_躯体と製品
  6
HASEN
 62
    2
 10
215.74076073415745
 20
221.60566732730081
 11
215.74076073415745
 21
221.63055052245466
  0
LINE
  8
_0-3_躯体と製品
  6
HASEN
 62
    2
 10
215.74076073415745
 20
222.13055052245466
 11
215.74076073415745
 21
224.60566732730069
  0
LINE
  8
_0-3_躯体と製品
  6
HASEN
 62
    2
 10
266.74076073422384
 20
222.13055052245466
 11
271.79076073421174
 21
222.13055052245466
  0
LINE
  8
_0-3_躯体と製品
  6
HASEN
 62
    2
 10
266.74076073422384
 20
221.63055052245466
 11
271.79076073421174
 21
221.63055052245466
  0
ARC
  8
_0-3_躯体と製品
  6
HASEN
 62
    2
 10
266.79701073418846
 20
221.88055052245466
 40
0.2562499999998978
 50
102.68038349357069
 51
257.31961650642933
  0
ARC
  8
_0-3_躯体と製品
  6
HASEN
 62
    2
 10
271.73451073418846
 20
221.88055052245466
 40
0.2562500000005634
 50
282.68038349357067
 51
77.31961650642927
  0
LINE
  8
_0-3_躯体と製品
  6
HASEN
 62
    2
 10
266.74076073422384
 20
221.60566732730081
 11
266.74076073422384
 21
221.63055052245466
  0
LINE
  8
_0-3_躯体と製品
  6
HASEN
 62
    2
 10
266.74076073422384
 20
222.13055052245466
 11
266.74076073422384
 21
224.60566732730069
  0
LINE
  8
_0-3_躯体と製品
  6
HASEN
 62
    2
 10
271.79076073421174
 20
221.60566732730081
 11
271.79076073421174
 21
221.63055052245466
  0
LINE
  8
_0-3_躯体と製品
  6
HASEN
 62
    2
 10
271.79076073421174
 20
222.13055052245466
 11
271.79076073421174
 21
224.60566732730069
  0
INSERT
  2
-001-_D2
  8
_0-0_0
 10
-2693.2835307044834
 20
-372.02995386897669
 41
1
 42
1
 50
0
  0
LINE
  8
_0-3_躯体と製品
  6
CONTINUOUS
 62
    3
 10
198.76210473418951
 20
261.10567932729714
 11
833.2799515614538
 21
261.10567932729714
  0
LINE
  8
_0-4_文字-記号
  6
CONTINUOUS
 62
    7
 10
544.89446634936758
 20
244.60567932729714
 11
577.51475634936878
 21
301.10567932729714
  0
LINE
  8
_0-4_文字-記号
  6
CONTINUOUS
 62
    7
 10
544.89446634936758
 20
244.60567932729714
 11
550.62651634936765
 21
250.5338793272972
  0
LINE
  8
_0-4_文字-記号
  6
CONTINUOUS
 62
    7
 10
544.89446634936758
 20
244.60567932729714
 11
547.16241634936841
 21
252.53387932729709
  0
LINE
  8
_0-4_文字-記号
  6
CONTINUOUS
 62
    7
 10
577.51475634936878
 20
301.10567932729714
 11
720.07449505755449
 21
301.10567932729714
  0
LINE
  8
_0-4_文字-記号
  6
CONTINUOUS
 62
    7
 10
429.22396433576569
 20
301.10567932729714
 11
530.03917327247655
 21
301.10567932729714
  0
TEXT
  8
_0-4_文字-記号
 62
    7
 10
435.60625581388877
 20
305.10565932729719
 40
12
 41
0.8000000000000001
 50
0
  1
タイルカーペット
  0
LINE
  8
_0-4_文字-記号
  6
CONTINUOUS
 62
    7
 10
406.12995433576452
 20
261.10567932729714
 11
429.22396433576569
 21
301.10567932729714
  0
LINE
  8
_0-4_文字-記号
  6
CONTINUOUS
 62
    7
 10
406.12995433576452
 20
261.10567932729714
 11
411.8620043357655
 21
267.0338793272972
  0
LINE
  8
_0-4_文字-記号
  6
CONTINUOUS
 62
    7
 10
406.12995433576452
 20
261.10567932729714
 11
408.39790433576445
 21
269.03387932729709
  0
INSERT
  2
-002-_D3
  8
_0-0_0
 10
-2693.2835307044834
 20
-372.02995386897669
 41
1
 42
1
 50
0
  0
LINE
  8
_0-0_0
  6
CONTINUOUS
 62
    7
 10
11.262105734190754
 20
161.10566732729671
 11
833.2799515614538
 21
161.10566732729671
  0
LINE
  8
_0-3_躯体と製品
  6
CONTINUOUS
 62
    7
 10
188.26210473418951
 20
161.10566732729671
 11
157.26210473418951
 21
161.10566732729671
  0
LINE
  8
_0-4_文字-記号
  6
CONTINUOUS
 62
    7
 10
194.66210267638871
 20
261.0369134717464
 11
250.57810267638843
 21
316.62137572782342
  0
LINE
  8
_0-4_文字-記号
  6
CONTINUOUS
 62
    7
 10
250.57810267638843
 20
316.62137572782342
 11
390.01882027285046
 21
316.62137572782342
  0
LINE
  8
_0-4_文字-記号
  6
CONTINUOUS
 62
    7
 10
194.66210251203847
 20
261.03691435866187
 11
201.97400967190379
 21
264.84952057069347
  0
LINE
  8
_0-4_文字-記号
  6
CONTINUOUS
 62
    7
 10
194.66210251203847
 20
261.03691435866187
 11
199.31961767096345
 21
267.8418761503907
  0
LINE
  8
_0-1_PRO0
  6
CONTINUOUS
 62
    1
 10
192.26210473418951
 20
222.70929792096786
 11
191.76210473418951
 21
223.20929792096786
  0
LINE
  8
_0-1_PRO0
  6
CONTINUOUS
 62
    1
 10
193.26222473418966
 20
222.70929792096786
 11
192.26210473418951
 21
222.70929792096786
  0
LINE
  8
_0-1_PRO0
  6
CONTINUOUS
 62
    1
 10
193.06210473418969
 20
261.03691551734551
 11
193.16210473418869
 21
260.73691551734544
  0
LINE
  8
_0-1_PRO0
  6
CONTINUOUS
 62
    1
 10
193.16210473418869
 20
260.73691551734544
 11
193.76210473418951
 21
260.73691551734544
  0
LINE
  8
_0-1_PRO0
  6
CONTINUOUS
 62
    1
 10
193.76210473418951
 20
260.73691551734544
 11
193.86210473418851
 21
261.03691551734551
  0
LINE
  8
_0-1_PRO0
  6
CONTINUOUS
 62
    1
 10
194.66210473418869
 20
261.03691551734551
 11
194.7621047341886
 21
260.73691551734544
  0
LINE
  8
_0-1_PRO0
  6
CONTINUOUS
 62
    1
 10
194.7621047341886
 20
260.73691551734544
 11
195.36210473418942
 21
260.73691551734544
  0
LINE
  8
_0-1_PRO0
  6
CONTINUOUS
 62
    1
 10
195.36210473418942
 20
260.73691551734544
 11
195.46210473418842
 21
261.03691551734551
  0
LINE
  8
_0-1_PRO0
  6
CONTINUOUS
 62
    1
 10
196.2621047341886
 20
261.03691551734551
 11
196.36210473418942
 21
260.73691551734544
  0
LINE
  8
_0-1_PRO0
  6
CONTINUOUS
 62
    1
 10
196.36210473418942
 20
260.73691551734544
 11
196.96210473418842
 21
260.73691551734544
  0
LINE
  8
_0-1_PRO0
  6
CONTINUOUS
 62
    1
 10
196.96210473418842
 20
260.73691551734544
 11
197.06210473418969
 21
261.03691551734551
  0
LINE
  8
_0-1_PRO0
  6
CONTINUOUS
 62
    1
 10
191.76210473418951
 20
260.53691551734551
 11
191.76210473418951
 21
223.20929792096786
  0
LINE
  8
_0-1_PRO0
  6
CONTINUOUS
 62
    1
 10
193.26210473418951
 20
252.53681551734553
 11
226.7621047341886
 21
252.53691551734551
  0
LINE
  8
_0-1_PRO0
  6
CONTINUOUS
 62
    1
 10
197.86210473418942
 20
259.23691551734544
 11
195.26210473418951
 21
259.23691551734544
  0
ARC
  8
_0-1_PRO0
  6
CONTINUOUS
 62
    1
 10
197.86210473418942
 20
260.1369155173453
 40
0.9
 50
270
 51
90
  0
ARC
  8
_0-1_PRO0
  6
CONTINUOUS
 62
    1
 10
225.76210473418951
 20
252.75482451734536
 40
1
 50
0
 51
88.964645999987241
  0
LINE
  8
_0-1_PRO0
  6
CONTINUOUS
 62
    1
 10
225.7801737341897
 20
253.75466151734554
 11
210.85678273418853
 21
254.02436151734537
  0
LINE
  8
_0-1_PRO0
  6
CONTINUOUS
 62
    1
 10
195.2440357341884
 20
254.30651951734546
 11
210.25658673418957
 21
254.03520851734538
  0
LINE
  8
_0-1_PRO0
  6
CONTINUOUS
 62
    1
 10
226.7621047341886
 20
252.53691551734551
 11
226.7621047341886
 21
252.75482451734536
  0
LINE
  8
_0-1_PRO0
  6
CONTINUOUS
 62
    1
 10
210.25658673418957
 20
254.03520851734538
 11
210.56210773418979
 21
253.7296865173455
  0
LINE
  8
_0-1_PRO0
  6
CONTINUOUS
 62
    1
 10
210.56210773418979
 20
253.7296865173455
 11
210.85678273418853
 21
254.02436151734537
  0
LINE
  8
_0-1_PRO0
  6
CONTINUOUS
 62
    1
 10
197.86210473418942
 20
261.03691551734551
 11
197.06210473418969
 21
261.03691551734551
  0
LINE
  8
_0-1_PRO0
  6
CONTINUOUS
 62
    1
 10
196.2621047341886
 20
261.03691551734551
 11
195.46210473418842
 21
261.03691551734551
  0
LINE
  8
_0-1_PRO0
  6
CONTINUOUS
 62
    1
 10
194.66210473418869
 20
261.03691551734551
 11
193.86210473418851
 21
261.03691551734551
  0
LINE
  8
_0-1_PRO0
  6
CONTINUOUS
 62
    1
 10
193.06210473418969
 20
261.03691551734551
 11
192.26210473418951
 21
261.03691551734551
  0
LINE
  8
_0-1_PRO0
  6
CONTINUOUS
 62
    1
 10
194.26210473418951
 20
255.30635651734531
 11
194.26210473418951
 21
258.23691551734544
  0
ARC
  8
_0-1_PRO0
  6
CONTINUOUS
 62
    1
 10
195.26210473418951
 20
255.30635651734531
 40
1
 50
180
 51
268.96464799999092
  0
ARC
  8
_0-1_PRO0
  6
CONTINUOUS
 62
    1
 10
195.26210473418951
 20
258.23691551734544
 40
1
 50
90
 51
180
  0
LINE
  8
_0-1_PRO0
  6
CONTINUOUS
 62
    1
 10
191.76210473418951
 20
260.53691551734551
 11
192.26210473418951
 21
261.03691551734551
  0
LINE
  8
_0-1_PRO0
  6
CONTINUOUS
 62
    1
 10
193.26220227249178
 20
222.70929792096786
 11
193.26210373418962
 21
252.53685751734542
  0
LINE
  8
_0-1_PRO0
  6
CONTINUOUS
 62
    1
 10
236.87379173418867
 20
162.60810792096788
 11
197.8726137341896
 21
162.60810792096788
  0
LINE
  8
_0-1_PRO0
  6
CONTINUOUS
 62
    1
 10
193.87261573418846
 20
161.10930092096794
 11
193.37261573418982
 21
161.60930092096794
  0
LINE
  8
_0-1_PRO0
  6
CONTINUOUS
 62
    1
 10
237.37272073418944
 20
161.10257492096775
 11
193.87261573418846
 21
161.10930092096794
  0
ARC
  8
_0-1_PRO0
  6
CONTINUOUS
 62
    1
 10
197.8726137341896
 20
165.60810792096777
 40
3
 50
180
 51
270
  0
LINE
  8
_0-1_PRO0
  6
CONTINUOUS
 62
    1
 10
194.8726137341896
 20
165.60810792096777
 11
194.8726137341896
 21
230.60930092096794
  0
LINE
  8
_0-1_PRO0
  6
CONTINUOUS
 62
    1
 10
193.37261573418982
 20
231.10930092096794
 11
193.37273573418861
 21
161.60918192096779
  0
LINE
  8
_0-1_PRO0
  6
CONTINUOUS
 62
    1
 10
194.3726137341896
 20
231.10930092096794
 11
194.8726137341896
 21
230.60930092096794
  0
LINE
  8
_0-1_PRO0
  6
CONTINUOUS
 62
    1
 10
193.36747373418984
 20
231.10930092096794
 11
194.3726137341896
 21
231.10930092096794
  0
LINE
  8
_0-1_PRO0
  6
CONTINUOUS
 62
    1
 10
237.37272073418944
 20
162.10917992096779
 11
236.87272073418944
 21
162.60917992096779
  0
LINE
  8
_0-1_PRO0
  6
CONTINUOUS
 62
    1
 10
237.37272073418944
 20
161.1091819209679
 11
237.37272073418944
 21
162.10917992096779
  0
LINE
  8
_0-1_PRO0
  6
PLINE3
 62
    3
 10
210.56210773418979
 20
257.09917451734555
 11
210.56210773418979
 21
250.12243051734549
  0
LINE
  8
_0-1_PRO0
  6
PLINE3
 62
    3
 10
217.37272073418853
 20
165.67148691850798
 11
217.37272073418853
 21
158.69474291850804
  0
TEXT
  8
_0-4_文字-記号
 62
    7
 10
246.58531039734362
 20
323.84816715070451
 40
12
 41
0.8000000000000001
 50
0
  1
アルミ框　Ｈ７１～１０５
  0
INSERT
  2
-003-_D12
  8
_0-0_0
 10
-2693.2835307044834
 20
-372.02995386897669
 41
1
 42
1
 50
0
  0
LINE
  8
_0-4_文字-記号
  6
CONTINUOUS
 62
    7
 10
58.782078378011647
 20
166.66494246936202
 11
53.050026378012717
 21
172.59314246936208
  0
LINE
  8
_0-4_文字-記号
  6
CONTINUOUS
 62
    7
 10
58.782078378011647
 20
166.66494246936202
 11
56.514126378011497
 21
174.59314246936196
  0
LINE
  8
_0-4_文字-記号
  6
CONTINUOUS
 62
    7
 10
58.782078378011647
 20
166.66494246936202
 11
34.246634349474789
 21
209.16158194021727
  0
LINE
  8
_0-4_文字-記号
  6
CONTINUOUS
 62
    7
 10
34.246634349474789
 20
209.16158194021727
 11
-21.248139479498604
 21
209.16158194021727
  0
TEXT
  8
_0-4_文字-記号
 62
    7
 10
-24.670247950940393
 20
213.16156194021744
 40
12
 41
1
 50
0
  1
Ｐタイル
  0
LINE
  8
_0-5_中心線
  6
CENTER1
 62
    7
 10
243.76576073418846
 20
239.73349734257772
 11
243.76576073418846
 21
147.47783731202378
  0
LINE
  8
_0-5_中心線
  6
CENTER1
 62
    7
 10
693.76576073418846
 20
233.74045595273856
 11
693.76576073418664
 21
144.32284636692134
  0
LINE
  8
_0-0_0
  6
CONTINUOUS
 62
    4
 10
866.04703539646471
 20
261.10566732729671
 11
866.04703539646471
 21
254.60566732729956
  0
TEXT
  8
_0-4_文字-記号
 62
    7
 10
-51.791868178062487
 20
447.89433267270317
 40
15
 41
1
 50
0
  1
【アルミ框部納まり図（サンアクセスフロア ５００Ｔ：モルタル充填タイプ）】
  0
TEXT
  8
_0-4_文字-記号
 62
    7
 10
577.45375134094957
 20
305.10709081805771
 40
12
 41
0.8000000000000001
 50
0
  1
サンアクセスフロア500T
  0
ENDSEC
  0
EOF
