  0
SECTION
  2
HEADER
  9
$ACADVER
  1
AC1015
  9
$ACADMAINTVER
 70
    20
  9
$DWGCODEPAGE
  3
ANSI_932
  9
$INSBASE
 10
0.0
 20
0.0
 30
0.0
  9
$EXTMIN
 10
76.55954380026014
 20
418.7076448550305
 30
-0.0015258207003583
  9
$EXTMAX
 10
1600.307407385561
 20
769.2923606770254
 30
0.0000000349246037
  9
$LIMMIN
 10
0.0
 20
0.0
  9
$LIMMAX
 10
1682.0
 20
1188.0
  9
$ORTHOMODE
 70
     0
  9
$REGENMODE
 70
     1
  9
$FILLMODE
 70
     1
  9
$QTEXTMODE
 70
     0
  9
$MIRRTEXT
 70
     0
  9
$LTSCALE
 40
2.0
  9
$ATTMODE
 70
     1
  9
$TEXTSIZE
 40
0.2
  9
$TRACEWID
 40
0.05
  9
$TEXTSTYLE
  7
STANDARD
  9
$CLAYER
  8
0
  9
$CELTYPE
  6
CONTINUOUS
  9
$CECOLOR
 62
   256
  9
$CELTSCALE
 40
1.0
  9
$DISPSILH
 70
     0
  9
$DIMSCALE
 40
1.0
  9
$DIMASZ
 40
0.18
  9
$DIMEXO
 40
0.0625
  9
$DIMDLI
 40
0.38
  9
$DIMRND
 40
0.0
  9
$DIMDLE
 40
0.0
  9
$DIMEXE
 40
0.18
  9
$DIMTP
 40
0.0
  9
$DIMTM
 40
0.0
  9
$DIMTXT
 40
0.18
  9
$DIMCEN
 40
0.09
  9
$DIMTSZ
 40
0.0
  9
$DIMTOL
 70
     0
  9
$DIMLIM
 70
     0
  9
$DIMTIH
 70
     1
  9
$DIMTOH
 70
     1
  9
$DIMSE1
 70
     0
  9
$DIMSE2
 70
     0
  9
$DIMTAD
 70
     0
  9
$DIMZIN
 70
     0
  9
$DIMBLK
  1

  9
$DIMASO
 70
     1
  9
$DIMSHO
 70
     1
  9
$DIMPOST
  1

  9
$DIMAPOST
  1

  9
$DIMALT
 70
     0
  9
$DIMALTD
 70
     2
  9
$DIMALTF
 40
25.4
  9
$DIMLFAC
 40
1.0
  9
$DIMTOFL
 70
     0
  9
$DIMTVP
 40
0.0
  9
$DIMTIX
 70
     0
  9
$DIMSOXD
 70
     0
  9
$DIMSAH
 70
     0
  9
$DIMBLK1
  1

  9
$DIMBLK2
  1

  9
$DIMSTYLE
  2
Standard
  9
$DIMCLRD
 70
     0
  9
$DIMCLRE
 70
     0
  9
$DIMCLRT
 70
     0
  9
$DIMTFAC
 40
1.0
  9
$DIMGAP
 40
0.09
  9
$DIMJUST
 70
     0
  9
$DIMSD1
 70
     0
  9
$DIMSD2
 70
     0
  9
$DIMTOLJ
 70
     1
  9
$DIMTZIN
 70
     0
  9
$DIMALTZ
 70
     0
  9
$DIMALTTZ
 70
     0
  9
$DIMUPT
 70
     0
  9
$DIMDEC
 70
     4
  9
$DIMTDEC
 70
     4
  9
$DIMALTU
 70
     2
  9
$DIMALTTD
 70
     2
  9
$DIMTXSTY
  7
STANDARD
  9
$DIMAUNIT
 70
     0
  9
$DIMADEC
 70
     0
  9
$DIMALTRND
 40
0.0
  9
$DIMAZIN
 70
     0
  9
$DIMDSEP
 70
    46
  9
$DIMATFIT
 70
     3
  9
$DIMFRAC
 70
     0
  9
$DIMLDRBLK
  1

  9
$DIMLUNIT
 70
     2
  9
$DIMLWD
 70
    -2
  9
$DIMLWE
 70
    -2
  9
$DIMTMOVE
 70
     0
  9
$LUNITS
 70
     2
  9
$LUPREC
 70
     4
  9
$SKETCHINC
 40
0.1
  9
$FILLETRAD
 40
0.0
  9
$AUNITS
 70
     0
  9
$AUPREC
 70
     0
  9
$MENU
  1
.
  9
$ELEVATION
 40
0.0
  9
$PELEVATION
 40
0.0
  9
$THICKNESS
 40
0.0
  9
$LIMCHECK
 70
     0
  9
$CHAMFERA
 40
0.0
  9
$CHAMFERB
 40
0.0
  9
$CHAMFERC
 40
0.0
  9
$CHAMFERD
 40
0.0
  9
$SKPOLY
 70
     0
  9
$TDCREATE
 40
2457851.684884260
  9
$TDUCREATE
 40
2457851.309884259
  9
$TDUPDATE
 40
2457921.467291667
  9
$TDUUPDATE
 40
2457921.092291666
  9
$TDINDWG
 40
0.0014583333
  9
$TDUSRTIMER
 40
0.0014583333
  9
$USRTIMER
 70
     1
  9
$ANGBASE
 50
0.0
  9
$ANGDIR
 70
     0
  9
$PDMODE
 70
     0
  9
$PDSIZE
 40
0.0
  9
$PLINEWID
 40
0.0
  9
$SPLFRAME
 70
     0
  9
$SPLINETYPE
 70
     6
  9
$SPLINESEGS
 70
     8
  9
$HANDSEED
  5
403
  9
$SURFTAB1
 70
     6
  9
$SURFTAB2
 70
     6
  9
$SURFTYPE
 70
     6
  9
$SURFU
 70
     6
  9
$SURFV
 70
     6
  9
$UCSBASE
  2

  9
$UCSNAME
  2

  9
$UCSORG
 10
0.0
 20
0.0
 30
0.0
  9
$UCSXDIR
 10
1.0
 20
0.0
 30
0.0
  9
$UCSYDIR
 10
0.0
 20
1.0
 30
0.0
  9
$UCSORTHOREF
  2

  9
$UCSORTHOVIEW
 70
     0
  9
$UCSORGTOP
 10
0.0
 20
0.0
 30
0.0
  9
$UCSORGBOTTOM
 10
0.0
 20
0.0
 30
0.0
  9
$UCSORGLEFT
 10
0.0
 20
0.0
 30
0.0
  9
$UCSORGRIGHT
 10
0.0
 20
0.0
 30
0.0
  9
$UCSORGFRONT
 10
0.0
 20
0.0
 30
0.0
  9
$UCSORGBACK
 10
0.0
 20
0.0
 30
0.0
  9
$PUCSBASE
  2

  9
$PUCSNAME
  2

  9
$PUCSORG
 10
0.0
 20
0.0
 30
0.0
  9
$PUCSXDIR
 10
1.0
 20
0.0
 30
0.0
  9
$PUCSYDIR
 10
0.0
 20
1.0
 30
0.0
  9
$PUCSORTHOREF
  2

  9
$PUCSORTHOVIEW
 70
     0
  9
$PUCSORGTOP
 10
0.0
 20
0.0
 30
0.0
  9
$PUCSORGBOTTOM
 10
0.0
 20
0.0
 30
0.0
  9
$PUCSORGLEFT
 10
0.0
 20
0.0
 30
0.0
  9
$PUCSORGRIGHT
 10
0.0
 20
0.0
 30
0.0
  9
$PUCSORGFRONT
 10
0.0
 20
0.0
 30
0.0
  9
$PUCSORGBACK
 10
0.0
 20
0.0
 30
0.0
  9
$USERI1
 70
     0
  9
$USERI2
 70
     0
  9
$USERI3
 70
     0
  9
$USERI4
 70
     0
  9
$USERI5
 70
     0
  9
$USERR1
 40
0.0
  9
$USERR2
 40
0.0
  9
$USERR3
 40
0.0
  9
$USERR4
 40
0.0
  9
$USERR5
 40
0.0
  9
$WORLDVIEW
 70
     1
  9
$SHADEDGE
 70
     3
  9
$SHADEDIF
 70
    70
  9
$TILEMODE
 70
     1
  9
$MAXACTVP
 70
    64
  9
$PINSBASE
 10
0.0
 20
0.0
 30
0.0
  9
$PLIMCHECK
 70
     0
  9
$PEXTMIN
 10
1.000000000000000E+20
 20
1.000000000000000E+20
 30
1.000000000000000E+20
  9
$PEXTMAX
 10
-1.000000000000000E+20
 20
-1.000000000000000E+20
 30
-1.000000000000000E+20
  9
$PLIMMIN
 10
0.0
 20
0.0
  9
$PLIMMAX
 10
12.0
 20
9.0
  9
$UNITMODE
 70
     0
  9
$VISRETAIN
 70
     1
  9
$PLINEGEN
 70
     0
  9
$PSLTSCALE
 70
     1
  9
$TREEDEPTH
 70
  3020
  9
$CMLSTYLE
  2
Standard
  9
$CMLJUST
 70
     0
  9
$CMLSCALE
 40
1.0
  9
$PROXYGRAPHICS
 70
     1
  9
$MEASUREMENT
 70
     0
  9
$CELWEIGHT
370
    -1
  9
$ENDCAPS
280
     0
  9
$JOINSTYLE
280
     0
  9
$LWDISPLAY
290
     0
  9
$INSUNITS
 70
     0
  9
$HYPERLINKBASE
  1

  9
$STYLESHEET
  1

  9
$XEDIT
290
     1
  9
$CEPSNTYPE
380
     0
  9
$PSTYLEMODE
290
     1
  9
$FINGERPRINTGUID
  2
{7E69446C-51F6-534E-967C-5D2B06857036}
  9
$VERSIONGUID
  2
{A10DEA42-E81A-C848-91C5-E4A9E34715CB}
  9
$EXTNAMES
290
     1
  9
$PSVPSCALE
 40
0.0
  9
$OLESTARTUP
290
     0
  0
ENDSEC
  0
SECTION
  2
CLASSES
  0
CLASS
  1
ACDBDICTIONARYWDFLT
  2
AcDbDictionaryWithDefault
  3
ObjectDBX Classes
 90
        0
280
     0
281
     0
  0
CLASS
  1
MATERIAL
  2
AcDbMaterial
  3
ObjectDBX Classes
 90
     1153
280
     0
281
     0
  0
CLASS
  1
VISUALSTYLE
  2
AcDbVisualStyle
  3
ObjectDBX Classes
 90
     4095
280
     0
281
     0
  0
CLASS
  1
SCALE
  2
AcDbScale
  3
ObjectDBX Classes
 90
     1153
280
     0
281
     0
  0
CLASS
  1
TABLESTYLE
  2
AcDbTableStyle
  3
ObjectDBX Classes
 90
     4095
280
     0
281
     0
  0
CLASS
  1
MLEADERSTYLE
  2
AcDbMLeaderStyle
  3
ACDB_MLEADERSTYLE_CLASS
 90
     4095
280
     0
281
     0
  0
CLASS
  1
ACDBSECTIONVIEWSTYLE
  2
AcDbSectionViewStyle
  3
ObjectDBX Classes
 90
     1025
280
     0
281
     0
  0
CLASS
  1
ACDBDETAILVIEWSTYLE
  2
AcDbDetailViewStyle
  3
ObjectDBX Classes
 90
     1025
280
     0
281
     0
  0
CLASS
  1
CELLSTYLEMAP
  2
AcDbCellStyleMap
  3
ObjectDBX Classes
 90
     1152
280
     0
281
     0
  0
CLASS
  1
DICTIONARYVAR
  2
AcDbDictionaryVar
  3
ObjectDBX Classes
 90
        0
280
     0
281
     0
  0
CLASS
  1
ACAD_EVALUATION_GRAPH
  2
AcDbEvalGraph
  3
ObjectDBX Classes
 90
     1153
280
     0
281
     0
  0
CLASS
  1
ACAECUSTOBJ
  2
AcAeEditorObj
  3
AcAeEditorObj
 90
     1024
280
     0
281
     0
  0
CLASS
  1
ACDB_DYNAMICBLOCKPURGEPREVENTER_VERSION
  2
AcDbDynamicBlockPurgePreventer
  3
ObjectDBX Classes
 90
     1153
280
     0
281
     0
  0
CLASS
  1
ACDBPLACEHOLDER
  2
AcDbPlaceHolder
  3
ObjectDBX Classes
 90
        0
280
     0
281
     0
  0
CLASS
  1
LAYOUT
  2
AcDbLayout
  3
ObjectDBX Classes
 90
        0
280
     0
281
     0
  0
ENDSEC
  0
SECTION
  2
TABLES
  0
TABLE
  2
VPORT
  5
8
330
0
100
AcDbSymbolTable
 70
     1
  0
VPORT
  5
9E
330
8
100
AcDbSymbolTableRecord
100
AcDbViewportTableRecord
  2
*Active
 70
     0
 10
0.0
 20
0.0
 11
1.0
 21
1.0
 12
838.4334755929106
 22
594.000002766028
 13
0.0
 23
0.0
 14
1.0
 24
1.0
 15
0.0
 25
0.0
 16
0.0
 26
0.0
 36
1.0
 17
0.0
 27
0.0
 37
0.0
 40
758.9699412825295
 41
2.015228426395939
 42
50.0
 43
0.0
 44
0.0
 50
0.0
 51
0.0
 71
     0
 72
   100
 73
     1
 74
     1
 75
     0
 76
     0
 77
     0
 78
     0
281
     0
 65
     1
110
0.0
120
0.0
130
0.0
111
1.0
121
0.0
131
0.0
112
0.0
122
1.0
132
0.0
 79
     0
146
0.0
1001
ACAD_NAV_VCDISPLAY
1070
     3
  0
ENDTAB
  0
TABLE
  2
LTYPE
  5
5
330
0
100
AcDbSymbolTable
 70
    37
  0
LTYPE
  5
5A
330
5
100
AcDbSymbolTableRecord
100
AcDbLinetypeTableRecord
  2
ByBlock
 70
     0
  3

 72
    65
 73
     0
 40
0.0
  0
LTYPE
  5
5B
330
5
100
AcDbSymbolTableRecord
100
AcDbLinetypeTableRecord
  2
ByLayer
 70
     0
  3

 72
    65
 73
     0
 40
0.0
  0
LTYPE
  5
5C
330
5
100
AcDbSymbolTableRecord
100
AcDbLinetypeTableRecord
  2
CONTINUOUS
 70
     0
  3
実線
 72
    65
 73
     0
 40
0.0
  0
LTYPE
  5
73
330
5
100
AcDbSymbolTableRecord
100
AcDbLinetypeTableRecord
  2
DASHED1
 70
     0
  3
--  --  --  --  --  --  --  --  
 72
    65
 73
     2
 40
2.5
 49
1.25
 74
     0
 49
-1.25
 74
     0
  0
LTYPE
  5
74
330
5
100
AcDbSymbolTableRecord
100
AcDbLinetypeTableRecord
  2
DASHED2
 70
     0
  3
----    ----    ----    ----    
 72
    65
 73
     2
 40
5.0
 49
2.5
 74
     0
 49
-2.5
 74
     0
  0
LTYPE
  5
75
330
5
100
AcDbSymbolTableRecord
100
AcDbLinetypeTableRecord
  2
DASHED3
 70
     0
  3
------  ------  ------  ------  
 72
    65
 73
     2
 40
5.0
 49
3.75
 74
     0
 49
-1.25
 74
     0
  0
LTYPE
  5
76
330
5
100
AcDbSymbolTableRecord
100
AcDbLinetypeTableRecord
  2
CENTER1
 70
     0
  3
----- - ----- - ----- - ----- - 
 72
    65
 73
     4
 40
10.0
 49
6.25
 74
     0
 49
-1.25
 74
     0
 49
1.25
 74
     0
 49
-1.25
 74
     0
  0
LTYPE
  5
77
330
5
100
AcDbSymbolTableRecord
100
AcDbLinetypeTableRecord
  2
CENTER2
 70
     0
  3
----------  --  ----------  --  
 72
    65
 73
     4
 40
20.0
 49
12.5
 74
     0
 49
-2.5
 74
     0
 49
2.5
 74
     0
 49
-2.5
 74
     0
  0
LTYPE
  5
78
330
5
100
AcDbSymbolTableRecord
100
AcDbLinetypeTableRecord
  2
PHANTOM1
 70
     0
  3
--- - - --- - - --- - - --- - - 
 72
    65
 73
     6
 40
10.0
 49
3.25
 74
     0
 49
-1.25
 74
     0
 49
1.25
 74
     0
 49
-1.25
 74
     0
 49
1.25
 74
     0
 49
-1.25
 74
     0
  0
LTYPE
  5
79
330
5
100
AcDbSymbolTableRecord
100
AcDbLinetypeTableRecord
  2
PHANTOM2
 70
     0
  3
--------  -  -  --------  -  -  
 72
    65
 73
     6
 40
20.0
 49
10.0
 74
     0
 49
-2.5
 74
     0
 49
1.25
 74
     0
 49
-2.5
 74
     0
 49
1.25
 74
     0
 49
-2.5
 74
     0
  0
LTYPE
  5
7A
330
5
100
AcDbSymbolTableRecord
100
AcDbLinetypeTableRecord
  2
DOT
 70
     0
  3
-   -   -   -   -   -   -   -   
 72
    65
 73
     2
 40
2.5
 49
0.625
 74
     0
 49
-1.875
 74
     0
  0
LTYPE
  5
7B
330
5
100
AcDbSymbolTableRecord
100
AcDbLinetypeTableRecord
  2
DUMMY
 70
     0
  3
ダミー
 72
    65
 73
     0
 40
0.0
  0
LTYPE
  5
7C
330
5
100
AcDbSymbolTableRecord
100
AcDbLinetypeTableRecord
  2
RAND1
 70
     0
  3
ランダム線1
 72
    65
 73
     4
 40
10.0
 49
1.0
 74
     0
 49
-2.0
 74
     0
 49
3.0
 74
     0
 49
-4.0
 74
     0
  0
LTYPE
  5
7D
330
5
100
AcDbSymbolTableRecord
100
AcDbLinetypeTableRecord
  2
RAND2
 70
     0
  3
ランダム線2
 72
    65
 73
     4
 40
14.0
 49
2.0
 74
     0
 49
-3.0
 74
     0
 49
4.0
 74
     0
 49
-5.0
 74
     0
  0
LTYPE
  5
7E
330
5
100
AcDbSymbolTableRecord
100
AcDbLinetypeTableRecord
  2
RAND3
 70
     0
  3
ランダム線3
 72
    65
 73
     4
 40
18.0
 49
3.0
 74
     0
 49
-4.0
 74
     0
 49
5.0
 74
     0
 49
-6.0
 74
     0
  0
LTYPE
  5
7F
330
5
100
AcDbSymbolTableRecord
100
AcDbLinetypeTableRecord
  2
RAND4
 70
     0
  3
ランダム線4
 72
    65
 73
     4
 40
22.0
 49
4.0
 74
     0
 49
-5.0
 74
     0
 49
6.0
 74
     0
 49
-7.0
 74
     0
  0
LTYPE
  5
80
330
5
100
AcDbSymbolTableRecord
100
AcDbLinetypeTableRecord
  2
RAND5
 70
     0
  3
ランダム線5
 72
    65
 73
     4
 40
26.0
 49
5.0
 74
     0
 49
-6.0
 74
     0
 49
7.0
 74
     0
 49
-8.0
 74
     0
  0
LTYPE
  5
81
330
5
100
AcDbSymbolTableRecord
100
AcDbLinetypeTableRecord
  2
LONG1
 70
     0
  3
----------  --  ----------  --  
 72
    65
 73
     4
 40
40.0
 49
32.5
 74
     0
 49
-2.5
 74
     0
 49
2.5
 74
     0
 49
-2.5
 74
     0
  0
LTYPE
  5
82
330
5
100
AcDbSymbolTableRecord
100
AcDbLinetypeTableRecord
  2
LONG2
 70
     0
  3
--------  -  -  --------  -  -  
 72
    65
 73
     6
 40
40.0
 49
30.0
 74
     0
 49
-2.5
 74
     0
 49
1.25
 74
     0
 49
-2.5
 74
     0
 49
1.25
 74
     0
 49
-2.5
 74
     0
  0
LTYPE
  5
83
330
5
100
AcDbSymbolTableRecord
100
AcDbLinetypeTableRecord
  2
LONG3
 70
     0
  3
+++++++++++++++..+++++++++++++++
 72
    65
 73
     2
 40
40.0
 49
37.5
 74
     0
 49
-2.5
 74
     0
  0
LTYPE
  5
84
330
5
100
AcDbSymbolTableRecord
100
AcDbLinetypeTableRecord
  2
LONG4
 70
     0
  3
+++++++++++++++..+++++++++++++++
 72
    65
 73
     2
 40
80.0
 49
75.0
 74
     0
 49
-5.0
 74
     0
  0
LTYPE
  5
85
330
5
100
AcDbSymbolTableRecord
100
AcDbLinetypeTableRecord
  2
LONG5
 70
     0
  3
----------  --  ----------  --  
 72
    65
 73
     4
 40
60.0
 49
37.5
 74
     0
 49
-7.5
 74
     0
 49
7.5
 74
     0
 49
-7.5
 74
     0
  0
LTYPE
  5
86
330
5
100
AcDbSymbolTableRecord
100
AcDbLinetypeTableRecord
  2
DASHED
 70
     0
  3
-------   -------------   ------
 72
    65
 73
     2
 40
7.5
 49
6.0
 74
     0
 49
-1.5
 74
     0
  0
LTYPE
  5
87
330
5
100
AcDbSymbolTableRecord
100
AcDbLinetypeTableRecord
  2
DASHED_SPACED
 70
     0
  3
----        --------        ----
 72
    65
 73
     2
 40
12.0
 49
6.0
 74
     0
 49
-6.0
 74
     0
  0
LTYPE
  5
88
330
5
100
AcDbSymbolTableRecord
100
AcDbLinetypeTableRecord
  2
LONG_DASHED_DOTTED
 70
     0
  3
------------- --- --------------
 72
    65
 73
     4
 40
15.25
 49
12.0
 74
     0
 49
-1.5
 74
     0
 49
0.25
 74
     0
 49
-1.5
 74
     0
  0
LTYPE
  5
89
330
5
100
AcDbSymbolTableRecord
100
AcDbLinetypeTableRecord
  2
LONG_DASHED_DOUBLE-DOTTED
 70
     0
  3
----------- --- --- ------------
 72
    65
 73
     6
 40
17.0
 49
12.0
 74
     0
 49
-1.5
 74
     0
 49
0.25
 74
     0
 49
-1.5
 74
     0
 49
0.25
 74
     0
 49
-1.5
 74
     0
  0
LTYPE
  5
8A
330
5
100
AcDbSymbolTableRecord
100
AcDbLinetypeTableRecord
  2
LONG_DASHED_TRIPLICATE-DOTTED
 70
     0
  3
--------- --- --- --- ----------
 72
    65
 73
     8
 40
18.75
 49
12.0
 74
     0
 49
-1.5
 74
     0
 49
0.25
 74
     0
 49
-1.5
 74
     0
 49
0.25
 74
     0
 49
-1.5
 74
     0
 49
0.25
 74
     0
 49
-1.5
 74
     0
  0
LTYPE
  5
8B
330
5
100
AcDbSymbolTableRecord
100
AcDbLinetypeTableRecord
  2
DOTTED
 70
     0
  3
   -       -       -       -    
 72
    65
 73
     2
 40
1.75
 49
0.25
 74
     0
 49
-1.5
 74
     0
  0
LTYPE
  5
8C
330
5
100
AcDbSymbolTableRecord
100
AcDbLinetypeTableRecord
  2
CHAIN
 70
     0
  3
-------------- -- --------------
 72
    65
 73
     4
 40
18.5
 49
12.0
 74
     0
 49
-1.5
 74
     0
 49
3.5
 74
     0
 49
-1.5
 74
     0
  0
LTYPE
  5
8D
330
5
100
AcDbSymbolTableRecord
100
AcDbLinetypeTableRecord
  2
CHAIN_DOUBLE_DASH
 70
     0
  3
------------ -- -- -------------
 72
    65
 73
     6
 40
23.5
 49
12.0
 74
     0
 49
-1.5
 74
     0
 49
3.5
 74
     0
 49
-1.5
 74
     0
 49
3.5
 74
     0
 49
-1.5
 74
     0
  0
LTYPE
  5
8E
330
5
100
AcDbSymbolTableRecord
100
AcDbLinetypeTableRecord
  2
DASHED_DOTTED
 70
     0
  3
-----------     -     ----------
 72
    65
 73
     4
 40
9.25
 49
6.0
 74
     0
 49
-1.5
 74
     0
 49
0.25
 74
     0
 49
-1.5
 74
     0
  0
LTYPE
  5
8F
330
5
100
AcDbSymbolTableRecord
100
AcDbLinetypeTableRecord
  2
DOUBLE-DASHED_DOTTED
 70
     0
  3
------   -----------   -   -----
 72
    65
 73
     6
 40
16.75
 49
6.0
 74
     0
 49
-1.5
 74
     0
 49
6.0
 74
     0
 49
-1.5
 74
     0
 49
0.25
 74
     0
 49
-1.5
 74
     0
  0
LTYPE
  5
90
330
5
100
AcDbSymbolTableRecord
100
AcDbLinetypeTableRecord
  2
DASHED_DOUBLE-DOTTED
 70
     0
  3
---------    -    -    ---------
 72
    65
 73
     6
 40
11.0
 49
6.0
 74
     0
 49
-1.5
 74
     0
 49
0.25
 74
     0
 49
-1.5
 74
     0
 49
0.25
 74
     0
 49
-1.5
 74
     0
  0
LTYPE
  5
91
330
5
100
AcDbSymbolTableRecord
100
AcDbLinetypeTableRecord
  2
DOUBLE-DASHED_DOUBLE-DOTTED
 70
     0
  3
-----   ---------   -   -   ----
 72
    65
 73
     8
 40
18.5
 49
6.0
 74
     0
 49
-1.5
 74
     0
 49
6.0
 74
     0
 49
-1.5
 74
     0
 49
0.25
 74
     0
 49
-1.5
 74
     0
 49
0.25
 74
     0
 49
-1.5
 74
     0
  0
LTYPE
  5
92
330
5
100
AcDbSymbolTableRecord
100
AcDbLinetypeTableRecord
  2
DASHED_TRIPLICATE-DOTTED
 70
     0
  3
-------    -    -    -    ------
 72
    65
 73
     8
 40
12.75
 49
6.0
 74
     0
 49
-1.5
 74
     0
 49
0.25
 74
     0
 49
-1.5
 74
     0
 49
0.25
 74
     0
 49
-1.5
 74
     0
 49
0.25
 74
     0
 49
-1.5
 74
     0
  0
LTYPE
  5
93
330
5
100
AcDbSymbolTableRecord
100
AcDbLinetypeTableRecord
  2
DOUBLE-DASHED_TRIPLICATE-DOTTED
 70
     0
  3
-----  ---------  -  -  -  -----
 72
    65
 73
    10
 40
20.25
 49
6.0
 74
     0
 49
-1.5
 74
     0
 49
6.0
 74
     0
 49
-1.5
 74
     0
 49
0.25
 74
     0
 49
-1.5
 74
     0
 49
0.25
 74
     0
 49
-1.5
 74
     0
 49
0.25
 74
     0
 49
-1.5
 74
     0
  0
LTYPE
  5
94
330
5
100
AcDbSymbolTableRecord
100
AcDbLinetypeTableRecord
  2
UNDEFINED
 70
     0
  3
--------------------------------
 72
    65
 73
     0
 40
0.0
  0
LTYPE
  5
95
330
5
100
AcDbSymbolTableRecord
100
AcDbLinetypeTableRecord
  2
HASEN
 70
     0
  3
-----      ----------      -----
 72
    65
 73
     2
 40
2.5
 49
1.5
 74
     0
 49
-1.0
 74
     0
  0
ENDTAB
  0
TABLE
  2
LAYER
  5
2
102
{ACAD_XDICTIONARY
360
3AD
102
}
330
0
100
AcDbSymbolTable
 70
     8
  0
LAYER
  5
54
102
{ACAD_XDICTIONARY
360
2FE
102
}
330
2
100
AcDbSymbolTableRecord
100
AcDbLayerTableRecord
  2
0
 70
     0
 62
     7
  6
CONTINUOUS
370
    -3
390
F
  0
LAYER
  5
97
102
{ACAD_XDICTIONARY
360
300
102
}
330
2
100
AcDbSymbolTableRecord
100
AcDbLayerTableRecord
  2
_0-0_0
 70
     0
 62
     7
  6
CONTINUOUS
370
    -3
390
F
  0
LAYER
  5
98
102
{ACAD_XDICTIONARY
360
302
102
}
330
2
100
AcDbSymbolTableRecord
100
AcDbLayerTableRecord
  2
_0-3_躯体と製品
 70
     0
 62
     7
  6
CONTINUOUS
370
    -3
390
F
  0
LAYER
  5
99
102
{ACAD_XDICTIONARY
360
304
102
}
330
2
100
AcDbSymbolTableRecord
100
AcDbLayerTableRecord
  2
_0-4_文字-記号
 70
     0
 62
     7
  6
CONTINUOUS
370
    -3
390
F
  0
LAYER
  5
9A
102
{ACAD_XDICTIONARY
360
306
102
}
330
2
100
AcDbSymbolTableRecord
100
AcDbLayerTableRecord
  2
_0-5_中心線
 70
     0
 62
     7
  6
CONTINUOUS
370
    -3
390
F
  0
LAYER
  5
9B
102
{ACAD_XDICTIONARY
360
308
102
}
330
2
100
AcDbSymbolTableRecord
100
AcDbLayerTableRecord
  2
ADD_LINE
 70
     0
 62
     7
  6
CONTINUOUS
370
    -3
390
F
  0
LAYER
  5
AE
102
{ACAD_XDICTIONARY
360
30A
102
}
330
2
100
AcDbSymbolTableRecord
100
AcDbLayerTableRecord
  2
_0-1_Defpoints
 70
     0
 62
     7
  6
CONTINUOUS
370
    -3
390
F
  0
LAYER
  5
37B
330
2
100
AcDbSymbolTableRecord
100
AcDbLayerTableRecord
  2
Defpoints
 70
     0
 62
     7
  6
CONTINUOUS
290
     0
370
    -3
390
F
  0
ENDTAB
  0
TABLE
  2
STYLE
  5
3
330
0
100
AcDbSymbolTable
 70
     3
  0
STYLE
  5
55
330
3
100
AcDbSymbolTableRecord
100
AcDbTextStyleTableRecord
  2
STANDARD
 70
     0
 40
0.0
 41
1.0
 50
0.0
 71
     0
 42
0.2
  3
txt
  4
bigfont.shx
  0
STYLE
  5
59
330
3
100
AcDbSymbolTableRecord
100
AcDbTextStyleTableRecord
  2
Annotative
 70
     0
 40
0.0
 41
1.0
 50
0.0
 71
     0
 42
0.2
  3
txt
  4

1001
AcadAnnotative
1000
AnnotativeData
1002
{
1070
     1
1070
     1
1002
}
  0
STYLE
  5
96
330
3
100
AcDbSymbolTableRecord
100
AcDbTextStyleTableRecord
  2
TATEGAKI
 70
     4
 40
0.0
 41
1.0
 50
0.0
 71
     0
 42
1.0
  3
txt
  4
bigfont.shx
  0
ENDTAB
  0
TABLE
  2
VIEW
  5
6
330
0
100
AcDbSymbolTable
 70
     1
  0
ENDTAB
  0
TABLE
  2
UCS
  5
7
330
0
100
AcDbSymbolTable
 70
     0
  0
ENDTAB
  0
TABLE
  2
APPID
  5
9
330
0
100
AcDbSymbolTable
 70
     8
  0
APPID
  5
56
330
9
100
AcDbSymbolTableRecord
100
AcDbRegAppTableRecord
  2
ACAD
 70
     0
  0
APPID
  5
5D
330
9
100
AcDbSymbolTableRecord
100
AcDbRegAppTableRecord
  2
AcadAnnotative
 70
     0
  0
APPID
  5
30C
330
9
100
AcDbSymbolTableRecord
100
AcDbRegAppTableRecord
  2
ACAD_NAV_VCDISPLAY
 70
     0
  0
APPID
  5
340
330
9
100
AcDbSymbolTableRecord
100
AcDbRegAppTableRecord
  2
ACAD_MLEADERVER
 70
     0
  0
APPID
  5
361
330
9
100
AcDbSymbolTableRecord
100
AcDbRegAppTableRecord
  2
ACAUTHENVIRON
 70
     0
  0
APPID
  5
365
330
9
100
AcDbSymbolTableRecord
100
AcDbRegAppTableRecord
  2
ACAD_EXEMPT_FROM_CAD_STANDARDS
 70
     0
  0
APPID
  5
369
330
9
100
AcDbSymbolTableRecord
100
AcDbRegAppTableRecord
  2
AcDbDynamicBlockTrueName
 70
     0
  0
APPID
  5
36A
330
9
100
AcDbSymbolTableRecord
100
AcDbRegAppTableRecord
  2
AcDbDynamicBlockGUID
 70
     0
  0
ENDTAB
  0
TABLE
  2
DIMSTYLE
  5
A
330
0
100
AcDbSymbolTable
 70
     2
100
AcDbDimStyleTable
 71
     1
340
57
  0
DIMSTYLE
105
57
330
A
100
AcDbSymbolTableRecord
100
AcDbDimStyleTableRecord
  2
Standard
 70
     0
340
55
  0
DIMSTYLE
105
58
330
A
100
AcDbSymbolTableRecord
100
AcDbDimStyleTableRecord
  2
Annotative
 70
     0
340
55
1001
AcadAnnotative
1000
AnnotativeData
1002
{
1070
     1
1070
     1
1002
}
  0
ENDTAB
  0
TABLE
  2
BLOCK_RECORD
  5
1
330
0
100
AcDbSymbolTable
 70
     9
  0
BLOCK_RECORD
  5
6F
330
1
100
AcDbSymbolTableRecord
100
AcDbBlockTableRecord
  2
*Model_Space
340
72
  0
BLOCK_RECORD
  5
6B
330
1
100
AcDbSymbolTableRecord
100
AcDbBlockTableRecord
  2
*Paper_Space
340
6E
  0
BLOCK_RECORD
  5
9F
330
1
100
AcDbSymbolTableRecord
100
AcDbBlockTableRecord
  2
-000-_DOT
340
0
102
{BLKREFS
331
38F
331
390
331
AB
331
AC
331
B8
331
B9
102
}
  0
BLOCK_RECORD
  5
A5
330
1
100
AcDbSymbolTableRecord
100
AcDbBlockTableRecord
  2
-001-_D3
340
0
102
{BLKREFS
331
2F4
102
}
  0
BLOCK_RECORD
  5
B3
330
1
100
AcDbSymbolTableRecord
100
AcDbBlockTableRecord
  2
-002-_D4
340
0
102
{BLKREFS
331
2F5
102
}
  0
BLOCK_RECORD
  5
BF
102
{ACAD_XDICTIONARY
360
395
102
}
330
1
100
AcDbSymbolTableRecord
100
AcDbBlockTableRecord
  2
-003-_D5
340
0
102
{BLKREFS
331
2F6
102
}
1001
AcDbDynamicBlockGUID
1000
{5C6A207F-2471-C24C-8688-635E0CE3A84B}
  0
BLOCK_RECORD
  5
37C
330
1
100
AcDbSymbolTableRecord
100
AcDbBlockTableRecord
  2
*D6
340
0
  0
ENDTAB
  0
ENDSEC
  0
SECTION
  2
BLOCKS
  0
BLOCK
  5
70
330
6F
100
AcDbEntity
  8
0
100
AcDbBlockBegin
  2
*Model_Space
 70
     0
 10
0.0
 20
0.0
 30
0.0
  3
*Model_Space
  1

  0
ENDBLK
  5
71
330
6F
100
AcDbEntity
  8
0
100
AcDbBlockEnd
  0
BLOCK
  5
6C
330
6B
100
AcDbEntity
 67
     1
  8
0
100
AcDbBlockBegin
  2
*Paper_Space
 70
     0
 10
0.0
 20
0.0
 30
0.0
  3
*Paper_Space
  1

  0
ENDBLK
  5
6D
330
6B
100
AcDbEntity
 67
     1
  8
0
100
AcDbBlockEnd
  0
BLOCK
  5
A0
330
9F
100
AcDbEntity
  8
0
100
AcDbBlockBegin
  2
-000-_DOT
 70
     0
 10
0.0
 20
0.0
 30
0.0
  3
-000-_DOT
  1

  0
CIRCLE
  5
A1
330
9F
100
AcDbEntity
  8
_0-0_0
  6
Continuous
 62
     7
100
AcDbCircle
 10
0.0
 20
0.0
 30
0.0
 40
0.25
  0
LINE
  5
A2
330
9F
100
AcDbEntity
  8
_0-0_0
  6
Continuous
 62
     7
100
AcDbLine
 10
0.25
 20
0.0
 30
0.0
 11
-0.25
 21
0.0
 31
0.0
  0
LINE
  5
A3
330
9F
100
AcDbEntity
  8
_0-0_0
  6
Continuous
 62
     7
100
AcDbLine
 10
-0.5
 20
0.0
 30
0.0
 11
-1.0
 21
0.0
 31
0.0
  0
ENDBLK
  5
A4
330
9F
100
AcDbEntity
  8
0
100
AcDbBlockEnd
  0
BLOCK
  5
A6
330
A5
100
AcDbEntity
  8
0
100
AcDbBlockBegin
  2
-001-_D3
 70
     0
 10
0.0
 20
0.0
 30
0.0
  3
-001-_D3
  1

  0
LINE
  5
A7
330
A5
100
AcDbEntity
  8
_0-0_0
  6
Continuous
 62
     4
100
AcDbLine
 10
4774.278681731519
 20
-1597.845083015991
 30
0.0
 11
4795.937942951723
 21
-1597.845083015991
 31
0.0
  0
LINE
  5
A8
330
A5
100
AcDbEntity
  8
_0-0_0
  6
Continuous
 62
     4
100
AcDbLine
 10
4774.278681731519
 20
-1604.34508301599
 30
0.0
 11
4795.937942951723
 21
-1604.34508301599
 31
0.0
  0
LINE
  5
A9
330
A5
100
AcDbEntity
  8
_0-0_0
  6
Continuous
 62
     4
100
AcDbLine
 10
4795.937942951723
 20
-1596.845083015991
 30
0.0
 11
4795.937942951723
 21
-1595.84508301599
 31
0.0
  0
LINE
  5
AA
330
A5
100
AcDbEntity
  8
_0-0_0
  6
Continuous
 62
     4
100
AcDbLine
 10
4795.937942951723
 20
-1605.345083015991
 30
0.0
 11
4795.937942951723
 21
-1606.345083015991
 31
0.0
  0
INSERT
  5
AB
330
A5
100
AcDbEntity
  8
_0-0_0
100
AcDbBlockReference
  2
-000-_DOT
 10
4795.937942951723
 20
-1597.845083015991
 30
0.0
 50
270.0
  0
INSERT
  5
AC
330
A5
100
AcDbEntity
  8
_0-0_0
100
AcDbBlockReference
  2
-000-_DOT
 10
4795.937942951723
 20
-1604.34508301599
 30
0.0
 50
90.0
  0
TEXT
  5
AD
330
A5
100
AcDbEntity
  8
_0-0_0
 62
     7
100
AcDbText
 10
4792.937942951722
 20
-1607.84508301599
 30
0.0
 40
9.0
  1
6.5
 50
90.0
100
AcDbText
  0
POINT
  5
AF
330
A5
100
AcDbEntity
  8
_0-1_Defpoints
 62
     7
100
AcDbPoint
 10
4774.278681731519
 20
-1597.845083015991
 30
0.0
  0
POINT
  5
B0
330
A5
100
AcDbEntity
  8
_0-1_Defpoints
 62
     7
100
AcDbPoint
 10
4774.278681731519
 20
-1604.34508301599
 30
0.0
  0
POINT
  5
B1
330
A5
100
AcDbEntity
  8
_0-1_Defpoints
 62
     7
100
AcDbPoint
 10
4795.937942951723
 20
-1604.34508301599
 30
0.0
  0
ENDBLK
  5
B2
330
A5
100
AcDbEntity
  8
0
100
AcDbBlockEnd
  0
BLOCK
  5
B4
330
B3
100
AcDbEntity
  8
0
100
AcDbBlockBegin
  2
-002-_D4
 70
     0
 10
0.0
 20
0.0
 30
0.0
  3
-002-_D4
  1

  0
LINE
  5
B5
330
B3
100
AcDbEntity
  8
_0-0_0
  6
Continuous
 62
     4
100
AcDbLine
 10
4774.278681731519
 20
-1597.845083015991
 30
0.0
 11
4831.598133293457
 21
-1597.845083015991
 31
0.0
  0
LINE
  5
B6
330
B3
100
AcDbEntity
  8
_0-0_0
  6
Continuous
 62
     4
100
AcDbLine
 10
4774.278681731519
 20
-1697.842647157008
 30
0.0
 11
4831.598133293457
 21
-1697.842647157008
 31
0.0
  0
LINE
  5
B7
330
B3
100
AcDbEntity
  8
_0-0_0
  6
Continuous
 62
     4
100
AcDbLine
 10
4831.598133293457
 20
-1598.845083015991
 30
0.0
 11
4831.598133293457
 21
-1696.842647157008
 31
0.0
  0
INSERT
  5
B8
330
B3
100
AcDbEntity
  8
_0-0_0
100
AcDbBlockReference
  2
-000-_DOT
 10
4831.598133293457
 20
-1597.845083015991
 30
0.0
 50
90.0
  0
INSERT
  5
B9
330
B3
100
AcDbEntity
  8
_0-0_0
100
AcDbBlockReference
  2
-000-_DOT
 10
4831.598133293457
 20
-1697.842647157008
 30
0.0
 50
270.0
  0
TEXT
  5
BA
330
B3
100
AcDbEntity
  8
_0-0_0
 62
     7
100
AcDbText
 10
4828.598133293457
 20
-1654.593865086498
 30
0.0
 40
9.0
  1
100
 50
90.0
100
AcDbText
  0
POINT
  5
BB
330
B3
100
AcDbEntity
  8
_0-1_Defpoints
 62
     7
100
AcDbPoint
 10
4774.278681731519
 20
-1597.845083015991
 30
0.0
  0
POINT
  5
BC
330
B3
100
AcDbEntity
  8
_0-1_Defpoints
 62
     7
100
AcDbPoint
 10
4774.278681731519
 20
-1697.842647157008
 30
0.0
  0
POINT
  5
BD
330
B3
100
AcDbEntity
  8
_0-1_Defpoints
 62
     7
100
AcDbPoint
 10
4831.598133293457
 20
-1697.842647157008
 30
0.0
  0
ENDBLK
  5
BE
330
B3
100
AcDbEntity
  8
0
100
AcDbBlockEnd
  0
BLOCK
  5
C0
330
BF
100
AcDbEntity
  8
0
100
AcDbBlockBegin
  2
-003-_D5
 70
     0
 10
0.0
 20
0.0
 30
0.0
  3
-003-_D5
  1

  0
LINE
  5
38C
330
BF
100
AcDbEntity
  8
_0-0_0
  6
Continuous
 62
     4
100
AcDbLine
 10
4774.278681731519
 20
-1604.34508301599
 30
0.0
 11
4810.911995108598
 21
-1604.34508301599
 31
0.0
  0
LINE
  5
38D
330
BF
100
AcDbEntity
  8
_0-0_0
  6
Continuous
 62
     4
100
AcDbLine
 10
4774.278681731519
 20
-1633.34508301599
 30
0.0
 11
4810.911995108598
 21
-1633.34508301599
 31
0.0
  0
LINE
  5
38E
330
BF
100
AcDbEntity
  8
_0-0_0
  6
Continuous
 62
     4
100
AcDbLine
 10
4810.911995108598
 20
-1605.345083015991
 30
0.0
 11
4810.911995108598
 21
-1632.34508301599
 31
0.0
  0
INSERT
  5
38F
330
BF
100
AcDbEntity
  8
_0-0_0
100
AcDbBlockReference
  2
-000-_DOT
 10
4810.911995108598
 20
-1604.34508301599
 30
0.0
 50
90.0
  0
INSERT
  5
390
330
BF
100
AcDbEntity
  8
_0-0_0
100
AcDbBlockReference
  2
-000-_DOT
 10
4810.911995108598
 20
-1633.34508301599
 30
0.0
 50
270.0
  0
TEXT
  5
391
330
BF
100
AcDbEntity
  8
_0-0_0
 62
     7
100
AcDbText
 10
4807.911995108597
 20
-1626.34508301599
 30
0.0
 40
9.0
  1
29
 50
90.0
100
AcDbText
  0
POINT
  5
392
330
BF
100
AcDbEntity
  8
_0-1_Defpoints
 62
     7
100
AcDbPoint
 10
4774.278681731519
 20
-1604.34508301599
 30
0.0
  0
POINT
  5
393
330
BF
100
AcDbEntity
  8
_0-1_Defpoints
 62
     7
100
AcDbPoint
 10
4774.278681731519
 20
-1633.34508301599
 30
0.0
  0
POINT
  5
394
330
BF
100
AcDbEntity
  8
_0-1_Defpoints
 62
     7
100
AcDbPoint
 10
4810.911995108598
 20
-1633.34508301599
 30
0.0
  0
ENDBLK
  5
CA
330
BF
100
AcDbEntity
  8
0
100
AcDbBlockEnd
  0
BLOCK
  5
37D
330
37C
100
AcDbEntity
  8
0
100
AcDbBlockBegin
  2
*D6
 70
     1
 10
0.0
 20
0.0
 30
0.0
  3
*D6
  1

  0
LINE
  5
37F
330
37C
100
AcDbEntity
  8
0
  6
Continuous
 62
     0
370
    -2
100
AcDbLine
 10
1533.308143237835
 20
593.4692217213291
 30
0.0
 11
1587.236639722737
 21
593.4692217213291
 31
0.0
  0
LINE
  5
380
330
37C
100
AcDbEntity
  8
0
  6
Continuous
 62
     0
370
    -2
100
AcDbLine
 10
1533.308143237835
 20
564.4692217213332
 30
0.0
 11
1587.236639722737
 21
564.4692217213332
 31
0.0
  0
LINE
  5
381
330
37C
100
AcDbEntity
  8
0
  6
Continuous
 62
     0
370
    -2
100
AcDbLine
 10
1587.056639722737
 20
593.2892217213292
 30
0.0
 11
1587.056639722737
 21
579.1492217213312
 31
0.0
  0
LINE
  5
382
330
37C
100
AcDbEntity
  8
0
  6
Continuous
 62
     0
370
    -2
100
AcDbLine
 10
1587.056639722737
 20
564.6492217213332
 30
0.0
 11
1587.056639722737
 21
578.7892217213312
 31
0.0
  0
SOLID
  5
383
330
37C
100
AcDbEntity
  8
0
  6
Continuous
 62
     0
100
AcDbTrace
 10
1587.026639722737
 20
593.2892217213292
 30
0.0
 11
1587.086639722737
 21
593.2892217213292
 31
0.0
 12
1587.056639722737
 22
593.4692217213291
 32
0.0
 13
1587.056639722737
 23
593.4692217213291
 33
0.0
  0
SOLID
  5
384
330
37C
100
AcDbEntity
  8
0
  6
Continuous
 62
     0
100
AcDbTrace
 10
1587.026639722737
 20
564.6492217213332
 30
0.0
 11
1587.086639722737
 21
564.6492217213332
 31
0.0
 12
1587.056639722737
 22
564.4692217213332
 32
0.0
 13
1587.056639722737
 23
564.4692217213332
 33
0.0
  0
MTEXT
  5
385
330
37C
100
AcDbEntity
  8
0
  6
Continuous
 62
     0
100
AcDbMText
 10
1587.056639722737
 20
578.9692217213306
 30
0.0
 40
0.18
 41
0.0
 71
     5
 72
     1
  1
\A1;29.0000
 73
     1
 44
1.0
1001
ACAD
1000
MTEXTBEGIN
1070
    73
1070
     1
1070
    44
1040
1.0
1070
    74
1070
     0
1000
MTEXTEND
  0
POINT
  5
386
330
37C
100
AcDbEntity
  8
Defpoints
  6
Continuous
 62
     0
100
AcDbPoint
 10
1533.245643237835
 20
593.4692217213291
 30
0.0
  0
POINT
  5
387
330
37C
100
AcDbEntity
  8
Defpoints
  6
Continuous
 62
     0
100
AcDbPoint
 10
1533.245643237835
 20
564.4692217213332
 30
0.0
  0
POINT
  5
388
330
37C
100
AcDbEntity
  8
Defpoints
  6
Continuous
 62
     0
100
AcDbPoint
 10
1587.056639722737
 20
564.4692217213332
 30
0.0
  0
ENDBLK
  5
37E
330
37C
100
AcDbEntity
  8
0
100
AcDbBlockEnd
  0
ENDSEC
  0
SECTION
  2
ENTITIES
  0
LINE
  5
CB
330
6F
100
AcDbEntity
  8
_0-3_躯体と製品
  6
Continuous
 62
     7
100
AcDbLine
 10
893.7314524105703
 20
601.9694057213289
 30
0.0
 11
889.2277964105707
 21
601.9692817213289
 31
0.0
  0
LINE
  5
CC
330
6F
100
AcDbEntity
  8
_0-3_躯体と製品
  6
Continuous
 62
     7
100
AcDbLine
 10
889.2277964105707
 20
601.9692817213289
 30
0.0
 11
894.2277964105713
 21
601.9694177213302
 31
0.0
  0
LINE
  5
CD
330
6F
100
AcDbEntity
  8
_0-3_躯体と製品
  6
Continuous
 62
     7
100
AcDbLine
 10
894.2277964105713
 20
601.9694177213302
 30
0.0
 11
894.2277964105713
 21
596.4694177213301
 31
0.0
  0
LINE
  5
CE
330
6F
100
AcDbEntity
  8
_0-3_躯体と製品
  6
Continuous
 62
     7
100
AcDbLine
 10
894.2277964105713
 20
601.4694177213301
 30
0.0
 11
894.2277964105713
 21
595.9694177213301
 31
0.0
  0
LINE
  5
CF
330
6F
100
AcDbEntity
  8
_0-3_躯体と製品
  6
Continuous
 62
     7
100
AcDbLine
 10
894.2277964105713
 20
595.9694177213301
 30
0.0
 11
889.2277964105707
 21
595.9694177213301
 31
0.0
  0
ARC
  5
D0
330
6F
100
AcDbEntity
  8
_0-3_躯体と製品
  6
Continuous
 62
     7
100
AcDbCircle
 10
889.2277964105709
 20
591.9694177213305
 30
0.0
 40
3.999999999999544
100
AcDbArc
 50
90.00000000000653
 51
180.0000000000066
  0
ARC
  5
D1
330
6F
100
AcDbEntity
  8
_0-3_躯体と製品
  6
Continuous
 62
     7
100
AcDbCircle
 10
889.2277964105709
 20
591.9694177213305
 30
0.0
 40
3.999999999999544
100
AcDbArc
 50
90.00000000000653
 51
180.0000000000066
  0
LINE
  5
D2
330
6F
100
AcDbEntity
  8
_0-3_躯体と製品
  6
Continuous
 62
     7
100
AcDbLine
 10
889.2277964105707
 20
595.9694177213301
 30
0.0
 11
893.7277964105714
 21
595.9694177213301
 31
0.0
  0
ARC
  5
D3
330
6F
100
AcDbEntity
  8
_0-3_躯体と製品
  6
Continuous
 62
     7
100
AcDbCircle
 10
886.7277964105706
 20
602.5316737213293
 30
0.0
 40
2.562476000001207
100
AcDbArc
 50
192.6779950000045
 51
347.3220049999954
  0
LINE
  5
D4
330
6F
100
AcDbEntity
  8
_0-3_躯体と製品
  6
Continuous
 62
     7
100
AcDbLine
 10
884.2277963786319
 20
601.9692832067501
 30
0.0
 11
889.2277964425092
 21
601.9692832067501
 31
0.0
  0
ARC
  5
D5
330
6F
100
AcDbEntity
  8
_0-3_躯体と製品
  6
Continuous
 62
     7
100
AcDbCircle
 10
888.727796410571
 20
548.4692217213289
 30
0.0
 40
3.499999999999545
100
AcDbArc
 50
0.0000000000000254
 51
180.0
  0
LINE
  5
D6
330
6F
100
AcDbEntity
  8
_0-3_躯体と製品
  6
Continuous
 62
     7
100
AcDbLine
 10
892.2277964105706
 20
548.4692217213289
 30
0.0
 11
885.2277964105713
 21
548.4692217213289
 31
0.0
  0
ARC
  5
D7
330
6F
100
AcDbEntity
  8
_0-3_躯体と製品
  6
Continuous
 62
     7
100
AcDbCircle
 10
888.7277964105708
 20
548.4692217213287
 30
0.0
 40
5.500000000000584
100
AcDbArc
 50
0.0000000000028116
 51
112.6198650000002
  0
LINE
  5
D8
330
6F
100
AcDbEntity
  8
_0-3_躯体と製品
  6
Continuous
 62
     7
100
AcDbLine
 10
894.2277964105713
 20
548.4692217213289
 30
0.0
 11
886.6124117905819
 21
553.5461447963339
 31
0.0
  0
ARC
  5
D9
330
6F
100
AcDbEntity
  8
_0-3_躯体と製品
  6
Continuous
 62
     7
100
AcDbCircle
 10
886.2277964105709
 20
554.4692217213289
 30
0.0
 40
0.9999999999996791
100
AcDbArc
 50
179.9999999999984
 51
292.6198649999958
  0
LINE
  5
DA
330
6F
100
AcDbEntity
  8
_0-3_躯体と製品
  6
Continuous
 62
     7
100
AcDbLine
 10
885.2277964105713
 20
554.4692217213289
 30
0.0
 11
886.6124117960234
 21
553.546144798601
 31
0.0
  0
ARC
  5
DB
330
6F
100
AcDbEntity
  8
_0-3_躯体と製品
  6
Continuous
 62
     7
100
AcDbCircle
 10
894.2277964105709
 20
538.9692217213292
 30
0.0
 40
2.000000000000454
100
AcDbArc
 50
180.0000000000131
 51
270.0000000000131
  0
ARC
  5
DC
330
6F
100
AcDbEntity
  8
_0-3_躯体と製品
  6
Continuous
 62
     7
100
AcDbCircle
 10
894.2277964105709
 20
538.9692217213292
 30
0.0
 40
2.000000000000454
100
AcDbArc
 50
180.0000000000131
 51
270.0000000000131
  0
ARC
  5
DD
330
6F
100
AcDbEntity
  8
_0-3_躯体と製品
  6
Continuous
 62
     7
100
AcDbCircle
 10
894.2277964105713
 20
537.9692217213289
 30
0.0
 40
1.0
100
AcDbArc
 50
270.0
 51
89.99999999999996
  0
LINE
  5
DE
330
6F
100
AcDbEntity
  8
_0-3_躯体と製品
  6
Continuous
 62
     7
100
AcDbLine
 10
894.2277964105713
 20
538.9692217213289
 30
0.0
 11
894.2277964105713
 21
536.9692217213289
 31
0.0
  0
LINE
  5
DF
330
6F
100
AcDbEntity
  8
_0-3_躯体と製品
  6
Continuous
 62
     7
100
AcDbLine
 10
892.2277964105706
 20
538.9692217213289
 30
0.0
 11
892.2277964105706
 21
548.4692217213289
 31
0.0
  0
LINE
  5
E0
330
6F
100
AcDbEntity
  8
_0-3_躯体と製品
  6
Continuous
 62
     7
100
AcDbLine
 10
892.2277964105706
 20
548.4692217213289
 30
0.0
 11
892.2277964105706
 21
538.9692217213289
 31
0.0
  0
LINE
  5
E1
330
6F
100
AcDbEntity
  8
_0-3_躯体と製品
  6
Continuous
 62
     7
100
AcDbLine
 10
894.2277964105713
 20
548.4692217213289
 30
0.0
 11
894.2277964105713
 21
538.9692217213289
 31
0.0
  0
LINE
  5
E2
330
6F
100
AcDbEntity
  8
_0-3_躯体と製品
  6
Continuous
 62
     7
100
AcDbLine
 10
885.2277964105713
 20
591.9694177213301
 30
0.0
 11
885.2277964105713
 21
554.4692217213289
 31
0.0
  0
LINE
  5
E3
330
6F
100
AcDbEntity
  8
_0-3_躯体と製品
  6
Continuous
 62
     7
100
AcDbLine
 10
885.2277964105713
 20
554.4692217213289
 30
0.0
 11
885.2277964105713
 21
566.96935772133
 31
0.0
  0
LINE
  5
E4
330
6F
100
AcDbEntity
  8
_0-3_躯体と製品
  6
Continuous
 62
     7
100
AcDbLine
 10
876.2277964105713
 20
601.9692817213289
 30
0.0
 11
873.2277964105714
 21
601.9692817213289
 31
0.0
  0
LINE
  5
E5
330
6F
100
AcDbEntity
  8
_0-3_躯体と製品
  6
Continuous
 62
     7
100
AcDbLine
 10
873.2277964105714
 20
601.9692817213289
 30
0.0
 11
876.2277964105713
 21
601.9692817213289
 31
0.0
  0
ARC
  5
E6
330
6F
100
AcDbEntity
  8
_0-3_躯体と製品
  6
Continuous
 62
     7
100
AcDbCircle
 10
870.7277964105713
 20
602.5307657213287
 30
0.0
 40
2.562275999999614
100
AcDbArc
 50
192.6581459999944
 51
347.3418540000057
  0
LINE
  5
E7
330
6F
100
AcDbEntity
  8
_0-3_躯体と製品
  6
Continuous
 62
     7
100
AcDbLine
 10
868.2277968384587
 20
601.9692851432051
 30
0.0
 11
873.2277959826841
 21
601.9692851432051
 31
0.0
  0
ARC
  5
E8
330
6F
100
AcDbEntity
  8
_0-3_躯体と製品
  6
Continuous
 62
     7
100
AcDbCircle
 10
878.7277964105706
 20
602.5293897213284
 30
0.0
 40
2.56197599999953
100
AcDbArc
 50
192.6281820000042
 51
347.3718179999958
  0
LINE
  5
E9
330
6F
100
AcDbEntity
  8
_0-3_躯体と製品
  6
Continuous
 62
     7
100
AcDbLine
 10
876.2277962853932
 20
601.969282232817
 30
0.0
 11
881.2277965357479
 21
601.969282232817
 31
0.0
  0
ARC
  5
EA
330
6F
100
AcDbEntity
  8
_0-3_躯体と製品
  6
Continuous
 62
     7
100
AcDbCircle
 10
877.7277964105712
 20
590.1766737213289
 30
0.0
 40
3.500000000000168
100
AcDbArc
 50
0.0000000000006361
 51
97.12499999999399
  0
LINE
  5
EB
330
6F
100
AcDbEntity
  8
_0-3_躯体と製品
  6
Continuous
 62
     7
100
AcDbLine
 10
881.2277964105714
 20
590.1766737213289
 30
0.0
 11
877.2936758304949
 21
593.6496464137
 31
0.0
  0
LINE
  5
EC
330
6F
100
AcDbEntity
  8
_0-3_躯体と製品
  6
Continuous
 62
     7
100
AcDbLine
 10
868.2277964105706
 20
601.9692817213289
 30
0.0
 11
863.2277964105714
 21
601.9692817213289
 31
0.0
  0
LINE
  5
ED
330
6F
100
AcDbEntity
  8
_0-3_躯体と製品
  6
Continuous
 62
     7
100
AcDbLine
 10
863.2277964105714
 20
601.9692817213289
 30
0.0
 11
863.9720324105701
 21
596.0154577213289
 31
0.0
  0
LINE
  5
EE
330
6F
100
AcDbEntity
  8
_0-3_躯体と製品
  6
Continuous
 62
     7
100
AcDbLine
 10
863.9720324105701
 20
596.0154577213289
 30
0.0
 11
863.2980484105715
 21
601.4072657213289
 31
0.0
  0
ARC
  5
EF
330
6F
100
AcDbEntity
  8
_0-3_躯体と製品
  6
Continuous
 62
     7
100
AcDbCircle
 10
843.7277964105708
 20
585.92663372133
 30
0.0
 40
3.499999999999654
100
AcDbArc
 50
97.12508699998943
 51
179.9999999999988
  0
LINE
  5
F0
330
6F
100
AcDbEntity
  8
_0-3_躯体と製品
  6
Continuous
 62
     7
100
AcDbLine
 10
840.2277964105714
 20
585.92663372133
 30
0.0
 11
840.2277964105714
 21
526.77335772133
 31
0.0
  0
LINE
  5
F1
330
6F
100
AcDbEntity
  8
_0-3_躯体と製品
  6
Continuous
 62
     7
100
AcDbLine
 10
840.2277964105714
 20
526.77335772133
 30
0.0
 11
840.2277964105714
 21
564.0163657213289
 31
0.0
  0
ARC
  5
F2
330
6F
100
AcDbEntity
  8
_0-3_躯体と製品
  6
Continuous
 62
     7
100
AcDbCircle
 10
832.2277964105714
 20
583.9852257213281
 30
0.0
 40
4.000000000000119
100
AcDbArc
 50
0.0000000000111828
 51
97.12508700000185
  0
LINE
  5
F3
330
6F
100
AcDbEntity
  8
_0-3_躯体と製品
  6
Continuous
 62
     7
100
AcDbLine
 10
836.2277964105713
 20
583.985225721329
 30
0.0
 11
831.7316525779261
 21
587.9543366163939
 31
0.0
  0
LINE
  5
F4
330
6F
100
AcDbEntity
  8
_0-3_躯体と製品
  6
Continuous
 62
     7
100
AcDbLine
 10
877.293676410569
 20
593.6496497213299
 30
0.0
 11
843.2936724105703
 21
589.3996057213289
 31
0.0
  0
LINE
  5
F5
330
6F
100
AcDbEntity
  8
_0-3_躯体と製品
  6
Continuous
 62
     7
100
AcDbLine
 10
843.2936724105703
 20
589.3996057213289
 30
0.0
 11
877.293676410569
 21
593.6496497213299
 31
0.0
  0
ARC
  5
F6
330
6F
100
AcDbEntity
  8
_0-3_躯体と製品
  6
Continuous
 62
     7
100
AcDbCircle
 10
835.2277964105713
 20
531.4022417213297
 30
0.0
 40
1.00000000000028
100
AcDbArc
 50
247.5123309999768
 51
359.9999999999686
  0
LINE
  5
F7
330
6F
100
AcDbEntity
  8
_0-3_躯体と製品
  6
Continuous
 62
     7
100
AcDbLine
 10
834.8453118212322
 20
530.478279850407
 30
0.0
 11
836.2277964105713
 21
531.4022417213291
 31
0.0
  0
LINE
  5
F8
330
6F
100
AcDbEntity
  8
_0-3_躯体と製品
  6
Continuous
 62
     7
100
AcDbLine
 10
829.2277964105725
 20
525.78158972133
 30
0.0
 11
829.2277964105725
 21
518.9692217213289
 31
0.0
  0
LINE
  5
F9
330
6F
100
AcDbEntity
  8
_0-3_躯体と製品
  6
Continuous
 62
     7
100
AcDbLine
 10
829.2277964105725
 20
518.9692217213289
 30
0.0
 11
829.2277964105725
 21
525.78158972133
 31
0.0
  0
LINE
  5
FA
330
6F
100
AcDbEntity
  8
_0-3_躯体と製品
  6
Continuous
 62
     7
100
AcDbLine
 10
827.2277964105713
 20
526.01426972133
 30
0.0
 11
827.2277964105713
 21
518.9692217213289
 31
0.0
  0
ARC
  5
FB
330
6F
100
AcDbEntity
  8
_0-3_躯体と製品
  6
Continuous
 62
     7
100
AcDbCircle
 10
825.2277964105708
 20
518.9692217213296
 30
0.0
 40
2.000000000000681
100
AcDbArc
 50
269.9999999999804
 51
359.9999999999805
  0
ARC
  5
FC
330
6F
100
AcDbEntity
  8
_0-3_躯体と製品
  6
Continuous
 62
     7
100
AcDbCircle
 10
825.2277964105699
 20
515.9692217213289
 30
0.0
 40
1.0
100
AcDbArc
 50
90.0
 51
270.0
  0
ARC
  5
FD
330
6F
100
AcDbEntity
  8
_0-3_躯体と製品
  6
Continuous
 62
     7
100
AcDbCircle
 10
825.2277964105699
 20
515.9692217213289
 30
0.0
 40
1.0
100
AcDbArc
 50
90.0
 51
270.0
  0
ARC
  5
FE
330
6F
100
AcDbEntity
  8
_0-3_躯体と製品
  6
Continuous
 62
     7
100
AcDbCircle
 10
825.2277964105708
 20
518.9692217213296
 30
0.0
 40
2.000000000000681
100
AcDbArc
 50
269.9999999999804
 51
359.9999999999805
  0
ARC
  5
FF
330
6F
100
AcDbEntity
  8
_0-3_躯体と製品
  6
Continuous
 62
     7
100
AcDbCircle
 10
832.7311884105697
 20
525.3712257213293
 30
0.0
 40
3.527343999999956
100
AcDbArc
 50
7.569173999997127
 51
173.3191410000009
  0
LINE
  5
100
330
6F
100
AcDbEntity
  8
_0-3_躯体と製品
  6
Continuous
 62
     7
100
AcDbLine
 10
836.227797084647
 20
525.8358583447029
 30
0.0
 11
829.2277965905674
 21
525.7815931784639
 31
0.0
  0
ARC
  5
101
330
6F
100
AcDbEntity
  8
_0-3_躯体と製品
  6
Continuous
 62
     7
100
AcDbCircle
 10
832.7311884105702
 20
525.3712257213289
 30
0.0
 40
5.527344000000233
100
AcDbArc
 50
67.51233100000852
 51
173.319141
  0
LINE
  5
102
330
6F
100
AcDbEntity
  8
_0-3_躯体と製品
  6
Continuous
 62
     7
100
AcDbLine
 10
834.8453123105414
 20
530.4782808248019
 30
0.0
 11
827.2413774491381
 21
526.0142710557191
 31
0.0
  0
LINE
  5
103
330
6F
100
AcDbEntity
  8
_0-3_躯体と製品
  6
Continuous
 62
     7
100
AcDbLine
 10
881.2277964105714
 20
565.1766137213289
 30
0.0
 11
881.2277964105714
 21
548.4692217213289
 31
0.0
  0
LINE
  5
104
330
6F
100
AcDbEntity
  8
_0-3_躯体と製品
  6
Continuous
 62
     7
100
AcDbLine
 10
881.2277964105714
 20
548.4692217213289
 30
0.0
 11
881.2277964105714
 21
590.1766737213289
 31
0.0
  0
LINE
  5
105
330
6F
100
AcDbEntity
  8
_0-3_躯体と製品
  6
Continuous
 62
     7
100
AcDbLine
 10
836.2277964105713
 20
583.985225721329
 30
0.0
 11
836.2277964105713
 21
531.4022417213291
 31
0.0
  0
LINE
  5
106
330
6F
100
AcDbEntity
  8
_0-3_躯体と製品
  6
Continuous
 62
     7
100
AcDbLine
 10
836.2277964105713
 20
531.4022417213291
 30
0.0
 11
836.2277964105713
 21
563.5163657213289
 31
0.0
  0
ARC
  5
107
330
6F
100
AcDbEntity
  8
_0-3_躯体と製品
  6
Continuous
 62
     7
100
AcDbCircle
 10
790.2277964105714
 20
580.8162257213289
 30
0.0
 40
2.000000000000076
100
AcDbArc
 50
97.12501599999201
 51
180.0000000000019
  0
LINE
  5
108
330
6F
100
AcDbEntity
  8
_0-3_躯体と製品
  6
Continuous
 62
     7
100
AcDbLine
 10
788.2277964105713
 20
580.8162257213289
 30
0.0
 11
788.2277964105713
 21
577.9842697213289
 31
0.0
  0
ARC
  5
109
330
6F
100
AcDbEntity
  8
_0-3_躯体と製品
  6
Continuous
 62
     7
100
AcDbCircle
 10
787.7277964105713
 20
577.9842697213293
 30
0.0
 40
0.4999999999999569
100
AcDbArc
 50
277.1250159999332
 51
359.9999999999432
  0
LINE
  5
10A
330
6F
100
AcDbEntity
  8
_0-3_躯体と製品
  6
Continuous
 62
     7
100
AcDbLine
 10
784.7898124105714
 20
577.1131297213289
 30
0.0
 11
787.7898124105715
 21
577.488129721329
 31
0.0
  0
LINE
  5
10B
330
6F
100
AcDbEntity
  8
_0-3_躯体と製品
  6
Continuous
 62
     7
100
AcDbLine
 10
801.1685564105714
 20
584.133913721329
 30
0.0
 11
789.9797284105702
 21
582.8007817213298
 31
0.0
  0
LINE
  5
10C
330
6F
100
AcDbEntity
  8
_0-3_躯体と製品
  6
Continuous
 62
     7
100
AcDbLine
 10
789.9797284105702
 20
582.8007817213298
 30
0.0
 11
801.1685564105714
 21
584.133913721329
 31
0.0
  0
ARC
  5
10D
330
6F
100
AcDbEntity
  8
_0-3_躯体と製品
  6
Continuous
 62
     7
100
AcDbCircle
 10
782.2277964105714
 20
579.8162257213289
 30
0.0
 40
2.00000000000006
100
AcDbArc
 50
359.999999999998
 51
97.12501599998816
  0
LINE
  5
10E
330
6F
100
AcDbEntity
  8
_0-3_躯体と製品
  6
Continuous
 62
     7
100
AcDbLine
 10
784.2277964105713
 20
579.8162257213289
 30
0.0
 11
784.2277964105713
 21
577.6092697213289
 31
0.0
  0
ARC
  5
10F
330
6F
100
AcDbEntity
  8
_0-3_躯体と製品
  6
Continuous
 62
     7
100
AcDbCircle
 10
784.7277964105709
 20
577.6092697213289
 30
0.0
 40
0.4999999999995616
100
AcDbArc
 50
180.0000000000043
 51
277.1250159999945
  0
LINE
  5
110
330
6F
100
AcDbEntity
  8
_0-3_躯体と製品
  6
Continuous
 62
     7
100
AcDbLine
 10
831.7316524105704
 20
587.9543377213289
 30
0.0
 11
801.1685564105714
 21
584.133913721329
 31
0.0
  0
LINE
  5
111
330
6F
100
AcDbEntity
  8
_0-3_躯体と製品
  6
Continuous
 62
     7
100
AcDbLine
 10
801.1685564105714
 20
584.133913721329
 30
0.0
 11
831.7316524105704
 21
587.9543377213289
 31
0.0
  0
LINE
  5
112
330
6F
100
AcDbEntity
  8
_0-3_躯体と製品
  6
Continuous
 62
     7
100
AcDbLine
 10
884.2277964105713
 20
601.9692817213289
 30
0.0
 11
881.2277964105714
 21
601.9692817213289
 31
0.0
  0
LINE
  5
113
330
6F
100
AcDbEntity
  8
_0-3_躯体と製品
  6
Continuous
 62
     7
100
AcDbLine
 10
881.2277964105714
 20
601.9692817213289
 30
0.0
 11
884.2277964105713
 21
601.9692817213289
 31
0.0
  0
LINE
  5
114
330
6F
100
AcDbEntity
  8
_0-3_躯体と製品
  6
Continuous
 62
     7
100
AcDbLine
 10
886.2277964105713
 20
507.2692217213289
 30
0.0
 11
885.2277964105713
 21
508.2692217213288
 31
0.0
  0
LINE
  5
115
330
6F
100
AcDbEntity
  8
_0-3_躯体と製品
  6
Continuous
 62
     7
100
AcDbLine
 10
885.2277964105713
 20
508.2692217213288
 30
0.0
 11
886.2277964105713
 21
507.2692217213289
 31
0.0
  0
LINE
  5
116
330
6F
100
AcDbEntity
  8
_0-3_躯体と製品
  6
Continuous
 62
     7
100
AcDbLine
 10
886.2277964105713
 20
507.2692217213289
 30
0.0
 11
886.2277964105713
 21
505.2692217213289
 31
0.0
  0
LINE
  5
117
330
6F
100
AcDbEntity
  8
_0-3_躯体と製品
  6
Continuous
 62
     7
100
AcDbLine
 10
886.2277964105713
 20
505.2692217213289
 30
0.0
 11
886.2277964105713
 21
507.2692217213289
 31
0.0
  0
LINE
  5
118
330
6F
100
AcDbEntity
  8
_0-3_躯体と製品
  6
Continuous
 62
     7
100
AcDbLine
 10
880.2277964105714
 20
507.2692217213289
 30
0.0
 11
880.2277964105714
 21
505.2692217213289
 31
0.0
  0
LINE
  5
119
330
6F
100
AcDbEntity
  8
_0-3_躯体と製品
  6
Continuous
 62
     7
100
AcDbLine
 10
880.2277964105714
 20
505.2692217213289
 30
0.0
 11
880.2277964105714
 21
507.2692217213289
 31
0.0
  0
LINE
  5
11A
330
6F
100
AcDbEntity
  8
_0-3_躯体と製品
  6
Continuous
 62
     7
100
AcDbLine
 10
880.2277964105714
 20
507.2692217213289
 30
0.0
 11
881.2277964105714
 21
508.2692217213288
 31
0.0
  0
LINE
  5
11B
330
6F
100
AcDbEntity
  8
_0-3_躯体と製品
  6
Continuous
 62
     7
100
AcDbLine
 10
881.2277964105714
 20
508.2692217213288
 30
0.0
 11
880.2277964105714
 21
507.2692217213289
 31
0.0
  0
LINE
  5
11C
330
6F
100
AcDbEntity
  8
_0-3_躯体と製品
  6
Continuous
 62
     7
100
AcDbLine
 10
841.2277964105713
 20
507.2692217213289
 30
0.0
 11
840.2277964105714
 21
508.2692217213288
 31
0.0
  0
LINE
  5
11D
330
6F
100
AcDbEntity
  8
_0-3_躯体と製品
  6
Continuous
 62
     7
100
AcDbLine
 10
840.2277964105714
 20
508.2692217213288
 30
0.0
 11
841.2277964105713
 21
507.2692217213289
 31
0.0
  0
LINE
  5
11E
330
6F
100
AcDbEntity
  8
_0-3_躯体と製品
  6
Continuous
 62
     7
100
AcDbLine
 10
841.2277964105713
 20
507.2692217213289
 30
0.0
 11
841.2277964105713
 21
505.2692217213289
 31
0.0
  0
ARC
  5
11F
330
6F
100
AcDbEntity
  8
_0-3_躯体と製品
  6
Continuous
 62
     7
100
AcDbCircle
 10
838.2277964105714
 20
505.2692217213289
 30
0.0
 40
3.0
100
AcDbArc
 50
180.0
 51
0.0
  0
LINE
  5
120
330
6F
100
AcDbEntity
  8
_0-3_躯体と製品
  6
Continuous
 62
     7
100
AcDbLine
 10
835.2277964105713
 20
505.2692217213289
 30
0.0
 11
835.2277964105713
 21
507.2692217213289
 31
0.0
  0
LINE
  5
121
330
6F
100
AcDbEntity
  8
_0-3_躯体と製品
  6
Continuous
 62
     7
100
AcDbLine
 10
835.2277964105713
 20
507.2692217213289
 30
0.0
 11
836.2277964105713
 21
508.2692217213288
 31
0.0
  0
LINE
  5
122
330
6F
100
AcDbEntity
  8
_0-3_躯体と製品
  6
Continuous
 62
     7
100
AcDbLine
 10
836.2277964105713
 20
508.2692217213288
 30
0.0
 11
835.2277964105713
 21
507.2692217213289
 31
0.0
  0
LINE
  5
123
330
6F
100
AcDbEntity
  8
_0-3_躯体と製品
  6
Continuous
 62
     7
100
AcDbLine
 10
835.2277964105713
 20
507.2692217213289
 30
0.0
 11
835.2277964105713
 21
505.2692217213289
 31
0.0
  0
ARC
  5
124
330
6F
100
AcDbEntity
  8
_0-3_躯体と製品
  6
Continuous
 62
     7
100
AcDbCircle
 10
838.2277964105714
 20
505.2692217213289
 30
0.0
 40
3.0
100
AcDbArc
 50
180.0
 51
0.0
  0
LINE
  5
125
330
6F
100
AcDbEntity
  8
_0-3_躯体と製品
  6
Continuous
 62
     7
100
AcDbLine
 10
841.2277964105713
 20
505.2692217213289
 30
0.0
 11
841.2277964105713
 21
507.2692217213289
 31
0.0
  0
ARC
  5
126
330
6F
100
AcDbEntity
  8
_0-3_躯体と製品
  6
Continuous
 62
     7
100
AcDbCircle
 10
883.2277964105713
 20
505.2692217213289
 30
0.0
 40
3.0
100
AcDbArc
 50
180.0
 51
0.0
  0
LINE
  5
127
330
6F
100
AcDbEntity
  8
_0-3_躯体と製品
  6
Continuous
 62
     7
100
AcDbLine
 10
880.2277964105714
 20
505.2692217213289
 30
0.0
 11
886.2277964105713
 21
505.2692217213289
 31
0.0
  0
LINE
  5
128
330
6F
100
AcDbEntity
  8
_0-3_躯体と製品
  6
Continuous
 62
     7
100
AcDbLine
 10
836.2277964105713
 20
508.2692217213288
 30
0.0
 11
836.2277964105713
 21
525.83585772133
 31
0.0
  0
LINE
  5
129
330
6F
100
AcDbEntity
  8
_0-3_躯体と製品
  6
Continuous
 62
     7
100
AcDbLine
 10
836.2277964105713
 20
525.83585772133
 30
0.0
 11
836.2277964105713
 21
508.2692217213288
 31
0.0
  0
LINE
  5
12A
330
6F
100
AcDbEntity
  8
_0-3_躯体と製品
  6
Continuous
 62
     7
100
AcDbLine
 10
881.2277964105714
 20
548.4692217213289
 30
0.0
 11
881.2277964105714
 21
508.2692217213288
 31
0.0
  0
LINE
  5
12B
330
6F
100
AcDbEntity
  8
_0-3_躯体と製品
  6
Continuous
 62
     7
100
AcDbLine
 10
881.2277964105714
 20
508.2692217213288
 30
0.0
 11
881.2277964105714
 21
548.4692217213289
 31
0.0
  0
LINE
  5
12C
330
6F
100
AcDbEntity
  8
_0-3_躯体と製品
  6
Continuous
 62
     7
100
AcDbLine
 10
885.2277964105713
 20
508.2692217213288
 30
0.0
 11
885.2277964105713
 21
548.4692217213289
 31
0.0
  0
LINE
  5
12D
330
6F
100
AcDbEntity
  8
_0-3_躯体と製品
  6
Continuous
 62
     7
100
AcDbLine
 10
885.2277964105713
 20
548.4692217213289
 30
0.0
 11
885.2277964105713
 21
508.2692217213288
 31
0.0
  0
ARC
  5
12E
330
6F
100
AcDbEntity
  8
_0-3_躯体と製品
  6
Continuous
 62
     7
100
AcDbCircle
 10
825.2277964105712
 20
518.96922172133
 30
0.0
 40
4.000000000001135
100
AcDbArc
 50
269.9999999999837
 51
359.9999999999837
  0
LINE
  5
12F
330
6F
100
AcDbEntity
  8
_0-3_躯体と製品
  6
Continuous
 62
     7
100
AcDbLine
 10
825.2277964105699
 20
514.9692217213289
 30
0.0
 11
829.2277964105725
 21
518.9692217213289
 31
0.0
  0
LINE
  5
130
330
6F
100
AcDbEntity
  8
_0-3_躯体と製品
  6
Continuous
 62
     7
100
AcDbLine
 10
840.2277964105714
 20
526.77335772133
 30
0.0
 11
840.2277964105714
 21
508.2692217213288
 31
0.0
  0
ARC
  5
131
330
6F
100
AcDbEntity
  8
_0-3_躯体と製品
  6
Continuous
 62
     7
100
AcDbCircle
 10
726.227796410572
 20
570.8006777213303
 30
0.0
 40
3.999999999999444
100
AcDbArc
 50
359.9999999999958
 51
97.12499899998457
  0
LINE
  5
132
330
6F
100
AcDbEntity
  8
_0-3_躯体と製品
  6
Continuous
 62
     7
100
AcDbLine
 10
730.2277964105713
 20
570.80067772133
 30
0.0
 11
725.7316586740452
 21
574.769789378413
 31
0.0
  0
LINE
  5
133
330
6F
100
AcDbEntity
  8
_0-3_躯体と製品
  6
Continuous
 62
     7
100
AcDbLine
 10
725.7316604105702
 20
574.76978972133
 30
0.0
 11
681.9797284105711
 21
569.3008137213289
 31
0.0
  0
LINE
  5
134
330
6F
100
AcDbEntity
  8
_0-3_躯体と製品
  6
Continuous
 62
     7
100
AcDbLine
 10
681.9797284105711
 20
569.3008137213289
 30
0.0
 11
725.7316604105702
 21
574.76978972133
 31
0.0
  0
LINE
  5
135
330
6F
100
AcDbEntity
  8
_0-3_躯体と製品
  6
Continuous
 62
     7
100
AcDbLine
 10
725.7316604105702
 20
574.76978972133
 30
0.0
 11
737.7316604105695
 21
576.2697857213289
 31
0.0
  0
LINE
  5
136
330
6F
100
AcDbEntity
  8
_0-3_躯体と製品
  6
Continuous
 62
     7
100
AcDbLine
 10
737.7316604105695
 20
576.2697857213289
 30
0.0
 11
781.9797284105702
 21
581.8007817213298
 31
0.0
  0
LINE
  5
137
330
6F
100
AcDbEntity
  8
_0-3_躯体と製品
  6
Continuous
 62
     7
100
AcDbLine
 10
781.9797284105702
 20
581.8007817213298
 30
0.0
 11
737.7316604105695
 21
576.2697857213289
 31
0.0
  0
ARC
  5
138
330
6F
100
AcDbEntity
  8
_0-3_躯体と製品
  6
Continuous
 62
     7
100
AcDbCircle
 10
738.227796410572
 20
572.3006737213296
 30
0.0
 40
3.999999999999622
100
AcDbArc
 50
97.12500400002053
 51
180.0000000000084
  0
LINE
  5
139
330
6F
100
AcDbEntity
  8
_0-3_躯体と製品
  6
Continuous
 62
     7
100
AcDbLine
 10
734.2277964105725
 20
572.3006737213289
 30
0.0
 11
734.2277964105725
 21
505.96935772133
 31
0.0
  0
LINE
  5
13A
330
6F
100
AcDbEntity
  8
_0-3_躯体と製品
  6
Continuous
 62
     7
100
AcDbLine
 10
734.2277964105725
 20
505.96935772133
 30
0.0
 11
735.2277964105714
 21
504.969357721329
 31
0.0
  0
LINE
  5
13B
330
6F
100
AcDbEntity
  8
_0-3_躯体と製品
  6
Continuous
 62
     7
100
AcDbLine
 10
735.2277964105714
 20
504.969357721329
 30
0.0
 11
735.2277964105714
 21
502.96935772133
 31
0.0
  0
ARC
  5
13C
330
6F
100
AcDbEntity
  8
_0-3_躯体と製品
  6
Continuous
 62
     7
100
AcDbCircle
 10
732.2277964105714
 20
502.96935772133
 30
0.0
 40
3.0
100
AcDbArc
 50
180.0
 51
0.0
  0
LINE
  5
13D
330
6F
100
AcDbEntity
  8
_0-3_躯体と製品
  6
Continuous
 62
     7
100
AcDbLine
 10
729.2277964105713
 20
502.96935772133
 30
0.0
 11
729.2277964105713
 21
504.969357721329
 31
0.0
  0
LINE
  5
13E
330
6F
100
AcDbEntity
  8
_0-3_躯体と製品
  6
Continuous
 62
     7
100
AcDbLine
 10
729.2277964105713
 20
504.969357721329
 30
0.0
 11
730.2277964105713
 21
505.96935772133
 31
0.0
  0
LINE
  5
13F
330
6F
100
AcDbEntity
  8
_0-3_躯体と製品
  6
Continuous
 62
     7
100
AcDbLine
 10
730.2277964105713
 20
505.96935772133
 30
0.0
 11
730.2277964105713
 21
570.80067772133
 31
0.0
  0
ARC
  5
140
330
6F
100
AcDbEntity
  8
_0-3_躯体と製品
  6
Continuous
 62
     7
100
AcDbCircle
 10
682.2277964105719
 20
567.3162577213295
 30
0.0
 40
1.999999999999492
100
AcDbArc
 50
97.12501600000351
 51
180.0000000000134
  0
LINE
  5
141
330
6F
100
AcDbEntity
  8
_0-3_躯体と製品
  6
Continuous
 62
     7
100
AcDbLine
 10
680.2277964105724
 20
567.3162577213289
 30
0.0
 11
680.2277964105724
 21
564.4843017213289
 31
0.0
  0
ARC
  5
142
330
6F
100
AcDbEntity
  8
_0-3_躯体と製品
  6
Continuous
 62
     7
100
AcDbCircle
 10
679.7277964105724
 20
564.4843017213295
 30
0.0
 40
0.4999999999999569
100
AcDbArc
 50
277.1250159999332
 51
359.9999999999432
  0
LINE
  5
143
330
6F
100
AcDbEntity
  8
_0-3_躯体と製品
  6
Continuous
 62
     7
100
AcDbLine
 10
676.7898124105722
 20
563.61316172133
 30
0.0
 11
679.7898124105714
 21
563.9881617213299
 31
0.0
  0
ARC
  5
144
330
6F
100
AcDbEntity
  8
_0-3_躯体と製品
  6
Continuous
 62
     7
100
AcDbCircle
 10
674.2277964105719
 20
566.3162577213285
 30
0.0
 40
2.000000000000414
100
AcDbArc
 50
0.0000000000128112
 51
97.12501600000292
  0
LINE
  5
145
330
6F
100
AcDbEntity
  8
_0-3_躯体と製品
  6
Continuous
 62
     7
100
AcDbLine
 10
676.2277964105724
 20
566.3162577213289
 30
0.0
 11
676.2277964105724
 21
564.109301721329
 31
0.0
  0
ARC
  5
146
330
6F
100
AcDbEntity
  8
_0-3_躯体と製品
  6
Continuous
 62
     7
100
AcDbCircle
 10
676.7277964105719
 20
564.109301721329
 30
0.0
 40
0.4999999999995616
100
AcDbArc
 50
180.0000000000043
 51
277.1250159999945
  0
ARC
  5
147
330
6F
100
AcDbEntity
  8
_0-3_躯体と製品
  6
Continuous
 62
     7
100
AcDbCircle
 10
630.2277964105723
 20
558.8007057213288
 30
0.0
 40
3.999999999999872
100
AcDbArc
 50
97.12499899998704
 51
179.9999999999983
  0
LINE
  5
148
330
6F
100
AcDbEntity
  8
_0-3_躯体と製品
  6
Continuous
 62
     7
100
AcDbLine
 10
626.2277964105724
 20
558.800705721329
 30
0.0
 11
626.2277964105724
 21
505.96935772133
 31
0.0
  0
LINE
  5
149
330
6F
100
AcDbEntity
  8
_0-3_躯体と製品
  6
Continuous
 62
     7
100
AcDbLine
 10
626.2277964105724
 20
505.96935772133
 30
0.0
 11
627.2277964105715
 21
504.969357721329
 31
0.0
  0
LINE
  5
14A
330
6F
100
AcDbEntity
  8
_0-3_躯体と製品
  6
Continuous
 62
     7
100
AcDbLine
 10
627.2277964105715
 20
504.969357721329
 30
0.0
 11
627.2277964105715
 21
502.96935772133
 31
0.0
  0
ARC
  5
14B
330
6F
100
AcDbEntity
  8
_0-3_躯体と製品
  6
Continuous
 62
     7
100
AcDbCircle
 10
624.2277964105714
 20
502.96935772133
 30
0.0
 40
3.0
100
AcDbArc
 50
180.0
 51
0.0
  0
LINE
  5
14C
330
6F
100
AcDbEntity
  8
_0-3_躯体と製品
  6
Continuous
 62
     7
100
AcDbLine
 10
621.2277964105715
 20
502.96935772133
 30
0.0
 11
621.2277964105715
 21
504.969357721329
 31
0.0
  0
LINE
  5
14D
330
6F
100
AcDbEntity
  8
_0-3_躯体と製品
  6
Continuous
 62
     7
100
AcDbLine
 10
621.2277964105715
 20
504.969357721329
 30
0.0
 11
622.2277964105724
 21
505.96935772133
 31
0.0
  0
LINE
  5
14E
330
6F
100
AcDbEntity
  8
_0-3_躯体と製品
  6
Continuous
 62
     7
100
AcDbLine
 10
622.2277964105724
 20
505.96935772133
 30
0.0
 11
622.2277964105724
 21
557.30070972133
 31
0.0
  0
ARC
  5
14F
330
6F
100
AcDbEntity
  8
_0-3_躯体と製品
  6
Continuous
 62
     7
100
AcDbCircle
 10
618.2277964105725
 20
557.3007097213296
 30
0.0
 40
3.99999999999988
100
AcDbArc
 50
0.0000000000085386
 51
97.12500499999917
  0
ARC
  5
150
330
6F
100
AcDbEntity
  8
_0-3_躯体と製品
  6
Continuous
 62
     7
100
AcDbCircle
 10
618.2277964105725
 20
557.3007097213296
 30
0.0
 40
3.99999999999988
100
AcDbArc
 50
0.0000000000085111
 51
97.12500499999917
  0
LINE
  5
151
330
6F
100
AcDbEntity
  8
_0-3_躯体と製品
  6
Continuous
 62
     7
100
AcDbLine
 10
673.9797284105711
 20
568.3008137213289
 30
0.0
 11
629.7316604105703
 21
562.7698177213289
 31
0.0
  0
LINE
  5
152
330
6F
100
AcDbEntity
  8
_0-3_躯体と製品
  6
Continuous
 62
     7
100
AcDbLine
 10
629.7316604105703
 20
562.7698177213289
 30
0.0
 11
673.9797284105711
 21
568.3008137213289
 31
0.0
  0
ARC
  5
153
330
6F
100
AcDbEntity
  8
_0-3_躯体と製品
  6
Continuous
 62
     7
100
AcDbCircle
 10
571.7277964105711
 20
550.984333721329
 30
0.0
 40
0.5000000000004718
100
AcDbArc
 50
277.1250159999853
 51
359.9999999999953
  0
LINE
  5
154
330
6F
100
AcDbEntity
  8
_0-3_躯体と製品
  6
Continuous
 62
     7
100
AcDbLine
 10
572.2277964105715
 20
550.984333721329
 30
0.0
 11
572.2277964105715
 21
553.816289721329
 31
0.0
  0
ARC
  5
155
330
6F
100
AcDbEntity
  8
_0-3_躯体と製品
  6
Continuous
 62
     7
100
AcDbCircle
 10
574.2277964105719
 20
553.8162897213285
 30
0.0
 40
2.00000000000053
100
AcDbArc
 50
97.12501599997732
 51
179.9999999999872
  0
ARC
  5
156
330
6F
100
AcDbEntity
  8
_0-3_躯体と製品
  6
Continuous
 62
     7
100
AcDbCircle
 10
566.2277964105714
 20
552.8162897213291
 30
0.0
 40
2.00000000000006
100
AcDbArc
 50
359.999999999998
 51
97.12501599998816
  0
LINE
  5
157
330
6F
100
AcDbEntity
  8
_0-3_躯体と製品
  6
Continuous
 62
     7
100
AcDbLine
 10
568.2277964105715
 20
552.816289721329
 30
0.0
 11
568.2277964105715
 21
550.609333721329
 31
0.0
  0
ARC
  5
158
330
6F
100
AcDbEntity
  8
_0-3_躯体と製品
  6
Continuous
 62
     7
100
AcDbCircle
 10
568.7277964105719
 20
550.609333721329
 30
0.0
 40
0.5000000000004178
100
AcDbArc
 50
179.9999999999983
 51
277.1250159999884
  0
LINE
  5
159
330
6F
100
AcDbEntity
  8
_0-3_躯体と製品
  6
Continuous
 62
     7
100
AcDbLine
 10
568.7898124105713
 20
550.1131937213299
 30
0.0
 11
571.7898124105714
 21
550.4881937213299
 31
0.0
  0
LINE
  5
15A
330
6F
100
AcDbEntity
  8
_0-3_躯体と製品
  6
Continuous
 62
     7
100
AcDbLine
 10
617.7316604105704
 20
561.2698217213289
 30
0.0
 11
573.9797284105711
 21
555.80084172133
 31
0.0
  0
LINE
  5
15B
330
6F
100
AcDbEntity
  8
_0-3_躯体と製品
  6
Continuous
 62
     7
100
AcDbLine
 10
573.9797284105711
 20
555.80084172133
 30
0.0
 11
617.7316604105704
 21
561.2698217213289
 31
0.0
  0
ARC
  5
15C
330
6F
100
AcDbEntity
  8
_0-3_躯体と製品
  6
Continuous
 62
     7
100
AcDbCircle
 10
522.2277964105718
 20
545.2400697213294
 30
0.0
 40
4.000000000000366
100
AcDbArc
 50
97.20233000000661
 51
180.0000000000047
  0
LINE
  5
15D
330
6F
100
AcDbEntity
  8
_0-3_躯体と製品
  6
Continuous
 62
     7
100
AcDbLine
 10
518.2277964105715
 20
545.240069721329
 30
0.0
 11
518.2277964105715
 21
505.96935772133
 31
0.0
  0
LINE
  5
15E
330
6F
100
AcDbEntity
  8
_0-3_躯体と製品
  6
Continuous
 62
     7
100
AcDbLine
 10
518.2277964105715
 20
505.96935772133
 30
0.0
 11
519.2277964105723
 21
504.969357721329
 31
0.0
  0
LINE
  5
15F
330
6F
100
AcDbEntity
  8
_0-3_躯体と製品
  6
Continuous
 62
     7
100
AcDbLine
 10
519.2277964105723
 20
504.969357721329
 30
0.0
 11
519.2277964105723
 21
502.96935772133
 31
0.0
  0
ARC
  5
160
330
6F
100
AcDbEntity
  8
_0-3_躯体と製品
  6
Continuous
 62
     7
100
AcDbCircle
 10
516.2277964105719
 20
502.96935772133
 30
0.0
 40
3.000000000000454
100
AcDbArc
 50
180.0
 51
0.0
  0
LINE
  5
161
330
6F
100
AcDbEntity
  8
_0-3_躯体と製品
  6
Continuous
 62
     7
100
AcDbLine
 10
513.2277964105715
 20
502.96935772133
 30
0.0
 11
513.2277964105715
 21
504.969357721329
 31
0.0
  0
LINE
  5
162
330
6F
100
AcDbEntity
  8
_0-3_躯体と製品
  6
Continuous
 62
     7
100
AcDbLine
 10
513.2277964105715
 20
504.969357721329
 30
0.0
 11
514.2277964105715
 21
505.96935772133
 31
0.0
  0
LINE
  5
163
330
6F
100
AcDbEntity
  8
_0-3_躯体と製品
  6
Continuous
 62
     7
100
AcDbLine
 10
514.2277964105715
 20
505.96935772133
 30
0.0
 11
513.2277964105715
 21
504.969357721329
 31
0.0
  0
LINE
  5
164
330
6F
100
AcDbEntity
  8
_0-3_躯体と製品
  6
Continuous
 62
     7
100
AcDbLine
 10
513.2277964105715
 20
504.969357721329
 30
0.0
 11
513.2277964105715
 21
502.96935772133
 31
0.0
  0
ARC
  5
165
330
6F
100
AcDbEntity
  8
_0-3_躯体と製品
  6
Continuous
 62
     7
100
AcDbCircle
 10
516.2277964105719
 20
502.96935772133
 30
0.0
 40
3.000000000000454
100
AcDbArc
 50
180.0
 51
0.0
  0
LINE
  5
166
330
6F
100
AcDbEntity
  8
_0-3_躯体と製品
  6
Continuous
 62
     7
100
AcDbLine
 10
519.2277964105723
 20
502.96935772133
 30
0.0
 11
519.2277964105723
 21
504.969357721329
 31
0.0
  0
LINE
  5
167
330
6F
100
AcDbEntity
  8
_0-3_躯体と製品
  6
Continuous
 62
     7
100
AcDbLine
 10
519.2277964105723
 20
504.969357721329
 30
0.0
 11
518.2277964105715
 21
505.96935772133
 31
0.0
  0
LINE
  5
168
330
6F
100
AcDbEntity
  8
_0-3_躯体と製品
  6
Continuous
 62
     7
100
AcDbLine
 10
518.2277964105715
 20
505.96935772133
 30
0.0
 11
518.2277964105715
 21
545.240069721329
 31
0.0
  0
LINE
  5
169
330
6F
100
AcDbEntity
  8
_0-3_躯体と製品
  6
Continuous
 62
     7
100
AcDbLine
 10
514.2277964105715
 20
541.489277721329
 30
0.0
 11
510.6812124105704
 21
542.985589721329
 31
0.0
  0
LINE
  5
16A
330
6F
100
AcDbEntity
  8
_0-3_躯体と製品
  6
Continuous
 62
     7
100
AcDbLine
 10
510.6812124105704
 20
542.985589721329
 30
0.0
 11
514.2277964105715
 21
541.489277721329
 31
0.0
  0
LINE
  5
16B
330
6F
100
AcDbEntity
  8
_0-3_躯体と製品
  6
Continuous
 62
     7
100
AcDbLine
 10
510.3091084105703
 20
545.9624217213301
 30
0.0
 11
512.5204764105702
 21
547.6363857213288
 31
0.0
  0
LINE
  5
16C
330
6F
100
AcDbEntity
  8
_0-3_躯体と製品
  6
Continuous
 62
     7
100
AcDbLine
 10
512.5204764105702
 20
547.6363857213288
 30
0.0
 11
510.3091084105703
 21
545.9624217213301
 31
0.0
  0
LINE
  5
16D
330
6F
100
AcDbEntity
  8
_0-3_躯体と製品
  6
Continuous
 62
     7
100
AcDbLine
 10
511.9730644105703
 20
552.0156897213289
 30
0.0
 11
863.9720324105701
 21
596.0154577213289
 31
0.0
  0
LINE
  5
16E
330
6F
100
AcDbEntity
  8
_0-3_躯体と製品
  6
Continuous
 62
     7
100
AcDbLine
 10
863.9720324105701
 20
596.0154577213289
 30
0.0
 11
511.9730644105703
 21
552.0156897213289
 31
0.0
  0
LINE
  5
16F
330
6F
100
AcDbEntity
  8
_0-3_躯体と製品
  6
Continuous
 62
     7
100
AcDbLine
 10
511.9730644105703
 20
552.0156897213289
 30
0.0
 11
512.5204764105702
 21
547.6363857213288
 31
0.0
  0
ARC
  5
170
330
6F
100
AcDbEntity
  8
_0-3_躯体と製品
  6
Continuous
 62
     7
100
AcDbCircle
 10
510.951596410572
 20
542.3249737213296
 30
0.0
 40
0.2999999999998397
100
AcDbArc
 50
67.12501600008564
 51
152.8237940000803
  0
ARC
  5
171
330
6F
100
AcDbEntity
  8
_0-3_躯体と製品
  6
Continuous
 62
     7
100
AcDbCircle
 10
510.3924044105709
 20
546.7985097213291
 30
0.0
 40
0.2999999999998348
100
AcDbArc
 50
221.4262390000511
 51
307.1250160000712
  0
LINE
  5
172
330
6F
100
AcDbEntity
  8
_0-3_躯体と製品
  6
Continuous
 62
     7
100
AcDbLine
 10
511.06821241057
 20
542.6013817213291
 30
0.0
 11
512.7126204105711
 21
541.9076017213289
 31
0.0
  0
LINE
  5
173
330
6F
100
AcDbEntity
  8
_0-3_躯体と製品
  6
Continuous
 62
     7
100
AcDbLine
 10
512.7126204105711
 20
541.9076017213289
 30
0.0
 11
513.1607884105692
 21
538.3222577213289
 31
0.0
  0
LINE
  5
174
330
6F
100
AcDbEntity
  8
_0-3_躯体と製品
  6
Continuous
 62
     7
100
AcDbLine
 10
513.1607884105692
 20
538.3222577213289
 30
0.0
 11
512.7266644105702
 21
537.76409772133
 31
0.0
  0
LINE
  5
175
330
6F
100
AcDbEntity
  8
_0-3_躯体と製品
  6
Continuous
 62
     7
100
AcDbLine
 10
512.7266644105702
 20
537.76409772133
 30
0.0
 11
502.6054324105703
 21
536.4989457213289
 31
0.0
  0
LINE
  5
176
330
6F
100
AcDbEntity
  8
_0-3_躯体と製品
  6
Continuous
 62
     7
100
AcDbLine
 10
161.6215444105701
 20
514.333937721329
 30
0.0
 11
166.5829324105702
 21
514.9541137213291
 31
0.0
  0
LINE
  5
177
330
6F
100
AcDbEntity
  8
_0-3_躯体と製品
  6
Continuous
 62
     7
100
AcDbLine
 10
166.5829324105702
 20
514.9541137213291
 30
0.0
 11
167.3271404105703
 21
509.0004457213289
 31
0.0
  0
LINE
  5
178
330
6F
100
AcDbEntity
  8
_0-3_躯体と製品
  6
Continuous
 62
     7
100
AcDbLine
 10
167.3271404105703
 20
509.0004457213289
 30
0.0
 11
511.4491084105712
 21
552.0156897213289
 31
0.0
  0
LINE
  5
179
330
6F
100
AcDbEntity
  8
_0-3_躯体と製品
  6
Continuous
 62
     7
100
AcDbLine
 10
511.4491084105712
 20
552.0156897213289
 30
0.0
 11
511.9965044105711
 21
547.636521721329
 31
0.0
  0
LINE
  5
17A
330
6F
100
AcDbEntity
  8
_0-3_躯体と製品
  6
Continuous
 62
     7
100
AcDbLine
 10
511.9965044105711
 20
547.636521721329
 30
0.0
 11
510.5734724105714
 21
546.559313721329
 31
0.0
  0
ARC
  5
17B
330
6F
100
AcDbEntity
  8
_0-3_躯体と製品
  6
Continuous
 62
     7
100
AcDbCircle
 10
497.6068324105705
 20
544.2387137213292
 30
0.0
 40
1.999999999999844
100
AcDbArc
 50
7.125016000008001
 51
97.12501599999471
  0
ARC
  5
17C
330
6F
100
AcDbEntity
  8
_0-3_躯体と製品
  6
Continuous
 62
     7
100
AcDbCircle
 10
507.917144410572
 20
544.151753721329
 30
0.0
 40
2.999999999999694
100
AcDbArc
 50
37.1250159999937
 51
337.1250160000087
  0
LINE
  5
17D
330
6F
100
AcDbEntity
  8
_0-3_躯体と製品
  6
Continuous
 62
     7
100
AcDbLine
 10
510.3091058662561
 20
545.962422215151
 30
0.0
 11
510.6812100518963
 21
542.9855885827451
 31
0.0
  0
ARC
  5
17E
330
6F
100
AcDbEntity
  8
_0-3_躯体と製品
  6
Continuous
 62
     7
100
AcDbCircle
 10
507.3931724105714
 20
544.1518897213292
 30
0.0
 40
3.699999999999624
100
AcDbArc
 50
41.42622999999956
 51
333.5163260000092
  0
ARC
  5
17F
330
6F
100
AcDbEntity
  8
_0-3_躯体と製品
  6
Continuous
 62
     7
100
AcDbCircle
 10
512.6646484105702
 20
538.2602377213291
 30
0.0
 40
0.5000000000006805
100
AcDbArc
 50
277.1250160000517
 51
7.125016000064961
  0
ARC
  5
180
330
6F
100
AcDbEntity
  8
_0-3_躯体と製品
  6
Continuous
 62
     7
100
AcDbCircle
 10
502.357360410571
 20
538.4835017213297
 30
0.0
 40
2.000000000001
100
AcDbArc
 50
187.1250160000104
 51
277.1250159999971
  0
LINE
  5
181
330
6F
100
AcDbEntity
  8
_0-3_躯体と製品
  6
Continuous
 62
     7
100
AcDbLine
 10
499.5913884105712
 20
544.4867817213289
 30
0.0
 11
500.3728044105714
 21
538.2354297213289
 31
0.0
  0
LINE
  5
182
330
6F
100
AcDbEntity
  8
_0-3_躯体と製品
  6
Continuous
 62
     7
100
AcDbLine
 10
565.9797284105711
 20
554.80084172133
 30
0.0
 11
521.7263044105703
 21
549.20850972133
 31
0.0
  0
LINE
  5
183
330
6F
100
AcDbEntity
  8
_0-3_躯体と製品
  6
Continuous
 62
     7
100
AcDbLine
 10
617.7316604105704
 20
561.2698217213289
 30
0.0
 11
629.7316604105703
 21
562.7698177213289
 31
0.0
  0
ARC
  5
184
330
6F
100
AcDbEntity
  8
_0-3_躯体と製品
  6
Continuous
 62
     7
100
AcDbCircle
 10
468.7049004105712
 20
538.6104057213287
 30
0.0
 40
4.000000000000251
100
AcDbArc
 50
97.12501599998674
 51
179.9999999999966
  0
LINE
  5
185
330
6F
100
AcDbEntity
  8
_0-3_躯体と製品
  6
Continuous
 62
     7
100
AcDbLine
 10
464.7049004105711
 20
538.610405721329
 30
0.0
 11
464.7049004105711
 21
505.96935772133
 31
0.0
  0
LINE
  5
186
330
6F
100
AcDbEntity
  8
_0-3_躯体と製品
  6
Continuous
 62
     7
100
AcDbLine
 10
464.7049004105711
 20
505.96935772133
 30
0.0
 11
465.7049004105711
 21
504.969357721329
 31
0.0
  0
LINE
  5
187
330
6F
100
AcDbEntity
  8
_0-3_躯体と製品
  6
Continuous
 62
     7
100
AcDbLine
 10
465.7049004105711
 20
504.969357721329
 30
0.0
 11
465.7049004105711
 21
502.96935772133
 31
0.0
  0
ARC
  5
188
330
6F
100
AcDbEntity
  8
_0-3_躯体と製品
  6
Continuous
 62
     7
100
AcDbCircle
 10
462.7049004105711
 20
502.96935772133
 30
0.0
 40
3.0
100
AcDbArc
 50
180.0
 51
0.0
  0
LINE
  5
189
330
6F
100
AcDbEntity
  8
_0-3_躯体と製品
  6
Continuous
 62
     7
100
AcDbLine
 10
459.7049004105711
 20
502.96935772133
 30
0.0
 11
459.7049004105711
 21
504.969357721329
 31
0.0
  0
LINE
  5
18A
330
6F
100
AcDbEntity
  8
_0-3_躯体と製品
  6
Continuous
 62
     7
100
AcDbLine
 10
459.7049004105711
 20
504.969357721329
 30
0.0
 11
460.7049004105711
 21
505.96935772133
 31
0.0
  0
LINE
  5
18B
330
6F
100
AcDbEntity
  8
_0-3_躯体と製品
  6
Continuous
 62
     7
100
AcDbLine
 10
460.7049004105711
 20
505.96935772133
 30
0.0
 11
460.7049004105711
 21
537.1104057213289
 31
0.0
  0
ARC
  5
18C
330
6F
100
AcDbEntity
  8
_0-3_躯体と製品
  6
Continuous
 62
     7
100
AcDbCircle
 10
456.7049004105712
 20
537.1104057213292
 30
0.0
 40
3.999999999999792
100
AcDbArc
 50
359.9999999999969
 51
97.12501599998695
  0
ARC
  5
18D
330
6F
100
AcDbEntity
  8
_0-3_躯体と製品
  6
Continuous
 62
     7
100
AcDbCircle
 10
412.2049004105709
 20
531.0440137213292
 30
0.0
 40
0.499999999999789
100
AcDbArc
 50
180.0000000000274
 51
277.1250160000175
  0
LINE
  5
18E
330
6F
100
AcDbEntity
  8
_0-3_躯体と製品
  6
Continuous
 62
     7
100
AcDbLine
 10
411.7049004105711
 20
531.044013721329
 30
0.0
 11
411.7049004105711
 21
533.250969721329
 31
0.0
  0
ARC
  5
18F
330
6F
100
AcDbEntity
  8
_0-3_躯体と製品
  6
Continuous
 62
     7
100
AcDbCircle
 10
409.7049004105714
 20
533.2509697213291
 30
0.0
 40
1.999999999999731
100
AcDbArc
 50
359.9999999999956
 51
97.12501599998569
  0
LINE
  5
190
330
6F
100
AcDbEntity
  8
_0-3_躯体と製品
  6
Continuous
 62
     7
100
AcDbLine
 10
412.2669164105714
 20
530.547877721329
 30
0.0
 11
415.2669164105705
 21
530.9228777213299
 31
0.0
  0
ARC
  5
191
330
6F
100
AcDbEntity
  8
_0-3_躯体と製品
  6
Continuous
 62
     7
100
AcDbCircle
 10
415.2049004105713
 20
531.4190137213293
 30
0.0
 40
0.4999999999997293
100
AcDbArc
 50
277.1250159999628
 51
359.9999999999726
  0
LINE
  5
192
330
6F
100
AcDbEntity
  8
_0-3_躯体と製品
  6
Continuous
 62
     7
100
AcDbLine
 10
415.7049004105711
 20
531.419013721329
 30
0.0
 11
415.7049004105711
 21
534.250969721329
 31
0.0
  0
ARC
  5
193
330
6F
100
AcDbEntity
  8
_0-3_躯体と製品
  6
Continuous
 62
     7
100
AcDbCircle
 10
417.7049004105712
 20
534.2509697213286
 30
0.0
 40
2.000000000000174
100
AcDbArc
 50
97.12501599998144
 51
179.9999999999913
  0
ARC
  5
194
330
6F
100
AcDbEntity
  8
_0-3_躯体と製品
  6
Continuous
 62
     7
100
AcDbCircle
 10
370.7049004105709
 20
526.3604057213292
 30
0.0
 40
3.999999999999796
100
AcDbArc
 50
97.12501599999409
 51
180.000000000004
  0
LINE
  5
195
330
6F
100
AcDbEntity
  8
_0-3_躯体と製品
  6
Continuous
 62
     7
100
AcDbLine
 10
366.7049004105712
 20
526.360405721329
 30
0.0
 11
366.7049004105712
 21
505.96935772133
 31
0.0
  0
LINE
  5
196
330
6F
100
AcDbEntity
  8
_0-3_躯体と製品
  6
Continuous
 62
     7
100
AcDbLine
 10
366.7049004105712
 20
505.96935772133
 30
0.0
 11
367.7049004105712
 21
504.969357721329
 31
0.0
  0
LINE
  5
197
330
6F
100
AcDbEntity
  8
_0-3_躯体と製品
  6
Continuous
 62
     7
100
AcDbLine
 10
367.7049004105712
 20
504.969357721329
 30
0.0
 11
367.7049004105712
 21
502.96935772133
 31
0.0
  0
ARC
  5
198
330
6F
100
AcDbEntity
  8
_0-3_躯体と製品
  6
Continuous
 62
     7
100
AcDbCircle
 10
364.7049004105712
 20
502.96935772133
 30
0.0
 40
3.0
100
AcDbArc
 50
180.0
 51
0.0
  0
LINE
  5
199
330
6F
100
AcDbEntity
  8
_0-3_躯体と製品
  6
Continuous
 62
     7
100
AcDbLine
 10
361.7049004105711
 20
502.96935772133
 30
0.0
 11
361.7049004105711
 21
504.969357721329
 31
0.0
  0
LINE
  5
19A
330
6F
100
AcDbEntity
  8
_0-3_躯体と製品
  6
Continuous
 62
     7
100
AcDbLine
 10
361.7049004105711
 20
504.969357721329
 30
0.0
 11
362.7049004105712
 21
505.96935772133
 31
0.0
  0
LINE
  5
19B
330
6F
100
AcDbEntity
  8
_0-3_躯体と製品
  6
Continuous
 62
     7
100
AcDbLine
 10
362.7049004105712
 20
505.96935772133
 30
0.0
 11
362.7049004105712
 21
524.860405721329
 31
0.0
  0
ARC
  5
19C
330
6F
100
AcDbEntity
  8
_0-3_躯体と製品
  6
Continuous
 62
     7
100
AcDbCircle
 10
358.7049004105713
 20
524.8604057213292
 30
0.0
 40
3.999999999999792
100
AcDbArc
 50
359.9999999999969
 51
97.12501599998695
  0
LINE
  5
19D
330
6F
100
AcDbEntity
  8
_0-3_躯体と製品
  6
Continuous
 62
     7
100
AcDbLine
 10
370.2087604105705
 20
530.3295177213299
 30
0.0
 11
409.4568284105712
 21
535.23552572133
 31
0.0
  0
LINE
  5
19E
330
6F
100
AcDbEntity
  8
_0-3_躯体と製品
  6
Continuous
 62
     7
100
AcDbLine
 10
417.4568284105703
 20
536.2355257213289
 30
0.0
 11
456.2087604105705
 21
541.079517721329
 31
0.0
  0
ARC
  5
19F
330
6F
100
AcDbEntity
  8
_0-3_躯体と製品
  6
Continuous
 62
     7
100
AcDbCircle
 10
314.2049004105709
 20
518.7940137213293
 30
0.0
 40
0.499999999999789
100
AcDbArc
 50
180.0000000000274
 51
277.1250160000175
  0
LINE
  5
1A0
330
6F
100
AcDbEntity
  8
_0-3_躯体と製品
  6
Continuous
 62
     7
100
AcDbLine
 10
313.7049004105711
 20
518.794013721329
 30
0.0
 11
313.7049004105711
 21
521.000969721329
 31
0.0
  0
ARC
  5
1A1
330
6F
100
AcDbEntity
  8
_0-3_躯体と製品
  6
Continuous
 62
     7
100
AcDbCircle
 10
311.7049004105713
 20
521.0009697213291
 30
0.0
 40
1.999999999999731
100
AcDbArc
 50
359.9999999999956
 51
97.12501599998569
  0
LINE
  5
1A2
330
6F
100
AcDbEntity
  8
_0-3_躯体と製品
  6
Continuous
 62
     7
100
AcDbLine
 10
314.2669164105714
 20
518.2978777213291
 30
0.0
 11
317.2669164105713
 21
518.672877721329
 31
0.0
  0
ARC
  5
1A3
330
6F
100
AcDbEntity
  8
_0-3_躯体と製品
  6
Continuous
 62
     7
100
AcDbCircle
 10
317.2049004105713
 20
519.1690137213292
 30
0.0
 40
0.4999999999997293
100
AcDbArc
 50
277.1250159999628
 51
359.9999999999726
  0
LINE
  5
1A4
330
6F
100
AcDbEntity
  8
_0-3_躯体と製品
  6
Continuous
 62
     7
100
AcDbLine
 10
317.7049004105712
 20
519.169013721329
 30
0.0
 11
317.7049004105712
 21
522.000969721329
 31
0.0
  0
ARC
  5
1A5
330
6F
100
AcDbEntity
  8
_0-3_躯体と製品
  6
Continuous
 62
     7
100
AcDbCircle
 10
319.7049004105713
 20
522.0009697213287
 30
0.0
 40
2.000000000000174
100
AcDbArc
 50
97.12501599998144
 51
179.9999999999913
  0
LINE
  5
1A6
330
6F
100
AcDbEntity
  8
_0-3_躯体と製品
  6
Continuous
 62
     7
100
AcDbLine
 10
272.2087604105705
 20
518.079517721329
 30
0.0
 11
311.4568284105712
 21
522.9855257213289
 31
0.0
  0
LINE
  5
1A7
330
6F
100
AcDbEntity
  8
_0-3_躯体と製品
  6
Continuous
 62
     7
100
AcDbLine
 10
319.4568284105713
 20
523.98552572133
 30
0.0
 11
358.2087604105705
 21
528.8295177213298
 31
0.0
  0
LINE
  5
1A8
330
6F
100
AcDbEntity
  8
_0-3_躯体と製品
  6
Continuous
 62
     7
100
AcDbLine
 10
468.2087604105705
 20
542.5795177213299
 30
0.0
 11
497.3587604105714
 21
546.2232697213289
 31
0.0
  0
ARC
  5
1A9
330
6F
100
AcDbEntity
  8
_0-3_躯体と製品
  6
Continuous
 62
     7
100
AcDbCircle
 10
260.7049004105713
 20
512.6104057213292
 30
0.0
 40
3.999999999999792
100
AcDbArc
 50
359.9999999999968
 51
97.12501599998692
  0
LINE
  5
1AA
330
6F
100
AcDbEntity
  8
_0-3_躯体と製品
  6
Continuous
 62
     7
100
AcDbLine
 10
264.7049004105711
 20
512.6104057213289
 30
0.0
 11
264.7049004105711
 21
505.96935772133
 31
0.0
  0
LINE
  5
1AB
330
6F
100
AcDbEntity
  8
_0-3_躯体と製品
  6
Continuous
 62
     7
100
AcDbLine
 10
264.7049004105711
 20
505.96935772133
 30
0.0
 11
263.7049004105711
 21
504.969357721329
 31
0.0
  0
LINE
  5
1AC
330
6F
100
AcDbEntity
  8
_0-3_躯体と製品
  6
Continuous
 62
     7
100
AcDbLine
 10
263.7049004105711
 20
504.969357721329
 30
0.0
 11
263.7049004105711
 21
502.96935772133
 31
0.0
  0
ARC
  5
1AD
330
6F
100
AcDbEntity
  8
_0-3_躯体と製品
  6
Continuous
 62
     7
100
AcDbCircle
 10
266.7049004105711
 20
502.96935772133
 30
0.0
 40
3.0
100
AcDbArc
 50
180.0
 51
0.0
  0
LINE
  5
1AE
330
6F
100
AcDbEntity
  8
_0-3_躯体と製品
  6
Continuous
 62
     7
100
AcDbLine
 10
269.7049004105711
 20
502.96935772133
 30
0.0
 11
269.7049004105711
 21
504.969357721329
 31
0.0
  0
LINE
  5
1AF
330
6F
100
AcDbEntity
  8
_0-3_躯体と製品
  6
Continuous
 62
     7
100
AcDbLine
 10
269.7049004105711
 20
504.969357721329
 30
0.0
 11
268.7049004105711
 21
505.96935772133
 31
0.0
  0
LINE
  5
1B0
330
6F
100
AcDbEntity
  8
_0-3_躯体と製品
  6
Continuous
 62
     7
100
AcDbLine
 10
268.7049004105711
 20
505.96935772133
 30
0.0
 11
268.7049004105711
 21
514.110405721329
 31
0.0
  0
ARC
  5
1B1
330
6F
100
AcDbEntity
  8
_0-3_躯体と製品
  6
Continuous
 62
     7
100
AcDbCircle
 10
272.7049004105713
 20
514.1104057213287
 30
0.0
 40
4.000000000000251
100
AcDbArc
 50
97.12501599998674
 51
179.9999999999966
  0
LINE
  5
1B2
330
6F
100
AcDbEntity
  8
_0-3_躯体と製品
  6
Continuous
 62
     7
100
AcDbLine
 10
514.2277964105715
 20
541.489277721329
 30
0.0
 11
514.2277964105715
 21
505.96935772133
 31
0.0
  0
LINE
  5
1B3
330
6F
100
AcDbEntity
  8
_0-3_躯体と製品
  6
Continuous
 62
     7
100
AcDbLine
 10
514.2277964105715
 20
505.96935772133
 30
0.0
 11
514.2277964105715
 21
541.489277721329
 31
0.0
  0
ARC
  5
1B4
330
6F
100
AcDbEntity
  8
_0-3_躯体と製品
  6
Continuous
 62
     7
100
AcDbCircle
 10
221.7049004105713
 20
509.7509697213288
 30
0.0
 40
2.000000000000174
100
AcDbArc
 50
97.12501599998137
 51
179.9999999999912
  0
LINE
  5
1B5
330
6F
100
AcDbEntity
  8
_0-3_躯体と製品
  6
Continuous
 62
     7
100
AcDbLine
 10
219.7049004105711
 20
509.750969721329
 30
0.0
 11
221.4568284105713
 21
511.7355257213289
 31
0.0
  0
LINE
  5
1B6
330
6F
100
AcDbEntity
  8
_0-3_躯体と製品
  6
Continuous
 62
     7
100
AcDbLine
 10
221.4568284105713
 20
511.7355257213289
 30
0.0
 11
260.2087604105705
 21
516.5795177213299
 31
0.0
  0
LINE
  5
1B7
330
6F
100
AcDbEntity
  8
_0-3_躯体と製品
  6
Continuous
 62
     7
100
AcDbLine
 10
219.7049004105711
 20
509.750969721329
 30
0.0
 11
219.7049004105711
 21
506.919013721329
 31
0.0
  0
ARC
  5
1B8
330
6F
100
AcDbEntity
  8
_0-3_躯体と製品
  6
Continuous
 62
     7
100
AcDbCircle
 10
219.2049004105713
 20
506.9190137213293
 30
0.0
 40
0.4999999999997293
100
AcDbArc
 50
277.1250159999628
 51
359.9999999999726
  0
LINE
  5
1B9
330
6F
100
AcDbEntity
  8
_0-3_躯体と製品
  6
Continuous
 62
     7
100
AcDbLine
 10
219.7049004105711
 20
506.919013721329
 30
0.0
 11
219.2669164105714
 21
506.422877721329
 31
0.0
  0
LINE
  5
1BA
330
6F
100
AcDbEntity
  8
_0-3_躯体と製品
  6
Continuous
 62
     7
100
AcDbLine
 10
219.2669164105714
 20
506.422877721329
 30
0.0
 11
216.2669164105714
 21
506.0478777213289
 31
0.0
  0
ARC
  5
1BB
330
6F
100
AcDbEntity
  8
_0-3_躯体と製品
  6
Continuous
 62
     7
100
AcDbCircle
 10
213.7049004105713
 20
508.7509697213291
 30
0.0
 40
1.999999999999731
100
AcDbArc
 50
359.9999999999956
 51
97.12501599998567
  0
LINE
  5
1BC
330
6F
100
AcDbEntity
  8
_0-3_躯体と製品
  6
Continuous
 62
     7
100
AcDbLine
 10
215.7049004105711
 20
508.750969721329
 30
0.0
 11
215.7049004105711
 21
506.5440137213291
 31
0.0
  0
ARC
  5
1BD
330
6F
100
AcDbEntity
  8
_0-3_躯体と製品
  6
Continuous
 62
     7
100
AcDbCircle
 10
216.2049004105709
 20
506.5440137213292
 30
0.0
 40
0.499999999999789
100
AcDbArc
 50
180.0000000000274
 51
277.1250160000175
  0
ARC
  5
1BE
330
6F
100
AcDbEntity
  8
_0-3_躯体と製品
  6
Continuous
 62
     7
100
AcDbCircle
 10
158.704900410571
 20
502.6082217213291
 30
0.0
 40
6.00000000000012
100
AcDbArc
 50
359.9999999999994
 51
101.6336339999929
  0
LINE
  5
1BF
330
6F
100
AcDbEntity
  8
_0-3_躯体と製品
  6
Continuous
 62
     7
100
AcDbLine
 10
164.7049004105711
 20
502.608221721329
 30
0.0
 11
164.7049004105711
 21
499.9693577213291
 31
0.0
  0
LINE
  5
1C0
330
6F
100
AcDbEntity
  8
_0-3_躯体と製品
  6
Continuous
 62
     7
100
AcDbLine
 10
164.7049004105711
 20
499.9693577213291
 30
0.0
 11
168.7049004105711
 21
499.9693577213291
 31
0.0
  0
LINE
  5
1C1
330
6F
100
AcDbEntity
  8
_0-3_躯体と製品
  6
Continuous
 62
     7
100
AcDbLine
 10
168.7049004105711
 20
499.9693577213291
 30
0.0
 11
168.7049004105711
 21
500.727625721329
 31
0.0
  0
ARC
  5
1C2
330
6F
100
AcDbEntity
  8
_0-3_躯体と製品
  6
Continuous
 62
     7
100
AcDbCircle
 10
173.7049004105711
 20
500.727625721329
 30
0.0
 40
4.999999999999996
100
AcDbArc
 50
97.1250159999901
 51
180.0
  0
LINE
  5
1C3
330
6F
100
AcDbEntity
  8
_0-3_躯体と製品
  6
Continuous
 62
     7
100
AcDbLine
 10
213.4568284105712
 20
510.73552572133
 30
0.0
 11
173.0847244105703
 21
505.68901372133
 31
0.0
  0
ARC
  5
1C4
330
6F
100
AcDbEntity
  8
_0-3_躯体と製品
  6
Continuous
 62
     7
100
AcDbCircle
 10
147.4823564105709
 20
514.5791657213298
 30
0.0
 40
4.997920000000203
100
AcDbArc
 50
240.231252999999
 51
330.2789840000112
  0
LINE
  5
1C5
330
6F
100
AcDbEntity
  8
_0-3_躯体と製品
  6
Continuous
 62
     7
100
AcDbLine
 10
154.7996324105711
 20
512.4734177213301
 30
0.0
 11
151.8228004105704
 21
512.1013137213298
 31
0.0
  0
ARC
  5
1C6
330
6F
100
AcDbEntity
  8
_0-3_躯体と製品
  6
Continuous
 62
     7
100
AcDbCircle
 10
134.6968404105714
 20
499.7155617213286
 30
0.0
 40
4.000000000000337
100
AcDbArc
 50
97.99582400000026
 51
176.3621899999966
  0
LINE
  5
1C7
330
6F
100
AcDbEntity
  8
_0-3_躯体と製品
  6
Continuous
 62
     7
100
AcDbLine
 10
133.7126204105711
 20
507.8219777213289
 30
0.0
 11
135.2021444105712
 21
508.00816572133
 31
0.0
  0
ARC
  5
1C8
330
6F
100
AcDbEntity
  8
_0-3_躯体と製品
  6
Continuous
 62
     7
100
AcDbCircle
 10
137.6836124105709
 20
512.3465417213298
 30
0.0
 40
4.997920000000513
100
AcDbArc
 50
240.231252999998
 51
330.2789840000104
  0
LINE
  5
1C9
330
6F
100
AcDbEntity
  8
_0-3_躯体と製品
  6
Continuous
 62
     7
100
AcDbLine
 10
134.1404364105702
 20
503.676673721329
 30
0.0
 11
157.4949804105695
 21
508.48496172133
 31
0.0
  0
LINE
  5
1CA
330
6F
100
AcDbEntity
  8
_0-3_躯体と製品
  6
Continuous
 62
     7
100
AcDbLine
 10
145.0008884105714
 20
510.240793721329
 30
0.0
 11
142.0240564105711
 21
509.8686857213289
 31
0.0
  0
ARC
  5
1CB
330
6F
100
AcDbEntity
  8
_0-3_躯体と製品
  6
Continuous
 62
     7
100
AcDbCircle
 10
134.7049004105708
 20
499.8837537213287
 30
0.0
 40
8.00000000000012
100
AcDbArc
 50
97.12501599998065
 51
179.3868919999926
  0
LINE
  5
1CC
330
6F
100
AcDbEntity
  8
_0-3_躯体と製品
  6
Continuous
 62
     7
100
AcDbLine
 10
126.7053564105704
 20
499.9693577213291
 30
0.0
 11
130.7049004105711
 21
499.9693577213291
 31
0.0
  0
ARC
  5
1CD
330
6F
100
AcDbEntity
  8
_0-3_躯体と製品
  6
Continuous
 62
     7
100
AcDbCircle
 10
157.2811004105705
 20
516.8117937213296
 30
0.0
 40
4.997920000000303
100
AcDbArc
 50
240.2312529999892
 51
330.2789840000015
  0
LINE
  5
1CE
330
6F
100
AcDbEntity
  8
_0-3_躯体と製品
  6
Continuous
 62
     3
100
AcDbLine
 10
1398.731452416712
 20
506.769221729692
 30
0.0
 11
1398.731452416711
 21
525.9692217213329
 31
0.0
  0
LINE
  5
1CF
330
6F
100
AcDbEntity
  8
_0-3_躯体と製品
  6
Continuous
 62
     3
100
AcDbLine
 10
1388.731452404429
 20
506.769221729692
 30
0.0
 11
1388.731452404429
 21
525.9692217213329
 31
0.0
  0
LINE
  5
1D0
330
6F
100
AcDbEntity
  8
_0-3_躯体と製品
  6
Continuous
 62
     3
100
AcDbLine
 10
1400.731452419156
 20
506.769221729692
 30
0.0
 11
1400.731452419156
 21
525.9692217213329
 31
0.0
  0
LINE
  5
1D1
330
6F
100
AcDbEntity
  8
_0-3_躯体と製品
  6
Continuous
 62
     3
100
AcDbLine
 10
1386.731452401926
 20
506.769221729692
 30
0.0
 11
1386.731452401926
 21
525.9692217213329
 31
0.0
  0
LINE
  5
1D2
330
6F
100
AcDbEntity
  8
_0-3_躯体と製品
  6
Continuous
 62
     3
100
AcDbLine
 10
1431.2314524567
 20
501.969221723788
 30
0.0
 11
1431.2314524567
 21
499.9692217213289
 31
0.0
  0
LINE
  5
1D3
330
6F
100
AcDbEntity
  8
_0-3_躯体と製品
  6
Continuous
 62
     3
100
AcDbLine
 10
1356.23145236444
 20
501.969221723788
 30
0.0
 11
1356.23145236444
 21
499.9692217213289
 31
0.0
  0
LINE
  5
1D4
330
6F
100
AcDbEntity
  8
_0-3_躯体と製品
  6
Continuous
 62
     3
100
AcDbLine
 10
1356.23145236444
 20
499.9692217213289
 30
0.0
 11
1431.2314524567
 21
499.9692217213289
 31
0.0
  0
LINE
  5
1D5
330
6F
100
AcDbEntity
  8
_0-3_躯体と製品
  6
Continuous
 62
     3
100
AcDbLine
 10
1381.891164861643
 20
506.769221729692
 30
0.0
 11
1406.588348495216
 21
506.769221729692
 31
0.0
  0
LINE
  5
1D6
330
6F
100
AcDbEntity
  8
_0-3_躯体と製品
  6
Continuous
 62
     3
100
AcDbLine
 10
1365.333021040622
 20
503.969221726255
 30
0.0
 11
1421.238270626195
 21
503.969221726255
 31
0.0
  0
LINE
  5
1D7
330
6F
100
AcDbEntity
  8
_0-3_躯体と製品
  6
Continuous
 62
     3
100
AcDbLine
 10
1356.23145236444
 20
501.969221723788
 30
0.0
 11
1431.2314524567
 21
501.969221723788
 31
0.0
  0
LINE
  5
1D8
330
6F
100
AcDbEntity
  8
_0-3_躯体と製品
  6
Continuous
 62
     3
100
AcDbLine
 10
1381.891164861643
 20
503.969221726255
 30
0.0
 11
1381.891164861643
 21
506.769221729692
 31
0.0
  0
LINE
  5
1D9
330
6F
100
AcDbEntity
  8
_0-3_躯体と製品
  6
Continuous
 62
     3
100
AcDbLine
 10
1369.481452380739
 20
503.0692217251468
 30
0.0
 11
1370.863452769899
 21
501.969221723788
 31
0.0
  0
LINE
  5
1DA
330
6F
100
AcDbEntity
  8
_0-3_躯体と製品
  6
Continuous
 62
     3
100
AcDbLine
 10
1369.481452380739
 20
503.0692217251468
 30
0.0
 11
1360.48145236968
 21
503.0692217251468
 31
0.0
  0
LINE
  5
1DB
330
6F
100
AcDbEntity
  8
_0-3_躯体と製品
  6
Continuous
 62
     3
100
AcDbLine
 10
1360.48145236968
 20
503.0692217251468
 30
0.0
 11
1359.09945236795
 21
501.969221723788
 31
0.0
  0
LINE
  5
1DC
330
6F
100
AcDbEntity
  8
_0-3_躯体と製品
  6
Continuous
 62
     3
100
AcDbLine
 10
1364.71120285804
 20
503.0692217251468
 30
0.0
 11
1365.333021040622
 21
503.969221726255
 31
0.0
  0
LINE
  5
1DD
330
6F
100
AcDbEntity
  8
_0-3_躯体と製品
  6
Continuous
 62
     3
100
AcDbLine
 10
1406.588348495216
 20
503.969221726255
 30
0.0
 11
1406.588348495216
 21
506.769221729692
 31
0.0
  0
LINE
  5
1DE
330
6F
100
AcDbEntity
  8
_0-3_躯体と製品
  6
Continuous
 62
     3
100
AcDbLine
 10
1426.981452451461
 20
503.0692217251468
 30
0.0
 11
1428.363452453132
 21
501.969221723788
 31
0.0
  0
LINE
  5
1DF
330
6F
100
AcDbEntity
  8
_0-3_躯体と製品
  6
Continuous
 62
     3
100
AcDbLine
 10
1417.981452440402
 20
503.0692217251468
 30
0.0
 11
1416.599452051241
 21
501.969221723788
 31
0.0
  0
LINE
  5
1E0
330
6F
100
AcDbEntity
  8
_0-3_躯体と製品
  6
Continuous
 62
     3
100
AcDbLine
 10
1421.238270626195
 20
503.969221726255
 30
0.0
 11
1421.860088808777
 21
503.0692217251468
 31
0.0
  0
LINE
  5
1E1
330
6F
100
AcDbEntity
  8
_0-3_躯体と製品
  6
Continuous
 62
     3
100
AcDbLine
 10
1417.981452440402
 20
503.0692217251468
 30
0.0
 11
1426.981452451461
 21
503.0692217251468
 31
0.0
  0
LINE
  5
1E2
330
6F
100
AcDbEntity
  8
_0-3_躯体と製品
  6
Continuous
 62
     3
100
AcDbLine
 10
1404.73145241057
 20
533.4692217213329
 30
0.0
 11
1404.73145241057
 21
557.4692217213339
 31
0.0
  0
LINE
  5
1E3
330
6F
100
AcDbEntity
  8
_0-3_躯体と製品
  6
Continuous
 62
     3
100
AcDbLine
 10
1382.73145241057
 20
533.4692217213329
 30
0.0
 11
1382.73145241057
 21
557.4692217213339
 31
0.0
  0
LINE
  5
1E4
330
6F
100
AcDbEntity
  8
_0-3_躯体と製品
  6
Continuous
 62
     3
100
AcDbLine
 10
1382.73145241057
 20
533.4692217213329
 30
0.0
 11
1404.73145241057
 21
533.4692217213329
 31
0.0
  0
LINE
  5
1E5
330
6F
100
AcDbEntity
  8
_0-3_躯体と製品
  6
Continuous
 62
     3
100
AcDbLine
 10
1428.73145241057
 20
564.469221721333
 30
0.0
 11
1358.73145241057
 21
564.469221721333
 31
0.0
  0
LINE
  5
1E6
330
6F
100
AcDbEntity
  8
_0-3_躯体と製品
  6
Continuous
 62
     3
100
AcDbLine
 10
1383.731452410629
 20
583.969221721333
 30
0.0
 11
1383.731452410629
 21
564.469221721333
 31
0.0
  0
LINE
  5
1E7
330
6F
100
AcDbEntity
  8
_0-3_躯体と製品
  6
Continuous
 62
     3
100
AcDbLine
 10
1400.731450652015
 20
565.4474060910899
 30
0.0
 11
1400.256519965168
 21
587.9909135628941
 31
0.0
  0
LINE
  5
1E8
330
6F
100
AcDbEntity
  8
_0-3_躯体と製品
  6
Continuous
 62
     3
100
AcDbLine
 10
1386.731452409042
 20
565.4474062039552
 30
0.0
 11
1387.206387536988
 21
587.9910366063808
 31
0.0
  0
LINE
  5
1E9
330
6F
100
AcDbEntity
  8
_0-3_躯体と製品
  6
Continuous
 62
     3
100
AcDbLine
 10
1367.231452410584
 20
557.4692217213339
 30
0.0
 11
1367.231452410584
 21
561.4692217213339
 31
0.0
  0
LINE
  5
1EA
330
6F
100
AcDbEntity
  8
_0-3_躯体と製品
  6
Continuous
 62
     3
100
AcDbLine
 10
1428.73145241057
 20
557.4692217213339
 30
0.0
 11
1358.73145241057
 21
557.4692217213339
 31
0.0
  0
LINE
  5
1EB
330
6F
100
AcDbEntity
  8
_0-3_躯体と製品
  6
Continuous
 62
     3
100
AcDbLine
 10
1358.73145241057
 20
561.4692217213339
 30
0.0
 11
1428.73145241057
 21
561.4692217213339
 31
0.0
  0
LINE
  5
1EC
330
6F
100
AcDbEntity
  8
_0-3_躯体と製品
  6
Continuous
 62
     3
100
AcDbLine
 10
1358.73145241057
 20
557.4692217213339
 30
0.0
 11
1358.73145241057
 21
564.469221721333
 31
0.0
  0
LINE
  5
1ED
330
6F
100
AcDbEntity
  8
_0-3_躯体と製品
  6
Continuous
 62
     3
100
AcDbLine
 10
1420.231452410584
 20
561.4692217213339
 30
0.0
 11
1420.231452410584
 21
557.4692217213339
 31
0.0
  0
LINE
  5
1EE
330
6F
100
AcDbEntity
  8
_0-3_躯体と製品
  6
Continuous
 62
     3
100
AcDbLine
 10
1386.834169972552
 20
564.4692211328979
 30
0.0
 11
1386.858621006462
 21
564.4699708610819
 31
0.0
  0
ARC
  5
1EF
330
6F
100
AcDbEntity
  8
_0-3_躯体と製品
  6
Continuous
 62
     3
100
AcDbCircle
 10
1385.731667459631
 20
565.4692425070559
 30
0.0
 40
1.000021374460674
100
AcDbArc
 50
270.0014126952299
 51
358.7488018035704
  0
ARC
  5
1F0
330
6F
100
AcDbEntity
  8
_0-3_躯体と製品
  6
Continuous
 62
     3
100
AcDbCircle
 10
1401.731235613124
 20
565.469242657065
 30
0.0
 40
1.000021642794381
100
AcDbArc
 50
181.2512132394388
 51
269.9986259446978
  0
LINE
  5
1F1
330
6F
100
AcDbEntity
  8
_0-3_躯体と製品
  6
Continuous
 62
     3
100
AcDbLine
 10
1403.731452410629
 20
583.9680397960718
 30
0.0
 11
1403.731452410629
 21
564.469221721333
 31
0.0
  0
LINE
  5
1F2
330
6F
100
AcDbEntity
  8
_0-3_躯体と製品
  6
Continuous
 62
     3
100
AcDbLine
 10
1428.73145241057
 20
557.4692217213339
 30
0.0
 11
1428.73145241057
 21
564.469221721333
 31
0.0
  0
LINE
  5
1F3
330
6F
100
AcDbEntity
  8
_0-3_躯体と製品
  6
Continuous
 62
     3
100
AcDbLine
 10
1423.231446472574
 20
565.4474052866019
 30
0.0
 11
1423.231446472574
 21
583.9680397960718
 31
0.0
  0
ARC
  5
1F4
330
6F
100
AcDbEntity
  8
_0-3_躯体と製品
  6
Continuous
 62
     3
100
AcDbCircle
 10
1410.231661523164
 20
565.4692425070559
 30
0.0
 40
1.000021374460674
100
AcDbArc
 50
270.0014126952299
 51
358.7488018035704
  0
ARC
  5
1F5
330
6F
100
AcDbEntity
  8
_0-3_躯体と製品
  6
Continuous
 62
     3
100
AcDbCircle
 10
1424.231229675128
 20
565.4692418142031
 30
0.0
 40
1.000021642794381
100
AcDbArc
 50
181.2512132394388
 51
269.9986259446978
  0
LINE
  5
1F6
330
6F
100
AcDbEntity
  8
_0-3_躯体と製品
  6
Continuous
 62
     3
100
AcDbLine
 10
1411.231446472573
 20
565.4474027674329
 30
0.0
 11
1411.231446472573
 21
583.9680397960718
 31
0.0
  0
LINE
  5
1F7
330
6F
100
AcDbEntity
  8
_0-3_躯体と製品
  6
Continuous
 62
     3
100
AcDbLine
 10
1364.231458348566
 20
565.4474052866019
 30
0.0
 11
1364.231458348566
 21
583.9680397960718
 31
0.0
  0
ARC
  5
1F8
330
6F
100
AcDbEntity
  8
_0-3_躯体と製品
  6
Continuous
 62
     3
100
AcDbCircle
 10
1377.231243297977
 20
565.4692425070559
 30
0.0
 40
1.000021374460674
100
AcDbArc
 50
181.2511981964292
 51
269.9985873047701
  0
ARC
  5
1F9
330
6F
100
AcDbEntity
  8
_0-3_躯体と製品
  6
Continuous
 62
     3
100
AcDbCircle
 10
1363.231675146005
 20
565.4692418142031
 30
0.0
 40
1.000021642794381
100
AcDbArc
 50
270.0013740553022
 51
358.7487867605613
  0
LINE
  5
1FA
330
6F
100
AcDbEntity
  8
_0-3_躯体と製品
  6
Continuous
 62
     3
100
AcDbLine
 10
1376.231458348566
 20
565.4474027674329
 30
0.0
 11
1376.231458348566
 21
583.9680397960718
 31
0.0
  0
LINE
  5
1FB
330
6F
100
AcDbEntity
  8
_0-3_躯体と製品
  6
Continuous
 62
     3
100
AcDbLine
 10
1423.231446454995
 20
565.4474060910899
 30
0.0
 11
1411.23144445976
 21
565.4474060910899
 31
0.0
  0
LINE
  5
1FC
330
6F
100
AcDbEntity
  8
_0-3_躯体と製品
  6
Continuous
 62
     3
100
AcDbLine
 10
1400.731452411399
 20
565.4474060910899
 30
0.0
 11
1386.731450396222
 21
565.4474060910899
 31
0.0
  0
LINE
  5
1FD
330
6F
100
AcDbEntity
  8
_0-3_躯体と製品
  6
Continuous
 62
     3
100
AcDbLine
 10
1364.23145836613
 20
565.4474060910899
 30
0.0
 11
1376.231460361373
 21
565.4474060910899
 31
0.0
  0
LINE
  5
1FE
330
6F
100
AcDbEntity
  8
_0-3_躯体と製品
  6
Continuous
 62
     3
100
AcDbLine
 10
1374.231452410585
 20
557.4692217213339
 30
0.0
 11
1374.231452410585
 21
561.4692217213339
 31
0.0
  0
LINE
  5
1FF
330
6F
100
AcDbEntity
  8
_0-3_躯体と製品
  6
Continuous
 62
     3
100
AcDbLine
 10
1413.231452410584
 20
561.4692217213339
 30
0.0
 11
1413.231452410584
 21
557.4692217213339
 31
0.0
  0
ARC
  5
200
330
6F
100
AcDbEntity
  8
_0-3_躯体と製品
  6
Continuous
 62
     3
100
AcDbCircle
 10
1388.206180402858
 20
587.9691902019511
 30
0.0
 40
1.000031519520031
100
AcDbArc
 50
90.00091441158547
 51
178.7482331021901
  0
ARC
  5
201
330
6F
100
AcDbEntity
  8
_0-3_躯体と製品
  6
Continuous
 62
     3
100
AcDbCircle
 10
1399.256724418268
 20
587.969190201943
 30
0.0
 40
1.000031519520031
100
AcDbArc
 50
1.251766897809831
 51
89.9990855884145
  0
LINE
  5
202
330
6F
100
AcDbEntity
  8
_0-3_躯体と製品
  6
Continuous
 62
     4
100
AcDbLine
 10
1384.98145241057
 20
589.469221721333
 30
0.0
 11
1384.98145241057
 21
583.969221721333
 31
0.0
  0
LINE
  5
203
330
6F
100
AcDbEntity
  8
_0-3_躯体と製品
  6
Continuous
 62
     4
100
AcDbLine
 10
1363.835153432209
 20
583.9680397960718
 30
0.0
 11
1386.48145241057
 21
583.9680397960718
 31
0.0
  0
LINE
  5
204
330
6F
100
AcDbEntity
  8
_0-3_躯体と製品
  6
Continuous
 62
     4
100
AcDbLine
 10
1393.48145241057
 20
593.469221721288
 30
0.0
 11
1393.98145241057
 21
593.469221721288
 31
0.0
  0
LINE
  5
205
330
6F
100
AcDbEntity
  8
_0-3_躯体と製品
  6
Continuous
 62
     4
100
AcDbLine
 10
1393.98145241057
 20
593.469221721288
 30
0.0
 11
1393.98145241057
 21
589.469221721333
 31
0.0
  0
LINE
  5
206
330
6F
100
AcDbEntity
  8
_0-3_躯体と製品
  6
Continuous
 62
     4
100
AcDbLine
 10
1393.48145241057
 20
593.469221721288
 30
0.0
 11
1393.48145241057
 21
589.469221721333
 31
0.0
  0
LINE
  5
207
330
6F
100
AcDbEntity
  8
_0-3_躯体と製品
  6
Continuous
 62
     4
100
AcDbLine
 10
1386.48145241057
 20
588.969221721333
 30
0.0
 11
1386.48145241057
 21
583.9680397960718
 31
0.0
  0
LINE
  5
208
330
6F
100
AcDbEntity
  8
_0-3_躯体と製品
  6
Continuous
 62
     4
100
AcDbLine
 10
1386.48145241057
 20
588.969221721333
 30
0.0
 11
1400.98145241057
 21
588.969221721333
 31
0.0
  0
LINE
  5
209
330
6F
100
AcDbEntity
  8
_0-3_躯体と製品
  6
Continuous
 62
     4
100
AcDbLine
 10
1423.62775138893
 20
583.9680397960718
 30
0.0
 11
1400.98145241057
 21
583.9680397960718
 31
0.0
  0
LINE
  5
20A
330
6F
100
AcDbEntity
  8
_0-3_躯体と製品
  6
Continuous
 62
     4
100
AcDbLine
 10
1400.98145241057
 20
588.969221721333
 30
0.0
 11
1400.98145241057
 21
583.9653011837249
 31
0.0
  0
LINE
  5
20B
330
6F
100
AcDbEntity
  8
_0-3_躯体と製品
  6
Continuous
 62
     4
100
AcDbLine
 10
1424.23145241057
 20
589.469221721333
 30
0.0
 11
1363.23145241057
 21
589.469221721333
 31
0.0
  0
LINE
  5
20C
330
6F
100
AcDbEntity
  8
_0-3_躯体と製品
  6
Continuous
 62
     4
100
AcDbLine
 10
1407.23145241057
 20
589.469221721333
 30
0.0
 11
1407.23145241057
 21
593.469221721288
 31
0.0
  0
LINE
  5
20D
330
6F
100
AcDbEntity
  8
_0-3_躯体と製品
  6
Continuous
 62
     4
100
AcDbLine
 10
1402.48145241057
 20
589.469221721333
 30
0.0
 11
1402.48145241057
 21
583.969221721333
 31
0.0
  0
LINE
  5
20E
330
6F
100
AcDbEntity
  8
_0-3_躯体と製品
  6
Continuous
 62
     4
100
AcDbLine
 10
1415.98145241057
 20
593.469221721288
 30
0.0
 11
1407.23145241057
 21
593.469221721288
 31
0.0
  0
LINE
  5
20F
330
6F
100
AcDbEntity
  8
_0-3_躯体と製品
  6
Continuous
 62
     4
100
AcDbLine
 10
1415.98145241057
 20
589.469221721333
 30
0.0
 11
1415.98145241057
 21
593.469221721288
 31
0.0
  0
LINE
  5
210
330
6F
100
AcDbEntity
  8
_0-3_躯体と製品
  6
Continuous
 62
     4
100
AcDbLine
 10
1378.576007844337
 20
589.469221721333
 30
0.0
 11
1378.576007844337
 21
583.969221721333
 31
0.0
  0
LINE
  5
211
330
6F
100
AcDbEntity
  8
_0-3_躯体と製品
  6
Continuous
 62
     4
100
AcDbLine
 10
1408.886896976789
 20
589.469221721333
 30
0.0
 11
1408.886896976789
 21
583.969221721333
 31
0.0
  0
LINE
  5
212
330
6F
100
AcDbEntity
  8
_0-3_躯体と製品
  6
Continuous
 62
     4
100
AcDbLine
 10
1380.231452410571
 20
589.469221721333
 30
0.0
 11
1380.231452410571
 21
593.469221721288
 31
0.0
  0
LINE
  5
213
330
6F
100
AcDbEntity
  8
_0-3_躯体と製品
  6
Continuous
 62
     4
100
AcDbLine
 10
1371.48145241057
 20
593.469221721288
 30
0.0
 11
1380.231452410571
 21
593.469221721288
 31
0.0
  0
LINE
  5
214
330
6F
100
AcDbEntity
  8
_0-3_躯体と製品
  6
Continuous
 62
     4
100
AcDbLine
 10
1371.48145241057
 20
589.469221721333
 30
0.0
 11
1371.48145241057
 21
593.469221721288
 31
0.0
  0
LINE
  5
215
330
6F
100
AcDbEntity
  8
_0-3_躯体と製品
  6
Continuous
 62
     4
100
AcDbLine
 10
1363.23145241057
 20
593.469221721288
 30
0.0
 11
1368.98145241057
 21
593.469221721288
 31
0.0
  0
LINE
  5
216
330
6F
100
AcDbEntity
  8
_0-3_躯体と製品
  6
Continuous
 62
     4
100
AcDbLine
 10
1368.98145241057
 20
589.469221721333
 30
0.0
 11
1368.98145241057
 21
593.469221721288
 31
0.0
  0
LINE
  5
217
330
6F
100
AcDbEntity
  8
_0-3_躯体と製品
  6
Continuous
 62
     4
100
AcDbLine
 10
1363.23145241057
 20
588.969221721333
 30
0.0
 11
1363.23145241057
 21
593.469221721288
 31
0.0
  0
LINE
  5
218
330
6F
100
AcDbEntity
  8
_0-3_躯体と製品
  6
Continuous
 62
     4
100
AcDbLine
 10
1364.23145241057
 20
589.469221721333
 30
0.0
 11
1364.23145241057
 21
583.9680397960718
 31
0.0
  0
LINE
  5
219
330
6F
100
AcDbEntity
  8
_0-3_躯体と製品
  6
Continuous
 62
     4
100
AcDbLine
 10
1363.835153432209
 20
588.969221721333
 30
0.0
 11
1363.23145241057
 21
588.969221721333
 31
0.0
  0
LINE
  5
21A
330
6F
100
AcDbEntity
  8
_0-3_躯体と製品
  6
Continuous
 62
     4
100
AcDbLine
 10
1363.835153432209
 20
588.969221721333
 30
0.0
 11
1363.835153432209
 21
583.9680397960718
 31
0.0
  0
LINE
  5
21B
330
6F
100
AcDbEntity
  8
_0-3_躯体と製品
  6
Continuous
 62
     4
100
AcDbLine
 10
1424.231452410563
 20
593.469221721288
 30
0.0
 11
1418.48145241057
 21
593.469221721288
 31
0.0
  0
LINE
  5
21C
330
6F
100
AcDbEntity
  8
_0-3_躯体と製品
  6
Continuous
 62
     4
100
AcDbLine
 10
1418.48145241057
 20
589.469221721333
 30
0.0
 11
1418.48145241057
 21
593.469221721288
 31
0.0
  0
LINE
  5
21D
330
6F
100
AcDbEntity
  8
_0-3_躯体と製品
  6
Continuous
 62
     4
100
AcDbLine
 10
1424.231452410563
 20
588.969221721333
 30
0.0
 11
1424.231452410563
 21
593.469221721288
 31
0.0
  0
LINE
  5
21E
330
6F
100
AcDbEntity
  8
_0-3_躯体と製品
  6
Continuous
 62
     4
100
AcDbLine
 10
1423.23145241057
 20
589.469221721333
 30
0.0
 11
1423.23145241057
 21
583.9680397960718
 31
0.0
  0
LINE
  5
21F
330
6F
100
AcDbEntity
  8
_0-3_躯体と製品
  6
Continuous
 62
     4
100
AcDbLine
 10
1423.62775138893
 20
588.969221721333
 30
0.0
 11
1424.23145241057
 21
588.969221721333
 31
0.0
  0
LINE
  5
220
330
6F
100
AcDbEntity
  8
_0-3_躯体と製品
  6
Continuous
 62
     4
100
AcDbLine
 10
1423.62775138893
 20
588.969221721333
 30
0.0
 11
1423.62775138893
 21
583.9680397960718
 31
0.0
  0
LINE
  5
221
330
6F
100
AcDbEntity
  8
_0-3_躯体と製品
  6
Continuous
 62
     6
100
AcDbLine
 10
1406.731452410541
 20
529.7660273507311
 30
0.0
 11
1406.731452410541
 21
526.9692217213329
 31
0.0
  0
LINE
  5
222
330
6F
100
AcDbEntity
  8
_0-3_躯体と製品
  6
Continuous
 62
     6
100
AcDbLine
 10
1406.731452410541
 20
526.9692217213329
 30
0.0
 11
1344.73145241054
 21
526.9692217213329
 31
0.0
  0
LINE
  5
223
330
6F
100
AcDbEntity
  8
_0-3_躯体と製品
  6
Continuous
 62
     6
100
AcDbLine
 10
1344.73145241054
 20
526.9692217213329
 30
0.0
 11
1344.73145241054
 21
529.7660273507311
 31
0.0
  0
ARC
  5
224
330
6F
100
AcDbEntity
  8
_0-3_躯体と製品
  6
Continuous
 62
     6
100
AcDbCircle
 10
1345.934646781147
 20
529.7660273507276
 30
0.0
 40
1.203194370606297
100
AcDbArc
 50
89.99999999983756
 51
179.9999999998376
  0
LINE
  5
225
330
6F
100
AcDbEntity
  8
_0-3_躯体と製品
  6
Continuous
 62
     6
100
AcDbLine
 10
1345.93464678115
 20
530.9692217213339
 30
0.0
 11
1405.528258039931
 21
530.9692217213339
 31
0.0
  0
LINE
  5
226
330
6F
100
AcDbEntity
  8
_0-3_躯体と製品
  6
Continuous
 62
     6
100
AcDbLine
 10
1405.528258039931
 20
530.9692217213339
 30
0.0
 11
1406.731452410541
 21
529.7660273507311
 31
0.0
  0
LINE
  5
227
330
6F
100
AcDbEntity
  8
_0-3_躯体と製品
  6
Continuous
 62
     6
100
AcDbLine
 10
1386.231452410541
 20
526.9692217213329
 30
0.0
 11
1386.231452410541
 21
525.9692217213329
 31
0.0
  0
LINE
  5
228
330
6F
100
AcDbEntity
  8
_0-3_躯体と製品
  6
Continuous
 62
     6
100
AcDbLine
 10
1386.231452410541
 20
525.9692217213329
 30
0.0
 11
1401.231452410541
 21
525.9692217213329
 31
0.0
  0
LINE
  5
229
330
6F
100
AcDbEntity
  8
_0-3_躯体と製品
  6
Continuous
 62
     6
100
AcDbLine
 10
1401.231452410541
 20
525.9692217213329
 30
0.0
 11
1401.231452410541
 21
526.9692217213329
 31
0.0
  0
LINE
  5
22A
330
6F
100
AcDbEntity
  8
_0-3_躯体と製品
  6
Continuous
 62
     6
100
AcDbLine
 10
1406.731452410541
 20
532.9485337213371
 30
0.0
 11
1406.731452410577
 21
531.4899097213299
 31
0.0
  0
ARC
  5
22B
330
6F
100
AcDbEntity
  8
_0-3_躯体と製品
  6
Continuous
 62
     6
100
AcDbCircle
 10
1406.210764410581
 20
531.4899097213303
 30
0.0
 40
0.5206879999964257
100
AcDbArc
 50
269.9999999999499
 51
359.99999999995
  0
LINE
  5
22C
330
6F
100
AcDbEntity
  8
_0-3_躯体と製品
  6
Continuous
 62
     6
100
AcDbLine
 10
1406.21076441058
 20
530.9692217213339
 30
0.0
 11
1381.25214041056
 21
530.9692217213339
 31
0.0
  0
ARC
  5
22D
330
6F
100
AcDbEntity
  8
_0-3_躯体と製品
  6
Continuous
 62
     6
100
AcDbCircle
 10
1381.252140410549
 20
531.4899097213412
 30
0.0
 40
0.5206880000073398
100
AcDbArc
 50
180.0000000012509
 51
270.000000001251
  0
LINE
  5
22E
330
6F
100
AcDbEntity
  8
_0-3_躯体と製品
  6
Continuous
 62
     6
100
AcDbLine
 10
1380.731452410541
 20
531.4899097213299
 30
0.0
 11
1380.731452410562
 21
532.9485337213371
 31
0.0
  0
ARC
  5
22F
330
6F
100
AcDbEntity
  8
_0-3_躯体と製品
  6
Continuous
 62
     6
100
AcDbCircle
 10
1381.252140410559
 20
532.9485337213362
 30
0.0
 40
0.5206879999968806
100
AcDbArc
 50
89.9999999998999
 51
179.9999999998999
  0
LINE
  5
230
330
6F
100
AcDbEntity
  8
_0-3_躯体と製品
  6
Continuous
 62
     6
100
AcDbLine
 10
1381.25214041056
 20
533.4692217213329
 30
0.0
 11
1406.21076441058
 21
533.4692217213329
 31
0.0
  0
LINE
  5
231
330
6F
100
AcDbEntity
  8
_0-3_躯体と製品
  6
Continuous
 62
     6
100
AcDbLine
 10
1406.21076441058
 20
533.4692217213329
 30
0.0
 11
1406.731452410541
 21
532.9485337213371
 31
0.0
  0
LINE
  5
232
330
6F
100
AcDbEntity
  8
_0-3_躯体と製品
  6
Continuous
 62
     3
100
AcDbLine
 10
893.7314524105703
 20
593.46922172133
 30
0.0
 11
1533.245643237835
 21
593.4692217213319
 31
0.0
  0
LINE
  5
233
330
6F
100
AcDbEntity
  8
_0-3_躯体と製品
  6
Continuous
 62
     7
100
AcDbLine
 10
85.47847992510241
 20
499.9692217213289
 30
0.0
 11
1533.245643237835
 21
499.9692217213289
 31
0.0
  0
LINE
  5
234
330
6F
100
AcDbEntity
  8
_0-3_躯体と製品
  6
Continuous
 62
     3
100
AcDbLine
 10
948.7314524167112
 20
506.769221729692
 30
0.0
 11
948.7314524167112
 21
524.9692217213329
 31
0.0
  0
LINE
  5
235
330
6F
100
AcDbEntity
  8
_0-3_躯体と製品
  6
Continuous
 62
     3
100
AcDbLine
 10
938.7314524044297
 20
506.769221729692
 30
0.0
 11
938.7314524044297
 21
524.9692217213329
 31
0.0
  0
LINE
  5
236
330
6F
100
AcDbEntity
  8
_0-3_躯体と製品
  6
Continuous
 62
     3
100
AcDbLine
 10
950.7314524191553
 20
506.769221729692
 30
0.0
 11
950.7314524191562
 21
524.9692217213329
 31
0.0
  0
LINE
  5
237
330
6F
100
AcDbEntity
  8
_0-3_躯体と製品
  6
Continuous
 62
     3
100
AcDbLine
 10
936.7314524019276
 20
506.769221729692
 30
0.0
 11
936.7314524019276
 21
524.9692217213329
 31
0.0
  0
LINE
  5
238
330
6F
100
AcDbEntity
  8
_0-3_躯体と製品
  6
Continuous
 62
     3
100
AcDbLine
 10
981.2314524567
 20
501.969221723788
 30
0.0
 11
981.2314524567
 21
499.9692217213289
 31
0.0
  0
LINE
  5
239
330
6F
100
AcDbEntity
  8
_0-3_躯体と製品
  6
Continuous
 62
     3
100
AcDbLine
 10
906.2314523644399
 20
501.969221723788
 30
0.0
 11
906.2314523644399
 21
499.9692217213289
 31
0.0
  0
LINE
  5
23A
330
6F
100
AcDbEntity
  8
_0-3_躯体と製品
  6
Continuous
 62
     3
100
AcDbLine
 10
906.2314523644399
 20
499.9692217213289
 30
0.0
 11
981.2314524567
 21
499.9692217213289
 31
0.0
  0
LINE
  5
23B
330
6F
100
AcDbEntity
  8
_0-3_躯体と製品
  6
Continuous
 62
     3
100
AcDbLine
 10
931.891164861644
 20
506.769221729692
 30
0.0
 11
956.5883484952163
 21
506.769221729692
 31
0.0
  0
LINE
  5
23C
330
6F
100
AcDbEntity
  8
_0-3_躯体と製品
  6
Continuous
 62
     3
100
AcDbLine
 10
915.3330210406222
 20
503.969221726255
 30
0.0
 11
971.2382706261951
 21
503.969221726255
 31
0.0
  0
LINE
  5
23D
330
6F
100
AcDbEntity
  8
_0-3_躯体と製品
  6
Continuous
 62
     3
100
AcDbLine
 10
906.2314523644399
 20
501.969221723788
 30
0.0
 11
981.2314524567
 21
501.969221723788
 31
0.0
  0
LINE
  5
23E
330
6F
100
AcDbEntity
  8
_0-3_躯体と製品
  6
Continuous
 62
     3
100
AcDbLine
 10
931.891164861644
 20
503.969221726255
 30
0.0
 11
931.891164861644
 21
506.769221729692
 31
0.0
  0
LINE
  5
23F
330
6F
100
AcDbEntity
  8
_0-3_躯体と製品
  6
Continuous
 62
     3
100
AcDbLine
 10
919.4814523807378
 20
503.0692217251468
 30
0.0
 11
920.8634527698986
 21
501.969221723788
 31
0.0
  0
LINE
  5
240
330
6F
100
AcDbEntity
  8
_0-3_躯体と製品
  6
Continuous
 62
     3
100
AcDbLine
 10
919.4814523807378
 20
503.0692217251468
 30
0.0
 11
910.4814523696795
 21
503.0692217251468
 31
0.0
  0
LINE
  5
241
330
6F
100
AcDbEntity
  8
_0-3_躯体と製品
  6
Continuous
 62
     3
100
AcDbLine
 10
910.4814523696795
 20
503.0692217251468
 30
0.0
 11
909.0994523679501
 21
501.969221723788
 31
0.0
  0
LINE
  5
242
330
6F
100
AcDbEntity
  8
_0-3_躯体と製品
  6
Continuous
 62
     3
100
AcDbLine
 10
914.7112028580403
 20
503.0692217251468
 30
0.0
 11
915.3330210406222
 21
503.969221726255
 31
0.0
  0
LINE
  5
243
330
6F
100
AcDbEntity
  8
_0-3_躯体と製品
  6
Continuous
 62
     3
100
AcDbLine
 10
956.5883484952163
 20
503.969221726255
 30
0.0
 11
956.5883484952163
 21
506.769221729692
 31
0.0
  0
LINE
  5
244
330
6F
100
AcDbEntity
  8
_0-3_躯体と製品
  6
Continuous
 62
     3
100
AcDbLine
 10
976.9814524514613
 20
503.0692217251468
 30
0.0
 11
978.3634524531326
 21
501.969221723788
 31
0.0
  0
LINE
  5
245
330
6F
100
AcDbEntity
  8
_0-3_躯体と製品
  6
Continuous
 62
     3
100
AcDbLine
 10
967.9814524404019
 20
503.0692217251468
 30
0.0
 11
966.5994520512422
 21
501.969221723788
 31
0.0
  0
LINE
  5
246
330
6F
100
AcDbEntity
  8
_0-3_躯体と製品
  6
Continuous
 62
     3
100
AcDbLine
 10
971.2382706261951
 20
503.969221726255
 30
0.0
 11
971.8600888087776
 21
503.0692217251468
 31
0.0
  0
LINE
  5
247
330
6F
100
AcDbEntity
  8
_0-3_躯体と製品
  6
Continuous
 62
     3
100
AcDbLine
 10
967.9814524404019
 20
503.0692217251468
 30
0.0
 11
976.9814524514613
 21
503.0692217251468
 31
0.0
  0
LINE
  5
248
330
6F
100
AcDbEntity
  8
_0-3_躯体と製品
  6
Continuous
 62
     6
100
AcDbLine
 10
930.7314524105985
 20
528.7660273507311
 30
0.0
 11
930.7314524105985
 21
525.9692217213329
 31
0.0
  0
LINE
  5
249
330
6F
100
AcDbEntity
  8
_0-3_躯体と製品
  6
Continuous
 62
     6
100
AcDbLine
 10
930.7314524105985
 20
525.9692217213329
 30
0.0
 11
992.7314524106005
 21
525.9692217213329
 31
0.0
  0
LINE
  5
24A
330
6F
100
AcDbEntity
  8
_0-3_躯体と製品
  6
Continuous
 62
     6
100
AcDbLine
 10
992.7314524106005
 20
525.9692217213329
 30
0.0
 11
992.7314524106005
 21
528.7660273507311
 31
0.0
  0
ARC
  5
24B
330
6F
100
AcDbEntity
  8
_0-3_躯体と製品
  6
Continuous
 62
     6
100
AcDbCircle
 10
991.5282580399935
 20
528.7660273507262
 30
0.0
 40
1.203194370606752
100
AcDbArc
 50
0.0000000002273828
 51
90.00000000022739
  0
LINE
  5
24C
330
6F
100
AcDbEntity
  8
_0-3_躯体と製品
  6
Continuous
 62
     6
100
AcDbLine
 10
991.5282580399887
 20
529.9692217213329
 30
0.0
 11
931.9346467812092
 21
529.9692217213329
 31
0.0
  0
LINE
  5
24D
330
6F
100
AcDbEntity
  8
_0-3_躯体と製品
  6
Continuous
 62
     6
100
AcDbLine
 10
931.9346467812092
 20
529.9692217213329
 30
0.0
 11
930.7314524105985
 21
528.7660273507311
 31
0.0
  0
LINE
  5
24E
330
6F
100
AcDbEntity
  8
_0-3_躯体と製品
  6
Continuous
 62
     6
100
AcDbLine
 10
951.2314524105997
 20
525.9692217213329
 30
0.0
 11
951.2314524105997
 21
524.9692217213329
 31
0.0
  0
LINE
  5
24F
330
6F
100
AcDbEntity
  8
_0-3_躯体と製品
  6
Continuous
 62
     6
100
AcDbLine
 10
951.2314524105997
 20
524.9692217213329
 30
0.0
 11
936.2314524105997
 21
524.9692217213329
 31
0.0
  0
LINE
  5
250
330
6F
100
AcDbEntity
  8
_0-3_躯体と製品
  6
Continuous
 62
     6
100
AcDbLine
 10
936.2314524105997
 20
524.9692217213329
 30
0.0
 11
936.2314524105997
 21
525.9692217213329
 31
0.0
  0
LINE
  5
251
330
6F
100
AcDbEntity
  8
_0-3_躯体と製品
  6
Continuous
 62
     6
100
AcDbLine
 10
930.7314524105985
 20
531.9485337213359
 30
0.0
 11
930.7314524105631
 21
530.4899097213299
 31
0.0
  0
ARC
  5
252
330
6F
100
AcDbEntity
  8
_0-3_躯体と製品
  6
Continuous
 62
     6
100
AcDbCircle
 10
931.2521404105597
 20
530.4899097213295
 30
0.0
 40
0.5206879999964257
100
AcDbArc
 50
179.9999999999499
 51
269.99999999995
  0
LINE
  5
253
330
6F
100
AcDbEntity
  8
_0-3_躯体と製品
  6
Continuous
 62
     6
100
AcDbLine
 10
931.2521404105593
 20
529.9692217213329
 30
0.0
 11
956.2107644105807
 21
529.9692217213329
 31
0.0
  0
ARC
  5
254
330
6F
100
AcDbEntity
  8
_0-3_躯体と製品
  6
Continuous
 62
     6
100
AcDbCircle
 10
956.2107644105916
 20
530.4899097213408
 30
0.0
 40
0.5206880000077944
100
AcDbArc
 50
269.9999999987991
 51
359.9999999987991
  0
LINE
  5
255
330
6F
100
AcDbEntity
  8
_0-3_躯体と製品
  6
Continuous
 62
     6
100
AcDbLine
 10
956.7314524105997
 20
530.4899097213299
 30
0.0
 11
956.7314524105777
 21
531.9485337213359
 31
0.0
  0
ARC
  5
256
330
6F
100
AcDbEntity
  8
_0-3_躯体と製品
  6
Continuous
 62
     6
100
AcDbCircle
 10
956.2107644105807
 20
531.948533721336
 30
0.0
 40
0.5206879999969943
100
AcDbArc
 50
359.9999999999875
 51
89.99999999998751
  0
LINE
  5
257
330
6F
100
AcDbEntity
  8
_0-3_躯体と製品
  6
Continuous
 62
     6
100
AcDbLine
 10
956.2107644105807
 20
532.4692217213329
 30
0.0
 11
931.2521404105593
 21
532.4692217213329
 31
0.0
  0
LINE
  5
258
330
6F
100
AcDbEntity
  8
_0-3_躯体と製品
  6
Continuous
 62
     6
100
AcDbLine
 10
931.2521404105593
 20
532.4692217213329
 30
0.0
 11
930.7314524105985
 21
531.9485337213359
 31
0.0
  0
LINE
  5
259
330
6F
100
AcDbEntity
  8
_0-3_躯体と製品
  6
Continuous
 62
     3
100
AcDbLine
 10
954.7314524105702
 20
532.4692217213329
 30
0.0
 11
954.7314524105702
 21
556.4692217213329
 31
0.0
  0
LINE
  5
25A
330
6F
100
AcDbEntity
  8
_0-3_躯体と製品
  6
Continuous
 62
     3
100
AcDbLine
 10
932.7314524105704
 20
532.4692217213329
 30
0.0
 11
932.7314524105704
 21
556.4692217213329
 31
0.0
  0
LINE
  5
25B
330
6F
100
AcDbEntity
  8
_0-3_躯体と製品
  6
Continuous
 62
     3
100
AcDbLine
 10
932.7314524105704
 20
532.4692217213329
 30
0.0
 11
954.7314524105702
 21
532.4692217213329
 31
0.0
  0
LINE
  5
25C
330
6F
100
AcDbEntity
  8
_0-3_躯体と製品
  6
Continuous
 62
     4
100
AcDbLine
 10
907.031452410558
 20
563.469221721333
 30
0.0
 11
980.4314524105819
 21
563.469221721333
 31
0.0
  0
LINE
  5
25D
330
6F
100
AcDbEntity
  8
_0-3_躯体と製品
  6
Continuous
 62
     4
100
AcDbLine
 10
980.4314524105819
 20
563.469221721333
 30
0.0
 11
980.4314524105819
 21
564.469221721333
 31
0.0
  0
LINE
  5
25E
330
6F
100
AcDbEntity
  8
_0-3_躯体と製品
  6
Continuous
 62
     4
100
AcDbLine
 10
980.4314524105819
 20
564.469221721333
 30
0.0
 11
907.031452410558
 21
564.469221721333
 31
0.0
  0
LINE
  5
25F
330
6F
100
AcDbEntity
  8
_0-3_躯体と製品
  6
Continuous
 62
     4
100
AcDbLine
 10
907.031452410558
 20
564.469221721333
 30
0.0
 11
907.031452410558
 21
563.469221721333
 31
0.0
  0
LINE
  5
260
330
6F
100
AcDbEntity
  8
_0-3_躯体と製品
  6
Continuous
 62
     3
100
AcDbLine
 10
978.7314524105703
 20
556.4692217213329
 30
0.0
 11
908.7314524105703
 21
556.4692217213329
 31
0.0
  0
LINE
  5
261
330
6F
100
AcDbEntity
  8
_0-3_躯体と製品
  6
Continuous
 62
     3
100
AcDbLine
 10
908.7314524105703
 20
560.4692217213329
 30
0.0
 11
933.2314524105703
 21
560.4692217213329
 31
0.0
  0
LINE
  5
262
330
6F
100
AcDbEntity
  8
_0-3_躯体と製品
  6
Continuous
 62
     3
100
AcDbLine
 10
936.2314524105704
 20
560.4692217213329
 30
0.0
 11
951.2314524105702
 21
560.4692217213329
 31
0.0
  0
LINE
  5
263
330
6F
100
AcDbEntity
  8
_0-3_躯体と製品
  6
Continuous
 62
     3
100
AcDbLine
 10
954.2314524105696
 20
560.4692217213329
 30
0.0
 11
978.7314524105703
 21
560.4692217213329
 31
0.0
  0
LINE
  5
264
330
6F
100
AcDbEntity
  8
_0-3_躯体と製品
  6
Continuous
 62
     3
100
AcDbLine
 10
908.7314524105703
 20
556.4692217213329
 30
0.0
 11
908.7314524105703
 21
563.469221721333
 31
0.0
  0
LINE
  5
265
330
6F
100
AcDbEntity
  8
_0-3_躯体と製品
  6
Continuous
 62
     3
100
AcDbLine
 10
978.7314524105703
 20
556.4692217213329
 30
0.0
 11
978.7314524105703
 21
563.469221721333
 31
0.0
  0
LINE
  5
266
330
6F
100
AcDbEntity
  8
_0-3_躯体と製品
  6
Continuous
 62
     4
100
AcDbLine
 10
920.7564524105356
 20
560.4692217213329
 30
0.0
 11
920.7564524105356
 21
557.6692217213369
 31
0.0
  0
LINE
  5
267
330
6F
100
AcDbEntity
  8
_0-3_躯体と製品
  6
Continuous
 62
     4
100
AcDbLine
 10
920.7564524105356
 20
557.6692217213369
 30
0.0
 11
915.7064524105463
 21
557.6692217213369
 31
0.0
  0
LINE
  5
268
330
6F
100
AcDbEntity
  8
_0-3_躯体と製品
  6
Continuous
 62
     4
100
AcDbLine
 10
915.7064524105463
 20
560.4692217213329
 30
0.0
 11
915.7064524105463
 21
557.6692217213369
 31
0.0
  0
LINE
  5
269
330
6F
100
AcDbEntity
  8
_0-3_躯体と製品
  6
Continuous
 62
     4
100
AcDbLine
 10
966.706452410605
 20
560.4692217213329
 30
0.0
 11
966.706452410605
 21
557.6692217213369
 31
0.0
  0
LINE
  5
26A
330
6F
100
AcDbEntity
  8
_0-3_躯体と製品
  6
Continuous
 62
     4
100
AcDbLine
 10
966.706452410605
 20
557.6692217213369
 30
0.0
 11
971.7564524105934
 21
557.6692217213369
 31
0.0
  0
LINE
  5
26B
330
6F
100
AcDbEntity
  8
_0-3_躯体と製品
  6
Continuous
 62
     4
100
AcDbLine
 10
971.7564524105934
 20
560.4692217213329
 30
0.0
 11
971.7564524105934
 21
557.6692217213369
 31
0.0
  0
LINE
  5
26C
330
6F
100
AcDbEntity
  8
_0-3_躯体と製品
  6
Continuous
 62
     3
100
AcDbLine
 10
951.2314524105702
 20
560.4692217213329
 30
0.0
 11
951.4814524105704
 21
556.4692217213329
 31
0.0
  0
LINE
  5
26D
330
6F
100
AcDbEntity
  8
_0-3_躯体と製品
  6
Continuous
 62
     3
100
AcDbLine
 10
951.4814524105704
 20
556.4692217213329
 30
0.0
 11
953.9814524105704
 21
556.4692217213329
 31
0.0
  0
LINE
  5
26E
330
6F
100
AcDbEntity
  8
_0-3_躯体と製品
  6
Continuous
 62
     3
100
AcDbLine
 10
953.9814524105704
 20
556.4692217213329
 30
0.0
 11
954.2314524105696
 21
560.4692217213329
 31
0.0
  0
LINE
  5
26F
330
6F
100
AcDbEntity
  8
_0-3_躯体と製品
  6
Continuous
 62
     3
100
AcDbLine
 10
936.2314524105704
 20
560.4692217213329
 30
0.0
 11
935.9814524105702
 21
556.4692217213329
 31
0.0
  0
LINE
  5
270
330
6F
100
AcDbEntity
  8
_0-3_躯体と製品
  6
Continuous
 62
     3
100
AcDbLine
 10
935.9814524105702
 20
556.4692217213329
 30
0.0
 11
933.4814524105704
 21
556.4692217213329
 31
0.0
  0
LINE
  5
271
330
6F
100
AcDbEntity
  8
_0-3_躯体と製品
  6
Continuous
 62
     3
100
AcDbLine
 10
933.4814524105704
 20
556.4692217213329
 30
0.0
 11
933.2314524105703
 21
560.4692217213329
 31
0.0
  0
LINE
  5
272
330
6F
100
AcDbEntity
  8
_0-3_躯体と製品
  6
Continuous
 62
     4
100
AcDbLine
 10
1179.937520236831
 20
499.9692217213289
 30
0.0
 11
1149.93752023683
 21
469.9692217213289
 31
0.0
  0
LINE
  5
273
330
6F
100
AcDbEntity
  8
_0-3_躯体と製品
  6
Continuous
 62
     4
100
AcDbLine
 10
1189.93752023683
 20
499.9692217213289
 30
0.0
 11
1159.937520236831
 21
469.9692217213289
 31
0.0
  0
LINE
  5
274
330
6F
100
AcDbEntity
  8
_0-3_躯体と製品
  6
Continuous
 62
     4
100
AcDbLine
 10
1199.937520236831
 20
499.9692217213289
 30
0.0
 11
1169.93752023683
 21
469.9692217213289
 31
0.0
  0
LINE
  5
275
330
6F
100
AcDbEntity
  8
_0-3_躯体と製品
  6
Continuous
 62
     4
100
AcDbLine
 10
1379.6671548324
 20
499.9692217213289
 30
0.0
 11
1349.667154832407
 21
469.9692217213289
 31
0.0
  0
LINE
  5
276
330
6F
100
AcDbEntity
  8
_0-3_躯体と製品
  6
Continuous
 62
     4
100
AcDbLine
 10
1389.6671548324
 20
499.9692217213289
 30
0.0
 11
1359.667154832399
 21
469.9692217213289
 31
0.0
  0
LINE
  5
277
330
6F
100
AcDbEntity
  8
_0-3_躯体と製品
  6
Continuous
 62
     4
100
AcDbLine
 10
1399.6671548324
 20
499.9692217213289
 30
0.0
 11
1369.6671548324
 21
469.9692217213289
 31
0.0
  0
LINE
  5
278
330
6F
100
AcDbEntity
  8
_0-3_躯体と製品
  6
Continuous
 62
     3
100
AcDbLine
 10
893.7314524105703
 20
594.46922172133
 30
0.0
 11
1533.245643237835
 21
594.4692217213319
 31
0.0
  0
LINE
  5
279
330
6F
100
AcDbEntity
  8
_0-3_躯体と製品
  6
Continuous
 62
     3
100
AcDbLine
 10
893.7314524105703
 20
595.4692217213301
 30
0.0
 11
1533.245643237835
 21
595.4692217213318
 31
0.0
  0
LINE
  5
27A
330
6F
100
AcDbEntity
  8
_0-3_躯体と製品
  6
Continuous
 62
     4
100
AcDbLine
 10
980.2078856412606
 20
499.9692217213289
 30
0.0
 11
950.2078856412607
 21
469.9692217213289
 31
0.0
  0
LINE
  5
27B
330
6F
100
AcDbEntity
  8
_0-3_躯体と製品
  6
Continuous
 62
     4
100
AcDbLine
 10
990.2078856412606
 20
499.9692217213289
 30
0.0
 11
960.2078856412607
 21
469.9692217213289
 31
0.0
  0
LINE
  5
27C
330
6F
100
AcDbEntity
  8
_0-3_躯体と製品
  6
Continuous
 62
     4
100
AcDbLine
 10
1000.207885641261
 20
499.9692217213289
 30
0.0
 11
970.2078856412606
 21
469.9692217213289
 31
0.0
  0
ARC
  5
27D
330
6F
100
AcDbEntity
  8
_0-3_躯体と製品
  6
Continuous
 62
     2
100
AcDbCircle
 10
1394.931452410571
 20
592.7692217213389
 30
0.0
 40
0.6999999999999999
100
AcDbArc
 50
90.0
 51
270.0
  0
LINE
  5
27E
330
6F
100
AcDbEntity
  8
_0-3_躯体と製品
  6
Continuous
 62
     2
100
AcDbLine
 10
1394.931452410571
 20
593.4692217213289
 30
0.0
 11
1533.245643237835
 21
593.4692217213289
 31
0.0
  0
LINE
  5
27F
330
6F
100
AcDbEntity
  8
_0-3_躯体と製品
  6
Continuous
 62
     2
100
AcDbLine
 10
1533.245643237835
 20
592.0692217213391
 30
0.0
 11
1424.231452410563
 21
592.0692217213391
 31
0.0
  0
LINE
  5
280
330
6F
100
AcDbEntity
  8
_0-3_躯体と製品
  6
Continuous
 62
     2
100
AcDbLine
 10
1418.48145241057
 20
592.0692217213391
 30
0.0
 11
1415.98145241057
 21
592.0692217213379
 31
0.0
  0
LINE
  5
281
330
6F
100
AcDbEntity
  8
_0-3_躯体と製品
  6
Continuous
 62
     2
100
AcDbLine
 10
1407.231452410572
 20
592.0692217213379
 30
0.0
 11
1394.931452410571
 21
592.0692217213391
 31
0.0
  0
ARC
  5
282
330
6F
100
AcDbEntity
  8
_0-3_躯体と製品
  6
Continuous
 62
     2
100
AcDbCircle
 10
1394.931452410571
 20
592.7692217213389
 30
0.0
 40
0.6999999999999999
100
AcDbArc
 50
90.0
 51
270.0
  0
LINE
  5
283
330
6F
100
AcDbEntity
  8
_0-3_躯体と製品
  6
Continuous
 62
     2
100
AcDbLine
 10
1533.245643237835
 20
566.469221721333
 30
0.0
 11
1466.43145241057
 21
566.469221721333
 31
0.0
  0
ARC
  5
284
330
6F
100
AcDbEntity
  8
_0-3_躯体と製品
  6
Continuous
 62
     2
100
AcDbCircle
 10
1407.231452410573
 20
567.969221721333
 30
0.0
 40
3.5
100
AcDbArc
 50
180.0
 51
270.0
  0
LINE
  5
285
330
6F
100
AcDbEntity
  8
_0-3_躯体と製品
  6
Continuous
 62
     2
100
AcDbLine
 10
1403.731452410573
 20
567.969221721333
 30
0.0
 11
1403.731452410575
 21
583.9680397960718
 31
0.0
  0
LINE
  5
286
330
6F
100
AcDbEntity
  8
_0-3_躯体と製品
  6
Continuous
 62
     2
100
AcDbLine
 10
1403.731452410573
 20
589.469221721333
 30
0.0
 11
1403.731452410573
 21
591.0692217213391
 31
0.0
  0
LINE
  5
287
330
6F
100
AcDbEntity
  8
_0-3_躯体と製品
  6
Continuous
 62
     2
100
AcDbLine
 10
1533.245643237835
 20
564.469221721333
 30
0.0
 11
1407.231452410573
 21
564.469221721333
 31
0.0
  0
LINE
  5
288
330
6F
100
AcDbEntity
  8
_0-3_躯体と製品
  6
Continuous
 62
     2
100
AcDbLine
 10
1466.43145241057
 20
566.46922172134
 30
0.0
 11
1466.43145241057
 21
564.469221721333
 31
0.0
  0
ARC
  5
289
330
6F
100
AcDbEntity
  8
_0-3_躯体と製品
  6
Continuous
 62
     2
100
AcDbCircle
 10
1402.731452410572
 20
591.0692217213379
 30
0.0
 40
1.000000000001136
100
AcDbArc
 50
0.0000000000651458
 51
89.99999999988277
  0
ARC
  5
28A
330
6F
100
AcDbEntity
  8
_0-3_躯体と製品
  6
Continuous
 62
     2
100
AcDbCircle
 10
894.9314524105712
 20
592.7692217213389
 30
0.0
 40
0.6999999999999999
100
AcDbArc
 50
90.0
 51
270.0
  0
LINE
  5
28B
330
6F
100
AcDbEntity
  8
_0-3_躯体と製品
  6
Continuous
 62
     2
100
AcDbLine
 10
894.9314524105712
 20
593.4692217213289
 30
0.0
 11
1392.531452410569
 21
593.4692217213289
 31
0.0
  0
LINE
  5
28C
330
6F
100
AcDbEntity
  8
_0-3_躯体と製品
  6
Continuous
 62
     2
100
AcDbLine
 10
1392.531452410569
 20
592.0692217213391
 30
0.0
 11
1380.231452410571
 21
592.0692217213391
 31
0.0
  0
LINE
  5
28D
330
6F
100
AcDbEntity
  8
_0-3_躯体と製品
  6
Continuous
 62
     2
100
AcDbLine
 10
1371.481452410571
 20
592.0692217213391
 30
0.0
 11
1368.981452410573
 21
592.0692217213391
 31
0.0
  0
LINE
  5
28E
330
6F
100
AcDbEntity
  8
_0-3_躯体と製品
  6
Continuous
 62
     2
100
AcDbLine
 10
1363.23145241057
 20
592.0692217213391
 30
0.0
 11
894.9314524105712
 21
592.0692217213391
 31
0.0
  0
ARC
  5
28F
330
6F
100
AcDbEntity
  8
_0-3_躯体と製品
  6
Continuous
 62
     2
100
AcDbCircle
 10
894.9314524105712
 20
592.7692217213389
 30
0.0
 40
0.6999999999999999
100
AcDbArc
 50
90.0
 51
270.0
  0
LINE
  5
290
330
6F
100
AcDbEntity
  8
_0-3_躯体と製品
  6
Continuous
 62
     2
100
AcDbLine
 10
1321.031452410569
 20
566.469221721333
 30
0.0
 11
966.4314524105703
 21
566.469221721333
 31
0.0
  0
ARC
  5
291
330
6F
100
AcDbEntity
  8
_0-3_躯体と製品
  6
Continuous
 62
     2
100
AcDbCircle
 10
907.2314524105731
 20
567.969221721333
 30
0.0
 40
3.5
100
AcDbArc
 50
180.0
 51
270.0
  0
LINE
  5
292
330
6F
100
AcDbEntity
  8
_0-3_躯体と製品
  6
Continuous
 62
     2
100
AcDbLine
 10
903.7314524105731
 20
567.969221721333
 30
0.0
 11
903.7314524105731
 21
591.0692217213391
 31
0.0
  0
LINE
  5
293
330
6F
100
AcDbEntity
  8
_0-3_躯体と製品
  6
Continuous
 62
     2
100
AcDbLine
 10
1380.231452410574
 20
564.469221721333
 30
0.0
 11
907.2314524105731
 21
564.469221721333
 31
0.0
  0
LINE
  5
294
330
6F
100
AcDbEntity
  8
_0-3_躯体と製品
  6
Continuous
 62
     2
100
AcDbLine
 10
966.4314524105703
 20
566.46922172134
 30
0.0
 11
966.4314524105703
 21
564.469221721333
 31
0.0
  0
LINE
  5
295
330
6F
100
AcDbEntity
  8
_0-3_躯体と製品
  6
Continuous
 62
     2
100
AcDbLine
 10
1321.031452410569
 20
564.469221721333
 30
0.0
 11
1321.031452410569
 21
566.46922172134
 31
0.0
  0
ARC
  5
296
330
6F
100
AcDbEntity
  8
_0-3_躯体と製品
  6
Continuous
 62
     2
100
AcDbCircle
 10
1380.231452410574
 20
567.969221721333
 30
0.0
 40
3.5
100
AcDbArc
 50
270.0
 51
0.0
  0
LINE
  5
297
330
6F
100
AcDbEntity
  8
_0-3_躯体と製品
  6
Continuous
 62
     2
100
AcDbLine
 10
1383.731452410573
 20
591.0692217213391
 30
0.0
 11
1383.731452410573
 21
589.469221721333
 31
0.0
  0
LINE
  5
298
330
6F
100
AcDbEntity
  8
_0-3_躯体と製品
  6
Continuous
 62
     2
100
AcDbLine
 10
1383.731452410576
 20
583.9680397960718
 30
0.0
 11
1383.731452410573
 21
567.969221721333
 31
0.0
  0
ARC
  5
299
330
6F
100
AcDbEntity
  8
_0-3_躯体と製品
  6
Continuous
 62
     2
100
AcDbCircle
 10
902.7314524105721
 20
591.0692217213379
 30
0.0
 40
1.000000000001136
100
AcDbArc
 50
0.0000000000651458
 51
89.99999999988277
  0
ARC
  5
29A
330
6F
100
AcDbEntity
  8
_0-3_躯体と製品
  6
Continuous
 62
     2
100
AcDbCircle
 10
1392.531452410569
 20
592.7692217213389
 30
0.0
 40
0.6999999999999999
100
AcDbArc
 50
270.0
 51
90.0
  0
ARC
  5
29B
330
6F
100
AcDbEntity
  8
_0-3_躯体と製品
  6
Continuous
 62
     2
100
AcDbCircle
 10
1392.531452410569
 20
592.7692217213389
 30
0.0
 40
0.6999999999999999
100
AcDbArc
 50
270.0
 51
90.0
  0
ARC
  5
29C
330
6F
100
AcDbEntity
  8
_0-3_躯体と製品
  6
Continuous
 62
     2
100
AcDbCircle
 10
1384.731452410568
 20
591.0692217213375
 30
0.0
 40
1.000000000001591
100
AcDbArc
 50
90.00000000009119
 51
179.9999999999088
  0
LINE
  5
29D
330
6F
100
AcDbEntity
  8
_0-3_躯体と製品
  6
HASEN
 62
     2
100
AcDbLine
 10
920.7564524105356
 20
560.994104916487
 30
0.0
 11
915.7064524105463
 21
560.994104916487
 31
0.0
  0
LINE
  5
29E
330
6F
100
AcDbEntity
  8
_0-3_躯体と製品
  6
HASEN
 62
     2
100
AcDbLine
 10
920.7564524105356
 20
560.494104916487
 30
0.0
 11
915.7064524105463
 21
560.494104916487
 31
0.0
  0
ARC
  5
29F
330
6F
100
AcDbEntity
  8
_0-3_躯体と製品
  6
HASEN
 62
     2
100
AcDbCircle
 10
920.7002024105696
 20
560.744104916487
 30
0.0
 40
0.2562499999998978
100
AcDbArc
 50
282.6803834935719
 51
77.31961650642809
  0
ARC
  5
2A0
330
6F
100
AcDbEntity
  8
_0-3_躯体と製品
  6
HASEN
 62
     2
100
AcDbCircle
 10
915.7627024105703
 20
560.744104916487
 30
0.0
 40
0.2562500000005634
100
AcDbArc
 50
102.6803834935718
 51
257.3196165064281
  0
LINE
  5
2A1
330
6F
100
AcDbEntity
  8
_0-3_躯体と製品
  6
HASEN
 62
     2
100
AcDbLine
 10
920.7564524105356
 20
560.4692217213329
 30
0.0
 11
920.7564524105281
 21
560.494104916487
 31
0.0
  0
LINE
  5
2A2
330
6F
100
AcDbEntity
  8
_0-3_躯体と製品
  6
HASEN
 62
     2
100
AcDbLine
 10
920.7564524105281
 20
560.994104916487
 30
0.0
 11
920.7564524105281
 21
563.469221721333
 31
0.0
  0
LINE
  5
2A3
330
6F
100
AcDbEntity
  8
_0-3_躯体と製品
  6
HASEN
 62
     2
100
AcDbLine
 10
915.706452410539
 20
560.4692217213329
 30
0.0
 11
915.706452410539
 21
560.494104916487
 31
0.0
  0
LINE
  5
2A4
330
6F
100
AcDbEntity
  8
_0-3_躯体と製品
  6
HASEN
 62
     2
100
AcDbLine
 10
915.706452410539
 20
560.994104916487
 30
0.0
 11
915.706452410539
 21
563.469221721333
 31
0.0
  0
LINE
  5
2A5
330
6F
100
AcDbEntity
  8
_0-3_躯体と製品
  6
HASEN
 62
     2
100
AcDbLine
 10
966.706452410605
 20
560.994104916487
 30
0.0
 11
971.7564524105934
 21
560.994104916487
 31
0.0
  0
LINE
  5
2A6
330
6F
100
AcDbEntity
  8
_0-3_躯体と製品
  6
HASEN
 62
     2
100
AcDbLine
 10
966.706452410605
 20
560.494104916487
 30
0.0
 11
971.7564524105934
 21
560.494104916487
 31
0.0
  0
ARC
  5
2A7
330
6F
100
AcDbEntity
  8
_0-3_躯体と製品
  6
HASEN
 62
     2
100
AcDbCircle
 10
966.7627024105703
 20
560.744104916487
 30
0.0
 40
0.2562499999998978
100
AcDbArc
 50
102.6803834935718
 51
257.3196165064281
  0
ARC
  5
2A8
330
6F
100
AcDbEntity
  8
_0-3_躯体と製品
  6
HASEN
 62
     2
100
AcDbCircle
 10
971.7002024105703
 20
560.744104916487
 30
0.0
 40
0.2562500000005634
100
AcDbArc
 50
282.6803834935719
 51
77.31961650642809
  0
LINE
  5
2A9
330
6F
100
AcDbEntity
  8
_0-3_躯体と製品
  6
HASEN
 62
     2
100
AcDbLine
 10
966.706452410605
 20
560.4692217213329
 30
0.0
 11
966.706452410605
 21
560.494104916487
 31
0.0
  0
LINE
  5
2AA
330
6F
100
AcDbEntity
  8
_0-3_躯体と製品
  6
HASEN
 62
     2
100
AcDbLine
 10
966.706452410605
 20
560.994104916487
 30
0.0
 11
966.706452410605
 21
563.469221721333
 31
0.0
  0
LINE
  5
2AB
330
6F
100
AcDbEntity
  8
_0-3_躯体と製品
  6
HASEN
 62
     2
100
AcDbLine
 10
971.7564524105934
 20
560.4692217213329
 30
0.0
 11
971.7564524105934
 21
560.494104916487
 31
0.0
  0
LINE
  5
2AC
330
6F
100
AcDbEntity
  8
_0-3_躯体と製品
  6
HASEN
 62
     2
100
AcDbLine
 10
971.7564524105934
 20
560.994104916487
 30
0.0
 11
971.7564524105934
 21
563.469221721333
 31
0.0
  0
LINE
  5
2AD
330
6F
100
AcDbEntity
  8
_0-3_躯体と製品
  6
Continuous
 62
     4
100
AcDbLine
 10
758.4782030456921
 20
499.9693577213291
 30
0.0
 11
730.4782510456934
 21
471.9694057213289
 31
0.0
  0
LINE
  5
2AE
330
6F
100
AcDbEntity
  8
_0-3_躯体と製品
  6
Continuous
 62
     4
100
AcDbLine
 10
768.4782030456921
 20
499.9693577213291
 30
0.0
 11
740.4782510456934
 21
471.9694057213289
 31
0.0
  0
LINE
  5
2AF
330
6F
100
AcDbEntity
  8
_0-3_躯体と製品
  6
Continuous
 62
     4
100
AcDbLine
 10
778.4782030456921
 20
499.9693577213291
 30
0.0
 11
750.478251045692
 21
471.9694057213289
 31
0.0
  0
LINE
  5
2B0
330
6F
100
AcDbEntity
  8
_0-3_躯体と製品
  6
Continuous
 62
     4
100
AcDbLine
 10
558.7485684501234
 20
499.9693577213291
 30
0.0
 11
530.7486164501233
 21
471.9694057213289
 31
0.0
  0
LINE
  5
2B1
330
6F
100
AcDbEntity
  8
_0-3_躯体と製品
  6
Continuous
 62
     4
100
AcDbLine
 10
568.7485684501243
 20
499.9693577213291
 30
0.0
 11
540.7486164501233
 21
471.9694057213289
 31
0.0
  0
LINE
  5
2B2
330
6F
100
AcDbEntity
  8
_0-3_躯体と製品
  6
Continuous
 62
     4
100
AcDbLine
 10
578.7485684501243
 20
499.9693577213291
 30
0.0
 11
550.7486164501233
 21
471.9694057213289
 31
0.0
  0
LINE
  5
2B3
330
6F
100
AcDbEntity
  8
_0-3_躯体と製品
  6
Continuous
 62
     4
100
AcDbLine
 10
339.0189338545543
 20
499.9693577213291
 30
0.0
 11
311.0189818545541
 21
471.9694057213289
 31
0.0
  0
LINE
  5
2B4
330
6F
100
AcDbEntity
  8
_0-3_躯体と製品
  6
Continuous
 62
     4
100
AcDbLine
 10
349.0189338545542
 20
499.9693577213291
 30
0.0
 11
321.018981854554
 21
471.9694057213289
 31
0.0
  0
LINE
  5
2B5
330
6F
100
AcDbEntity
  8
_0-3_躯体と製品
  6
Continuous
 62
     4
100
AcDbLine
 10
359.0189338545542
 20
499.9693577213291
 30
0.0
 11
331.018981854554
 21
471.9694057213289
 31
0.0
  0
LINE
  5
2B6
330
6F
100
AcDbEntity
  8
_0-3_躯体と製品
  6
Continuous
 62
     4
100
AcDbLine
 10
139.2892992589841
 20
499.9693577213291
 30
0.0
 11
111.2893472589853
 21
471.9694057213289
 31
0.0
  0
LINE
  5
2B7
330
6F
100
AcDbEntity
  8
_0-3_躯体と製品
  6
Continuous
 62
     4
100
AcDbLine
 10
149.2892992589854
 20
499.9693577213291
 30
0.0
 11
121.2893472589853
 21
471.9694057213289
 31
0.0
  0
LINE
  5
2B8
330
6F
100
AcDbEntity
  8
_0-3_躯体と製品
  6
Continuous
 62
     4
100
AcDbLine
 10
159.2892992589854
 20
499.9693577213291
 30
0.0
 11
131.2893472589844
 21
471.9694057213289
 31
0.0
  0
LINE
  5
2B9
330
6F
100
AcDbEntity
  8
_0-0_0
  6
Continuous
 62
     7
100
AcDbLine
 10
167.3271404105703
 20
509.0004457213289
 30
0.0
 11
166.5209150813434
 21
515.450251975669
 31
0.0
  0
LINE
  5
2BA
330
6F
100
AcDbEntity
  8
_0-0_0
  6
Continuous
 62
     7
100
AcDbLine
 10
166.5209150813434
 20
515.450251975669
 30
0.0
 11
863.1577237342503
 21
602.5298571060589
 31
0.0
  0
LINE
  5
2BB
330
6F
100
AcDbEntity
  8
_0-0_0
  6
Continuous
 62
     7
100
AcDbLine
 10
863.1577237342503
 20
602.5298571060589
 30
0.0
 11
863.9720324105701
 21
596.0154577213289
 31
0.0
  0
LINE
  5
2BC
330
6F
100
AcDbEntity
  8
_0-0_0
  6
Continuous
 62
     7
100
AcDbLine
 10
863.9720324105701
 20
596.0154577213289
 30
0.0
 11
167.3271404105703
 21
509.0004457213289
 31
0.0
  0
LINE
  5
2BD
330
6F
100
AcDbEntity
  8
_0-3_躯体と製品
  6
Continuous
 62
     3
100
AcDbLine
 10
894.2277964105713
 20
599.9692337213289
 30
0.0
 11
1533.245643237835
 21
599.9692337213289
 31
0.0
  0
ARC
  5
2BE
330
6F
100
AcDbEntity
  8
_0-3_躯体と製品
  6
Continuous
 62
     3
100
AcDbCircle
 10
887.9277964105709
 20
504.2692217213285
 30
0.0
 40
4.299999999999613
100
AcDbArc
 50
270.0000000000045
 51
0.0000000000045421
  0
LINE
  5
2BF
330
6F
100
AcDbEntity
  8
_0-3_躯体と製品
  6
Continuous
 62
     3
100
AcDbLine
 10
887.9277964105714
 20
499.9692217213289
 30
0.0
 11
833.5277964105721
 21
499.9692217213289
 31
0.0
  0
ARC
  5
2C0
330
6F
100
AcDbEntity
  8
_0-3_躯体と製品
  6
Continuous
 62
     3
100
AcDbCircle
 10
833.5277964105721
 20
504.2692217213287
 30
0.0
 40
4.29999999999984
100
AcDbArc
 50
179.9999999999984
 51
269.9999999999985
  0
LINE
  5
2C1
330
6F
100
AcDbEntity
  8
_0-3_躯体と製品
  6
Continuous
 62
     3
100
AcDbLine
 10
829.2277964105725
 20
504.2692217213288
 30
0.0
 11
829.2277964105725
 21
524.9692217213289
 31
0.0
  0
LINE
  5
2C2
330
6F
100
AcDbEntity
  8
_0-3_躯体と製品
  6
Continuous
 62
     3
100
AcDbLine
 10
829.2277964105725
 20
524.9692217213289
 30
0.0
 11
831.5277964105719
 21
524.9692217213289
 31
0.0
  0
LINE
  5
2C3
330
6F
100
AcDbEntity
  8
_0-3_躯体と製品
  6
Continuous
 62
     3
100
AcDbLine
 10
831.5277964105719
 20
524.9692217213289
 30
0.0
 11
831.5277964105719
 21
504.2692217213288
 31
0.0
  0
ARC
  5
2C4
330
6F
100
AcDbEntity
  8
_0-3_躯体と製品
  6
Continuous
 62
     3
100
AcDbCircle
 10
833.5277964105721
 20
504.2692217213288
 30
0.0
 40
2.0
100
AcDbArc
 50
180.0
 51
270.0
  0
LINE
  5
2C5
330
6F
100
AcDbEntity
  8
_0-3_躯体と製品
  6
Continuous
 62
     3
100
AcDbLine
 10
833.5277964105721
 20
502.2692217213289
 30
0.0
 11
887.9277964105714
 21
502.2692217213289
 31
0.0
  0
ARC
  5
2C6
330
6F
100
AcDbEntity
  8
_0-3_躯体と製品
  6
Continuous
 62
     3
100
AcDbCircle
 10
887.9277964105714
 20
504.2692217213288
 30
0.0
 40
2.0
100
AcDbArc
 50
270.0
 51
0.0000000000000127
  0
LINE
  5
2C7
330
6F
100
AcDbEntity
  8
_0-3_躯体と製品
  6
Continuous
 62
     3
100
AcDbLine
 10
889.9277964105714
 20
504.2692217213288
 30
0.0
 11
889.9277964105714
 21
546.9692217213289
 31
0.0
  0
LINE
  5
2C8
330
6F
100
AcDbEntity
  8
_0-3_躯体と製品
  6
Continuous
 62
     3
100
AcDbLine
 10
889.9277964105714
 20
546.9692217213289
 30
0.0
 11
892.2277964105713
 21
546.9692217213289
 31
0.0
  0
LINE
  5
2C9
330
6F
100
AcDbEntity
  8
_0-3_躯体と製品
  6
Continuous
 62
     3
100
AcDbLine
 10
892.2277964105713
 20
546.9692217213289
 30
0.0
 11
892.2277964105706
 21
504.2692217213288
 31
0.0
  0
LINE
  5
2CA
330
6F
100
AcDbEntity
  8
_0-5_中心線
  6
CENTER1
 62
     7
100
AcDbLine
 10
860.7277964105724
 20
516.2186435888908
 30
0.0
 11
860.7277964105724
 21
481.9821814564529
 31
0.0
  0
LINE
  5
2CB
330
6F
100
AcDbEntity
  8
_0-5_中心線
  6
CENTER1
 62
     7
100
AcDbLine
 10
858.7277964105725
 20
502.2692217213289
 30
0.0
 11
858.7277964105725
 21
499.9692217213289
 31
0.0
  0
LINE
  5
2CC
330
6F
100
AcDbEntity
  8
_0-5_中心線
  6
CENTER1
 62
     7
100
AcDbLine
 10
862.7277964105726
 20
502.2692217213289
 30
0.0
 11
862.7277964105726
 21
499.9692217213289
 31
0.0
  0
LINE
  5
2CD
330
6F
100
AcDbEntity
  8
_0-3_躯体と製品
  6
Continuous
 62
     7
100
AcDbLine
 10
856.7277964105713
 20
503.069221721329
 30
0.0
 11
864.7277964105713
 21
503.069221721329
 31
0.0
  0
ARC
  5
2CE
330
6F
100
AcDbEntity
  8
_0-3_躯体と製品
  6
Continuous
 62
     7
100
AcDbCircle
 10
860.7277964105714
 20
499.2692217213289
 30
0.0
 40
6.0
100
AcDbArc
 50
90.0
 51
127.4662099999989
  0
LINE
  5
2CF
330
6F
100
AcDbEntity
  8
_0-3_躯体と製品
  6
DASHED1
 62
     7
100
AcDbLine
 10
858.72779641057
 20
502.2692217213289
 30
0.0
 11
858.72779641057
 21
492.2692217213288
 31
0.0
  0
LINE
  5
2D0
330
6F
100
AcDbEntity
  8
_0-3_躯体と製品
  6
Continuous
 62
     7
100
AcDbLine
 10
856.7277964105713
 20
503.069221721329
 30
0.0
 11
857.1896764105714
 21
502.2692217213289
 31
0.0
  0
LINE
  5
2D1
330
6F
100
AcDbEntity
  8
_0-3_躯体と製品
  6
Continuous
 62
     7
100
AcDbLine
 10
857.0780364105713
 20
504.031491721329
 30
0.0
 11
856.7277964105713
 21
503.069221721329
 31
0.0
  0
LINE
  5
2D2
330
6F
100
AcDbEntity
  8
_0-5_中心線
  6
CENTER1
 62
     7
100
AcDbLine
 10
860.7277964105714
 20
508.8125435532499
 30
0.0
 11
860.7277964105714
 21
492.2692217213288
 31
0.0
  0
LINE
  5
2D3
330
6F
100
AcDbEntity
  8
_0-3_躯体と製品
  6
DASHED1
 62
     7
100
AcDbLine
 10
862.7277964105713
 20
502.2692217213289
 30
0.0
 11
862.7277964105713
 21
492.2692217213288
 31
0.0
  0
ARC
  5
2D4
330
6F
100
AcDbEntity
  8
_0-3_躯体と製品
  6
Continuous
 62
     7
100
AcDbCircle
 10
860.7277964105714
 20
499.2692217213289
 30
0.0
 40
6.0
100
AcDbArc
 50
52.53378199996886
 51
90.0
  0
LINE
  5
2D5
330
6F
100
AcDbEntity
  8
_0-3_躯体と製品
  6
Continuous
 62
     7
100
AcDbLine
 10
864.7277964105713
 20
503.069221721329
 30
0.0
 11
864.2659164105713
 21
502.2692217213289
 31
0.0
  0
LINE
  5
2D6
330
6F
100
AcDbEntity
  8
_0-3_躯体と製品
  6
Continuous
 62
     7
100
AcDbLine
 10
864.3775564105714
 20
504.031491721329
 30
0.0
 11
864.7277964105713
 21
503.069221721329
 31
0.0
  0
LINE
  5
2D7
330
6F
100
AcDbEntity
  8
_0-4_文字-記号
  6
Continuous
 62
     7
100
AcDbLine
 10
514.8393194077962
 20
558.990054540864
 30
0.0
 11
552.4736894077964
 21
624.174694540864
 31
0.0
  0
LINE
  5
2D8
330
6F
100
AcDbEntity
  8
_0-4_文字-記号
  6
Continuous
 62
     7
100
AcDbLine
 10
552.4736894077964
 20
624.174694540864
 30
0.0
 11
698.6281983503204
 21
624.174694540864
 31
0.0
  0
TEXT
  5
2D9
330
6F
100
AcDbEntity
  8
_0-4_文字-記号
 62
     7
100
AcDbText
 10
552.4736994077962
 20
628.174684540864
 30
0.0
 40
18.0
  1
タイルカーペット
 41
0.8
100
AcDbText
  0
LINE
  5
2DA
330
6F
100
AcDbEntity
  8
_0-4_文字-記号
  6
Continuous
 62
     7
100
AcDbLine
 10
848.632733005604
 20
501.3360976000519
 30
0.0
 11
819.171203005604
 21
450.3072407703521
 31
0.0
  0
LINE
  5
2DB
330
6F
100
AcDbEntity
  8
_0-4_文字-記号
  6
Continuous
 62
     7
100
AcDbLine
 10
860.7277964105724
 20
493.3353647213289
 30
0.0
 11
817.672256410572
 21
418.7609889483948
 31
0.0
  0
TEXT
  5
2DC
330
6F
100
AcDbEntity
  8
_0-4_文字-記号
 62
     7
100
AcDbText
 10
699.4093455341412
 20
454.307220770353
 30
0.0
 40
18.0
  1
ベース固定金具
 50
0.0000099999977495
 41
0.8
100
AcDbText
  0
LINE
  5
2DD
330
6F
100
AcDbEntity
  8
_0-4_文字-記号
  6
Continuous
 62
     7
100
AcDbLine
 10
819.171203005604
 20
450.3072407703521
 30
0.0
 11
696.8917918309613
 21
450.3072407703521
 31
0.0
  0
LINE
  5
2DE
330
6F
100
AcDbEntity
  8
_0-4_文字-記号
  6
Continuous
 62
     7
100
AcDbLine
 10
817.672256410572
 20
418.7609889483948
 30
0.0
 11
746.2161465795142
 21
418.7609889483948
 31
0.0
  0
TEXT
  5
2DF
330
6F
100
AcDbEntity
  8
_0-4_文字-記号
 62
     7
100
AcDbText
 10
745.9733729391091
 20
422.7609889483948
 30
0.0
 40
18.0
  1
ビ　ス
 50
0.0000099999977495
 41
0.8
100
AcDbText
  0
LINE
  5
2E0
330
6F
100
AcDbEntity
  8
_0-4_文字-記号
  6
Continuous
 62
     7
100
AcDbLine
 10
848.632733005604
 20
501.3360976000519
 30
0.0
 11
846.3647830056054
 21
493.4078976000519
 31
0.0
  0
LINE
  5
2E1
330
6F
100
AcDbEntity
  8
_0-4_文字-記号
  6
Continuous
 62
     7
100
AcDbLine
 10
860.7277964105724
 20
493.3353647213289
 30
0.0
 11
854.9957464105723
 21
487.407164721329
 31
0.0
  0
LINE
  5
2E2
330
6F
100
AcDbEntity
  8
_0-4_文字-記号
  6
Continuous
 62
     7
100
AcDbLine
 10
860.7277964105724
 20
493.3353647213289
 30
0.0
 11
858.4598464105734
 21
485.407164721329
 31
0.0
  0
LINE
  5
2E3
330
6F
100
AcDbEntity
  8
_0-4_文字-記号
  6
Continuous
 62
     7
100
AcDbLine
 10
848.632733005604
 20
501.3360976000519
 30
0.0
 11
842.9006830056032
 21
495.4078976000519
 31
0.0
  0
TEXT
  5
2E4
330
6F
100
AcDbEntity
  8
_0-4_文字-記号
 62
     7
100
AcDbText
 10
922.311027484161
 20
685.7877939649129
 30
0.0
 40
18.0
  1
アルミスロープ
 41
0.8
100
AcDbText
  0
LINE
  5
2E5
330
6F
100
AcDbEntity
  8
_0-4_文字-記号
  6
Continuous
 62
     7
100
AcDbLine
 10
922.3110174841623
 20
681.787773964913
 30
0.0
 11
1045.345173340646
 21
681.787773964913
 31
0.0
  0
LINE
  5
2E6
330
6F
100
AcDbEntity
  8
_0-4_文字-記号
  6
Continuous
 62
     7
100
AcDbLine
 10
876.2277963999894
 20
601.9692817213289
 30
0.0
 11
922.3110174841623
 21
681.787773964913
 31
0.0
  0
LINE
  5
2E7
330
6F
100
AcDbEntity
  8
_0-4_文字-記号
  6
Continuous
 62
     7
100
AcDbLine
 10
876.2277963999894
 20
601.9692817213289
 30
0.0
 11
881.9598463999891
 21
607.8974817213289
 31
0.0
  0
LINE
  5
2E8
330
6F
100
AcDbEntity
  8
_0-4_文字-記号
  6
Continuous
 62
     7
100
AcDbLine
 10
876.2277963999894
 20
601.9692817213289
 30
0.0
 11
878.4957463999889
 21
609.897481721329
 31
0.0
  0
LINE
  5
2E9
330
6F
100
AcDbEntity
  8
_0-4_文字-記号
  6
Continuous
 62
     7
100
AcDbLine
 10
1288.831837625405
 20
573.7585364417649
 30
0.0
 11
1321.452127625405
 21
630.2585364417649
 31
0.0
  0
LINE
  5
2EA
330
6F
100
AcDbEntity
  8
_0-4_文字-記号
  6
Continuous
 62
     7
100
AcDbLine
 10
1288.831837625405
 20
573.7585364417649
 30
0.0
 11
1294.563887625405
 21
579.6867364417651
 31
0.0
  0
LINE
  5
2EB
330
6F
100
AcDbEntity
  8
_0-4_文字-記号
  6
Continuous
 62
     7
100
AcDbLine
 10
1288.831837625405
 20
573.7585364417649
 30
0.0
 11
1291.099787625404
 21
581.686736441765
 31
0.0
  0
LINE
  5
2EC
330
6F
100
AcDbEntity
  8
_0-4_文字-記号
  6
Continuous
 62
     7
100
AcDbLine
 10
1321.452127625405
 20
630.2585364417649
 30
0.0
 11
1553.236444193851
 21
630.2585364417649
 31
0.0
  0
LINE
  5
2ED
330
6F
100
AcDbEntity
  8
_0-4_文字-記号
  6
Continuous
 62
     7
100
AcDbLine
 10
1113.986179163051
 20
639.9692337213289
 30
0.0
 11
1257.359025106464
 21
639.9692337213289
 31
0.0
  0
TEXT
  5
2EE
330
6F
100
AcDbEntity
  8
_0-4_文字-記号
 62
     7
100
AcDbText
 10
1120.368470641175
 20
643.9692137213289
 30
0.0
 40
18.0
  1
タイルカーペット
 41
0.8
100
AcDbText
  0
LINE
  5
2EF
330
6F
100
AcDbEntity
  8
_0-4_文字-記号
  6
Continuous
 62
     7
100
AcDbLine
 10
1090.892169163051
 20
599.9692337213289
 30
0.0
 11
1113.986179163051
 21
639.9692337213289
 31
0.0
  0
LINE
  5
2F0
330
6F
100
AcDbEntity
  8
_0-4_文字-記号
  6
Continuous
 62
     7
100
AcDbLine
 10
1090.892169163051
 20
599.9692337213289
 30
0.0
 11
1096.624219163053
 21
605.897433721329
 31
0.0
  0
LINE
  5
2F1
330
6F
100
AcDbEntity
  8
_0-4_文字-記号
  6
Continuous
 62
     7
100
AcDbLine
 10
1090.892169163051
 20
599.9692337213289
 30
0.0
 11
1093.160119163052
 21
607.8974337213289
 31
0.0
  0
LINE
  5
2F2
330
6F
100
AcDbEntity
  8
_0-4_文字-記号
  6
Continuous
 62
     7
100
AcDbLine
 10
514.8393195223921
 20
558.990054029376
 30
0.0
 11
520.5713695223921
 21
564.9182540293749
 31
0.0
  0
LINE
  5
2F3
330
6F
100
AcDbEntity
  8
_0-4_文字-記号
  6
Continuous
 62
     7
100
AcDbLine
 10
514.8393195223921
 20
558.990054029376
 30
0.0
 11
517.1072695223925
 21
566.918254029375
 31
0.0
  0
INSERT
  5
2F4
330
6F
100
AcDbEntity
  8
_0-0_0
100
AcDbBlockReference
  2
-001-_D3
 10
-3231.555348247189
 20
2197.811868878337
 30
0.0
  0
INSERT
  5
2F5
330
6F
100
AcDbEntity
  8
_0-0_0
100
AcDbBlockReference
  2
-002-_D4
 10
-3231.555348247189
 20
2197.811868878337
 30
0.0
  0
INSERT
  5
2F6
330
6F
100
AcDbEntity
  8
_0-0_0
100
AcDbBlockReference
  2
-003-_D5
 10
-3231.555348247189
 20
2197.811868878337
 30
0.0
  0
LINE
  5
2F7
330
6F
100
AcDbEntity
  8
_0-5_中心線
  6
CENTER1
 62
     7
100
AcDbLine
 10
944.2397562683279
 20
582.0687246543501
 30
0.0
 11
944.2397562683279
 21
473.2185175892279
 31
0.0
  0
LINE
  5
2F8
330
6F
100
AcDbEntity
  8
_0-5_中心線
  6
CENTER1
 62
     7
100
AcDbLine
 10
1393.731452410571
 20
582.0687246543509
 30
0.0
 11
1393.731452410569
 21
473.2185175892279
 31
0.0
  0
LINE
  5
2F9
330
6F
100
AcDbEntity
  8
_0-0_0
  6
Continuous
 62
     4
100
AcDbLine
 10
1564.382594704534
 20
599.966785862346
 30
0.0
 11
1564.382594704534
 21
593.466785862347
 31
0.0
  0
TEXT
  5
2FA
330
6F
100
AcDbEntity
  8
_0-4_文字-記号
 62
     7
100
AcDbText
 10
69.45721495373027
 20
751.2390110516037
 30
0.0
 40
18.0
  1
【アルミスロープ部納まり図（サンアクセスフロア ５００Ｔ：モルタル充填タイプ）】
100
AcDbText
  0
TEXT
  5
2FB
330
6F
100
AcDbEntity
  8
_0-4_文字-記号
 62
     7
100
AcDbText
 10
1339.694351051357
 20
634.258516441765
 30
0.0
 40
18.0
  1
サンアクセスフロア500T
 41
0.8
100
AcDbText
  0
ENDSEC
  0
SECTION
  2
OBJECTS
  0
DICTIONARY
  5
C
330
0
100
AcDbDictionary
281
     1
  3
ACAD_CIP_PREVIOUS_PRODUCT_INFO
350
2FD
  3
ACAD_COLOR
350
62
  3
ACAD_DETAILVIEWSTYLE
350
69
  3
ACAD_GROUP
350
D
  3
ACAD_LAYOUT
350
61
  3
ACAD_MATERIAL
350
10
  3
ACAD_MLEADERSTYLE
350
65
  3
ACAD_MLINESTYLE
350
5E
  3
ACAD_PLOTSETTINGS
350
60
  3
ACAD_PLOTSTYLENAME
350
E
  3
ACAD_SCALELIST
350
42
  3
ACAD_SECTIONVIEWSTYLE
350
67
  3
ACAD_TABLESTYLE
350
63
  3
ACAD_VISUALSTYLE
350
29
  3
ACDB_RECOMPOSE_DATA
350
3BD
  3
AcDbVariableDictionary
350
345
  3
AcDsDecomposeData
350
3C4
  3
DWGPROPS
350
3BE
  0
DICTIONARY
  5
3AD
330
2
100
AcDbDictionary
280
     1
281
     1
  3
ACAD_LAYERSTATES
360
3AE
  0
DICTIONARY
  5
2FE
330
54
100
AcDbDictionary
280
     1
281
     1
  3
ADSK_XREC_LAYER_RECONCILED
360
2FF
  0
DICTIONARY
  5
300
330
97
100
AcDbDictionary
280
     1
281
     1
  3
ADSK_XREC_LAYER_RECONCILED
360
301
  0
DICTIONARY
  5
302
330
98
100
AcDbDictionary
280
     1
281
     1
  3
ADSK_XREC_LAYER_RECONCILED
360
303
  0
DICTIONARY
  5
304
330
99
100
AcDbDictionary
280
     1
281
     1
  3
ADSK_XREC_LAYER_RECONCILED
360
305
  0
DICTIONARY
  5
306
330
9A
100
AcDbDictionary
280
     1
281
     1
  3
ADSK_XREC_LAYER_RECONCILED
360
307
  0
DICTIONARY
  5
308
330
9B
100
AcDbDictionary
280
     1
281
     1
  3
ADSK_XREC_LAYER_RECONCILED
360
309
  0
DICTIONARY
  5
30A
330
AE
100
AcDbDictionary
280
     1
281
     1
  3
ADSK_XREC_LAYER_RECONCILED
360
30B
  0
DICTIONARY
  5
395
330
BF
100
AcDbDictionary
280
     1
281
     1
  0
XRECORD
  5
2FD
102
{ACAD_REACTORS
330
C
102
}
330
C
100
AcDbXrecord
280
     1
300
ACD
300
2017
300
ACD_F_S
  0
DICTIONARY
  5
62
102
{ACAD_REACTORS
330
C
102
}
330
C
100
AcDbDictionary
281
     1
  0
DICTIONARY
  5
69
102
{ACAD_REACTORS
330
C
102
}
330
C
100
AcDbDictionary
281
     1
  3
Imperial24
350
6A
  0
DICTIONARY
  5
D
102
{ACAD_REACTORS
330
C
102
}
330
C
100
AcDbDictionary
281
     1
  0
DICTIONARY
  5
61
102
{ACAD_REACTORS
330
C
102
}
330
C
100
AcDbDictionary
281
     1
  3
Model
350
72
  3
レイアウト1
350
6E
  0
DICTIONARY
  5
10
102
{ACAD_REACTORS
330
C
102
}
330
C
100
AcDbDictionary
281
     1
  3
ByBlock
350
19
  3
ByLayer
350
11
  3
Global
350
21
  0
DICTIONARY
  5
65
102
{ACAD_REACTORS
330
C
102
}
330
C
100
AcDbDictionary
281
     1
  3
Standard
350
66
  0
DICTIONARY
  5
5E
102
{ACAD_REACTORS
330
C
102
}
330
C
100
AcDbDictionary
281
     1
  3
Standard
350
5F
  0
DICTIONARY
  5
60
102
{ACAD_REACTORS
330
C
102
}
330
C
100
AcDbDictionary
281
     1
  0
ACDBDICTIONARYWDFLT
  5
E
102
{ACAD_REACTORS
330
C
102
}
330
C
100
AcDbDictionary
281
     1
  3
Normal
350
F
100
AcDbDictionaryWithDefault
340
F
  0
DICTIONARY
  5
42
102
{ACAD_REACTORS
330
C
102
}
330
C
100
AcDbDictionary
281
     1
  3
A0
350
43
  3
A1
350
44
  3
A2
350
45
  3
A3
350
46
  3
A4
350
47
  3
A5
350
48
  3
A6
350
49
  3
A7
350
4A
  3
A8
350
4B
  3
A9
350
4C
  3
B0
350
4D
  3
B1
350
4E
  3
B2
350
4F
  3
B3
350
50
  3
B4
350
51
  3
B5
350
52
  3
B6
350
53
  0
DICTIONARY
  5
67
102
{ACAD_REACTORS
330
C
102
}
330
C
100
AcDbDictionary
281
     1
  3
Imperial24
350
68
  0
DICTIONARY
  5
63
102
{ACAD_REACTORS
330
C
102
}
330
C
100
AcDbDictionary
281
     1
  3
Standard
350
64
  0
DICTIONARY
  5
29
102
{ACAD_REACTORS
330
C
102
}
330
C
100
AcDbDictionary
281
     1
  3
2dWireframe
350
2F
  3
Basic
350
2E
  3
Brighten
350
35
  3
ColorChange
350
39
  3
Conceptual
350
32
  3
Dim
350
34
  3
EdgeColorOff
350
41
  3
Facepattern
350
38
  3
Flat
350
2A
  3
FlatWithEdges
350
2B
  3
Gouraud
350
2C
  3
GouraudWithEdges
350
2D
  3
Hidden
350
31
  3
JitterOff
350
3F
  3
Linepattern
350
37
  3
OverhangOff
350
40
  3
Realistic
350
33
  3
Shaded
350
3E
  3
Shaded with edges
350
3D
  3
Shades of Gray
350
3A
  3
Sketchy
350
3B
  3
Thicken
350
36
  3
Wireframe
350
30
  3
X-Ray
350
3C
  0
XRECORD
  5
3BD
102
{ACAD_REACTORS
330
C
102
}
330
C
100
AcDbXrecord
280
     1
 90
        1
330
64
  0
DICTIONARY
  5
345
102
{ACAD_REACTORS
330
C
102
}
330
C
100
AcDbDictionary
281
     1
  3
CANNOSCALE
350
34B
  3
CMLEADERSTYLE
350
347
  3
CTABLESTYLE
350
346
  3
CVIEWDETAILSTYLE
350
348
  3
CVIEWSECTIONSTYLE
350
349
  3
DIMASSOC
350
3BA
  3
INDEXCTL
350
3B9
  3
LAYEREVAL
350
34D
  3
LAYERNOTIFY
350
34E
  3
LIGHTINGUNITS
350
34C
  3
MSLTSCALE
350
34A
  3
SORTENTS
350
3B8
  3
XCLIPFRAME
350
3BB
  0
DICTIONARY
  5
3C4
102
{ACAD_REACTORS
330
C
102
}
330
C
100
AcDbDictionary
281
     1
  3
AcDsRecords
350
3C6
  3
AcDsSchemas
350
3C5
1001
ACAD
1070
     2
  0
XRECORD
  5
3BE
102
{ACAD_REACTORS
330
C
102
}
330
C
100
AcDbXrecord
280
     1
  1
DWGPROPS COOKIE
  2

  3

  4

  6

  7

  8
HON1000CV
  9

300
=
301
=
302
=
303
=
304
=
305
=
306
=
307
=
308
=
309
=
 40
0.0014583333333333
 41
2457851.68488426
 42
2457921.467291667
  1

 90
        0
  0
DICTIONARY
  5
3AE
102
{ACAD_REACTORS
330
3AD
102
}
330
3AD
100
AcDbDictionary
281
     1
  0
XRECORD
  5
2FF
102
{ACAD_REACTORS
330
2FE
102
}
330
2FE
100
AcDbXrecord
280
     1
290
     1
  0
XRECORD
  5
301
102
{ACAD_REACTORS
330
300
102
}
330
300
100
AcDbXrecord
280
     1
290
     1
  0
XRECORD
  5
303
102
{ACAD_REACTORS
330
302
102
}
330
302
100
AcDbXrecord
280
     1
290
     1
  0
XRECORD
  5
305
102
{ACAD_REACTORS
330
304
102
}
330
304
100
AcDbXrecord
280
     1
290
     1
  0
XRECORD
  5
307
102
{ACAD_REACTORS
330
306
102
}
330
306
100
AcDbXrecord
280
     1
290
     1
  0
XRECORD
  5
309
102
{ACAD_REACTORS
330
308
102
}
330
308
100
AcDbXrecord
280
     1
290
     1
  0
XRECORD
  5
30B
102
{ACAD_REACTORS
330
30A
102
}
330
30A
100
AcDbXrecord
280
     1
290
     1
  0
ACDBDETAILVIEWSTYLE
  5
6A
102
{ACAD_XDICTIONARY
360
3FD
102
}
102
{ACAD_REACTORS
330
69
102
}
330
69
100
AcDbModelDocViewStyle
 70
     0
  3
Imperial24
290
     0
100
AcDbDetailViewStyle
 70
     0
 71
     0
 90
        3
 71
     1
340
55
 40
0.24
340
0
 40
0.24
300

 40
0.36
280
     3
 71
     2
340
5C
 90
       25
 71
     3
340
55
 40
0.24
 90
        1
 40
0.75
 90
        1
300
%<\AcVar ViewType \f "%tc1">% %<\AcVar ViewDetailId>%\PSCALE %<\AcVar ViewScale \f "%sn">%
 71
     4
340
5C
 90
       25
340
5C
 90
       25
280
     0
  0
LAYOUT
  5
72
102
{ACAD_XDICTIONARY
360
401
102
}
102
{ACAD_REACTORS
330
61
102
}
330
61
100
AcDbPlotSettings
  1

  2
RICOH imagio MP C4002 RPCS
  4

  6

 40
0.0
 41
0.0
 42
0.0
 43
0.0
 44
0.0
 45
0.0
 46
0.0
 47
0.0
 48
0.0
 49
0.0
140
0.0
141
0.0
142
1.0
143
1.0
 70
  1712
 72
     0
 73
     0
 74
     0
  7

 75
     0
147
1.0
148
0.0
149
0.0
100
AcDbLayout
  1
Model
 70
     1
 71
     0
 10
0.0
 20
0.0
 11
12.0
 21
9.0
 12
0.0
 22
0.0
 32
0.0
 14
0.0
 24
0.0
 34
0.0
 15
0.0
 25
0.0
 35
0.0
146
0.0
 13
0.0
 23
0.0
 33
0.0
 16
1.0
 26
0.0
 36
0.0
 17
0.0
 27
1.0
 37
0.0
 76
     0
330
6F
331
9E
  0
LAYOUT
  5
6E
102
{ACAD_XDICTIONARY
360
3FF
102
}
102
{ACAD_REACTORS
330
61
102
}
330
61
100
AcDbPlotSettings
  1

  2
RICOH imagio MP C4002 RPCS
  4

  6

 40
0.0
 41
0.0
 42
0.0
 43
0.0
 44
0.0
 45
0.0
 46
0.0
 47
0.0
 48
0.0
 49
0.0
140
0.0
141
0.0
142
1.0
143
1.0
 70
   688
 72
     0
 73
     0
 74
     5
  7

 75
    16
147
1.0
148
0.0
149
0.0
100
AcDbLayout
  1
レイアウト1
 70
     1
 71
     1
 10
0.0
 20
0.0
 11
12.0
 21
9.0
 12
0.0
 22
0.0
 32
0.0
 14
1.000000000000000E+20
 24
1.000000000000000E+20
 34
1.000000000000000E+20
 15
-1.000000000000000E+20
 25
-1.000000000000000E+20
 35
-1.000000000000000E+20
146
0.0
 13
0.0
 23
0.0
 33
0.0
 16
1.0
 26
0.0
 36
0.0
 17
0.0
 27
1.0
 37
0.0
 76
     0
330
6B
  0
MATERIAL
  5
19
102
{ACAD_XDICTIONARY
360
1A
102
}
102
{ACAD_REACTORS
330
10
102
}
330
10
100
AcDbMaterial
  1
ByBlock
 72
     0
 43
0.0208333333333333
 43
0.0
 43
0.0
 43
0.0
 43
0.0
 43
0.0208333333333333
 43
0.0
 43
0.0
 43
0.0
 43
0.0
 43
1.0
 43
0.0
 43
0.0
 43
0.0
 43
0.0
 43
1.0
 77
     0
 47
0.0208333333333333
 47
0.0
 47
0.0
 47
0.0
 47
0.0
 47
0.0208333333333333
 47
0.0
 47
0.0
 47
0.0
 47
0.0
 47
1.0
 47
0.0
 47
0.0
 47
0.0
 47
0.0
 47
1.0
171
     0
 49
0.0208333333333333
 49
0.0
 49
0.0
 49
0.0
 49
0.0
 49
0.0208333333333333
 49
0.0
 49
0.0
 49
0.0
 49
0.0
 49
1.0
 49
0.0
 49
0.0
 49
0.0
 49
0.0
 49
1.0
175
     0
142
0.0208333333333333
142
0.0
142
0.0
142
0.0
142
0.0
142
0.0208333333333333
142
0.0
142
0.0
142
0.0
142
0.0
142
1.0
142
0.0
142
0.0
142
0.0
142
0.0
142
1.0
179
     0
144
0.0208333333333333
144
0.0
144
0.0
144
0.0
144
0.0
144
0.0208333333333333
144
0.0
144
0.0
144
0.0
144
0.0
144
1.0
144
0.0
144
0.0
144
0.0
144
0.0
144
1.0
147
0.0208333333333333
147
0.0
147
0.0
147
0.0
147
0.0
147
0.0208333333333333
147
0.0
147
0.0
147
0.0
147
0.0
147
1.0
147
0.0
147
0.0
147
0.0
147
0.0
147
1.0
  0
MATERIAL
  5
11
102
{ACAD_XDICTIONARY
360
12
102
}
102
{ACAD_REACTORS
330
10
102
}
330
10
100
AcDbMaterial
  1
ByLayer
 72
     0
 43
0.0208333333333333
 43
0.0
 43
0.0
 43
0.0
 43
0.0
 43
0.0208333333333333
 43
0.0
 43
0.0
 43
0.0
 43
0.0
 43
1.0
 43
0.0
 43
0.0
 43
0.0
 43
0.0
 43
1.0
 77
     0
 47
0.0208333333333333
 47
0.0
 47
0.0
 47
0.0
 47
0.0
 47
0.0208333333333333
 47
0.0
 47
0.0
 47
0.0
 47
0.0
 47
1.0
 47
0.0
 47
0.0
 47
0.0
 47
0.0
 47
1.0
171
     0
 49
0.0208333333333333
 49
0.0
 49
0.0
 49
0.0
 49
0.0
 49
0.0208333333333333
 49
0.0
 49
0.0
 49
0.0
 49
0.0
 49
1.0
 49
0.0
 49
0.0
 49
0.0
 49
0.0
 49
1.0
175
     0
142
0.0208333333333333
142
0.0
142
0.0
142
0.0
142
0.0
142
0.0208333333333333
142
0.0
142
0.0
142
0.0
142
0.0
142
1.0
142
0.0
142
0.0
142
0.0
142
0.0
142
1.0
179
     0
144
0.0208333333333333
144
0.0
144
0.0
144
0.0
144
0.0
144
0.0208333333333333
144
0.0
144
0.0
144
0.0
144
0.0
144
1.0
144
0.0
144
0.0
144
0.0
144
0.0
144
1.0
147
0.0208333333333333
147
0.0
147
0.0
147
0.0
147
0.0
147
0.0208333333333333
147
0.0
147
0.0
147
0.0
147
0.0
147
1.0
147
0.0
147
0.0
147
0.0
147
0.0
147
1.0
  0
MATERIAL
  5
21
102
{ACAD_XDICTIONARY
360
22
102
}
102
{ACAD_REACTORS
330
10
102
}
330
10
100
AcDbMaterial
  1
Global
 72
     0
 43
0.0208333333333333
 43
0.0
 43
0.0
 43
0.0
 43
0.0
 43
0.0208333333333333
 43
0.0
 43
0.0
 43
0.0
 43
0.0
 43
1.0
 43
0.0
 43
0.0
 43
0.0
 43
0.0
 43
1.0
 77
     0
 47
0.0208333333333333
 47
0.0
 47
0.0
 47
0.0
 47
0.0
 47
0.0208333333333333
 47
0.0
 47
0.0
 47
0.0
 47
0.0
 47
1.0
 47
0.0
 47
0.0
 47
0.0
 47
0.0
 47
1.0
171
     0
 49
0.0208333333333333
 49
0.0
 49
0.0
 49
0.0
 49
0.0
 49
0.0208333333333333
 49
0.0
 49
0.0
 49
0.0
 49
0.0
 49
1.0
 49
0.0
 49
0.0
 49
0.0
 49
0.0
 49
1.0
175
     0
142
0.0208333333333333
142
0.0
142
0.0
142
0.0
142
0.0
142
0.0208333333333333
142
0.0
142
0.0
142
0.0
142
0.0
142
1.0
142
0.0
142
0.0
142
0.0
142
0.0
142
1.0
179
     0
144
0.0208333333333333
144
0.0
144
0.0
144
0.0
144
0.0
144
0.0208333333333333
144
0.0
144
0.0
144
0.0
144
0.0
144
1.0
144
0.0
144
0.0
144
0.0
144
0.0
144
1.0
147
0.0208333333333333
147
0.0
147
0.0
147
0.0
147
0.0
147
0.0208333333333333
147
0.0
147
0.0
147
0.0
147
0.0
147
1.0
147
0.0
147
0.0
147
0.0
147
0.0
147
1.0
  0
MLEADERSTYLE
  5
66
102
{ACAD_REACTORS
330
65
102
}
330
65
100
AcDbMLeaderStyle
170
     2
171
     1
172
     0
 90
        2
 40
0.0
 41
0.0
173
     1
 91
-1056964608
340
5A
 92
       -2
290
     1
 42
0.09
291
     1
 43
0.36
  3
Standard
 44
0.18
300

342
55
174
     1
178
     6
175
     1
176
     0
 93
-1056964608
 45
0.18
292
     0
297
     0
 46
0.18
 94
-1056964608
 47
1.0
 49
1.0
140
1.0
293
     1
141
0.0
294
     1
177
     0
142
1.0
295
     0
296
     0
143
0.125
1001
ACAD_MLEADERVER
1070
     2
  0
MLINESTYLE
  5
5F
102
{ACAD_REACTORS
330
5E
102
}
330
5E
100
AcDbMlineStyle
  2
STANDARD
 70
     0
  3

 62
   256
 51
90.0
 52
90.0
 71
     2
 49
0.5
 62
   256
  6
BYLAYER
 49
-0.5
 62
   256
  6
BYLAYER
  0
ACDBPLACEHOLDER
  5
F
102
{ACAD_REACTORS
330
E
102
}
330
E
  0
SCALE
  5
43
102
{ACAD_REACTORS
330
42
102
}
330
42
100
AcDbScale
 70
     0
300
1:1
140
1.0
141
1.0
290
     1
  0
SCALE
  5
44
102
{ACAD_REACTORS
330
42
102
}
330
42
100
AcDbScale
 70
     0
300
1/128" = 1'-0"
140
0.0078125
141
12.0
290
     0
  0
SCALE
  5
45
102
{ACAD_REACTORS
330
42
102
}
330
42
100
AcDbScale
 70
     0
300
1/64" = 1'-0"
140
0.015625
141
12.0
290
     0
  0
SCALE
  5
46
102
{ACAD_REACTORS
330
42
102
}
330
42
100
AcDbScale
 70
     0
300
1/32" = 1'-0"
140
0.03125
141
12.0
290
     0
  0
SCALE
  5
47
102
{ACAD_REACTORS
330
42
102
}
330
42
100
AcDbScale
 70
     0
300
1/16" = 1'-0"
140
0.0625
141
12.0
290
     0
  0
SCALE
  5
48
102
{ACAD_REACTORS
330
42
102
}
330
42
100
AcDbScale
 70
     0
300
3/32" = 1'-0"
140
0.09375
141
12.0
290
     0
  0
SCALE
  5
49
102
{ACAD_REACTORS
330
42
102
}
330
42
100
AcDbScale
 70
     0
300
1/8" = 1'-0"
140
0.125
141
12.0
290
     0
  0
SCALE
  5
4A
102
{ACAD_REACTORS
330
42
102
}
330
42
100
AcDbScale
 70
     0
300
3/16" = 1'-0"
140
0.1875
141
12.0
290
     0
  0
SCALE
  5
4B
102
{ACAD_REACTORS
330
42
102
}
330
42
100
AcDbScale
 70
     0
300
1/4" = 1'-0"
140
0.25
141
12.0
290
     0
  0
SCALE
  5
4C
102
{ACAD_REACTORS
330
42
102
}
330
42
100
AcDbScale
 70
     0
300
3/8" = 1'-0"
140
0.375
141
12.0
290
     0
  0
SCALE
  5
4D
102
{ACAD_REACTORS
330
42
102
}
330
42
100
AcDbScale
 70
     0
300
1/2" = 1'-0"
140
0.5
141
12.0
290
     0
  0
SCALE
  5
4E
102
{ACAD_REACTORS
330
42
102
}
330
42
100
AcDbScale
 70
     0
300
3/4" = 1'-0"
140
0.75
141
12.0
290
     0
  0
SCALE
  5
4F
102
{ACAD_REACTORS
330
42
102
}
330
42
100
AcDbScale
 70
     0
300
1" = 1'-0"
140
1.0
141
12.0
290
     0
  0
SCALE
  5
50
102
{ACAD_REACTORS
330
42
102
}
330
42
100
AcDbScale
 70
     0
300
1-1/2" = 1'-0"
140
1.5
141
12.0
290
     0
  0
SCALE
  5
51
102
{ACAD_REACTORS
330
42
102
}
330
42
100
AcDbScale
 70
     0
300
3" = 1'-0"
140
3.0
141
12.0
290
     0
  0
SCALE
  5
52
102
{ACAD_REACTORS
330
42
102
}
330
42
100
AcDbScale
 70
     0
300
6" = 1'-0"
140
6.0
141
12.0
290
     0
  0
SCALE
  5
53
102
{ACAD_REACTORS
330
42
102
}
330
42
100
AcDbScale
 70
     0
300
1'-0" = 1'-0"
140
12.0
141
12.0
290
     0
  0
ACDBSECTIONVIEWSTYLE
  5
68
102
{ACAD_XDICTIONARY
360
3FB
102
}
102
{ACAD_REACTORS
330
67
102
}
330
67
100
AcDbModelDocViewStyle
 70
     0
  3
Imperial24
290
     0
100
AcDbSectionViewStyle
 70
     0
 71
     0
 90
       78
 71
     1
340
55
 40
0.24
340
0
340
0
 40
0.24
300
I, O, Q, S, X, Z
 40
0.48
 90
        3
 40
0.18
 90
        1
 71
     2
340
5C
 90
       25
340
5C
 90
       50
 40
0.24
 40
0.0
 40
0.24
 71
     3
340
55
 40
0.24
 90
        1
 40
0.75
 90
        1
300
%<\AcVar ViewType \f "%tc1">% %<\AcVar ViewSectionStartId>%-%<\AcVar ViewSectionEndId>%\PSCALE %<\AcVar ViewScale \f "%sn">%
 71
     4
300
ANSI31
 40
1.0
 90
        0
290
     0
290
     0
 90
        6
 40
0.0
 40
1.570796326794896
 40
0.2617993877991494
 40
1.308996938995747
 40
-0.2617993877991494
 40
1.832595714594046
  0
TABLESTYLE
  5
64
102
{ACAD_XDICTIONARY
360
30D
102
}
102
{ACAD_REACTORS
330
63
102
}
330
63
100
AcDbTableStyle
  3
Standard
 70
     0
 71
     0
 40
0.06
 41
0.06
280
     0
281
     0
  7
STANDARD
140
0.18
170
     2
 62
     0
 63
     7
283
     0
274
    -2
284
     1
 64
     0
275
    -2
285
     1
 65
     0
276
    -2
286
     1
 66
     0
277
    -2
287
     1
 67
     0
278
    -2
288
     1
 68
     0
279
    -2
289
     1
 69
     0
  7
STANDARD
140
0.25
170
     5
 62
     0
 63
     7
283
     0
274
    -2
284
     1
 64
     0
275
    -2
285
     1
 65
     0
276
    -2
286
     1
 66
     0
277
    -2
287
     1
 67
     0
278
    -2
288
     1
 68
     0
279
    -2
289
     1
 69
     0
  7
STANDARD
140
0.18
170
     5
 62
     0
 63
     7
283
     0
274
    -2
284
     1
 64
     0
275
    -2
285
     1
 65
     0
276
    -2
286
     1
 66
     0
277
    -2
287
     1
 67
     0
278
    -2
288
     1
 68
     0
279
    -2
289
     1
 69
     0
  0
VISUALSTYLE
  5
2F
102
{ACAD_XDICTIONARY
360
3D4
102
}
102
{ACAD_REACTORS
330
29
102
}
330
29
100
AcDbVisualStyle
  2
2dWireframe
 70
     4
 71
     0
 72
     2
 73
     0
 90
        0
 40
-0.6
 41
-30.0
 62
     5
 63
     7
 74
     1
 91
        4
 64
     7
 65
   257
 75
     1
175
     1
 42
1.0
 92
        0
 66
   257
 43
1.0
 76
     1
 77
     6
 78
     2
 67
     7
 79
     5
170
     0
171
     0
290
     0
174
     0
 93
        1
 44
0.0
173
     0
291
     0
 45
0.0
1001
ACAD
1000
AcDbSavedByObjectVersion
1070
     0
  0
VISUALSTYLE
  5
2E
102
{ACAD_XDICTIONARY
360
3D2
102
}
102
{ACAD_REACTORS
330
29
102
}
330
29
100
AcDbVisualStyle
  2
Basic
 70
     7
 71
     1
 72
     0
 73
     1
 90
        0
 40
-0.6
 41
-30.0
 62
     5
 63
     7
 74
     0
 91
        4
 64
     7
 65
   257
 75
     1
175
     1
 42
1.0
 92
        8
 66
     7
 43
1.0
 76
     1
 77
     6
 78
     2
 67
     7
 79
     5
170
     0
171
     0
290
     0
174
     0
 93
        1
 44
0.0
173
     0
291
     1
 45
0.0
1001
ACAD
1000
AcDbSavedByObjectVersion
1070
     0
  0
VISUALSTYLE
  5
35
102
{ACAD_XDICTIONARY
360
3E0
102
}
102
{ACAD_REACTORS
330
29
102
}
330
29
100
AcDbVisualStyle
  2
Brighten
 70
    12
 71
     2
 72
     2
 73
     0
 90
        0
 40
-0.6
 41
-30.0
 62
     5
 63
     7
 74
     1
 91
        4
 64
     7
 65
   257
 75
     1
175
     1
 42
1.0
 92
        8
 66
     7
 43
1.0
 76
     1
 77
     6
 78
     2
 67
     7
 79
     5
170
     0
171
     0
290
     0
174
     0
 93
        1
 44
50.0
173
     0
291
     1
 45
0.0
1001
ACAD
1000
AcDbSavedByObjectVersion
1070
     0
  0
VISUALSTYLE
  5
39
102
{ACAD_XDICTIONARY
360
3E8
102
}
102
{ACAD_REACTORS
330
29
102
}
330
29
100
AcDbVisualStyle
  2
ColorChange
 70
    16
 71
     2
 72
     2
 73
     3
 90
        0
 40
-0.6
 41
-30.0
 62
     5
 63
     8
 74
     1
 91
        4
 64
     7
 65
   257
 75
     1
175
     1
 42
1.0
 92
        8
 66
     8
 43
1.0
 76
     1
 77
     6
 78
     2
 67
     7
 79
     5
170
     0
171
     0
290
     0
174
     0
 93
        1
 44
0.0
173
     0
291
     1
 45
0.0
1001
ACAD
1000
AcDbSavedByObjectVersion
1070
     0
  0
VISUALSTYLE
  5
32
102
{ACAD_XDICTIONARY
360
3DA
102
}
102
{ACAD_REACTORS
330
29
102
}
330
29
100
AcDbVisualStyle
  2
Conceptual
 70
     9
 71
     3
 72
     2
 73
     0
 90
        0
 40
-0.6
 41
-30.0
 62
     5
 63
     7
 74
     2
 91
        2
 64
     7
 65
   257
 75
     1
175
     1
 42
179.0
 92
        8
 66
     7
 43
1.0
 76
     1
 77
     6
 78
     2
 67
     7
 79
     3
170
     0
171
     0
290
     0
174
     0
 93
        1
 44
0.0
173
     0
291
     0
 45
0.0
1001
ACAD
1000
AcDbSavedByObjectVersion
1070
     0
  0
VISUALSTYLE
  5
34
102
{ACAD_XDICTIONARY
360
3DE
102
}
102
{ACAD_REACTORS
330
29
102
}
330
29
100
AcDbVisualStyle
  2
Dim
 70
    11
 71
     2
 72
     2
 73
     0
 90
        0
 40
-0.6
 41
-30.0
 62
     5
 63
     7
 74
     1
 91
        4
 64
     7
 65
   257
 75
     1
175
     1
 42
1.0
 92
        8
 66
     7
 43
1.0
 76
     1
 77
     6
 78
     2
 67
     7
 79
     5
170
     0
171
     0
290
     0
174
     0
 93
        1
 44
-50.0
173
     0
291
     1
 45
0.0
1001
ACAD
1000
AcDbSavedByObjectVersion
1070
     0
  0
VISUALSTYLE
  5
41
102
{ACAD_XDICTIONARY
360
3F8
102
}
102
{ACAD_REACTORS
330
29
102
}
330
29
100
AcDbVisualStyle
  2
EdgeColorOff
 70
    22
 71
     2
 72
     2
 73
     0
 90
        0
 40
-0.6
 41
-30.0
 62
     5
 63
     7
 74
     1
 91
        4
 64
     7
 65
   257
 75
     1
175
     1
 42
1.0
 92
        8
 66
     7
 43
1.0
 76
     1
 77
     6
 78
     2
 67
     7
 79
     5
170
     0
171
     0
290
     0
174
     0
 93
        1
 44
0.0
173
     0
291
     1
 45
0.0
1001
ACAD
1000
AcDbSavedByObjectVersion
1070
     0
  0
VISUALSTYLE
  5
38
102
{ACAD_XDICTIONARY
360
3E6
102
}
102
{ACAD_REACTORS
330
29
102
}
330
29
100
AcDbVisualStyle
  2
Facepattern
 70
    15
 71
     2
 72
     2
 73
     0
 90
        0
 40
-0.6
 41
-30.0
 62
     5
 63
     7
 74
     1
 91
        4
 64
     7
 65
   257
 75
     1
175
     1
 42
1.0
 92
        8
 66
     7
 43
1.0
 76
     1
 77
     6
 78
     2
 67
     7
 79
     5
170
     0
171
     0
290
     0
174
     0
 93
        1
 44
0.0
173
     0
291
     1
 45
0.0
1001
ACAD
1000
AcDbSavedByObjectVersion
1070
     0
  0
VISUALSTYLE
  5
2A
102
{ACAD_XDICTIONARY
360
3CA
102
}
102
{ACAD_REACTORS
330
29
102
}
330
29
100
AcDbVisualStyle
  2
Flat
 70
     0
 71
     2
 72
     1
 73
     1
 90
        2
 40
-0.6
 41
30.0
 62
     5
 63
     7
 74
     0
 91
        0
 64
     7
 65
   257
 75
     1
175
     1
 42
1.0
 92
        8
 66
     7
 43
1.0
 76
     1
 77
     6
 78
     2
 67
     7
 79
     5
170
     0
171
     0
290
     0
174
     0
 93
       13
 44
0.0
173
     0
291
     1
 45
0.0
1001
ACAD
1000
AcDbSavedByObjectVersion
1070
     0
  0
VISUALSTYLE
  5
2B
102
{ACAD_XDICTIONARY
360
3CC
102
}
102
{ACAD_REACTORS
330
29
102
}
330
29
100
AcDbVisualStyle
  2
FlatWithEdges
 70
     1
 71
     2
 72
     1
 73
     1
 90
        2
 40
-0.6
 41
30.0
 62
     5
 63
     7
 74
     1
 91
        0
 64
     7
 65
   257
 75
     1
175
     1
 42
1.0
 92
        0
 66
   257
 43
1.0
 76
     1
 77
     6
 78
     2
 67
     7
 79
     5
170
     0
171
     0
290
     0
174
     0
 93
       13
 44
0.0
173
     0
291
     1
 45
0.0
1001
ACAD
1000
AcDbSavedByObjectVersion
1070
     0
  0
VISUALSTYLE
  5
2C
102
{ACAD_XDICTIONARY
360
3CE
102
}
102
{ACAD_REACTORS
330
29
102
}
330
29
100
AcDbVisualStyle
  2
Gouraud
 70
     2
 71
     2
 72
     2
 73
     1
 90
        2
 40
-0.6
 41
30.0
 62
     5
 63
     7
 74
     0
 91
        0
 64
     7
 65
   257
 75
     1
175
     1
 42
1.0
 92
        0
 66
     7
 43
1.0
 76
     1
 77
     6
 78
     2
 67
     7
 79
     5
170
     0
171
     0
290
     0
174
     0
 93
       13
 44
0.0
173
     0
291
     1
 45
0.0
1001
ACAD
1000
AcDbSavedByObjectVersion
1070
     0
  0
VISUALSTYLE
  5
2D
102
{ACAD_XDICTIONARY
360
3D0
102
}
102
{ACAD_REACTORS
330
29
102
}
330
29
100
AcDbVisualStyle
  2
GouraudWithEdges
 70
     3
 71
     2
 72
     2
 73
     1
 90
        2
 40
-0.6
 41
30.0
 62
     5
 63
     7
 74
     1
 91
        0
 64
     7
 65
   257
 75
     1
175
     1
 42
1.0
 92
        0
 66
   257
 43
1.0
 76
     1
 77
     6
 78
     2
 67
     7
 79
     5
170
     0
171
     0
290
     0
174
     0
 93
       13
 44
0.0
173
     0
291
     1
 45
0.0
1001
ACAD
1000
AcDbSavedByObjectVersion
1070
     0
  0
VISUALSTYLE
  5
31
102
{ACAD_XDICTIONARY
360
3D8
102
}
102
{ACAD_REACTORS
330
29
102
}
330
29
100
AcDbVisualStyle
  2
Hidden
 70
     6
 71
     1
 72
     2
 73
     2
 90
        0
 40
-0.6
 41
-30.0
 62
     5
 63
     7
 74
     2
 91
        2
 64
     7
 65
   257
 75
     2
175
     1
 42
40.0
 92
        0
 66
   257
 43
1.0
 76
     1
 77
     6
 78
     2
 67
     7
 79
     3
170
     0
171
     0
290
     0
174
     0
 93
        1
 44
0.0
173
     0
291
     0
 45
0.0
1001
ACAD
1000
AcDbSavedByObjectVersion
1070
     0
  0
VISUALSTYLE
  5
3F
102
{ACAD_XDICTIONARY
360
3F4
102
}
102
{ACAD_REACTORS
330
29
102
}
330
29
100
AcDbVisualStyle
  2
JitterOff
 70
    20
 71
     2
 72
     2
 73
     0
 90
        0
 40
-0.6
 41
-30.0
 62
     5
 63
     7
 74
     1
 91
        4
 64
     7
 65
   257
 75
     1
175
     1
 42
1.0
 92
       10
 66
     7
 43
1.0
 76
     1
 77
     6
 78
     2
 67
     7
 79
     5
170
     0
171
     0
290
     0
174
     0
 93
        1
 44
0.0
173
     0
291
     1
 45
0.0
1001
ACAD
1000
AcDbSavedByObjectVersion
1070
     0
  0
VISUALSTYLE
  5
37
102
{ACAD_XDICTIONARY
360
3E4
102
}
102
{ACAD_REACTORS
330
29
102
}
330
29
100
AcDbVisualStyle
  2
Linepattern
 70
    14
 71
     2
 72
     2
 73
     0
 90
        0
 40
-0.6
 41
-30.0
 62
     5
 63
     7
 74
     1
 91
        4
 64
     7
 65
   257
 75
     7
175
     7
 42
1.0
 92
        8
 66
     7
 43
1.0
 76
     1
 77
     6
 78
     2
 67
     7
 79
     5
170
     0
171
     0
290
     0
174
     0
 93
        1
 44
0.0
173
     0
291
     1
 45
0.0
1001
ACAD
1000
AcDbSavedByObjectVersion
1070
     0
  0
VISUALSTYLE
  5
40
102
{ACAD_XDICTIONARY
360
3F6
102
}
102
{ACAD_REACTORS
330
29
102
}
330
29
100
AcDbVisualStyle
  2
OverhangOff
 70
    21
 71
     2
 72
     2
 73
     0
 90
        0
 40
-0.6
 41
-30.0
 62
     5
 63
     7
 74
     1
 91
        4
 64
     7
 65
   257
 75
     1
175
     1
 42
1.0
 92
        9
 66
     7
 43
1.0
 76
     1
 77
     6
 78
     2
 67
     7
 79
     5
170
     0
171
     0
290
     0
174
     0
 93
        1
 44
0.0
173
     0
291
     1
 45
0.0
1001
ACAD
1000
AcDbSavedByObjectVersion
1070
     0
  0
VISUALSTYLE
  5
33
102
{ACAD_XDICTIONARY
360
3DC
102
}
102
{ACAD_REACTORS
330
29
102
}
330
29
100
AcDbVisualStyle
  2
Realistic
 70
     8
 71
     2
 72
     2
 73
     0
 90
        2
 40
-0.6
 41
30.0
 62
     5
 63
     7
 74
     0
 91
        0
 64
     7
 65
   257
 75
     1
175
     1
 42
1.0
 92
        8
 66
   257
 43
1.0
 76
     1
 77
     6
 78
     2
 67
     7
 79
     3
170
     0
171
     0
290
     0
174
     0
 93
       13
 44
0.0
173
     0
291
     0
 45
0.0
1001
ACAD
1000
AcDbSavedByObjectVersion
1070
     0
  0
VISUALSTYLE
  5
3E
102
{ACAD_XDICTIONARY
360
3F2
102
}
102
{ACAD_REACTORS
330
29
102
}
330
29
100
AcDbVisualStyle
  2
Shaded
 70
    27
 71
     2
 72
     2
 73
     1
 90
        2
 40
-0.6
 41
30.0
 62
     5
 63
     7
 74
     0
 91
        4
 64
     7
 65
   257
 75
     1
175
     1
 42
1.0
 92
        8
 66
   257
 43
1.0
 76
     1
 77
     6
 78
     2
 67
     8
 79
     3
170
     0
171
     0
290
     0
174
     0
 93
        5
 44
0.0
173
     0
291
     0
 45
0.0
1001
ACAD
1000
AcDbSavedByObjectVersion
1070
     0
  0
VISUALSTYLE
  5
3D
102
{ACAD_XDICTIONARY
360
3F0
102
}
102
{ACAD_REACTORS
330
29
102
}
330
29
100
AcDbVisualStyle
  2
Shaded with edges
 70
    26
 71
     2
 72
     2
 73
     1
 90
        2
 40
-0.6
 41
30.0
 62
     5
 63
     7
 74
     1
 91
        2
 64
     7
 65
   257
 75
     2
175
     1
 42
1.0
 92
        8
 66
   257
 43
1.0
 76
     1
 77
     6
 78
     2
 67
     7
 79
     3
170
     0
171
     0
290
     0
174
     0
 93
        5
 44
0.0
173
     0
291
     0
 45
0.0
1001
ACAD
1000
AcDbSavedByObjectVersion
1070
     0
  0
VISUALSTYLE
  5
3A
102
{ACAD_XDICTIONARY
360
3EA
102
}
102
{ACAD_REACTORS
330
29
102
}
330
29
100
AcDbVisualStyle
  2
Shades of Gray
 70
    23
 71
     2
 72
     2
 73
     3
 90
        0
 40
-0.6
 41
-30.0
 62
     5
 63
     7
 74
     2
 91
        2
 64
     7
 65
     7
 75
     1
175
     1
 42
40.0
 92
        8
 66
     7
 43
1.0
 76
     1
 77
     6
 78
     2
 67
     7
 79
     3
170
     0
171
     0
290
     0
174
     0
 93
        1
 44
0.0
173
     0
291
     0
 45
0.0
1001
ACAD
1000
AcDbSavedByObjectVersion
1070
     0
  0
VISUALSTYLE
  5
3B
102
{ACAD_XDICTIONARY
360
3EC
102
}
102
{ACAD_REACTORS
330
29
102
}
330
29
100
AcDbVisualStyle
  2
Sketchy
 70
    24
 71
     1
 72
     2
 73
     2
 90
        0
 40
-0.6
 41
-30.0
 62
     5
 63
     7
 74
     2
 91
        2
 64
     7
 65
     7
 75
     1
175
     1
 42
40.0
 92
       11
 66
     7
 43
1.0
 76
     1
 77
     6
 78
     2
 67
     7
 79
     6
170
     0
171
     0
290
     0
174
     0
 93
        1
 44
0.0
173
     0
291
     0
 45
0.0
1001
ACAD
1000
AcDbSavedByObjectVersion
1070
     0
  0
VISUALSTYLE
  5
36
102
{ACAD_XDICTIONARY
360
3E2
102
}
102
{ACAD_REACTORS
330
29
102
}
330
29
100
AcDbVisualStyle
  2
Thicken
 70
    13
 71
     2
 72
     2
 73
     0
 90
        0
 40
-0.6
 41
-30.0
 62
     5
 63
     7
 74
     1
 91
        4
 64
     7
 65
   257
 75
     1
175
     1
 42
1.0
 92
       12
 66
     7
 43
1.0
 76
     1
 77
     6
 78
     2
 67
     7
 79
     5
170
     0
171
     0
290
     0
174
     0
 93
        1
 44
0.0
173
     0
291
     1
 45
0.0
1001
ACAD
1000
AcDbSavedByObjectVersion
1070
     0
  0
VISUALSTYLE
  5
30
102
{ACAD_XDICTIONARY
360
3D6
102
}
102
{ACAD_REACTORS
330
29
102
}
330
29
100
AcDbVisualStyle
  2
Wireframe
 70
     5
 71
     0
 72
     2
 73
     0
 90
        0
 40
-0.6
 41
-30.0
 62
     5
 63
     7
 74
     1
 91
        4
 64
     7
 65
   257
 75
     1
175
     1
 42
1.0
 92
        0
 66
   257
 43
1.0
 76
     1
 77
     6
 78
     2
 67
     7
 79
     3
170
     0
171
     0
290
     0
174
     0
 93
        1
 44
0.0
173
     0
291
     0
 45
0.0
1001
ACAD
1000
AcDbSavedByObjectVersion
1070
     0
  0
VISUALSTYLE
  5
3C
102
{ACAD_XDICTIONARY
360
3EE
102
}
102
{ACAD_REACTORS
330
29
102
}
330
29
100
AcDbVisualStyle
  2
X-Ray
 70
    25
 71
     2
 72
     2
 73
     1
 90
        1
 40
0.5
 41
-30.0
 62
     5
 63
     7
 74
     1
 91
        0
 64
     7
 65
   257
 75
     1
175
     1
 42
1.0
 92
        8
 66
     7
 43
1.0
 76
     1
 77
     6
 78
     2
 67
     7
 79
     3
170
     0
171
     0
290
     0
174
     0
 93
       13
 44
0.0
173
     0
291
     0
 45
0.0
1001
ACAD
1000
AcDbSavedByObjectVersion
1070
     0
  0
DICTIONARYVAR
  5
34B
102
{ACAD_REACTORS
330
345
102
}
330
345
100
DictionaryVariables
280
     0
  1
1:1
  0
DICTIONARYVAR
  5
347
102
{ACAD_REACTORS
330
345
102
}
330
345
100
DictionaryVariables
280
     0
  1
STANDARD
  0
DICTIONARYVAR
  5
346
102
{ACAD_REACTORS
330
345
102
}
330
345
100
DictionaryVariables
280
     0
  1
STANDARD
  0
DICTIONARYVAR
  5
348
102
{ACAD_REACTORS
330
345
102
}
330
345
100
DictionaryVariables
280
     0
  1
Imperial24
  0
DICTIONARYVAR
  5
349
102
{ACAD_REACTORS
330
345
102
}
330
345
100
DictionaryVariables
280
     0
  1
Imperial24
  0
DICTIONARYVAR
  5
3BA
102
{ACAD_REACTORS
330
345
102
}
330
345
100
DictionaryVariables
280
     0
  1
1
  0
DICTIONARYVAR
  5
3B9
102
{ACAD_REACTORS
330
345
102
}
330
345
100
DictionaryVariables
280
     0
  1
0
  0
DICTIONARYVAR
  5
34D
102
{ACAD_REACTORS
330
345
102
}
330
345
100
DictionaryVariables
280
     0
  1
1
  0
DICTIONARYVAR
  5
34E
102
{ACAD_REACTORS
330
345
102
}
330
345
100
DictionaryVariables
280
     0
  1
15
  0
DICTIONARYVAR
  5
34C
102
{ACAD_REACTORS
330
345
102
}
330
345
100
DictionaryVariables
280
     0
  1
0
  0
DICTIONARYVAR
  5
34A
102
{ACAD_REACTORS
330
345
102
}
330
345
100
DictionaryVariables
280
     0
  1
0
  0
DICTIONARYVAR
  5
3B8
102
{ACAD_REACTORS
330
345
102
}
330
345
100
DictionaryVariables
280
     0
  1
127
  0
DICTIONARYVAR
  5
3BB
102
{ACAD_REACTORS
330
345
102
}
330
345
100
DictionaryVariables
280
     0
  1
2
  0
DICTIONARY
  5
3C6
102
{ACAD_REACTORS
330
3C4
102
}
330
3C4
100
AcDbDictionary
281
     1
  0
DICTIONARY
  5
3C5
102
{ACAD_REACTORS
330
3C4
102
}
330
3C4
100
AcDbDictionary
281
     1
  3
1585362800
350
3BF
  3
1586640896
350
3C0
  3
1586640912
350
3C1
  3
1586640928
350
3C2
  3
1586640944
350
3C3
  0
DICTIONARY
  5
3FD
330
6A
100
AcDbDictionary
280
     1
281
     1
  3
ACAD_XREC_ROUNDTRIP
360
3FE
  0
DICTIONARY
  5
401
330
72
100
AcDbDictionary
280
     1
281
     1
  3
ACAD_XREC_ROUNDTRIP
360
402
  0
DICTIONARY
  5
3FF
330
6E
100
AcDbDictionary
280
     1
281
     1
  3
ACAD_XREC_ROUNDTRIP
360
400
  0
DICTIONARY
  5
1A
330
19
100
AcDbDictionary
280
     1
281
     1
  3
ACAD_XREC_ROUNDTRIP
360
3C8
  3
BUMPTILE
360
1C
  3
DIFFUSETILE
360
1B
  3
OPACITYTILE
360
1F
  3
REFLECTIONTILE
360
1E
  3
REFRACTIONTILE
360
20
  3
SPECULARTILE
360
1D
  0
DICTIONARY
  5
12
330
11
100
AcDbDictionary
280
     1
281
     1
  3
ACAD_XREC_ROUNDTRIP
360
3C7
  3
BUMPTILE
360
14
  3
DIFFUSETILE
360
13
  3
OPACITYTILE
360
17
  3
REFLECTIONTILE
360
16
  3
REFRACTIONTILE
360
18
  3
SPECULARTILE
360
15
  0
DICTIONARY
  5
22
330
21
100
AcDbDictionary
280
     1
281
     1
  3
ACAD_XREC_ROUNDTRIP
360
3C9
  3
BUMPTILE
360
24
  3
DIFFUSETILE
360
23
  3
OPACITYTILE
360
27
  3
REFLECTIONTILE
360
26
  3
REFRACTIONTILE
360
28
  3
SPECULARTILE
360
25
  0
DICTIONARY
  5
3FB
330
68
100
AcDbDictionary
280
     1
281
     1
  3
ACAD_XREC_ROUNDTRIP
360
3FC
  0
DICTIONARY
  5
30D
330
64
100
AcDbDictionary
280
     1
281
     1
  3
ACAD_ROUNDTRIP_2008_TABLESTYLE_CELLSTYLEMAP
360
3BC
  3
ACAD_XREC_ROUNDTRIP
360
3FA
  0
DICTIONARY
  5
3D4
330
2F
100
AcDbDictionary
280
     1
281
     1
  3
ACAD_XREC_ROUNDTRIP
360
3D5
  0
DICTIONARY
  5
3D2
330
2E
100
AcDbDictionary
280
     1
281
     1
  3
ACAD_XREC_ROUNDTRIP
360
3D3
  0
DICTIONARY
  5
3E0
330
35
100
AcDbDictionary
280
     1
281
     1
  3
ACAD_XREC_ROUNDTRIP
360
3E1
  0
DICTIONARY
  5
3E8
330
39
100
AcDbDictionary
280
     1
281
     1
  3
ACAD_XREC_ROUNDTRIP
360
3E9
  0
DICTIONARY
  5
3DA
330
32
100
AcDbDictionary
280
     1
281
     1
  3
ACAD_XREC_ROUNDTRIP
360
3DB
  0
DICTIONARY
  5
3DE
330
34
100
AcDbDictionary
280
     1
281
     1
  3
ACAD_XREC_ROUNDTRIP
360
3DF
  0
DICTIONARY
  5
3F8
330
41
100
AcDbDictionary
280
     1
281
     1
  3
ACAD_XREC_ROUNDTRIP
360
3F9
  0
DICTIONARY
  5
3E6
330
38
100
AcDbDictionary
280
     1
281
     1
  3
ACAD_XREC_ROUNDTRIP
360
3E7
  0
DICTIONARY
  5
3CA
330
2A
100
AcDbDictionary
280
     1
281
     1
  3
ACAD_XREC_ROUNDTRIP
360
3CB
  0
DICTIONARY
  5
3CC
330
2B
100
AcDbDictionary
280
     1
281
     1
  3
ACAD_XREC_ROUNDTRIP
360
3CD
  0
DICTIONARY
  5
3CE
330
2C
100
AcDbDictionary
280
     1
281
     1
  3
ACAD_XREC_ROUNDTRIP
360
3CF
  0
DICTIONARY
  5
3D0
330
2D
100
AcDbDictionary
280
     1
281
     1
  3
ACAD_XREC_ROUNDTRIP
360
3D1
  0
DICTIONARY
  5
3D8
330
31
100
AcDbDictionary
280
     1
281
     1
  3
ACAD_XREC_ROUNDTRIP
360
3D9
  0
DICTIONARY
  5
3F4
330
3F
100
AcDbDictionary
280
     1
281
     1
  3
ACAD_XREC_ROUNDTRIP
360
3F5
  0
DICTIONARY
  5
3E4
330
37
100
AcDbDictionary
280
     1
281
     1
  3
ACAD_XREC_ROUNDTRIP
360
3E5
  0
DICTIONARY
  5
3F6
330
40
100
AcDbDictionary
280
     1
281
     1
  3
ACAD_XREC_ROUNDTRIP
360
3F7
  0
DICTIONARY
  5
3DC
330
33
100
AcDbDictionary
280
     1
281
     1
  3
ACAD_XREC_ROUNDTRIP
360
3DD
  0
DICTIONARY
  5
3F2
330
3E
100
AcDbDictionary
280
     1
281
     1
  3
ACAD_XREC_ROUNDTRIP
360
3F3
  0
DICTIONARY
  5
3F0
330
3D
100
AcDbDictionary
280
     1
281
     1
  3
ACAD_XREC_ROUNDTRIP
360
3F1
  0
DICTIONARY
  5
3EA
330
3A
100
AcDbDictionary
280
     1
281
     1
  3
ACAD_XREC_ROUNDTRIP
360
3EB
  0
DICTIONARY
  5
3EC
330
3B
100
AcDbDictionary
280
     1
281
     1
  3
ACAD_XREC_ROUNDTRIP
360
3ED
  0
DICTIONARY
  5
3E2
330
36
100
AcDbDictionary
280
     1
281
     1
  3
ACAD_XREC_ROUNDTRIP
360
3E3
  0
DICTIONARY
  5
3D6
330
30
100
AcDbDictionary
280
     1
281
     1
  3
ACAD_XREC_ROUNDTRIP
360
3D7
  0
DICTIONARY
  5
3EE
330
3C
100
AcDbDictionary
280
     1
281
     1
  3
ACAD_XREC_ROUNDTRIP
360
3EF
  0
XRECORD
  5
3BF
102
{ACAD_REACTORS
330
3C5
102
}
330
3C5
100
AcDbXrecord
280
     1
  1
AcDb_Thumbnail_Schema
102
{ATTRRECORD
341
3C0
  2
AcDbDs::TreatedAsObjectData
280
     1
291
     1
102
ATTRRECORD}
102
{ATTRRECORD
341
3C1
  2
AcDbDs::Legacy
280
     1
291
     1
102
ATTRRECORD}
  2
AcDbDs::ID
280
    10
 91
        8
102
{ATTRRECORD
341
3C2
  2
AcDs:Indexable
280
     1
291
     1
102
ATTRRECORD}
102
{ATTRRECORD
341
3C3
  2
AcDbDs::HandleAttribute
280
     7
282
     1
102
ATTRRECORD}
  2
Thumbnail_Data
280
    15
 91
        0
  0
XRECORD
  5
3C0
102
{ACAD_REACTORS
330
3C5
102
}
330
3C5
100
AcDbXrecord
280
     1
  1
AcDbDs::TreatedAsObjectDataSchema
  2
AcDbDs::TreatedAsObjectData
280
     1
 91
        0
  0
XRECORD
  5
3C1
102
{ACAD_REACTORS
330
3C5
102
}
330
3C5
100
AcDbXrecord
280
     1
  1
AcDbDs::LegacySchema
  2
AcDbDs::Legacy
280
     1
 91
        0
  0
XRECORD
  5
3C2
102
{ACAD_REACTORS
330
3C5
102
}
330
3C5
100
AcDbXrecord
280
     1
  1
AcDbDs::IndexedPropertySchema
  2
AcDs:Indexable
280
     1
 91
        0
  0
XRECORD
  5
3C3
102
{ACAD_REACTORS
330
3C5
102
}
330
3C5
100
AcDbXrecord
280
     1
  1
AcDbDs::HandleAttributeSchema
  2
AcDbDs::HandleAttribute
280
     7
 91
        1
284
     1
  0
XRECORD
  5
3FE
102
{ACAD_REACTORS
330
3FD
102
}
330
3FD
100
AcDbXrecord
280
     1
102
DISPLAYNAME
  1
Imperial24
102
FLAGS
 90
        0
  0
XRECORD
  5
402
102
{ACAD_REACTORS
330
401
102
}
330
401
100
AcDbXrecord
280
     1
102
SHADEPLOT
 70
     0
102
SHADEPLOTRESLEVEL
 70
     2
102
SHADEPLOTCUSTOMDPI
 70
   300
  0
XRECORD
  5
400
102
{ACAD_REACTORS
330
3FF
102
}
330
3FF
100
AcDbXrecord
280
     1
102
SHADEPLOT
 70
     0
102
SHADEPLOTRESLEVEL
 70
     2
102
SHADEPLOTCUSTOMDPI
 70
   300
  0
XRECORD
  5
3C8
102
{ACAD_REACTORS
330
1A
102
}
330
1A
100
AcDbXrecord
280
     1
102
MATERIAL
148
0.0
149
0.0
149
0.0
 93
        0
 94
      127
282
     0
 72
     0
 77
     0
171
     0
175
     0
179
     0
273
     0
  0
XRECORD
  5
1C
102
{ACAD_REACTORS
330
1A
102
}
330
1A
100
AcDbXrecord
280
     1
270
     1
271
     1
  0
XRECORD
  5
1B
102
{ACAD_REACTORS
330
1A
102
}
330
1A
100
AcDbXrecord
280
     1
270
     1
271
     1
  0
XRECORD
  5
1F
102
{ACAD_REACTORS
330
1A
102
}
330
1A
100
AcDbXrecord
280
     1
270
     1
271
     1
  0
XRECORD
  5
1E
102
{ACAD_REACTORS
330
1A
102
}
330
1A
100
AcDbXrecord
280
     1
270
     1
271
     1
  0
XRECORD
  5
20
102
{ACAD_REACTORS
330
1A
102
}
330
1A
100
AcDbXrecord
280
     1
270
     1
271
     1
  0
XRECORD
  5
1D
102
{ACAD_REACTORS
330
1A
102
}
330
1A
100
AcDbXrecord
280
     1
270
     1
271
     1
  0
XRECORD
  5
3C7
102
{ACAD_REACTORS
330
12
102
}
330
12
100
AcDbXrecord
280
     1
102
MATERIAL
148
0.0
149
0.0
149
0.0
 93
        0
 94
      127
282
     0
 72
     0
 77
     0
171
     0
175
     0
179
     0
273
     0
  0
XRECORD
  5
14
102
{ACAD_REACTORS
330
12
102
}
330
12
100
AcDbXrecord
280
     1
270
     1
271
     1
  0
XRECORD
  5
13
102
{ACAD_REACTORS
330
12
102
}
330
12
100
AcDbXrecord
280
     1
270
     1
271
     1
  0
XRECORD
  5
17
102
{ACAD_REACTORS
330
12
102
}
330
12
100
AcDbXrecord
280
     1
270
     1
271
     1
  0
XRECORD
  5
16
102
{ACAD_REACTORS
330
12
102
}
330
12
100
AcDbXrecord
280
     1
270
     1
271
     1
  0
XRECORD
  5
18
102
{ACAD_REACTORS
330
12
102
}
330
12
100
AcDbXrecord
280
     1
270
     1
271
     1
  0
XRECORD
  5
15
102
{ACAD_REACTORS
330
12
102
}
330
12
100
AcDbXrecord
280
     1
270
     1
271
     1
  0
XRECORD
  5
3C9
102
{ACAD_REACTORS
330
22
102
}
330
22
100
AcDbXrecord
280
     1
102
MATERIAL
148
0.0
149
0.0
149
0.0
 93
        0
 94
      127
282
     0
 72
     0
 77
     0
171
     0
175
     0
179
     0
273
     0
  0
XRECORD
  5
24
102
{ACAD_REACTORS
330
22
102
}
330
22
100
AcDbXrecord
280
     1
270
     1
271
     1
  0
XRECORD
  5
23
102
{ACAD_REACTORS
330
22
102
}
330
22
100
AcDbXrecord
280
     1
270
     1
271
     1
  0
XRECORD
  5
27
102
{ACAD_REACTORS
330
22
102
}
330
22
100
AcDbXrecord
280
     1
270
     1
271
     1
  0
XRECORD
  5
26
102
{ACAD_REACTORS
330
22
102
}
330
22
100
AcDbXrecord
280
     1
270
     1
271
     1
  0
XRECORD
  5
28
102
{ACAD_REACTORS
330
22
102
}
330
22
100
AcDbXrecord
280
     1
270
     1
271
     1
  0
XRECORD
  5
25
102
{ACAD_REACTORS
330
22
102
}
330
22
100
AcDbXrecord
280
     1
270
     1
271
     1
  0
XRECORD
  5
3FC
102
{ACAD_REACTORS
330
3FB
102
}
330
3FB
100
AcDbXrecord
280
     1
102
DISPLAYNAME
  1
Imperial24
102
FLAGS
 90
        0
  0
CELLSTYLEMAP
  5
3BC
102
{ACAD_REACTORS
330
30D
102
}
330
30D
100
AcDbCellStyleMap
 90
        3
300
CELLSTYLE
  1
TABLEFORMAT_BEGIN
 90
        5
170
     1
 91
        0
 92
    32768
 62
   257
 93
        1
300
CONTENTFORMAT
  1
CONTENTFORMAT_BEGIN
 90
        0
 91
        0
 92
      512
 93
        0
300

 40
0.0
140
1.0
 94
        5
 62
     0
340
55
144
0.25
309
CONTENTFORMAT_END
171
     0
 94
        0
309
TABLEFORMAT_END
  1
CELLSTYLE_BEGIN
 90
        1
 91
        1
300
_TITLE
309
CELLSTYLE_END
300
CELLSTYLE
  1
TABLEFORMAT_BEGIN
 90
        5
170
     1
 91
        0
 92
        0
 62
   257
 93
        1
300
CONTENTFORMAT
  1
CONTENTFORMAT_BEGIN
 90
        0
 91
        0
 92
      512
 93
        0
300

 40
0.0
140
1.0
 94
        5
 62
     0
340
55
144
0.18
309
CONTENTFORMAT_END
171
     0
 94
        0
309
TABLEFORMAT_END
  1
CELLSTYLE_BEGIN
 90
        2
 91
        1
300
_HEADER
309
CELLSTYLE_END
300
CELLSTYLE
  1
TABLEFORMAT_BEGIN
 90
        5
170
     1
 91
        0
 92
        0
 62
   257
 93
        1
300
CONTENTFORMAT
  1
CONTENTFORMAT_BEGIN
 90
        0
 91
        0
 92
      512
 93
        0
300

 40
0.0
140
1.0
 94
        2
 62
     0
340
55
144
0.18
309
CONTENTFORMAT_END
171
     0
 94
        0
309
TABLEFORMAT_END
  1
CELLSTYLE_BEGIN
 90
        3
 91
        2
300
_DATA
309
CELLSTYLE_END
  0
XRECORD
  5
3FA
102
{ACAD_REACTORS
330
30D
102
}
330
30D
100
AcDbXrecord
280
     1
102
ACAD_ROUNDTRIP_PRE2007_TABLESTYLE
 90
      512
 91
        0
  1

 92
      512
 93
        0
  2

 94
      512
 95
        0
  3

  0
XRECORD
  5
3D5
102
{ACAD_REACTORS
330
3D4
102
}
330
3D4
100
AcDbXrecord
280
     1
102
RTVSPost2010Prop28
280
     1
102
RTVSPost2010PropOp28
 70
     1
102
RTVSPost2010Prop29
280
     1
102
RTVSPost2010PropOp29
 70
     1
102
RTVSPost2010Prop30
280
     0
102
RTVSPost2010PropOp30
 70
     1
102
RTVSPost2010Prop31
280
     0
102
RTVSPost2010PropOp31
 70
     1
102
RTVSPost2010Prop32
280
     0
102
RTVSPost2010PropOp32
 70
     1
102
RTVSPost2010Prop33
280
     0
102
RTVSPost2010PropOp33
 70
     1
102
RTVSPost2010Prop34
280
     0
102
RTVSPost2010PropOp34
 70
     1
102
RTVSPost2010Prop35
280
     0
102
RTVSPost2010PropOp35
 70
     1
102
RTVSPost2010Prop36
280
     0
102
RTVSPost2010PropOp36
 70
     1
102
RTVSPost2010Prop37
 90
       50
102
RTVSPost2010PropOp37
 70
     1
102
RTVSPost2010Prop38
140
0.0
102
RTVSPost2010PropOp38
 70
     1
102
RTVSPost2010Prop39
140
1.0
102
RTVSPost2010PropOp39
 70
     1
102
RTVSPost2010Prop40
 90
        0
102
RTVSPost2010PropOp40
 70
     1
102
RTVSPost2010Prop41ColorIndex
 90
       18
102
RTVSPost2010Prop41ColorRGB
 90
        0
102
RTVSPost2010PropOp41
 70
     1
102
RTVSPost2010Prop42
 90
       50
102
RTVSPost2010PropOp42
 70
     1
102
RTVSPost2010Prop43
 90
        3
102
RTVSPost2010PropOp43
 70
     1
102
RTVSPost2010Prop44ColorIndex
 90
        5
102
RTVSPost2010Prop44ColorRGB
 90
      255
102
RTVSPost2010PropOp44
 70
     1
102
RTVSPost2010Prop45
280
     0
102
RTVSPost2010PropOp45
 70
     1
102
RTVSPost2010Prop46
 90
       50
102
RTVSPost2010PropOp46
 70
     1
102
RTVSPost2010Prop47
 90
       50
102
RTVSPost2010PropOp47
 70
     1
102
RTVSPost2010Prop48
 90
       50
102
RTVSPost2010PropOp48
 70
     1
102
RTVSPost2010Prop49
280
     0
102
RTVSPost2010PropOp49
 70
     1
102
RTVSPost2010Prop50
 90
       50
102
RTVSPost2010PropOp50
 70
     1
102
RTVSPost2010Prop51ColorIndex
 90
      256
102
RTVSPost2010Prop51ColorRGB
 90
-16777216
102
RTVSPost2010PropOp51
 70
     0
102
RTVSPost2010Prop52
140
1.0
102
RTVSPost2010PropOp52
 70
     0
102
RTVSPost2010Prop53
 90
        2
102
RTVSPost2010PropOp53
 70
     1
102
RTVSPost2010Prop54
  1
strokes_ogs.tif
102
RTVSPost2010PropOp54
 70
     1
102
RTVSPost2010Prop55
280
     0
102
RTVSPost2010PropOp55
 70
     1
102
RTVSPost2010Prop56
140
1.0
102
RTVSPost2010PropOp56
 70
     1
102
RTVSPost2010Prop57
140
1.0
102
RTVSPost2010PropOp57
 70
     1
102
RTVSPropertyOp0
 70
     1
102
RTVSPropertyOp1
 70
     1
102
RTVSPropertyOp2
 70
     1
102
RTVSPropertyOp3
 70
     1
102
RTVSPropertyOp4
 70
     1
102
RTVSPropertyOp5
 70
     1
102
RTVSPropertyOp6
 70
     1
102
RTVSPropertyOp7
 70
     1
102
RTVSPropertyOp8
 70
     1
102
RTVSPropertyOp9
 70
     1
102
RTVSPropertyOp10
 70
     1
102
RTVSPropertyOp11
 70
     1
102
RTVSPropertyOp12
 70
     1
102
RTVSPropertyOp13
 70
     1
102
RTVSPropertyOp14
 70
     1
102
RTVSPropertyOp15
 70
     1
102
RTVSPropertyOp16
 70
     1
102
RTVSPropertyOp17
 70
     1
102
RTVSPropertyOp18
 70
     1
102
RTVSPropertyOp19
 70
     1
102
RTVSPropertyOp20
 70
     1
102
RTVSPropertyOp21
 70
     1
102
RTVSPropertyOp22
 70
     1
102
RTVSPropertyOp23
 70
     1
102
RTVSPropertyOp24
 70
     1
102
RTVSPropertyOp25
 70
     1
102
RTVSPropertyOp26
 70
     1
102
RTVSPropertyOp27
 70
     1
102
RTVSPropertyOp28
 70
     1
102
RTVSPropertyOp29
 70
     1
102
RTVSPropertyOp30
 70
     1
102
RTVSPropertyOp31
 70
     1
102
RTVSPropertyOp32
 70
     1
102
RTVSPropertyOp33
 70
     1
102
RTVSPropertyOp34
 70
     1
102
RTVSPropertyOp35
 70
     1
102
RTVSPropertyOp36
 70
     1
102
RTVSPropertyOp37
 70
     1
102
RTVSPropertyOp38
 70
     1
102
RTVSPropertyOp39
 70
     1
102
RTVSPropertyOp40
 70
     1
102
RTVSPropertyOp41
 70
     1
102
RTVSPropertyOp42
 70
     1
102
RTVSPropertyOp43
 70
     1
102
RTVSPropertyOp44
 70
     1
102
RTVSPropertyOp45
 70
     1
102
RTVSPropertyOp46
 70
     1
102
RTVSPropertyOp47
 70
     1
102
RTVSPropertyOp48
 70
     1
102
RTVSPropertyOp49
 70
     1
102
RTVSPropertyOp50
 70
     1
102
RTVSPropertyOp51
 70
     0
102
RTVSPropertyOp52
 70
     0
102
RTVSPropertyOp53
 70
     1
102
RTVSPropertyOp54
 70
     1
102
RTVSPropertyOp55
 70
     1
102
RTVSPropertyOp56
 70
     1
102
RTVSPropertyOp57
 70
     1
102
RTVSPropertyOp58
 70
     1
102
RTVSPropertyOp59
 70
     1
102
RTVSPropertyOp60
 70
     1
102
RTVSPropertyOp61
 70
     1
102
RTVSPropertyOp62
 70
     1
  0
XRECORD
  5
3D3
102
{ACAD_REACTORS
330
3D2
102
}
330
3D2
100
AcDbXrecord
280
     1
102
RTVSPost2010Prop28
280
     0
102
RTVSPost2010PropOp28
 70
     1
102
RTVSPost2010Prop29
280
     1
102
RTVSPost2010PropOp29
 70
     1
102
RTVSPost2010Prop30
280
     1
102
RTVSPost2010PropOp30
 70
     1
102
RTVSPost2010Prop31
280
     0
102
RTVSPost2010PropOp31
 70
     1
102
RTVSPost2010Prop32
280
     0
102
RTVSPost2010PropOp32
 70
     1
102
RTVSPost2010Prop33
280
     0
102
RTVSPost2010PropOp33
 70
     1
102
RTVSPost2010Prop34
280
     0
102
RTVSPost2010PropOp34
 70
     1
102
RTVSPost2010Prop35
280
     0
102
RTVSPost2010PropOp35
 70
     1
102
RTVSPost2010Prop36
280
     0
102
RTVSPost2010PropOp36
 70
     1
102
RTVSPost2010Prop37
 90
       50
102
RTVSPost2010PropOp37
 70
     1
102
RTVSPost2010Prop38
140
0.0
102
RTVSPost2010PropOp38
 70
     1
102
RTVSPost2010Prop39
140
1.0
102
RTVSPost2010PropOp39
 70
     1
102
RTVSPost2010Prop40
 90
        0
102
RTVSPost2010PropOp40
 70
     1
102
RTVSPost2010Prop41ColorIndex
 90
       18
102
RTVSPost2010Prop41ColorRGB
 90
        0
102
RTVSPost2010PropOp41
 70
     1
102
RTVSPost2010Prop42
 90
       50
102
RTVSPost2010PropOp42
 70
     1
102
RTVSPost2010Prop43
 90
        3
102
RTVSPost2010PropOp43
 70
     1
102
RTVSPost2010Prop44ColorIndex
 90
        5
102
RTVSPost2010Prop44ColorRGB
 90
      255
102
RTVSPost2010PropOp44
 70
     1
102
RTVSPost2010Prop45
280
     0
102
RTVSPost2010PropOp45
 70
     1
102
RTVSPost2010Prop46
 90
       50
102
RTVSPost2010PropOp46
 70
     1
102
RTVSPost2010Prop47
 90
       50
102
RTVSPost2010PropOp47
 70
     1
102
RTVSPost2010Prop48
 90
       50
102
RTVSPost2010PropOp48
 70
     1
102
RTVSPost2010Prop49
280
     0
102
RTVSPost2010PropOp49
 70
     1
102
RTVSPost2010Prop50
 90
       50
102
RTVSPost2010PropOp50
 70
     1
102
RTVSPost2010Prop51ColorIndex
 90
      256
102
RTVSPost2010Prop51ColorRGB
 90
-16777216
102
RTVSPost2010PropOp51
 70
     0
102
RTVSPost2010Prop52
140
1.0
102
RTVSPost2010PropOp52
 70
     0
102
RTVSPost2010Prop53
 90
        2
102
RTVSPost2010PropOp53
 70
     1
102
RTVSPost2010Prop54
  1
strokes_ogs.tif
102
RTVSPost2010PropOp54
 70
     1
102
RTVSPost2010Prop55
280
     0
102
RTVSPost2010PropOp55
 70
     1
102
RTVSPost2010Prop56
140
1.0
102
RTVSPost2010PropOp56
 70
     1
102
RTVSPost2010Prop57
140
1.0
102
RTVSPost2010PropOp57
 70
     1
102
RTVSPropertyOp0
 70
     1
102
RTVSPropertyOp1
 70
     1
102
RTVSPropertyOp2
 70
     1
102
RTVSPropertyOp3
 70
     1
102
RTVSPropertyOp4
 70
     1
102
RTVSPropertyOp5
 70
     1
102
RTVSPropertyOp6
 70
     1
102
RTVSPropertyOp7
 70
     1
102
RTVSPropertyOp8
 70
     1
102
RTVSPropertyOp9
 70
     1
102
RTVSPropertyOp10
 70
     1
102
RTVSPropertyOp11
 70
     1
102
RTVSPropertyOp12
 70
     1
102
RTVSPropertyOp13
 70
     1
102
RTVSPropertyOp14
 70
     1
102
RTVSPropertyOp15
 70
     1
102
RTVSPropertyOp16
 70
     1
102
RTVSPropertyOp17
 70
     1
102
RTVSPropertyOp18
 70
     1
102
RTVSPropertyOp19
 70
     1
102
RTVSPropertyOp20
 70
     1
102
RTVSPropertyOp21
 70
     1
102
RTVSPropertyOp22
 70
     1
102
RTVSPropertyOp23
 70
     1
102
RTVSPropertyOp24
 70
     1
102
RTVSPropertyOp25
 70
     1
102
RTVSPropertyOp26
 70
     1
102
RTVSPropertyOp27
 70
     1
102
RTVSPropertyOp28
 70
     1
102
RTVSPropertyOp29
 70
     1
102
RTVSPropertyOp30
 70
     1
102
RTVSPropertyOp31
 70
     1
102
RTVSPropertyOp32
 70
     1
102
RTVSPropertyOp33
 70
     1
102
RTVSPropertyOp34
 70
     1
102
RTVSPropertyOp35
 70
     1
102
RTVSPropertyOp36
 70
     1
102
RTVSPropertyOp37
 70
     1
102
RTVSPropertyOp38
 70
     1
102
RTVSPropertyOp39
 70
     1
102
RTVSPropertyOp40
 70
     1
102
RTVSPropertyOp41
 70
     1
102
RTVSPropertyOp42
 70
     1
102
RTVSPropertyOp43
 70
     1
102
RTVSPropertyOp44
 70
     1
102
RTVSPropertyOp45
 70
     1
102
RTVSPropertyOp46
 70
     1
102
RTVSPropertyOp47
 70
     1
102
RTVSPropertyOp48
 70
     1
102
RTVSPropertyOp49
 70
     1
102
RTVSPropertyOp50
 70
     1
102
RTVSPropertyOp51
 70
     0
102
RTVSPropertyOp52
 70
     0
102
RTVSPropertyOp53
 70
     1
102
RTVSPropertyOp54
 70
     1
102
RTVSPropertyOp55
 70
     1
102
RTVSPropertyOp56
 70
     1
102
RTVSPropertyOp57
 70
     1
102
RTVSPropertyOp58
 70
     1
102
RTVSPropertyOp59
 70
     1
102
RTVSPropertyOp60
 70
     1
102
RTVSPropertyOp61
 70
     1
102
RTVSPropertyOp62
 70
     1
  0
XRECORD
  5
3E1
102
{ACAD_REACTORS
330
3E0
102
}
330
3E0
100
AcDbXrecord
280
     1
102
RTVSPost2010Prop28
280
     0
102
RTVSPost2010PropOp28
 70
     1
102
RTVSPost2010Prop29
280
     1
102
RTVSPost2010PropOp29
 70
     1
102
RTVSPost2010Prop30
280
     1
102
RTVSPost2010PropOp30
 70
     1
102
RTVSPost2010Prop31
280
     0
102
RTVSPost2010PropOp31
 70
     1
102
RTVSPost2010Prop32
280
     0
102
RTVSPost2010PropOp32
 70
     1
102
RTVSPost2010Prop33
280
     0
102
RTVSPost2010PropOp33
 70
     1
102
RTVSPost2010Prop34
280
     0
102
RTVSPost2010PropOp34
 70
     1
102
RTVSPost2010Prop35
280
     0
102
RTVSPost2010PropOp35
 70
     1
102
RTVSPost2010Prop36
280
     0
102
RTVSPost2010PropOp36
 70
     1
102
RTVSPost2010Prop37
 90
       50
102
RTVSPost2010PropOp37
 70
     1
102
RTVSPost2010Prop38
140
0.0
102
RTVSPost2010PropOp38
 70
     1
102
RTVSPost2010Prop39
140
1.0
102
RTVSPost2010PropOp39
 70
     1
102
RTVSPost2010Prop40
 90
        0
102
RTVSPost2010PropOp40
 70
     1
102
RTVSPost2010Prop41ColorIndex
 90
       18
102
RTVSPost2010Prop41ColorRGB
 90
        0
102
RTVSPost2010PropOp41
 70
     1
102
RTVSPost2010Prop42
 90
       50
102
RTVSPost2010PropOp42
 70
     1
102
RTVSPost2010Prop43
 90
        3
102
RTVSPost2010PropOp43
 70
     1
102
RTVSPost2010Prop44ColorIndex
 90
        5
102
RTVSPost2010Prop44ColorRGB
 90
      255
102
RTVSPost2010PropOp44
 70
     1
102
RTVSPost2010Prop45
280
     0
102
RTVSPost2010PropOp45
 70
     1
102
RTVSPost2010Prop46
 90
       50
102
RTVSPost2010PropOp46
 70
     1
102
RTVSPost2010Prop47
 90
       50
102
RTVSPost2010PropOp47
 70
     1
102
RTVSPost2010Prop48
 90
       50
102
RTVSPost2010PropOp48
 70
     1
102
RTVSPost2010Prop49
280
     0
102
RTVSPost2010PropOp49
 70
     1
102
RTVSPost2010Prop50
 90
       50
102
RTVSPost2010PropOp50
 70
     1
102
RTVSPost2010Prop51ColorIndex
 90
      256
102
RTVSPost2010Prop51ColorRGB
 90
-16777216
102
RTVSPost2010PropOp51
 70
     0
102
RTVSPost2010Prop52
140
1.0
102
RTVSPost2010PropOp52
 70
     0
102
RTVSPost2010Prop53
 90
        2
102
RTVSPost2010PropOp53
 70
     1
102
RTVSPost2010Prop54
  1
strokes_ogs.tif
102
RTVSPost2010PropOp54
 70
     1
102
RTVSPost2010Prop55
280
     0
102
RTVSPost2010PropOp55
 70
     1
102
RTVSPost2010Prop56
140
1.0
102
RTVSPost2010PropOp56
 70
     1
102
RTVSPost2010Prop57
140
1.0
102
RTVSPost2010PropOp57
 70
     1
102
RTVSPropertyOp0
 70
     1
102
RTVSPropertyOp1
 70
     1
102
RTVSPropertyOp2
 70
     1
102
RTVSPropertyOp3
 70
     1
102
RTVSPropertyOp4
 70
     1
102
RTVSPropertyOp5
 70
     1
102
RTVSPropertyOp6
 70
     1
102
RTVSPropertyOp7
 70
     1
102
RTVSPropertyOp8
 70
     1
102
RTVSPropertyOp9
 70
     1
102
RTVSPropertyOp10
 70
     1
102
RTVSPropertyOp11
 70
     1
102
RTVSPropertyOp12
 70
     1
102
RTVSPropertyOp13
 70
     1
102
RTVSPropertyOp14
 70
     1
102
RTVSPropertyOp15
 70
     1
102
RTVSPropertyOp16
 70
     1
102
RTVSPropertyOp17
 70
     1
102
RTVSPropertyOp18
 70
     1
102
RTVSPropertyOp19
 70
     1
102
RTVSPropertyOp20
 70
     1
102
RTVSPropertyOp21
 70
     1
102
RTVSPropertyOp22
 70
     1
102
RTVSPropertyOp23
 70
     1
102
RTVSPropertyOp24
 70
     1
102
RTVSPropertyOp25
 70
     1
102
RTVSPropertyOp26
 70
     1
102
RTVSPropertyOp27
 70
     1
102
RTVSPropertyOp28
 70
     1
102
RTVSPropertyOp29
 70
     1
102
RTVSPropertyOp30
 70
     1
102
RTVSPropertyOp31
 70
     1
102
RTVSPropertyOp32
 70
     1
102
RTVSPropertyOp33
 70
     1
102
RTVSPropertyOp34
 70
     1
102
RTVSPropertyOp35
 70
     1
102
RTVSPropertyOp36
 70
     1
102
RTVSPropertyOp37
 70
     1
102
RTVSPropertyOp38
 70
     1
102
RTVSPropertyOp39
 70
     1
102
RTVSPropertyOp40
 70
     1
102
RTVSPropertyOp41
 70
     1
102
RTVSPropertyOp42
 70
     1
102
RTVSPropertyOp43
 70
     1
102
RTVSPropertyOp44
 70
     1
102
RTVSPropertyOp45
 70
     1
102
RTVSPropertyOp46
 70
     1
102
RTVSPropertyOp47
 70
     1
102
RTVSPropertyOp48
 70
     1
102
RTVSPropertyOp49
 70
     1
102
RTVSPropertyOp50
 70
     1
102
RTVSPropertyOp51
 70
     0
102
RTVSPropertyOp52
 70
     0
102
RTVSPropertyOp53
 70
     1
102
RTVSPropertyOp54
 70
     1
102
RTVSPropertyOp55
 70
     1
102
RTVSPropertyOp56
 70
     1
102
RTVSPropertyOp57
 70
     1
102
RTVSPropertyOp58
 70
     1
102
RTVSPropertyOp59
 70
     1
102
RTVSPropertyOp60
 70
     1
102
RTVSPropertyOp61
 70
     1
102
RTVSPropertyOp62
 70
     1
  0
XRECORD
  5
3E9
102
{ACAD_REACTORS
330
3E8
102
}
330
3E8
100
AcDbXrecord
280
     1
102
RTVSPost2010Prop28
280
     0
102
RTVSPost2010PropOp28
 70
     1
102
RTVSPost2010Prop29
280
     1
102
RTVSPost2010PropOp29
 70
     1
102
RTVSPost2010Prop30
280
     1
102
RTVSPost2010PropOp30
 70
     1
102
RTVSPost2010Prop31
280
     0
102
RTVSPost2010PropOp31
 70
     1
102
RTVSPost2010Prop32
280
     0
102
RTVSPost2010PropOp32
 70
     1
102
RTVSPost2010Prop33
280
     0
102
RTVSPost2010PropOp33
 70
     1
102
RTVSPost2010Prop34
280
     0
102
RTVSPost2010PropOp34
 70
     1
102
RTVSPost2010Prop35
280
     0
102
RTVSPost2010PropOp35
 70
     1
102
RTVSPost2010Prop36
280
     0
102
RTVSPost2010PropOp36
 70
     1
102
RTVSPost2010Prop37
 90
       50
102
RTVSPost2010PropOp37
 70
     1
102
RTVSPost2010Prop38
140
0.0
102
RTVSPost2010PropOp38
 70
     1
102
RTVSPost2010Prop39
140
1.0
102
RTVSPost2010PropOp39
 70
     1
102
RTVSPost2010Prop40
 90
        0
102
RTVSPost2010PropOp40
 70
     1
102
RTVSPost2010Prop41ColorIndex
 90
       18
102
RTVSPost2010Prop41ColorRGB
 90
        0
102
RTVSPost2010PropOp41
 70
     1
102
RTVSPost2010Prop42
 90
       50
102
RTVSPost2010PropOp42
 70
     1
102
RTVSPost2010Prop43
 90
        3
102
RTVSPost2010PropOp43
 70
     1
102
RTVSPost2010Prop44ColorIndex
 90
        5
102
RTVSPost2010Prop44ColorRGB
 90
      255
102
RTVSPost2010PropOp44
 70
     1
102
RTVSPost2010Prop45
280
     0
102
RTVSPost2010PropOp45
 70
     1
102
RTVSPost2010Prop46
 90
       50
102
RTVSPost2010PropOp46
 70
     1
102
RTVSPost2010Prop47
 90
       50
102
RTVSPost2010PropOp47
 70
     1
102
RTVSPost2010Prop48
 90
       50
102
RTVSPost2010PropOp48
 70
     1
102
RTVSPost2010Prop49
280
     0
102
RTVSPost2010PropOp49
 70
     1
102
RTVSPost2010Prop50
 90
       50
102
RTVSPost2010PropOp50
 70
     1
102
RTVSPost2010Prop51ColorIndex
 90
      256
102
RTVSPost2010Prop51ColorRGB
 90
-16777216
102
RTVSPost2010PropOp51
 70
     0
102
RTVSPost2010Prop52
140
1.0
102
RTVSPost2010PropOp52
 70
     0
102
RTVSPost2010Prop53
 90
        2
102
RTVSPost2010PropOp53
 70
     1
102
RTVSPost2010Prop54
  1
strokes_ogs.tif
102
RTVSPost2010PropOp54
 70
     1
102
RTVSPost2010Prop55
280
     0
102
RTVSPost2010PropOp55
 70
     1
102
RTVSPost2010Prop56
140
1.0
102
RTVSPost2010PropOp56
 70
     1
102
RTVSPost2010Prop57
140
1.0
102
RTVSPost2010PropOp57
 70
     1
102
RTVSPropertyOp0
 70
     1
102
RTVSPropertyOp1
 70
     1
102
RTVSPropertyOp2
 70
     1
102
RTVSPropertyOp3
 70
     1
102
RTVSPropertyOp4
 70
     1
102
RTVSPropertyOp5
 70
     1
102
RTVSPropertyOp6
 70
     1
102
RTVSPropertyOp7
 70
     1
102
RTVSPropertyOp8
 70
     1
102
RTVSPropertyOp9
 70
     1
102
RTVSPropertyOp10
 70
     1
102
RTVSPropertyOp11
 70
     1
102
RTVSPropertyOp12
 70
     1
102
RTVSPropertyOp13
 70
     1
102
RTVSPropertyOp14
 70
     1
102
RTVSPropertyOp15
 70
     1
102
RTVSPropertyOp16
 70
     1
102
RTVSPropertyOp17
 70
     1
102
RTVSPropertyOp18
 70
     1
102
RTVSPropertyOp19
 70
     1
102
RTVSPropertyOp20
 70
     1
102
RTVSPropertyOp21
 70
     1
102
RTVSPropertyOp22
 70
     1
102
RTVSPropertyOp23
 70
     1
102
RTVSPropertyOp24
 70
     1
102
RTVSPropertyOp25
 70
     1
102
RTVSPropertyOp26
 70
     1
102
RTVSPropertyOp27
 70
     1
102
RTVSPropertyOp28
 70
     1
102
RTVSPropertyOp29
 70
     1
102
RTVSPropertyOp30
 70
     1
102
RTVSPropertyOp31
 70
     1
102
RTVSPropertyOp32
 70
     1
102
RTVSPropertyOp33
 70
     1
102
RTVSPropertyOp34
 70
     1
102
RTVSPropertyOp35
 70
     1
102
RTVSPropertyOp36
 70
     1
102
RTVSPropertyOp37
 70
     1
102
RTVSPropertyOp38
 70
     1
102
RTVSPropertyOp39
 70
     1
102
RTVSPropertyOp40
 70
     1
102
RTVSPropertyOp41
 70
     1
102
RTVSPropertyOp42
 70
     1
102
RTVSPropertyOp43
 70
     1
102
RTVSPropertyOp44
 70
     1
102
RTVSPropertyOp45
 70
     1
102
RTVSPropertyOp46
 70
     1
102
RTVSPropertyOp47
 70
     1
102
RTVSPropertyOp48
 70
     1
102
RTVSPropertyOp49
 70
     1
102
RTVSPropertyOp50
 70
     1
102
RTVSPropertyOp51
 70
     0
102
RTVSPropertyOp52
 70
     0
102
RTVSPropertyOp53
 70
     1
102
RTVSPropertyOp54
 70
     1
102
RTVSPropertyOp55
 70
     1
102
RTVSPropertyOp56
 70
     1
102
RTVSPropertyOp57
 70
     1
102
RTVSPropertyOp58
 70
     1
102
RTVSPropertyOp59
 70
     1
102
RTVSPropertyOp60
 70
     1
102
RTVSPropertyOp61
 70
     1
102
RTVSPropertyOp62
 70
     1
  0
XRECORD
  5
3DB
102
{ACAD_REACTORS
330
3DA
102
}
330
3DA
100
AcDbXrecord
280
     1
102
RTVSPost2010Prop28
280
     0
102
RTVSPost2010PropOp28
 70
     1
102
RTVSPost2010Prop29
280
     1
102
RTVSPost2010PropOp29
 70
     1
102
RTVSPost2010Prop30
280
     1
102
RTVSPost2010PropOp30
 70
     1
102
RTVSPost2010Prop31
280
     0
102
RTVSPost2010PropOp31
 70
     1
102
RTVSPost2010Prop32
280
     0
102
RTVSPost2010PropOp32
 70
     1
102
RTVSPost2010Prop33
280
     0
102
RTVSPost2010PropOp33
 70
     1
102
RTVSPost2010Prop34
280
     0
102
RTVSPost2010PropOp34
 70
     1
102
RTVSPost2010Prop35
280
     0
102
RTVSPost2010PropOp35
 70
     1
102
RTVSPost2010Prop36
280
     0
102
RTVSPost2010PropOp36
 70
     1
102
RTVSPost2010Prop37
 90
       50
102
RTVSPost2010PropOp37
 70
     1
102
RTVSPost2010Prop38
140
0.0
102
RTVSPost2010PropOp38
 70
     1
102
RTVSPost2010Prop39
140
1.0
102
RTVSPost2010PropOp39
 70
     1
102
RTVSPost2010Prop40
 90
        0
102
RTVSPost2010PropOp40
 70
     1
102
RTVSPost2010Prop41ColorIndex
 90
       18
102
RTVSPost2010Prop41ColorRGB
 90
        0
102
RTVSPost2010PropOp41
 70
     1
102
RTVSPost2010Prop42
 90
       50
102
RTVSPost2010PropOp42
 70
     1
102
RTVSPost2010Prop43
 90
        3
102
RTVSPost2010PropOp43
 70
     1
102
RTVSPost2010Prop44ColorIndex
 90
        5
102
RTVSPost2010Prop44ColorRGB
 90
      255
102
RTVSPost2010PropOp44
 70
     1
102
RTVSPost2010Prop45
280
     0
102
RTVSPost2010PropOp45
 70
     1
102
RTVSPost2010Prop46
 90
       50
102
RTVSPost2010PropOp46
 70
     1
102
RTVSPost2010Prop47
 90
       50
102
RTVSPost2010PropOp47
 70
     1
102
RTVSPost2010Prop48
 90
       50
102
RTVSPost2010PropOp48
 70
     1
102
RTVSPost2010Prop49
280
     0
102
RTVSPost2010PropOp49
 70
     1
102
RTVSPost2010Prop50
 90
       50
102
RTVSPost2010PropOp50
 70
     1
102
RTVSPost2010Prop51ColorIndex
 90
      256
102
RTVSPost2010Prop51ColorRGB
 90
-16777216
102
RTVSPost2010PropOp51
 70
     0
102
RTVSPost2010Prop52
140
1.0
102
RTVSPost2010PropOp52
 70
     0
102
RTVSPost2010Prop53
 90
        2
102
RTVSPost2010PropOp53
 70
     1
102
RTVSPost2010Prop54
  1
strokes_ogs.tif
102
RTVSPost2010PropOp54
 70
     1
102
RTVSPost2010Prop55
280
     0
102
RTVSPost2010PropOp55
 70
     1
102
RTVSPost2010Prop56
140
1.0
102
RTVSPost2010PropOp56
 70
     1
102
RTVSPost2010Prop57
140
1.0
102
RTVSPost2010PropOp57
 70
     1
102
RTVSPropertyOp0
 70
     1
102
RTVSPropertyOp1
 70
     1
102
RTVSPropertyOp2
 70
     1
102
RTVSPropertyOp3
 70
     1
102
RTVSPropertyOp4
 70
     1
102
RTVSPropertyOp5
 70
     1
102
RTVSPropertyOp6
 70
     1
102
RTVSPropertyOp7
 70
     1
102
RTVSPropertyOp8
 70
     1
102
RTVSPropertyOp9
 70
     1
102
RTVSPropertyOp10
 70
     1
102
RTVSPropertyOp11
 70
     1
102
RTVSPropertyOp12
 70
     1
102
RTVSPropertyOp13
 70
     1
102
RTVSPropertyOp14
 70
     1
102
RTVSPropertyOp15
 70
     1
102
RTVSPropertyOp16
 70
     1
102
RTVSPropertyOp17
 70
     1
102
RTVSPropertyOp18
 70
     1
102
RTVSPropertyOp19
 70
     1
102
RTVSPropertyOp20
 70
     1
102
RTVSPropertyOp21
 70
     1
102
RTVSPropertyOp22
 70
     1
102
RTVSPropertyOp23
 70
     1
102
RTVSPropertyOp24
 70
     1
102
RTVSPropertyOp25
 70
     1
102
RTVSPropertyOp26
 70
     1
102
RTVSPropertyOp27
 70
     1
102
RTVSPropertyOp28
 70
     1
102
RTVSPropertyOp29
 70
     1
102
RTVSPropertyOp30
 70
     1
102
RTVSPropertyOp31
 70
     1
102
RTVSPropertyOp32
 70
     1
102
RTVSPropertyOp33
 70
     1
102
RTVSPropertyOp34
 70
     1
102
RTVSPropertyOp35
 70
     1
102
RTVSPropertyOp36
 70
     1
102
RTVSPropertyOp37
 70
     1
102
RTVSPropertyOp38
 70
     1
102
RTVSPropertyOp39
 70
     1
102
RTVSPropertyOp40
 70
     1
102
RTVSPropertyOp41
 70
     1
102
RTVSPropertyOp42
 70
     1
102
RTVSPropertyOp43
 70
     1
102
RTVSPropertyOp44
 70
     1
102
RTVSPropertyOp45
 70
     1
102
RTVSPropertyOp46
 70
     1
102
RTVSPropertyOp47
 70
     1
102
RTVSPropertyOp48
 70
     1
102
RTVSPropertyOp49
 70
     1
102
RTVSPropertyOp50
 70
     1
102
RTVSPropertyOp51
 70
     0
102
RTVSPropertyOp52
 70
     0
102
RTVSPropertyOp53
 70
     1
102
RTVSPropertyOp54
 70
     1
102
RTVSPropertyOp55
 70
     1
102
RTVSPropertyOp56
 70
     1
102
RTVSPropertyOp57
 70
     1
102
RTVSPropertyOp58
 70
     1
102
RTVSPropertyOp59
 70
     1
102
RTVSPropertyOp60
 70
     1
102
RTVSPropertyOp61
 70
     1
102
RTVSPropertyOp62
 70
     1
  0
XRECORD
  5
3DF
102
{ACAD_REACTORS
330
3DE
102
}
330
3DE
100
AcDbXrecord
280
     1
102
RTVSPost2010Prop28
280
     0
102
RTVSPost2010PropOp28
 70
     1
102
RTVSPost2010Prop29
280
     1
102
RTVSPost2010PropOp29
 70
     1
102
RTVSPost2010Prop30
280
     1
102
RTVSPost2010PropOp30
 70
     1
102
RTVSPost2010Prop31
280
     0
102
RTVSPost2010PropOp31
 70
     1
102
RTVSPost2010Prop32
280
     0
102
RTVSPost2010PropOp32
 70
     1
102
RTVSPost2010Prop33
280
     0
102
RTVSPost2010PropOp33
 70
     1
102
RTVSPost2010Prop34
280
     0
102
RTVSPost2010PropOp34
 70
     1
102
RTVSPost2010Prop35
280
     0
102
RTVSPost2010PropOp35
 70
     1
102
RTVSPost2010Prop36
280
     0
102
RTVSPost2010PropOp36
 70
     1
102
RTVSPost2010Prop37
 90
       50
102
RTVSPost2010PropOp37
 70
     1
102
RTVSPost2010Prop38
140
0.0
102
RTVSPost2010PropOp38
 70
     1
102
RTVSPost2010Prop39
140
1.0
102
RTVSPost2010PropOp39
 70
     1
102
RTVSPost2010Prop40
 90
        0
102
RTVSPost2010PropOp40
 70
     1
102
RTVSPost2010Prop41ColorIndex
 90
       18
102
RTVSPost2010Prop41ColorRGB
 90
        0
102
RTVSPost2010PropOp41
 70
     1
102
RTVSPost2010Prop42
 90
       50
102
RTVSPost2010PropOp42
 70
     1
102
RTVSPost2010Prop43
 90
        3
102
RTVSPost2010PropOp43
 70
     1
102
RTVSPost2010Prop44ColorIndex
 90
        5
102
RTVSPost2010Prop44ColorRGB
 90
      255
102
RTVSPost2010PropOp44
 70
     1
102
RTVSPost2010Prop45
280
     0
102
RTVSPost2010PropOp45
 70
     1
102
RTVSPost2010Prop46
 90
       50
102
RTVSPost2010PropOp46
 70
     1
102
RTVSPost2010Prop47
 90
       50
102
RTVSPost2010PropOp47
 70
     1
102
RTVSPost2010Prop48
 90
       50
102
RTVSPost2010PropOp48
 70
     1
102
RTVSPost2010Prop49
280
     0
102
RTVSPost2010PropOp49
 70
     1
102
RTVSPost2010Prop50
 90
       50
102
RTVSPost2010PropOp50
 70
     1
102
RTVSPost2010Prop51ColorIndex
 90
      256
102
RTVSPost2010Prop51ColorRGB
 90
-16777216
102
RTVSPost2010PropOp51
 70
     0
102
RTVSPost2010Prop52
140
1.0
102
RTVSPost2010PropOp52
 70
     0
102
RTVSPost2010Prop53
 90
        2
102
RTVSPost2010PropOp53
 70
     1
102
RTVSPost2010Prop54
  1
strokes_ogs.tif
102
RTVSPost2010PropOp54
 70
     1
102
RTVSPost2010Prop55
280
     0
102
RTVSPost2010PropOp55
 70
     1
102
RTVSPost2010Prop56
140
1.0
102
RTVSPost2010PropOp56
 70
     1
102
RTVSPost2010Prop57
140
1.0
102
RTVSPost2010PropOp57
 70
     1
102
RTVSPropertyOp0
 70
     1
102
RTVSPropertyOp1
 70
     1
102
RTVSPropertyOp2
 70
     1
102
RTVSPropertyOp3
 70
     1
102
RTVSPropertyOp4
 70
     1
102
RTVSPropertyOp5
 70
     1
102
RTVSPropertyOp6
 70
     1
102
RTVSPropertyOp7
 70
     1
102
RTVSPropertyOp8
 70
     1
102
RTVSPropertyOp9
 70
     1
102
RTVSPropertyOp10
 70
     1
102
RTVSPropertyOp11
 70
     1
102
RTVSPropertyOp12
 70
     1
102
RTVSPropertyOp13
 70
     1
102
RTVSPropertyOp14
 70
     1
102
RTVSPropertyOp15
 70
     1
102
RTVSPropertyOp16
 70
     1
102
RTVSPropertyOp17
 70
     1
102
RTVSPropertyOp18
 70
     1
102
RTVSPropertyOp19
 70
     1
102
RTVSPropertyOp20
 70
     1
102
RTVSPropertyOp21
 70
     1
102
RTVSPropertyOp22
 70
     1
102
RTVSPropertyOp23
 70
     1
102
RTVSPropertyOp24
 70
     1
102
RTVSPropertyOp25
 70
     1
102
RTVSPropertyOp26
 70
     1
102
RTVSPropertyOp27
 70
     1
102
RTVSPropertyOp28
 70
     1
102
RTVSPropertyOp29
 70
     1
102
RTVSPropertyOp30
 70
     1
102
RTVSPropertyOp31
 70
     1
102
RTVSPropertyOp32
 70
     1
102
RTVSPropertyOp33
 70
     1
102
RTVSPropertyOp34
 70
     1
102
RTVSPropertyOp35
 70
     1
102
RTVSPropertyOp36
 70
     1
102
RTVSPropertyOp37
 70
     1
102
RTVSPropertyOp38
 70
     1
102
RTVSPropertyOp39
 70
     1
102
RTVSPropertyOp40
 70
     1
102
RTVSPropertyOp41
 70
     1
102
RTVSPropertyOp42
 70
     1
102
RTVSPropertyOp43
 70
     1
102
RTVSPropertyOp44
 70
     1
102
RTVSPropertyOp45
 70
     1
102
RTVSPropertyOp46
 70
     1
102
RTVSPropertyOp47
 70
     1
102
RTVSPropertyOp48
 70
     1
102
RTVSPropertyOp49
 70
     1
102
RTVSPropertyOp50
 70
     1
102
RTVSPropertyOp51
 70
     0
102
RTVSPropertyOp52
 70
     0
102
RTVSPropertyOp53
 70
     1
102
RTVSPropertyOp54
 70
     1
102
RTVSPropertyOp55
 70
     1
102
RTVSPropertyOp56
 70
     1
102
RTVSPropertyOp57
 70
     1
102
RTVSPropertyOp58
 70
     1
102
RTVSPropertyOp59
 70
     1
102
RTVSPropertyOp60
 70
     1
102
RTVSPropertyOp61
 70
     1
102
RTVSPropertyOp62
 70
     1
  0
XRECORD
  5
3F9
102
{ACAD_REACTORS
330
3F8
102
}
330
3F8
100
AcDbXrecord
280
     1
102
RTVSPost2010Prop28
280
     0
102
RTVSPost2010PropOp28
 70
     1
102
RTVSPost2010Prop29
280
     1
102
RTVSPost2010PropOp29
 70
     1
102
RTVSPost2010Prop30
280
     1
102
RTVSPost2010PropOp30
 70
     1
102
RTVSPost2010Prop31
280
     0
102
RTVSPost2010PropOp31
 70
     1
102
RTVSPost2010Prop32
280
     0
102
RTVSPost2010PropOp32
 70
     1
102
RTVSPost2010Prop33
280
     0
102
RTVSPost2010PropOp33
 70
     1
102
RTVSPost2010Prop34
280
     0
102
RTVSPost2010PropOp34
 70
     1
102
RTVSPost2010Prop35
280
     0
102
RTVSPost2010PropOp35
 70
     1
102
RTVSPost2010Prop36
280
     0
102
RTVSPost2010PropOp36
 70
     1
102
RTVSPost2010Prop37
 90
       50
102
RTVSPost2010PropOp37
 70
     0
102
RTVSPost2010Prop38
140
0.0
102
RTVSPost2010PropOp38
 70
     0
102
RTVSPost2010Prop39
140
1.0
102
RTVSPost2010PropOp39
 70
     0
102
RTVSPost2010Prop40
 90
        0
102
RTVSPost2010PropOp40
 70
     0
102
RTVSPost2010Prop41ColorIndex
 90
       18
102
RTVSPost2010Prop41ColorRGB
 90
        0
102
RTVSPost2010PropOp41
 70
     0
102
RTVSPost2010Prop42
 90
       50
102
RTVSPost2010PropOp42
 70
     0
102
RTVSPost2010Prop43
 90
        3
102
RTVSPost2010PropOp43
 70
     0
102
RTVSPost2010Prop44ColorIndex
 90
        5
102
RTVSPost2010Prop44ColorRGB
 90
      255
102
RTVSPost2010PropOp44
 70
     0
102
RTVSPost2010Prop45
280
     0
102
RTVSPost2010PropOp45
 70
     1
102
RTVSPost2010Prop46
 90
       50
102
RTVSPost2010PropOp46
 70
     0
102
RTVSPost2010Prop47
 90
       50
102
RTVSPost2010PropOp47
 70
     0
102
RTVSPost2010Prop48
 90
       50
102
RTVSPost2010PropOp48
 70
     0
102
RTVSPost2010Prop49
280
     0
102
RTVSPost2010PropOp49
 70
     1
102
RTVSPost2010Prop50
 90
       50
102
RTVSPost2010PropOp50
 70
     0
102
RTVSPost2010Prop51ColorIndex
 90
      256
102
RTVSPost2010Prop51ColorRGB
 90
-16777216
102
RTVSPost2010PropOp51
 70
     0
102
RTVSPost2010Prop52
140
1.0
102
RTVSPost2010PropOp52
 70
     0
102
RTVSPost2010Prop53
 90
        2
102
RTVSPost2010PropOp53
 70
     0
102
RTVSPost2010Prop54
  1
strokes_ogs.tif
102
RTVSPost2010PropOp54
 70
     0
102
RTVSPost2010Prop55
280
     0
102
RTVSPost2010PropOp55
 70
     1
102
RTVSPost2010Prop56
140
1.0
102
RTVSPost2010PropOp56
 70
     0
102
RTVSPost2010Prop57
140
1.0
102
RTVSPost2010PropOp57
 70
     0
102
RTVSPropertyOp0
 70
     0
102
RTVSPropertyOp1
 70
     0
102
RTVSPropertyOp2
 70
     0
102
RTVSPropertyOp3
 70
     0
102
RTVSPropertyOp4
 70
     0
102
RTVSPropertyOp5
 70
     0
102
RTVSPropertyOp6
 70
     0
102
RTVSPropertyOp7
 70
     0
102
RTVSPropertyOp8
 70
     0
102
RTVSPropertyOp9
 70
     0
102
RTVSPropertyOp10
 70
     0
102
RTVSPropertyOp11
 70
     0
102
RTVSPropertyOp12
 70
     0
102
RTVSPropertyOp13
 70
     0
102
RTVSPropertyOp14
 70
     2
102
RTVSPropertyOp15
 70
     0
102
RTVSPropertyOp16
 70
     0
102
RTVSPropertyOp17
 70
     0
102
RTVSPropertyOp18
 70
     0
102
RTVSPropertyOp19
 70
     0
102
RTVSPropertyOp20
 70
     0
102
RTVSPropertyOp21
 70
     0
102
RTVSPropertyOp22
 70
     0
102
RTVSPropertyOp23
 70
     0
102
RTVSPropertyOp24
 70
     0
102
RTVSPropertyOp25
 70
     0
102
RTVSPropertyOp26
 70
     0
102
RTVSPropertyOp27
 70
     0
102
RTVSPropertyOp28
 70
     1
102
RTVSPropertyOp29
 70
     1
102
RTVSPropertyOp30
 70
     1
102
RTVSPropertyOp31
 70
     1
102
RTVSPropertyOp32
 70
     1
102
RTVSPropertyOp33
 70
     1
102
RTVSPropertyOp34
 70
     1
102
RTVSPropertyOp35
 70
     1
102
RTVSPropertyOp36
 70
     1
102
RTVSPropertyOp37
 70
     0
102
RTVSPropertyOp38
 70
     0
102
RTVSPropertyOp39
 70
     0
102
RTVSPropertyOp40
 70
     0
102
RTVSPropertyOp41
 70
     0
102
RTVSPropertyOp42
 70
     0
102
RTVSPropertyOp43
 70
     0
102
RTVSPropertyOp44
 70
     0
102
RTVSPropertyOp45
 70
     1
102
RTVSPropertyOp46
 70
     0
102
RTVSPropertyOp47
 70
     0
102
RTVSPropertyOp48
 70
     0
102
RTVSPropertyOp49
 70
     1
102
RTVSPropertyOp50
 70
     0
102
RTVSPropertyOp51
 70
     0
102
RTVSPropertyOp52
 70
     0
102
RTVSPropertyOp53
 70
     0
102
RTVSPropertyOp54
 70
     0
102
RTVSPropertyOp55
 70
     1
102
RTVSPropertyOp56
 70
     0
102
RTVSPropertyOp57
 70
     0
102
RTVSPropertyOp58
 70
     0
102
RTVSPropertyOp59
 70
     0
102
RTVSPropertyOp60
 70
     0
102
RTVSPropertyOp61
 70
     0
102
RTVSPropertyOp62
 70
     0
  0
XRECORD
  5
3E7
102
{ACAD_REACTORS
330
3E6
102
}
330
3E6
100
AcDbXrecord
280
     1
102
RTVSPost2010Prop28
280
     0
102
RTVSPost2010PropOp28
 70
     1
102
RTVSPost2010Prop29
280
     1
102
RTVSPost2010PropOp29
 70
     1
102
RTVSPost2010Prop30
280
     1
102
RTVSPost2010PropOp30
 70
     1
102
RTVSPost2010Prop31
280
     0
102
RTVSPost2010PropOp31
 70
     1
102
RTVSPost2010Prop32
280
     0
102
RTVSPost2010PropOp32
 70
     1
102
RTVSPost2010Prop33
280
     0
102
RTVSPost2010PropOp33
 70
     1
102
RTVSPost2010Prop34
280
     0
102
RTVSPost2010PropOp34
 70
     1
102
RTVSPost2010Prop35
280
     0
102
RTVSPost2010PropOp35
 70
     1
102
RTVSPost2010Prop36
280
     0
102
RTVSPost2010PropOp36
 70
     1
102
RTVSPost2010Prop37
 90
       50
102
RTVSPost2010PropOp37
 70
     1
102
RTVSPost2010Prop38
140
0.0
102
RTVSPost2010PropOp38
 70
     1
102
RTVSPost2010Prop39
140
1.0
102
RTVSPost2010PropOp39
 70
     1
102
RTVSPost2010Prop40
 90
        0
102
RTVSPost2010PropOp40
 70
     1
102
RTVSPost2010Prop41ColorIndex
 90
       18
102
RTVSPost2010Prop41ColorRGB
 90
        0
102
RTVSPost2010PropOp41
 70
     1
102
RTVSPost2010Prop42
 90
       50
102
RTVSPost2010PropOp42
 70
     1
102
RTVSPost2010Prop43
 90
        3
102
RTVSPost2010PropOp43
 70
     1
102
RTVSPost2010Prop44ColorIndex
 90
        5
102
RTVSPost2010Prop44ColorRGB
 90
      255
102
RTVSPost2010PropOp44
 70
     1
102
RTVSPost2010Prop45
280
     0
102
RTVSPost2010PropOp45
 70
     1
102
RTVSPost2010Prop46
 90
       50
102
RTVSPost2010PropOp46
 70
     1
102
RTVSPost2010Prop47
 90
       50
102
RTVSPost2010PropOp47
 70
     1
102
RTVSPost2010Prop48
 90
       50
102
RTVSPost2010PropOp48
 70
     1
102
RTVSPost2010Prop49
280
     0
102
RTVSPost2010PropOp49
 70
     1
102
RTVSPost2010Prop50
 90
       50
102
RTVSPost2010PropOp50
 70
     1
102
RTVSPost2010Prop51ColorIndex
 90
      256
102
RTVSPost2010Prop51ColorRGB
 90
-16777216
102
RTVSPost2010PropOp51
 70
     0
102
RTVSPost2010Prop52
140
1.0
102
RTVSPost2010PropOp52
 70
     0
102
RTVSPost2010Prop53
 90
        2
102
RTVSPost2010PropOp53
 70
     1
102
RTVSPost2010Prop54
  1
strokes_ogs.tif
102
RTVSPost2010PropOp54
 70
     1
102
RTVSPost2010Prop55
280
     0
102
RTVSPost2010PropOp55
 70
     1
102
RTVSPost2010Prop56
140
1.0
102
RTVSPost2010PropOp56
 70
     1
102
RTVSPost2010Prop57
140
1.0
102
RTVSPost2010PropOp57
 70
     1
102
RTVSPropertyOp0
 70
     1
102
RTVSPropertyOp1
 70
     1
102
RTVSPropertyOp2
 70
     1
102
RTVSPropertyOp3
 70
     1
102
RTVSPropertyOp4
 70
     1
102
RTVSPropertyOp5
 70
     1
102
RTVSPropertyOp6
 70
     1
102
RTVSPropertyOp7
 70
     1
102
RTVSPropertyOp8
 70
     1
102
RTVSPropertyOp9
 70
     1
102
RTVSPropertyOp10
 70
     1
102
RTVSPropertyOp11
 70
     1
102
RTVSPropertyOp12
 70
     1
102
RTVSPropertyOp13
 70
     1
102
RTVSPropertyOp14
 70
     1
102
RTVSPropertyOp15
 70
     1
102
RTVSPropertyOp16
 70
     1
102
RTVSPropertyOp17
 70
     1
102
RTVSPropertyOp18
 70
     1
102
RTVSPropertyOp19
 70
     1
102
RTVSPropertyOp20
 70
     1
102
RTVSPropertyOp21
 70
     1
102
RTVSPropertyOp22
 70
     1
102
RTVSPropertyOp23
 70
     1
102
RTVSPropertyOp24
 70
     1
102
RTVSPropertyOp25
 70
     1
102
RTVSPropertyOp26
 70
     1
102
RTVSPropertyOp27
 70
     1
102
RTVSPropertyOp28
 70
     1
102
RTVSPropertyOp29
 70
     1
102
RTVSPropertyOp30
 70
     1
102
RTVSPropertyOp31
 70
     1
102
RTVSPropertyOp32
 70
     1
102
RTVSPropertyOp33
 70
     1
102
RTVSPropertyOp34
 70
     1
102
RTVSPropertyOp35
 70
     1
102
RTVSPropertyOp36
 70
     1
102
RTVSPropertyOp37
 70
     1
102
RTVSPropertyOp38
 70
     1
102
RTVSPropertyOp39
 70
     1
102
RTVSPropertyOp40
 70
     1
102
RTVSPropertyOp41
 70
     1
102
RTVSPropertyOp42
 70
     1
102
RTVSPropertyOp43
 70
     1
102
RTVSPropertyOp44
 70
     1
102
RTVSPropertyOp45
 70
     1
102
RTVSPropertyOp46
 70
     1
102
RTVSPropertyOp47
 70
     1
102
RTVSPropertyOp48
 70
     1
102
RTVSPropertyOp49
 70
     1
102
RTVSPropertyOp50
 70
     1
102
RTVSPropertyOp51
 70
     0
102
RTVSPropertyOp52
 70
     0
102
RTVSPropertyOp53
 70
     1
102
RTVSPropertyOp54
 70
     1
102
RTVSPropertyOp55
 70
     1
102
RTVSPropertyOp56
 70
     1
102
RTVSPropertyOp57
 70
     1
102
RTVSPropertyOp58
 70
     1
102
RTVSPropertyOp59
 70
     1
102
RTVSPropertyOp60
 70
     1
102
RTVSPropertyOp61
 70
     1
102
RTVSPropertyOp62
 70
     1
  0
XRECORD
  5
3CB
102
{ACAD_REACTORS
330
3CA
102
}
330
3CA
100
AcDbXrecord
280
     1
102
RTVSPost2010Prop28
280
     0
102
RTVSPost2010PropOp28
 70
     1
102
RTVSPost2010Prop29
280
     1
102
RTVSPost2010PropOp29
 70
     1
102
RTVSPost2010Prop30
280
     1
102
RTVSPost2010PropOp30
 70
     1
102
RTVSPost2010Prop31
280
     0
102
RTVSPost2010PropOp31
 70
     1
102
RTVSPost2010Prop32
280
     0
102
RTVSPost2010PropOp32
 70
     1
102
RTVSPost2010Prop33
280
     0
102
RTVSPost2010PropOp33
 70
     1
102
RTVSPost2010Prop34
280
     0
102
RTVSPost2010PropOp34
 70
     1
102
RTVSPost2010Prop35
280
     0
102
RTVSPost2010PropOp35
 70
     1
102
RTVSPost2010Prop36
280
     0
102
RTVSPost2010PropOp36
 70
     1
102
RTVSPost2010Prop37
 90
       50
102
RTVSPost2010PropOp37
 70
     1
102
RTVSPost2010Prop38
140
0.0
102
RTVSPost2010PropOp38
 70
     1
102
RTVSPost2010Prop39
140
1.0
102
RTVSPost2010PropOp39
 70
     1
102
RTVSPost2010Prop40
 90
        0
102
RTVSPost2010PropOp40
 70
     1
102
RTVSPost2010Prop41ColorIndex
 90
       18
102
RTVSPost2010Prop41ColorRGB
 90
        0
102
RTVSPost2010PropOp41
 70
     1
102
RTVSPost2010Prop42
 90
       50
102
RTVSPost2010PropOp42
 70
     1
102
RTVSPost2010Prop43
 90
        3
102
RTVSPost2010PropOp43
 70
     1
102
RTVSPost2010Prop44ColorIndex
 90
        5
102
RTVSPost2010Prop44ColorRGB
 90
      255
102
RTVSPost2010PropOp44
 70
     1
102
RTVSPost2010Prop45
280
     0
102
RTVSPost2010PropOp45
 70
     1
102
RTVSPost2010Prop46
 90
       50
102
RTVSPost2010PropOp46
 70
     1
102
RTVSPost2010Prop47
 90
       50
102
RTVSPost2010PropOp47
 70
     1
102
RTVSPost2010Prop48
 90
       50
102
RTVSPost2010PropOp48
 70
     1
102
RTVSPost2010Prop49
280
     0
102
RTVSPost2010PropOp49
 70
     1
102
RTVSPost2010Prop50
 90
       50
102
RTVSPost2010PropOp50
 70
     1
102
RTVSPost2010Prop51ColorIndex
 90
      256
102
RTVSPost2010Prop51ColorRGB
 90
-16777216
102
RTVSPost2010PropOp51
 70
     0
102
RTVSPost2010Prop52
140
1.0
102
RTVSPost2010PropOp52
 70
     0
102
RTVSPost2010Prop53
 90
        2
102
RTVSPost2010PropOp53
 70
     1
102
RTVSPost2010Prop54
  1
strokes_ogs.tif
102
RTVSPost2010PropOp54
 70
     1
102
RTVSPost2010Prop55
280
     0
102
RTVSPost2010PropOp55
 70
     1
102
RTVSPost2010Prop56
140
1.0
102
RTVSPost2010PropOp56
 70
     1
102
RTVSPost2010Prop57
140
1.0
102
RTVSPost2010PropOp57
 70
     1
102
RTVSPropertyOp0
 70
     1
102
RTVSPropertyOp1
 70
     1
102
RTVSPropertyOp2
 70
     1
102
RTVSPropertyOp3
 70
     1
102
RTVSPropertyOp4
 70
     1
102
RTVSPropertyOp5
 70
     1
102
RTVSPropertyOp6
 70
     1
102
RTVSPropertyOp7
 70
     1
102
RTVSPropertyOp8
 70
     1
102
RTVSPropertyOp9
 70
     1
102
RTVSPropertyOp10
 70
     1
102
RTVSPropertyOp11
 70
     1
102
RTVSPropertyOp12
 70
     1
102
RTVSPropertyOp13
 70
     1
102
RTVSPropertyOp14
 70
     1
102
RTVSPropertyOp15
 70
     1
102
RTVSPropertyOp16
 70
     1
102
RTVSPropertyOp17
 70
     1
102
RTVSPropertyOp18
 70
     1
102
RTVSPropertyOp19
 70
     1
102
RTVSPropertyOp20
 70
     1
102
RTVSPropertyOp21
 70
     1
102
RTVSPropertyOp22
 70
     1
102
RTVSPropertyOp23
 70
     1
102
RTVSPropertyOp24
 70
     1
102
RTVSPropertyOp25
 70
     1
102
RTVSPropertyOp26
 70
     1
102
RTVSPropertyOp27
 70
     1
102
RTVSPropertyOp28
 70
     1
102
RTVSPropertyOp29
 70
     1
102
RTVSPropertyOp30
 70
     1
102
RTVSPropertyOp31
 70
     1
102
RTVSPropertyOp32
 70
     1
102
RTVSPropertyOp33
 70
     1
102
RTVSPropertyOp34
 70
     1
102
RTVSPropertyOp35
 70
     1
102
RTVSPropertyOp36
 70
     1
102
RTVSPropertyOp37
 70
     1
102
RTVSPropertyOp38
 70
     1
102
RTVSPropertyOp39
 70
     1
102
RTVSPropertyOp40
 70
     1
102
RTVSPropertyOp41
 70
     1
102
RTVSPropertyOp42
 70
     1
102
RTVSPropertyOp43
 70
     1
102
RTVSPropertyOp44
 70
     1
102
RTVSPropertyOp45
 70
     1
102
RTVSPropertyOp46
 70
     1
102
RTVSPropertyOp47
 70
     1
102
RTVSPropertyOp48
 70
     1
102
RTVSPropertyOp49
 70
     1
102
RTVSPropertyOp50
 70
     1
102
RTVSPropertyOp51
 70
     0
102
RTVSPropertyOp52
 70
     0
102
RTVSPropertyOp53
 70
     1
102
RTVSPropertyOp54
 70
     1
102
RTVSPropertyOp55
 70
     1
102
RTVSPropertyOp56
 70
     1
102
RTVSPropertyOp57
 70
     1
102
RTVSPropertyOp58
 70
     1
102
RTVSPropertyOp59
 70
     1
102
RTVSPropertyOp60
 70
     1
102
RTVSPropertyOp61
 70
     1
102
RTVSPropertyOp62
 70
     1
  0
XRECORD
  5
3CD
102
{ACAD_REACTORS
330
3CC
102
}
330
3CC
100
AcDbXrecord
280
     1
102
RTVSPost2010Prop28
280
     0
102
RTVSPost2010PropOp28
 70
     1
102
RTVSPost2010Prop29
280
     1
102
RTVSPost2010PropOp29
 70
     1
102
RTVSPost2010Prop30
280
     1
102
RTVSPost2010PropOp30
 70
     1
102
RTVSPost2010Prop31
280
     0
102
RTVSPost2010PropOp31
 70
     1
102
RTVSPost2010Prop32
280
     0
102
RTVSPost2010PropOp32
 70
     1
102
RTVSPost2010Prop33
280
     0
102
RTVSPost2010PropOp33
 70
     1
102
RTVSPost2010Prop34
280
     0
102
RTVSPost2010PropOp34
 70
     1
102
RTVSPost2010Prop35
280
     0
102
RTVSPost2010PropOp35
 70
     1
102
RTVSPost2010Prop36
280
     0
102
RTVSPost2010PropOp36
 70
     1
102
RTVSPost2010Prop37
 90
       50
102
RTVSPost2010PropOp37
 70
     1
102
RTVSPost2010Prop38
140
0.0
102
RTVSPost2010PropOp38
 70
     1
102
RTVSPost2010Prop39
140
1.0
102
RTVSPost2010PropOp39
 70
     1
102
RTVSPost2010Prop40
 90
        0
102
RTVSPost2010PropOp40
 70
     1
102
RTVSPost2010Prop41ColorIndex
 90
       18
102
RTVSPost2010Prop41ColorRGB
 90
        0
102
RTVSPost2010PropOp41
 70
     1
102
RTVSPost2010Prop42
 90
       50
102
RTVSPost2010PropOp42
 70
     1
102
RTVSPost2010Prop43
 90
        3
102
RTVSPost2010PropOp43
 70
     1
102
RTVSPost2010Prop44ColorIndex
 90
        5
102
RTVSPost2010Prop44ColorRGB
 90
      255
102
RTVSPost2010PropOp44
 70
     1
102
RTVSPost2010Prop45
280
     0
102
RTVSPost2010PropOp45
 70
     1
102
RTVSPost2010Prop46
 90
       50
102
RTVSPost2010PropOp46
 70
     1
102
RTVSPost2010Prop47
 90
       50
102
RTVSPost2010PropOp47
 70
     1
102
RTVSPost2010Prop48
 90
       50
102
RTVSPost2010PropOp48
 70
     1
102
RTVSPost2010Prop49
280
     0
102
RTVSPost2010PropOp49
 70
     1
102
RTVSPost2010Prop50
 90
       50
102
RTVSPost2010PropOp50
 70
     1
102
RTVSPost2010Prop51ColorIndex
 90
      256
102
RTVSPost2010Prop51ColorRGB
 90
-16777216
102
RTVSPost2010PropOp51
 70
     0
102
RTVSPost2010Prop52
140
1.0
102
RTVSPost2010PropOp52
 70
     0
102
RTVSPost2010Prop53
 90
        2
102
RTVSPost2010PropOp53
 70
     1
102
RTVSPost2010Prop54
  1
strokes_ogs.tif
102
RTVSPost2010PropOp54
 70
     1
102
RTVSPost2010Prop55
280
     0
102
RTVSPost2010PropOp55
 70
     1
102
RTVSPost2010Prop56
140
1.0
102
RTVSPost2010PropOp56
 70
     1
102
RTVSPost2010Prop57
140
1.0
102
RTVSPost2010PropOp57
 70
     1
102
RTVSPropertyOp0
 70
     1
102
RTVSPropertyOp1
 70
     1
102
RTVSPropertyOp2
 70
     1
102
RTVSPropertyOp3
 70
     1
102
RTVSPropertyOp4
 70
     1
102
RTVSPropertyOp5
 70
     1
102
RTVSPropertyOp6
 70
     1
102
RTVSPropertyOp7
 70
     1
102
RTVSPropertyOp8
 70
     1
102
RTVSPropertyOp9
 70
     1
102
RTVSPropertyOp10
 70
     1
102
RTVSPropertyOp11
 70
     1
102
RTVSPropertyOp12
 70
     1
102
RTVSPropertyOp13
 70
     1
102
RTVSPropertyOp14
 70
     1
102
RTVSPropertyOp15
 70
     1
102
RTVSPropertyOp16
 70
     1
102
RTVSPropertyOp17
 70
     1
102
RTVSPropertyOp18
 70
     1
102
RTVSPropertyOp19
 70
     1
102
RTVSPropertyOp20
 70
     1
102
RTVSPropertyOp21
 70
     1
102
RTVSPropertyOp22
 70
     1
102
RTVSPropertyOp23
 70
     1
102
RTVSPropertyOp24
 70
     1
102
RTVSPropertyOp25
 70
     1
102
RTVSPropertyOp26
 70
     1
102
RTVSPropertyOp27
 70
     1
102
RTVSPropertyOp28
 70
     1
102
RTVSPropertyOp29
 70
     1
102
RTVSPropertyOp30
 70
     1
102
RTVSPropertyOp31
 70
     1
102
RTVSPropertyOp32
 70
     1
102
RTVSPropertyOp33
 70
     1
102
RTVSPropertyOp34
 70
     1
102
RTVSPropertyOp35
 70
     1
102
RTVSPropertyOp36
 70
     1
102
RTVSPropertyOp37
 70
     1
102
RTVSPropertyOp38
 70
     1
102
RTVSPropertyOp39
 70
     1
102
RTVSPropertyOp40
 70
     1
102
RTVSPropertyOp41
 70
     1
102
RTVSPropertyOp42
 70
     1
102
RTVSPropertyOp43
 70
     1
102
RTVSPropertyOp44
 70
     1
102
RTVSPropertyOp45
 70
     1
102
RTVSPropertyOp46
 70
     1
102
RTVSPropertyOp47
 70
     1
102
RTVSPropertyOp48
 70
     1
102
RTVSPropertyOp49
 70
     1
102
RTVSPropertyOp50
 70
     1
102
RTVSPropertyOp51
 70
     0
102
RTVSPropertyOp52
 70
     0
102
RTVSPropertyOp53
 70
     1
102
RTVSPropertyOp54
 70
     1
102
RTVSPropertyOp55
 70
     1
102
RTVSPropertyOp56
 70
     1
102
RTVSPropertyOp57
 70
     1
102
RTVSPropertyOp58
 70
     1
102
RTVSPropertyOp59
 70
     1
102
RTVSPropertyOp60
 70
     1
102
RTVSPropertyOp61
 70
     1
102
RTVSPropertyOp62
 70
     1
  0
XRECORD
  5
3CF
102
{ACAD_REACTORS
330
3CE
102
}
330
3CE
100
AcDbXrecord
280
     1
102
RTVSPost2010Prop28
280
     0
102
RTVSPost2010PropOp28
 70
     1
102
RTVSPost2010Prop29
280
     1
102
RTVSPost2010PropOp29
 70
     1
102
RTVSPost2010Prop30
280
     1
102
RTVSPost2010PropOp30
 70
     1
102
RTVSPost2010Prop31
280
     0
102
RTVSPost2010PropOp31
 70
     1
102
RTVSPost2010Prop32
280
     0
102
RTVSPost2010PropOp32
 70
     1
102
RTVSPost2010Prop33
280
     0
102
RTVSPost2010PropOp33
 70
     1
102
RTVSPost2010Prop34
280
     0
102
RTVSPost2010PropOp34
 70
     1
102
RTVSPost2010Prop35
280
     0
102
RTVSPost2010PropOp35
 70
     1
102
RTVSPost2010Prop36
280
     0
102
RTVSPost2010PropOp36
 70
     1
102
RTVSPost2010Prop37
 90
       50
102
RTVSPost2010PropOp37
 70
     1
102
RTVSPost2010Prop38
140
0.0
102
RTVSPost2010PropOp38
 70
     1
102
RTVSPost2010Prop39
140
1.0
102
RTVSPost2010PropOp39
 70
     1
102
RTVSPost2010Prop40
 90
        0
102
RTVSPost2010PropOp40
 70
     1
102
RTVSPost2010Prop41ColorIndex
 90
       18
102
RTVSPost2010Prop41ColorRGB
 90
        0
102
RTVSPost2010PropOp41
 70
     1
102
RTVSPost2010Prop42
 90
       50
102
RTVSPost2010PropOp42
 70
     1
102
RTVSPost2010Prop43
 90
        3
102
RTVSPost2010PropOp43
 70
     1
102
RTVSPost2010Prop44ColorIndex
 90
        5
102
RTVSPost2010Prop44ColorRGB
 90
      255
102
RTVSPost2010PropOp44
 70
     1
102
RTVSPost2010Prop45
280
     0
102
RTVSPost2010PropOp45
 70
     1
102
RTVSPost2010Prop46
 90
       50
102
RTVSPost2010PropOp46
 70
     1
102
RTVSPost2010Prop47
 90
       50
102
RTVSPost2010PropOp47
 70
     1
102
RTVSPost2010Prop48
 90
       50
102
RTVSPost2010PropOp48
 70
     1
102
RTVSPost2010Prop49
280
     0
102
RTVSPost2010PropOp49
 70
     1
102
RTVSPost2010Prop50
 90
       50
102
RTVSPost2010PropOp50
 70
     1
102
RTVSPost2010Prop51ColorIndex
 90
      256
102
RTVSPost2010Prop51ColorRGB
 90
-16777216
102
RTVSPost2010PropOp51
 70
     0
102
RTVSPost2010Prop52
140
1.0
102
RTVSPost2010PropOp52
 70
     0
102
RTVSPost2010Prop53
 90
        2
102
RTVSPost2010PropOp53
 70
     1
102
RTVSPost2010Prop54
  1
strokes_ogs.tif
102
RTVSPost2010PropOp54
 70
     1
102
RTVSPost2010Prop55
280
     0
102
RTVSPost2010PropOp55
 70
     1
102
RTVSPost2010Prop56
140
1.0
102
RTVSPost2010PropOp56
 70
     1
102
RTVSPost2010Prop57
140
1.0
102
RTVSPost2010PropOp57
 70
     1
102
RTVSPropertyOp0
 70
     1
102
RTVSPropertyOp1
 70
     1
102
RTVSPropertyOp2
 70
     1
102
RTVSPropertyOp3
 70
     1
102
RTVSPropertyOp4
 70
     1
102
RTVSPropertyOp5
 70
     1
102
RTVSPropertyOp6
 70
     1
102
RTVSPropertyOp7
 70
     1
102
RTVSPropertyOp8
 70
     1
102
RTVSPropertyOp9
 70
     1
102
RTVSPropertyOp10
 70
     1
102
RTVSPropertyOp11
 70
     1
102
RTVSPropertyOp12
 70
     1
102
RTVSPropertyOp13
 70
     1
102
RTVSPropertyOp14
 70
     1
102
RTVSPropertyOp15
 70
     1
102
RTVSPropertyOp16
 70
     1
102
RTVSPropertyOp17
 70
     1
102
RTVSPropertyOp18
 70
     1
102
RTVSPropertyOp19
 70
     1
102
RTVSPropertyOp20
 70
     1
102
RTVSPropertyOp21
 70
     1
102
RTVSPropertyOp22
 70
     1
102
RTVSPropertyOp23
 70
     1
102
RTVSPropertyOp24
 70
     1
102
RTVSPropertyOp25
 70
     1
102
RTVSPropertyOp26
 70
     1
102
RTVSPropertyOp27
 70
     1
102
RTVSPropertyOp28
 70
     1
102
RTVSPropertyOp29
 70
     1
102
RTVSPropertyOp30
 70
     1
102
RTVSPropertyOp31
 70
     1
102
RTVSPropertyOp32
 70
     1
102
RTVSPropertyOp33
 70
     1
102
RTVSPropertyOp34
 70
     1
102
RTVSPropertyOp35
 70
     1
102
RTVSPropertyOp36
 70
     1
102
RTVSPropertyOp37
 70
     1
102
RTVSPropertyOp38
 70
     1
102
RTVSPropertyOp39
 70
     1
102
RTVSPropertyOp40
 70
     1
102
RTVSPropertyOp41
 70
     1
102
RTVSPropertyOp42
 70
     1
102
RTVSPropertyOp43
 70
     1
102
RTVSPropertyOp44
 70
     1
102
RTVSPropertyOp45
 70
     1
102
RTVSPropertyOp46
 70
     1
102
RTVSPropertyOp47
 70
     1
102
RTVSPropertyOp48
 70
     1
102
RTVSPropertyOp49
 70
     1
102
RTVSPropertyOp50
 70
     1
102
RTVSPropertyOp51
 70
     0
102
RTVSPropertyOp52
 70
     0
102
RTVSPropertyOp53
 70
     1
102
RTVSPropertyOp54
 70
     1
102
RTVSPropertyOp55
 70
     1
102
RTVSPropertyOp56
 70
     1
102
RTVSPropertyOp57
 70
     1
102
RTVSPropertyOp58
 70
     1
102
RTVSPropertyOp59
 70
     1
102
RTVSPropertyOp60
 70
     1
102
RTVSPropertyOp61
 70
     1
102
RTVSPropertyOp62
 70
     1
  0
XRECORD
  5
3D1
102
{ACAD_REACTORS
330
3D0
102
}
330
3D0
100
AcDbXrecord
280
     1
102
RTVSPost2010Prop28
280
     0
102
RTVSPost2010PropOp28
 70
     1
102
RTVSPost2010Prop29
280
     1
102
RTVSPost2010PropOp29
 70
     1
102
RTVSPost2010Prop30
280
     1
102
RTVSPost2010PropOp30
 70
     1
102
RTVSPost2010Prop31
280
     0
102
RTVSPost2010PropOp31
 70
     1
102
RTVSPost2010Prop32
280
     0
102
RTVSPost2010PropOp32
 70
     1
102
RTVSPost2010Prop33
280
     0
102
RTVSPost2010PropOp33
 70
     1
102
RTVSPost2010Prop34
280
     0
102
RTVSPost2010PropOp34
 70
     1
102
RTVSPost2010Prop35
280
     0
102
RTVSPost2010PropOp35
 70
     1
102
RTVSPost2010Prop36
280
     0
102
RTVSPost2010PropOp36
 70
     1
102
RTVSPost2010Prop37
 90
       50
102
RTVSPost2010PropOp37
 70
     1
102
RTVSPost2010Prop38
140
0.0
102
RTVSPost2010PropOp38
 70
     1
102
RTVSPost2010Prop39
140
1.0
102
RTVSPost2010PropOp39
 70
     1
102
RTVSPost2010Prop40
 90
        0
102
RTVSPost2010PropOp40
 70
     1
102
RTVSPost2010Prop41ColorIndex
 90
       18
102
RTVSPost2010Prop41ColorRGB
 90
        0
102
RTVSPost2010PropOp41
 70
     1
102
RTVSPost2010Prop42
 90
       50
102
RTVSPost2010PropOp42
 70
     1
102
RTVSPost2010Prop43
 90
        3
102
RTVSPost2010PropOp43
 70
     1
102
RTVSPost2010Prop44ColorIndex
 90
        5
102
RTVSPost2010Prop44ColorRGB
 90
      255
102
RTVSPost2010PropOp44
 70
     1
102
RTVSPost2010Prop45
280
     0
102
RTVSPost2010PropOp45
 70
     1
102
RTVSPost2010Prop46
 90
       50
102
RTVSPost2010PropOp46
 70
     1
102
RTVSPost2010Prop47
 90
       50
102
RTVSPost2010PropOp47
 70
     1
102
RTVSPost2010Prop48
 90
       50
102
RTVSPost2010PropOp48
 70
     1
102
RTVSPost2010Prop49
280
     0
102
RTVSPost2010PropOp49
 70
     1
102
RTVSPost2010Prop50
 90
       50
102
RTVSPost2010PropOp50
 70
     1
102
RTVSPost2010Prop51ColorIndex
 90
      256
102
RTVSPost2010Prop51ColorRGB
 90
-16777216
102
RTVSPost2010PropOp51
 70
     0
102
RTVSPost2010Prop52
140
1.0
102
RTVSPost2010PropOp52
 70
     0
102
RTVSPost2010Prop53
 90
        2
102
RTVSPost2010PropOp53
 70
     1
102
RTVSPost2010Prop54
  1
strokes_ogs.tif
102
RTVSPost2010PropOp54
 70
     1
102
RTVSPost2010Prop55
280
     0
102
RTVSPost2010PropOp55
 70
     1
102
RTVSPost2010Prop56
140
1.0
102
RTVSPost2010PropOp56
 70
     1
102
RTVSPost2010Prop57
140
1.0
102
RTVSPost2010PropOp57
 70
     1
102
RTVSPropertyOp0
 70
     1
102
RTVSPropertyOp1
 70
     1
102
RTVSPropertyOp2
 70
     1
102
RTVSPropertyOp3
 70
     1
102
RTVSPropertyOp4
 70
     1
102
RTVSPropertyOp5
 70
     1
102
RTVSPropertyOp6
 70
     1
102
RTVSPropertyOp7
 70
     1
102
RTVSPropertyOp8
 70
     1
102
RTVSPropertyOp9
 70
     1
102
RTVSPropertyOp10
 70
     1
102
RTVSPropertyOp11
 70
     1
102
RTVSPropertyOp12
 70
     1
102
RTVSPropertyOp13
 70
     1
102
RTVSPropertyOp14
 70
     1
102
RTVSPropertyOp15
 70
     1
102
RTVSPropertyOp16
 70
     1
102
RTVSPropertyOp17
 70
     1
102
RTVSPropertyOp18
 70
     1
102
RTVSPropertyOp19
 70
     1
102
RTVSPropertyOp20
 70
     1
102
RTVSPropertyOp21
 70
     1
102
RTVSPropertyOp22
 70
     1
102
RTVSPropertyOp23
 70
     1
102
RTVSPropertyOp24
 70
     1
102
RTVSPropertyOp25
 70
     1
102
RTVSPropertyOp26
 70
     1
102
RTVSPropertyOp27
 70
     1
102
RTVSPropertyOp28
 70
     1
102
RTVSPropertyOp29
 70
     1
102
RTVSPropertyOp30
 70
     1
102
RTVSPropertyOp31
 70
     1
102
RTVSPropertyOp32
 70
     1
102
RTVSPropertyOp33
 70
     1
102
RTVSPropertyOp34
 70
     1
102
RTVSPropertyOp35
 70
     1
102
RTVSPropertyOp36
 70
     1
102
RTVSPropertyOp37
 70
     1
102
RTVSPropertyOp38
 70
     1
102
RTVSPropertyOp39
 70
     1
102
RTVSPropertyOp40
 70
     1
102
RTVSPropertyOp41
 70
     1
102
RTVSPropertyOp42
 70
     1
102
RTVSPropertyOp43
 70
     1
102
RTVSPropertyOp44
 70
     1
102
RTVSPropertyOp45
 70
     1
102
RTVSPropertyOp46
 70
     1
102
RTVSPropertyOp47
 70
     1
102
RTVSPropertyOp48
 70
     1
102
RTVSPropertyOp49
 70
     1
102
RTVSPropertyOp50
 70
     1
102
RTVSPropertyOp51
 70
     0
102
RTVSPropertyOp52
 70
     0
102
RTVSPropertyOp53
 70
     1
102
RTVSPropertyOp54
 70
     1
102
RTVSPropertyOp55
 70
     1
102
RTVSPropertyOp56
 70
     1
102
RTVSPropertyOp57
 70
     1
102
RTVSPropertyOp58
 70
     1
102
RTVSPropertyOp59
 70
     1
102
RTVSPropertyOp60
 70
     1
102
RTVSPropertyOp61
 70
     1
102
RTVSPropertyOp62
 70
     1
  0
XRECORD
  5
3D9
102
{ACAD_REACTORS
330
3D8
102
}
330
3D8
100
AcDbXrecord
280
     1
102
RTVSPost2010Prop28
280
     0
102
RTVSPost2010PropOp28
 70
     1
102
RTVSPost2010Prop29
280
     1
102
RTVSPost2010PropOp29
 70
     1
102
RTVSPost2010Prop30
280
     1
102
RTVSPost2010PropOp30
 70
     1
102
RTVSPost2010Prop31
280
     0
102
RTVSPost2010PropOp31
 70
     1
102
RTVSPost2010Prop32
280
     0
102
RTVSPost2010PropOp32
 70
     1
102
RTVSPost2010Prop33
280
     0
102
RTVSPost2010PropOp33
 70
     1
102
RTVSPost2010Prop34
280
     0
102
RTVSPost2010PropOp34
 70
     1
102
RTVSPost2010Prop35
280
     0
102
RTVSPost2010PropOp35
 70
     1
102
RTVSPost2010Prop36
280
     0
102
RTVSPost2010PropOp36
 70
     1
102
RTVSPost2010Prop37
 90
       50
102
RTVSPost2010PropOp37
 70
     1
102
RTVSPost2010Prop38
140
0.0
102
RTVSPost2010PropOp38
 70
     1
102
RTVSPost2010Prop39
140
1.0
102
RTVSPost2010PropOp39
 70
     1
102
RTVSPost2010Prop40
 90
        0
102
RTVSPost2010PropOp40
 70
     1
102
RTVSPost2010Prop41ColorIndex
 90
       18
102
RTVSPost2010Prop41ColorRGB
 90
        0
102
RTVSPost2010PropOp41
 70
     1
102
RTVSPost2010Prop42
 90
       50
102
RTVSPost2010PropOp42
 70
     1
102
RTVSPost2010Prop43
 90
        3
102
RTVSPost2010PropOp43
 70
     1
102
RTVSPost2010Prop44ColorIndex
 90
        5
102
RTVSPost2010Prop44ColorRGB
 90
      255
102
RTVSPost2010PropOp44
 70
     1
102
RTVSPost2010Prop45
280
     0
102
RTVSPost2010PropOp45
 70
     1
102
RTVSPost2010Prop46
 90
       50
102
RTVSPost2010PropOp46
 70
     1
102
RTVSPost2010Prop47
 90
       50
102
RTVSPost2010PropOp47
 70
     1
102
RTVSPost2010Prop48
 90
       50
102
RTVSPost2010PropOp48
 70
     1
102
RTVSPost2010Prop49
280
     0
102
RTVSPost2010PropOp49
 70
     1
102
RTVSPost2010Prop50
 90
       50
102
RTVSPost2010PropOp50
 70
     1
102
RTVSPost2010Prop51ColorIndex
 90
      256
102
RTVSPost2010Prop51ColorRGB
 90
-16777216
102
RTVSPost2010PropOp51
 70
     0
102
RTVSPost2010Prop52
140
1.0
102
RTVSPost2010PropOp52
 70
     0
102
RTVSPost2010Prop53
 90
        2
102
RTVSPost2010PropOp53
 70
     1
102
RTVSPost2010Prop54
  1
strokes_ogs.tif
102
RTVSPost2010PropOp54
 70
     1
102
RTVSPost2010Prop55
280
     0
102
RTVSPost2010PropOp55
 70
     1
102
RTVSPost2010Prop56
140
1.0
102
RTVSPost2010PropOp56
 70
     1
102
RTVSPost2010Prop57
140
1.0
102
RTVSPost2010PropOp57
 70
     1
102
RTVSPropertyOp0
 70
     1
102
RTVSPropertyOp1
 70
     1
102
RTVSPropertyOp2
 70
     1
102
RTVSPropertyOp3
 70
     1
102
RTVSPropertyOp4
 70
     1
102
RTVSPropertyOp5
 70
     1
102
RTVSPropertyOp6
 70
     1
102
RTVSPropertyOp7
 70
     1
102
RTVSPropertyOp8
 70
     1
102
RTVSPropertyOp9
 70
     1
102
RTVSPropertyOp10
 70
     1
102
RTVSPropertyOp11
 70
     1
102
RTVSPropertyOp12
 70
     1
102
RTVSPropertyOp13
 70
     1
102
RTVSPropertyOp14
 70
     1
102
RTVSPropertyOp15
 70
     1
102
RTVSPropertyOp16
 70
     1
102
RTVSPropertyOp17
 70
     1
102
RTVSPropertyOp18
 70
     1
102
RTVSPropertyOp19
 70
     1
102
RTVSPropertyOp20
 70
     1
102
RTVSPropertyOp21
 70
     1
102
RTVSPropertyOp22
 70
     1
102
RTVSPropertyOp23
 70
     1
102
RTVSPropertyOp24
 70
     1
102
RTVSPropertyOp25
 70
     1
102
RTVSPropertyOp26
 70
     1
102
RTVSPropertyOp27
 70
     1
102
RTVSPropertyOp28
 70
     1
102
RTVSPropertyOp29
 70
     1
102
RTVSPropertyOp30
 70
     1
102
RTVSPropertyOp31
 70
     1
102
RTVSPropertyOp32
 70
     1
102
RTVSPropertyOp33
 70
     1
102
RTVSPropertyOp34
 70
     1
102
RTVSPropertyOp35
 70
     1
102
RTVSPropertyOp36
 70
     1
102
RTVSPropertyOp37
 70
     1
102
RTVSPropertyOp38
 70
     1
102
RTVSPropertyOp39
 70
     1
102
RTVSPropertyOp40
 70
     1
102
RTVSPropertyOp41
 70
     1
102
RTVSPropertyOp42
 70
     1
102
RTVSPropertyOp43
 70
     1
102
RTVSPropertyOp44
 70
     1
102
RTVSPropertyOp45
 70
     1
102
RTVSPropertyOp46
 70
     1
102
RTVSPropertyOp47
 70
     1
102
RTVSPropertyOp48
 70
     1
102
RTVSPropertyOp49
 70
     1
102
RTVSPropertyOp50
 70
     1
102
RTVSPropertyOp51
 70
     0
102
RTVSPropertyOp52
 70
     0
102
RTVSPropertyOp53
 70
     1
102
RTVSPropertyOp54
 70
     1
102
RTVSPropertyOp55
 70
     1
102
RTVSPropertyOp56
 70
     1
102
RTVSPropertyOp57
 70
     1
102
RTVSPropertyOp58
 70
     1
102
RTVSPropertyOp59
 70
     1
102
RTVSPropertyOp60
 70
     1
102
RTVSPropertyOp61
 70
     1
102
RTVSPropertyOp62
 70
     1
  0
XRECORD
  5
3F5
102
{ACAD_REACTORS
330
3F4
102
}
330
3F4
100
AcDbXrecord
280
     1
102
RTVSPost2010Prop28
280
     0
102
RTVSPost2010PropOp28
 70
     1
102
RTVSPost2010Prop29
280
     1
102
RTVSPost2010PropOp29
 70
     1
102
RTVSPost2010Prop30
280
     1
102
RTVSPost2010PropOp30
 70
     1
102
RTVSPost2010Prop31
280
     0
102
RTVSPost2010PropOp31
 70
     1
102
RTVSPost2010Prop32
280
     0
102
RTVSPost2010PropOp32
 70
     1
102
RTVSPost2010Prop33
280
     0
102
RTVSPost2010PropOp33
 70
     1
102
RTVSPost2010Prop34
280
     0
102
RTVSPost2010PropOp34
 70
     1
102
RTVSPost2010Prop35
280
     0
102
RTVSPost2010PropOp35
 70
     1
102
RTVSPost2010Prop36
280
     0
102
RTVSPost2010PropOp36
 70
     1
102
RTVSPost2010Prop37
 90
       50
102
RTVSPost2010PropOp37
 70
     0
102
RTVSPost2010Prop38
140
0.0
102
RTVSPost2010PropOp38
 70
     0
102
RTVSPost2010Prop39
140
1.0
102
RTVSPost2010PropOp39
 70
     0
102
RTVSPost2010Prop40
 90
        0
102
RTVSPost2010PropOp40
 70
     0
102
RTVSPost2010Prop41ColorIndex
 90
       18
102
RTVSPost2010Prop41ColorRGB
 90
        0
102
RTVSPost2010PropOp41
 70
     0
102
RTVSPost2010Prop42
 90
       50
102
RTVSPost2010PropOp42
 70
     0
102
RTVSPost2010Prop43
 90
        3
102
RTVSPost2010PropOp43
 70
     0
102
RTVSPost2010Prop44ColorIndex
 90
        5
102
RTVSPost2010Prop44ColorRGB
 90
      255
102
RTVSPost2010PropOp44
 70
     0
102
RTVSPost2010Prop45
280
     0
102
RTVSPost2010PropOp45
 70
     1
102
RTVSPost2010Prop46
 90
       50
102
RTVSPost2010PropOp46
 70
     0
102
RTVSPost2010Prop47
 90
       50
102
RTVSPost2010PropOp47
 70
     0
102
RTVSPost2010Prop48
 90
       50
102
RTVSPost2010PropOp48
 70
     0
102
RTVSPost2010Prop49
280
     0
102
RTVSPost2010PropOp49
 70
     1
102
RTVSPost2010Prop50
 90
       50
102
RTVSPost2010PropOp50
 70
     0
102
RTVSPost2010Prop51ColorIndex
 90
      256
102
RTVSPost2010Prop51ColorRGB
 90
-16777216
102
RTVSPost2010PropOp51
 70
     0
102
RTVSPost2010Prop52
140
1.0
102
RTVSPost2010PropOp52
 70
     0
102
RTVSPost2010Prop53
 90
        2
102
RTVSPost2010PropOp53
 70
     0
102
RTVSPost2010Prop54
  1
strokes_ogs.tif
102
RTVSPost2010PropOp54
 70
     0
102
RTVSPost2010Prop55
280
     0
102
RTVSPost2010PropOp55
 70
     1
102
RTVSPost2010Prop56
140
1.0
102
RTVSPost2010PropOp56
 70
     0
102
RTVSPost2010Prop57
140
1.0
102
RTVSPost2010PropOp57
 70
     0
102
RTVSPropertyOp0
 70
     0
102
RTVSPropertyOp1
 70
     0
102
RTVSPropertyOp2
 70
     0
102
RTVSPropertyOp3
 70
     0
102
RTVSPropertyOp4
 70
     0
102
RTVSPropertyOp5
 70
     0
102
RTVSPropertyOp6
 70
     0
102
RTVSPropertyOp7
 70
     0
102
RTVSPropertyOp8
 70
     0
102
RTVSPropertyOp9
 70
     0
102
RTVSPropertyOp10
 70
     0
102
RTVSPropertyOp11
 70
     0
102
RTVSPropertyOp12
 70
     0
102
RTVSPropertyOp13
 70
     0
102
RTVSPropertyOp14
 70
     2
102
RTVSPropertyOp15
 70
     0
102
RTVSPropertyOp16
 70
     0
102
RTVSPropertyOp17
 70
     0
102
RTVSPropertyOp18
 70
     0
102
RTVSPropertyOp19
 70
     0
102
RTVSPropertyOp20
 70
     0
102
RTVSPropertyOp21
 70
     0
102
RTVSPropertyOp22
 70
     0
102
RTVSPropertyOp23
 70
     0
102
RTVSPropertyOp24
 70
     0
102
RTVSPropertyOp25
 70
     0
102
RTVSPropertyOp26
 70
     0
102
RTVSPropertyOp27
 70
     0
102
RTVSPropertyOp28
 70
     1
102
RTVSPropertyOp29
 70
     1
102
RTVSPropertyOp30
 70
     1
102
RTVSPropertyOp31
 70
     1
102
RTVSPropertyOp32
 70
     1
102
RTVSPropertyOp33
 70
     1
102
RTVSPropertyOp34
 70
     1
102
RTVSPropertyOp35
 70
     1
102
RTVSPropertyOp36
 70
     1
102
RTVSPropertyOp37
 70
     0
102
RTVSPropertyOp38
 70
     0
102
RTVSPropertyOp39
 70
     0
102
RTVSPropertyOp40
 70
     0
102
RTVSPropertyOp41
 70
     0
102
RTVSPropertyOp42
 70
     0
102
RTVSPropertyOp43
 70
     0
102
RTVSPropertyOp44
 70
     0
102
RTVSPropertyOp45
 70
     1
102
RTVSPropertyOp46
 70
     0
102
RTVSPropertyOp47
 70
     0
102
RTVSPropertyOp48
 70
     0
102
RTVSPropertyOp49
 70
     1
102
RTVSPropertyOp50
 70
     0
102
RTVSPropertyOp51
 70
     0
102
RTVSPropertyOp52
 70
     0
102
RTVSPropertyOp53
 70
     0
102
RTVSPropertyOp54
 70
     0
102
RTVSPropertyOp55
 70
     1
102
RTVSPropertyOp56
 70
     0
102
RTVSPropertyOp57
 70
     0
102
RTVSPropertyOp58
 70
     0
102
RTVSPropertyOp59
 70
     0
102
RTVSPropertyOp60
 70
     0
102
RTVSPropertyOp61
 70
     0
102
RTVSPropertyOp62
 70
     0
  0
XRECORD
  5
3E5
102
{ACAD_REACTORS
330
3E4
102
}
330
3E4
100
AcDbXrecord
280
     1
102
RTVSPost2010Prop28
280
     0
102
RTVSPost2010PropOp28
 70
     1
102
RTVSPost2010Prop29
280
     1
102
RTVSPost2010PropOp29
 70
     1
102
RTVSPost2010Prop30
280
     1
102
RTVSPost2010PropOp30
 70
     1
102
RTVSPost2010Prop31
280
     0
102
RTVSPost2010PropOp31
 70
     1
102
RTVSPost2010Prop32
280
     0
102
RTVSPost2010PropOp32
 70
     1
102
RTVSPost2010Prop33
280
     0
102
RTVSPost2010PropOp33
 70
     1
102
RTVSPost2010Prop34
280
     0
102
RTVSPost2010PropOp34
 70
     1
102
RTVSPost2010Prop35
280
     0
102
RTVSPost2010PropOp35
 70
     1
102
RTVSPost2010Prop36
280
     0
102
RTVSPost2010PropOp36
 70
     1
102
RTVSPost2010Prop37
 90
       50
102
RTVSPost2010PropOp37
 70
     1
102
RTVSPost2010Prop38
140
0.0
102
RTVSPost2010PropOp38
 70
     1
102
RTVSPost2010Prop39
140
1.0
102
RTVSPost2010PropOp39
 70
     1
102
RTVSPost2010Prop40
 90
        0
102
RTVSPost2010PropOp40
 70
     1
102
RTVSPost2010Prop41ColorIndex
 90
       18
102
RTVSPost2010Prop41ColorRGB
 90
        0
102
RTVSPost2010PropOp41
 70
     1
102
RTVSPost2010Prop42
 90
       50
102
RTVSPost2010PropOp42
 70
     1
102
RTVSPost2010Prop43
 90
        3
102
RTVSPost2010PropOp43
 70
     1
102
RTVSPost2010Prop44ColorIndex
 90
        5
102
RTVSPost2010Prop44ColorRGB
 90
      255
102
RTVSPost2010PropOp44
 70
     1
102
RTVSPost2010Prop45
280
     0
102
RTVSPost2010PropOp45
 70
     1
102
RTVSPost2010Prop46
 90
       50
102
RTVSPost2010PropOp46
 70
     1
102
RTVSPost2010Prop47
 90
       50
102
RTVSPost2010PropOp47
 70
     1
102
RTVSPost2010Prop48
 90
       50
102
RTVSPost2010PropOp48
 70
     1
102
RTVSPost2010Prop49
280
     0
102
RTVSPost2010PropOp49
 70
     1
102
RTVSPost2010Prop50
 90
       50
102
RTVSPost2010PropOp50
 70
     1
102
RTVSPost2010Prop51ColorIndex
 90
      256
102
RTVSPost2010Prop51ColorRGB
 90
-16777216
102
RTVSPost2010PropOp51
 70
     0
102
RTVSPost2010Prop52
140
1.0
102
RTVSPost2010PropOp52
 70
     0
102
RTVSPost2010Prop53
 90
        2
102
RTVSPost2010PropOp53
 70
     1
102
RTVSPost2010Prop54
  1
strokes_ogs.tif
102
RTVSPost2010PropOp54
 70
     1
102
RTVSPost2010Prop55
280
     0
102
RTVSPost2010PropOp55
 70
     1
102
RTVSPost2010Prop56
140
1.0
102
RTVSPost2010PropOp56
 70
     1
102
RTVSPost2010Prop57
140
1.0
102
RTVSPost2010PropOp57
 70
     1
102
RTVSPropertyOp0
 70
     1
102
RTVSPropertyOp1
 70
     1
102
RTVSPropertyOp2
 70
     1
102
RTVSPropertyOp3
 70
     1
102
RTVSPropertyOp4
 70
     1
102
RTVSPropertyOp5
 70
     1
102
RTVSPropertyOp6
 70
     1
102
RTVSPropertyOp7
 70
     1
102
RTVSPropertyOp8
 70
     1
102
RTVSPropertyOp9
 70
     1
102
RTVSPropertyOp10
 70
     1
102
RTVSPropertyOp11
 70
     1
102
RTVSPropertyOp12
 70
     1
102
RTVSPropertyOp13
 70
     1
102
RTVSPropertyOp14
 70
     1
102
RTVSPropertyOp15
 70
     1
102
RTVSPropertyOp16
 70
     1
102
RTVSPropertyOp17
 70
     1
102
RTVSPropertyOp18
 70
     1
102
RTVSPropertyOp19
 70
     1
102
RTVSPropertyOp20
 70
     1
102
RTVSPropertyOp21
 70
     1
102
RTVSPropertyOp22
 70
     1
102
RTVSPropertyOp23
 70
     1
102
RTVSPropertyOp24
 70
     1
102
RTVSPropertyOp25
 70
     1
102
RTVSPropertyOp26
 70
     1
102
RTVSPropertyOp27
 70
     1
102
RTVSPropertyOp28
 70
     1
102
RTVSPropertyOp29
 70
     1
102
RTVSPropertyOp30
 70
     1
102
RTVSPropertyOp31
 70
     1
102
RTVSPropertyOp32
 70
     1
102
RTVSPropertyOp33
 70
     1
102
RTVSPropertyOp34
 70
     1
102
RTVSPropertyOp35
 70
     1
102
RTVSPropertyOp36
 70
     1
102
RTVSPropertyOp37
 70
     1
102
RTVSPropertyOp38
 70
     1
102
RTVSPropertyOp39
 70
     1
102
RTVSPropertyOp40
 70
     1
102
RTVSPropertyOp41
 70
     1
102
RTVSPropertyOp42
 70
     1
102
RTVSPropertyOp43
 70
     1
102
RTVSPropertyOp44
 70
     1
102
RTVSPropertyOp45
 70
     1
102
RTVSPropertyOp46
 70
     1
102
RTVSPropertyOp47
 70
     1
102
RTVSPropertyOp48
 70
     1
102
RTVSPropertyOp49
 70
     1
102
RTVSPropertyOp50
 70
     1
102
RTVSPropertyOp51
 70
     0
102
RTVSPropertyOp52
 70
     0
102
RTVSPropertyOp53
 70
     1
102
RTVSPropertyOp54
 70
     1
102
RTVSPropertyOp55
 70
     1
102
RTVSPropertyOp56
 70
     1
102
RTVSPropertyOp57
 70
     1
102
RTVSPropertyOp58
 70
     1
102
RTVSPropertyOp59
 70
     1
102
RTVSPropertyOp60
 70
     1
102
RTVSPropertyOp61
 70
     1
102
RTVSPropertyOp62
 70
     1
  0
XRECORD
  5
3F7
102
{ACAD_REACTORS
330
3F6
102
}
330
3F6
100
AcDbXrecord
280
     1
102
RTVSPost2010Prop28
280
     0
102
RTVSPost2010PropOp28
 70
     1
102
RTVSPost2010Prop29
280
     1
102
RTVSPost2010PropOp29
 70
     1
102
RTVSPost2010Prop30
280
     1
102
RTVSPost2010PropOp30
 70
     1
102
RTVSPost2010Prop31
280
     0
102
RTVSPost2010PropOp31
 70
     1
102
RTVSPost2010Prop32
280
     0
102
RTVSPost2010PropOp32
 70
     1
102
RTVSPost2010Prop33
280
     0
102
RTVSPost2010PropOp33
 70
     1
102
RTVSPost2010Prop34
280
     0
102
RTVSPost2010PropOp34
 70
     1
102
RTVSPost2010Prop35
280
     0
102
RTVSPost2010PropOp35
 70
     1
102
RTVSPost2010Prop36
280
     0
102
RTVSPost2010PropOp36
 70
     1
102
RTVSPost2010Prop37
 90
       50
102
RTVSPost2010PropOp37
 70
     0
102
RTVSPost2010Prop38
140
0.0
102
RTVSPost2010PropOp38
 70
     0
102
RTVSPost2010Prop39
140
1.0
102
RTVSPost2010PropOp39
 70
     0
102
RTVSPost2010Prop40
 90
        0
102
RTVSPost2010PropOp40
 70
     0
102
RTVSPost2010Prop41ColorIndex
 90
       18
102
RTVSPost2010Prop41ColorRGB
 90
        0
102
RTVSPost2010PropOp41
 70
     0
102
RTVSPost2010Prop42
 90
       50
102
RTVSPost2010PropOp42
 70
     0
102
RTVSPost2010Prop43
 90
        3
102
RTVSPost2010PropOp43
 70
     0
102
RTVSPost2010Prop44ColorIndex
 90
        5
102
RTVSPost2010Prop44ColorRGB
 90
      255
102
RTVSPost2010PropOp44
 70
     0
102
RTVSPost2010Prop45
280
     0
102
RTVSPost2010PropOp45
 70
     1
102
RTVSPost2010Prop46
 90
       50
102
RTVSPost2010PropOp46
 70
     0
102
RTVSPost2010Prop47
 90
       50
102
RTVSPost2010PropOp47
 70
     0
102
RTVSPost2010Prop48
 90
       50
102
RTVSPost2010PropOp48
 70
     0
102
RTVSPost2010Prop49
280
     0
102
RTVSPost2010PropOp49
 70
     1
102
RTVSPost2010Prop50
 90
       50
102
RTVSPost2010PropOp50
 70
     0
102
RTVSPost2010Prop51ColorIndex
 90
      256
102
RTVSPost2010Prop51ColorRGB
 90
-16777216
102
RTVSPost2010PropOp51
 70
     0
102
RTVSPost2010Prop52
140
1.0
102
RTVSPost2010PropOp52
 70
     0
102
RTVSPost2010Prop53
 90
        2
102
RTVSPost2010PropOp53
 70
     0
102
RTVSPost2010Prop54
  1
strokes_ogs.tif
102
RTVSPost2010PropOp54
 70
     0
102
RTVSPost2010Prop55
280
     0
102
RTVSPost2010PropOp55
 70
     1
102
RTVSPost2010Prop56
140
1.0
102
RTVSPost2010PropOp56
 70
     0
102
RTVSPost2010Prop57
140
1.0
102
RTVSPost2010PropOp57
 70
     0
102
RTVSPropertyOp0
 70
     0
102
RTVSPropertyOp1
 70
     0
102
RTVSPropertyOp2
 70
     0
102
RTVSPropertyOp3
 70
     0
102
RTVSPropertyOp4
 70
     0
102
RTVSPropertyOp5
 70
     0
102
RTVSPropertyOp6
 70
     0
102
RTVSPropertyOp7
 70
     0
102
RTVSPropertyOp8
 70
     0
102
RTVSPropertyOp9
 70
     0
102
RTVSPropertyOp10
 70
     0
102
RTVSPropertyOp11
 70
     0
102
RTVSPropertyOp12
 70
     0
102
RTVSPropertyOp13
 70
     0
102
RTVSPropertyOp14
 70
     2
102
RTVSPropertyOp15
 70
     0
102
RTVSPropertyOp16
 70
     0
102
RTVSPropertyOp17
 70
     0
102
RTVSPropertyOp18
 70
     0
102
RTVSPropertyOp19
 70
     0
102
RTVSPropertyOp20
 70
     0
102
RTVSPropertyOp21
 70
     0
102
RTVSPropertyOp22
 70
     0
102
RTVSPropertyOp23
 70
     0
102
RTVSPropertyOp24
 70
     0
102
RTVSPropertyOp25
 70
     0
102
RTVSPropertyOp26
 70
     0
102
RTVSPropertyOp27
 70
     0
102
RTVSPropertyOp28
 70
     1
102
RTVSPropertyOp29
 70
     1
102
RTVSPropertyOp30
 70
     1
102
RTVSPropertyOp31
 70
     1
102
RTVSPropertyOp32
 70
     1
102
RTVSPropertyOp33
 70
     1
102
RTVSPropertyOp34
 70
     1
102
RTVSPropertyOp35
 70
     1
102
RTVSPropertyOp36
 70
     1
102
RTVSPropertyOp37
 70
     0
102
RTVSPropertyOp38
 70
     0
102
RTVSPropertyOp39
 70
     0
102
RTVSPropertyOp40
 70
     0
102
RTVSPropertyOp41
 70
     0
102
RTVSPropertyOp42
 70
     0
102
RTVSPropertyOp43
 70
     0
102
RTVSPropertyOp44
 70
     0
102
RTVSPropertyOp45
 70
     1
102
RTVSPropertyOp46
 70
     0
102
RTVSPropertyOp47
 70
     0
102
RTVSPropertyOp48
 70
     0
102
RTVSPropertyOp49
 70
     1
102
RTVSPropertyOp50
 70
     0
102
RTVSPropertyOp51
 70
     0
102
RTVSPropertyOp52
 70
     0
102
RTVSPropertyOp53
 70
     0
102
RTVSPropertyOp54
 70
     0
102
RTVSPropertyOp55
 70
     1
102
RTVSPropertyOp56
 70
     0
102
RTVSPropertyOp57
 70
     0
102
RTVSPropertyOp58
 70
     0
102
RTVSPropertyOp59
 70
     0
102
RTVSPropertyOp60
 70
     0
102
RTVSPropertyOp61
 70
     0
102
RTVSPropertyOp62
 70
     0
  0
XRECORD
  5
3DD
102
{ACAD_REACTORS
330
3DC
102
}
330
3DC
100
AcDbXrecord
280
     1
102
RTVSPost2010Prop28
280
     0
102
RTVSPost2010PropOp28
 70
     1
102
RTVSPost2010Prop29
280
     1
102
RTVSPost2010PropOp29
 70
     1
102
RTVSPost2010Prop30
280
     1
102
RTVSPost2010PropOp30
 70
     1
102
RTVSPost2010Prop31
280
     0
102
RTVSPost2010PropOp31
 70
     1
102
RTVSPost2010Prop32
280
     0
102
RTVSPost2010PropOp32
 70
     1
102
RTVSPost2010Prop33
280
     0
102
RTVSPost2010PropOp33
 70
     1
102
RTVSPost2010Prop34
280
     0
102
RTVSPost2010PropOp34
 70
     1
102
RTVSPost2010Prop35
280
     0
102
RTVSPost2010PropOp35
 70
     1
102
RTVSPost2010Prop36
280
     0
102
RTVSPost2010PropOp36
 70
     1
102
RTVSPost2010Prop37
 90
       50
102
RTVSPost2010PropOp37
 70
     1
102
RTVSPost2010Prop38
140
0.0
102
RTVSPost2010PropOp38
 70
     1
102
RTVSPost2010Prop39
140
1.0
102
RTVSPost2010PropOp39
 70
     1
102
RTVSPost2010Prop40
 90
        0
102
RTVSPost2010PropOp40
 70
     1
102
RTVSPost2010Prop41ColorIndex
 90
       18
102
RTVSPost2010Prop41ColorRGB
 90
        0
102
RTVSPost2010PropOp41
 70
     1
102
RTVSPost2010Prop42
 90
       50
102
RTVSPost2010PropOp42
 70
     1
102
RTVSPost2010Prop43
 90
        3
102
RTVSPost2010PropOp43
 70
     1
102
RTVSPost2010Prop44ColorIndex
 90
        5
102
RTVSPost2010Prop44ColorRGB
 90
      255
102
RTVSPost2010PropOp44
 70
     1
102
RTVSPost2010Prop45
280
     0
102
RTVSPost2010PropOp45
 70
     1
102
RTVSPost2010Prop46
 90
       50
102
RTVSPost2010PropOp46
 70
     1
102
RTVSPost2010Prop47
 90
       50
102
RTVSPost2010PropOp47
 70
     1
102
RTVSPost2010Prop48
 90
       50
102
RTVSPost2010PropOp48
 70
     1
102
RTVSPost2010Prop49
280
     0
102
RTVSPost2010PropOp49
 70
     1
102
RTVSPost2010Prop50
 90
       50
102
RTVSPost2010PropOp50
 70
     1
102
RTVSPost2010Prop51ColorIndex
 90
      256
102
RTVSPost2010Prop51ColorRGB
 90
-16777216
102
RTVSPost2010PropOp51
 70
     0
102
RTVSPost2010Prop52
140
1.0
102
RTVSPost2010PropOp52
 70
     0
102
RTVSPost2010Prop53
 90
        2
102
RTVSPost2010PropOp53
 70
     1
102
RTVSPost2010Prop54
  1
strokes_ogs.tif
102
RTVSPost2010PropOp54
 70
     1
102
RTVSPost2010Prop55
280
     0
102
RTVSPost2010PropOp55
 70
     1
102
RTVSPost2010Prop56
140
1.0
102
RTVSPost2010PropOp56
 70
     1
102
RTVSPost2010Prop57
140
1.0
102
RTVSPost2010PropOp57
 70
     1
102
RTVSPropertyOp0
 70
     1
102
RTVSPropertyOp1
 70
     1
102
RTVSPropertyOp2
 70
     1
102
RTVSPropertyOp3
 70
     1
102
RTVSPropertyOp4
 70
     1
102
RTVSPropertyOp5
 70
     1
102
RTVSPropertyOp6
 70
     1
102
RTVSPropertyOp7
 70
     1
102
RTVSPropertyOp8
 70
     1
102
RTVSPropertyOp9
 70
     1
102
RTVSPropertyOp10
 70
     1
102
RTVSPropertyOp11
 70
     1
102
RTVSPropertyOp12
 70
     1
102
RTVSPropertyOp13
 70
     1
102
RTVSPropertyOp14
 70
     1
102
RTVSPropertyOp15
 70
     1
102
RTVSPropertyOp16
 70
     1
102
RTVSPropertyOp17
 70
     1
102
RTVSPropertyOp18
 70
     1
102
RTVSPropertyOp19
 70
     1
102
RTVSPropertyOp20
 70
     1
102
RTVSPropertyOp21
 70
     1
102
RTVSPropertyOp22
 70
     1
102
RTVSPropertyOp23
 70
     1
102
RTVSPropertyOp24
 70
     1
102
RTVSPropertyOp25
 70
     1
102
RTVSPropertyOp26
 70
     1
102
RTVSPropertyOp27
 70
     1
102
RTVSPropertyOp28
 70
     1
102
RTVSPropertyOp29
 70
     1
102
RTVSPropertyOp30
 70
     1
102
RTVSPropertyOp31
 70
     1
102
RTVSPropertyOp32
 70
     1
102
RTVSPropertyOp33
 70
     1
102
RTVSPropertyOp34
 70
     1
102
RTVSPropertyOp35
 70
     1
102
RTVSPropertyOp36
 70
     1
102
RTVSPropertyOp37
 70
     1
102
RTVSPropertyOp38
 70
     1
102
RTVSPropertyOp39
 70
     1
102
RTVSPropertyOp40
 70
     1
102
RTVSPropertyOp41
 70
     1
102
RTVSPropertyOp42
 70
     1
102
RTVSPropertyOp43
 70
     1
102
RTVSPropertyOp44
 70
     1
102
RTVSPropertyOp45
 70
     1
102
RTVSPropertyOp46
 70
     1
102
RTVSPropertyOp47
 70
     1
102
RTVSPropertyOp48
 70
     1
102
RTVSPropertyOp49
 70
     1
102
RTVSPropertyOp50
 70
     1
102
RTVSPropertyOp51
 70
     0
102
RTVSPropertyOp52
 70
     0
102
RTVSPropertyOp53
 70
     1
102
RTVSPropertyOp54
 70
     1
102
RTVSPropertyOp55
 70
     1
102
RTVSPropertyOp56
 70
     1
102
RTVSPropertyOp57
 70
     1
102
RTVSPropertyOp58
 70
     1
102
RTVSPropertyOp59
 70
     1
102
RTVSPropertyOp60
 70
     1
102
RTVSPropertyOp61
 70
     1
102
RTVSPropertyOp62
 70
     1
  0
XRECORD
  5
3F3
102
{ACAD_REACTORS
330
3F2
102
}
330
3F2
100
AcDbXrecord
280
     1
102
RTVSPost2010Prop28
280
     0
102
RTVSPost2010PropOp28
 70
     1
102
RTVSPost2010Prop29
280
     1
102
RTVSPost2010PropOp29
 70
     1
102
RTVSPost2010Prop30
280
     1
102
RTVSPost2010PropOp30
 70
     1
102
RTVSPost2010Prop31
280
     0
102
RTVSPost2010PropOp31
 70
     1
102
RTVSPost2010Prop32
280
     0
102
RTVSPost2010PropOp32
 70
     1
102
RTVSPost2010Prop33
280
     0
102
RTVSPost2010PropOp33
 70
     1
102
RTVSPost2010Prop34
280
     0
102
RTVSPost2010PropOp34
 70
     1
102
RTVSPost2010Prop35
280
     0
102
RTVSPost2010PropOp35
 70
     1
102
RTVSPost2010Prop36
280
     0
102
RTVSPost2010PropOp36
 70
     1
102
RTVSPost2010Prop37
 90
       50
102
RTVSPost2010PropOp37
 70
     1
102
RTVSPost2010Prop38
140
0.0
102
RTVSPost2010PropOp38
 70
     1
102
RTVSPost2010Prop39
140
1.0
102
RTVSPost2010PropOp39
 70
     1
102
RTVSPost2010Prop40
 90
        0
102
RTVSPost2010PropOp40
 70
     1
102
RTVSPost2010Prop41ColorIndex
 90
       18
102
RTVSPost2010Prop41ColorRGB
 90
        0
102
RTVSPost2010PropOp41
 70
     1
102
RTVSPost2010Prop42
 90
       50
102
RTVSPost2010PropOp42
 70
     1
102
RTVSPost2010Prop43
 90
        3
102
RTVSPost2010PropOp43
 70
     1
102
RTVSPost2010Prop44ColorIndex
 90
        5
102
RTVSPost2010Prop44ColorRGB
 90
      255
102
RTVSPost2010PropOp44
 70
     1
102
RTVSPost2010Prop45
280
     0
102
RTVSPost2010PropOp45
 70
     1
102
RTVSPost2010Prop46
 90
       50
102
RTVSPost2010PropOp46
 70
     1
102
RTVSPost2010Prop47
 90
       50
102
RTVSPost2010PropOp47
 70
     1
102
RTVSPost2010Prop48
 90
       50
102
RTVSPost2010PropOp48
 70
     1
102
RTVSPost2010Prop49
280
     0
102
RTVSPost2010PropOp49
 70
     1
102
RTVSPost2010Prop50
 90
       50
102
RTVSPost2010PropOp50
 70
     1
102
RTVSPost2010Prop51ColorIndex
 90
      256
102
RTVSPost2010Prop51ColorRGB
 90
-16777216
102
RTVSPost2010PropOp51
 70
     0
102
RTVSPost2010Prop52
140
1.0
102
RTVSPost2010PropOp52
 70
     0
102
RTVSPost2010Prop53
 90
        2
102
RTVSPost2010PropOp53
 70
     1
102
RTVSPost2010Prop54
  1
strokes_ogs.tif
102
RTVSPost2010PropOp54
 70
     1
102
RTVSPost2010Prop55
280
     0
102
RTVSPost2010PropOp55
 70
     1
102
RTVSPost2010Prop56
140
1.0
102
RTVSPost2010PropOp56
 70
     1
102
RTVSPost2010Prop57
140
1.0
102
RTVSPost2010PropOp57
 70
     1
102
RTVSPropertyOp0
 70
     1
102
RTVSPropertyOp1
 70
     1
102
RTVSPropertyOp2
 70
     1
102
RTVSPropertyOp3
 70
     1
102
RTVSPropertyOp4
 70
     1
102
RTVSPropertyOp5
 70
     1
102
RTVSPropertyOp6
 70
     1
102
RTVSPropertyOp7
 70
     1
102
RTVSPropertyOp8
 70
     1
102
RTVSPropertyOp9
 70
     1
102
RTVSPropertyOp10
 70
     1
102
RTVSPropertyOp11
 70
     1
102
RTVSPropertyOp12
 70
     1
102
RTVSPropertyOp13
 70
     1
102
RTVSPropertyOp14
 70
     1
102
RTVSPropertyOp15
 70
     1
102
RTVSPropertyOp16
 70
     1
102
RTVSPropertyOp17
 70
     1
102
RTVSPropertyOp18
 70
     1
102
RTVSPropertyOp19
 70
     1
102
RTVSPropertyOp20
 70
     1
102
RTVSPropertyOp21
 70
     1
102
RTVSPropertyOp22
 70
     1
102
RTVSPropertyOp23
 70
     1
102
RTVSPropertyOp24
 70
     1
102
RTVSPropertyOp25
 70
     1
102
RTVSPropertyOp26
 70
     1
102
RTVSPropertyOp27
 70
     1
102
RTVSPropertyOp28
 70
     1
102
RTVSPropertyOp29
 70
     1
102
RTVSPropertyOp30
 70
     1
102
RTVSPropertyOp31
 70
     1
102
RTVSPropertyOp32
 70
     1
102
RTVSPropertyOp33
 70
     1
102
RTVSPropertyOp34
 70
     1
102
RTVSPropertyOp35
 70
     1
102
RTVSPropertyOp36
 70
     1
102
RTVSPropertyOp37
 70
     1
102
RTVSPropertyOp38
 70
     1
102
RTVSPropertyOp39
 70
     1
102
RTVSPropertyOp40
 70
     1
102
RTVSPropertyOp41
 70
     1
102
RTVSPropertyOp42
 70
     1
102
RTVSPropertyOp43
 70
     1
102
RTVSPropertyOp44
 70
     1
102
RTVSPropertyOp45
 70
     1
102
RTVSPropertyOp46
 70
     1
102
RTVSPropertyOp47
 70
     1
102
RTVSPropertyOp48
 70
     1
102
RTVSPropertyOp49
 70
     1
102
RTVSPropertyOp50
 70
     1
102
RTVSPropertyOp51
 70
     0
102
RTVSPropertyOp52
 70
     0
102
RTVSPropertyOp53
 70
     1
102
RTVSPropertyOp54
 70
     1
102
RTVSPropertyOp55
 70
     1
102
RTVSPropertyOp56
 70
     1
102
RTVSPropertyOp57
 70
     1
102
RTVSPropertyOp58
 70
     1
102
RTVSPropertyOp59
 70
     1
102
RTVSPropertyOp60
 70
     1
102
RTVSPropertyOp61
 70
     1
102
RTVSPropertyOp62
 70
     1
  0
XRECORD
  5
3F1
102
{ACAD_REACTORS
330
3F0
102
}
330
3F0
100
AcDbXrecord
280
     1
102
RTVSPost2010Prop28
280
     0
102
RTVSPost2010PropOp28
 70
     1
102
RTVSPost2010Prop29
280
     1
102
RTVSPost2010PropOp29
 70
     1
102
RTVSPost2010Prop30
280
     1
102
RTVSPost2010PropOp30
 70
     1
102
RTVSPost2010Prop31
280
     0
102
RTVSPost2010PropOp31
 70
     1
102
RTVSPost2010Prop32
280
     0
102
RTVSPost2010PropOp32
 70
     1
102
RTVSPost2010Prop33
280
     0
102
RTVSPost2010PropOp33
 70
     1
102
RTVSPost2010Prop34
280
     0
102
RTVSPost2010PropOp34
 70
     1
102
RTVSPost2010Prop35
280
     0
102
RTVSPost2010PropOp35
 70
     1
102
RTVSPost2010Prop36
280
     0
102
RTVSPost2010PropOp36
 70
     1
102
RTVSPost2010Prop37
 90
       50
102
RTVSPost2010PropOp37
 70
     1
102
RTVSPost2010Prop38
140
0.0
102
RTVSPost2010PropOp38
 70
     1
102
RTVSPost2010Prop39
140
1.0
102
RTVSPost2010PropOp39
 70
     1
102
RTVSPost2010Prop40
 90
        0
102
RTVSPost2010PropOp40
 70
     1
102
RTVSPost2010Prop41ColorIndex
 90
       18
102
RTVSPost2010Prop41ColorRGB
 90
        0
102
RTVSPost2010PropOp41
 70
     1
102
RTVSPost2010Prop42
 90
       50
102
RTVSPost2010PropOp42
 70
     1
102
RTVSPost2010Prop43
 90
        3
102
RTVSPost2010PropOp43
 70
     1
102
RTVSPost2010Prop44ColorIndex
 90
        5
102
RTVSPost2010Prop44ColorRGB
 90
      255
102
RTVSPost2010PropOp44
 70
     1
102
RTVSPost2010Prop45
280
     0
102
RTVSPost2010PropOp45
 70
     1
102
RTVSPost2010Prop46
 90
       50
102
RTVSPost2010PropOp46
 70
     1
102
RTVSPost2010Prop47
 90
       50
102
RTVSPost2010PropOp47
 70
     1
102
RTVSPost2010Prop48
 90
       50
102
RTVSPost2010PropOp48
 70
     1
102
RTVSPost2010Prop49
280
     0
102
RTVSPost2010PropOp49
 70
     1
102
RTVSPost2010Prop50
 90
       50
102
RTVSPost2010PropOp50
 70
     1
102
RTVSPost2010Prop51ColorIndex
 90
      256
102
RTVSPost2010Prop51ColorRGB
 90
-16777216
102
RTVSPost2010PropOp51
 70
     0
102
RTVSPost2010Prop52
140
1.0
102
RTVSPost2010PropOp52
 70
     0
102
RTVSPost2010Prop53
 90
        2
102
RTVSPost2010PropOp53
 70
     1
102
RTVSPost2010Prop54
  1
strokes_ogs.tif
102
RTVSPost2010PropOp54
 70
     1
102
RTVSPost2010Prop55
280
     0
102
RTVSPost2010PropOp55
 70
     1
102
RTVSPost2010Prop56
140
1.0
102
RTVSPost2010PropOp56
 70
     1
102
RTVSPost2010Prop57
140
1.0
102
RTVSPost2010PropOp57
 70
     1
102
RTVSPropertyOp0
 70
     1
102
RTVSPropertyOp1
 70
     1
102
RTVSPropertyOp2
 70
     1
102
RTVSPropertyOp3
 70
     1
102
RTVSPropertyOp4
 70
     1
102
RTVSPropertyOp5
 70
     1
102
RTVSPropertyOp6
 70
     1
102
RTVSPropertyOp7
 70
     1
102
RTVSPropertyOp8
 70
     1
102
RTVSPropertyOp9
 70
     1
102
RTVSPropertyOp10
 70
     1
102
RTVSPropertyOp11
 70
     1
102
RTVSPropertyOp12
 70
     1
102
RTVSPropertyOp13
 70
     1
102
RTVSPropertyOp14
 70
     1
102
RTVSPropertyOp15
 70
     1
102
RTVSPropertyOp16
 70
     1
102
RTVSPropertyOp17
 70
     1
102
RTVSPropertyOp18
 70
     1
102
RTVSPropertyOp19
 70
     1
102
RTVSPropertyOp20
 70
     1
102
RTVSPropertyOp21
 70
     1
102
RTVSPropertyOp22
 70
     1
102
RTVSPropertyOp23
 70
     1
102
RTVSPropertyOp24
 70
     1
102
RTVSPropertyOp25
 70
     1
102
RTVSPropertyOp26
 70
     1
102
RTVSPropertyOp27
 70
     1
102
RTVSPropertyOp28
 70
     1
102
RTVSPropertyOp29
 70
     1
102
RTVSPropertyOp30
 70
     1
102
RTVSPropertyOp31
 70
     1
102
RTVSPropertyOp32
 70
     1
102
RTVSPropertyOp33
 70
     1
102
RTVSPropertyOp34
 70
     1
102
RTVSPropertyOp35
 70
     1
102
RTVSPropertyOp36
 70
     1
102
RTVSPropertyOp37
 70
     1
102
RTVSPropertyOp38
 70
     1
102
RTVSPropertyOp39
 70
     1
102
RTVSPropertyOp40
 70
     1
102
RTVSPropertyOp41
 70
     1
102
RTVSPropertyOp42
 70
     1
102
RTVSPropertyOp43
 70
     1
102
RTVSPropertyOp44
 70
     1
102
RTVSPropertyOp45
 70
     1
102
RTVSPropertyOp46
 70
     1
102
RTVSPropertyOp47
 70
     1
102
RTVSPropertyOp48
 70
     1
102
RTVSPropertyOp49
 70
     1
102
RTVSPropertyOp50
 70
     1
102
RTVSPropertyOp51
 70
     0
102
RTVSPropertyOp52
 70
     0
102
RTVSPropertyOp53
 70
     1
102
RTVSPropertyOp54
 70
     1
102
RTVSPropertyOp55
 70
     1
102
RTVSPropertyOp56
 70
     1
102
RTVSPropertyOp57
 70
     1
102
RTVSPropertyOp58
 70
     1
102
RTVSPropertyOp59
 70
     1
102
RTVSPropertyOp60
 70
     1
102
RTVSPropertyOp61
 70
     1
102
RTVSPropertyOp62
 70
     1
  0
XRECORD
  5
3EB
102
{ACAD_REACTORS
330
3EA
102
}
330
3EA
100
AcDbXrecord
280
     1
102
RTVSPost2010Prop28
280
     0
102
RTVSPost2010PropOp28
 70
     1
102
RTVSPost2010Prop29
280
     1
102
RTVSPost2010PropOp29
 70
     1
102
RTVSPost2010Prop30
280
     1
102
RTVSPost2010PropOp30
 70
     1
102
RTVSPost2010Prop31
280
     0
102
RTVSPost2010PropOp31
 70
     1
102
RTVSPost2010Prop32
280
     0
102
RTVSPost2010PropOp32
 70
     1
102
RTVSPost2010Prop33
280
     0
102
RTVSPost2010PropOp33
 70
     1
102
RTVSPost2010Prop34
280
     0
102
RTVSPost2010PropOp34
 70
     1
102
RTVSPost2010Prop35
280
     0
102
RTVSPost2010PropOp35
 70
     1
102
RTVSPost2010Prop36
280
     0
102
RTVSPost2010PropOp36
 70
     1
102
RTVSPost2010Prop37
 90
       50
102
RTVSPost2010PropOp37
 70
     1
102
RTVSPost2010Prop38
140
0.0
102
RTVSPost2010PropOp38
 70
     1
102
RTVSPost2010Prop39
140
1.0
102
RTVSPost2010PropOp39
 70
     1
102
RTVSPost2010Prop40
 90
        0
102
RTVSPost2010PropOp40
 70
     1
102
RTVSPost2010Prop41ColorIndex
 90
       18
102
RTVSPost2010Prop41ColorRGB
 90
        0
102
RTVSPost2010PropOp41
 70
     1
102
RTVSPost2010Prop42
 90
       50
102
RTVSPost2010PropOp42
 70
     1
102
RTVSPost2010Prop43
 90
        3
102
RTVSPost2010PropOp43
 70
     1
102
RTVSPost2010Prop44ColorIndex
 90
        5
102
RTVSPost2010Prop44ColorRGB
 90
      255
102
RTVSPost2010PropOp44
 70
     1
102
RTVSPost2010Prop45
280
     0
102
RTVSPost2010PropOp45
 70
     1
102
RTVSPost2010Prop46
 90
       50
102
RTVSPost2010PropOp46
 70
     1
102
RTVSPost2010Prop47
 90
       50
102
RTVSPost2010PropOp47
 70
     1
102
RTVSPost2010Prop48
 90
       50
102
RTVSPost2010PropOp48
 70
     1
102
RTVSPost2010Prop49
280
     0
102
RTVSPost2010PropOp49
 70
     1
102
RTVSPost2010Prop50
 90
       50
102
RTVSPost2010PropOp50
 70
     1
102
RTVSPost2010Prop51ColorIndex
 90
      256
102
RTVSPost2010Prop51ColorRGB
 90
-16777216
102
RTVSPost2010PropOp51
 70
     0
102
RTVSPost2010Prop52
140
1.0
102
RTVSPost2010PropOp52
 70
     0
102
RTVSPost2010Prop53
 90
        2
102
RTVSPost2010PropOp53
 70
     1
102
RTVSPost2010Prop54
  1
strokes_ogs.tif
102
RTVSPost2010PropOp54
 70
     1
102
RTVSPost2010Prop55
280
     0
102
RTVSPost2010PropOp55
 70
     1
102
RTVSPost2010Prop56
140
1.0
102
RTVSPost2010PropOp56
 70
     1
102
RTVSPost2010Prop57
140
1.0
102
RTVSPost2010PropOp57
 70
     1
102
RTVSPropertyOp0
 70
     1
102
RTVSPropertyOp1
 70
     1
102
RTVSPropertyOp2
 70
     1
102
RTVSPropertyOp3
 70
     1
102
RTVSPropertyOp4
 70
     1
102
RTVSPropertyOp5
 70
     1
102
RTVSPropertyOp6
 70
     1
102
RTVSPropertyOp7
 70
     1
102
RTVSPropertyOp8
 70
     1
102
RTVSPropertyOp9
 70
     1
102
RTVSPropertyOp10
 70
     1
102
RTVSPropertyOp11
 70
     1
102
RTVSPropertyOp12
 70
     1
102
RTVSPropertyOp13
 70
     1
102
RTVSPropertyOp14
 70
     1
102
RTVSPropertyOp15
 70
     1
102
RTVSPropertyOp16
 70
     1
102
RTVSPropertyOp17
 70
     1
102
RTVSPropertyOp18
 70
     1
102
RTVSPropertyOp19
 70
     1
102
RTVSPropertyOp20
 70
     1
102
RTVSPropertyOp21
 70
     1
102
RTVSPropertyOp22
 70
     1
102
RTVSPropertyOp23
 70
     1
102
RTVSPropertyOp24
 70
     1
102
RTVSPropertyOp25
 70
     1
102
RTVSPropertyOp26
 70
     1
102
RTVSPropertyOp27
 70
     1
102
RTVSPropertyOp28
 70
     1
102
RTVSPropertyOp29
 70
     1
102
RTVSPropertyOp30
 70
     1
102
RTVSPropertyOp31
 70
     1
102
RTVSPropertyOp32
 70
     1
102
RTVSPropertyOp33
 70
     1
102
RTVSPropertyOp34
 70
     1
102
RTVSPropertyOp35
 70
     1
102
RTVSPropertyOp36
 70
     1
102
RTVSPropertyOp37
 70
     1
102
RTVSPropertyOp38
 70
     1
102
RTVSPropertyOp39
 70
     1
102
RTVSPropertyOp40
 70
     1
102
RTVSPropertyOp41
 70
     1
102
RTVSPropertyOp42
 70
     1
102
RTVSPropertyOp43
 70
     1
102
RTVSPropertyOp44
 70
     1
102
RTVSPropertyOp45
 70
     1
102
RTVSPropertyOp46
 70
     1
102
RTVSPropertyOp47
 70
     1
102
RTVSPropertyOp48
 70
     1
102
RTVSPropertyOp49
 70
     1
102
RTVSPropertyOp50
 70
     1
102
RTVSPropertyOp51
 70
     0
102
RTVSPropertyOp52
 70
     0
102
RTVSPropertyOp53
 70
     1
102
RTVSPropertyOp54
 70
     1
102
RTVSPropertyOp55
 70
     1
102
RTVSPropertyOp56
 70
     1
102
RTVSPropertyOp57
 70
     1
102
RTVSPropertyOp58
 70
     1
102
RTVSPropertyOp59
 70
     1
102
RTVSPropertyOp60
 70
     1
102
RTVSPropertyOp61
 70
     1
102
RTVSPropertyOp62
 70
     1
  0
XRECORD
  5
3ED
102
{ACAD_REACTORS
330
3EC
102
}
330
3EC
100
AcDbXrecord
280
     1
102
RTVSPost2010Prop28
280
     0
102
RTVSPost2010PropOp28
 70
     1
102
RTVSPost2010Prop29
280
     1
102
RTVSPost2010PropOp29
 70
     1
102
RTVSPost2010Prop30
280
     1
102
RTVSPost2010PropOp30
 70
     1
102
RTVSPost2010Prop31
280
     0
102
RTVSPost2010PropOp31
 70
     1
102
RTVSPost2010Prop32
280
     0
102
RTVSPost2010PropOp32
 70
     1
102
RTVSPost2010Prop33
280
     0
102
RTVSPost2010PropOp33
 70
     1
102
RTVSPost2010Prop34
280
     0
102
RTVSPost2010PropOp34
 70
     1
102
RTVSPost2010Prop35
280
     0
102
RTVSPost2010PropOp35
 70
     1
102
RTVSPost2010Prop36
280
     0
102
RTVSPost2010PropOp36
 70
     1
102
RTVSPost2010Prop37
 90
       50
102
RTVSPost2010PropOp37
 70
     1
102
RTVSPost2010Prop38
140
0.0
102
RTVSPost2010PropOp38
 70
     1
102
RTVSPost2010Prop39
140
1.0
102
RTVSPost2010PropOp39
 70
     1
102
RTVSPost2010Prop40
 90
        0
102
RTVSPost2010PropOp40
 70
     1
102
RTVSPost2010Prop41ColorIndex
 90
       18
102
RTVSPost2010Prop41ColorRGB
 90
        0
102
RTVSPost2010PropOp41
 70
     1
102
RTVSPost2010Prop42
 90
       50
102
RTVSPost2010PropOp42
 70
     1
102
RTVSPost2010Prop43
 90
        3
102
RTVSPost2010PropOp43
 70
     1
102
RTVSPost2010Prop44ColorIndex
 90
        5
102
RTVSPost2010Prop44ColorRGB
 90
      255
102
RTVSPost2010PropOp44
 70
     1
102
RTVSPost2010Prop45
280
     0
102
RTVSPost2010PropOp45
 70
     1
102
RTVSPost2010Prop46
 90
       50
102
RTVSPost2010PropOp46
 70
     1
102
RTVSPost2010Prop47
 90
       50
102
RTVSPost2010PropOp47
 70
     1
102
RTVSPost2010Prop48
 90
       50
102
RTVSPost2010PropOp48
 70
     1
102
RTVSPost2010Prop49
280
     0
102
RTVSPost2010PropOp49
 70
     1
102
RTVSPost2010Prop50
 90
       50
102
RTVSPost2010PropOp50
 70
     1
102
RTVSPost2010Prop51ColorIndex
 90
      256
102
RTVSPost2010Prop51ColorRGB
 90
-16777216
102
RTVSPost2010PropOp51
 70
     0
102
RTVSPost2010Prop52
140
1.0
102
RTVSPost2010PropOp52
 70
     0
102
RTVSPost2010Prop53
 90
        2
102
RTVSPost2010PropOp53
 70
     1
102
RTVSPost2010Prop54
  1
strokes_ogs.tif
102
RTVSPost2010PropOp54
 70
     1
102
RTVSPost2010Prop55
280
     0
102
RTVSPost2010PropOp55
 70
     1
102
RTVSPost2010Prop56
140
1.0
102
RTVSPost2010PropOp56
 70
     1
102
RTVSPost2010Prop57
140
1.0
102
RTVSPost2010PropOp57
 70
     1
102
RTVSPropertyOp0
 70
     1
102
RTVSPropertyOp1
 70
     1
102
RTVSPropertyOp2
 70
     1
102
RTVSPropertyOp3
 70
     1
102
RTVSPropertyOp4
 70
     1
102
RTVSPropertyOp5
 70
     1
102
RTVSPropertyOp6
 70
     1
102
RTVSPropertyOp7
 70
     1
102
RTVSPropertyOp8
 70
     1
102
RTVSPropertyOp9
 70
     1
102
RTVSPropertyOp10
 70
     1
102
RTVSPropertyOp11
 70
     1
102
RTVSPropertyOp12
 70
     1
102
RTVSPropertyOp13
 70
     1
102
RTVSPropertyOp14
 70
     1
102
RTVSPropertyOp15
 70
     1
102
RTVSPropertyOp16
 70
     1
102
RTVSPropertyOp17
 70
     1
102
RTVSPropertyOp18
 70
     1
102
RTVSPropertyOp19
 70
     1
102
RTVSPropertyOp20
 70
     1
102
RTVSPropertyOp21
 70
     1
102
RTVSPropertyOp22
 70
     1
102
RTVSPropertyOp23
 70
     1
102
RTVSPropertyOp24
 70
     1
102
RTVSPropertyOp25
 70
     1
102
RTVSPropertyOp26
 70
     1
102
RTVSPropertyOp27
 70
     1
102
RTVSPropertyOp28
 70
     1
102
RTVSPropertyOp29
 70
     1
102
RTVSPropertyOp30
 70
     1
102
RTVSPropertyOp31
 70
     1
102
RTVSPropertyOp32
 70
     1
102
RTVSPropertyOp33
 70
     1
102
RTVSPropertyOp34
 70
     1
102
RTVSPropertyOp35
 70
     1
102
RTVSPropertyOp36
 70
     1
102
RTVSPropertyOp37
 70
     1
102
RTVSPropertyOp38
 70
     1
102
RTVSPropertyOp39
 70
     1
102
RTVSPropertyOp40
 70
     1
102
RTVSPropertyOp41
 70
     1
102
RTVSPropertyOp42
 70
     1
102
RTVSPropertyOp43
 70
     1
102
RTVSPropertyOp44
 70
     1
102
RTVSPropertyOp45
 70
     1
102
RTVSPropertyOp46
 70
     1
102
RTVSPropertyOp47
 70
     1
102
RTVSPropertyOp48
 70
     1
102
RTVSPropertyOp49
 70
     1
102
RTVSPropertyOp50
 70
     1
102
RTVSPropertyOp51
 70
     0
102
RTVSPropertyOp52
 70
     0
102
RTVSPropertyOp53
 70
     1
102
RTVSPropertyOp54
 70
     1
102
RTVSPropertyOp55
 70
     1
102
RTVSPropertyOp56
 70
     1
102
RTVSPropertyOp57
 70
     1
102
RTVSPropertyOp58
 70
     1
102
RTVSPropertyOp59
 70
     1
102
RTVSPropertyOp60
 70
     1
102
RTVSPropertyOp61
 70
     1
102
RTVSPropertyOp62
 70
     1
  0
XRECORD
  5
3E3
102
{ACAD_REACTORS
330
3E2
102
}
330
3E2
100
AcDbXrecord
280
     1
102
RTVSPost2010Prop28
280
     0
102
RTVSPost2010PropOp28
 70
     1
102
RTVSPost2010Prop29
280
     1
102
RTVSPost2010PropOp29
 70
     1
102
RTVSPost2010Prop30
280
     1
102
RTVSPost2010PropOp30
 70
     1
102
RTVSPost2010Prop31
280
     0
102
RTVSPost2010PropOp31
 70
     1
102
RTVSPost2010Prop32
280
     0
102
RTVSPost2010PropOp32
 70
     1
102
RTVSPost2010Prop33
280
     0
102
RTVSPost2010PropOp33
 70
     1
102
RTVSPost2010Prop34
280
     0
102
RTVSPost2010PropOp34
 70
     1
102
RTVSPost2010Prop35
280
     0
102
RTVSPost2010PropOp35
 70
     1
102
RTVSPost2010Prop36
280
     0
102
RTVSPost2010PropOp36
 70
     1
102
RTVSPost2010Prop37
 90
       50
102
RTVSPost2010PropOp37
 70
     1
102
RTVSPost2010Prop38
140
0.0
102
RTVSPost2010PropOp38
 70
     1
102
RTVSPost2010Prop39
140
1.0
102
RTVSPost2010PropOp39
 70
     1
102
RTVSPost2010Prop40
 90
        0
102
RTVSPost2010PropOp40
 70
     1
102
RTVSPost2010Prop41ColorIndex
 90
       18
102
RTVSPost2010Prop41ColorRGB
 90
        0
102
RTVSPost2010PropOp41
 70
     1
102
RTVSPost2010Prop42
 90
       50
102
RTVSPost2010PropOp42
 70
     1
102
RTVSPost2010Prop43
 90
        3
102
RTVSPost2010PropOp43
 70
     1
102
RTVSPost2010Prop44ColorIndex
 90
        5
102
RTVSPost2010Prop44ColorRGB
 90
      255
102
RTVSPost2010PropOp44
 70
     1
102
RTVSPost2010Prop45
280
     0
102
RTVSPost2010PropOp45
 70
     1
102
RTVSPost2010Prop46
 90
       50
102
RTVSPost2010PropOp46
 70
     1
102
RTVSPost2010Prop47
 90
       50
102
RTVSPost2010PropOp47
 70
     1
102
RTVSPost2010Prop48
 90
       50
102
RTVSPost2010PropOp48
 70
     1
102
RTVSPost2010Prop49
280
     0
102
RTVSPost2010PropOp49
 70
     1
102
RTVSPost2010Prop50
 90
       50
102
RTVSPost2010PropOp50
 70
     1
102
RTVSPost2010Prop51ColorIndex
 90
      256
102
RTVSPost2010Prop51ColorRGB
 90
-16777216
102
RTVSPost2010PropOp51
 70
     0
102
RTVSPost2010Prop52
140
1.0
102
RTVSPost2010PropOp52
 70
     0
102
RTVSPost2010Prop53
 90
        2
102
RTVSPost2010PropOp53
 70
     1
102
RTVSPost2010Prop54
  1
strokes_ogs.tif
102
RTVSPost2010PropOp54
 70
     1
102
RTVSPost2010Prop55
280
     0
102
RTVSPost2010PropOp55
 70
     1
102
RTVSPost2010Prop56
140
1.0
102
RTVSPost2010PropOp56
 70
     1
102
RTVSPost2010Prop57
140
1.0
102
RTVSPost2010PropOp57
 70
     1
102
RTVSPropertyOp0
 70
     1
102
RTVSPropertyOp1
 70
     1
102
RTVSPropertyOp2
 70
     1
102
RTVSPropertyOp3
 70
     1
102
RTVSPropertyOp4
 70
     1
102
RTVSPropertyOp5
 70
     1
102
RTVSPropertyOp6
 70
     1
102
RTVSPropertyOp7
 70
     1
102
RTVSPropertyOp8
 70
     1
102
RTVSPropertyOp9
 70
     1
102
RTVSPropertyOp10
 70
     1
102
RTVSPropertyOp11
 70
     1
102
RTVSPropertyOp12
 70
     1
102
RTVSPropertyOp13
 70
     1
102
RTVSPropertyOp14
 70
     1
102
RTVSPropertyOp15
 70
     1
102
RTVSPropertyOp16
 70
     1
102
RTVSPropertyOp17
 70
     1
102
RTVSPropertyOp18
 70
     1
102
RTVSPropertyOp19
 70
     1
102
RTVSPropertyOp20
 70
     1
102
RTVSPropertyOp21
 70
     1
102
RTVSPropertyOp22
 70
     1
102
RTVSPropertyOp23
 70
     1
102
RTVSPropertyOp24
 70
     1
102
RTVSPropertyOp25
 70
     1
102
RTVSPropertyOp26
 70
     1
102
RTVSPropertyOp27
 70
     1
102
RTVSPropertyOp28
 70
     1
102
RTVSPropertyOp29
 70
     1
102
RTVSPropertyOp30
 70
     1
102
RTVSPropertyOp31
 70
     1
102
RTVSPropertyOp32
 70
     1
102
RTVSPropertyOp33
 70
     1
102
RTVSPropertyOp34
 70
     1
102
RTVSPropertyOp35
 70
     1
102
RTVSPropertyOp36
 70
     1
102
RTVSPropertyOp37
 70
     1
102
RTVSPropertyOp38
 70
     1
102
RTVSPropertyOp39
 70
     1
102
RTVSPropertyOp40
 70
     1
102
RTVSPropertyOp41
 70
     1
102
RTVSPropertyOp42
 70
     1
102
RTVSPropertyOp43
 70
     1
102
RTVSPropertyOp44
 70
     1
102
RTVSPropertyOp45
 70
     1
102
RTVSPropertyOp46
 70
     1
102
RTVSPropertyOp47
 70
     1
102
RTVSPropertyOp48
 70
     1
102
RTVSPropertyOp49
 70
     1
102
RTVSPropertyOp50
 70
     1
102
RTVSPropertyOp51
 70
     0
102
RTVSPropertyOp52
 70
     0
102
RTVSPropertyOp53
 70
     1
102
RTVSPropertyOp54
 70
     1
102
RTVSPropertyOp55
 70
     1
102
RTVSPropertyOp56
 70
     1
102
RTVSPropertyOp57
 70
     1
102
RTVSPropertyOp58
 70
     1
102
RTVSPropertyOp59
 70
     1
102
RTVSPropertyOp60
 70
     1
102
RTVSPropertyOp61
 70
     1
102
RTVSPropertyOp62
 70
     1
  0
XRECORD
  5
3D7
102
{ACAD_REACTORS
330
3D6
102
}
330
3D6
100
AcDbXrecord
280
     1
102
RTVSPost2010Prop28
280
     0
102
RTVSPost2010PropOp28
 70
     1
102
RTVSPost2010Prop29
280
     1
102
RTVSPost2010PropOp29
 70
     1
102
RTVSPost2010Prop30
280
     1
102
RTVSPost2010PropOp30
 70
     1
102
RTVSPost2010Prop31
280
     0
102
RTVSPost2010PropOp31
 70
     1
102
RTVSPost2010Prop32
280
     0
102
RTVSPost2010PropOp32
 70
     1
102
RTVSPost2010Prop33
280
     0
102
RTVSPost2010PropOp33
 70
     1
102
RTVSPost2010Prop34
280
     0
102
RTVSPost2010PropOp34
 70
     1
102
RTVSPost2010Prop35
280
     0
102
RTVSPost2010PropOp35
 70
     1
102
RTVSPost2010Prop36
280
     0
102
RTVSPost2010PropOp36
 70
     1
102
RTVSPost2010Prop37
 90
       50
102
RTVSPost2010PropOp37
 70
     1
102
RTVSPost2010Prop38
140
0.0
102
RTVSPost2010PropOp38
 70
     1
102
RTVSPost2010Prop39
140
1.0
102
RTVSPost2010PropOp39
 70
     1
102
RTVSPost2010Prop40
 90
        0
102
RTVSPost2010PropOp40
 70
     1
102
RTVSPost2010Prop41ColorIndex
 90
       18
102
RTVSPost2010Prop41ColorRGB
 90
        0
102
RTVSPost2010PropOp41
 70
     1
102
RTVSPost2010Prop42
 90
       50
102
RTVSPost2010PropOp42
 70
     1
102
RTVSPost2010Prop43
 90
        3
102
RTVSPost2010PropOp43
 70
     1
102
RTVSPost2010Prop44ColorIndex
 90
        5
102
RTVSPost2010Prop44ColorRGB
 90
      255
102
RTVSPost2010PropOp44
 70
     1
102
RTVSPost2010Prop45
280
     0
102
RTVSPost2010PropOp45
 70
     1
102
RTVSPost2010Prop46
 90
       50
102
RTVSPost2010PropOp46
 70
     1
102
RTVSPost2010Prop47
 90
       50
102
RTVSPost2010PropOp47
 70
     1
102
RTVSPost2010Prop48
 90
       50
102
RTVSPost2010PropOp48
 70
     1
102
RTVSPost2010Prop49
280
     0
102
RTVSPost2010PropOp49
 70
     1
102
RTVSPost2010Prop50
 90
       50
102
RTVSPost2010PropOp50
 70
     1
102
RTVSPost2010Prop51ColorIndex
 90
      256
102
RTVSPost2010Prop51ColorRGB
 90
-16777216
102
RTVSPost2010PropOp51
 70
     0
102
RTVSPost2010Prop52
140
1.0
102
RTVSPost2010PropOp52
 70
     0
102
RTVSPost2010Prop53
 90
        2
102
RTVSPost2010PropOp53
 70
     1
102
RTVSPost2010Prop54
  1
strokes_ogs.tif
102
RTVSPost2010PropOp54
 70
     1
102
RTVSPost2010Prop55
280
     0
102
RTVSPost2010PropOp55
 70
     1
102
RTVSPost2010Prop56
140
1.0
102
RTVSPost2010PropOp56
 70
     1
102
RTVSPost2010Prop57
140
1.0
102
RTVSPost2010PropOp57
 70
     1
102
RTVSPropertyOp0
 70
     1
102
RTVSPropertyOp1
 70
     1
102
RTVSPropertyOp2
 70
     1
102
RTVSPropertyOp3
 70
     1
102
RTVSPropertyOp4
 70
     1
102
RTVSPropertyOp5
 70
     1
102
RTVSPropertyOp6
 70
     1
102
RTVSPropertyOp7
 70
     1
102
RTVSPropertyOp8
 70
     1
102
RTVSPropertyOp9
 70
     1
102
RTVSPropertyOp10
 70
     1
102
RTVSPropertyOp11
 70
     1
102
RTVSPropertyOp12
 70
     1
102
RTVSPropertyOp13
 70
     1
102
RTVSPropertyOp14
 70
     1
102
RTVSPropertyOp15
 70
     1
102
RTVSPropertyOp16
 70
     1
102
RTVSPropertyOp17
 70
     1
102
RTVSPropertyOp18
 70
     1
102
RTVSPropertyOp19
 70
     1
102
RTVSPropertyOp20
 70
     1
102
RTVSPropertyOp21
 70
     1
102
RTVSPropertyOp22
 70
     1
102
RTVSPropertyOp23
 70
     1
102
RTVSPropertyOp24
 70
     1
102
RTVSPropertyOp25
 70
     1
102
RTVSPropertyOp26
 70
     1
102
RTVSPropertyOp27
 70
     1
102
RTVSPropertyOp28
 70
     1
102
RTVSPropertyOp29
 70
     1
102
RTVSPropertyOp30
 70
     1
102
RTVSPropertyOp31
 70
     1
102
RTVSPropertyOp32
 70
     1
102
RTVSPropertyOp33
 70
     1
102
RTVSPropertyOp34
 70
     1
102
RTVSPropertyOp35
 70
     1
102
RTVSPropertyOp36
 70
     1
102
RTVSPropertyOp37
 70
     1
102
RTVSPropertyOp38
 70
     1
102
RTVSPropertyOp39
 70
     1
102
RTVSPropertyOp40
 70
     1
102
RTVSPropertyOp41
 70
     1
102
RTVSPropertyOp42
 70
     1
102
RTVSPropertyOp43
 70
     1
102
RTVSPropertyOp44
 70
     1
102
RTVSPropertyOp45
 70
     1
102
RTVSPropertyOp46
 70
     1
102
RTVSPropertyOp47
 70
     1
102
RTVSPropertyOp48
 70
     1
102
RTVSPropertyOp49
 70
     1
102
RTVSPropertyOp50
 70
     1
102
RTVSPropertyOp51
 70
     0
102
RTVSPropertyOp52
 70
     0
102
RTVSPropertyOp53
 70
     1
102
RTVSPropertyOp54
 70
     1
102
RTVSPropertyOp55
 70
     1
102
RTVSPropertyOp56
 70
     1
102
RTVSPropertyOp57
 70
     1
102
RTVSPropertyOp58
 70
     1
102
RTVSPropertyOp59
 70
     1
102
RTVSPropertyOp60
 70
     1
102
RTVSPropertyOp61
 70
     1
102
RTVSPropertyOp62
 70
     1
  0
XRECORD
  5
3EF
102
{ACAD_REACTORS
330
3EE
102
}
330
3EE
100
AcDbXrecord
280
     1
102
RTVSPost2010Prop28
280
     0
102
RTVSPost2010PropOp28
 70
     1
102
RTVSPost2010Prop29
280
     1
102
RTVSPost2010PropOp29
 70
     1
102
RTVSPost2010Prop30
280
     1
102
RTVSPost2010PropOp30
 70
     1
102
RTVSPost2010Prop31
280
     0
102
RTVSPost2010PropOp31
 70
     1
102
RTVSPost2010Prop32
280
     0
102
RTVSPost2010PropOp32
 70
     1
102
RTVSPost2010Prop33
280
     0
102
RTVSPost2010PropOp33
 70
     1
102
RTVSPost2010Prop34
280
     0
102
RTVSPost2010PropOp34
 70
     1
102
RTVSPost2010Prop35
280
     0
102
RTVSPost2010PropOp35
 70
     1
102
RTVSPost2010Prop36
280
     0
102
RTVSPost2010PropOp36
 70
     1
102
RTVSPost2010Prop37
 90
       50
102
RTVSPost2010PropOp37
 70
     1
102
RTVSPost2010Prop38
140
0.0
102
RTVSPost2010PropOp38
 70
     1
102
RTVSPost2010Prop39
140
1.0
102
RTVSPost2010PropOp39
 70
     1
102
RTVSPost2010Prop40
 90
        0
102
RTVSPost2010PropOp40
 70
     1
102
RTVSPost2010Prop41ColorIndex
 90
       18
102
RTVSPost2010Prop41ColorRGB
 90
        0
102
RTVSPost2010PropOp41
 70
     1
102
RTVSPost2010Prop42
 90
       50
102
RTVSPost2010PropOp42
 70
     1
102
RTVSPost2010Prop43
 90
        3
102
RTVSPost2010PropOp43
 70
     1
102
RTVSPost2010Prop44ColorIndex
 90
        5
102
RTVSPost2010Prop44ColorRGB
 90
      255
102
RTVSPost2010PropOp44
 70
     1
102
RTVSPost2010Prop45
280
     0
102
RTVSPost2010PropOp45
 70
     1
102
RTVSPost2010Prop46
 90
       50
102
RTVSPost2010PropOp46
 70
     1
102
RTVSPost2010Prop47
 90
       50
102
RTVSPost2010PropOp47
 70
     1
102
RTVSPost2010Prop48
 90
       50
102
RTVSPost2010PropOp48
 70
     1
102
RTVSPost2010Prop49
280
     0
102
RTVSPost2010PropOp49
 70
     1
102
RTVSPost2010Prop50
 90
       50
102
RTVSPost2010PropOp50
 70
     1
102
RTVSPost2010Prop51ColorIndex
 90
      256
102
RTVSPost2010Prop51ColorRGB
 90
-16777216
102
RTVSPost2010PropOp51
 70
     0
102
RTVSPost2010Prop52
140
1.0
102
RTVSPost2010PropOp52
 70
     0
102
RTVSPost2010Prop53
 90
        2
102
RTVSPost2010PropOp53
 70
     1
102
RTVSPost2010Prop54
  1
strokes_ogs.tif
102
RTVSPost2010PropOp54
 70
     1
102
RTVSPost2010Prop55
280
     0
102
RTVSPost2010PropOp55
 70
     1
102
RTVSPost2010Prop56
140
1.0
102
RTVSPost2010PropOp56
 70
     1
102
RTVSPost2010Prop57
140
1.0
102
RTVSPost2010PropOp57
 70
     1
102
RTVSPropertyOp0
 70
     1
102
RTVSPropertyOp1
 70
     1
102
RTVSPropertyOp2
 70
     1
102
RTVSPropertyOp3
 70
     1
102
RTVSPropertyOp4
 70
     1
102
RTVSPropertyOp5
 70
     1
102
RTVSPropertyOp6
 70
     1
102
RTVSPropertyOp7
 70
     1
102
RTVSPropertyOp8
 70
     1
102
RTVSPropertyOp9
 70
     1
102
RTVSPropertyOp10
 70
     1
102
RTVSPropertyOp11
 70
     1
102
RTVSPropertyOp12
 70
     1
102
RTVSPropertyOp13
 70
     1
102
RTVSPropertyOp14
 70
     1
102
RTVSPropertyOp15
 70
     1
102
RTVSPropertyOp16
 70
     1
102
RTVSPropertyOp17
 70
     1
102
RTVSPropertyOp18
 70
     1
102
RTVSPropertyOp19
 70
     1
102
RTVSPropertyOp20
 70
     1
102
RTVSPropertyOp21
 70
     1
102
RTVSPropertyOp22
 70
     1
102
RTVSPropertyOp23
 70
     1
102
RTVSPropertyOp24
 70
     1
102
RTVSPropertyOp25
 70
     1
102
RTVSPropertyOp26
 70
     1
102
RTVSPropertyOp27
 70
     1
102
RTVSPropertyOp28
 70
     1
102
RTVSPropertyOp29
 70
     1
102
RTVSPropertyOp30
 70
     1
102
RTVSPropertyOp31
 70
     1
102
RTVSPropertyOp32
 70
     1
102
RTVSPropertyOp33
 70
     1
102
RTVSPropertyOp34
 70
     1
102
RTVSPropertyOp35
 70
     1
102
RTVSPropertyOp36
 70
     1
102
RTVSPropertyOp37
 70
     1
102
RTVSPropertyOp38
 70
     1
102
RTVSPropertyOp39
 70
     1
102
RTVSPropertyOp40
 70
     1
102
RTVSPropertyOp41
 70
     1
102
RTVSPropertyOp42
 70
     1
102
RTVSPropertyOp43
 70
     1
102
RTVSPropertyOp44
 70
     1
102
RTVSPropertyOp45
 70
     1
102
RTVSPropertyOp46
 70
     1
102
RTVSPropertyOp47
 70
     1
102
RTVSPropertyOp48
 70
     1
102
RTVSPropertyOp49
 70
     1
102
RTVSPropertyOp50
 70
     1
102
RTVSPropertyOp51
 70
     0
102
RTVSPropertyOp52
 70
     0
102
RTVSPropertyOp53
 70
     1
102
RTVSPropertyOp54
 70
     1
102
RTVSPropertyOp55
 70
     1
102
RTVSPropertyOp56
 70
     1
102
RTVSPropertyOp57
 70
     1
102
RTVSPropertyOp58
 70
     1
102
RTVSPropertyOp59
 70
     1
102
RTVSPropertyOp60
 70
     1
102
RTVSPropertyOp61
 70
     1
102
RTVSPropertyOp62
 70
     1
  0
ENDSEC
  0
EOF
