  0
SECTION
  2
HEADER
  9
$ACADVER
  1
AC1015
  9
$ACADMAINTVER
 70
    20
  9
$DWGCODEPAGE
  3
ANSI_932
  9
$INSBASE
 10
0.0
 20
0.0
 30
0.0
  9
$EXTMIN
 10
-470.3814531908546
 20
-142.7264086952507
 30
-0.0015258207003583
  9
$EXTMAX
 10
470.4216514809432
 20
142.7354744904855
 30
0.0000000349246037
  9
$LIMMIN
 10
0.0
 20
0.0
  9
$LIMMAX
 10
841.0
 20
594.0
  9
$ORTHOMODE
 70
     0
  9
$REGENMODE
 70
     1
  9
$FILLMODE
 70
     1
  9
$QTEXTMODE
 70
     0
  9
$MIRRTEXT
 70
     0
  9
$LTSCALE
 40
1.0
  9
$ATTMODE
 70
     1
  9
$TEXTSIZE
 40
0.2
  9
$TRACEWID
 40
0.05
  9
$TEXTSTYLE
  7
STANDARD
  9
$CLAYER
  8
0
  9
$CELTYPE
  6
CONTINUOUS
  9
$CECOLOR
 62
   256
  9
$CELTSCALE
 40
1.0
  9
$DISPSILH
 70
     0
  9
$DIMSCALE
 40
1.0
  9
$DIMASZ
 40
0.18
  9
$DIMEXO
 40
0.0625
  9
$DIMDLI
 40
0.38
  9
$DIMRND
 40
0.0
  9
$DIMDLE
 40
0.0
  9
$DIMEXE
 40
0.18
  9
$DIMTP
 40
0.0
  9
$DIMTM
 40
0.0
  9
$DIMTXT
 40
0.18
  9
$DIMCEN
 40
0.09
  9
$DIMTSZ
 40
0.0
  9
$DIMTOL
 70
     0
  9
$DIMLIM
 70
     0
  9
$DIMTIH
 70
     1
  9
$DIMTOH
 70
     1
  9
$DIMSE1
 70
     0
  9
$DIMSE2
 70
     0
  9
$DIMTAD
 70
     0
  9
$DIMZIN
 70
     0
  9
$DIMBLK
  1

  9
$DIMASO
 70
     1
  9
$DIMSHO
 70
     1
  9
$DIMPOST
  1

  9
$DIMAPOST
  1

  9
$DIMALT
 70
     0
  9
$DIMALTD
 70
     2
  9
$DIMALTF
 40
25.4
  9
$DIMLFAC
 40
1.0
  9
$DIMTOFL
 70
     0
  9
$DIMTVP
 40
0.0
  9
$DIMTIX
 70
     0
  9
$DIMSOXD
 70
     0
  9
$DIMSAH
 70
     0
  9
$DIMBLK1
  1

  9
$DIMBLK2
  1

  9
$DIMSTYLE
  2
Standard
  9
$DIMCLRD
 70
     0
  9
$DIMCLRE
 70
     0
  9
$DIMCLRT
 70
     0
  9
$DIMTFAC
 40
1.0
  9
$DIMGAP
 40
0.09
  9
$DIMJUST
 70
     0
  9
$DIMSD1
 70
     0
  9
$DIMSD2
 70
     0
  9
$DIMTOLJ
 70
     1
  9
$DIMTZIN
 70
     0
  9
$DIMALTZ
 70
     0
  9
$DIMALTTZ
 70
     0
  9
$DIMUPT
 70
     0
  9
$DIMDEC
 70
     4
  9
$DIMTDEC
 70
     4
  9
$DIMALTU
 70
     2
  9
$DIMALTTD
 70
     2
  9
$DIMTXSTY
  7
STANDARD
  9
$DIMAUNIT
 70
     0
  9
$DIMADEC
 70
     0
  9
$DIMALTRND
 40
0.0
  9
$DIMAZIN
 70
     0
  9
$DIMDSEP
 70
    46
  9
$DIMATFIT
 70
     3
  9
$DIMFRAC
 70
     0
  9
$DIMLDRBLK
  1

  9
$DIMLUNIT
 70
     2
  9
$DIMLWD
 70
    -2
  9
$DIMLWE
 70
    -2
  9
$DIMTMOVE
 70
     0
  9
$LUNITS
 70
     2
  9
$LUPREC
 70
     4
  9
$SKETCHINC
 40
0.1
  9
$FILLETRAD
 40
0.0
  9
$AUNITS
 70
     0
  9
$AUPREC
 70
     0
  9
$MENU
  1
.
  9
$ELEVATION
 40
0.0
  9
$PELEVATION
 40
0.0
  9
$THICKNESS
 40
0.0
  9
$LIMCHECK
 70
     0
  9
$CHAMFERA
 40
0.0
  9
$CHAMFERB
 40
0.0
  9
$CHAMFERC
 40
0.0
  9
$CHAMFERD
 40
0.0
  9
$SKPOLY
 70
     0
  9
$TDCREATE
 40
2457851.684641204
  9
$TDUCREATE
 40
2457851.309641204
  9
$TDUPDATE
 40
2457931.659560185
  9
$TDUUPDATE
 40
2457931.284560185
  9
$TDINDWG
 40
0.0029282407
  9
$TDUSRTIMER
 40
0.0029282407
  9
$USRTIMER
 70
     1
  9
$ANGBASE
 50
0.0
  9
$ANGDIR
 70
     0
  9
$PDMODE
 70
     0
  9
$PDSIZE
 40
0.0
  9
$PLINEWID
 40
0.0
  9
$SPLFRAME
 70
     0
  9
$SPLINETYPE
 70
     6
  9
$SPLINESEGS
 70
     8
  9
$HANDSEED
  5
355
  9
$SURFTAB1
 70
     6
  9
$SURFTAB2
 70
     6
  9
$SURFTYPE
 70
     6
  9
$SURFU
 70
     6
  9
$SURFV
 70
     6
  9
$UCSBASE
  2

  9
$UCSNAME
  2

  9
$UCSORG
 10
0.0
 20
0.0
 30
0.0
  9
$UCSXDIR
 10
1.0
 20
0.0
 30
0.0
  9
$UCSYDIR
 10
0.0
 20
1.0
 30
0.0
  9
$UCSORTHOREF
  2

  9
$UCSORTHOVIEW
 70
     0
  9
$UCSORGTOP
 10
0.0
 20
0.0
 30
0.0
  9
$UCSORGBOTTOM
 10
0.0
 20
0.0
 30
0.0
  9
$UCSORGLEFT
 10
0.0
 20
0.0
 30
0.0
  9
$UCSORGRIGHT
 10
0.0
 20
0.0
 30
0.0
  9
$UCSORGFRONT
 10
0.0
 20
0.0
 30
0.0
  9
$UCSORGBACK
 10
0.0
 20
0.0
 30
0.0
  9
$PUCSBASE
  2

  9
$PUCSNAME
  2

  9
$PUCSORG
 10
0.0
 20
0.0
 30
0.0
  9
$PUCSXDIR
 10
1.0
 20
0.0
 30
0.0
  9
$PUCSYDIR
 10
0.0
 20
1.0
 30
0.0
  9
$PUCSORTHOREF
  2

  9
$PUCSORTHOVIEW
 70
     0
  9
$PUCSORGTOP
 10
0.0
 20
0.0
 30
0.0
  9
$PUCSORGBOTTOM
 10
0.0
 20
0.0
 30
0.0
  9
$PUCSORGLEFT
 10
0.0
 20
0.0
 30
0.0
  9
$PUCSORGRIGHT
 10
0.0
 20
0.0
 30
0.0
  9
$PUCSORGFRONT
 10
0.0
 20
0.0
 30
0.0
  9
$PUCSORGBACK
 10
0.0
 20
0.0
 30
0.0
  9
$USERI1
 70
     0
  9
$USERI2
 70
     0
  9
$USERI3
 70
     0
  9
$USERI4
 70
     0
  9
$USERI5
 70
     0
  9
$USERR1
 40
0.0
  9
$USERR2
 40
0.0
  9
$USERR3
 40
0.0
  9
$USERR4
 40
0.0
  9
$USERR5
 40
0.0
  9
$WORLDVIEW
 70
     1
  9
$SHADEDGE
 70
     3
  9
$SHADEDIF
 70
    70
  9
$TILEMODE
 70
     1
  9
$MAXACTVP
 70
    64
  9
$PINSBASE
 10
0.0
 20
0.0
 30
0.0
  9
$PLIMCHECK
 70
     0
  9
$PEXTMIN
 10
1.000000000000000E+20
 20
1.000000000000000E+20
 30
1.000000000000000E+20
  9
$PEXTMAX
 10
-1.000000000000000E+20
 20
-1.000000000000000E+20
 30
-1.000000000000000E+20
  9
$PLIMMIN
 10
0.0
 20
0.0
  9
$PLIMMAX
 10
12.0
 20
9.0
  9
$UNITMODE
 70
     0
  9
$VISRETAIN
 70
     1
  9
$PLINEGEN
 70
     0
  9
$PSLTSCALE
 70
     1
  9
$TREEDEPTH
 70
  3020
  9
$CMLSTYLE
  2
Standard
  9
$CMLJUST
 70
     0
  9
$CMLSCALE
 40
1.0
  9
$PROXYGRAPHICS
 70
     1
  9
$MEASUREMENT
 70
     0
  9
$CELWEIGHT
370
    -1
  9
$ENDCAPS
280
     0
  9
$JOINSTYLE
280
     0
  9
$LWDISPLAY
290
     0
  9
$INSUNITS
 70
     0
  9
$HYPERLINKBASE
  1

  9
$STYLESHEET
  1

  9
$XEDIT
290
     1
  9
$CEPSNTYPE
380
     0
  9
$PSTYLEMODE
290
     1
  9
$FINGERPRINTGUID
  2
{0AB71654-4834-404B-B94A-CF5BC021B261}
  9
$VERSIONGUID
  2
{59769A0D-14CD-DC48-B62C-544685045DDF}
  9
$EXTNAMES
290
     1
  9
$PSVPSCALE
 40
0.0
  9
$OLESTARTUP
290
     0
  0
ENDSEC
  0
SECTION
  2
CLASSES
  0
CLASS
  1
ACDBDICTIONARYWDFLT
  2
AcDbDictionaryWithDefault
  3
ObjectDBX Classes
 90
        0
280
     0
281
     0
  0
CLASS
  1
MATERIAL
  2
AcDbMaterial
  3
ObjectDBX Classes
 90
     1153
280
     0
281
     0
  0
CLASS
  1
VISUALSTYLE
  2
AcDbVisualStyle
  3
ObjectDBX Classes
 90
     4095
280
     0
281
     0
  0
CLASS
  1
SCALE
  2
AcDbScale
  3
ObjectDBX Classes
 90
     1153
280
     0
281
     0
  0
CLASS
  1
TABLESTYLE
  2
AcDbTableStyle
  3
ObjectDBX Classes
 90
     4095
280
     0
281
     0
  0
CLASS
  1
MLEADERSTYLE
  2
AcDbMLeaderStyle
  3
ACDB_MLEADERSTYLE_CLASS
 90
     4095
280
     0
281
     0
  0
CLASS
  1
ACDBSECTIONVIEWSTYLE
  2
AcDbSectionViewStyle
  3
ObjectDBX Classes
 90
     1025
280
     0
281
     0
  0
CLASS
  1
ACDBDETAILVIEWSTYLE
  2
AcDbDetailViewStyle
  3
ObjectDBX Classes
 90
     1025
280
     0
281
     0
  0
CLASS
  1
CELLSTYLEMAP
  2
AcDbCellStyleMap
  3
ObjectDBX Classes
 90
     1152
280
     0
281
     0
  0
CLASS
  1
DICTIONARYVAR
  2
AcDbDictionaryVar
  3
ObjectDBX Classes
 90
        0
280
     0
281
     0
  0
CLASS
  1
ACAD_EVALUATION_GRAPH
  2
AcDbEvalGraph
  3
ObjectDBX Classes
 90
    33921
280
     0
281
     0
  0
CLASS
  1
ACAECUSTOBJ
  2
AcAeEditorObj
  3
AcAeEditorObj
 90
    33792
280
     0
281
     0
  0
CLASS
  1
SORTENTSTABLE
  2
AcDbSortentsTable
  3
ObjectDBX Classes
 90
    32768
280
     0
281
     0
  0
CLASS
  1
ACDB_DYNAMICBLOCKPURGEPREVENTER_VERSION
  2
AcDbDynamicBlockPurgePreventer
  3
ObjectDBX Classes
 90
    33921
280
     0
281
     0
  0
CLASS
  1
ACDBPLACEHOLDER
  2
AcDbPlaceHolder
  3
ObjectDBX Classes
 90
        0
280
     0
281
     0
  0
CLASS
  1
LAYOUT
  2
AcDbLayout
  3
ObjectDBX Classes
 90
        0
280
     0
281
     0
  0
ENDSEC
  0
SECTION
  2
TABLES
  0
TABLE
  2
VPORT
  5
8
330
0
100
AcDbSymbolTable
 70
     1
  0
VPORT
  5
9F
330
8
100
AcDbSymbolTableRecord
100
AcDbViewportTableRecord
  2
*Active
 70
     0
 10
0.0
 20
0.0
 11
1.0
 21
1.0
 12
0.0200991450442416
 22
0.0045328976174233
 13
0.0
 23
0.0
 14
1.0
 24
1.0
 15
0.0
 25
0.0
 16
0.0
 26
0.0
 36
1.0
 17
0.0
 27
0.0
 37
0.0
 40
468.6085501252636
 41
2.015228426395939
 42
50.0
 43
0.0
 44
0.0
 50
0.0
 51
0.0
 71
     0
 72
   100
 73
     1
 74
     1
 75
     0
 76
     0
 77
     0
 78
     0
281
     0
 65
     1
110
0.0
120
0.0
130
0.0
111
1.0
121
0.0
131
0.0
112
0.0
122
1.0
132
0.0
 79
     0
146
0.0
1001
ACAD_NAV_VCDISPLAY
1070
     3
  0
ENDTAB
  0
TABLE
  2
LTYPE
  5
5
330
0
100
AcDbSymbolTable
 70
    37
  0
LTYPE
  5
5A
330
5
100
AcDbSymbolTableRecord
100
AcDbLinetypeTableRecord
  2
ByBlock
 70
     0
  3

 72
    65
 73
     0
 40
0.0
  0
LTYPE
  5
5B
330
5
100
AcDbSymbolTableRecord
100
AcDbLinetypeTableRecord
  2
ByLayer
 70
     0
  3

 72
    65
 73
     0
 40
0.0
  0
LTYPE
  5
5C
330
5
100
AcDbSymbolTableRecord
100
AcDbLinetypeTableRecord
  2
CONTINUOUS
 70
     0
  3
実線
 72
    65
 73
     0
 40
0.0
  0
LTYPE
  5
73
330
5
100
AcDbSymbolTableRecord
100
AcDbLinetypeTableRecord
  2
DASHED1
 70
     0
  3
--  --  --  --  --  --  --  --  
 72
    65
 73
     2
 40
2.5
 49
1.25
 74
     0
 49
-1.25
 74
     0
  0
LTYPE
  5
74
330
5
100
AcDbSymbolTableRecord
100
AcDbLinetypeTableRecord
  2
DASHED2
 70
     0
  3
----    ----    ----    ----    
 72
    65
 73
     2
 40
5.0
 49
2.5
 74
     0
 49
-2.5
 74
     0
  0
LTYPE
  5
75
330
5
100
AcDbSymbolTableRecord
100
AcDbLinetypeTableRecord
  2
DASHED3
 70
     0
  3
------  ------  ------  ------  
 72
    65
 73
     2
 40
5.0
 49
3.75
 74
     0
 49
-1.25
 74
     0
  0
LTYPE
  5
76
330
5
100
AcDbSymbolTableRecord
100
AcDbLinetypeTableRecord
  2
CENTER1
 70
     0
  3
----- - ----- - ----- - ----- - 
 72
    65
 73
     4
 40
10.0
 49
6.25
 74
     0
 49
-1.25
 74
     0
 49
1.25
 74
     0
 49
-1.25
 74
     0
  0
LTYPE
  5
77
330
5
100
AcDbSymbolTableRecord
100
AcDbLinetypeTableRecord
  2
CENTER2
 70
     0
  3
----------  --  ----------  --  
 72
    65
 73
     4
 40
20.0
 49
12.5
 74
     0
 49
-2.5
 74
     0
 49
2.5
 74
     0
 49
-2.5
 74
     0
  0
LTYPE
  5
78
330
5
100
AcDbSymbolTableRecord
100
AcDbLinetypeTableRecord
  2
PHANTOM1
 70
     0
  3
--- - - --- - - --- - - --- - - 
 72
    65
 73
     6
 40
10.0
 49
3.25
 74
     0
 49
-1.25
 74
     0
 49
1.25
 74
     0
 49
-1.25
 74
     0
 49
1.25
 74
     0
 49
-1.25
 74
     0
  0
LTYPE
  5
79
330
5
100
AcDbSymbolTableRecord
100
AcDbLinetypeTableRecord
  2
PHANTOM2
 70
     0
  3
--------  -  -  --------  -  -  
 72
    65
 73
     6
 40
20.0
 49
10.0
 74
     0
 49
-2.5
 74
     0
 49
1.25
 74
     0
 49
-2.5
 74
     0
 49
1.25
 74
     0
 49
-2.5
 74
     0
  0
LTYPE
  5
7A
330
5
100
AcDbSymbolTableRecord
100
AcDbLinetypeTableRecord
  2
DOT
 70
     0
  3
-   -   -   -   -   -   -   -   
 72
    65
 73
     2
 40
2.5
 49
0.625
 74
     0
 49
-1.875
 74
     0
  0
LTYPE
  5
7B
330
5
100
AcDbSymbolTableRecord
100
AcDbLinetypeTableRecord
  2
DUMMY
 70
     0
  3
ダミー
 72
    65
 73
     0
 40
0.0
  0
LTYPE
  5
7C
330
5
100
AcDbSymbolTableRecord
100
AcDbLinetypeTableRecord
  2
RAND1
 70
     0
  3
ランダム線1
 72
    65
 73
     4
 40
10.0
 49
1.0
 74
     0
 49
-2.0
 74
     0
 49
3.0
 74
     0
 49
-4.0
 74
     0
  0
LTYPE
  5
7D
330
5
100
AcDbSymbolTableRecord
100
AcDbLinetypeTableRecord
  2
RAND2
 70
     0
  3
ランダム線2
 72
    65
 73
     4
 40
14.0
 49
2.0
 74
     0
 49
-3.0
 74
     0
 49
4.0
 74
     0
 49
-5.0
 74
     0
  0
LTYPE
  5
7E
330
5
100
AcDbSymbolTableRecord
100
AcDbLinetypeTableRecord
  2
RAND3
 70
     0
  3
ランダム線3
 72
    65
 73
     4
 40
18.0
 49
3.0
 74
     0
 49
-4.0
 74
     0
 49
5.0
 74
     0
 49
-6.0
 74
     0
  0
LTYPE
  5
7F
330
5
100
AcDbSymbolTableRecord
100
AcDbLinetypeTableRecord
  2
RAND4
 70
     0
  3
ランダム線4
 72
    65
 73
     4
 40
22.0
 49
4.0
 74
     0
 49
-5.0
 74
     0
 49
6.0
 74
     0
 49
-7.0
 74
     0
  0
LTYPE
  5
80
330
5
100
AcDbSymbolTableRecord
100
AcDbLinetypeTableRecord
  2
RAND5
 70
     0
  3
ランダム線5
 72
    65
 73
     4
 40
26.0
 49
5.0
 74
     0
 49
-6.0
 74
     0
 49
7.0
 74
     0
 49
-8.0
 74
     0
  0
LTYPE
  5
81
330
5
100
AcDbSymbolTableRecord
100
AcDbLinetypeTableRecord
  2
LONG1
 70
     0
  3
----------  --  ----------  --  
 72
    65
 73
     4
 40
40.0
 49
32.5
 74
     0
 49
-2.5
 74
     0
 49
2.5
 74
     0
 49
-2.5
 74
     0
  0
LTYPE
  5
82
330
5
100
AcDbSymbolTableRecord
100
AcDbLinetypeTableRecord
  2
LONG2
 70
     0
  3
--------  -  -  --------  -  -  
 72
    65
 73
     6
 40
40.0
 49
30.0
 74
     0
 49
-2.5
 74
     0
 49
1.25
 74
     0
 49
-2.5
 74
     0
 49
1.25
 74
     0
 49
-2.5
 74
     0
  0
LTYPE
  5
83
330
5
100
AcDbSymbolTableRecord
100
AcDbLinetypeTableRecord
  2
LONG3
 70
     0
  3
+++++++++++++++..+++++++++++++++
 72
    65
 73
     2
 40
40.0
 49
37.5
 74
     0
 49
-2.5
 74
     0
  0
LTYPE
  5
84
330
5
100
AcDbSymbolTableRecord
100
AcDbLinetypeTableRecord
  2
LONG4
 70
     0
  3
+++++++++++++++..+++++++++++++++
 72
    65
 73
     2
 40
80.0
 49
75.0
 74
     0
 49
-5.0
 74
     0
  0
LTYPE
  5
85
330
5
100
AcDbSymbolTableRecord
100
AcDbLinetypeTableRecord
  2
LONG5
 70
     0
  3
----------  --  ----------  --  
 72
    65
 73
     4
 40
60.0
 49
37.5
 74
     0
 49
-7.5
 74
     0
 49
7.5
 74
     0
 49
-7.5
 74
     0
  0
LTYPE
  5
86
330
5
100
AcDbSymbolTableRecord
100
AcDbLinetypeTableRecord
  2
DASHED
 70
     0
  3
-------   -------------   ------
 72
    65
 73
     2
 40
7.5
 49
6.0
 74
     0
 49
-1.5
 74
     0
  0
LTYPE
  5
87
330
5
100
AcDbSymbolTableRecord
100
AcDbLinetypeTableRecord
  2
DASHED_SPACED
 70
     0
  3
----        --------        ----
 72
    65
 73
     2
 40
12.0
 49
6.0
 74
     0
 49
-6.0
 74
     0
  0
LTYPE
  5
88
330
5
100
AcDbSymbolTableRecord
100
AcDbLinetypeTableRecord
  2
LONG_DASHED_DOTTED
 70
     0
  3
------------- --- --------------
 72
    65
 73
     4
 40
15.25
 49
12.0
 74
     0
 49
-1.5
 74
     0
 49
0.25
 74
     0
 49
-1.5
 74
     0
  0
LTYPE
  5
89
330
5
100
AcDbSymbolTableRecord
100
AcDbLinetypeTableRecord
  2
LONG_DASHED_DOUBLE-DOTTED
 70
     0
  3
----------- --- --- ------------
 72
    65
 73
     6
 40
17.0
 49
12.0
 74
     0
 49
-1.5
 74
     0
 49
0.25
 74
     0
 49
-1.5
 74
     0
 49
0.25
 74
     0
 49
-1.5
 74
     0
  0
LTYPE
  5
8A
330
5
100
AcDbSymbolTableRecord
100
AcDbLinetypeTableRecord
  2
LONG_DASHED_TRIPLICATE-DOTTED
 70
     0
  3
--------- --- --- --- ----------
 72
    65
 73
     8
 40
18.75
 49
12.0
 74
     0
 49
-1.5
 74
     0
 49
0.25
 74
     0
 49
-1.5
 74
     0
 49
0.25
 74
     0
 49
-1.5
 74
     0
 49
0.25
 74
     0
 49
-1.5
 74
     0
  0
LTYPE
  5
8B
330
5
100
AcDbSymbolTableRecord
100
AcDbLinetypeTableRecord
  2
DOTTED
 70
     0
  3
   -       -       -       -    
 72
    65
 73
     2
 40
1.75
 49
0.25
 74
     0
 49
-1.5
 74
     0
  0
LTYPE
  5
8C
330
5
100
AcDbSymbolTableRecord
100
AcDbLinetypeTableRecord
  2
CHAIN
 70
     0
  3
-------------- -- --------------
 72
    65
 73
     4
 40
18.5
 49
12.0
 74
     0
 49
-1.5
 74
     0
 49
3.5
 74
     0
 49
-1.5
 74
     0
  0
LTYPE
  5
8D
330
5
100
AcDbSymbolTableRecord
100
AcDbLinetypeTableRecord
  2
CHAIN_DOUBLE_DASH
 70
     0
  3
------------ -- -- -------------
 72
    65
 73
     6
 40
23.5
 49
12.0
 74
     0
 49
-1.5
 74
     0
 49
3.5
 74
     0
 49
-1.5
 74
     0
 49
3.5
 74
     0
 49
-1.5
 74
     0
  0
LTYPE
  5
8E
330
5
100
AcDbSymbolTableRecord
100
AcDbLinetypeTableRecord
  2
DASHED_DOTTED
 70
     0
  3
-----------     -     ----------
 72
    65
 73
     4
 40
9.25
 49
6.0
 74
     0
 49
-1.5
 74
     0
 49
0.25
 74
     0
 49
-1.5
 74
     0
  0
LTYPE
  5
8F
330
5
100
AcDbSymbolTableRecord
100
AcDbLinetypeTableRecord
  2
DOUBLE-DASHED_DOTTED
 70
     0
  3
------   -----------   -   -----
 72
    65
 73
     6
 40
16.75
 49
6.0
 74
     0
 49
-1.5
 74
     0
 49
6.0
 74
     0
 49
-1.5
 74
     0
 49
0.25
 74
     0
 49
-1.5
 74
     0
  0
LTYPE
  5
90
330
5
100
AcDbSymbolTableRecord
100
AcDbLinetypeTableRecord
  2
DASHED_DOUBLE-DOTTED
 70
     0
  3
---------    -    -    ---------
 72
    65
 73
     6
 40
11.0
 49
6.0
 74
     0
 49
-1.5
 74
     0
 49
0.25
 74
     0
 49
-1.5
 74
     0
 49
0.25
 74
     0
 49
-1.5
 74
     0
  0
LTYPE
  5
91
330
5
100
AcDbSymbolTableRecord
100
AcDbLinetypeTableRecord
  2
DOUBLE-DASHED_DOUBLE-DOTTED
 70
     0
  3
-----   ---------   -   -   ----
 72
    65
 73
     8
 40
18.5
 49
6.0
 74
     0
 49
-1.5
 74
     0
 49
6.0
 74
     0
 49
-1.5
 74
     0
 49
0.25
 74
     0
 49
-1.5
 74
     0
 49
0.25
 74
     0
 49
-1.5
 74
     0
  0
LTYPE
  5
92
330
5
100
AcDbSymbolTableRecord
100
AcDbLinetypeTableRecord
  2
DASHED_TRIPLICATE-DOTTED
 70
     0
  3
-------    -    -    -    ------
 72
    65
 73
     8
 40
12.75
 49
6.0
 74
     0
 49
-1.5
 74
     0
 49
0.25
 74
     0
 49
-1.5
 74
     0
 49
0.25
 74
     0
 49
-1.5
 74
     0
 49
0.25
 74
     0
 49
-1.5
 74
     0
  0
LTYPE
  5
93
330
5
100
AcDbSymbolTableRecord
100
AcDbLinetypeTableRecord
  2
DOUBLE-DASHED_TRIPLICATE-DOTTED
 70
     0
  3
-----  ---------  -  -  -  -----
 72
    65
 73
    10
 40
20.25
 49
6.0
 74
     0
 49
-1.5
 74
     0
 49
6.0
 74
     0
 49
-1.5
 74
     0
 49
0.25
 74
     0
 49
-1.5
 74
     0
 49
0.25
 74
     0
 49
-1.5
 74
     0
 49
0.25
 74
     0
 49
-1.5
 74
     0
  0
LTYPE
  5
94
330
5
100
AcDbSymbolTableRecord
100
AcDbLinetypeTableRecord
  2
UNDEFINED
 70
     0
  3
--------------------------------
 72
    65
 73
     0
 40
0.0
  0
LTYPE
  5
95
330
5
100
AcDbSymbolTableRecord
100
AcDbLinetypeTableRecord
  2
PLINE2
 70
     0
  3
------     -----------     -----
 72
    65
 73
     2
 40
3.0
 49
2.1
 74
     0
 49
-0.9
 74
     0
  0
LTYPE
  5
96
330
5
100
AcDbSymbolTableRecord
100
AcDbLinetypeTableRecord
  2
HASEN
 70
     0
  3
-----      ----------      -----
 72
    65
 73
     2
 40
2.5
 49
1.5
 74
     0
 49
-1.0
 74
     0
  0
ENDTAB
  0
TABLE
  2
LAYER
  5
2
102
{ACAD_XDICTIONARY
360
2F1
102
}
330
0
100
AcDbSymbolTable
 70
     7
  0
LAYER
  5
54
102
{ACAD_XDICTIONARY
360
249
102
}
330
2
100
AcDbSymbolTableRecord
100
AcDbLayerTableRecord
  2
0
 70
     0
 62
     7
  6
CONTINUOUS
370
    -3
390
F
  0
LAYER
  5
98
102
{ACAD_XDICTIONARY
360
24B
102
}
330
2
100
AcDbSymbolTableRecord
100
AcDbLayerTableRecord
  2
_0-0_0
 70
     0
 62
     7
  6
CONTINUOUS
370
    -3
390
F
  0
LAYER
  5
99
102
{ACAD_XDICTIONARY
360
24D
102
}
330
2
100
AcDbSymbolTableRecord
100
AcDbLayerTableRecord
  2
_0-3_躯体と製品
 70
     0
 62
     7
  6
CONTINUOUS
370
    -3
390
F
  0
LAYER
  5
9A
102
{ACAD_XDICTIONARY
360
24F
102
}
330
2
100
AcDbSymbolTableRecord
100
AcDbLayerTableRecord
  2
_0-4_文字-記号
 70
     0
 62
     7
  6
CONTINUOUS
370
    -3
390
F
  0
LAYER
  5
9B
102
{ACAD_XDICTIONARY
360
251
102
}
330
2
100
AcDbSymbolTableRecord
100
AcDbLayerTableRecord
  2
_0-5_中心線
 70
     0
 62
     7
  6
CONTINUOUS
370
    -3
390
F
  0
LAYER
  5
9C
102
{ACAD_XDICTIONARY
360
253
102
}
330
2
100
AcDbSymbolTableRecord
100
AcDbLayerTableRecord
  2
ADD_LINE
 70
     0
 62
     7
  6
CONTINUOUS
370
    -3
390
F
  0
LAYER
  5
AE
102
{ACAD_XDICTIONARY
360
255
102
}
330
2
100
AcDbSymbolTableRecord
100
AcDbLayerTableRecord
  2
_0-1_Defpoints
 70
     0
 62
     7
  6
CONTINUOUS
370
    -3
390
F
  0
ENDTAB
  0
TABLE
  2
STYLE
  5
3
330
0
100
AcDbSymbolTable
 70
     3
  0
STYLE
  5
55
330
3
100
AcDbSymbolTableRecord
100
AcDbTextStyleTableRecord
  2
STANDARD
 70
     0
 40
0.0
 41
1.0
 50
0.0
 71
     0
 42
0.2
  3
txt
  4
bigfont.shx
  0
STYLE
  5
59
330
3
100
AcDbSymbolTableRecord
100
AcDbTextStyleTableRecord
  2
Annotative
 70
     0
 40
0.0
 41
1.0
 50
0.0
 71
     0
 42
0.2
  3
txt
  4

1001
AcadAnnotative
1000
AnnotativeData
1002
{
1070
     1
1070
     1
1002
}
  0
STYLE
  5
97
330
3
100
AcDbSymbolTableRecord
100
AcDbTextStyleTableRecord
  2
TATEGAKI
 70
     4
 40
0.0
 41
1.0
 50
0.0
 71
     0
 42
1.0
  3
txt
  4
bigfont.shx
  0
ENDTAB
  0
TABLE
  2
VIEW
  5
6
330
0
100
AcDbSymbolTable
 70
     1
  0
ENDTAB
  0
TABLE
  2
UCS
  5
7
330
0
100
AcDbSymbolTable
 70
     0
  0
ENDTAB
  0
TABLE
  2
APPID
  5
9
330
0
100
AcDbSymbolTable
 70
     8
  0
APPID
  5
56
330
9
100
AcDbSymbolTableRecord
100
AcDbRegAppTableRecord
  2
ACAD
 70
     0
  0
APPID
  5
5D
330
9
100
AcDbSymbolTableRecord
100
AcDbRegAppTableRecord
  2
AcadAnnotative
 70
     0
  0
APPID
  5
257
330
9
100
AcDbSymbolTableRecord
100
AcDbRegAppTableRecord
  2
ACAD_NAV_VCDISPLAY
 70
     0
  0
APPID
  5
28B
330
9
100
AcDbSymbolTableRecord
100
AcDbRegAppTableRecord
  2
ACAD_MLEADERVER
 70
     0
  0
APPID
  5
2AD
330
9
100
AcDbSymbolTableRecord
100
AcDbRegAppTableRecord
  2
ACAUTHENVIRON
 70
     0
  0
APPID
  5
2B1
330
9
100
AcDbSymbolTableRecord
100
AcDbRegAppTableRecord
  2
ACAD_EXEMPT_FROM_CAD_STANDARDS
 70
     0
  0
APPID
  5
2DC
330
9
100
AcDbSymbolTableRecord
100
AcDbRegAppTableRecord
  2
AcDbDynamicBlockTrueName
 70
     0
  0
APPID
  5
2DD
330
9
100
AcDbSymbolTableRecord
100
AcDbRegAppTableRecord
  2
AcDbDynamicBlockGUID
 70
     0
  0
ENDTAB
  0
TABLE
  2
DIMSTYLE
  5
A
330
0
100
AcDbSymbolTable
 70
     2
100
AcDbDimStyleTable
 71
     1
340
57
  0
DIMSTYLE
105
57
330
A
100
AcDbSymbolTableRecord
100
AcDbDimStyleTableRecord
  2
Standard
 70
     0
340
55
  0
DIMSTYLE
105
58
330
A
100
AcDbSymbolTableRecord
100
AcDbDimStyleTableRecord
  2
Annotative
 70
     0
340
55
1001
AcadAnnotative
1000
AnnotativeData
1002
{
1070
     1
1070
     1
1002
}
  0
ENDTAB
  0
TABLE
  2
BLOCK_RECORD
  5
1
330
0
100
AcDbSymbolTable
 70
     5
  0
BLOCK_RECORD
  5
6F
330
1
100
AcDbSymbolTableRecord
100
AcDbBlockTableRecord
  2
*Model_Space
340
72
  0
BLOCK_RECORD
  5
6B
330
1
100
AcDbSymbolTableRecord
100
AcDbBlockTableRecord
  2
*Paper_Space
340
6E
  0
BLOCK_RECORD
  5
A0
330
1
100
AcDbSymbolTableRecord
100
AcDbBlockTableRecord
  2
-000-_DOT
340
0
102
{BLKREFS
331
2C9
331
2CA
331
AB
331
AC
331
B8
331
B9
331
C5
331
C6
102
}
  0
BLOCK_RECORD
  5
A6
330
1
100
AcDbSymbolTableRecord
100
AcDbBlockTableRecord
  2
-001-_D5
340
0
102
{BLKREFS
331
DB
102
}
  0
BLOCK_RECORD
  5
B3
330
1
100
AcDbSymbolTableRecord
100
AcDbBlockTableRecord
  2
-002-_D7
340
0
102
{BLKREFS
331
DC
102
}
  0
BLOCK_RECORD
  5
BF
330
1
100
AcDbSymbolTableRecord
100
AcDbBlockTableRecord
  2
-003-_D8
340
0
102
{BLKREFS
331
DD
102
}
  0
BLOCK_RECORD
  5
CC
102
{ACAD_XDICTIONARY
360
2CF
102
}
330
1
100
AcDbSymbolTableRecord
100
AcDbBlockTableRecord
  2
-004-_D9
340
0
102
{BLKREFS
331
DE
102
}
1001
AcDbDynamicBlockGUID
1000
{F8FE0377-3935-C340-88A7-983E301EB6E3}
  0
ENDTAB
  0
ENDSEC
  0
SECTION
  2
BLOCKS
  0
BLOCK
  5
70
330
6F
100
AcDbEntity
  8
0
100
AcDbBlockBegin
  2
*Model_Space
 70
     0
 10
0.0
 20
0.0
 30
0.0
  3
*Model_Space
  1

  0
ENDBLK
  5
71
330
6F
100
AcDbEntity
  8
0
100
AcDbBlockEnd
  0
BLOCK
  5
6C
330
6B
100
AcDbEntity
 67
     1
  8
0
100
AcDbBlockBegin
  2
*Paper_Space
 70
     0
 10
0.0
 20
0.0
 30
0.0
  3
*Paper_Space
  1

  0
ENDBLK
  5
6D
330
6B
100
AcDbEntity
 67
     1
  8
0
100
AcDbBlockEnd
  0
BLOCK
  5
A1
330
A0
100
AcDbEntity
  8
0
100
AcDbBlockBegin
  2
-000-_DOT
 70
     0
 10
0.0
 20
0.0
 30
0.0
  3
-000-_DOT
  1

  0
CIRCLE
  5
A2
330
A0
100
AcDbEntity
  8
_0-0_0
  6
Continuous
 62
     7
100
AcDbCircle
 10
0.0
 20
0.0
 30
0.0
 40
0.25
  0
LINE
  5
A3
330
A0
100
AcDbEntity
  8
_0-0_0
  6
Continuous
 62
     7
100
AcDbLine
 10
0.25
 20
0.0
 30
0.0
 11
-0.25
 21
0.0
 31
0.0
  0
LINE
  5
A4
330
A0
100
AcDbEntity
  8
_0-0_0
  6
Continuous
 62
     7
100
AcDbLine
 10
-0.5
 20
0.0
 30
0.0
 11
-1.0
 21
0.0
 31
0.0
  0
ENDBLK
  5
A5
330
A0
100
AcDbEntity
  8
0
100
AcDbBlockEnd
  0
BLOCK
  5
A7
330
A6
100
AcDbEntity
  8
0
100
AcDbBlockBegin
  2
-001-_D5
 70
     0
 10
0.0
 20
0.0
 30
0.0
  3
-001-_D5
  1

  0
LINE
  5
A8
330
A6
100
AcDbEntity
  8
_0-0_0
  6
Continuous
 62
     4
100
AcDbLine
 10
2844.545635438673
 20
635.1356211962735
 30
0.0
 11
2830.811161810566
 21
635.1356211962735
 31
0.0
  0
LINE
  5
A9
330
A6
100
AcDbEntity
  8
_0-0_0
  6
Continuous
 62
     4
100
AcDbLine
 10
2844.545635438673
 20
533.1356211962734
 30
0.0
 11
2830.811161810566
 21
533.1356211962734
 31
0.0
  0
LINE
  5
AA
330
A6
100
AcDbEntity
  8
_0-0_0
  6
Continuous
 62
     4
100
AcDbLine
 10
2830.811161810566
 20
634.1356211962732
 30
0.0
 11
2830.811161810566
 21
534.1356211962732
 31
0.0
  0
INSERT
  5
AB
330
A6
100
AcDbEntity
  8
_0-0_0
100
AcDbBlockReference
  2
-000-_DOT
 10
2830.811161810566
 20
635.1356211962735
 30
0.0
 50
90.0
  0
INSERT
  5
AC
330
A6
100
AcDbEntity
  8
_0-0_0
100
AcDbBlockReference
  2
-000-_DOT
 10
2830.811161810566
 20
533.1356211962734
 30
0.0
 50
270.0
  0
TEXT
  5
AD
330
A6
100
AcDbEntity
  8
_0-0_0
 62
     7
100
AcDbText
 10
2827.811161810566
 20
577.3856211962738
 30
0.0
 40
9.0
  1
102
 50
90.0
100
AcDbText
  0
POINT
  5
AF
330
A6
100
AcDbEntity
  8
_0-1_Defpoints
 62
     7
100
AcDbPoint
 10
2844.545635438673
 20
635.1356211962735
 30
0.0
  0
POINT
  5
B0
330
A6
100
AcDbEntity
  8
_0-1_Defpoints
 62
     7
100
AcDbPoint
 10
2844.545635438673
 20
533.1356211962734
 30
0.0
  0
POINT
  5
B1
330
A6
100
AcDbEntity
  8
_0-1_Defpoints
 62
     7
100
AcDbPoint
 10
2830.811161810566
 20
533.1356211962734
 30
0.0
  0
ENDBLK
  5
B2
330
A6
100
AcDbEntity
  8
0
100
AcDbBlockEnd
  0
BLOCK
  5
B4
330
B3
100
AcDbEntity
  8
0
100
AcDbBlockBegin
  2
-002-_D7
 70
     0
 10
0.0
 20
0.0
 30
0.0
  3
-002-_D7
  1

  0
LINE
  5
B5
330
B3
100
AcDbEntity
  8
_0-0_0
  6
Continuous
 62
     4
100
AcDbLine
 10
3536.438205308853
 20
633.133185337291
 30
0.0
 11
3630.252560342679
 21
633.133185337291
 31
0.0
  0
LINE
  5
B6
330
B3
100
AcDbEntity
  8
_0-0_0
  6
Continuous
 62
     4
100
AcDbLine
 10
3536.041172512433
 20
533.1356211962734
 30
0.0
 11
3630.252560342679
 21
533.1356211962734
 31
0.0
  0
LINE
  5
B7
330
B3
100
AcDbEntity
  8
_0-0_0
  6
Continuous
 62
     4
100
AcDbLine
 10
3630.252560342679
 20
632.133185337291
 30
0.0
 11
3630.252560342679
 21
534.1356211962732
 31
0.0
  0
INSERT
  5
B8
330
B3
100
AcDbEntity
  8
_0-0_0
100
AcDbBlockReference
  2
-000-_DOT
 10
3630.252560342679
 20
633.133185337291
 30
0.0
 50
90.0
  0
INSERT
  5
B9
330
B3
100
AcDbEntity
  8
_0-0_0
100
AcDbBlockReference
  2
-000-_DOT
 10
3630.252560342679
 20
533.1356211962734
 30
0.0
 50
270.0
  0
TEXT
  5
BA
330
B3
100
AcDbEntity
  8
_0-0_0
 62
     7
100
AcDbText
 10
3627.252560342677
 20
576.3844032667828
 30
0.0
 40
9.0
  1
100
 50
90.0
100
AcDbText
  0
POINT
  5
BB
330
B3
100
AcDbEntity
  8
_0-1_Defpoints
 62
     7
100
AcDbPoint
 10
3536.438205308853
 20
633.133185337291
 30
0.0
  0
POINT
  5
BC
330
B3
100
AcDbEntity
  8
_0-1_Defpoints
 62
     7
100
AcDbPoint
 10
3536.041172512433
 20
533.1356211962734
 30
0.0
  0
POINT
  5
BD
330
B3
100
AcDbEntity
  8
_0-1_Defpoints
 62
     7
100
AcDbPoint
 10
3630.252560342679
 20
533.1356211962734
 30
0.0
  0
ENDBLK
  5
BE
330
B3
100
AcDbEntity
  8
0
100
AcDbBlockEnd
  0
BLOCK
  5
C0
330
BF
100
AcDbEntity
  8
0
100
AcDbBlockBegin
  2
-003-_D8
 70
     0
 10
0.0
 20
0.0
 30
0.0
  3
-003-_D8
  1

  0
LINE
  5
C1
330
BF
100
AcDbEntity
  8
_0-0_0
  6
Continuous
 62
     4
100
AcDbLine
 10
3536.438205308853
 20
633.133185337291
 30
0.0
 11
3580.360057649566
 21
633.133185337291
 31
0.0
  0
LINE
  5
C2
330
BF
100
AcDbEntity
  8
_0-0_0
  6
Continuous
 62
     4
100
AcDbLine
 10
3536.438205308853
 20
626.633185337291
 30
0.0
 11
3580.360057649566
 21
626.633185337291
 31
0.0
  0
LINE
  5
C3
330
BF
100
AcDbEntity
  8
_0-0_0
  6
Continuous
 62
     4
100
AcDbLine
 10
3580.360057649566
 20
634.133185337291
 30
0.0
 11
3580.360057649566
 21
635.133185337291
 31
0.0
  0
LINE
  5
C4
330
BF
100
AcDbEntity
  8
_0-0_0
  6
Continuous
 62
     4
100
AcDbLine
 10
3580.360057649566
 20
625.633185337291
 30
0.0
 11
3580.360057649566
 21
624.633185337291
 31
0.0
  0
INSERT
  5
C5
330
BF
100
AcDbEntity
  8
_0-0_0
100
AcDbBlockReference
  2
-000-_DOT
 10
3580.360057649566
 20
633.133185337291
 30
0.0
 50
270.0
  0
INSERT
  5
C6
330
BF
100
AcDbEntity
  8
_0-0_0
100
AcDbBlockReference
  2
-000-_DOT
 10
3580.360057649566
 20
626.633185337291
 30
0.0
 50
90.0
  0
TEXT
  5
C7
330
BF
100
AcDbEntity
  8
_0-0_0
 62
     7
100
AcDbText
 10
3577.360057649565
 20
623.1331853372916
 30
0.0
 40
9.0
  1
6.5
 50
90.0
100
AcDbText
  0
POINT
  5
C8
330
BF
100
AcDbEntity
  8
_0-1_Defpoints
 62
     7
100
AcDbPoint
 10
3536.438205308853
 20
633.133185337291
 30
0.0
  0
POINT
  5
C9
330
BF
100
AcDbEntity
  8
_0-1_Defpoints
 62
     7
100
AcDbPoint
 10
3536.438205308853
 20
626.633185337291
 30
0.0
  0
POINT
  5
CA
330
BF
100
AcDbEntity
  8
_0-1_Defpoints
 62
     7
100
AcDbPoint
 10
3580.360057649566
 20
626.633185337291
 30
0.0
  0
ENDBLK
  5
CB
330
BF
100
AcDbEntity
  8
0
100
AcDbBlockEnd
  0
BLOCK
  5
CD
330
CC
100
AcDbEntity
  8
0
100
AcDbBlockBegin
  2
-004-_D9
 70
     0
 10
0.0
 20
0.0
 30
0.0
  3
-004-_D9
  1

  0
LINE
  5
2C5
330
CC
100
AcDbEntity
  8
_0-0_0
  6
Continuous
 62
     4
100
AcDbLine
 10
3536.438205308853
 20
626.633185337291
 30
0.0
 11
3608.294834782304
 21
626.633185337291
 31
0.0
  0
LINE
  5
2C6
330
CC
100
AcDbEntity
  8
_0-0_0
  6
Continuous
 62
     4
100
AcDbLine
 10
3536.041172512433
 20
596.7331853372915
 30
0.0
 11
3608.294834782304
 21
596.7331853372915
 31
0.0
  0
LINE
  5
2C7
330
CC
100
AcDbEntity
  8
_0-0_0
  6
Continuous
 62
     4
100
AcDbLine
 10
3608.294834782304
 20
627.6331853372909
 30
0.0
 11
3608.294834782304
 21
628.633185337291
 31
0.0
  0
LINE
  5
2C8
330
CC
100
AcDbEntity
  8
_0-0_0
  6
Continuous
 62
     4
100
AcDbLine
 10
3608.294834782304
 20
595.7331853372915
 30
0.0
 11
3608.294834782304
 21
594.7331853372914
 31
0.0
  0
INSERT
  5
2C9
330
CC
100
AcDbEntity
  8
_0-0_0
100
AcDbBlockReference
  2
-000-_DOT
 10
3608.294834782304
 20
626.633185337291
 30
0.0
 50
270.0
  0
INSERT
  5
2CA
330
CC
100
AcDbEntity
  8
_0-0_0
100
AcDbBlockReference
  2
-000-_DOT
 10
3608.294834782304
 20
596.7331853372915
 30
0.0
 50
90.0
  0
TEXT
  5
2CB
102
{ACAD_REACTORS
330
2D2
102
}
330
CC
100
AcDbEntity
  8
_0-0_0
 62
     7
100
AcDbText
 10
3605.294834782306
 20
604.1831853372912
 30
0.0
 40
9.0
  1
29
 50
90.0
100
AcDbText
  0
POINT
  5
2CC
330
CC
100
AcDbEntity
  8
_0-1_Defpoints
 62
     7
100
AcDbPoint
 10
3536.438205308853
 20
626.633185337291
 30
0.0
  0
POINT
  5
2CD
330
CC
100
AcDbEntity
  8
_0-1_Defpoints
 62
     7
100
AcDbPoint
 10
3536.041172512433
 20
596.7331853372915
 30
0.0
  0
POINT
  5
2CE
330
CC
100
AcDbEntity
  8
_0-1_Defpoints
 62
     7
100
AcDbPoint
 10
3608.294834782304
 20
596.7331853372915
 30
0.0
  0
ENDBLK
  5
D8
330
CC
100
AcDbEntity
  8
0
100
AcDbBlockEnd
  0
ENDSEC
  0
SECTION
  2
ENTITIES
  0
LINE
  5
D9
330
6F
100
AcDbEntity
  8
_0-0_0
  6
Continuous
 62
     4
100
AcDbLine
 10
448.1651174905193
 20
-19.22274480137639
 30
0.0
 11
448.1651174905192
 21
-49.12274480137594
 31
0.0
  0
LINE
  5
DA
330
6F
100
AcDbEntity
  8
_0-0_0
  6
Continuous
 62
     4
100
AcDbLine
 10
448.1651174905192
 20
-49.12274480137594
 30
0.0
 11
433.1144207882804
 21
-49.12274480137594
 31
0.0
  0
INSERT
  5
DB
330
6F
100
AcDbEntity
  8
_0-0_0
100
AcDbBlockReference
  2
-001-_D5
 10
-3160.129717291785
 20
-645.8559301386674
 30
0.0
  0
INSERT
  5
DC
330
6F
100
AcDbEntity
  8
_0-0_0
100
AcDbBlockReference
  2
-002-_D7
 10
-3160.129717291785
 20
-645.8559301386674
 30
0.0
  0
INSERT
  5
DD
330
6F
100
AcDbEntity
  8
_0-0_0
100
AcDbBlockReference
  2
-003-_D8
 10
-3160.129717291785
 20
-645.8559301386674
 30
0.0
  0
INSERT
  5
DE
330
6F
100
AcDbEntity
  8
_0-0_0
100
AcDbBlockReference
  2
-004-_D9
 10
-3160.129717291785
 20
-645.8559301386674
 30
0.0
  0
LINE
  5
DF
330
6F
100
AcDbEntity
  8
_0-3_躯体と製品
  6
Continuous
 62
     7
100
AcDbLine
 10
-315.5840818531117
 20
-107.700308942394
 30
0.0
 11
-455.5840808531104
 21
-107.700308942394
 31
0.0
  0
LINE
  5
E0
330
6F
100
AcDbEntity
  8
_0-4_文字-記号
  6
Continuous
 62
     7
100
AcDbLine
 10
-342.6245648477695
 20
-107.2744878394576
 30
0.0
 11
-348.3566168477694
 21
-101.3462878394576
 31
0.0
  0
LINE
  5
E1
330
6F
100
AcDbEntity
  8
_0-4_文字-記号
  6
Continuous
 62
     7
100
AcDbLine
 10
-342.6245648477695
 20
-107.2744878394576
 30
0.0
 11
-344.8925168477697
 21
-99.34628783945758
 31
0.0
  0
LINE
  5
E2
330
6F
100
AcDbEntity
  8
_0-3_躯体と製品
  6
Continuous
 62
     7
100
AcDbLine
 10
-298.0840818531126
 20
-109.6003089423941
 30
0.0
 11
-290.0840818531117
 21
-109.6003089423941
 31
0.0
  0
ARC
  5
E3
330
6F
100
AcDbEntity
  8
_0-3_躯体と製品
  6
Continuous
 62
     7
100
AcDbCircle
 10
-294.0840818531126
 20
-113.4003089423941
 30
0.0
 40
6.0
100
AcDbArc
 50
90.0
 51
127.4662099999989
  0
LINE
  5
E4
330
6F
100
AcDbEntity
  8
_0-3_躯体と製品
  6
DASHED1
 62
     7
100
AcDbLine
 10
-296.0840818531117
 20
-110.400308942394
 30
0.0
 11
-296.0840818531117
 21
-120.4003089423941
 31
0.0
  0
LINE
  5
E5
330
6F
100
AcDbEntity
  8
_0-3_躯体と製品
  6
Continuous
 62
     7
100
AcDbLine
 10
-298.0840818531126
 20
-109.6003089423941
 30
0.0
 11
-297.6222018531114
 21
-110.400308942394
 31
0.0
  0
LINE
  5
E6
330
6F
100
AcDbEntity
  8
_0-3_躯体と製品
  6
Continuous
 62
     7
100
AcDbLine
 10
-297.7338418531115
 20
-108.6380389423941
 30
0.0
 11
-298.0840818531126
 21
-109.6003089423941
 31
0.0
  0
LINE
  5
E7
330
6F
100
AcDbEntity
  8
_0-3_躯体と製品
  6
DASHED1
 62
     7
100
AcDbLine
 10
-292.0840818531117
 20
-110.400308942394
 30
0.0
 11
-292.0840818531117
 21
-120.4003089423941
 31
0.0
  0
ARC
  5
E8
330
6F
100
AcDbEntity
  8
_0-3_躯体と製品
  6
Continuous
 62
     7
100
AcDbCircle
 10
-294.0840818531126
 20
-113.4003089423941
 30
0.0
 40
6.0
100
AcDbArc
 50
52.53378200001769
 51
90.0
  0
LINE
  5
E9
330
6F
100
AcDbEntity
  8
_0-3_躯体と製品
  6
Continuous
 62
     7
100
AcDbLine
 10
-290.0840818531117
 20
-109.6003089423941
 30
0.0
 11
-290.5459618531115
 21
-110.400308942394
 31
0.0
  0
LINE
  5
EA
330
6F
100
AcDbEntity
  8
_0-3_躯体と製品
  6
Continuous
 62
     7
100
AcDbLine
 10
-290.4343218531114
 20
-108.6380389423941
 30
0.0
 11
-290.0840818531117
 21
-109.6003089423941
 31
0.0
  0
LINE
  5
EB
330
6F
100
AcDbEntity
  8
_0-4_文字-記号
  6
Continuous
 62
     7
100
AcDbLine
 10
-342.6245648477695
 20
-107.2744878394576
 30
0.0
 11
-367.1600088763064
 21
-64.77784836860223
 31
0.0
  0
LINE
  5
EC
330
6F
100
AcDbEntity
  8
_0-4_文字-記号
  6
Continuous
 62
     7
100
AcDbLine
 10
-367.1600088763064
 20
-64.77784836860223
 30
0.0
 11
-431.2464396576003
 21
-64.77784836860223
 31
0.0
  0
TEXT
  5
ED
330
6F
100
AcDbEntity
  8
_0-4_文字-記号
 62
     7
100
AcDbText
 10
-429.6549658466195
 20
-60.77786836860216
 30
0.0
 40
12.0
  1
Ｐタイル
100
AcDbText
  0
LINE
  5
EE
330
6F
100
AcDbEntity
  8
_0-3_躯体と製品
  6
Continuous
 62
     7
100
AcDbLine
 10
-275.5840818531117
 20
-50.70030894239412
 30
0.0
 11
-277.0840818531117
 21
-46.70030894239411
 31
0.0
  0
LINE
  5
EF
330
6F
100
AcDbEntity
  8
_0-3_躯体と製品
  6
Continuous
 62
     7
100
AcDbLine
 10
-276.0919818531117
 20
-50.20030894239411
 30
0.0
 11
-277.2169818531104
 21
-47.20030894239411
 31
0.0
  0
LINE
  5
F0
330
6F
100
AcDbEntity
  8
_0-3_躯体と製品
  6
Continuous
 62
     7
100
AcDbLine
 10
-276.5761818531107
 20
-47.20030894239411
 30
0.0
 11
-275.4511818531107
 21
-50.20030894239411
 31
0.0
  0
LINE
  5
F1
330
6F
100
AcDbEntity
  8
_0-3_躯体と製品
  6
Continuous
 62
     7
100
AcDbLine
 10
-278.5840818531117
 20
-50.20030894239411
 30
0.0
 11
-284.5840818531117
 21
-48.70030894239403
 31
0.0
  0
LINE
  5
F2
330
6F
100
AcDbEntity
  8
_0-3_躯体と製品
  6
Continuous
 62
     7
100
AcDbLine
 10
-284.5840818531117
 20
-48.70030894239403
 30
0.0
 11
-283.0840818531117
 21
-50.20030894239411
 31
0.0
  0
LINE
  5
F3
330
6F
100
AcDbEntity
  8
_0-3_躯体と製品
  6
Continuous
 62
     7
100
AcDbLine
 10
-278.5840818531117
 20
-50.20030894239411
 30
0.0
 11
-278.5840818531117
 21
-47.55470894239397
 31
0.0
  0
LINE
  5
F4
330
6F
100
AcDbEntity
  8
_0-3_躯体と製品
  6
Continuous
 62
     7
100
AcDbLine
 10
-277.0840818531117
 20
-50.70030894239412
 30
0.0
 11
-278.5840818531117
 21
-46.70030894239411
 31
0.0
  0
LINE
  5
F5
330
6F
100
AcDbEntity
  8
_0-3_躯体と製品
  6
Continuous
 62
     7
100
AcDbLine
 10
-277.5919818531104
 20
-50.20030894239411
 30
0.0
 11
-278.7169818531104
 21
-47.20030894239411
 31
0.0
  0
LINE
  5
F6
330
6F
100
AcDbEntity
  8
_0-3_躯体と製品
  6
Continuous
 62
     7
100
AcDbLine
 10
-278.0761818531107
 20
-47.20030894239411
 30
0.0
 11
-276.9511818531107
 21
-50.20030894239411
 31
0.0
  0
LINE
  5
F7
330
6F
100
AcDbEntity
  8
_0-3_躯体と製品
  6
Continuous
 62
     7
100
AcDbLine
 10
-274.0840818531117
 20
-50.70030894239412
 30
0.0
 11
-275.5840818531117
 21
-46.70030894239411
 31
0.0
  0
LINE
  5
F8
330
6F
100
AcDbEntity
  8
_0-3_躯体と製品
  6
Continuous
 62
     7
100
AcDbLine
 10
-274.5919818531117
 20
-50.20030894239411
 30
0.0
 11
-275.7169818531117
 21
-47.20030894239411
 31
0.0
  0
LINE
  5
F9
330
6F
100
AcDbEntity
  8
_0-3_躯体と製品
  6
Continuous
 62
     7
100
AcDbLine
 10
-275.0761818531107
 20
-47.20030894239411
 30
0.0
 11
-273.9511818531107
 21
-50.20030894239411
 31
0.0
  0
LINE
  5
FA
330
6F
100
AcDbEntity
  8
_0-3_躯体と製品
  6
Continuous
 62
     7
100
AcDbLine
 10
-272.5840818531117
 20
-50.70030894239412
 30
0.0
 11
-274.0840818531117
 21
-46.70030894239411
 31
0.0
  0
LINE
  5
FB
330
6F
100
AcDbEntity
  8
_0-3_躯体と製品
  6
Continuous
 62
     7
100
AcDbLine
 10
-273.0919818531118
 20
-50.20030894239411
 30
0.0
 11
-274.2169818531118
 21
-47.20030894239411
 31
0.0
  0
LINE
  5
FC
330
6F
100
AcDbEntity
  8
_0-3_躯体と製品
  6
Continuous
 62
     7
100
AcDbLine
 10
-273.5761818531107
 20
-47.20030894239411
 30
0.0
 11
-272.5840818531117
 21
-49.84590894239409
 31
0.0
  0
LINE
  5
FD
330
6F
100
AcDbEntity
  8
_0-3_躯体と製品
  6
Continuous
 62
     7
100
AcDbLine
 10
-271.7840818531115
 20
-44.70030894239402
 30
0.0
 11
-271.7840818531115
 21
-52.70030894239403
 31
0.0
  0
ARC
  5
FE
330
6F
100
AcDbEntity
  8
_0-3_躯体と製品
  6
Continuous
 62
     7
100
AcDbCircle
 10
-275.5840818531117
 20
-48.70030894239403
 30
0.0
 40
6.0
100
AcDbArc
 50
322.5337800000016
 51
0.0
  0
LINE
  5
FF
330
6F
100
AcDbEntity
  8
_0-3_躯体と製品
  6
Continuous
 62
     7
100
AcDbLine
 10
-283.0840818531117
 20
-50.20030894239411
 30
0.0
 11
-278.5840818531117
 21
-50.20030894239411
 31
0.0
  0
LINE
  5
100
330
6F
100
AcDbEntity
  8
_0-3_躯体と製品
  6
Continuous
 62
     7
100
AcDbLine
 10
-270.8218118531115
 20
-52.35006894239413
 30
0.0
 11
-271.7840818531115
 21
-52.70030894239403
 31
0.0
  0
LINE
  5
101
330
6F
100
AcDbEntity
  8
_0-3_躯体と製品
  6
Continuous
 62
     7
100
AcDbLine
 10
-277.5919818531104
 20
-50.20030894239411
 30
0.0
 11
-278.5840818531117
 21
-50.20030894239411
 31
0.0
  0
LINE
  5
102
330
6F
100
AcDbEntity
  8
_0-3_躯体と製品
  6
Continuous
 62
     7
100
AcDbLine
 10
-276.0919818531117
 20
-50.20030894239411
 30
0.0
 11
-276.9511818531107
 21
-50.20030894239411
 31
0.0
  0
LINE
  5
103
330
6F
100
AcDbEntity
  8
_0-3_躯体と製品
  6
Continuous
 62
     7
100
AcDbLine
 10
-275.5840818531117
 20
-50.70030894239412
 30
0.0
 11
-276.0919818531117
 21
-50.20030894239411
 31
0.0
  0
LINE
  5
104
330
6F
100
AcDbEntity
  8
_0-3_躯体と製品
  6
Continuous
 62
     7
100
AcDbLine
 10
-275.4511818531107
 20
-50.20030894239411
 30
0.0
 11
-275.5840818531117
 21
-50.70030894239412
 31
0.0
  0
LINE
  5
105
330
6F
100
AcDbEntity
  8
_0-3_躯体と製品
  6
Continuous
 62
     7
100
AcDbLine
 10
-278.5840818531117
 20
-50.70030894239412
 30
0.0
 11
-278.0761818531107
 21
-50.20030894239411
 31
0.0
  0
LINE
  5
106
330
6F
100
AcDbEntity
  8
_0-3_躯体と製品
  6
Continuous
 62
     7
100
AcDbLine
 10
-278.7169818531104
 20
-50.20030894239411
 30
0.0
 11
-278.5840818531117
 21
-50.70030894239412
 31
0.0
  0
LINE
  5
107
330
6F
100
AcDbEntity
  8
_0-3_躯体と製品
  6
Continuous
 62
     7
100
AcDbLine
 10
-277.0840818531117
 20
-50.70030894239412
 30
0.0
 11
-277.5919818531104
 21
-50.20030894239411
 31
0.0
  0
LINE
  5
108
330
6F
100
AcDbEntity
  8
_0-3_躯体と製品
  6
Continuous
 62
     7
100
AcDbLine
 10
-276.9511818531107
 20
-50.20030894239411
 30
0.0
 11
-277.0840818531117
 21
-50.70030894239412
 31
0.0
  0
LINE
  5
109
330
6F
100
AcDbEntity
  8
_0-3_躯体と製品
  6
Continuous
 62
     7
100
AcDbLine
 10
-274.0840818531117
 20
-50.70030894239412
 30
0.0
 11
-274.5919818531117
 21
-50.20030894239411
 31
0.0
  0
LINE
  5
10A
330
6F
100
AcDbEntity
  8
_0-3_躯体と製品
  6
Continuous
 62
     7
100
AcDbLine
 10
-273.9511818531107
 20
-50.20030894239411
 30
0.0
 11
-274.0840818531117
 21
-50.70030894239412
 31
0.0
  0
LINE
  5
10B
330
6F
100
AcDbEntity
  8
_0-3_躯体と製品
  6
Continuous
 62
     7
100
AcDbLine
 10
-272.5840818531117
 20
-50.70030894239412
 30
0.0
 11
-273.0919818531118
 21
-50.20030894239411
 31
0.0
  0
LINE
  5
10C
330
6F
100
AcDbEntity
  8
_0-3_躯体と製品
  6
Continuous
 62
     7
100
AcDbLine
 10
-274.5919818531117
 20
-50.20030894239411
 30
0.0
 11
-275.4511818531107
 21
-50.20030894239411
 31
0.0
  0
LINE
  5
10D
330
6F
100
AcDbEntity
  8
_0-3_躯体と製品
  6
Continuous
 62
     7
100
AcDbLine
 10
-273.0919818531118
 20
-50.20030894239411
 30
0.0
 11
-273.9511818531107
 21
-50.20030894239411
 31
0.0
  0
LINE
  5
10E
330
6F
100
AcDbEntity
  8
_0-3_躯体と製品
  6
Continuous
 62
     7
100
AcDbLine
 10
-271.7840818531115
 20
-52.70030894239403
 30
0.0
 11
-272.5840818531117
 21
-52.23842894239396
 31
0.0
  0
LINE
  5
10F
330
6F
100
AcDbEntity
  8
_0-3_躯体と製品
  6
Continuous
 62
     7
100
AcDbLine
 10
-278.7169818531104
 20
-47.20030894239411
 30
0.0
 11
-283.0840818531117
 21
-47.20030894239411
 31
0.0
  0
LINE
  5
110
330
6F
100
AcDbEntity
  8
_0-3_躯体と製品
  6
Continuous
 62
     7
100
AcDbLine
 10
-283.0840818531117
 20
-47.20030894239411
 30
0.0
 11
-283.0840818531117
 21
-49.07530894239411
 31
0.0
  0
LINE
  5
111
330
6F
100
AcDbEntity
  8
_0-3_躯体と製品
  6
Continuous
 62
     7
100
AcDbLine
 10
-283.0840818531117
 20
-47.20030894239411
 30
0.0
 11
-284.5840818531117
 21
-48.70030894239403
 31
0.0
  0
LINE
  5
112
330
6F
100
AcDbEntity
  8
_0-3_躯体と製品
  6
Continuous
 62
     7
100
AcDbLine
 10
-270.8218118531115
 20
-45.05054894239413
 30
0.0
 11
-271.7840818531115
 21
-44.70030894239402
 31
0.0
  0
LINE
  5
113
330
6F
100
AcDbEntity
  8
_0-3_躯体と製品
  6
Continuous
 62
     7
100
AcDbLine
 10
-277.2715818531117
 20
-47.20030894239411
 30
0.0
 11
-278.0761818531107
 21
-47.20030894239411
 31
0.0
  0
LINE
  5
114
330
6F
100
AcDbEntity
  8
_0-3_躯体と製品
  6
Continuous
 62
     7
100
AcDbLine
 10
-277.0840818531117
 20
-46.70030894239411
 30
0.0
 11
-276.5761818531107
 21
-47.20030894239411
 31
0.0
  0
LINE
  5
115
330
6F
100
AcDbEntity
  8
_0-3_躯体と製品
  6
Continuous
 62
     7
100
AcDbLine
 10
-277.2169818531104
 20
-47.20030894239411
 30
0.0
 11
-277.0840818531117
 21
-46.70030894239411
 31
0.0
  0
LINE
  5
116
330
6F
100
AcDbEntity
  8
_0-3_躯体と製品
  6
Continuous
 62
     7
100
AcDbLine
 10
-278.5840818531117
 20
-46.70030894239411
 30
0.0
 11
-278.0761818531107
 21
-47.20030894239411
 31
0.0
  0
LINE
  5
117
330
6F
100
AcDbEntity
  8
_0-3_躯体と製品
  6
Continuous
 62
     7
100
AcDbLine
 10
-278.7169818531104
 20
-47.20030894239411
 30
0.0
 11
-278.5840818531117
 21
-46.70030894239411
 31
0.0
  0
LINE
  5
118
330
6F
100
AcDbEntity
  8
_0-3_躯体と製品
  6
Continuous
 62
     7
100
AcDbLine
 10
-275.5840818531117
 20
-46.70030894239411
 30
0.0
 11
-275.0761818531107
 21
-47.20030894239411
 31
0.0
  0
LINE
  5
119
330
6F
100
AcDbEntity
  8
_0-3_躯体と製品
  6
Continuous
 62
     7
100
AcDbLine
 10
-275.7169818531117
 20
-47.20030894239411
 30
0.0
 11
-275.5840818531117
 21
-46.70030894239411
 31
0.0
  0
LINE
  5
11A
330
6F
100
AcDbEntity
  8
_0-3_躯体と製品
  6
Continuous
 62
     7
100
AcDbLine
 10
-274.0840818531117
 20
-46.70030894239411
 30
0.0
 11
-273.5761818531107
 21
-47.20030894239411
 31
0.0
  0
LINE
  5
11B
330
6F
100
AcDbEntity
  8
_0-3_躯体と製品
  6
Continuous
 62
     7
100
AcDbLine
 10
-274.2169818531118
 20
-47.20030894239411
 30
0.0
 11
-274.0840818531117
 21
-46.70030894239411
 31
0.0
  0
LINE
  5
11C
330
6F
100
AcDbEntity
  8
_0-3_躯体と製品
  6
Continuous
 62
     7
100
AcDbLine
 10
-275.7169818531117
 20
-47.20030894239411
 30
0.0
 11
-276.5761818531107
 21
-47.20030894239411
 31
0.0
  0
LINE
  5
11D
330
6F
100
AcDbEntity
  8
_0-3_躯体と製品
  6
Continuous
 62
     7
100
AcDbLine
 10
-274.2715818531117
 20
-47.20030894239411
 30
0.0
 11
-275.0761818531107
 21
-47.20030894239411
 31
0.0
  0
LINE
  5
11E
330
6F
100
AcDbEntity
  8
_0-3_躯体と製品
  6
Continuous
 62
     7
100
AcDbLine
 10
-272.5840818531117
 20
-47.20030894239411
 30
0.0
 11
-273.5761818531107
 21
-47.20030894239411
 31
0.0
  0
LINE
  5
11F
330
6F
100
AcDbEntity
  8
_0-3_躯体と製品
  6
Continuous
 62
     7
100
AcDbLine
 10
-271.7840818531115
 20
-44.70030894239402
 30
0.0
 11
-272.5840818531117
 21
-45.16218894239407
 31
0.0
  0
ARC
  5
120
330
6F
100
AcDbEntity
  8
_0-3_躯体と製品
  6
Continuous
 62
     7
100
AcDbCircle
 10
-275.5840818531117
 20
-48.70030894239403
 30
0.0
 40
6.0
100
AcDbArc
 50
0.0
 51
37.46621799999402
  0
TEXT
  5
121
330
6F
100
AcDbEntity
  8
_0-4_文字-記号
 62
     7
100
AcDbText
 10
-415.3318633846754
 20
4.982387979636087
 30
0.0
 40
12.0
  1
OAクッション
 41
0.8000000000000001
100
AcDbText
  0
LINE
  5
122
330
6F
100
AcDbEntity
  8
_0-3_躯体と製品
  6
Continuous
 62
     3
100
AcDbLine
 10
231.9195741530295
 20
-105.9203089340311
 30
0.0
 11
231.9195741530286
 21
-86.72030894238943
 31
0.0
  0
LINE
  5
123
330
6F
100
AcDbEntity
  8
_0-3_躯体と製品
  6
Continuous
 62
     3
100
AcDbLine
 10
221.9195741407464
 20
-105.9203089340311
 30
0.0
 11
221.9195741407464
 21
-86.72030894238943
 31
0.0
  0
LINE
  5
124
330
6F
100
AcDbEntity
  8
_0-3_躯体と製品
  6
Continuous
 62
     3
100
AcDbLine
 10
233.9195741554743
 20
-105.9203089340311
 30
0.0
 11
233.9195741554735
 21
-86.72030894238943
 31
0.0
  0
LINE
  5
125
330
6F
100
AcDbEntity
  8
_0-3_躯体と製品
  6
Continuous
 62
     3
100
AcDbLine
 10
219.9195741382435
 20
-105.9203089340311
 30
0.0
 11
219.9195741382435
 21
-86.72030894238943
 31
0.0
  0
LINE
  5
126
330
6F
100
AcDbEntity
  8
_0-3_躯体と製品
  6
Continuous
 62
     3
100
AcDbLine
 10
264.4195741930165
 20
-110.7203089399348
 30
0.0
 11
264.4195741930165
 21
-112.720308942394
 31
0.0
  0
LINE
  5
127
330
6F
100
AcDbEntity
  8
_0-3_躯体と製品
  6
Continuous
 62
     3
100
AcDbLine
 10
189.4195741007585
 20
-110.7203089399348
 30
0.0
 11
189.4195741007585
 21
-112.720308942394
 31
0.0
  0
LINE
  5
128
330
6F
100
AcDbEntity
  8
_0-3_躯体と製品
  6
Continuous
 62
     3
100
AcDbLine
 10
189.4195741007585
 20
-112.720308942394
 30
0.0
 11
264.4195741930165
 21
-112.720308942394
 31
0.0
  0
LINE
  5
129
330
6F
100
AcDbEntity
  8
_0-3_躯体と製品
  6
Continuous
 62
     3
100
AcDbLine
 10
215.0792865979613
 20
-105.9203089340311
 30
0.0
 11
239.7764702315332
 21
-105.9203089340311
 31
0.0
  0
LINE
  5
12A
330
6F
100
AcDbEntity
  8
_0-3_躯体と製品
  6
Continuous
 62
     3
100
AcDbLine
 10
198.5211427769402
 20
-108.7203089374681
 30
0.0
 11
254.4263923625114
 21
-108.7203089374681
 31
0.0
  0
LINE
  5
12B
330
6F
100
AcDbEntity
  8
_0-3_躯体と製品
  6
Continuous
 62
     3
100
AcDbLine
 10
189.4195741007585
 20
-110.7203089399348
 30
0.0
 11
264.4195741930165
 21
-110.7203089399348
 31
0.0
  0
LINE
  5
12C
330
6F
100
AcDbEntity
  8
_0-3_躯体と製品
  6
Continuous
 62
     3
100
AcDbLine
 10
215.0792865979613
 20
-108.7203089374681
 30
0.0
 11
215.0792865979613
 21
-105.9203089340311
 31
0.0
  0
LINE
  5
12D
330
6F
100
AcDbEntity
  8
_0-3_躯体と製品
  6
Continuous
 62
     3
100
AcDbLine
 10
202.6695741170554
 20
-109.6203089385756
 30
0.0
 11
204.0515745062164
 21
-110.7203089399348
 31
0.0
  0
LINE
  5
12E
330
6F
100
AcDbEntity
  8
_0-3_躯体と製品
  6
Continuous
 62
     3
100
AcDbLine
 10
202.6695741170554
 20
-109.6203089385756
 30
0.0
 11
193.6695741059964
 21
-109.6203089385756
 31
0.0
  0
LINE
  5
12F
330
6F
100
AcDbEntity
  8
_0-3_躯体と製品
  6
Continuous
 62
     3
100
AcDbLine
 10
193.6695741059964
 20
-109.6203089385756
 30
0.0
 11
192.2875741042664
 21
-110.7203089399348
 31
0.0
  0
LINE
  5
130
330
6F
100
AcDbEntity
  8
_0-3_躯体と製品
  6
Continuous
 62
     3
100
AcDbLine
 10
197.8993245943571
 20
-109.6203089385756
 30
0.0
 11
198.5211427769402
 21
-108.7203089374681
 31
0.0
  0
LINE
  5
131
330
6F
100
AcDbEntity
  8
_0-3_躯体と製品
  6
Continuous
 62
     3
100
AcDbLine
 10
239.7764702315332
 20
-108.7203089374681
 30
0.0
 11
239.7764702315332
 21
-105.9203089340311
 31
0.0
  0
LINE
  5
132
330
6F
100
AcDbEntity
  8
_0-3_躯体と製品
  6
Continuous
 62
     3
100
AcDbLine
 10
260.1695741877786
 20
-109.6203089385756
 30
0.0
 11
261.5515741894503
 21
-110.7203089399348
 31
0.0
  0
LINE
  5
133
330
6F
100
AcDbEntity
  8
_0-3_躯体と製品
  6
Continuous
 62
     3
100
AcDbLine
 10
251.1695741767184
 20
-109.6203089385756
 30
0.0
 11
249.7875737875595
 21
-110.7203089399348
 31
0.0
  0
LINE
  5
134
330
6F
100
AcDbEntity
  8
_0-3_躯体と製品
  6
Continuous
 62
     3
100
AcDbLine
 10
254.4263923625114
 20
-108.7203089374681
 30
0.0
 11
255.0482105450945
 21
-109.6203089385756
 31
0.0
  0
LINE
  5
135
330
6F
100
AcDbEntity
  8
_0-3_躯体と製品
  6
Continuous
 62
     3
100
AcDbLine
 10
251.1695741767184
 20
-109.6203089385756
 30
0.0
 11
260.1695741877786
 21
-109.6203089385756
 31
0.0
  0
LINE
  5
136
330
6F
100
AcDbEntity
  8
_0-3_躯体と製品
  6
Continuous
 62
     3
100
AcDbLine
 10
237.9195741468873
 20
-79.22030894238943
 30
0.0
 11
237.9195741468873
 21
-55.22030894238944
 31
0.0
  0
LINE
  5
137
330
6F
100
AcDbEntity
  8
_0-3_躯体と製品
  6
Continuous
 62
     3
100
AcDbLine
 10
215.9195741468873
 20
-79.22030894238943
 30
0.0
 11
215.9195741468873
 21
-55.22030894238944
 31
0.0
  0
LINE
  5
138
330
6F
100
AcDbEntity
  8
_0-3_躯体と製品
  6
Continuous
 62
     3
100
AcDbLine
 10
215.9195741468873
 20
-79.22030894238943
 30
0.0
 11
237.9195741468873
 21
-79.22030894238943
 31
0.0
  0
LINE
  5
139
330
6F
100
AcDbEntity
  8
_0-3_躯体と製品
  6
Continuous
 62
     3
100
AcDbLine
 10
261.9195741468873
 20
-48.22030894238944
 30
0.0
 11
191.9195741468872
 21
-48.22030894238944
 31
0.0
  0
LINE
  5
13A
330
6F
100
AcDbEntity
  8
_0-3_躯体と製品
  6
Continuous
 62
     3
100
AcDbLine
 10
216.9195741469455
 20
-28.72030894238941
 30
0.0
 11
216.9195741469455
 21
-48.22030894238944
 31
0.0
  0
LINE
  5
13B
330
6F
100
AcDbEntity
  8
_0-3_躯体と製品
  6
Continuous
 62
     3
100
AcDbLine
 10
233.9195723883324
 20
-47.24212457263294
 30
0.0
 11
233.4446417014854
 21
-24.69861710082881
 31
0.0
  0
LINE
  5
13C
330
6F
100
AcDbEntity
  8
_0-3_躯体と製品
  6
Continuous
 62
     3
100
AcDbLine
 10
219.9195741453593
 20
-47.24212445976843
 30
0.0
 11
220.3945092733054
 21
-24.69849405734237
 31
0.0
  0
LINE
  5
13D
330
6F
100
AcDbEntity
  8
_0-3_躯体と製品
  6
Continuous
 62
     3
100
AcDbLine
 10
200.4195741469023
 20
-55.22030894238944
 30
0.0
 11
200.4195741469023
 21
-51.22030894238943
 31
0.0
  0
LINE
  5
13E
330
6F
100
AcDbEntity
  8
_0-3_躯体と製品
  6
Continuous
 62
     3
100
AcDbLine
 10
261.9195741468873
 20
-55.22030894238944
 30
0.0
 11
191.9195741468872
 21
-55.22030894238944
 31
0.0
  0
LINE
  5
13F
330
6F
100
AcDbEntity
  8
_0-3_躯体と製品
  6
Continuous
 62
     3
100
AcDbLine
 10
191.9195741468872
 20
-51.22030894238943
 30
0.0
 11
261.9195741468873
 21
-51.22030894238943
 31
0.0
  0
LINE
  5
140
330
6F
100
AcDbEntity
  8
_0-3_躯体と製品
  6
Continuous
 62
     3
100
AcDbLine
 10
191.9195741468872
 20
-55.22030894238944
 30
0.0
 11
191.9195741468872
 21
-48.22030894238944
 31
0.0
  0
LINE
  5
141
330
6F
100
AcDbEntity
  8
_0-3_躯体と製品
  6
Continuous
 62
     3
100
AcDbLine
 10
253.4195741469023
 20
-51.22030894238943
 30
0.0
 11
253.4195741469023
 21
-55.22030894238944
 31
0.0
  0
LINE
  5
142
330
6F
100
AcDbEntity
  8
_0-3_躯体と製品
  6
Continuous
 62
     3
100
AcDbLine
 10
220.0222917088691
 20
-48.22030953082523
 30
0.0
 11
220.0467427427803
 21
-48.21955980264135
 31
0.0
  0
ARC
  5
143
330
6F
100
AcDbEntity
  8
_0-3_躯体と製品
  6
Continuous
 62
     3
100
AcDbCircle
 10
218.9197891959495
 20
-47.22028815666658
 30
0.0
 40
1.000021374460674
100
AcDbArc
 50
270.0014126952299
 51
358.7488018035708
  0
ARC
  5
144
330
6F
100
AcDbEntity
  8
_0-3_躯体と製品
  6
Continuous
 62
     3
100
AcDbCircle
 10
234.9193573494424
 20
-47.2202880066581
 30
0.0
 40
1.000021642794381
100
AcDbArc
 50
181.2512132394387
 51
269.9986259446977
  0
LINE
  5
145
330
6F
100
AcDbEntity
  8
_0-3_躯体と製品
  6
Continuous
 62
     3
100
AcDbLine
 10
236.9195741469455
 20
-28.7214908676508
 30
0.0
 11
236.9195741469455
 21
-48.22030894238944
 31
0.0
  0
LINE
  5
146
330
6F
100
AcDbEntity
  8
_0-3_躯体と製品
  6
Continuous
 62
     3
100
AcDbLine
 10
261.9195741468873
 20
-55.22030894238944
 30
0.0
 11
261.9195741468873
 21
-48.22030894238944
 31
0.0
  0
LINE
  5
147
330
6F
100
AcDbEntity
  8
_0-3_躯体と製品
  6
Continuous
 62
     3
100
AcDbLine
 10
256.4195682088905
 20
-47.24212537712114
 30
0.0
 11
256.4195682088905
 21
-28.7214908676508
 31
0.0
  0
ARC
  5
148
330
6F
100
AcDbEntity
  8
_0-3_躯体と製品
  6
Continuous
 62
     3
100
AcDbCircle
 10
243.4197832594803
 20
-47.22028815666658
 30
0.0
 40
1.000021374460674
100
AcDbArc
 50
270.0014126952299
 51
358.7488018035708
  0
ARC
  5
149
330
6F
100
AcDbEntity
  8
_0-3_躯体と製品
  6
Continuous
 62
     3
100
AcDbCircle
 10
257.4193514114456
 20
-47.22028884951967
 30
0.0
 40
1.000021642794381
100
AcDbArc
 50
181.2512132394387
 51
269.9986259446977
  0
LINE
  5
14A
330
6F
100
AcDbEntity
  8
_0-3_躯体と製品
  6
Continuous
 62
     3
100
AcDbLine
 10
244.4195682088914
 20
-47.24212789629052
 30
0.0
 11
244.4195682088914
 21
-28.7214908676508
 31
0.0
  0
LINE
  5
14B
330
6F
100
AcDbEntity
  8
_0-3_躯体と製品
  6
Continuous
 62
     3
100
AcDbLine
 10
197.4195800848845
 20
-47.24212537712114
 30
0.0
 11
197.4195800848845
 21
-28.7214908676508
 31
0.0
  0
ARC
  5
14C
330
6F
100
AcDbEntity
  8
_0-3_躯体と製品
  6
Continuous
 62
     3
100
AcDbCircle
 10
210.4193650342934
 20
-47.22028815666658
 30
0.0
 40
1.000021374460674
100
AcDbArc
 50
181.2511981964292
 51
269.9985873047701
  0
ARC
  5
14D
330
6F
100
AcDbEntity
  8
_0-3_躯体と製品
  6
Continuous
 62
     3
100
AcDbCircle
 10
196.4197968823216
 20
-47.22028884951967
 30
0.0
 40
1.000021642794381
100
AcDbArc
 50
270.0013740553022
 51
358.7487867605612
  0
LINE
  5
14E
330
6F
100
AcDbEntity
  8
_0-3_躯体と製品
  6
Continuous
 62
     3
100
AcDbLine
 10
209.4195800848837
 20
-47.24212789629052
 30
0.0
 11
209.4195800848837
 21
-28.7214908676508
 31
0.0
  0
LINE
  5
14F
330
6F
100
AcDbEntity
  8
_0-3_躯体と製品
  6
Continuous
 62
     3
100
AcDbLine
 10
256.4195681913113
 20
-47.24212457263294
 30
0.0
 11
244.4195661960773
 21
-47.24212457263294
 31
0.0
  0
LINE
  5
150
330
6F
100
AcDbEntity
  8
_0-3_躯体と製品
  6
Continuous
 62
     3
100
AcDbLine
 10
233.9195741477176
 20
-47.24212457263294
 30
0.0
 11
219.9195721325384
 21
-47.24212457263294
 31
0.0
  0
LINE
  5
151
330
6F
100
AcDbEntity
  8
_0-3_躯体と製品
  6
Continuous
 62
     3
100
AcDbLine
 10
197.4195801024473
 20
-47.24212457263294
 30
0.0
 11
209.4195820976904
 21
-47.24212457263294
 31
0.0
  0
LINE
  5
152
330
6F
100
AcDbEntity
  8
_0-3_躯体と製品
  6
Continuous
 62
     3
100
AcDbLine
 10
207.4195741469023
 20
-55.22030894238944
 30
0.0
 11
207.4195741469023
 21
-51.22030894238943
 31
0.0
  0
LINE
  5
153
330
6F
100
AcDbEntity
  8
_0-3_躯体と製品
  6
Continuous
 62
     3
100
AcDbLine
 10
246.4195741469023
 20
-51.22030894238943
 30
0.0
 11
246.4195741469023
 21
-55.22030894238944
 31
0.0
  0
ARC
  5
154
330
6F
100
AcDbEntity
  8
_0-3_躯体と製品
  6
Continuous
 62
     3
100
AcDbCircle
 10
221.3943021391763
 20
-24.72034046177237
 30
0.0
 40
1.000031519520031
100
AcDbArc
 50
90.0009144115855
 51
178.7482331021901
  0
ARC
  5
155
330
6F
100
AcDbEntity
  8
_0-3_躯体と製品
  6
Continuous
 62
     3
100
AcDbCircle
 10
232.4448461545846
 20
-24.72034046177964
 30
0.0
 40
1.000031519520031
100
AcDbArc
 50
1.251766897809863
 51
89.9990855884145
  0
LINE
  5
156
330
6F
100
AcDbEntity
  8
_0-3_躯体と製品
  6
Continuous
 62
     4
100
AcDbLine
 10
218.1695741468873
 20
-23.22030894238941
 30
0.0
 11
218.1695741468873
 21
-28.72030894238941
 31
0.0
  0
LINE
  5
157
330
6F
100
AcDbEntity
  8
_0-3_躯体と製品
  6
Continuous
 62
     4
100
AcDbLine
 10
197.0232751685255
 20
-28.7214908676508
 30
0.0
 11
219.6695741468873
 21
-28.7214908676508
 31
0.0
  0
LINE
  5
158
330
6F
100
AcDbEntity
  8
_0-3_躯体と製品
  6
Continuous
 62
     4
100
AcDbLine
 10
226.6695741468873
 20
-19.22030894243494
 30
0.0
 11
227.1695741468873
 21
-19.22030894243494
 31
0.0
  0
LINE
  5
159
330
6F
100
AcDbEntity
  8
_0-3_躯体と製品
  6
Continuous
 62
     4
100
AcDbLine
 10
227.1695741468873
 20
-19.22030894243494
 30
0.0
 11
227.1695741468873
 21
-23.22030894238941
 31
0.0
  0
LINE
  5
15A
330
6F
100
AcDbEntity
  8
_0-3_躯体と製品
  6
Continuous
 62
     4
100
AcDbLine
 10
226.6695741468873
 20
-19.22030894243494
 30
0.0
 11
226.6695741468873
 21
-23.22030894238941
 31
0.0
  0
LINE
  5
15B
330
6F
100
AcDbEntity
  8
_0-3_躯体と製品
  6
Continuous
 62
     4
100
AcDbLine
 10
219.6695741468873
 20
-23.72030894238941
 30
0.0
 11
219.6695741468873
 21
-28.7214908676508
 31
0.0
  0
LINE
  5
15C
330
6F
100
AcDbEntity
  8
_0-3_躯体と製品
  6
Continuous
 62
     4
100
AcDbLine
 10
219.6695741468873
 20
-23.72030894238941
 30
0.0
 11
234.1695741468873
 21
-23.72030894238941
 31
0.0
  0
LINE
  5
15D
330
6F
100
AcDbEntity
  8
_0-3_躯体と製品
  6
Continuous
 62
     4
100
AcDbLine
 10
256.8158731252496
 20
-28.7214908676508
 30
0.0
 11
234.1695741468873
 21
-28.7214908676508
 31
0.0
  0
LINE
  5
15E
330
6F
100
AcDbEntity
  8
_0-3_躯体と製品
  6
Continuous
 62
     4
100
AcDbLine
 10
234.1695741468873
 20
-23.72030894238941
 30
0.0
 11
234.1695741468873
 21
-28.72422947999837
 31
0.0
  0
LINE
  5
15F
330
6F
100
AcDbEntity
  8
_0-3_躯体と製品
  6
Continuous
 62
     4
100
AcDbLine
 10
257.4195741468873
 20
-23.22030894238941
 30
0.0
 11
196.4195741468872
 21
-23.22030894238941
 31
0.0
  0
LINE
  5
160
330
6F
100
AcDbEntity
  8
_0-3_躯体と製品
  6
Continuous
 62
     4
100
AcDbLine
 10
240.4195741468873
 20
-23.22030894238941
 30
0.0
 11
240.4195741468873
 21
-19.22030894243494
 31
0.0
  0
LINE
  5
161
330
6F
100
AcDbEntity
  8
_0-3_躯体と製品
  6
Continuous
 62
     4
100
AcDbLine
 10
235.6695741468873
 20
-23.22030894238941
 30
0.0
 11
235.6695741468873
 21
-28.72030894238941
 31
0.0
  0
LINE
  5
162
330
6F
100
AcDbEntity
  8
_0-3_躯体と製品
  6
Continuous
 62
     4
100
AcDbLine
 10
249.1695741468873
 20
-19.22030894243494
 30
0.0
 11
240.4195741468873
 21
-19.22030894243494
 31
0.0
  0
LINE
  5
163
330
6F
100
AcDbEntity
  8
_0-3_躯体と製品
  6
Continuous
 62
     4
100
AcDbLine
 10
249.1695741468873
 20
-23.22030894238941
 30
0.0
 11
249.1695741468873
 21
-19.22030894243494
 31
0.0
  0
LINE
  5
164
330
6F
100
AcDbEntity
  8
_0-3_躯体と製品
  6
Continuous
 62
     4
100
AcDbLine
 10
211.7641295806545
 20
-23.22030894238941
 30
0.0
 11
211.7641295806545
 21
-28.72030894238941
 31
0.0
  0
LINE
  5
165
330
6F
100
AcDbEntity
  8
_0-3_躯体と製品
  6
Continuous
 62
     4
100
AcDbLine
 10
242.0750187131064
 20
-23.22030894238941
 30
0.0
 11
242.0750187131064
 21
-28.72030894238941
 31
0.0
  0
LINE
  5
166
330
6F
100
AcDbEntity
  8
_0-3_躯体と製品
  6
Continuous
 62
     4
100
AcDbLine
 10
213.4195741468873
 20
-23.22030894238941
 30
0.0
 11
213.4195741468873
 21
-19.22030894243494
 31
0.0
  0
LINE
  5
167
330
6F
100
AcDbEntity
  8
_0-3_躯体と製品
  6
Continuous
 62
     4
100
AcDbLine
 10
204.6695741468873
 20
-19.22030894243494
 30
0.0
 11
213.4195741468873
 21
-19.22030894243494
 31
0.0
  0
LINE
  5
168
330
6F
100
AcDbEntity
  8
_0-3_躯体と製品
  6
Continuous
 62
     4
100
AcDbLine
 10
204.6695741468873
 20
-23.22030894238941
 30
0.0
 11
204.6695741468873
 21
-19.22030894243494
 31
0.0
  0
LINE
  5
169
330
6F
100
AcDbEntity
  8
_0-3_躯体と製品
  6
Continuous
 62
     4
100
AcDbLine
 10
196.4195741468872
 20
-19.22030894243494
 30
0.0
 11
202.1695741468873
 21
-19.22030894243494
 31
0.0
  0
LINE
  5
16A
330
6F
100
AcDbEntity
  8
_0-3_躯体と製品
  6
Continuous
 62
     4
100
AcDbLine
 10
202.1695741468873
 20
-23.22030894238941
 30
0.0
 11
202.1695741468873
 21
-19.22030894243494
 31
0.0
  0
LINE
  5
16B
330
6F
100
AcDbEntity
  8
_0-3_躯体と製品
  6
Continuous
 62
     4
100
AcDbLine
 10
196.4195741468872
 20
-23.72030894238941
 30
0.0
 11
196.4195741468872
 21
-19.22030894243494
 31
0.0
  0
LINE
  5
16C
330
6F
100
AcDbEntity
  8
_0-3_躯体と製品
  6
Continuous
 62
     4
100
AcDbLine
 10
197.4195741468872
 20
-23.22030894238941
 30
0.0
 11
197.4195741468872
 21
-28.7214908676508
 31
0.0
  0
LINE
  5
16D
330
6F
100
AcDbEntity
  8
_0-3_躯体と製品
  6
Continuous
 62
     4
100
AcDbLine
 10
197.0232751685255
 20
-23.72030894238941
 30
0.0
 11
196.4195741468872
 21
-23.72030894238941
 31
0.0
  0
LINE
  5
16E
330
6F
100
AcDbEntity
  8
_0-3_躯体と製品
  6
Continuous
 62
     4
100
AcDbLine
 10
197.0232751685255
 20
-23.72030894238941
 30
0.0
 11
197.0232751685255
 21
-28.7214908676508
 31
0.0
  0
LINE
  5
16F
330
6F
100
AcDbEntity
  8
_0-3_躯体と製品
  6
Continuous
 62
     4
100
AcDbLine
 10
257.4195741468795
 20
-19.22030894243494
 30
0.0
 11
251.6695741468873
 21
-19.22030894243494
 31
0.0
  0
LINE
  5
170
330
6F
100
AcDbEntity
  8
_0-3_躯体と製品
  6
Continuous
 62
     4
100
AcDbLine
 10
251.6695741468873
 20
-23.22030894238941
 30
0.0
 11
251.6695741468873
 21
-19.22030894243494
 31
0.0
  0
LINE
  5
171
330
6F
100
AcDbEntity
  8
_0-3_躯体と製品
  6
Continuous
 62
     4
100
AcDbLine
 10
257.4195741468795
 20
-23.72030894238941
 30
0.0
 11
257.4195741468795
 21
-19.22030894243494
 31
0.0
  0
LINE
  5
172
330
6F
100
AcDbEntity
  8
_0-3_躯体と製品
  6
Continuous
 62
     4
100
AcDbLine
 10
256.4195741468873
 20
-23.22030894238941
 30
0.0
 11
256.4195741468873
 21
-28.7214908676508
 31
0.0
  0
LINE
  5
173
330
6F
100
AcDbEntity
  8
_0-3_躯体と製品
  6
Continuous
 62
     4
100
AcDbLine
 10
256.8158731252496
 20
-23.72030894238941
 30
0.0
 11
257.4195741468873
 21
-23.72030894238941
 31
0.0
  0
LINE
  5
174
330
6F
100
AcDbEntity
  8
_0-3_躯体と製品
  6
Continuous
 62
     4
100
AcDbLine
 10
256.8158731252496
 20
-23.72030894238941
 30
0.0
 11
256.8158731252496
 21
-28.7214908676508
 31
0.0
  0
LINE
  5
175
330
6F
100
AcDbEntity
  8
_0-3_躯体と製品
  6
Continuous
 62
     6
100
AcDbLine
 10
239.9195741468585
 20
-82.92350331299193
 30
0.0
 11
239.9195741468585
 21
-85.72030894238944
 31
0.0
  0
LINE
  5
176
330
6F
100
AcDbEntity
  8
_0-3_躯体と製品
  6
Continuous
 62
     6
100
AcDbLine
 10
239.9195741468585
 20
-85.72030894238944
 30
0.0
 11
177.9195741468585
 21
-85.72030894238944
 31
0.0
  0
LINE
  5
177
330
6F
100
AcDbEntity
  8
_0-3_躯体と製品
  6
Continuous
 62
     6
100
AcDbLine
 10
177.9195741468585
 20
-85.72030894238944
 30
0.0
 11
177.9195741468585
 21
-82.92350331299193
 31
0.0
  0
ARC
  5
178
330
6F
100
AcDbEntity
  8
_0-3_躯体と製品
  6
Continuous
 62
     6
100
AcDbCircle
 10
179.1227685174648
 20
-82.92350331299553
 30
0.0
 40
1.203194370606069
100
AcDbArc
 50
89.99999999982739
 51
179.9999999998274
  0
LINE
  5
179
330
6F
100
AcDbEntity
  8
_0-3_躯体と製品
  6
Continuous
 62
     6
100
AcDbLine
 10
179.1227685174683
 20
-81.72030894238943
 30
0.0
 11
238.7163797762485
 21
-81.72030894238943
 31
0.0
  0
LINE
  5
17A
330
6F
100
AcDbEntity
  8
_0-3_躯体と製品
  6
Continuous
 62
     6
100
AcDbLine
 10
238.7163797762485
 20
-81.72030894238943
 30
0.0
 11
239.9195741468585
 21
-82.92350331299193
 31
0.0
  0
LINE
  5
17B
330
6F
100
AcDbEntity
  8
_0-3_躯体と製品
  6
Continuous
 62
     6
100
AcDbLine
 10
219.4195741468585
 20
-85.72030894238944
 30
0.0
 11
219.4195741468585
 21
-86.72030894238943
 31
0.0
  0
LINE
  5
17C
330
6F
100
AcDbEntity
  8
_0-3_躯体と製品
  6
Continuous
 62
     6
100
AcDbLine
 10
219.4195741468585
 20
-86.72030894238943
 30
0.0
 11
234.4195741468585
 21
-86.72030894238943
 31
0.0
  0
LINE
  5
17D
330
6F
100
AcDbEntity
  8
_0-3_躯体と製品
  6
Continuous
 62
     6
100
AcDbLine
 10
234.4195741468585
 20
-86.72030894238943
 30
0.0
 11
234.4195741468585
 21
-85.72030894238944
 31
0.0
  0
LINE
  5
17E
330
6F
100
AcDbEntity
  8
_0-3_躯体と製品
  6
Continuous
 62
     6
100
AcDbLine
 10
239.9195741468585
 20
-79.74099694238637
 30
0.0
 11
239.9195741468945
 21
-81.19962094239255
 31
0.0
  0
ARC
  5
17F
330
6F
100
AcDbEntity
  8
_0-3_躯体と製品
  6
Continuous
 62
     6
100
AcDbCircle
 10
239.3988861468975
 20
-81.19962094239236
 30
0.0
 40
0.5206879999971079
100
AcDbArc
 50
269.9999999999739
 51
359.999999999974
  0
LINE
  5
180
330
6F
100
AcDbEntity
  8
_0-3_躯体と製品
  6
Continuous
 62
     6
100
AcDbLine
 10
239.3988861468971
 20
-81.72030894238943
 30
0.0
 11
214.4402621468773
 21
-81.72030894238943
 31
0.0
  0
ARC
  5
181
330
6F
100
AcDbEntity
  8
_0-3_躯体と製品
  6
Continuous
 62
     6
100
AcDbCircle
 10
214.4402621468664
 20
-81.19962094238164
 30
0.0
 40
0.5206880000077944
100
AcDbArc
 50
180.0000000012017
 51
270.0000000012018
  0
LINE
  5
182
330
6F
100
AcDbEntity
  8
_0-3_躯体と製品
  6
Continuous
 62
     6
100
AcDbLine
 10
213.9195741468585
 20
-81.19962094239255
 30
0.0
 11
213.9195741468804
 21
-79.74099694238637
 31
0.0
  0
ARC
  5
183
330
6F
100
AcDbEntity
  8
_0-3_躯体と製品
  6
Continuous
 62
     6
100
AcDbCircle
 10
214.4402621468773
 20
-79.74099694238637
 30
0.0
 40
0.5206879999968805
100
AcDbArc
 50
90.0
 51
180.0
  0
LINE
  5
184
330
6F
100
AcDbEntity
  8
_0-3_躯体と製品
  6
Continuous
 62
     6
100
AcDbLine
 10
214.4402621468773
 20
-79.22030894238943
 30
0.0
 11
239.3988861468971
 21
-79.22030894238943
 31
0.0
  0
LINE
  5
185
330
6F
100
AcDbEntity
  8
_0-3_躯体と製品
  6
Continuous
 62
     6
100
AcDbLine
 10
239.3988861468971
 20
-79.22030894238943
 30
0.0
 11
239.9195741468585
 21
-79.74099694238637
 31
0.0
  0
LINE
  5
186
330
6F
100
AcDbEntity
  8
_0-3_躯体と製品
  6
Continuous
 62
     3
100
AcDbLine
 10
-272.5840818531117
 20
-19.2203089423931
 30
0.0
 11
366.4337649741525
 21
-19.22030894239111
 31
0.0
  0
LINE
  5
187
330
6F
100
AcDbEntity
  8
_0-3_躯体と製品
  6
Continuous
 62
     3
100
AcDbLine
 10
-218.0804258469714
 20
-105.9203089340311
 30
0.0
 11
-218.0804258469714
 21
-87.72030894239003
 31
0.0
  0
LINE
  5
188
330
6F
100
AcDbEntity
  8
_0-3_躯体と製品
  6
Continuous
 62
     3
100
AcDbLine
 10
-228.0804258592536
 20
-105.9203089340311
 30
0.0
 11
-228.0804258592536
 21
-87.72030894239003
 31
0.0
  0
LINE
  5
189
330
6F
100
AcDbEntity
  8
_0-3_躯体と製品
  6
Continuous
 62
     3
100
AcDbLine
 10
-216.0804258445276
 20
-105.9203089340311
 30
0.0
 11
-216.0804258445266
 21
-87.72030894239003
 31
0.0
  0
LINE
  5
18A
330
6F
100
AcDbEntity
  8
_0-3_躯体と製品
  6
Continuous
 62
     3
100
AcDbLine
 10
-230.0804258617565
 20
-105.9203089340311
 30
0.0
 11
-230.0804258617565
 21
-87.72030894239003
 31
0.0
  0
LINE
  5
18B
330
6F
100
AcDbEntity
  8
_0-3_躯体と製品
  6
Continuous
 62
     3
100
AcDbLine
 10
-185.5804258069827
 20
-110.7203089399348
 30
0.0
 11
-185.5804258069827
 21
-112.720308942394
 31
0.0
  0
LINE
  5
18C
330
6F
100
AcDbEntity
  8
_0-3_躯体と製品
  6
Continuous
 62
     3
100
AcDbLine
 10
-260.5804258992427
 20
-110.7203089399348
 30
0.0
 11
-260.5804258992427
 21
-112.720308942394
 31
0.0
  0
LINE
  5
18D
330
6F
100
AcDbEntity
  8
_0-3_躯体と製品
  6
Continuous
 62
     3
100
AcDbLine
 10
-260.5804258992427
 20
-112.720308942394
 30
0.0
 11
-185.5804258069827
 21
-112.720308942394
 31
0.0
  0
LINE
  5
18E
330
6F
100
AcDbEntity
  8
_0-3_躯体と製品
  6
Continuous
 62
     3
100
AcDbLine
 10
-234.9207134020387
 20
-105.9203089340311
 30
0.0
 11
-210.2235297684667
 21
-105.9203089340311
 31
0.0
  0
LINE
  5
18F
330
6F
100
AcDbEntity
  8
_0-3_躯体と製品
  6
Continuous
 62
     3
100
AcDbLine
 10
-251.4788572230607
 20
-108.7203089374681
 30
0.0
 11
-195.5736076374876
 21
-108.7203089374681
 31
0.0
  0
LINE
  5
190
330
6F
100
AcDbEntity
  8
_0-3_躯体と製品
  6
Continuous
 62
     3
100
AcDbLine
 10
-260.5804258992427
 20
-110.7203089399348
 30
0.0
 11
-185.5804258069827
 21
-110.7203089399348
 31
0.0
  0
LINE
  5
191
330
6F
100
AcDbEntity
  8
_0-3_躯体と製品
  6
Continuous
 62
     3
100
AcDbLine
 10
-234.9207134020387
 20
-108.7203089374681
 30
0.0
 11
-234.9207134020387
 21
-105.9203089340311
 31
0.0
  0
LINE
  5
192
330
6F
100
AcDbEntity
  8
_0-3_躯体と製品
  6
Continuous
 62
     3
100
AcDbLine
 10
-247.3304258829437
 20
-109.6203089385756
 30
0.0
 11
-245.9484254937845
 21
-110.7203089399348
 31
0.0
  0
LINE
  5
193
330
6F
100
AcDbEntity
  8
_0-3_躯体と製品
  6
Continuous
 62
     3
100
AcDbLine
 10
-247.3304258829437
 20
-109.6203089385756
 30
0.0
 11
-256.3304258940036
 21
-109.6203089385756
 31
0.0
  0
LINE
  5
194
330
6F
100
AcDbEntity
  8
_0-3_躯体と製品
  6
Continuous
 62
     3
100
AcDbLine
 10
-256.3304258940036
 20
-109.6203089385756
 30
0.0
 11
-257.7124258957326
 21
-110.7203089399348
 31
0.0
  0
LINE
  5
195
330
6F
100
AcDbEntity
  8
_0-3_躯体と製品
  6
Continuous
 62
     3
100
AcDbLine
 10
-252.1006754056427
 20
-109.6203089385756
 30
0.0
 11
-251.4788572230607
 21
-108.7203089374681
 31
0.0
  0
LINE
  5
196
330
6F
100
AcDbEntity
  8
_0-3_躯体と製品
  6
Continuous
 62
     3
100
AcDbLine
 10
-210.2235297684667
 20
-108.7203089374681
 30
0.0
 11
-210.2235297684667
 21
-105.9203089340311
 31
0.0
  0
LINE
  5
197
330
6F
100
AcDbEntity
  8
_0-3_躯体と製品
  6
Continuous
 62
     3
100
AcDbLine
 10
-189.8304258122213
 20
-109.6203089385756
 30
0.0
 11
-188.4484258105506
 21
-110.7203089399348
 31
0.0
  0
LINE
  5
198
330
6F
100
AcDbEntity
  8
_0-3_躯体と製品
  6
Continuous
 62
     3
100
AcDbLine
 10
-198.8304258232817
 20
-109.6203089385756
 30
0.0
 11
-200.2124262124405
 21
-110.7203089399348
 31
0.0
  0
LINE
  5
199
330
6F
100
AcDbEntity
  8
_0-3_躯体と製品
  6
Continuous
 62
     3
100
AcDbLine
 10
-195.5736076374876
 20
-108.7203089374681
 30
0.0
 11
-194.9517894549055
 21
-109.6203089385756
 31
0.0
  0
LINE
  5
19A
330
6F
100
AcDbEntity
  8
_0-3_躯体と製品
  6
Continuous
 62
     3
100
AcDbLine
 10
-198.8304258232817
 20
-109.6203089385756
 30
0.0
 11
-189.8304258122213
 21
-109.6203089385756
 31
0.0
  0
LINE
  5
19B
330
6F
100
AcDbEntity
  8
_0-3_躯体と製品
  6
Continuous
 62
     6
100
AcDbLine
 10
-236.0804258530836
 20
-83.92350331299246
 30
0.0
 11
-236.0804258530836
 21
-86.72030894239004
 31
0.0
  0
LINE
  5
19C
330
6F
100
AcDbEntity
  8
_0-3_躯体と製品
  6
Continuous
 62
     6
100
AcDbLine
 10
-236.0804258530836
 20
-86.72030894239004
 30
0.0
 11
-174.0804258530836
 21
-86.72030894239004
 31
0.0
  0
LINE
  5
19D
330
6F
100
AcDbEntity
  8
_0-3_躯体と製品
  6
Continuous
 62
     6
100
AcDbLine
 10
-174.0804258530836
 20
-86.72030894239004
 30
0.0
 11
-174.0804258530836
 21
-83.92350331299246
 31
0.0
  0
ARC
  5
19E
330
6F
100
AcDbEntity
  8
_0-3_躯体と製品
  6
Continuous
 62
     6
100
AcDbCircle
 10
-175.2836202236899
 20
-83.92350331299633
 30
0.0
 40
1.203194370606297
100
AcDbArc
 50
0.0000000001856426
 51
90.00000000018564
  0
LINE
  5
19F
330
6F
100
AcDbEntity
  8
_0-3_躯体と製品
  6
Continuous
 62
     6
100
AcDbLine
 10
-175.2836202236938
 20
-82.72030894239003
 30
0.0
 11
-234.8772314824735
 21
-82.72030894239003
 31
0.0
  0
LINE
  5
1A0
330
6F
100
AcDbEntity
  8
_0-3_躯体と製品
  6
Continuous
 62
     6
100
AcDbLine
 10
-234.8772314824735
 20
-82.72030894239003
 30
0.0
 11
-236.0804258530836
 21
-83.92350331299246
 31
0.0
  0
LINE
  5
1A1
330
6F
100
AcDbEntity
  8
_0-3_躯体と製品
  6
Continuous
 62
     6
100
AcDbLine
 10
-215.5804258530836
 20
-86.72030894239004
 30
0.0
 11
-215.5804258530836
 21
-87.72030894239003
 31
0.0
  0
LINE
  5
1A2
330
6F
100
AcDbEntity
  8
_0-3_躯体と製品
  6
Continuous
 62
     6
100
AcDbLine
 10
-215.5804258530836
 20
-87.72030894239003
 30
0.0
 11
-230.5804258530836
 21
-87.72030894239003
 31
0.0
  0
LINE
  5
1A3
330
6F
100
AcDbEntity
  8
_0-3_躯体と製品
  6
Continuous
 62
     6
100
AcDbLine
 10
-230.5804258530836
 20
-87.72030894239003
 30
0.0
 11
-230.5804258530836
 21
-86.72030894239004
 31
0.0
  0
LINE
  5
1A4
330
6F
100
AcDbEntity
  8
_0-3_躯体と製品
  6
Continuous
 62
     6
100
AcDbLine
 10
-236.0804258530836
 20
-80.74099694238695
 30
0.0
 11
-236.0804258531196
 21
-82.19962094239315
 31
0.0
  0
ARC
  5
1A5
330
6F
100
AcDbEntity
  8
_0-3_躯体と製品
  6
Continuous
 62
     6
100
AcDbCircle
 10
-235.5597378531227
 20
-82.19962094239315
 30
0.0
 40
0.5206879999968805
100
AcDbArc
 50
180.0
 51
270.0
  0
LINE
  5
1A6
330
6F
100
AcDbEntity
  8
_0-3_躯体と製品
  6
Continuous
 62
     6
100
AcDbLine
 10
-235.5597378531227
 20
-82.72030894239003
 30
0.0
 11
-210.6011138531028
 21
-82.72030894239003
 31
0.0
  0
ARC
  5
1A7
330
6F
100
AcDbEntity
  8
_0-3_躯体と製品
  6
Continuous
 62
     6
100
AcDbCircle
 10
-210.6011138530917
 20
-82.19962094238207
 30
0.0
 40
0.5206880000080219
100
AcDbArc
 50
269.9999999987754
 51
359.9999999987754
  0
LINE
  5
1A8
330
6F
100
AcDbEntity
  8
_0-3_躯体と製品
  6
Continuous
 62
     6
100
AcDbLine
 10
-210.0804258530836
 20
-82.19962094239315
 30
0.0
 11
-210.0804258531054
 21
-80.74099694238695
 31
0.0
  0
ARC
  5
1A9
330
6F
100
AcDbEntity
  8
_0-3_躯体と製品
  6
Continuous
 62
     6
100
AcDbCircle
 10
-210.6011138531026
 20
-80.74099694238709
 30
0.0
 40
0.5206879999971648
100
AcDbArc
 50
0.0000000000195413
 51
90.00000000001953
  0
LINE
  5
1AA
330
6F
100
AcDbEntity
  8
_0-3_躯体と製品
  6
Continuous
 62
     6
100
AcDbLine
 10
-210.6011138531028
 20
-80.22030894238993
 30
0.0
 11
-235.5597378531227
 21
-80.22030894238993
 31
0.0
  0
LINE
  5
1AB
330
6F
100
AcDbEntity
  8
_0-3_躯体と製品
  6
Continuous
 62
     6
100
AcDbLine
 10
-235.5597378531227
 20
-80.22030894238993
 30
0.0
 11
-236.0804258530836
 21
-80.74099694238695
 31
0.0
  0
LINE
  5
1AC
330
6F
100
AcDbEntity
  8
_0-3_躯体と製品
  6
Continuous
 62
     3
100
AcDbLine
 10
-212.0804258531127
 20
-80.22030894238993
 30
0.0
 11
-212.0804258531127
 21
-56.22030894238992
 31
0.0
  0
LINE
  5
1AD
330
6F
100
AcDbEntity
  8
_0-3_躯体と製品
  6
Continuous
 62
     3
100
AcDbLine
 10
-234.0804258531127
 20
-80.22030894238993
 30
0.0
 11
-234.0804258531127
 21
-56.22030894238992
 31
0.0
  0
LINE
  5
1AE
330
6F
100
AcDbEntity
  8
_0-3_躯体と製品
  6
Continuous
 62
     3
100
AcDbLine
 10
-234.0804258531127
 20
-80.22030894238993
 30
0.0
 11
-212.0804258531127
 21
-80.22030894238993
 31
0.0
  0
LINE
  5
1AF
330
6F
100
AcDbEntity
  8
_0-3_躯体と製品
  6
Continuous
 62
     4
100
AcDbLine
 10
-259.7804258531244
 20
-49.22030894239004
 30
0.0
 11
-186.3804258531006
 21
-49.22030894239004
 31
0.0
  0
LINE
  5
1B0
330
6F
100
AcDbEntity
  8
_0-3_躯体と製品
  6
Continuous
 62
     4
100
AcDbLine
 10
-186.3804258531006
 20
-49.22030894239004
 30
0.0
 11
-186.3804258531006
 21
-48.22030894238992
 31
0.0
  0
LINE
  5
1B1
330
6F
100
AcDbEntity
  8
_0-3_躯体と製品
  6
Continuous
 62
     4
100
AcDbLine
 10
-186.3804258531006
 20
-48.22030894238992
 30
0.0
 11
-259.7804258531244
 21
-48.22030894238992
 31
0.0
  0
LINE
  5
1B2
330
6F
100
AcDbEntity
  8
_0-3_躯体と製品
  6
Continuous
 62
     4
100
AcDbLine
 10
-259.7804258531244
 20
-48.22030894238992
 30
0.0
 11
-259.7804258531244
 21
-49.22030894239004
 31
0.0
  0
LINE
  5
1B3
330
6F
100
AcDbEntity
  8
_0-3_躯体と製品
  6
Continuous
 62
     3
100
AcDbLine
 10
-188.0804258531127
 20
-56.22030894238992
 30
0.0
 11
-258.0804258531127
 21
-56.22030894238992
 31
0.0
  0
LINE
  5
1B4
330
6F
100
AcDbEntity
  8
_0-3_躯体と製品
  6
Continuous
 62
     3
100
AcDbLine
 10
-258.0804258531127
 20
-52.22030894238992
 30
0.0
 11
-233.5804258531127
 21
-52.22030894238992
 31
0.0
  0
LINE
  5
1B5
330
6F
100
AcDbEntity
  8
_0-3_躯体と製品
  6
Continuous
 62
     3
100
AcDbLine
 10
-230.5804258531127
 20
-52.22030894238992
 30
0.0
 11
-215.5804258531127
 21
-52.22030894238992
 31
0.0
  0
LINE
  5
1B6
330
6F
100
AcDbEntity
  8
_0-3_躯体と製品
  6
Continuous
 62
     3
100
AcDbLine
 10
-212.5804258531127
 20
-52.22030894238992
 30
0.0
 11
-188.0804258531127
 21
-52.22030894238992
 31
0.0
  0
LINE
  5
1B7
330
6F
100
AcDbEntity
  8
_0-3_躯体と製品
  6
Continuous
 62
     3
100
AcDbLine
 10
-258.0804258531127
 20
-56.22030894238992
 30
0.0
 11
-258.0804258531127
 21
-49.22030894239004
 31
0.0
  0
LINE
  5
1B8
330
6F
100
AcDbEntity
  8
_0-3_躯体と製品
  6
Continuous
 62
     3
100
AcDbLine
 10
-188.0804258531127
 20
-56.22030894238992
 30
0.0
 11
-188.0804258531127
 21
-49.22030894239004
 31
0.0
  0
LINE
  5
1B9
330
6F
100
AcDbEntity
  8
_0-3_躯体と製品
  6
Continuous
 62
     4
100
AcDbLine
 10
-246.0554258531477
 20
-52.22030894238992
 30
0.0
 11
-246.0554258531477
 21
-55.02030894238564
 31
0.0
  0
LINE
  5
1BA
330
6F
100
AcDbEntity
  8
_0-3_躯体と製品
  6
Continuous
 62
     4
100
AcDbLine
 10
-246.0554258531477
 20
-55.02030894238564
 30
0.0
 11
-251.1054258531355
 21
-55.02030894238564
 31
0.0
  0
LINE
  5
1BB
330
6F
100
AcDbEntity
  8
_0-3_躯体と製品
  6
Continuous
 62
     4
100
AcDbLine
 10
-251.1054258531355
 20
-52.22030894238992
 30
0.0
 11
-251.1054258531355
 21
-55.02030894238564
 31
0.0
  0
LINE
  5
1BC
330
6F
100
AcDbEntity
  8
_0-3_躯体と製品
  6
Continuous
 62
     4
100
AcDbLine
 10
-200.1054258530774
 20
-52.22030894238992
 30
0.0
 11
-200.1054258530774
 21
-55.02030894238564
 31
0.0
  0
LINE
  5
1BD
330
6F
100
AcDbEntity
  8
_0-3_躯体と製品
  6
Continuous
 62
     4
100
AcDbLine
 10
-200.1054258530774
 20
-55.02030894238564
 30
0.0
 11
-195.0554258530894
 21
-55.02030894238564
 31
0.0
  0
LINE
  5
1BE
330
6F
100
AcDbEntity
  8
_0-3_躯体と製品
  6
Continuous
 62
     4
100
AcDbLine
 10
-195.0554258530894
 20
-52.22030894238992
 30
0.0
 11
-195.0554258530894
 21
-55.02030894238564
 31
0.0
  0
LINE
  5
1BF
330
6F
100
AcDbEntity
  8
_0-3_躯体と製品
  6
Continuous
 62
     3
100
AcDbLine
 10
-215.5804258531127
 20
-52.22030894238992
 30
0.0
 11
-215.3304258531127
 21
-56.22030894238992
 31
0.0
  0
LINE
  5
1C0
330
6F
100
AcDbEntity
  8
_0-3_躯体と製品
  6
Continuous
 62
     3
100
AcDbLine
 10
-215.3304258531127
 20
-56.22030894238992
 30
0.0
 11
-212.8304258531127
 21
-56.22030894238992
 31
0.0
  0
LINE
  5
1C1
330
6F
100
AcDbEntity
  8
_0-3_躯体と製品
  6
Continuous
 62
     3
100
AcDbLine
 10
-212.8304258531127
 20
-56.22030894238992
 30
0.0
 11
-212.5804258531127
 21
-52.22030894238992
 31
0.0
  0
LINE
  5
1C2
330
6F
100
AcDbEntity
  8
_0-3_躯体と製品
  6
Continuous
 62
     3
100
AcDbLine
 10
-230.5804258531127
 20
-52.22030894238992
 30
0.0
 11
-230.8304258531127
 21
-56.22030894238992
 31
0.0
  0
LINE
  5
1C3
330
6F
100
AcDbEntity
  8
_0-3_躯体と製品
  6
Continuous
 62
     3
100
AcDbLine
 10
-230.8304258531127
 20
-56.22030894238992
 30
0.0
 11
-233.3304258531127
 21
-56.22030894238992
 31
0.0
  0
LINE
  5
1C4
330
6F
100
AcDbEntity
  8
_0-3_躯体と製品
  6
Continuous
 62
     3
100
AcDbLine
 10
-233.3304258531127
 20
-56.22030894238992
 30
0.0
 11
-233.5804258531127
 21
-52.22030894238992
 31
0.0
  0
LINE
  5
1C5
330
6F
100
AcDbEntity
  8
_0-3_躯体と製品
  6
Continuous
 62
     4
100
AcDbLine
 10
13.12564197314827
 20
-112.720308942394
 30
0.0
 11
-16.87435802685269
 21
-142.720308942394
 31
0.0
  0
LINE
  5
1C6
330
6F
100
AcDbEntity
  8
_0-3_躯体と製品
  6
Continuous
 62
     4
100
AcDbLine
 10
23.12564197314828
 20
-112.720308942394
 30
0.0
 11
-6.874358026851723
 21
-142.720308942394
 31
0.0
  0
LINE
  5
1C7
330
6F
100
AcDbEntity
  8
_0-3_躯体と製品
  6
Continuous
 62
     4
100
AcDbLine
 10
33.12564197314828
 20
-112.720308942394
 30
0.0
 11
3.12564197314731
 21
-142.720308942394
 31
0.0
  0
LINE
  5
1C8
330
6F
100
AcDbEntity
  8
_0-3_躯体と製品
  6
Continuous
 62
     4
100
AcDbLine
 10
212.8552765687175
 20
-112.720308942394
 30
0.0
 11
182.8552765687243
 21
-142.720308942394
 31
0.0
  0
LINE
  5
1C9
330
6F
100
AcDbEntity
  8
_0-3_躯体と製品
  6
Continuous
 62
     4
100
AcDbLine
 10
222.8552765687175
 20
-112.720308942394
 30
0.0
 11
192.8552765687175
 21
-142.720308942394
 31
0.0
  0
LINE
  5
1CA
330
6F
100
AcDbEntity
  8
_0-3_躯体と製品
  6
Continuous
 62
     4
100
AcDbLine
 10
232.8552765687175
 20
-112.720308942394
 30
0.0
 11
202.8552765687175
 21
-142.720308942394
 31
0.0
  0
LINE
  5
1CB
330
6F
100
AcDbEntity
  8
_0-3_躯体と製品
  6
Continuous
 62
     3
100
AcDbLine
 10
-272.5840818531117
 20
-18.2203089423931
 30
0.0
 11
366.4337649741525
 21
-18.22030894239111
 31
0.0
  0
LINE
  5
1CC
330
6F
100
AcDbEntity
  8
_0-3_躯体と製品
  6
Continuous
 62
     3
100
AcDbLine
 10
-272.5840818531117
 20
-17.22030894239322
 30
0.0
 11
366.4337649741525
 21
-17.22030894239111
 31
0.0
  0
LINE
  5
1CD
330
6F
100
AcDbEntity
  8
_0-3_躯体と製品
  6
Continuous
 62
     4
100
AcDbLine
 10
-186.6039926224214
 20
-112.720308942394
 30
0.0
 11
-216.6039926224214
 21
-142.720308942394
 31
0.0
  0
LINE
  5
1CE
330
6F
100
AcDbEntity
  8
_0-3_躯体と製品
  6
Continuous
 62
     4
100
AcDbLine
 10
-176.6039926224214
 20
-112.720308942394
 30
0.0
 11
-206.6039926224214
 21
-142.720308942394
 31
0.0
  0
LINE
  5
1CF
330
6F
100
AcDbEntity
  8
_0-3_躯体と製品
  6
Continuous
 62
     4
100
AcDbLine
 10
-166.6039926224214
 20
-112.720308942394
 30
0.0
 11
-196.6039926224214
 21
-142.720308942394
 31
0.0
  0
ARC
  5
1D0
330
6F
100
AcDbEntity
  8
_0-3_躯体と製品
  6
Continuous
 62
     2
100
AcDbCircle
 10
228.1195741468875
 20
-19.92030894238428
 30
0.0
 40
0.6999999999999999
100
AcDbArc
 50
90.0
 51
270.0
  0
LINE
  5
1D1
330
6F
100
AcDbEntity
  8
_0-3_躯体と製品
  6
Continuous
 62
     2
100
AcDbLine
 10
228.1195741468875
 20
-19.22030894239407
 30
0.0
 11
366.4337649741525
 21
-19.22030894239378
 31
0.0
  0
LINE
  5
1D2
330
6F
100
AcDbEntity
  8
_0-3_躯体と製品
  6
Continuous
 62
     2
100
AcDbLine
 10
366.4337649741525
 20
-20.62030894238387
 30
0.0
 11
257.4195741468795
 21
-20.6203089423841
 31
0.0
  0
LINE
  5
1D3
330
6F
100
AcDbEntity
  8
_0-3_躯体と製品
  6
Continuous
 62
     2
100
AcDbLine
 10
251.6695741468873
 20
-20.6203089423841
 30
0.0
 11
249.1695741468873
 21
-20.62030894238467
 31
0.0
  0
LINE
  5
1D4
330
6F
100
AcDbEntity
  8
_0-3_躯体と製品
  6
Continuous
 62
     2
100
AcDbLine
 10
240.4195741468896
 20
-20.62030894238467
 30
0.0
 11
228.1195741468875
 21
-20.6203089423841
 31
0.0
  0
ARC
  5
1D5
330
6F
100
AcDbEntity
  8
_0-3_躯体と製品
  6
Continuous
 62
     2
100
AcDbCircle
 10
228.1195741468875
 20
-19.92030894238428
 30
0.0
 40
0.6999999999999999
100
AcDbArc
 50
90.0
 51
270.0
  0
LINE
  5
1D6
330
6F
100
AcDbEntity
  8
_0-3_躯体と製品
  6
Continuous
 62
     2
100
AcDbLine
 10
366.4337649741525
 20
-46.22030894238969
 30
0.0
 11
299.6195741468883
 21
-46.22030894239003
 31
0.0
  0
ARC
  5
1D7
330
6F
100
AcDbEntity
  8
_0-3_躯体と製品
  6
Continuous
 62
     2
100
AcDbCircle
 10
240.4195741468913
 20
-44.72030894238992
 30
0.0
 40
3.5
100
AcDbArc
 50
180.0
 51
270.0
  0
LINE
  5
1D8
330
6F
100
AcDbEntity
  8
_0-3_躯体と製品
  6
Continuous
 62
     2
100
AcDbLine
 10
236.9195741468904
 20
-44.72030894238992
 30
0.0
 11
236.9195741468936
 21
-28.72149086765137
 31
0.0
  0
LINE
  5
1D9
330
6F
100
AcDbEntity
  8
_0-3_躯体と製品
  6
Continuous
 62
     2
100
AcDbLine
 10
236.9195741468904
 20
-23.22030894238941
 30
0.0
 11
236.9195741468904
 21
-21.6203089423841
 31
0.0
  0
LINE
  5
1DA
330
6F
100
AcDbEntity
  8
_0-3_躯体と製品
  6
Continuous
 62
     2
100
AcDbLine
 10
366.4337649741525
 20
-48.22030894238992
 30
0.0
 11
240.4195741468913
 21
-48.22030894238992
 31
0.0
  0
LINE
  5
1DB
330
6F
100
AcDbEntity
  8
_0-3_躯体と製品
  6
Continuous
 62
     2
100
AcDbLine
 10
299.6195741468883
 20
-46.22030894238278
 30
0.0
 11
299.6195741468883
 21
-48.22030894238992
 31
0.0
  0
ARC
  5
1DC
330
6F
100
AcDbEntity
  8
_0-3_躯体と製品
  6
Continuous
 62
     2
100
AcDbCircle
 10
235.9195741468886
 20
-21.62030894238541
 30
0.0
 40
1.000000000001818
100
AcDbArc
 50
0.0000000000781653
 51
89.99999999989578
  0
ARC
  5
1DD
330
6F
100
AcDbEntity
  8
_0-3_躯体と製品
  6
Continuous
 62
     2
100
AcDbCircle
 10
-271.8804258531116
 20
-19.92030894238428
 30
0.0
 40
0.6999999999999999
100
AcDbArc
 50
90.0
 51
270.0
  0
LINE
  5
1DE
330
6F
100
AcDbEntity
  8
_0-3_躯体と製品
  6
Continuous
 62
     2
100
AcDbLine
 10
-271.8804258531116
 20
-19.22030894239407
 30
0.0
 11
225.7195741468866
 21
-19.22030894239407
 31
0.0
  0
LINE
  5
1DF
330
6F
100
AcDbEntity
  8
_0-3_躯体と製品
  6
Continuous
 62
     2
100
AcDbLine
 10
225.7195741468866
 20
-20.6203089423841
 30
0.0
 11
213.4195741468873
 21
-20.6203089423841
 31
0.0
  0
LINE
  5
1E0
330
6F
100
AcDbEntity
  8
_0-3_躯体と製品
  6
Continuous
 62
     2
100
AcDbLine
 10
204.6695741468895
 20
-20.6203089423841
 30
0.0
 11
202.1695741468895
 21
-20.6203089423841
 31
0.0
  0
LINE
  5
1E1
330
6F
100
AcDbEntity
  8
_0-3_躯体と製品
  6
Continuous
 62
     2
100
AcDbLine
 10
196.4195741468872
 20
-20.6203089423841
 30
0.0
 11
-271.8804258531116
 21
-20.6203089423841
 31
0.0
  0
ARC
  5
1E2
330
6F
100
AcDbEntity
  8
_0-3_躯体と製品
  6
Continuous
 62
     2
100
AcDbCircle
 10
-271.8804258531116
 20
-19.92030894238428
 30
0.0
 40
0.6999999999999999
100
AcDbArc
 50
90.0
 51
270.0
  0
LINE
  5
1E3
330
6F
100
AcDbEntity
  8
_0-3_躯体と製品
  6
Continuous
 62
     2
100
AcDbLine
 10
154.2195741468865
 20
-46.22030894239003
 30
0.0
 11
-200.3804258531116
 21
-46.22030894239003
 31
0.0
  0
ARC
  5
1E4
330
6F
100
AcDbEntity
  8
_0-3_躯体と製品
  6
Continuous
 62
     2
100
AcDbCircle
 10
-259.5804258531086
 20
-44.72030894238992
 30
0.0
 40
3.5
100
AcDbArc
 50
180.0
 51
270.0
  0
LINE
  5
1E5
330
6F
100
AcDbEntity
  8
_0-3_躯体と製品
  6
Continuous
 62
     2
100
AcDbLine
 10
-263.0804258531086
 20
-44.72030894238992
 30
0.0
 11
-263.0804258531086
 21
-21.6203089423841
 31
0.0
  0
LINE
  5
1E6
330
6F
100
AcDbEntity
  8
_0-3_躯体と製品
  6
Continuous
 62
     2
100
AcDbLine
 10
213.4195741468905
 20
-48.22030894238992
 30
0.0
 11
-259.5804258531086
 21
-48.22030894238992
 31
0.0
  0
LINE
  5
1E7
330
6F
100
AcDbEntity
  8
_0-3_躯体と製品
  6
Continuous
 62
     2
100
AcDbLine
 10
-200.3804258531116
 20
-46.22030894238278
 30
0.0
 11
-200.3804258531116
 21
-48.22030894238992
 31
0.0
  0
LINE
  5
1E8
330
6F
100
AcDbEntity
  8
_0-3_躯体と製品
  6
Continuous
 62
     2
100
AcDbLine
 10
154.2195741468865
 20
-48.22030894238992
 30
0.0
 11
154.2195741468865
 21
-46.22030894238278
 31
0.0
  0
ARC
  5
1E9
330
6F
100
AcDbEntity
  8
_0-3_躯体と製品
  6
Continuous
 62
     2
100
AcDbCircle
 10
213.4195741468905
 20
-44.72030894238992
 30
0.0
 40
3.5
100
AcDbArc
 50
270.0
 51
0.0
  0
LINE
  5
1EA
330
6F
100
AcDbEntity
  8
_0-3_躯体と製品
  6
Continuous
 62
     2
100
AcDbLine
 10
216.9195741468913
 20
-21.6203089423841
 30
0.0
 11
216.9195741468913
 21
-23.22030894238941
 31
0.0
  0
LINE
  5
1EB
330
6F
100
AcDbEntity
  8
_0-3_躯体と製品
  6
Continuous
 62
     2
100
AcDbLine
 10
216.9195741468923
 20
-28.72149086765137
 30
0.0
 11
216.9195741468913
 21
-44.72030894238992
 31
0.0
  0
ARC
  5
1EC
330
6F
100
AcDbEntity
  8
_0-3_躯体と製品
  6
Continuous
 62
     2
100
AcDbCircle
 10
-264.0804258531109
 20
-21.62030894238597
 30
0.0
 40
1.000000000002273
100
AcDbArc
 50
0.0000000001042204
 51
89.99999999992184
  0
ARC
  5
1ED
330
6F
100
AcDbEntity
  8
_0-3_躯体と製品
  6
Continuous
 62
     2
100
AcDbCircle
 10
225.7195741468866
 20
-19.92030894238428
 30
0.0
 40
0.6999999999999999
100
AcDbArc
 50
270.0
 51
90.0
  0
ARC
  5
1EE
330
6F
100
AcDbEntity
  8
_0-3_躯体と製品
  6
Continuous
 62
     2
100
AcDbCircle
 10
225.7195741468866
 20
-19.92030894238428
 30
0.0
 40
0.6999999999999999
100
AcDbArc
 50
270.0
 51
90.0
  0
ARC
  5
1EF
330
6F
100
AcDbEntity
  8
_0-3_躯体と製品
  6
Continuous
 62
     2
100
AcDbCircle
 10
217.9195741468859
 20
-21.62030894238597
 30
0.0
 40
1.000000000002273
100
AcDbArc
 50
90.00000000007814
 51
179.9999999998957
  0
LINE
  5
1F0
330
6F
100
AcDbEntity
  8
_0-3_躯体と製品
  6
HASEN
 62
     2
100
AcDbLine
 10
-246.0554258531477
 20
-51.69542574723607
 30
0.0
 11
-251.1054258531355
 21
-51.69542574723607
 31
0.0
  0
LINE
  5
1F1
330
6F
100
AcDbEntity
  8
_0-3_躯体と製品
  6
HASEN
 62
     2
100
AcDbLine
 10
-246.0554258531477
 20
-52.19542574723607
 30
0.0
 11
-251.1054258531355
 21
-52.19542574723607
 31
0.0
  0
ARC
  5
1F2
330
6F
100
AcDbEntity
  8
_0-3_躯体と製品
  6
HASEN
 62
     2
100
AcDbCircle
 10
-246.1116758531127
 20
-51.94542574723607
 30
0.0
 40
0.2562499999998978
100
AcDbArc
 50
282.6803834935704
 51
77.31961650642957
  0
ARC
  5
1F3
330
6F
100
AcDbEntity
  8
_0-3_躯体と製品
  6
HASEN
 62
     2
100
AcDbCircle
 10
-251.0491758531127
 20
-51.94542574723607
 30
0.0
 40
0.2562500000005634
100
AcDbArc
 50
102.6803834935704
 51
257.3196165064295
  0
LINE
  5
1F4
330
6F
100
AcDbEntity
  8
_0-3_躯体と製品
  6
HASEN
 62
     2
100
AcDbLine
 10
-246.0554258531477
 20
-52.22030894238992
 30
0.0
 11
-246.0554258531545
 21
-52.19542574723607
 31
0.0
  0
LINE
  5
1F5
330
6F
100
AcDbEntity
  8
_0-3_躯体と製品
  6
HASEN
 62
     2
100
AcDbLine
 10
-246.0554258531545
 20
-51.69542574723607
 30
0.0
 11
-246.0554258531545
 21
-49.22030894239004
 31
0.0
  0
LINE
  5
1F6
330
6F
100
AcDbEntity
  8
_0-3_躯体と製品
  6
HASEN
 62
     2
100
AcDbLine
 10
-251.1054258531437
 20
-52.22030894238992
 30
0.0
 11
-251.1054258531437
 21
-52.19542574723607
 31
0.0
  0
LINE
  5
1F7
330
6F
100
AcDbEntity
  8
_0-3_躯体と製品
  6
HASEN
 62
     2
100
AcDbLine
 10
-251.1054258531437
 20
-51.69542574723607
 30
0.0
 11
-251.1054258531437
 21
-49.22030894239004
 31
0.0
  0
LINE
  5
1F8
330
6F
100
AcDbEntity
  8
_0-3_躯体と製品
  6
HASEN
 62
     2
100
AcDbLine
 10
-200.1054258530774
 20
-51.69542574723607
 30
0.0
 11
-195.0554258530894
 21
-51.69542574723607
 31
0.0
  0
LINE
  5
1F9
330
6F
100
AcDbEntity
  8
_0-3_躯体と製品
  6
HASEN
 62
     2
100
AcDbLine
 10
-200.1054258530774
 20
-52.19542574723607
 30
0.0
 11
-195.0554258530894
 21
-52.19542574723607
 31
0.0
  0
ARC
  5
1FA
330
6F
100
AcDbEntity
  8
_0-3_躯体と製品
  6
HASEN
 62
     2
100
AcDbCircle
 10
-200.0491758531127
 20
-51.94542574723607
 30
0.0
 40
0.2562499999998978
100
AcDbArc
 50
102.6803834935704
 51
257.3196165064295
  0
ARC
  5
1FB
330
6F
100
AcDbEntity
  8
_0-3_躯体と製品
  6
HASEN
 62
     2
100
AcDbCircle
 10
-195.1116758531127
 20
-51.94542574723607
 30
0.0
 40
0.2562500000005634
100
AcDbArc
 50
282.6803834935704
 51
77.31961650642957
  0
LINE
  5
1FC
330
6F
100
AcDbEntity
  8
_0-3_躯体と製品
  6
HASEN
 62
     2
100
AcDbLine
 10
-200.1054258530774
 20
-52.22030894238992
 30
0.0
 11
-200.1054258530774
 21
-52.19542574723607
 31
0.0
  0
LINE
  5
1FD
330
6F
100
AcDbEntity
  8
_0-3_躯体と製品
  6
HASEN
 62
     2
100
AcDbLine
 10
-200.1054258530774
 20
-51.69542574723607
 30
0.0
 11
-200.1054258530774
 21
-49.22030894239004
 31
0.0
  0
LINE
  5
1FE
330
6F
100
AcDbEntity
  8
_0-3_躯体と製品
  6
HASEN
 62
     2
100
AcDbLine
 10
-195.0554258530894
 20
-52.22030894238992
 30
0.0
 11
-195.0554258530894
 21
-52.19542574723607
 31
0.0
  0
LINE
  5
1FF
330
6F
100
AcDbEntity
  8
_0-3_躯体と製品
  6
HASEN
 62
     2
100
AcDbLine
 10
-195.0554258530894
 20
-51.69542574723607
 30
0.0
 11
-195.0554258530894
 21
-49.22030894239004
 31
0.0
  0
LINE
  5
200
330
6F
100
AcDbEntity
  8
_0-3_躯体と製品
  6
Continuous
 62
     3
100
AcDbLine
 10
-272.7486671603626
 20
-12.72029694239359
 30
0.0
 11
366.4337649741525
 21
-12.72029694239359
 31
0.0
  0
LINE
  5
201
330
6F
100
AcDbEntity
  8
_0-4_文字-記号
  6
Continuous
 62
     7
100
AcDbLine
 10
-36.5762792081685
 20
-38.93099422195769
 30
0.0
 11
23.39748861705647
 21
27.27970305760641
 31
0.0
  0
LINE
  5
202
330
6F
100
AcDbEntity
  8
_0-4_文字-記号
  6
Continuous
 62
     7
100
AcDbLine
 10
-36.5762792081685
 20
-38.93099422195769
 30
0.0
 11
-29.4476632482145
 21
-34.78578168965095
 31
0.0
  0
LINE
  5
203
330
6F
100
AcDbEntity
  8
_0-4_文字-記号
  6
Continuous
 62
     7
100
AcDbLine
 10
-36.5762792081685
 20
-38.93099422195769
 30
0.0
 11
-32.23701219988357
 21
-31.91881094759117
 31
0.0
  0
LINE
  5
204
330
6F
100
AcDbEntity
  8
_0-4_文字-記号
  6
Continuous
 62
     7
100
AcDbLine
 10
23.39748861705647
 20
27.27970305760641
 30
0.0
 11
162.8063178856134
 21
27.27970305760641
 31
0.0
  0
LINE
  5
205
330
6F
100
AcDbEntity
  8
_0-4_文字-記号
  6
Continuous
 62
     7
100
AcDbLine
 10
-103.5355096154596
 20
11.26964159090721
 30
0.0
 11
-16.16398129974561
 21
11.26964159090721
 31
0.0
  0
TEXT
  5
206
330
6F
100
AcDbEntity
  8
_0-4_文字-記号
 62
     7
100
AcDbText
 10
-102.8642812898054
 20
15.26962159090715
 30
0.0
 40
12.0
  1
タイルカーペット
 41
0.8000000000000001
100
AcDbText
  0
LINE
  5
207
330
6F
100
AcDbEntity
  8
_0-4_文字-記号
  6
Continuous
 62
     7
100
AcDbLine
 10
-136.0558866518097
 20
-12.72029694239359
 30
0.0
 11
-103.5355096154596
 21
11.26964159090721
 31
0.0
  0
LINE
  5
208
330
6F
100
AcDbEntity
  8
_0-4_文字-記号
  6
Continuous
 62
     7
100
AcDbLine
 10
-136.0558866518097
 20
-12.72029694239359
 30
0.0
 11
-128.5822639221626
 21
-9.235341313204571
 31
0.0
  0
LINE
  5
209
330
6F
100
AcDbEntity
  8
_0-4_文字-記号
  6
Continuous
 62
     7
100
AcDbLine
 10
-136.0558866518097
 20
-12.72029694239359
 30
0.0
 11
-131.1014927746817
 21
-6.128337161510899
 31
0.0
  0
LINE
  5
20A
330
6F
100
AcDbEntity
  8
_0-0_0
  6
Continuous
 62
     7
100
AcDbLine
 10
-455.5840808531104
 20
-112.720308942394
 30
0.0
 11
366.4337649741525
 21
-112.720308942394
 31
0.0
  0
LINE
  5
20B
330
6F
100
AcDbEntity
  8
_0-5_中心線
  6
CENTER1
 62
     7
100
AcDbLine
 10
-296.0840818531117
 20
-110.4203089423941
 30
0.0
 11
-296.0840818531117
 21
-112.720308942394
 31
0.0
  0
LINE
  5
20C
330
6F
100
AcDbEntity
  8
_0-5_中心線
  6
CENTER1
 62
     7
100
AcDbLine
 10
-292.0840818531117
 20
-110.4203089423941
 30
0.0
 11
-292.0840818531117
 21
-112.720308942394
 31
0.0
  0
LINE
  5
20D
330
6F
100
AcDbEntity
  8
_0-3_躯体と製品
  6
Continuous
 62
     7
100
AcDbLine
 10
-274.0840818531117
 20
-28.72030894239413
 30
0.0
 11
-274.0840818531117
 21
-108.2203089423941
 31
0.0
  0
ARC
  5
20E
330
6F
100
AcDbEntity
  8
_0-3_躯体と製品
  6
Continuous
 62
     7
100
AcDbCircle
 10
-278.5840818531117
 20
-108.2203089423941
 30
0.0
 40
4.5
100
AcDbArc
 50
270.0
 51
0.0
  0
LINE
  5
20F
330
6F
100
AcDbEntity
  8
_0-3_躯体と製品
  6
Continuous
 62
     7
100
AcDbLine
 10
-278.5840818531117
 20
-112.720308942394
 30
0.0
 11
-309.5840818531117
 21
-112.720308942394
 31
0.0
  0
ARC
  5
210
330
6F
100
AcDbEntity
  8
_0-3_躯体と製品
  6
Continuous
 62
     7
100
AcDbCircle
 10
-309.5840818531117
 20
-108.2203089423941
 30
0.0
 40
4.5
100
AcDbArc
 50
180.0
 51
270.0
  0
LINE
  5
211
330
6F
100
AcDbEntity
  8
_0-3_躯体と製品
  6
Continuous
 62
     7
100
AcDbLine
 10
-314.0840818531117
 20
-108.2203089423941
 30
0.0
 11
-314.0840818531117
 21
-72.72030894239406
 31
0.0
  0
LINE
  5
212
330
6F
100
AcDbEntity
  8
_0-3_躯体と製品
  6
Continuous
 62
     7
100
AcDbLine
 10
-314.0840818531117
 20
-72.72030894239406
 30
0.0
 11
-311.7840818531115
 21
-72.72030894239406
 31
0.0
  0
LINE
  5
213
330
6F
100
AcDbEntity
  8
_0-3_躯体と製品
  6
Continuous
 62
     7
100
AcDbLine
 10
-311.7840818531115
 20
-72.72030894239406
 30
0.0
 11
-311.7840818531115
 21
-108.2203089423941
 31
0.0
  0
ARC
  5
214
330
6F
100
AcDbEntity
  8
_0-3_躯体と製品
  6
Continuous
 62
     7
100
AcDbCircle
 10
-309.5840818531117
 20
-108.2203089423941
 30
0.0
 40
2.200000000000271
100
AcDbArc
 50
180.0
 51
270.0
  0
LINE
  5
215
330
6F
100
AcDbEntity
  8
_0-3_躯体と製品
  6
Continuous
 62
     7
100
AcDbLine
 10
-309.5840818531117
 20
-110.4203089423941
 30
0.0
 11
-278.5840818531117
 21
-110.4203089423941
 31
0.0
  0
ARC
  5
216
330
6F
100
AcDbEntity
  8
_0-3_躯体と製品
  6
Continuous
 62
     7
100
AcDbCircle
 10
-278.5840818531117
 20
-108.2203089423941
 30
0.0
 40
2.199999999999818
100
AcDbArc
 50
270.0
 51
0.0
  0
LINE
  5
217
330
6F
100
AcDbEntity
  8
_0-3_躯体と製品
  6
Continuous
 62
     7
100
AcDbLine
 10
-276.3840818531114
 20
-108.2203089423941
 30
0.0
 11
-276.3840818531114
 21
-28.72030894239413
 31
0.0
  0
LINE
  5
218
330
6F
100
AcDbEntity
  8
_0-3_躯体と製品
  6
Continuous
 62
     7
100
AcDbLine
 10
-276.3840818531114
 20
-28.72030894239413
 30
0.0
 11
-274.0840818531117
 21
-28.72030894239413
 31
0.0
  0
LINE
  5
219
330
6F
100
AcDbEntity
  8
_0-3_躯体と製品
  6
Continuous
 62
     7
100
AcDbLine
 10
-315.5840818531117
 20
-112.720308942394
 30
0.0
 11
-314.0840818531117
 21
-112.720308942394
 31
0.0
  0
LINE
  5
21A
330
6F
100
AcDbEntity
  8
_0-3_躯体と製品
  6
Continuous
 62
     7
100
AcDbLine
 10
-314.0840818531117
 20
-112.720308942394
 30
0.0
 11
-314.0840818531117
 21
-13.72030894239401
 31
0.0
  0
ARC
  5
21B
330
6F
100
AcDbEntity
  8
_0-3_躯体と製品
  6
Continuous
 62
     7
100
AcDbCircle
 10
-312.5840818531117
 20
-13.72030894239401
 30
0.0
 40
1.5
100
AcDbArc
 50
90.0
 51
180.0
  0
LINE
  5
21C
330
6F
100
AcDbEntity
  8
_0-3_躯体と製品
  6
Continuous
 62
     7
100
AcDbLine
 10
-312.5840818531117
 20
-12.22030894239418
 30
0.0
 11
-275.5840818531117
 21
-12.22030894239418
 31
0.0
  0
ARC
  5
21D
330
6F
100
AcDbEntity
  8
_0-3_躯体と製品
  6
Continuous
 62
     7
100
AcDbCircle
 10
-275.5840818531117
 20
-13.72030894239401
 30
0.0
 40
1.5
100
AcDbArc
 50
0.0
 51
90.0
  0
LINE
  5
21E
330
6F
100
AcDbEntity
  8
_0-3_躯体と製品
  6
Continuous
 62
     7
100
AcDbLine
 10
-274.0840818531117
 20
-13.72030894239401
 30
0.0
 11
-274.0840818531117
 21
-68.72030894239407
 31
0.0
  0
LINE
  5
21F
330
6F
100
AcDbEntity
  8
_0-3_躯体と製品
  6
Continuous
 62
     7
100
AcDbLine
 10
-274.0840818531117
 20
-68.72030894239407
 30
0.0
 11
-272.5840818531117
 21
-68.72030894239407
 31
0.0
  0
LINE
  5
220
330
6F
100
AcDbEntity
  8
_0-3_躯体と製品
  6
Continuous
 62
     7
100
AcDbLine
 10
-272.5840818531117
 20
-68.72030894239407
 30
0.0
 11
-272.5840818531117
 21
-13.72030894239401
 31
0.0
  0
ARC
  5
221
330
6F
100
AcDbEntity
  8
_0-3_躯体と製品
  6
Continuous
 62
     7
100
AcDbCircle
 10
-275.5840818531117
 20
-13.72030894239401
 30
0.0
 40
3.0
100
AcDbArc
 50
0.0
 51
90.0
  0
LINE
  5
222
330
6F
100
AcDbEntity
  8
_0-3_躯体と製品
  6
Continuous
 62
     7
100
AcDbLine
 10
-275.5840818531117
 20
-10.72030894239401
 30
0.0
 11
-312.5840818531117
 21
-10.72030894239401
 31
0.0
  0
ARC
  5
223
330
6F
100
AcDbEntity
  8
_0-3_躯体と製品
  6
Continuous
 62
     7
100
AcDbCircle
 10
-312.5840818531117
 20
-13.72030894239401
 30
0.0
 40
3.0
100
AcDbArc
 50
90.0
 51
180.0
  0
LINE
  5
224
330
6F
100
AcDbEntity
  8
_0-3_躯体と製品
  6
Continuous
 62
     7
100
AcDbLine
 10
-315.5840818531117
 20
-13.72030894239401
 30
0.0
 11
-315.5840818531117
 21
-112.720308942394
 31
0.0
  0
LINE
  5
225
330
6F
100
AcDbEntity
  8
_0-5_中心線
  6
CENTER1
 62
     7
100
AcDbLine
 10
-294.0840818531126
 20
-98.91929060966326
 30
0.0
 11
-294.0840818531126
 21
-129.8557246998262
 31
0.0
  0
LINE
  5
226
330
6F
100
AcDbEntity
  8
_0-5_中心線
  6
CENTER1
 62
     7
100
AcDbLine
 10
-289.5840818531117
 20
-48.70030894239403
 30
0.0
 11
-267.5840818531117
 21
-48.70030894239403
 31
0.0
  0
LINE
  5
227
330
6F
100
AcDbEntity
  8
_0-3_躯体と製品
  6
Continuous
 62
     7
100
AcDbLine
 10
-263.0804258531086
 20
-34.46711494238684
 30
0.0
 11
-272.5840818531117
 21
-24.96345894238448
 31
0.0
  0
LINE
  5
228
330
6F
100
AcDbEntity
  8
_0-3_躯体と製品
  6
Continuous
 62
     7
100
AcDbLine
 10
-263.0804258531086
 20
-44.70030894239402
 30
0.0
 11
-263.0804258531086
 21
-20.62030894238433
 31
0.0
  0
LINE
  5
229
330
6F
100
AcDbEntity
  8
_0-3_躯体と製品
  6
Continuous
 62
     7
100
AcDbLine
 10
-263.9120662155944
 20
-20.63458330486793
 30
0.0
 11
-272.5840818531117
 21
-29.30659894238443
 31
0.0
  0
LINE
  5
22A
330
6F
100
AcDbEntity
  8
_0-3_躯体と製品
  6
Continuous
 62
     7
100
AcDbLine
 10
-272.5840818531117
 20
-30.64293894238427
 30
0.0
 11
-263.0804258531096
 21
-40.14659494238583
 31
0.0
  0
LINE
  5
22B
330
6F
100
AcDbEntity
  8
_0-3_躯体と製品
  6
Continuous
 62
     7
100
AcDbLine
 10
-272.6067118531116
 20
-44.70030894239402
 30
0.0
 11
-263.0804258531086
 21
-44.70030894239402
 31
0.0
  0
LINE
  5
22C
330
6F
100
AcDbEntity
  8
_0-3_躯体と製品
  6
Continuous
 62
     7
100
AcDbLine
 10
-263.0804258531086
 20
-25.4598029423824
 30
0.0
 11
-272.5840818531117
 21
-34.96345894238448
 31
0.0
  0
LINE
  5
22D
330
6F
100
AcDbEntity
  8
_0-3_躯体と製品
  6
Continuous
 62
     7
100
AcDbLine
 10
-267.5840818531117
 20
-35.59767894238439
 30
0.0
 11
-267.6067118531107
 21
-35.62030894238444
 31
0.0
  0
LINE
  5
22E
330
6F
100
AcDbEntity
  8
_0-3_躯体と製品
  6
Continuous
 62
     7
100
AcDbLine
 10
-263.0804258531096
 20
-28.81025494238816
 30
0.0
 11
-271.2703718531118
 21
-20.62030894238433
 31
0.0
  0
LINE
  5
22F
330
6F
100
AcDbEntity
  8
_0-3_躯体と製品
  6
Continuous
 62
     7
100
AcDbLine
 10
-269.5546418531114
 20
-20.62030894238433
 30
0.0
 11
-272.5840818531117
 21
-23.64974894238441
 31
0.0
  0
LINE
  5
230
330
6F
100
AcDbEntity
  8
_0-3_躯体と製品
  6
Continuous
 62
     7
100
AcDbLine
 10
-263.0804258531086
 20
-31.11666294238205
 30
0.0
 11
-272.5840818531117
 21
-40.6203189423843
 31
0.0
  0
LINE
  5
231
330
6F
100
AcDbEntity
  8
_0-3_躯体と製品
  6
Continuous
 62
     7
100
AcDbLine
 10
-263.1030558531086
 20
-36.7735129423819
 30
0.0
 11
-271.0298518531206
 21
-44.70030894239402
 31
0.0
  0
LINE
  5
232
330
6F
100
AcDbEntity
  8
_0-3_躯体と製品
  6
Continuous
 62
     7
100
AcDbLine
 10
-263.0804258531086
 20
-42.40774294238244
 30
0.0
 11
-265.3729918531205
 21
-44.70030894239402
 31
0.0
  0
LINE
  5
233
330
6F
100
AcDbEntity
  8
_0-3_躯体と製品
  6
Continuous
 62
     7
100
AcDbLine
 10
-272.5840818531117
 20
-42.00189894238334
 30
0.0
 11
-269.8856718531004
 21
-44.70030894239402
 31
0.0
  0
LINE
  5
234
330
6F
100
AcDbEntity
  8
_0-3_躯体と製品
  6
Continuous
 62
     7
100
AcDbLine
 10
-272.5840818531117
 20
-36.32241894238394
 30
0.0
 11
-264.2061918531005
 21
-44.70030894239402
 31
0.0
  0
LINE
  5
235
330
6F
100
AcDbEntity
  8
_0-4_文字-記号
  6
Continuous
 62
     7
100
AcDbLine
 10
-332.9269423666485
 20
1.34741485892232
 30
0.0
 11
-418.6691150109748
 21
1.34741485892232
 31
0.0
  0
LINE
  5
236
330
6F
100
AcDbEntity
  8
_0-4_文字-記号
  6
Continuous
 62
     7
100
AcDbLine
 10
-270.4125118531117
 20
-29.90926961558887
 30
0.0
 11
-332.9269423666485
 21
1.34741485892232
 31
0.0
  0
LINE
  5
237
330
6F
100
AcDbEntity
  8
_0-4_文字-記号
  6
Continuous
 62
     7
100
AcDbLine
 10
-270.4125118531117
 20
-29.90926961558887
 30
0.0
 11
-277.2403266208628
 21
-25.28532130923884
 31
0.0
  0
LINE
  5
238
330
6F
100
AcDbEntity
  8
_0-4_文字-記号
  6
Continuous
 62
     7
100
AcDbLine
 10
-270.4125118531117
 20
-29.90926961558887
 30
0.0
 11
-278.6130299688204
 21
-29.04240453010357
 31
0.0
  0
TEXT
  5
239
330
6F
100
AcDbEntity
  8
_0-4_文字-記号
 62
     7
100
AcDbText
 10
-238.1680716887616
 20
38.26649126773157
 30
0.0
 40
12.0
  1
ステンレス框 Ｈ１００用
100
AcDbText
  0
LINE
  5
23A
330
6F
100
AcDbEntity
  8
_0-4_文字-記号
  6
Continuous
 62
     7
100
AcDbLine
 10
-294.0840816887605
 20
-10.7203098293096
 30
0.0
 11
-242.5771107813578
 21
34.92102772701071
 31
0.0
  0
LINE
  5
23B
330
6F
100
AcDbEntity
  8
_0-4_文字-記号
  6
Continuous
 62
     7
100
AcDbLine
 10
-242.5771107813578
 20
34.92102772701071
 30
0.0
 11
-75.65413134172672
 21
34.92102772701071
 31
0.0
  0
LINE
  5
23C
330
6F
100
AcDbEntity
  8
_0-4_文字-記号
  6
Continuous
 62
     7
100
AcDbLine
 10
-294.0840818531117
 20
-10.72030894239401
 30
0.0
 11
-286.8817392497988
 21
-6.704563249873274
 31
0.0
  0
LINE
  5
23D
330
6F
100
AcDbEntity
  8
_0-4_文字-記号
  6
Continuous
 62
     7
100
AcDbLine
 10
-294.0840818531117
 20
-10.72030894239401
 30
0.0
 11
-289.6188363525505
 21
-3.787666223904864
 31
0.0
  0
LINE
  5
23E
330
6F
100
AcDbEntity
  8
_0-5_中心線
  6
CENTER1
 62
     7
100
AcDbLine
 10
-223.0804256973067
 20
-31.26179315903107
 30
0.0
 11
-223.0804256973067
 21
-123.4916270645618
 31
0.0
  0
LINE
  5
23F
330
6F
100
AcDbEntity
  8
_0-5_中心線
  6
CENTER1
 62
     7
100
AcDbLine
 10
226.9195741468887
 20
-34.83006438230734
 30
0.0
 11
226.9195741468873
 21
-123.4916270645618
 31
0.0
  0
LINE
  5
240
330
6F
100
AcDbEntity
  8
_0-0_0
  6
Continuous
 62
     4
100
AcDbLine
 10
420.2303403577814
 20
-12.72274480137639
 30
0.0
 11
420.2303403577814
 21
-19.22274480137639
 31
0.0
  0
LINE
  5
241
330
6F
100
AcDbEntity
  8
_0-3_躯体と製品
  6
Continuous
 62
     4
100
AcDbLine
 10
-386.3336272179907
 20
-112.720308942394
 30
0.0
 11
-416.3336272179906
 21
-142.720308942394
 31
0.0
  0
LINE
  5
242
330
6F
100
AcDbEntity
  8
_0-3_躯体と製品
  6
Continuous
 62
     4
100
AcDbLine
 10
-376.3336272179906
 20
-112.720308942394
 30
0.0
 11
-406.3336272179906
 21
-142.720308942394
 31
0.0
  0
LINE
  5
243
330
6F
100
AcDbEntity
  8
_0-3_躯体と製品
  6
Continuous
 62
     4
100
AcDbLine
 10
-366.3336272179906
 20
-112.720308942394
 30
0.0
 11
-396.3336272179906
 21
-142.720308942394
 31
0.0
  0
LINE
  5
244
330
6F
100
AcDbEntity
  8
_0-0_0
  6
Continuous
 62
     4
100
AcDbLine
 10
448.1651174905193
 20
-19.22274480137639
 30
0.0
 11
431.5814388834063
 21
-19.22274480137639
 31
0.0
  0
TEXT
  5
245
330
6F
100
AcDbEntity
  8
_0-4_文字-記号
 62
     7
100
AcDbText
 10
-476.3728430608937
 20
127.7203089423939
 30
0.0
 40
15.0
  1
【SUS框部納まり図（サンアクセスフロア ５００Ｔ：モルタル充填タイプ）】
100
AcDbText
  0
TEXT
  5
246
330
6F
100
AcDbEntity
  8
_0-4_文字-記号
 62
     7
100
AcDbText
 10
23.33648360863833
 20
31.28111454836693
 30
0.0
 40
12.0
  1
サンアクセスフロア500T
 41
0.8000000000000001
100
AcDbText
  0
ENDSEC
  0
SECTION
  2
OBJECTS
  0
DICTIONARY
  5
C
330
0
100
AcDbDictionary
281
     1
  3
ACAD_CIP_PREVIOUS_PRODUCT_INFO
350
248
  3
ACAD_COLOR
350
62
  3
ACAD_DETAILVIEWSTYLE
350
69
  3
ACAD_GROUP
350
D
  3
ACAD_LAYOUT
350
61
  3
ACAD_MATERIAL
350
10
  3
ACAD_MLEADERSTYLE
350
65
  3
ACAD_MLINESTYLE
350
5E
  3
ACAD_PLOTSETTINGS
350
60
  3
ACAD_PLOTSTYLENAME
350
E
  3
ACAD_SCALELIST
350
42
  3
ACAD_SECTIONVIEWSTYLE
350
67
  3
ACAD_TABLESTYLE
350
63
  3
ACAD_VISUALSTYLE
350
29
  3
ACDB_RECOMPOSE_DATA
350
311
  3
AcDbVariableDictionary
350
290
  3
AcDsDecomposeData
350
318
  3
DWGPROPS
350
312
  0
DICTIONARY
  5
2F1
330
2
100
AcDbDictionary
280
     1
281
     1
  3
ACAD_LAYERSTATES
360
2F2
  0
DICTIONARY
  5
249
330
54
100
AcDbDictionary
280
     1
281
     1
  3
ADSK_XREC_LAYER_RECONCILED
360
24A
  0
DICTIONARY
  5
24B
330
98
100
AcDbDictionary
280
     1
281
     1
  3
ADSK_XREC_LAYER_RECONCILED
360
24C
  0
DICTIONARY
  5
24D
330
99
100
AcDbDictionary
280
     1
281
     1
  3
ADSK_XREC_LAYER_RECONCILED
360
24E
  0
DICTIONARY
  5
24F
330
9A
100
AcDbDictionary
280
     1
281
     1
  3
ADSK_XREC_LAYER_RECONCILED
360
250
  0
DICTIONARY
  5
251
330
9B
100
AcDbDictionary
280
     1
281
     1
  3
ADSK_XREC_LAYER_RECONCILED
360
252
  0
DICTIONARY
  5
253
330
9C
100
AcDbDictionary
280
     1
281
     1
  3
ADSK_XREC_LAYER_RECONCILED
360
254
  0
DICTIONARY
  5
255
330
AE
100
AcDbDictionary
280
     1
281
     1
  3
ADSK_XREC_LAYER_RECONCILED
360
256
  0
DICTIONARY
  5
2CF
330
CC
100
AcDbDictionary
280
     1
281
     1
  0
XRECORD
  5
248
102
{ACAD_REACTORS
330
C
102
}
330
C
100
AcDbXrecord
280
     1
300
ACD
300
2017
300
ACD_F_S
  0
DICTIONARY
  5
62
102
{ACAD_REACTORS
330
C
102
}
330
C
100
AcDbDictionary
281
     1
  0
DICTIONARY
  5
69
102
{ACAD_REACTORS
330
C
102
}
330
C
100
AcDbDictionary
281
     1
  3
Imperial24
350
6A
  0
DICTIONARY
  5
D
102
{ACAD_REACTORS
330
C
102
}
330
C
100
AcDbDictionary
281
     1
  3
*A1
350
2D2
  0
DICTIONARY
  5
61
102
{ACAD_REACTORS
330
C
102
}
330
C
100
AcDbDictionary
281
     1
  3
Model
350
72
  3
レイアウト1
350
6E
  0
DICTIONARY
  5
10
102
{ACAD_REACTORS
330
C
102
}
330
C
100
AcDbDictionary
281
     1
  3
ByBlock
350
19
  3
ByLayer
350
11
  3
Global
350
21
  0
DICTIONARY
  5
65
102
{ACAD_REACTORS
330
C
102
}
330
C
100
AcDbDictionary
281
     1
  3
Standard
350
66
  0
DICTIONARY
  5
5E
102
{ACAD_REACTORS
330
C
102
}
330
C
100
AcDbDictionary
281
     1
  3
Standard
350
5F
  0
DICTIONARY
  5
60
102
{ACAD_REACTORS
330
C
102
}
330
C
100
AcDbDictionary
281
     1
  0
ACDBDICTIONARYWDFLT
  5
E
102
{ACAD_REACTORS
330
C
102
}
330
C
100
AcDbDictionary
281
     1
  3
Normal
350
F
100
AcDbDictionaryWithDefault
340
F
  0
DICTIONARY
  5
42
102
{ACAD_REACTORS
330
C
102
}
330
C
100
AcDbDictionary
281
     1
  3
A0
350
43
  3
A1
350
44
  3
A2
350
45
  3
A3
350
46
  3
A4
350
47
  3
A5
350
48
  3
A6
350
49
  3
A7
350
4A
  3
A8
350
4B
  3
A9
350
4C
  3
B0
350
4D
  3
B1
350
4E
  3
B2
350
4F
  3
B3
350
50
  3
B4
350
51
  3
B5
350
52
  3
B6
350
53
  0
DICTIONARY
  5
67
102
{ACAD_REACTORS
330
C
102
}
330
C
100
AcDbDictionary
281
     1
  3
Imperial24
350
68
  0
DICTIONARY
  5
63
102
{ACAD_REACTORS
330
C
102
}
330
C
100
AcDbDictionary
281
     1
  3
Standard
350
64
  0
DICTIONARY
  5
29
102
{ACAD_REACTORS
330
C
102
}
330
C
100
AcDbDictionary
281
     1
  3
2dWireframe
350
2F
  3
Basic
350
2E
  3
Brighten
350
35
  3
ColorChange
350
39
  3
Conceptual
350
32
  3
Dim
350
34
  3
EdgeColorOff
350
41
  3
Facepattern
350
38
  3
Flat
350
2A
  3
FlatWithEdges
350
2B
  3
Gouraud
350
2C
  3
GouraudWithEdges
350
2D
  3
Hidden
350
31
  3
JitterOff
350
3F
  3
Linepattern
350
37
  3
OverhangOff
350
40
  3
Realistic
350
33
  3
Shaded
350
3E
  3
Shaded with edges
350
3D
  3
Shades of Gray
350
3A
  3
Sketchy
350
3B
  3
Thicken
350
36
  3
Wireframe
350
30
  3
X-Ray
350
3C
  0
XRECORD
  5
311
102
{ACAD_REACTORS
330
C
102
}
330
C
100
AcDbXrecord
280
     1
 90
        1
330
64
  0
DICTIONARY
  5
290
102
{ACAD_REACTORS
330
C
102
}
330
C
100
AcDbDictionary
281
     1
  3
CANNOSCALE
350
296
  3
CMLEADERSTYLE
350
292
  3
CTABLESTYLE
350
291
  3
CVIEWDETAILSTYLE
350
293
  3
CVIEWSECTIONSTYLE
350
294
  3
DIMASSOC
350
30E
  3
INDEXCTL
350
30D
  3
LAYEREVAL
350
298
  3
LAYERNOTIFY
350
299
  3
LIGHTINGUNITS
350
297
  3
MSLTSCALE
350
295
  3
SORTENTS
350
30C
  3
XCLIPFRAME
350
30F
  0
DICTIONARY
  5
318
102
{ACAD_REACTORS
330
C
102
}
330
C
100
AcDbDictionary
281
     1
  3
AcDsRecords
350
31A
  3
AcDsSchemas
350
319
1001
ACAD
1070
     2
  0
XRECORD
  5
312
102
{ACAD_REACTORS
330
C
102
}
330
C
100
AcDbXrecord
280
     1
  1
DWGPROPS COOKIE
  2

  3

  4

  6

  7

  8
HON1000CV
  9

300
=
301
=
302
=
303
=
304
=
305
=
306
=
307
=
308
=
309
=
 40
0.0029282407407407
 41
2457851.684641204
 42
2457931.659560185
  1

 90
        0
  0
DICTIONARY
  5
2F2
102
{ACAD_REACTORS
330
2F1
102
}
330
2F1
100
AcDbDictionary
281
     1
  0
XRECORD
  5
24A
102
{ACAD_REACTORS
330
249
102
}
330
249
100
AcDbXrecord
280
     1
290
     1
  0
XRECORD
  5
24C
102
{ACAD_REACTORS
330
24B
102
}
330
24B
100
AcDbXrecord
280
     1
290
     1
  0
XRECORD
  5
24E
102
{ACAD_REACTORS
330
24D
102
}
330
24D
100
AcDbXrecord
280
     1
290
     1
  0
XRECORD
  5
250
102
{ACAD_REACTORS
330
24F
102
}
330
24F
100
AcDbXrecord
280
     1
290
     1
  0
XRECORD
  5
252
102
{ACAD_REACTORS
330
251
102
}
330
251
100
AcDbXrecord
280
     1
290
     1
  0
XRECORD
  5
254
102
{ACAD_REACTORS
330
253
102
}
330
253
100
AcDbXrecord
280
     1
290
     1
  0
XRECORD
  5
256
102
{ACAD_REACTORS
330
255
102
}
330
255
100
AcDbXrecord
280
     1
290
     1
  0
ACDBDETAILVIEWSTYLE
  5
6A
102
{ACAD_XDICTIONARY
360
2F9
102
}
102
{ACAD_REACTORS
330
69
102
}
330
69
100
AcDbModelDocViewStyle
 70
     0
  3
Imperial24
290
     0
100
AcDbDetailViewStyle
 70
     0
 71
     0
 90
        3
 71
     1
340
55
 40
0.24
340
0
 40
0.24
300

 40
0.36
280
     3
 71
     2
340
5C
 90
       25
 71
     3
340
55
 40
0.24
 90
        1
 40
0.75
 90
        1
300
%<\AcVar ViewType \f "%tc1">% %<\AcVar ViewDetailId>%\PSCALE %<\AcVar ViewScale \f "%sn">%
 71
     4
340
5C
 90
       25
340
5C
 90
       25
280
     0
  0
GROUP
  5
2D2
102
{ACAD_REACTORS
330
D
102
}
330
D
100
AcDbGroup
300

 70
     1
 71
     1
340
2CB
  0
LAYOUT
  5
72
102
{ACAD_XDICTIONARY
360
353
102
}
102
{ACAD_REACTORS
330
61
102
}
330
61
100
AcDbPlotSettings
  1

  2
RICOH imagio MP C4002 RPCS
  4

  6

 40
0.0
 41
0.0
 42
0.0
 43
0.0
 44
0.0
 45
0.0
 46
0.0
 47
0.0
 48
0.0
 49
0.0
140
0.0
141
0.0
142
1.0
143
1.0
 70
  1712
 72
     0
 73
     0
 74
     0
  7

 75
     0
147
1.0
148
0.0
149
0.0
100
AcDbLayout
  1
Model
 70
     1
 71
     0
 10
0.0
 20
0.0
 11
12.0
 21
9.0
 12
0.0
 22
0.0
 32
0.0
 14
0.0
 24
0.0
 34
0.0
 15
0.0
 25
0.0
 35
0.0
146
0.0
 13
0.0
 23
0.0
 33
0.0
 16
1.0
 26
0.0
 36
0.0
 17
0.0
 27
1.0
 37
0.0
 76
     0
330
6F
331
9F
  0
LAYOUT
  5
6E
102
{ACAD_XDICTIONARY
360
351
102
}
102
{ACAD_REACTORS
330
61
102
}
330
61
100
AcDbPlotSettings
  1

  2
RICOH imagio MP C4002 RPCS
  4

  6

 40
0.0
 41
0.0
 42
0.0
 43
0.0
 44
0.0
 45
0.0
 46
0.0
 47
0.0
 48
0.0
 49
0.0
140
0.0
141
0.0
142
1.0
143
1.0
 70
   688
 72
     0
 73
     0
 74
     5
  7

 75
    16
147
1.0
148
0.0
149
0.0
100
AcDbLayout
  1
レイアウト1
 70
     1
 71
     1
 10
0.0
 20
0.0
 11
12.0
 21
9.0
 12
0.0
 22
0.0
 32
0.0
 14
1.000000000000000E+20
 24
1.000000000000000E+20
 34
1.000000000000000E+20
 15
-1.000000000000000E+20
 25
-1.000000000000000E+20
 35
-1.000000000000000E+20
146
0.0
 13
0.0
 23
0.0
 33
0.0
 16
1.0
 26
0.0
 36
0.0
 17
0.0
 27
1.0
 37
0.0
 76
     0
330
6B
  0
MATERIAL
  5
19
102
{ACAD_XDICTIONARY
360
1A
102
}
102
{ACAD_REACTORS
330
10
102
}
330
10
100
AcDbMaterial
  1
ByBlock
 72
     0
 43
0.0208333333333333
 43
0.0
 43
0.0
 43
0.0
 43
0.0
 43
0.0208333333333333
 43
0.0
 43
0.0
 43
0.0
 43
0.0
 43
1.0
 43
0.0
 43
0.0
 43
0.0
 43
0.0
 43
1.0
 77
     0
 47
0.0208333333333333
 47
0.0
 47
0.0
 47
0.0
 47
0.0
 47
0.0208333333333333
 47
0.0
 47
0.0
 47
0.0
 47
0.0
 47
1.0
 47
0.0
 47
0.0
 47
0.0
 47
0.0
 47
1.0
171
     0
 49
0.0208333333333333
 49
0.0
 49
0.0
 49
0.0
 49
0.0
 49
0.0208333333333333
 49
0.0
 49
0.0
 49
0.0
 49
0.0
 49
1.0
 49
0.0
 49
0.0
 49
0.0
 49
0.0
 49
1.0
175
     0
142
0.0208333333333333
142
0.0
142
0.0
142
0.0
142
0.0
142
0.0208333333333333
142
0.0
142
0.0
142
0.0
142
0.0
142
1.0
142
0.0
142
0.0
142
0.0
142
0.0
142
1.0
179
     0
144
0.0208333333333333
144
0.0
144
0.0
144
0.0
144
0.0
144
0.0208333333333333
144
0.0
144
0.0
144
0.0
144
0.0
144
1.0
144
0.0
144
0.0
144
0.0
144
0.0
144
1.0
147
0.0208333333333333
147
0.0
147
0.0
147
0.0
147
0.0
147
0.0208333333333333
147
0.0
147
0.0
147
0.0
147
0.0
147
1.0
147
0.0
147
0.0
147
0.0
147
0.0
147
1.0
  0
MATERIAL
  5
11
102
{ACAD_XDICTIONARY
360
12
102
}
102
{ACAD_REACTORS
330
10
102
}
330
10
100
AcDbMaterial
  1
ByLayer
 72
     0
 43
0.0208333333333333
 43
0.0
 43
0.0
 43
0.0
 43
0.0
 43
0.0208333333333333
 43
0.0
 43
0.0
 43
0.0
 43
0.0
 43
1.0
 43
0.0
 43
0.0
 43
0.0
 43
0.0
 43
1.0
 77
     0
 47
0.0208333333333333
 47
0.0
 47
0.0
 47
0.0
 47
0.0
 47
0.0208333333333333
 47
0.0
 47
0.0
 47
0.0
 47
0.0
 47
1.0
 47
0.0
 47
0.0
 47
0.0
 47
0.0
 47
1.0
171
     0
 49
0.0208333333333333
 49
0.0
 49
0.0
 49
0.0
 49
0.0
 49
0.0208333333333333
 49
0.0
 49
0.0
 49
0.0
 49
0.0
 49
1.0
 49
0.0
 49
0.0
 49
0.0
 49
0.0
 49
1.0
175
     0
142
0.0208333333333333
142
0.0
142
0.0
142
0.0
142
0.0
142
0.0208333333333333
142
0.0
142
0.0
142
0.0
142
0.0
142
1.0
142
0.0
142
0.0
142
0.0
142
0.0
142
1.0
179
     0
144
0.0208333333333333
144
0.0
144
0.0
144
0.0
144
0.0
144
0.0208333333333333
144
0.0
144
0.0
144
0.0
144
0.0
144
1.0
144
0.0
144
0.0
144
0.0
144
0.0
144
1.0
147
0.0208333333333333
147
0.0
147
0.0
147
0.0
147
0.0
147
0.0208333333333333
147
0.0
147
0.0
147
0.0
147
0.0
147
1.0
147
0.0
147
0.0
147
0.0
147
0.0
147
1.0
  0
MATERIAL
  5
21
102
{ACAD_XDICTIONARY
360
22
102
}
102
{ACAD_REACTORS
330
10
102
}
330
10
100
AcDbMaterial
  1
Global
 72
     0
 43
0.0208333333333333
 43
0.0
 43
0.0
 43
0.0
 43
0.0
 43
0.0208333333333333
 43
0.0
 43
0.0
 43
0.0
 43
0.0
 43
1.0
 43
0.0
 43
0.0
 43
0.0
 43
0.0
 43
1.0
 77
     0
 47
0.0208333333333333
 47
0.0
 47
0.0
 47
0.0
 47
0.0
 47
0.0208333333333333
 47
0.0
 47
0.0
 47
0.0
 47
0.0
 47
1.0
 47
0.0
 47
0.0
 47
0.0
 47
0.0
 47
1.0
171
     0
 49
0.0208333333333333
 49
0.0
 49
0.0
 49
0.0
 49
0.0
 49
0.0208333333333333
 49
0.0
 49
0.0
 49
0.0
 49
0.0
 49
1.0
 49
0.0
 49
0.0
 49
0.0
 49
0.0
 49
1.0
175
     0
142
0.0208333333333333
142
0.0
142
0.0
142
0.0
142
0.0
142
0.0208333333333333
142
0.0
142
0.0
142
0.0
142
0.0
142
1.0
142
0.0
142
0.0
142
0.0
142
0.0
142
1.0
179
     0
144
0.0208333333333333
144
0.0
144
0.0
144
0.0
144
0.0
144
0.0208333333333333
144
0.0
144
0.0
144
0.0
144
0.0
144
1.0
144
0.0
144
0.0
144
0.0
144
0.0
144
1.0
147
0.0208333333333333
147
0.0
147
0.0
147
0.0
147
0.0
147
0.0208333333333333
147
0.0
147
0.0
147
0.0
147
0.0
147
1.0
147
0.0
147
0.0
147
0.0
147
0.0
147
1.0
  0
MLEADERSTYLE
  5
66
102
{ACAD_REACTORS
330
65
102
}
330
65
100
AcDbMLeaderStyle
170
     2
171
     1
172
     0
 90
        2
 40
0.0
 41
0.0
173
     1
 91
-1056964608
340
5A
 92
       -2
290
     1
 42
0.09
291
     1
 43
0.36
  3
Standard
 44
0.18
300

342
55
174
     1
178
     6
175
     1
176
     0
 93
-1056964608
 45
0.18
292
     0
297
     0
 46
0.18
 94
-1056964608
 47
1.0
 49
1.0
140
1.0
293
     1
141
0.0
294
     1
177
     0
142
1.0
295
     0
296
     0
143
0.125
1001
ACAD_MLEADERVER
1070
     2
  0
MLINESTYLE
  5
5F
102
{ACAD_REACTORS
330
5E
102
}
330
5E
100
AcDbMlineStyle
  2
STANDARD
 70
     0
  3

 62
   256
 51
90.0
 52
90.0
 71
     2
 49
0.5
 62
   256
  6
BYLAYER
 49
-0.5
 62
   256
  6
BYLAYER
  0
ACDBPLACEHOLDER
  5
F
102
{ACAD_REACTORS
330
E
102
}
330
E
  0
SCALE
  5
43
102
{ACAD_REACTORS
330
42
102
}
330
42
100
AcDbScale
 70
     0
300
1:1
140
1.0
141
1.0
290
     1
  0
SCALE
  5
44
102
{ACAD_REACTORS
330
42
102
}
330
42
100
AcDbScale
 70
     0
300
1/128" = 1'-0"
140
0.0078125
141
12.0
290
     0
  0
SCALE
  5
45
102
{ACAD_REACTORS
330
42
102
}
330
42
100
AcDbScale
 70
     0
300
1/64" = 1'-0"
140
0.015625
141
12.0
290
     0
  0
SCALE
  5
46
102
{ACAD_REACTORS
330
42
102
}
330
42
100
AcDbScale
 70
     0
300
1/32" = 1'-0"
140
0.03125
141
12.0
290
     0
  0
SCALE
  5
47
102
{ACAD_REACTORS
330
42
102
}
330
42
100
AcDbScale
 70
     0
300
1/16" = 1'-0"
140
0.0625
141
12.0
290
     0
  0
SCALE
  5
48
102
{ACAD_REACTORS
330
42
102
}
330
42
100
AcDbScale
 70
     0
300
3/32" = 1'-0"
140
0.09375
141
12.0
290
     0
  0
SCALE
  5
49
102
{ACAD_REACTORS
330
42
102
}
330
42
100
AcDbScale
 70
     0
300
1/8" = 1'-0"
140
0.125
141
12.0
290
     0
  0
SCALE
  5
4A
102
{ACAD_REACTORS
330
42
102
}
330
42
100
AcDbScale
 70
     0
300
3/16" = 1'-0"
140
0.1875
141
12.0
290
     0
  0
SCALE
  5
4B
102
{ACAD_REACTORS
330
42
102
}
330
42
100
AcDbScale
 70
     0
300
1/4" = 1'-0"
140
0.25
141
12.0
290
     0
  0
SCALE
  5
4C
102
{ACAD_REACTORS
330
42
102
}
330
42
100
AcDbScale
 70
     0
300
3/8" = 1'-0"
140
0.375
141
12.0
290
     0
  0
SCALE
  5
4D
102
{ACAD_REACTORS
330
42
102
}
330
42
100
AcDbScale
 70
     0
300
1/2" = 1'-0"
140
0.5
141
12.0
290
     0
  0
SCALE
  5
4E
102
{ACAD_REACTORS
330
42
102
}
330
42
100
AcDbScale
 70
     0
300
3/4" = 1'-0"
140
0.75
141
12.0
290
     0
  0
SCALE
  5
4F
102
{ACAD_REACTORS
330
42
102
}
330
42
100
AcDbScale
 70
     0
300
1" = 1'-0"
140
1.0
141
12.0
290
     0
  0
SCALE
  5
50
102
{ACAD_REACTORS
330
42
102
}
330
42
100
AcDbScale
 70
     0
300
1-1/2" = 1'-0"
140
1.5
141
12.0
290
     0
  0
SCALE
  5
51
102
{ACAD_REACTORS
330
42
102
}
330
42
100
AcDbScale
 70
     0
300
3" = 1'-0"
140
3.0
141
12.0
290
     0
  0
SCALE
  5
52
102
{ACAD_REACTORS
330
42
102
}
330
42
100
AcDbScale
 70
     0
300
6" = 1'-0"
140
6.0
141
12.0
290
     0
  0
SCALE
  5
53
102
{ACAD_REACTORS
330
42
102
}
330
42
100
AcDbScale
 70
     0
300
1'-0" = 1'-0"
140
12.0
141
12.0
290
     0
  0
ACDBSECTIONVIEWSTYLE
  5
68
102
{ACAD_XDICTIONARY
360
2F7
102
}
102
{ACAD_REACTORS
330
67
102
}
330
67
100
AcDbModelDocViewStyle
 70
     0
  3
Imperial24
290
     0
100
AcDbSectionViewStyle
 70
     0
 71
     0
 90
       78
 71
     1
340
55
 40
0.24
340
0
340
0
 40
0.24
300
I, O, Q, S, X, Z
 40
0.48
 90
        3
 40
0.18
 90
        1
 71
     2
340
5C
 90
       25
340
5C
 90
       50
 40
0.24
 40
0.0
 40
0.24
 71
     3
340
55
 40
0.24
 90
        1
 40
0.75
 90
        1
300
%<\AcVar ViewType \f "%tc1">% %<\AcVar ViewSectionStartId>%-%<\AcVar ViewSectionEndId>%\PSCALE %<\AcVar ViewScale \f "%sn">%
 71
     4
300
ANSI31
 40
1.0
 90
        0
290
     0
290
     0
 90
        6
 40
0.0
 40
1.570796326794896
 40
0.2617993877991494
 40
1.308996938995747
 40
-0.2617993877991494
 40
1.832595714594046
  0
TABLESTYLE
  5
64
102
{ACAD_XDICTIONARY
360
258
102
}
102
{ACAD_REACTORS
330
63
102
}
330
63
100
AcDbTableStyle
  3
Standard
 70
     0
 71
     0
 40
0.06
 41
0.06
280
     0
281
     0
  7
STANDARD
140
0.18
170
     2
 62
     0
 63
     7
283
     0
274
    -2
284
     1
 64
     0
275
    -2
285
     1
 65
     0
276
    -2
286
     1
 66
     0
277
    -2
287
     1
 67
     0
278
    -2
288
     1
 68
     0
279
    -2
289
     1
 69
     0
  7
STANDARD
140
0.25
170
     5
 62
     0
 63
     7
283
     0
274
    -2
284
     1
 64
     0
275
    -2
285
     1
 65
     0
276
    -2
286
     1
 66
     0
277
    -2
287
     1
 67
     0
278
    -2
288
     1
 68
     0
279
    -2
289
     1
 69
     0
  7
STANDARD
140
0.18
170
     5
 62
     0
 63
     7
283
     0
274
    -2
284
     1
 64
     0
275
    -2
285
     1
 65
     0
276
    -2
286
     1
 66
     0
277
    -2
287
     1
 67
     0
278
    -2
288
     1
 68
     0
279
    -2
289
     1
 69
     0
  0
VISUALSTYLE
  5
2F
102
{ACAD_XDICTIONARY
360
328
102
}
102
{ACAD_REACTORS
330
29
102
}
330
29
100
AcDbVisualStyle
  2
2dWireframe
 70
     4
 71
     0
 72
     2
 73
     0
 90
        0
 40
-0.6
 41
-30.0
 62
     5
 63
     7
 74
     1
 91
        4
 64
     7
 65
   257
 75
     1
175
     1
 42
1.0
 92
        0
 66
   257
 43
1.0
 76
     1
 77
     6
 78
     2
 67
     7
 79
     5
170
     0
171
     0
290
     0
174
     0
 93
        1
 44
0.0
173
     0
291
     0
 45
0.0
1001
ACAD
1000
AcDbSavedByObjectVersion
1070
     0
  0
VISUALSTYLE
  5
2E
102
{ACAD_XDICTIONARY
360
326
102
}
102
{ACAD_REACTORS
330
29
102
}
330
29
100
AcDbVisualStyle
  2
Basic
 70
     7
 71
     1
 72
     0
 73
     1
 90
        0
 40
-0.6
 41
-30.0
 62
     5
 63
     7
 74
     0
 91
        4
 64
     7
 65
   257
 75
     1
175
     1
 42
1.0
 92
        8
 66
     7
 43
1.0
 76
     1
 77
     6
 78
     2
 67
     7
 79
     5
170
     0
171
     0
290
     0
174
     0
 93
        1
 44
0.0
173
     0
291
     1
 45
0.0
1001
ACAD
1000
AcDbSavedByObjectVersion
1070
     0
  0
VISUALSTYLE
  5
35
102
{ACAD_XDICTIONARY
360
334
102
}
102
{ACAD_REACTORS
330
29
102
}
330
29
100
AcDbVisualStyle
  2
Brighten
 70
    12
 71
     2
 72
     2
 73
     0
 90
        0
 40
-0.6
 41
-30.0
 62
     5
 63
     7
 74
     1
 91
        4
 64
     7
 65
   257
 75
     1
175
     1
 42
1.0
 92
        8
 66
     7
 43
1.0
 76
     1
 77
     6
 78
     2
 67
     7
 79
     5
170
     0
171
     0
290
     0
174
     0
 93
        1
 44
50.0
173
     0
291
     1
 45
0.0
1001
ACAD
1000
AcDbSavedByObjectVersion
1070
     0
  0
VISUALSTYLE
  5
39
102
{ACAD_XDICTIONARY
360
33C
102
}
102
{ACAD_REACTORS
330
29
102
}
330
29
100
AcDbVisualStyle
  2
ColorChange
 70
    16
 71
     2
 72
     2
 73
     3
 90
        0
 40
-0.6
 41
-30.0
 62
     5
 63
     8
 74
     1
 91
        4
 64
     7
 65
   257
 75
     1
175
     1
 42
1.0
 92
        8
 66
     8
 43
1.0
 76
     1
 77
     6
 78
     2
 67
     7
 79
     5
170
     0
171
     0
290
     0
174
     0
 93
        1
 44
0.0
173
     0
291
     1
 45
0.0
1001
ACAD
1000
AcDbSavedByObjectVersion
1070
     0
  0
VISUALSTYLE
  5
32
102
{ACAD_XDICTIONARY
360
32E
102
}
102
{ACAD_REACTORS
330
29
102
}
330
29
100
AcDbVisualStyle
  2
Conceptual
 70
     9
 71
     3
 72
     2
 73
     0
 90
        0
 40
-0.6
 41
-30.0
 62
     5
 63
     7
 74
     2
 91
        2
 64
     7
 65
   257
 75
     1
175
     1
 42
179.0
 92
        8
 66
     7
 43
1.0
 76
     1
 77
     6
 78
     2
 67
     7
 79
     3
170
     0
171
     0
290
     0
174
     0
 93
        1
 44
0.0
173
     0
291
     0
 45
0.0
1001
ACAD
1000
AcDbSavedByObjectVersion
1070
     0
  0
VISUALSTYLE
  5
34
102
{ACAD_XDICTIONARY
360
332
102
}
102
{ACAD_REACTORS
330
29
102
}
330
29
100
AcDbVisualStyle
  2
Dim
 70
    11
 71
     2
 72
     2
 73
     0
 90
        0
 40
-0.6
 41
-30.0
 62
     5
 63
     7
 74
     1
 91
        4
 64
     7
 65
   257
 75
     1
175
     1
 42
1.0
 92
        8
 66
     7
 43
1.0
 76
     1
 77
     6
 78
     2
 67
     7
 79
     5
170
     0
171
     0
290
     0
174
     0
 93
        1
 44
-50.0
173
     0
291
     1
 45
0.0
1001
ACAD
1000
AcDbSavedByObjectVersion
1070
     0
  0
VISUALSTYLE
  5
41
102
{ACAD_XDICTIONARY
360
34C
102
}
102
{ACAD_REACTORS
330
29
102
}
330
29
100
AcDbVisualStyle
  2
EdgeColorOff
 70
    22
 71
     2
 72
     2
 73
     0
 90
        0
 40
-0.6
 41
-30.0
 62
     5
 63
     7
 74
     1
 91
        4
 64
     7
 65
   257
 75
     1
175
     1
 42
1.0
 92
        8
 66
     7
 43
1.0
 76
     1
 77
     6
 78
     2
 67
     7
 79
     5
170
     0
171
     0
290
     0
174
     0
 93
        1
 44
0.0
173
     0
291
     1
 45
0.0
1001
ACAD
1000
AcDbSavedByObjectVersion
1070
     0
  0
VISUALSTYLE
  5
38
102
{ACAD_XDICTIONARY
360
33A
102
}
102
{ACAD_REACTORS
330
29
102
}
330
29
100
AcDbVisualStyle
  2
Facepattern
 70
    15
 71
     2
 72
     2
 73
     0
 90
        0
 40
-0.6
 41
-30.0
 62
     5
 63
     7
 74
     1
 91
        4
 64
     7
 65
   257
 75
     1
175
     1
 42
1.0
 92
        8
 66
     7
 43
1.0
 76
     1
 77
     6
 78
     2
 67
     7
 79
     5
170
     0
171
     0
290
     0
174
     0
 93
        1
 44
0.0
173
     0
291
     1
 45
0.0
1001
ACAD
1000
AcDbSavedByObjectVersion
1070
     0
  0
VISUALSTYLE
  5
2A
102
{ACAD_XDICTIONARY
360
31E
102
}
102
{ACAD_REACTORS
330
29
102
}
330
29
100
AcDbVisualStyle
  2
Flat
 70
     0
 71
     2
 72
     1
 73
     1
 90
        2
 40
-0.6
 41
30.0
 62
     5
 63
     7
 74
     0
 91
        0
 64
     7
 65
   257
 75
     1
175
     1
 42
1.0
 92
        8
 66
     7
 43
1.0
 76
     1
 77
     6
 78
     2
 67
     7
 79
     5
170
     0
171
     0
290
     0
174
     0
 93
       13
 44
0.0
173
     0
291
     1
 45
0.0
1001
ACAD
1000
AcDbSavedByObjectVersion
1070
     0
  0
VISUALSTYLE
  5
2B
102
{ACAD_XDICTIONARY
360
320
102
}
102
{ACAD_REACTORS
330
29
102
}
330
29
100
AcDbVisualStyle
  2
FlatWithEdges
 70
     1
 71
     2
 72
     1
 73
     1
 90
        2
 40
-0.6
 41
30.0
 62
     5
 63
     7
 74
     1
 91
        0
 64
     7
 65
   257
 75
     1
175
     1
 42
1.0
 92
        0
 66
   257
 43
1.0
 76
     1
 77
     6
 78
     2
 67
     7
 79
     5
170
     0
171
     0
290
     0
174
     0
 93
       13
 44
0.0
173
     0
291
     1
 45
0.0
1001
ACAD
1000
AcDbSavedByObjectVersion
1070
     0
  0
VISUALSTYLE
  5
2C
102
{ACAD_XDICTIONARY
360
322
102
}
102
{ACAD_REACTORS
330
29
102
}
330
29
100
AcDbVisualStyle
  2
Gouraud
 70
     2
 71
     2
 72
     2
 73
     1
 90
        2
 40
-0.6
 41
30.0
 62
     5
 63
     7
 74
     0
 91
        0
 64
     7
 65
   257
 75
     1
175
     1
 42
1.0
 92
        0
 66
     7
 43
1.0
 76
     1
 77
     6
 78
     2
 67
     7
 79
     5
170
     0
171
     0
290
     0
174
     0
 93
       13
 44
0.0
173
     0
291
     1
 45
0.0
1001
ACAD
1000
AcDbSavedByObjectVersion
1070
     0
  0
VISUALSTYLE
  5
2D
102
{ACAD_XDICTIONARY
360
324
102
}
102
{ACAD_REACTORS
330
29
102
}
330
29
100
AcDbVisualStyle
  2
GouraudWithEdges
 70
     3
 71
     2
 72
     2
 73
     1
 90
        2
 40
-0.6
 41
30.0
 62
     5
 63
     7
 74
     1
 91
        0
 64
     7
 65
   257
 75
     1
175
     1
 42
1.0
 92
        0
 66
   257
 43
1.0
 76
     1
 77
     6
 78
     2
 67
     7
 79
     5
170
     0
171
     0
290
     0
174
     0
 93
       13
 44
0.0
173
     0
291
     1
 45
0.0
1001
ACAD
1000
AcDbSavedByObjectVersion
1070
     0
  0
VISUALSTYLE
  5
31
102
{ACAD_XDICTIONARY
360
32C
102
}
102
{ACAD_REACTORS
330
29
102
}
330
29
100
AcDbVisualStyle
  2
Hidden
 70
     6
 71
     1
 72
     2
 73
     2
 90
        0
 40
-0.6
 41
-30.0
 62
     5
 63
     7
 74
     2
 91
        2
 64
     7
 65
   257
 75
     2
175
     1
 42
40.0
 92
        0
 66
   257
 43
1.0
 76
     1
 77
     6
 78
     2
 67
     7
 79
     3
170
     0
171
     0
290
     0
174
     0
 93
        1
 44
0.0
173
     0
291
     0
 45
0.0
1001
ACAD
1000
AcDbSavedByObjectVersion
1070
     0
  0
VISUALSTYLE
  5
3F
102
{ACAD_XDICTIONARY
360
348
102
}
102
{ACAD_REACTORS
330
29
102
}
330
29
100
AcDbVisualStyle
  2
JitterOff
 70
    20
 71
     2
 72
     2
 73
     0
 90
        0
 40
-0.6
 41
-30.0
 62
     5
 63
     7
 74
     1
 91
        4
 64
     7
 65
   257
 75
     1
175
     1
 42
1.0
 92
       10
 66
     7
 43
1.0
 76
     1
 77
     6
 78
     2
 67
     7
 79
     5
170
     0
171
     0
290
     0
174
     0
 93
        1
 44
0.0
173
     0
291
     1
 45
0.0
1001
ACAD
1000
AcDbSavedByObjectVersion
1070
     0
  0
VISUALSTYLE
  5
37
102
{ACAD_XDICTIONARY
360
338
102
}
102
{ACAD_REACTORS
330
29
102
}
330
29
100
AcDbVisualStyle
  2
Linepattern
 70
    14
 71
     2
 72
     2
 73
     0
 90
        0
 40
-0.6
 41
-30.0
 62
     5
 63
     7
 74
     1
 91
        4
 64
     7
 65
   257
 75
     7
175
     7
 42
1.0
 92
        8
 66
     7
 43
1.0
 76
     1
 77
     6
 78
     2
 67
     7
 79
     5
170
     0
171
     0
290
     0
174
     0
 93
        1
 44
0.0
173
     0
291
     1
 45
0.0
1001
ACAD
1000
AcDbSavedByObjectVersion
1070
     0
  0
VISUALSTYLE
  5
40
102
{ACAD_XDICTIONARY
360
34A
102
}
102
{ACAD_REACTORS
330
29
102
}
330
29
100
AcDbVisualStyle
  2
OverhangOff
 70
    21
 71
     2
 72
     2
 73
     0
 90
        0
 40
-0.6
 41
-30.0
 62
     5
 63
     7
 74
     1
 91
        4
 64
     7
 65
   257
 75
     1
175
     1
 42
1.0
 92
        9
 66
     7
 43
1.0
 76
     1
 77
     6
 78
     2
 67
     7
 79
     5
170
     0
171
     0
290
     0
174
     0
 93
        1
 44
0.0
173
     0
291
     1
 45
0.0
1001
ACAD
1000
AcDbSavedByObjectVersion
1070
     0
  0
VISUALSTYLE
  5
33
102
{ACAD_XDICTIONARY
360
330
102
}
102
{ACAD_REACTORS
330
29
102
}
330
29
100
AcDbVisualStyle
  2
Realistic
 70
     8
 71
     2
 72
     2
 73
     0
 90
        2
 40
-0.6
 41
30.0
 62
     5
 63
     7
 74
     0
 91
        0
 64
     7
 65
   257
 75
     1
175
     1
 42
1.0
 92
        8
 66
   257
 43
1.0
 76
     1
 77
     6
 78
     2
 67
     7
 79
     3
170
     0
171
     0
290
     0
174
     0
 93
       13
 44
0.0
173
     0
291
     0
 45
0.0
1001
ACAD
1000
AcDbSavedByObjectVersion
1070
     0
  0
VISUALSTYLE
  5
3E
102
{ACAD_XDICTIONARY
360
346
102
}
102
{ACAD_REACTORS
330
29
102
}
330
29
100
AcDbVisualStyle
  2
Shaded
 70
    27
 71
     2
 72
     2
 73
     1
 90
        2
 40
-0.6
 41
30.0
 62
     5
 63
     7
 74
     0
 91
        4
 64
     7
 65
   257
 75
     1
175
     1
 42
1.0
 92
        8
 66
   257
 43
1.0
 76
     1
 77
     6
 78
     2
 67
     8
 79
     3
170
     0
171
     0
290
     0
174
     0
 93
        5
 44
0.0
173
     0
291
     0
 45
0.0
1001
ACAD
1000
AcDbSavedByObjectVersion
1070
     0
  0
VISUALSTYLE
  5
3D
102
{ACAD_XDICTIONARY
360
344
102
}
102
{ACAD_REACTORS
330
29
102
}
330
29
100
AcDbVisualStyle
  2
Shaded with edges
 70
    26
 71
     2
 72
     2
 73
     1
 90
        2
 40
-0.6
 41
30.0
 62
     5
 63
     7
 74
     1
 91
        2
 64
     7
 65
   257
 75
     2
175
     1
 42
1.0
 92
        8
 66
   257
 43
1.0
 76
     1
 77
     6
 78
     2
 67
     7
 79
     3
170
     0
171
     0
290
     0
174
     0
 93
        5
 44
0.0
173
     0
291
     0
 45
0.0
1001
ACAD
1000
AcDbSavedByObjectVersion
1070
     0
  0
VISUALSTYLE
  5
3A
102
{ACAD_XDICTIONARY
360
33E
102
}
102
{ACAD_REACTORS
330
29
102
}
330
29
100
AcDbVisualStyle
  2
Shades of Gray
 70
    23
 71
     2
 72
     2
 73
     3
 90
        0
 40
-0.6
 41
-30.0
 62
     5
 63
     7
 74
     2
 91
        2
 64
     7
 65
     7
 75
     1
175
     1
 42
40.0
 92
        8
 66
     7
 43
1.0
 76
     1
 77
     6
 78
     2
 67
     7
 79
     3
170
     0
171
     0
290
     0
174
     0
 93
        1
 44
0.0
173
     0
291
     0
 45
0.0
1001
ACAD
1000
AcDbSavedByObjectVersion
1070
     0
  0
VISUALSTYLE
  5
3B
102
{ACAD_XDICTIONARY
360
340
102
}
102
{ACAD_REACTORS
330
29
102
}
330
29
100
AcDbVisualStyle
  2
Sketchy
 70
    24
 71
     1
 72
     2
 73
     2
 90
        0
 40
-0.6
 41
-30.0
 62
     5
 63
     7
 74
     2
 91
        2
 64
     7
 65
     7
 75
     1
175
     1
 42
40.0
 92
       11
 66
     7
 43
1.0
 76
     1
 77
     6
 78
     2
 67
     7
 79
     6
170
     0
171
     0
290
     0
174
     0
 93
        1
 44
0.0
173
     0
291
     0
 45
0.0
1001
ACAD
1000
AcDbSavedByObjectVersion
1070
     0
  0
VISUALSTYLE
  5
36
102
{ACAD_XDICTIONARY
360
336
102
}
102
{ACAD_REACTORS
330
29
102
}
330
29
100
AcDbVisualStyle
  2
Thicken
 70
    13
 71
     2
 72
     2
 73
     0
 90
        0
 40
-0.6
 41
-30.0
 62
     5
 63
     7
 74
     1
 91
        4
 64
     7
 65
   257
 75
     1
175
     1
 42
1.0
 92
       12
 66
     7
 43
1.0
 76
     1
 77
     6
 78
     2
 67
     7
 79
     5
170
     0
171
     0
290
     0
174
     0
 93
        1
 44
0.0
173
     0
291
     1
 45
0.0
1001
ACAD
1000
AcDbSavedByObjectVersion
1070
     0
  0
VISUALSTYLE
  5
30
102
{ACAD_XDICTIONARY
360
32A
102
}
102
{ACAD_REACTORS
330
29
102
}
330
29
100
AcDbVisualStyle
  2
Wireframe
 70
     5
 71
     0
 72
     2
 73
     0
 90
        0
 40
-0.6
 41
-30.0
 62
     5
 63
     7
 74
     1
 91
        4
 64
     7
 65
   257
 75
     1
175
     1
 42
1.0
 92
        0
 66
   257
 43
1.0
 76
     1
 77
     6
 78
     2
 67
     7
 79
     3
170
     0
171
     0
290
     0
174
     0
 93
        1
 44
0.0
173
     0
291
     0
 45
0.0
1001
ACAD
1000
AcDbSavedByObjectVersion
1070
     0
  0
VISUALSTYLE
  5
3C
102
{ACAD_XDICTIONARY
360
342
102
}
102
{ACAD_REACTORS
330
29
102
}
330
29
100
AcDbVisualStyle
  2
X-Ray
 70
    25
 71
     2
 72
     2
 73
     1
 90
        1
 40
0.5
 41
-30.0
 62
     5
 63
     7
 74
     1
 91
        0
 64
     7
 65
   257
 75
     1
175
     1
 42
1.0
 92
        8
 66
     7
 43
1.0
 76
     1
 77
     6
 78
     2
 67
     7
 79
     3
170
     0
171
     0
290
     0
174
     0
 93
       13
 44
0.0
173
     0
291
     0
 45
0.0
1001
ACAD
1000
AcDbSavedByObjectVersion
1070
     0
  0
DICTIONARYVAR
  5
296
102
{ACAD_REACTORS
330
290
102
}
330
290
100
DictionaryVariables
280
     0
  1
1:1
  0
DICTIONARYVAR
  5
292
102
{ACAD_REACTORS
330
290
102
}
330
290
100
DictionaryVariables
280
     0
  1
STANDARD
  0
DICTIONARYVAR
  5
291
102
{ACAD_REACTORS
330
290
102
}
330
290
100
DictionaryVariables
280
     0
  1
STANDARD
  0
DICTIONARYVAR
  5
293
102
{ACAD_REACTORS
330
290
102
}
330
290
100
DictionaryVariables
280
     0
  1
Imperial24
  0
DICTIONARYVAR
  5
294
102
{ACAD_REACTORS
330
290
102
}
330
290
100
DictionaryVariables
280
     0
  1
Imperial24
  0
DICTIONARYVAR
  5
30E
102
{ACAD_REACTORS
330
290
102
}
330
290
100
DictionaryVariables
280
     0
  1
1
  0
DICTIONARYVAR
  5
30D
102
{ACAD_REACTORS
330
290
102
}
330
290
100
DictionaryVariables
280
     0
  1
0
  0
DICTIONARYVAR
  5
298
102
{ACAD_REACTORS
330
290
102
}
330
290
100
DictionaryVariables
280
     0
  1
1
  0
DICTIONARYVAR
  5
299
102
{ACAD_REACTORS
330
290
102
}
330
290
100
DictionaryVariables
280
     0
  1
15
  0
DICTIONARYVAR
  5
297
102
{ACAD_REACTORS
330
290
102
}
330
290
100
DictionaryVariables
280
     0
  1
0
  0
DICTIONARYVAR
  5
295
102
{ACAD_REACTORS
330
290
102
}
330
290
100
DictionaryVariables
280
     0
  1
0
  0
DICTIONARYVAR
  5
30C
102
{ACAD_REACTORS
330
290
102
}
330
290
100
DictionaryVariables
280
     0
  1
127
  0
DICTIONARYVAR
  5
30F
102
{ACAD_REACTORS
330
290
102
}
330
290
100
DictionaryVariables
280
     0
  1
2
  0
DICTIONARY
  5
31A
102
{ACAD_REACTORS
330
318
102
}
330
318
100
AcDbDictionary
281
     1
  0
DICTIONARY
  5
319
102
{ACAD_REACTORS
330
318
102
}
330
318
100
AcDbDictionary
281
     1
  3
2550001328
350
313
  3
2550001344
350
314
  3
2550001360
350
315
  3
2550001376
350
316
  3
2550001392
350
317
  0
DICTIONARY
  5
2F9
330
6A
100
AcDbDictionary
280
     1
281
     1
  3
ACAD_XREC_ROUNDTRIP
360
350
  0
DICTIONARY
  5
353
330
72
100
AcDbDictionary
280
     1
281
     1
  3
ACAD_XREC_ROUNDTRIP
360
354
  0
DICTIONARY
  5
351
330
6E
100
AcDbDictionary
280
     1
281
     1
  3
ACAD_XREC_ROUNDTRIP
360
352
  0
DICTIONARY
  5
1A
330
19
100
AcDbDictionary
280
     1
281
     1
  3
ACAD_XREC_ROUNDTRIP
360
31C
  3
BUMPTILE
360
1C
  3
DIFFUSETILE
360
1B
  3
OPACITYTILE
360
1F
  3
REFLECTIONTILE
360
1E
  3
REFRACTIONTILE
360
20
  3
SPECULARTILE
360
1D
  0
DICTIONARY
  5
12
330
11
100
AcDbDictionary
280
     1
281
     1
  3
ACAD_XREC_ROUNDTRIP
360
31B
  3
BUMPTILE
360
14
  3
DIFFUSETILE
360
13
  3
OPACITYTILE
360
17
  3
REFLECTIONTILE
360
16
  3
REFRACTIONTILE
360
18
  3
SPECULARTILE
360
15
  0
DICTIONARY
  5
22
330
21
100
AcDbDictionary
280
     1
281
     1
  3
ACAD_XREC_ROUNDTRIP
360
31D
  3
BUMPTILE
360
24
  3
DIFFUSETILE
360
23
  3
OPACITYTILE
360
27
  3
REFLECTIONTILE
360
26
  3
REFRACTIONTILE
360
28
  3
SPECULARTILE
360
25
  0
DICTIONARY
  5
2F7
330
68
100
AcDbDictionary
280
     1
281
     1
  3
ACAD_XREC_ROUNDTRIP
360
34F
  0
DICTIONARY
  5
258
330
64
100
AcDbDictionary
280
     1
281
     1
  3
ACAD_ROUNDTRIP_2008_TABLESTYLE_CELLSTYLEMAP
360
310
  3
ACAD_XREC_ROUNDTRIP
360
34E
  0
DICTIONARY
  5
328
330
2F
100
AcDbDictionary
280
     1
281
     1
  3
ACAD_XREC_ROUNDTRIP
360
329
  0
DICTIONARY
  5
326
330
2E
100
AcDbDictionary
280
     1
281
     1
  3
ACAD_XREC_ROUNDTRIP
360
327
  0
DICTIONARY
  5
334
330
35
100
AcDbDictionary
280
     1
281
     1
  3
ACAD_XREC_ROUNDTRIP
360
335
  0
DICTIONARY
  5
33C
330
39
100
AcDbDictionary
280
     1
281
     1
  3
ACAD_XREC_ROUNDTRIP
360
33D
  0
DICTIONARY
  5
32E
330
32
100
AcDbDictionary
280
     1
281
     1
  3
ACAD_XREC_ROUNDTRIP
360
32F
  0
DICTIONARY
  5
332
330
34
100
AcDbDictionary
280
     1
281
     1
  3
ACAD_XREC_ROUNDTRIP
360
333
  0
DICTIONARY
  5
34C
330
41
100
AcDbDictionary
280
     1
281
     1
  3
ACAD_XREC_ROUNDTRIP
360
34D
  0
DICTIONARY
  5
33A
330
38
100
AcDbDictionary
280
     1
281
     1
  3
ACAD_XREC_ROUNDTRIP
360
33B
  0
DICTIONARY
  5
31E
330
2A
100
AcDbDictionary
280
     1
281
     1
  3
ACAD_XREC_ROUNDTRIP
360
31F
  0
DICTIONARY
  5
320
330
2B
100
AcDbDictionary
280
     1
281
     1
  3
ACAD_XREC_ROUNDTRIP
360
321
  0
DICTIONARY
  5
322
330
2C
100
AcDbDictionary
280
     1
281
     1
  3
ACAD_XREC_ROUNDTRIP
360
323
  0
DICTIONARY
  5
324
330
2D
100
AcDbDictionary
280
     1
281
     1
  3
ACAD_XREC_ROUNDTRIP
360
325
  0
DICTIONARY
  5
32C
330
31
100
AcDbDictionary
280
     1
281
     1
  3
ACAD_XREC_ROUNDTRIP
360
32D
  0
DICTIONARY
  5
348
330
3F
100
AcDbDictionary
280
     1
281
     1
  3
ACAD_XREC_ROUNDTRIP
360
349
  0
DICTIONARY
  5
338
330
37
100
AcDbDictionary
280
     1
281
     1
  3
ACAD_XREC_ROUNDTRIP
360
339
  0
DICTIONARY
  5
34A
330
40
100
AcDbDictionary
280
     1
281
     1
  3
ACAD_XREC_ROUNDTRIP
360
34B
  0
DICTIONARY
  5
330
330
33
100
AcDbDictionary
280
     1
281
     1
  3
ACAD_XREC_ROUNDTRIP
360
331
  0
DICTIONARY
  5
346
330
3E
100
AcDbDictionary
280
     1
281
     1
  3
ACAD_XREC_ROUNDTRIP
360
347
  0
DICTIONARY
  5
344
330
3D
100
AcDbDictionary
280
     1
281
     1
  3
ACAD_XREC_ROUNDTRIP
360
345
  0
DICTIONARY
  5
33E
330
3A
100
AcDbDictionary
280
     1
281
     1
  3
ACAD_XREC_ROUNDTRIP
360
33F
  0
DICTIONARY
  5
340
330
3B
100
AcDbDictionary
280
     1
281
     1
  3
ACAD_XREC_ROUNDTRIP
360
341
  0
DICTIONARY
  5
336
330
36
100
AcDbDictionary
280
     1
281
     1
  3
ACAD_XREC_ROUNDTRIP
360
337
  0
DICTIONARY
  5
32A
330
30
100
AcDbDictionary
280
     1
281
     1
  3
ACAD_XREC_ROUNDTRIP
360
32B
  0
DICTIONARY
  5
342
330
3C
100
AcDbDictionary
280
     1
281
     1
  3
ACAD_XREC_ROUNDTRIP
360
343
  0
XRECORD
  5
313
102
{ACAD_REACTORS
330
319
102
}
330
319
100
AcDbXrecord
280
     1
  1
AcDb_Thumbnail_Schema
102
{ATTRRECORD
341
314
  2
AcDbDs::TreatedAsObjectData
280
     1
291
     1
102
ATTRRECORD}
102
{ATTRRECORD
341
315
  2
AcDbDs::Legacy
280
     1
291
     1
102
ATTRRECORD}
  2
AcDbDs::ID
280
    10
 91
        8
102
{ATTRRECORD
341
316
  2
AcDs:Indexable
280
     1
291
     1
102
ATTRRECORD}
102
{ATTRRECORD
341
317
  2
AcDbDs::HandleAttribute
280
     7
282
     1
102
ATTRRECORD}
  2
Thumbnail_Data
280
    15
 91
        0
  0
XRECORD
  5
314
102
{ACAD_REACTORS
330
319
102
}
330
319
100
AcDbXrecord
280
     1
  1
AcDbDs::TreatedAsObjectDataSchema
  2
AcDbDs::TreatedAsObjectData
280
     1
 91
        0
  0
XRECORD
  5
315
102
{ACAD_REACTORS
330
319
102
}
330
319
100
AcDbXrecord
280
     1
  1
AcDbDs::LegacySchema
  2
AcDbDs::Legacy
280
     1
 91
        0
  0
XRECORD
  5
316
102
{ACAD_REACTORS
330
319
102
}
330
319
100
AcDbXrecord
280
     1
  1
AcDbDs::IndexedPropertySchema
  2
AcDs:Indexable
280
     1
 91
        0
  0
XRECORD
  5
317
102
{ACAD_REACTORS
330
319
102
}
330
319
100
AcDbXrecord
280
     1
  1
AcDbDs::HandleAttributeSchema
  2
AcDbDs::HandleAttribute
280
     7
 91
        1
284
     1
  0
XRECORD
  5
350
102
{ACAD_REACTORS
330
2F9
102
}
330
2F9
100
AcDbXrecord
280
     1
102
DISPLAYNAME
  1
Imperial24
102
FLAGS
 90
        0
  0
XRECORD
  5
354
102
{ACAD_REACTORS
330
353
102
}
330
353
100
AcDbXrecord
280
     1
102
SHADEPLOT
 70
     0
102
SHADEPLOTRESLEVEL
 70
     2
102
SHADEPLOTCUSTOMDPI
 70
   300
  0
XRECORD
  5
352
102
{ACAD_REACTORS
330
351
102
}
330
351
100
AcDbXrecord
280
     1
102
SHADEPLOT
 70
     0
102
SHADEPLOTRESLEVEL
 70
     2
102
SHADEPLOTCUSTOMDPI
 70
   300
  0
XRECORD
  5
31C
102
{ACAD_REACTORS
330
1A
102
}
330
1A
100
AcDbXrecord
280
     1
102
MATERIAL
148
0.0
149
0.0
149
0.0
 93
        0
 94
      127
282
     0
 72
     0
 77
     0
171
     0
175
     0
179
     0
273
     0
  0
XRECORD
  5
1C
102
{ACAD_REACTORS
330
1A
102
}
330
1A
100
AcDbXrecord
280
     1
270
     1
271
     1
  0
XRECORD
  5
1B
102
{ACAD_REACTORS
330
1A
102
}
330
1A
100
AcDbXrecord
280
     1
270
     1
271
     1
  0
XRECORD
  5
1F
102
{ACAD_REACTORS
330
1A
102
}
330
1A
100
AcDbXrecord
280
     1
270
     1
271
     1
  0
XRECORD
  5
1E
102
{ACAD_REACTORS
330
1A
102
}
330
1A
100
AcDbXrecord
280
     1
270
     1
271
     1
  0
XRECORD
  5
20
102
{ACAD_REACTORS
330
1A
102
}
330
1A
100
AcDbXrecord
280
     1
270
     1
271
     1
  0
XRECORD
  5
1D
102
{ACAD_REACTORS
330
1A
102
}
330
1A
100
AcDbXrecord
280
     1
270
     1
271
     1
  0
XRECORD
  5
31B
102
{ACAD_REACTORS
330
12
102
}
330
12
100
AcDbXrecord
280
     1
102
MATERIAL
148
0.0
149
0.0
149
0.0
 93
        0
 94
      127
282
     0
 72
     0
 77
     0
171
     0
175
     0
179
     0
273
     0
  0
XRECORD
  5
14
102
{ACAD_REACTORS
330
12
102
}
330
12
100
AcDbXrecord
280
     1
270
     1
271
     1
  0
XRECORD
  5
13
102
{ACAD_REACTORS
330
12
102
}
330
12
100
AcDbXrecord
280
     1
270
     1
271
     1
  0
XRECORD
  5
17
102
{ACAD_REACTORS
330
12
102
}
330
12
100
AcDbXrecord
280
     1
270
     1
271
     1
  0
XRECORD
  5
16
102
{ACAD_REACTORS
330
12
102
}
330
12
100
AcDbXrecord
280
     1
270
     1
271
     1
  0
XRECORD
  5
18
102
{ACAD_REACTORS
330
12
102
}
330
12
100
AcDbXrecord
280
     1
270
     1
271
     1
  0
XRECORD
  5
15
102
{ACAD_REACTORS
330
12
102
}
330
12
100
AcDbXrecord
280
     1
270
     1
271
     1
  0
XRECORD
  5
31D
102
{ACAD_REACTORS
330
22
102
}
330
22
100
AcDbXrecord
280
     1
102
MATERIAL
148
0.0
149
0.0
149
0.0
 93
        0
 94
      127
282
     0
 72
     0
 77
     0
171
     0
175
     0
179
     0
273
     0
  0
XRECORD
  5
24
102
{ACAD_REACTORS
330
22
102
}
330
22
100
AcDbXrecord
280
     1
270
     1
271
     1
  0
XRECORD
  5
23
102
{ACAD_REACTORS
330
22
102
}
330
22
100
AcDbXrecord
280
     1
270
     1
271
     1
  0
XRECORD
  5
27
102
{ACAD_REACTORS
330
22
102
}
330
22
100
AcDbXrecord
280
     1
270
     1
271
     1
  0
XRECORD
  5
26
102
{ACAD_REACTORS
330
22
102
}
330
22
100
AcDbXrecord
280
     1
270
     1
271
     1
  0
XRECORD
  5
28
102
{ACAD_REACTORS
330
22
102
}
330
22
100
AcDbXrecord
280
     1
270
     1
271
     1
  0
XRECORD
  5
25
102
{ACAD_REACTORS
330
22
102
}
330
22
100
AcDbXrecord
280
     1
270
     1
271
     1
  0
XRECORD
  5
34F
102
{ACAD_REACTORS
330
2F7
102
}
330
2F7
100
AcDbXrecord
280
     1
102
DISPLAYNAME
  1
Imperial24
102
FLAGS
 90
        0
  0
CELLSTYLEMAP
  5
310
102
{ACAD_REACTORS
330
258
102
}
330
258
100
AcDbCellStyleMap
 90
        3
300
CELLSTYLE
  1
TABLEFORMAT_BEGIN
 90
        5
170
     1
 91
        0
 92
    32768
 62
   257
 93
        1
300
CONTENTFORMAT
  1
CONTENTFORMAT_BEGIN
 90
        0
 91
        0
 92
      512
 93
        0
300

 40
0.0
140
1.0
 94
        5
 62
     0
340
55
144
0.25
309
CONTENTFORMAT_END
171
     0
 94
        0
309
TABLEFORMAT_END
  1
CELLSTYLE_BEGIN
 90
        1
 91
        1
300
_TITLE
309
CELLSTYLE_END
300
CELLSTYLE
  1
TABLEFORMAT_BEGIN
 90
        5
170
     1
 91
        0
 92
        0
 62
   257
 93
        1
300
CONTENTFORMAT
  1
CONTENTFORMAT_BEGIN
 90
        0
 91
        0
 92
      512
 93
        0
300

 40
0.0
140
1.0
 94
        5
 62
     0
340
55
144
0.18
309
CONTENTFORMAT_END
171
     0
 94
        0
309
TABLEFORMAT_END
  1
CELLSTYLE_BEGIN
 90
        2
 91
        1
300
_HEADER
309
CELLSTYLE_END
300
CELLSTYLE
  1
TABLEFORMAT_BEGIN
 90
        5
170
     1
 91
        0
 92
        0
 62
   257
 93
        1
300
CONTENTFORMAT
  1
CONTENTFORMAT_BEGIN
 90
        0
 91
        0
 92
      512
 93
        0
300

 40
0.0
140
1.0
 94
        2
 62
     0
340
55
144
0.18
309
CONTENTFORMAT_END
171
     0
 94
        0
309
TABLEFORMAT_END
  1
CELLSTYLE_BEGIN
 90
        3
 91
        2
300
_DATA
309
CELLSTYLE_END
  0
XRECORD
  5
34E
102
{ACAD_REACTORS
330
258
102
}
330
258
100
AcDbXrecord
280
     1
102
ACAD_ROUNDTRIP_PRE2007_TABLESTYLE
 90
      512
 91
        0
  1

 92
      512
 93
        0
  2

 94
      512
 95
        0
  3

  0
XRECORD
  5
329
102
{ACAD_REACTORS
330
328
102
}
330
328
100
AcDbXrecord
280
     1
102
RTVSPost2010Prop28
280
     1
102
RTVSPost2010PropOp28
 70
     1
102
RTVSPost2010Prop29
280
     1
102
RTVSPost2010PropOp29
 70
     1
102
RTVSPost2010Prop30
280
     0
102
RTVSPost2010PropOp30
 70
     1
102
RTVSPost2010Prop31
280
     0
102
RTVSPost2010PropOp31
 70
     1
102
RTVSPost2010Prop32
280
     0
102
RTVSPost2010PropOp32
 70
     1
102
RTVSPost2010Prop33
280
     0
102
RTVSPost2010PropOp33
 70
     1
102
RTVSPost2010Prop34
280
     0
102
RTVSPost2010PropOp34
 70
     1
102
RTVSPost2010Prop35
280
     0
102
RTVSPost2010PropOp35
 70
     1
102
RTVSPost2010Prop36
280
     0
102
RTVSPost2010PropOp36
 70
     1
102
RTVSPost2010Prop37
 90
       50
102
RTVSPost2010PropOp37
 70
     1
102
RTVSPost2010Prop38
140
0.0
102
RTVSPost2010PropOp38
 70
     1
102
RTVSPost2010Prop39
140
1.0
102
RTVSPost2010PropOp39
 70
     1
102
RTVSPost2010Prop40
 90
        0
102
RTVSPost2010PropOp40
 70
     1
102
RTVSPost2010Prop41ColorIndex
 90
       18
102
RTVSPost2010Prop41ColorRGB
 90
        0
102
RTVSPost2010PropOp41
 70
     1
102
RTVSPost2010Prop42
 90
       50
102
RTVSPost2010PropOp42
 70
     1
102
RTVSPost2010Prop43
 90
        3
102
RTVSPost2010PropOp43
 70
     1
102
RTVSPost2010Prop44ColorIndex
 90
        5
102
RTVSPost2010Prop44ColorRGB
 90
      255
102
RTVSPost2010PropOp44
 70
     1
102
RTVSPost2010Prop45
280
     0
102
RTVSPost2010PropOp45
 70
     1
102
RTVSPost2010Prop46
 90
       50
102
RTVSPost2010PropOp46
 70
     1
102
RTVSPost2010Prop47
 90
       50
102
RTVSPost2010PropOp47
 70
     1
102
RTVSPost2010Prop48
 90
       50
102
RTVSPost2010PropOp48
 70
     1
102
RTVSPost2010Prop49
280
     0
102
RTVSPost2010PropOp49
 70
     1
102
RTVSPost2010Prop50
 90
       50
102
RTVSPost2010PropOp50
 70
     1
102
RTVSPost2010Prop51ColorIndex
 90
      256
102
RTVSPost2010Prop51ColorRGB
 90
-16777216
102
RTVSPost2010PropOp51
 70
     0
102
RTVSPost2010Prop52
140
1.0
102
RTVSPost2010PropOp52
 70
     0
102
RTVSPost2010Prop53
 90
        2
102
RTVSPost2010PropOp53
 70
     1
102
RTVSPost2010Prop54
  1
strokes_ogs.tif
102
RTVSPost2010PropOp54
 70
     1
102
RTVSPost2010Prop55
280
     0
102
RTVSPost2010PropOp55
 70
     1
102
RTVSPost2010Prop56
140
1.0
102
RTVSPost2010PropOp56
 70
     1
102
RTVSPost2010Prop57
140
1.0
102
RTVSPost2010PropOp57
 70
     1
102
RTVSPropertyOp0
 70
     1
102
RTVSPropertyOp1
 70
     1
102
RTVSPropertyOp2
 70
     1
102
RTVSPropertyOp3
 70
     1
102
RTVSPropertyOp4
 70
     1
102
RTVSPropertyOp5
 70
     1
102
RTVSPropertyOp6
 70
     1
102
RTVSPropertyOp7
 70
     1
102
RTVSPropertyOp8
 70
     1
102
RTVSPropertyOp9
 70
     1
102
RTVSPropertyOp10
 70
     1
102
RTVSPropertyOp11
 70
     1
102
RTVSPropertyOp12
 70
     1
102
RTVSPropertyOp13
 70
     1
102
RTVSPropertyOp14
 70
     1
102
RTVSPropertyOp15
 70
     1
102
RTVSPropertyOp16
 70
     1
102
RTVSPropertyOp17
 70
     1
102
RTVSPropertyOp18
 70
     1
102
RTVSPropertyOp19
 70
     1
102
RTVSPropertyOp20
 70
     1
102
RTVSPropertyOp21
 70
     1
102
RTVSPropertyOp22
 70
     1
102
RTVSPropertyOp23
 70
     1
102
RTVSPropertyOp24
 70
     1
102
RTVSPropertyOp25
 70
     1
102
RTVSPropertyOp26
 70
     1
102
RTVSPropertyOp27
 70
     1
102
RTVSPropertyOp28
 70
     1
102
RTVSPropertyOp29
 70
     1
102
RTVSPropertyOp30
 70
     1
102
RTVSPropertyOp31
 70
     1
102
RTVSPropertyOp32
 70
     1
102
RTVSPropertyOp33
 70
     1
102
RTVSPropertyOp34
 70
     1
102
RTVSPropertyOp35
 70
     1
102
RTVSPropertyOp36
 70
     1
102
RTVSPropertyOp37
 70
     1
102
RTVSPropertyOp38
 70
     1
102
RTVSPropertyOp39
 70
     1
102
RTVSPropertyOp40
 70
     1
102
RTVSPropertyOp41
 70
     1
102
RTVSPropertyOp42
 70
     1
102
RTVSPropertyOp43
 70
     1
102
RTVSPropertyOp44
 70
     1
102
RTVSPropertyOp45
 70
     1
102
RTVSPropertyOp46
 70
     1
102
RTVSPropertyOp47
 70
     1
102
RTVSPropertyOp48
 70
     1
102
RTVSPropertyOp49
 70
     1
102
RTVSPropertyOp50
 70
     1
102
RTVSPropertyOp51
 70
     0
102
RTVSPropertyOp52
 70
     0
102
RTVSPropertyOp53
 70
     1
102
RTVSPropertyOp54
 70
     1
102
RTVSPropertyOp55
 70
     1
102
RTVSPropertyOp56
 70
     1
102
RTVSPropertyOp57
 70
     1
102
RTVSPropertyOp58
 70
     1
102
RTVSPropertyOp59
 70
     1
102
RTVSPropertyOp60
 70
     1
102
RTVSPropertyOp61
 70
     1
102
RTVSPropertyOp62
 70
     1
  0
XRECORD
  5
327
102
{ACAD_REACTORS
330
326
102
}
330
326
100
AcDbXrecord
280
     1
102
RTVSPost2010Prop28
280
     0
102
RTVSPost2010PropOp28
 70
     1
102
RTVSPost2010Prop29
280
     1
102
RTVSPost2010PropOp29
 70
     1
102
RTVSPost2010Prop30
280
     1
102
RTVSPost2010PropOp30
 70
     1
102
RTVSPost2010Prop31
280
     0
102
RTVSPost2010PropOp31
 70
     1
102
RTVSPost2010Prop32
280
     0
102
RTVSPost2010PropOp32
 70
     1
102
RTVSPost2010Prop33
280
     0
102
RTVSPost2010PropOp33
 70
     1
102
RTVSPost2010Prop34
280
     0
102
RTVSPost2010PropOp34
 70
     1
102
RTVSPost2010Prop35
280
     0
102
RTVSPost2010PropOp35
 70
     1
102
RTVSPost2010Prop36
280
     0
102
RTVSPost2010PropOp36
 70
     1
102
RTVSPost2010Prop37
 90
       50
102
RTVSPost2010PropOp37
 70
     1
102
RTVSPost2010Prop38
140
0.0
102
RTVSPost2010PropOp38
 70
     1
102
RTVSPost2010Prop39
140
1.0
102
RTVSPost2010PropOp39
 70
     1
102
RTVSPost2010Prop40
 90
        0
102
RTVSPost2010PropOp40
 70
     1
102
RTVSPost2010Prop41ColorIndex
 90
       18
102
RTVSPost2010Prop41ColorRGB
 90
        0
102
RTVSPost2010PropOp41
 70
     1
102
RTVSPost2010Prop42
 90
       50
102
RTVSPost2010PropOp42
 70
     1
102
RTVSPost2010Prop43
 90
        3
102
RTVSPost2010PropOp43
 70
     1
102
RTVSPost2010Prop44ColorIndex
 90
        5
102
RTVSPost2010Prop44ColorRGB
 90
      255
102
RTVSPost2010PropOp44
 70
     1
102
RTVSPost2010Prop45
280
     0
102
RTVSPost2010PropOp45
 70
     1
102
RTVSPost2010Prop46
 90
       50
102
RTVSPost2010PropOp46
 70
     1
102
RTVSPost2010Prop47
 90
       50
102
RTVSPost2010PropOp47
 70
     1
102
RTVSPost2010Prop48
 90
       50
102
RTVSPost2010PropOp48
 70
     1
102
RTVSPost2010Prop49
280
     0
102
RTVSPost2010PropOp49
 70
     1
102
RTVSPost2010Prop50
 90
       50
102
RTVSPost2010PropOp50
 70
     1
102
RTVSPost2010Prop51ColorIndex
 90
      256
102
RTVSPost2010Prop51ColorRGB
 90
-16777216
102
RTVSPost2010PropOp51
 70
     0
102
RTVSPost2010Prop52
140
1.0
102
RTVSPost2010PropOp52
 70
     0
102
RTVSPost2010Prop53
 90
        2
102
RTVSPost2010PropOp53
 70
     1
102
RTVSPost2010Prop54
  1
strokes_ogs.tif
102
RTVSPost2010PropOp54
 70
     1
102
RTVSPost2010Prop55
280
     0
102
RTVSPost2010PropOp55
 70
     1
102
RTVSPost2010Prop56
140
1.0
102
RTVSPost2010PropOp56
 70
     1
102
RTVSPost2010Prop57
140
1.0
102
RTVSPost2010PropOp57
 70
     1
102
RTVSPropertyOp0
 70
     1
102
RTVSPropertyOp1
 70
     1
102
RTVSPropertyOp2
 70
     1
102
RTVSPropertyOp3
 70
     1
102
RTVSPropertyOp4
 70
     1
102
RTVSPropertyOp5
 70
     1
102
RTVSPropertyOp6
 70
     1
102
RTVSPropertyOp7
 70
     1
102
RTVSPropertyOp8
 70
     1
102
RTVSPropertyOp9
 70
     1
102
RTVSPropertyOp10
 70
     1
102
RTVSPropertyOp11
 70
     1
102
RTVSPropertyOp12
 70
     1
102
RTVSPropertyOp13
 70
     1
102
RTVSPropertyOp14
 70
     1
102
RTVSPropertyOp15
 70
     1
102
RTVSPropertyOp16
 70
     1
102
RTVSPropertyOp17
 70
     1
102
RTVSPropertyOp18
 70
     1
102
RTVSPropertyOp19
 70
     1
102
RTVSPropertyOp20
 70
     1
102
RTVSPropertyOp21
 70
     1
102
RTVSPropertyOp22
 70
     1
102
RTVSPropertyOp23
 70
     1
102
RTVSPropertyOp24
 70
     1
102
RTVSPropertyOp25
 70
     1
102
RTVSPropertyOp26
 70
     1
102
RTVSPropertyOp27
 70
     1
102
RTVSPropertyOp28
 70
     1
102
RTVSPropertyOp29
 70
     1
102
RTVSPropertyOp30
 70
     1
102
RTVSPropertyOp31
 70
     1
102
RTVSPropertyOp32
 70
     1
102
RTVSPropertyOp33
 70
     1
102
RTVSPropertyOp34
 70
     1
102
RTVSPropertyOp35
 70
     1
102
RTVSPropertyOp36
 70
     1
102
RTVSPropertyOp37
 70
     1
102
RTVSPropertyOp38
 70
     1
102
RTVSPropertyOp39
 70
     1
102
RTVSPropertyOp40
 70
     1
102
RTVSPropertyOp41
 70
     1
102
RTVSPropertyOp42
 70
     1
102
RTVSPropertyOp43
 70
     1
102
RTVSPropertyOp44
 70
     1
102
RTVSPropertyOp45
 70
     1
102
RTVSPropertyOp46
 70
     1
102
RTVSPropertyOp47
 70
     1
102
RTVSPropertyOp48
 70
     1
102
RTVSPropertyOp49
 70
     1
102
RTVSPropertyOp50
 70
     1
102
RTVSPropertyOp51
 70
     0
102
RTVSPropertyOp52
 70
     0
102
RTVSPropertyOp53
 70
     1
102
RTVSPropertyOp54
 70
     1
102
RTVSPropertyOp55
 70
     1
102
RTVSPropertyOp56
 70
     1
102
RTVSPropertyOp57
 70
     1
102
RTVSPropertyOp58
 70
     1
102
RTVSPropertyOp59
 70
     1
102
RTVSPropertyOp60
 70
     1
102
RTVSPropertyOp61
 70
     1
102
RTVSPropertyOp62
 70
     1
  0
XRECORD
  5
335
102
{ACAD_REACTORS
330
334
102
}
330
334
100
AcDbXrecord
280
     1
102
RTVSPost2010Prop28
280
     0
102
RTVSPost2010PropOp28
 70
     1
102
RTVSPost2010Prop29
280
     1
102
RTVSPost2010PropOp29
 70
     1
102
RTVSPost2010Prop30
280
     1
102
RTVSPost2010PropOp30
 70
     1
102
RTVSPost2010Prop31
280
     0
102
RTVSPost2010PropOp31
 70
     1
102
RTVSPost2010Prop32
280
     0
102
RTVSPost2010PropOp32
 70
     1
102
RTVSPost2010Prop33
280
     0
102
RTVSPost2010PropOp33
 70
     1
102
RTVSPost2010Prop34
280
     0
102
RTVSPost2010PropOp34
 70
     1
102
RTVSPost2010Prop35
280
     0
102
RTVSPost2010PropOp35
 70
     1
102
RTVSPost2010Prop36
280
     0
102
RTVSPost2010PropOp36
 70
     1
102
RTVSPost2010Prop37
 90
       50
102
RTVSPost2010PropOp37
 70
     1
102
RTVSPost2010Prop38
140
0.0
102
RTVSPost2010PropOp38
 70
     1
102
RTVSPost2010Prop39
140
1.0
102
RTVSPost2010PropOp39
 70
     1
102
RTVSPost2010Prop40
 90
        0
102
RTVSPost2010PropOp40
 70
     1
102
RTVSPost2010Prop41ColorIndex
 90
       18
102
RTVSPost2010Prop41ColorRGB
 90
        0
102
RTVSPost2010PropOp41
 70
     1
102
RTVSPost2010Prop42
 90
       50
102
RTVSPost2010PropOp42
 70
     1
102
RTVSPost2010Prop43
 90
        3
102
RTVSPost2010PropOp43
 70
     1
102
RTVSPost2010Prop44ColorIndex
 90
        5
102
RTVSPost2010Prop44ColorRGB
 90
      255
102
RTVSPost2010PropOp44
 70
     1
102
RTVSPost2010Prop45
280
     0
102
RTVSPost2010PropOp45
 70
     1
102
RTVSPost2010Prop46
 90
       50
102
RTVSPost2010PropOp46
 70
     1
102
RTVSPost2010Prop47
 90
       50
102
RTVSPost2010PropOp47
 70
     1
102
RTVSPost2010Prop48
 90
       50
102
RTVSPost2010PropOp48
 70
     1
102
RTVSPost2010Prop49
280
     0
102
RTVSPost2010PropOp49
 70
     1
102
RTVSPost2010Prop50
 90
       50
102
RTVSPost2010PropOp50
 70
     1
102
RTVSPost2010Prop51ColorIndex
 90
      256
102
RTVSPost2010Prop51ColorRGB
 90
-16777216
102
RTVSPost2010PropOp51
 70
     0
102
RTVSPost2010Prop52
140
1.0
102
RTVSPost2010PropOp52
 70
     0
102
RTVSPost2010Prop53
 90
        2
102
RTVSPost2010PropOp53
 70
     1
102
RTVSPost2010Prop54
  1
strokes_ogs.tif
102
RTVSPost2010PropOp54
 70
     1
102
RTVSPost2010Prop55
280
     0
102
RTVSPost2010PropOp55
 70
     1
102
RTVSPost2010Prop56
140
1.0
102
RTVSPost2010PropOp56
 70
     1
102
RTVSPost2010Prop57
140
1.0
102
RTVSPost2010PropOp57
 70
     1
102
RTVSPropertyOp0
 70
     1
102
RTVSPropertyOp1
 70
     1
102
RTVSPropertyOp2
 70
     1
102
RTVSPropertyOp3
 70
     1
102
RTVSPropertyOp4
 70
     1
102
RTVSPropertyOp5
 70
     1
102
RTVSPropertyOp6
 70
     1
102
RTVSPropertyOp7
 70
     1
102
RTVSPropertyOp8
 70
     1
102
RTVSPropertyOp9
 70
     1
102
RTVSPropertyOp10
 70
     1
102
RTVSPropertyOp11
 70
     1
102
RTVSPropertyOp12
 70
     1
102
RTVSPropertyOp13
 70
     1
102
RTVSPropertyOp14
 70
     1
102
RTVSPropertyOp15
 70
     1
102
RTVSPropertyOp16
 70
     1
102
RTVSPropertyOp17
 70
     1
102
RTVSPropertyOp18
 70
     1
102
RTVSPropertyOp19
 70
     1
102
RTVSPropertyOp20
 70
     1
102
RTVSPropertyOp21
 70
     1
102
RTVSPropertyOp22
 70
     1
102
RTVSPropertyOp23
 70
     1
102
RTVSPropertyOp24
 70
     1
102
RTVSPropertyOp25
 70
     1
102
RTVSPropertyOp26
 70
     1
102
RTVSPropertyOp27
 70
     1
102
RTVSPropertyOp28
 70
     1
102
RTVSPropertyOp29
 70
     1
102
RTVSPropertyOp30
 70
     1
102
RTVSPropertyOp31
 70
     1
102
RTVSPropertyOp32
 70
     1
102
RTVSPropertyOp33
 70
     1
102
RTVSPropertyOp34
 70
     1
102
RTVSPropertyOp35
 70
     1
102
RTVSPropertyOp36
 70
     1
102
RTVSPropertyOp37
 70
     1
102
RTVSPropertyOp38
 70
     1
102
RTVSPropertyOp39
 70
     1
102
RTVSPropertyOp40
 70
     1
102
RTVSPropertyOp41
 70
     1
102
RTVSPropertyOp42
 70
     1
102
RTVSPropertyOp43
 70
     1
102
RTVSPropertyOp44
 70
     1
102
RTVSPropertyOp45
 70
     1
102
RTVSPropertyOp46
 70
     1
102
RTVSPropertyOp47
 70
     1
102
RTVSPropertyOp48
 70
     1
102
RTVSPropertyOp49
 70
     1
102
RTVSPropertyOp50
 70
     1
102
RTVSPropertyOp51
 70
     0
102
RTVSPropertyOp52
 70
     0
102
RTVSPropertyOp53
 70
     1
102
RTVSPropertyOp54
 70
     1
102
RTVSPropertyOp55
 70
     1
102
RTVSPropertyOp56
 70
     1
102
RTVSPropertyOp57
 70
     1
102
RTVSPropertyOp58
 70
     1
102
RTVSPropertyOp59
 70
     1
102
RTVSPropertyOp60
 70
     1
102
RTVSPropertyOp61
 70
     1
102
RTVSPropertyOp62
 70
     1
  0
XRECORD
  5
33D
102
{ACAD_REACTORS
330
33C
102
}
330
33C
100
AcDbXrecord
280
     1
102
RTVSPost2010Prop28
280
     0
102
RTVSPost2010PropOp28
 70
     1
102
RTVSPost2010Prop29
280
     1
102
RTVSPost2010PropOp29
 70
     1
102
RTVSPost2010Prop30
280
     1
102
RTVSPost2010PropOp30
 70
     1
102
RTVSPost2010Prop31
280
     0
102
RTVSPost2010PropOp31
 70
     1
102
RTVSPost2010Prop32
280
     0
102
RTVSPost2010PropOp32
 70
     1
102
RTVSPost2010Prop33
280
     0
102
RTVSPost2010PropOp33
 70
     1
102
RTVSPost2010Prop34
280
     0
102
RTVSPost2010PropOp34
 70
     1
102
RTVSPost2010Prop35
280
     0
102
RTVSPost2010PropOp35
 70
     1
102
RTVSPost2010Prop36
280
     0
102
RTVSPost2010PropOp36
 70
     1
102
RTVSPost2010Prop37
 90
       50
102
RTVSPost2010PropOp37
 70
     1
102
RTVSPost2010Prop38
140
0.0
102
RTVSPost2010PropOp38
 70
     1
102
RTVSPost2010Prop39
140
1.0
102
RTVSPost2010PropOp39
 70
     1
102
RTVSPost2010Prop40
 90
        0
102
RTVSPost2010PropOp40
 70
     1
102
RTVSPost2010Prop41ColorIndex
 90
       18
102
RTVSPost2010Prop41ColorRGB
 90
        0
102
RTVSPost2010PropOp41
 70
     1
102
RTVSPost2010Prop42
 90
       50
102
RTVSPost2010PropOp42
 70
     1
102
RTVSPost2010Prop43
 90
        3
102
RTVSPost2010PropOp43
 70
     1
102
RTVSPost2010Prop44ColorIndex
 90
        5
102
RTVSPost2010Prop44ColorRGB
 90
      255
102
RTVSPost2010PropOp44
 70
     1
102
RTVSPost2010Prop45
280
     0
102
RTVSPost2010PropOp45
 70
     1
102
RTVSPost2010Prop46
 90
       50
102
RTVSPost2010PropOp46
 70
     1
102
RTVSPost2010Prop47
 90
       50
102
RTVSPost2010PropOp47
 70
     1
102
RTVSPost2010Prop48
 90
       50
102
RTVSPost2010PropOp48
 70
     1
102
RTVSPost2010Prop49
280
     0
102
RTVSPost2010PropOp49
 70
     1
102
RTVSPost2010Prop50
 90
       50
102
RTVSPost2010PropOp50
 70
     1
102
RTVSPost2010Prop51ColorIndex
 90
      256
102
RTVSPost2010Prop51ColorRGB
 90
-16777216
102
RTVSPost2010PropOp51
 70
     0
102
RTVSPost2010Prop52
140
1.0
102
RTVSPost2010PropOp52
 70
     0
102
RTVSPost2010Prop53
 90
        2
102
RTVSPost2010PropOp53
 70
     1
102
RTVSPost2010Prop54
  1
strokes_ogs.tif
102
RTVSPost2010PropOp54
 70
     1
102
RTVSPost2010Prop55
280
     0
102
RTVSPost2010PropOp55
 70
     1
102
RTVSPost2010Prop56
140
1.0
102
RTVSPost2010PropOp56
 70
     1
102
RTVSPost2010Prop57
140
1.0
102
RTVSPost2010PropOp57
 70
     1
102
RTVSPropertyOp0
 70
     1
102
RTVSPropertyOp1
 70
     1
102
RTVSPropertyOp2
 70
     1
102
RTVSPropertyOp3
 70
     1
102
RTVSPropertyOp4
 70
     1
102
RTVSPropertyOp5
 70
     1
102
RTVSPropertyOp6
 70
     1
102
RTVSPropertyOp7
 70
     1
102
RTVSPropertyOp8
 70
     1
102
RTVSPropertyOp9
 70
     1
102
RTVSPropertyOp10
 70
     1
102
RTVSPropertyOp11
 70
     1
102
RTVSPropertyOp12
 70
     1
102
RTVSPropertyOp13
 70
     1
102
RTVSPropertyOp14
 70
     1
102
RTVSPropertyOp15
 70
     1
102
RTVSPropertyOp16
 70
     1
102
RTVSPropertyOp17
 70
     1
102
RTVSPropertyOp18
 70
     1
102
RTVSPropertyOp19
 70
     1
102
RTVSPropertyOp20
 70
     1
102
RTVSPropertyOp21
 70
     1
102
RTVSPropertyOp22
 70
     1
102
RTVSPropertyOp23
 70
     1
102
RTVSPropertyOp24
 70
     1
102
RTVSPropertyOp25
 70
     1
102
RTVSPropertyOp26
 70
     1
102
RTVSPropertyOp27
 70
     1
102
RTVSPropertyOp28
 70
     1
102
RTVSPropertyOp29
 70
     1
102
RTVSPropertyOp30
 70
     1
102
RTVSPropertyOp31
 70
     1
102
RTVSPropertyOp32
 70
     1
102
RTVSPropertyOp33
 70
     1
102
RTVSPropertyOp34
 70
     1
102
RTVSPropertyOp35
 70
     1
102
RTVSPropertyOp36
 70
     1
102
RTVSPropertyOp37
 70
     1
102
RTVSPropertyOp38
 70
     1
102
RTVSPropertyOp39
 70
     1
102
RTVSPropertyOp40
 70
     1
102
RTVSPropertyOp41
 70
     1
102
RTVSPropertyOp42
 70
     1
102
RTVSPropertyOp43
 70
     1
102
RTVSPropertyOp44
 70
     1
102
RTVSPropertyOp45
 70
     1
102
RTVSPropertyOp46
 70
     1
102
RTVSPropertyOp47
 70
     1
102
RTVSPropertyOp48
 70
     1
102
RTVSPropertyOp49
 70
     1
102
RTVSPropertyOp50
 70
     1
102
RTVSPropertyOp51
 70
     0
102
RTVSPropertyOp52
 70
     0
102
RTVSPropertyOp53
 70
     1
102
RTVSPropertyOp54
 70
     1
102
RTVSPropertyOp55
 70
     1
102
RTVSPropertyOp56
 70
     1
102
RTVSPropertyOp57
 70
     1
102
RTVSPropertyOp58
 70
     1
102
RTVSPropertyOp59
 70
     1
102
RTVSPropertyOp60
 70
     1
102
RTVSPropertyOp61
 70
     1
102
RTVSPropertyOp62
 70
     1
  0
XRECORD
  5
32F
102
{ACAD_REACTORS
330
32E
102
}
330
32E
100
AcDbXrecord
280
     1
102
RTVSPost2010Prop28
280
     0
102
RTVSPost2010PropOp28
 70
     1
102
RTVSPost2010Prop29
280
     1
102
RTVSPost2010PropOp29
 70
     1
102
RTVSPost2010Prop30
280
     1
102
RTVSPost2010PropOp30
 70
     1
102
RTVSPost2010Prop31
280
     0
102
RTVSPost2010PropOp31
 70
     1
102
RTVSPost2010Prop32
280
     0
102
RTVSPost2010PropOp32
 70
     1
102
RTVSPost2010Prop33
280
     0
102
RTVSPost2010PropOp33
 70
     1
102
RTVSPost2010Prop34
280
     0
102
RTVSPost2010PropOp34
 70
     1
102
RTVSPost2010Prop35
280
     0
102
RTVSPost2010PropOp35
 70
     1
102
RTVSPost2010Prop36
280
     0
102
RTVSPost2010PropOp36
 70
     1
102
RTVSPost2010Prop37
 90
       50
102
RTVSPost2010PropOp37
 70
     1
102
RTVSPost2010Prop38
140
0.0
102
RTVSPost2010PropOp38
 70
     1
102
RTVSPost2010Prop39
140
1.0
102
RTVSPost2010PropOp39
 70
     1
102
RTVSPost2010Prop40
 90
        0
102
RTVSPost2010PropOp40
 70
     1
102
RTVSPost2010Prop41ColorIndex
 90
       18
102
RTVSPost2010Prop41ColorRGB
 90
        0
102
RTVSPost2010PropOp41
 70
     1
102
RTVSPost2010Prop42
 90
       50
102
RTVSPost2010PropOp42
 70
     1
102
RTVSPost2010Prop43
 90
        3
102
RTVSPost2010PropOp43
 70
     1
102
RTVSPost2010Prop44ColorIndex
 90
        5
102
RTVSPost2010Prop44ColorRGB
 90
      255
102
RTVSPost2010PropOp44
 70
     1
102
RTVSPost2010Prop45
280
     0
102
RTVSPost2010PropOp45
 70
     1
102
RTVSPost2010Prop46
 90
       50
102
RTVSPost2010PropOp46
 70
     1
102
RTVSPost2010Prop47
 90
       50
102
RTVSPost2010PropOp47
 70
     1
102
RTVSPost2010Prop48
 90
       50
102
RTVSPost2010PropOp48
 70
     1
102
RTVSPost2010Prop49
280
     0
102
RTVSPost2010PropOp49
 70
     1
102
RTVSPost2010Prop50
 90
       50
102
RTVSPost2010PropOp50
 70
     1
102
RTVSPost2010Prop51ColorIndex
 90
      256
102
RTVSPost2010Prop51ColorRGB
 90
-16777216
102
RTVSPost2010PropOp51
 70
     0
102
RTVSPost2010Prop52
140
1.0
102
RTVSPost2010PropOp52
 70
     0
102
RTVSPost2010Prop53
 90
        2
102
RTVSPost2010PropOp53
 70
     1
102
RTVSPost2010Prop54
  1
strokes_ogs.tif
102
RTVSPost2010PropOp54
 70
     1
102
RTVSPost2010Prop55
280
     0
102
RTVSPost2010PropOp55
 70
     1
102
RTVSPost2010Prop56
140
1.0
102
RTVSPost2010PropOp56
 70
     1
102
RTVSPost2010Prop57
140
1.0
102
RTVSPost2010PropOp57
 70
     1
102
RTVSPropertyOp0
 70
     1
102
RTVSPropertyOp1
 70
     1
102
RTVSPropertyOp2
 70
     1
102
RTVSPropertyOp3
 70
     1
102
RTVSPropertyOp4
 70
     1
102
RTVSPropertyOp5
 70
     1
102
RTVSPropertyOp6
 70
     1
102
RTVSPropertyOp7
 70
     1
102
RTVSPropertyOp8
 70
     1
102
RTVSPropertyOp9
 70
     1
102
RTVSPropertyOp10
 70
     1
102
RTVSPropertyOp11
 70
     1
102
RTVSPropertyOp12
 70
     1
102
RTVSPropertyOp13
 70
     1
102
RTVSPropertyOp14
 70
     1
102
RTVSPropertyOp15
 70
     1
102
RTVSPropertyOp16
 70
     1
102
RTVSPropertyOp17
 70
     1
102
RTVSPropertyOp18
 70
     1
102
RTVSPropertyOp19
 70
     1
102
RTVSPropertyOp20
 70
     1
102
RTVSPropertyOp21
 70
     1
102
RTVSPropertyOp22
 70
     1
102
RTVSPropertyOp23
 70
     1
102
RTVSPropertyOp24
 70
     1
102
RTVSPropertyOp25
 70
     1
102
RTVSPropertyOp26
 70
     1
102
RTVSPropertyOp27
 70
     1
102
RTVSPropertyOp28
 70
     1
102
RTVSPropertyOp29
 70
     1
102
RTVSPropertyOp30
 70
     1
102
RTVSPropertyOp31
 70
     1
102
RTVSPropertyOp32
 70
     1
102
RTVSPropertyOp33
 70
     1
102
RTVSPropertyOp34
 70
     1
102
RTVSPropertyOp35
 70
     1
102
RTVSPropertyOp36
 70
     1
102
RTVSPropertyOp37
 70
     1
102
RTVSPropertyOp38
 70
     1
102
RTVSPropertyOp39
 70
     1
102
RTVSPropertyOp40
 70
     1
102
RTVSPropertyOp41
 70
     1
102
RTVSPropertyOp42
 70
     1
102
RTVSPropertyOp43
 70
     1
102
RTVSPropertyOp44
 70
     1
102
RTVSPropertyOp45
 70
     1
102
RTVSPropertyOp46
 70
     1
102
RTVSPropertyOp47
 70
     1
102
RTVSPropertyOp48
 70
     1
102
RTVSPropertyOp49
 70
     1
102
RTVSPropertyOp50
 70
     1
102
RTVSPropertyOp51
 70
     0
102
RTVSPropertyOp52
 70
     0
102
RTVSPropertyOp53
 70
     1
102
RTVSPropertyOp54
 70
     1
102
RTVSPropertyOp55
 70
     1
102
RTVSPropertyOp56
 70
     1
102
RTVSPropertyOp57
 70
     1
102
RTVSPropertyOp58
 70
     1
102
RTVSPropertyOp59
 70
     1
102
RTVSPropertyOp60
 70
     1
102
RTVSPropertyOp61
 70
     1
102
RTVSPropertyOp62
 70
     1
  0
XRECORD
  5
333
102
{ACAD_REACTORS
330
332
102
}
330
332
100
AcDbXrecord
280
     1
102
RTVSPost2010Prop28
280
     0
102
RTVSPost2010PropOp28
 70
     1
102
RTVSPost2010Prop29
280
     1
102
RTVSPost2010PropOp29
 70
     1
102
RTVSPost2010Prop30
280
     1
102
RTVSPost2010PropOp30
 70
     1
102
RTVSPost2010Prop31
280
     0
102
RTVSPost2010PropOp31
 70
     1
102
RTVSPost2010Prop32
280
     0
102
RTVSPost2010PropOp32
 70
     1
102
RTVSPost2010Prop33
280
     0
102
RTVSPost2010PropOp33
 70
     1
102
RTVSPost2010Prop34
280
     0
102
RTVSPost2010PropOp34
 70
     1
102
RTVSPost2010Prop35
280
     0
102
RTVSPost2010PropOp35
 70
     1
102
RTVSPost2010Prop36
280
     0
102
RTVSPost2010PropOp36
 70
     1
102
RTVSPost2010Prop37
 90
       50
102
RTVSPost2010PropOp37
 70
     1
102
RTVSPost2010Prop38
140
0.0
102
RTVSPost2010PropOp38
 70
     1
102
RTVSPost2010Prop39
140
1.0
102
RTVSPost2010PropOp39
 70
     1
102
RTVSPost2010Prop40
 90
        0
102
RTVSPost2010PropOp40
 70
     1
102
RTVSPost2010Prop41ColorIndex
 90
       18
102
RTVSPost2010Prop41ColorRGB
 90
        0
102
RTVSPost2010PropOp41
 70
     1
102
RTVSPost2010Prop42
 90
       50
102
RTVSPost2010PropOp42
 70
     1
102
RTVSPost2010Prop43
 90
        3
102
RTVSPost2010PropOp43
 70
     1
102
RTVSPost2010Prop44ColorIndex
 90
        5
102
RTVSPost2010Prop44ColorRGB
 90
      255
102
RTVSPost2010PropOp44
 70
     1
102
RTVSPost2010Prop45
280
     0
102
RTVSPost2010PropOp45
 70
     1
102
RTVSPost2010Prop46
 90
       50
102
RTVSPost2010PropOp46
 70
     1
102
RTVSPost2010Prop47
 90
       50
102
RTVSPost2010PropOp47
 70
     1
102
RTVSPost2010Prop48
 90
       50
102
RTVSPost2010PropOp48
 70
     1
102
RTVSPost2010Prop49
280
     0
102
RTVSPost2010PropOp49
 70
     1
102
RTVSPost2010Prop50
 90
       50
102
RTVSPost2010PropOp50
 70
     1
102
RTVSPost2010Prop51ColorIndex
 90
      256
102
RTVSPost2010Prop51ColorRGB
 90
-16777216
102
RTVSPost2010PropOp51
 70
     0
102
RTVSPost2010Prop52
140
1.0
102
RTVSPost2010PropOp52
 70
     0
102
RTVSPost2010Prop53
 90
        2
102
RTVSPost2010PropOp53
 70
     1
102
RTVSPost2010Prop54
  1
strokes_ogs.tif
102
RTVSPost2010PropOp54
 70
     1
102
RTVSPost2010Prop55
280
     0
102
RTVSPost2010PropOp55
 70
     1
102
RTVSPost2010Prop56
140
1.0
102
RTVSPost2010PropOp56
 70
     1
102
RTVSPost2010Prop57
140
1.0
102
RTVSPost2010PropOp57
 70
     1
102
RTVSPropertyOp0
 70
     1
102
RTVSPropertyOp1
 70
     1
102
RTVSPropertyOp2
 70
     1
102
RTVSPropertyOp3
 70
     1
102
RTVSPropertyOp4
 70
     1
102
RTVSPropertyOp5
 70
     1
102
RTVSPropertyOp6
 70
     1
102
RTVSPropertyOp7
 70
     1
102
RTVSPropertyOp8
 70
     1
102
RTVSPropertyOp9
 70
     1
102
RTVSPropertyOp10
 70
     1
102
RTVSPropertyOp11
 70
     1
102
RTVSPropertyOp12
 70
     1
102
RTVSPropertyOp13
 70
     1
102
RTVSPropertyOp14
 70
     1
102
RTVSPropertyOp15
 70
     1
102
RTVSPropertyOp16
 70
     1
102
RTVSPropertyOp17
 70
     1
102
RTVSPropertyOp18
 70
     1
102
RTVSPropertyOp19
 70
     1
102
RTVSPropertyOp20
 70
     1
102
RTVSPropertyOp21
 70
     1
102
RTVSPropertyOp22
 70
     1
102
RTVSPropertyOp23
 70
     1
102
RTVSPropertyOp24
 70
     1
102
RTVSPropertyOp25
 70
     1
102
RTVSPropertyOp26
 70
     1
102
RTVSPropertyOp27
 70
     1
102
RTVSPropertyOp28
 70
     1
102
RTVSPropertyOp29
 70
     1
102
RTVSPropertyOp30
 70
     1
102
RTVSPropertyOp31
 70
     1
102
RTVSPropertyOp32
 70
     1
102
RTVSPropertyOp33
 70
     1
102
RTVSPropertyOp34
 70
     1
102
RTVSPropertyOp35
 70
     1
102
RTVSPropertyOp36
 70
     1
102
RTVSPropertyOp37
 70
     1
102
RTVSPropertyOp38
 70
     1
102
RTVSPropertyOp39
 70
     1
102
RTVSPropertyOp40
 70
     1
102
RTVSPropertyOp41
 70
     1
102
RTVSPropertyOp42
 70
     1
102
RTVSPropertyOp43
 70
     1
102
RTVSPropertyOp44
 70
     1
102
RTVSPropertyOp45
 70
     1
102
RTVSPropertyOp46
 70
     1
102
RTVSPropertyOp47
 70
     1
102
RTVSPropertyOp48
 70
     1
102
RTVSPropertyOp49
 70
     1
102
RTVSPropertyOp50
 70
     1
102
RTVSPropertyOp51
 70
     0
102
RTVSPropertyOp52
 70
     0
102
RTVSPropertyOp53
 70
     1
102
RTVSPropertyOp54
 70
     1
102
RTVSPropertyOp55
 70
     1
102
RTVSPropertyOp56
 70
     1
102
RTVSPropertyOp57
 70
     1
102
RTVSPropertyOp58
 70
     1
102
RTVSPropertyOp59
 70
     1
102
RTVSPropertyOp60
 70
     1
102
RTVSPropertyOp61
 70
     1
102
RTVSPropertyOp62
 70
     1
  0
XRECORD
  5
34D
102
{ACAD_REACTORS
330
34C
102
}
330
34C
100
AcDbXrecord
280
     1
102
RTVSPost2010Prop28
280
     0
102
RTVSPost2010PropOp28
 70
     1
102
RTVSPost2010Prop29
280
     1
102
RTVSPost2010PropOp29
 70
     1
102
RTVSPost2010Prop30
280
     1
102
RTVSPost2010PropOp30
 70
     1
102
RTVSPost2010Prop31
280
     0
102
RTVSPost2010PropOp31
 70
     1
102
RTVSPost2010Prop32
280
     0
102
RTVSPost2010PropOp32
 70
     1
102
RTVSPost2010Prop33
280
     0
102
RTVSPost2010PropOp33
 70
     1
102
RTVSPost2010Prop34
280
     0
102
RTVSPost2010PropOp34
 70
     1
102
RTVSPost2010Prop35
280
     0
102
RTVSPost2010PropOp35
 70
     1
102
RTVSPost2010Prop36
280
     0
102
RTVSPost2010PropOp36
 70
     1
102
RTVSPost2010Prop37
 90
       50
102
RTVSPost2010PropOp37
 70
     0
102
RTVSPost2010Prop38
140
0.0
102
RTVSPost2010PropOp38
 70
     0
102
RTVSPost2010Prop39
140
1.0
102
RTVSPost2010PropOp39
 70
     0
102
RTVSPost2010Prop40
 90
        0
102
RTVSPost2010PropOp40
 70
     0
102
RTVSPost2010Prop41ColorIndex
 90
       18
102
RTVSPost2010Prop41ColorRGB
 90
        0
102
RTVSPost2010PropOp41
 70
     0
102
RTVSPost2010Prop42
 90
       50
102
RTVSPost2010PropOp42
 70
     0
102
RTVSPost2010Prop43
 90
        3
102
RTVSPost2010PropOp43
 70
     0
102
RTVSPost2010Prop44ColorIndex
 90
        5
102
RTVSPost2010Prop44ColorRGB
 90
      255
102
RTVSPost2010PropOp44
 70
     0
102
RTVSPost2010Prop45
280
     0
102
RTVSPost2010PropOp45
 70
     1
102
RTVSPost2010Prop46
 90
       50
102
RTVSPost2010PropOp46
 70
     0
102
RTVSPost2010Prop47
 90
       50
102
RTVSPost2010PropOp47
 70
     0
102
RTVSPost2010Prop48
 90
       50
102
RTVSPost2010PropOp48
 70
     0
102
RTVSPost2010Prop49
280
     0
102
RTVSPost2010PropOp49
 70
     1
102
RTVSPost2010Prop50
 90
       50
102
RTVSPost2010PropOp50
 70
     0
102
RTVSPost2010Prop51ColorIndex
 90
      256
102
RTVSPost2010Prop51ColorRGB
 90
-16777216
102
RTVSPost2010PropOp51
 70
     0
102
RTVSPost2010Prop52
140
1.0
102
RTVSPost2010PropOp52
 70
     0
102
RTVSPost2010Prop53
 90
        2
102
RTVSPost2010PropOp53
 70
     0
102
RTVSPost2010Prop54
  1
strokes_ogs.tif
102
RTVSPost2010PropOp54
 70
     0
102
RTVSPost2010Prop55
280
     0
102
RTVSPost2010PropOp55
 70
     1
102
RTVSPost2010Prop56
140
1.0
102
RTVSPost2010PropOp56
 70
     0
102
RTVSPost2010Prop57
140
1.0
102
RTVSPost2010PropOp57
 70
     0
102
RTVSPropertyOp0
 70
     0
102
RTVSPropertyOp1
 70
     0
102
RTVSPropertyOp2
 70
     0
102
RTVSPropertyOp3
 70
     0
102
RTVSPropertyOp4
 70
     0
102
RTVSPropertyOp5
 70
     0
102
RTVSPropertyOp6
 70
     0
102
RTVSPropertyOp7
 70
     0
102
RTVSPropertyOp8
 70
     0
102
RTVSPropertyOp9
 70
     0
102
RTVSPropertyOp10
 70
     0
102
RTVSPropertyOp11
 70
     0
102
RTVSPropertyOp12
 70
     0
102
RTVSPropertyOp13
 70
     0
102
RTVSPropertyOp14
 70
     2
102
RTVSPropertyOp15
 70
     0
102
RTVSPropertyOp16
 70
     0
102
RTVSPropertyOp17
 70
     0
102
RTVSPropertyOp18
 70
     0
102
RTVSPropertyOp19
 70
     0
102
RTVSPropertyOp20
 70
     0
102
RTVSPropertyOp21
 70
     0
102
RTVSPropertyOp22
 70
     0
102
RTVSPropertyOp23
 70
     0
102
RTVSPropertyOp24
 70
     0
102
RTVSPropertyOp25
 70
     0
102
RTVSPropertyOp26
 70
     0
102
RTVSPropertyOp27
 70
     0
102
RTVSPropertyOp28
 70
     1
102
RTVSPropertyOp29
 70
     1
102
RTVSPropertyOp30
 70
     1
102
RTVSPropertyOp31
 70
     1
102
RTVSPropertyOp32
 70
     1
102
RTVSPropertyOp33
 70
     1
102
RTVSPropertyOp34
 70
     1
102
RTVSPropertyOp35
 70
     1
102
RTVSPropertyOp36
 70
     1
102
RTVSPropertyOp37
 70
     0
102
RTVSPropertyOp38
 70
     0
102
RTVSPropertyOp39
 70
     0
102
RTVSPropertyOp40
 70
     0
102
RTVSPropertyOp41
 70
     0
102
RTVSPropertyOp42
 70
     0
102
RTVSPropertyOp43
 70
     0
102
RTVSPropertyOp44
 70
     0
102
RTVSPropertyOp45
 70
     1
102
RTVSPropertyOp46
 70
     0
102
RTVSPropertyOp47
 70
     0
102
RTVSPropertyOp48
 70
     0
102
RTVSPropertyOp49
 70
     1
102
RTVSPropertyOp50
 70
     0
102
RTVSPropertyOp51
 70
     0
102
RTVSPropertyOp52
 70
     0
102
RTVSPropertyOp53
 70
     0
102
RTVSPropertyOp54
 70
     0
102
RTVSPropertyOp55
 70
     1
102
RTVSPropertyOp56
 70
     0
102
RTVSPropertyOp57
 70
     0
102
RTVSPropertyOp58
 70
     1
102
RTVSPropertyOp59
 70
     1
102
RTVSPropertyOp60
 70
     1
102
RTVSPropertyOp61
 70
     1
102
RTVSPropertyOp62
 70
     1
  0
XRECORD
  5
33B
102
{ACAD_REACTORS
330
33A
102
}
330
33A
100
AcDbXrecord
280
     1
102
RTVSPost2010Prop28
280
     0
102
RTVSPost2010PropOp28
 70
     1
102
RTVSPost2010Prop29
280
     1
102
RTVSPost2010PropOp29
 70
     1
102
RTVSPost2010Prop30
280
     1
102
RTVSPost2010PropOp30
 70
     1
102
RTVSPost2010Prop31
280
     0
102
RTVSPost2010PropOp31
 70
     1
102
RTVSPost2010Prop32
280
     0
102
RTVSPost2010PropOp32
 70
     1
102
RTVSPost2010Prop33
280
     0
102
RTVSPost2010PropOp33
 70
     1
102
RTVSPost2010Prop34
280
     0
102
RTVSPost2010PropOp34
 70
     1
102
RTVSPost2010Prop35
280
     0
102
RTVSPost2010PropOp35
 70
     1
102
RTVSPost2010Prop36
280
     0
102
RTVSPost2010PropOp36
 70
     1
102
RTVSPost2010Prop37
 90
       50
102
RTVSPost2010PropOp37
 70
     1
102
RTVSPost2010Prop38
140
0.0
102
RTVSPost2010PropOp38
 70
     1
102
RTVSPost2010Prop39
140
1.0
102
RTVSPost2010PropOp39
 70
     1
102
RTVSPost2010Prop40
 90
        0
102
RTVSPost2010PropOp40
 70
     1
102
RTVSPost2010Prop41ColorIndex
 90
       18
102
RTVSPost2010Prop41ColorRGB
 90
        0
102
RTVSPost2010PropOp41
 70
     1
102
RTVSPost2010Prop42
 90
       50
102
RTVSPost2010PropOp42
 70
     1
102
RTVSPost2010Prop43
 90
        3
102
RTVSPost2010PropOp43
 70
     1
102
RTVSPost2010Prop44ColorIndex
 90
        5
102
RTVSPost2010Prop44ColorRGB
 90
      255
102
RTVSPost2010PropOp44
 70
     1
102
RTVSPost2010Prop45
280
     0
102
RTVSPost2010PropOp45
 70
     1
102
RTVSPost2010Prop46
 90
       50
102
RTVSPost2010PropOp46
 70
     1
102
RTVSPost2010Prop47
 90
       50
102
RTVSPost2010PropOp47
 70
     1
102
RTVSPost2010Prop48
 90
       50
102
RTVSPost2010PropOp48
 70
     1
102
RTVSPost2010Prop49
280
     0
102
RTVSPost2010PropOp49
 70
     1
102
RTVSPost2010Prop50
 90
       50
102
RTVSPost2010PropOp50
 70
     1
102
RTVSPost2010Prop51ColorIndex
 90
      256
102
RTVSPost2010Prop51ColorRGB
 90
-16777216
102
RTVSPost2010PropOp51
 70
     0
102
RTVSPost2010Prop52
140
1.0
102
RTVSPost2010PropOp52
 70
     0
102
RTVSPost2010Prop53
 90
        2
102
RTVSPost2010PropOp53
 70
     1
102
RTVSPost2010Prop54
  1
strokes_ogs.tif
102
RTVSPost2010PropOp54
 70
     1
102
RTVSPost2010Prop55
280
     0
102
RTVSPost2010PropOp55
 70
     1
102
RTVSPost2010Prop56
140
1.0
102
RTVSPost2010PropOp56
 70
     1
102
RTVSPost2010Prop57
140
1.0
102
RTVSPost2010PropOp57
 70
     1
102
RTVSPropertyOp0
 70
     1
102
RTVSPropertyOp1
 70
     1
102
RTVSPropertyOp2
 70
     1
102
RTVSPropertyOp3
 70
     1
102
RTVSPropertyOp4
 70
     1
102
RTVSPropertyOp5
 70
     1
102
RTVSPropertyOp6
 70
     1
102
RTVSPropertyOp7
 70
     1
102
RTVSPropertyOp8
 70
     1
102
RTVSPropertyOp9
 70
     1
102
RTVSPropertyOp10
 70
     1
102
RTVSPropertyOp11
 70
     1
102
RTVSPropertyOp12
 70
     1
102
RTVSPropertyOp13
 70
     1
102
RTVSPropertyOp14
 70
     1
102
RTVSPropertyOp15
 70
     1
102
RTVSPropertyOp16
 70
     1
102
RTVSPropertyOp17
 70
     1
102
RTVSPropertyOp18
 70
     1
102
RTVSPropertyOp19
 70
     1
102
RTVSPropertyOp20
 70
     1
102
RTVSPropertyOp21
 70
     1
102
RTVSPropertyOp22
 70
     1
102
RTVSPropertyOp23
 70
     1
102
RTVSPropertyOp24
 70
     1
102
RTVSPropertyOp25
 70
     1
102
RTVSPropertyOp26
 70
     1
102
RTVSPropertyOp27
 70
     1
102
RTVSPropertyOp28
 70
     1
102
RTVSPropertyOp29
 70
     1
102
RTVSPropertyOp30
 70
     1
102
RTVSPropertyOp31
 70
     1
102
RTVSPropertyOp32
 70
     1
102
RTVSPropertyOp33
 70
     1
102
RTVSPropertyOp34
 70
     1
102
RTVSPropertyOp35
 70
     1
102
RTVSPropertyOp36
 70
     1
102
RTVSPropertyOp37
 70
     1
102
RTVSPropertyOp38
 70
     1
102
RTVSPropertyOp39
 70
     1
102
RTVSPropertyOp40
 70
     1
102
RTVSPropertyOp41
 70
     1
102
RTVSPropertyOp42
 70
     1
102
RTVSPropertyOp43
 70
     1
102
RTVSPropertyOp44
 70
     1
102
RTVSPropertyOp45
 70
     1
102
RTVSPropertyOp46
 70
     1
102
RTVSPropertyOp47
 70
     1
102
RTVSPropertyOp48
 70
     1
102
RTVSPropertyOp49
 70
     1
102
RTVSPropertyOp50
 70
     1
102
RTVSPropertyOp51
 70
     0
102
RTVSPropertyOp52
 70
     0
102
RTVSPropertyOp53
 70
     1
102
RTVSPropertyOp54
 70
     1
102
RTVSPropertyOp55
 70
     1
102
RTVSPropertyOp56
 70
     1
102
RTVSPropertyOp57
 70
     1
102
RTVSPropertyOp58
 70
     1
102
RTVSPropertyOp59
 70
     1
102
RTVSPropertyOp60
 70
     1
102
RTVSPropertyOp61
 70
     1
102
RTVSPropertyOp62
 70
     1
  0
XRECORD
  5
31F
102
{ACAD_REACTORS
330
31E
102
}
330
31E
100
AcDbXrecord
280
     1
102
RTVSPost2010Prop28
280
     0
102
RTVSPost2010PropOp28
 70
     1
102
RTVSPost2010Prop29
280
     1
102
RTVSPost2010PropOp29
 70
     1
102
RTVSPost2010Prop30
280
     1
102
RTVSPost2010PropOp30
 70
     1
102
RTVSPost2010Prop31
280
     0
102
RTVSPost2010PropOp31
 70
     1
102
RTVSPost2010Prop32
280
     0
102
RTVSPost2010PropOp32
 70
     1
102
RTVSPost2010Prop33
280
     0
102
RTVSPost2010PropOp33
 70
     1
102
RTVSPost2010Prop34
280
     0
102
RTVSPost2010PropOp34
 70
     1
102
RTVSPost2010Prop35
280
     0
102
RTVSPost2010PropOp35
 70
     1
102
RTVSPost2010Prop36
280
     0
102
RTVSPost2010PropOp36
 70
     1
102
RTVSPost2010Prop37
 90
       50
102
RTVSPost2010PropOp37
 70
     1
102
RTVSPost2010Prop38
140
0.0
102
RTVSPost2010PropOp38
 70
     1
102
RTVSPost2010Prop39
140
1.0
102
RTVSPost2010PropOp39
 70
     1
102
RTVSPost2010Prop40
 90
        0
102
RTVSPost2010PropOp40
 70
     1
102
RTVSPost2010Prop41ColorIndex
 90
       18
102
RTVSPost2010Prop41ColorRGB
 90
        0
102
RTVSPost2010PropOp41
 70
     1
102
RTVSPost2010Prop42
 90
       50
102
RTVSPost2010PropOp42
 70
     1
102
RTVSPost2010Prop43
 90
        3
102
RTVSPost2010PropOp43
 70
     1
102
RTVSPost2010Prop44ColorIndex
 90
        5
102
RTVSPost2010Prop44ColorRGB
 90
      255
102
RTVSPost2010PropOp44
 70
     1
102
RTVSPost2010Prop45
280
     0
102
RTVSPost2010PropOp45
 70
     1
102
RTVSPost2010Prop46
 90
       50
102
RTVSPost2010PropOp46
 70
     1
102
RTVSPost2010Prop47
 90
       50
102
RTVSPost2010PropOp47
 70
     1
102
RTVSPost2010Prop48
 90
       50
102
RTVSPost2010PropOp48
 70
     1
102
RTVSPost2010Prop49
280
     0
102
RTVSPost2010PropOp49
 70
     1
102
RTVSPost2010Prop50
 90
       50
102
RTVSPost2010PropOp50
 70
     1
102
RTVSPost2010Prop51ColorIndex
 90
      256
102
RTVSPost2010Prop51ColorRGB
 90
-16777216
102
RTVSPost2010PropOp51
 70
     0
102
RTVSPost2010Prop52
140
1.0
102
RTVSPost2010PropOp52
 70
     0
102
RTVSPost2010Prop53
 90
        2
102
RTVSPost2010PropOp53
 70
     1
102
RTVSPost2010Prop54
  1
strokes_ogs.tif
102
RTVSPost2010PropOp54
 70
     1
102
RTVSPost2010Prop55
280
     0
102
RTVSPost2010PropOp55
 70
     1
102
RTVSPost2010Prop56
140
1.0
102
RTVSPost2010PropOp56
 70
     1
102
RTVSPost2010Prop57
140
1.0
102
RTVSPost2010PropOp57
 70
     1
102
RTVSPropertyOp0
 70
     1
102
RTVSPropertyOp1
 70
     1
102
RTVSPropertyOp2
 70
     1
102
RTVSPropertyOp3
 70
     1
102
RTVSPropertyOp4
 70
     1
102
RTVSPropertyOp5
 70
     1
102
RTVSPropertyOp6
 70
     1
102
RTVSPropertyOp7
 70
     1
102
RTVSPropertyOp8
 70
     1
102
RTVSPropertyOp9
 70
     1
102
RTVSPropertyOp10
 70
     1
102
RTVSPropertyOp11
 70
     1
102
RTVSPropertyOp12
 70
     1
102
RTVSPropertyOp13
 70
     1
102
RTVSPropertyOp14
 70
     1
102
RTVSPropertyOp15
 70
     1
102
RTVSPropertyOp16
 70
     1
102
RTVSPropertyOp17
 70
     1
102
RTVSPropertyOp18
 70
     1
102
RTVSPropertyOp19
 70
     1
102
RTVSPropertyOp20
 70
     1
102
RTVSPropertyOp21
 70
     1
102
RTVSPropertyOp22
 70
     1
102
RTVSPropertyOp23
 70
     1
102
RTVSPropertyOp24
 70
     1
102
RTVSPropertyOp25
 70
     1
102
RTVSPropertyOp26
 70
     1
102
RTVSPropertyOp27
 70
     1
102
RTVSPropertyOp28
 70
     1
102
RTVSPropertyOp29
 70
     1
102
RTVSPropertyOp30
 70
     1
102
RTVSPropertyOp31
 70
     1
102
RTVSPropertyOp32
 70
     1
102
RTVSPropertyOp33
 70
     1
102
RTVSPropertyOp34
 70
     1
102
RTVSPropertyOp35
 70
     1
102
RTVSPropertyOp36
 70
     1
102
RTVSPropertyOp37
 70
     1
102
RTVSPropertyOp38
 70
     1
102
RTVSPropertyOp39
 70
     1
102
RTVSPropertyOp40
 70
     1
102
RTVSPropertyOp41
 70
     1
102
RTVSPropertyOp42
 70
     1
102
RTVSPropertyOp43
 70
     1
102
RTVSPropertyOp44
 70
     1
102
RTVSPropertyOp45
 70
     1
102
RTVSPropertyOp46
 70
     1
102
RTVSPropertyOp47
 70
     1
102
RTVSPropertyOp48
 70
     1
102
RTVSPropertyOp49
 70
     1
102
RTVSPropertyOp50
 70
     1
102
RTVSPropertyOp51
 70
     0
102
RTVSPropertyOp52
 70
     0
102
RTVSPropertyOp53
 70
     1
102
RTVSPropertyOp54
 70
     1
102
RTVSPropertyOp55
 70
     1
102
RTVSPropertyOp56
 70
     1
102
RTVSPropertyOp57
 70
     1
102
RTVSPropertyOp58
 70
     1
102
RTVSPropertyOp59
 70
     1
102
RTVSPropertyOp60
 70
     1
102
RTVSPropertyOp61
 70
     1
102
RTVSPropertyOp62
 70
     1
  0
XRECORD
  5
321
102
{ACAD_REACTORS
330
320
102
}
330
320
100
AcDbXrecord
280
     1
102
RTVSPost2010Prop28
280
     0
102
RTVSPost2010PropOp28
 70
     1
102
RTVSPost2010Prop29
280
     1
102
RTVSPost2010PropOp29
 70
     1
102
RTVSPost2010Prop30
280
     1
102
RTVSPost2010PropOp30
 70
     1
102
RTVSPost2010Prop31
280
     0
102
RTVSPost2010PropOp31
 70
     1
102
RTVSPost2010Prop32
280
     0
102
RTVSPost2010PropOp32
 70
     1
102
RTVSPost2010Prop33
280
     0
102
RTVSPost2010PropOp33
 70
     1
102
RTVSPost2010Prop34
280
     0
102
RTVSPost2010PropOp34
 70
     1
102
RTVSPost2010Prop35
280
     0
102
RTVSPost2010PropOp35
 70
     1
102
RTVSPost2010Prop36
280
     0
102
RTVSPost2010PropOp36
 70
     1
102
RTVSPost2010Prop37
 90
       50
102
RTVSPost2010PropOp37
 70
     1
102
RTVSPost2010Prop38
140
0.0
102
RTVSPost2010PropOp38
 70
     1
102
RTVSPost2010Prop39
140
1.0
102
RTVSPost2010PropOp39
 70
     1
102
RTVSPost2010Prop40
 90
        0
102
RTVSPost2010PropOp40
 70
     1
102
RTVSPost2010Prop41ColorIndex
 90
       18
102
RTVSPost2010Prop41ColorRGB
 90
        0
102
RTVSPost2010PropOp41
 70
     1
102
RTVSPost2010Prop42
 90
       50
102
RTVSPost2010PropOp42
 70
     1
102
RTVSPost2010Prop43
 90
        3
102
RTVSPost2010PropOp43
 70
     1
102
RTVSPost2010Prop44ColorIndex
 90
        5
102
RTVSPost2010Prop44ColorRGB
 90
      255
102
RTVSPost2010PropOp44
 70
     1
102
RTVSPost2010Prop45
280
     0
102
RTVSPost2010PropOp45
 70
     1
102
RTVSPost2010Prop46
 90
       50
102
RTVSPost2010PropOp46
 70
     1
102
RTVSPost2010Prop47
 90
       50
102
RTVSPost2010PropOp47
 70
     1
102
RTVSPost2010Prop48
 90
       50
102
RTVSPost2010PropOp48
 70
     1
102
RTVSPost2010Prop49
280
     0
102
RTVSPost2010PropOp49
 70
     1
102
RTVSPost2010Prop50
 90
       50
102
RTVSPost2010PropOp50
 70
     1
102
RTVSPost2010Prop51ColorIndex
 90
      256
102
RTVSPost2010Prop51ColorRGB
 90
-16777216
102
RTVSPost2010PropOp51
 70
     0
102
RTVSPost2010Prop52
140
1.0
102
RTVSPost2010PropOp52
 70
     0
102
RTVSPost2010Prop53
 90
        2
102
RTVSPost2010PropOp53
 70
     1
102
RTVSPost2010Prop54
  1
strokes_ogs.tif
102
RTVSPost2010PropOp54
 70
     1
102
RTVSPost2010Prop55
280
     0
102
RTVSPost2010PropOp55
 70
     1
102
RTVSPost2010Prop56
140
1.0
102
RTVSPost2010PropOp56
 70
     1
102
RTVSPost2010Prop57
140
1.0
102
RTVSPost2010PropOp57
 70
     1
102
RTVSPropertyOp0
 70
     1
102
RTVSPropertyOp1
 70
     1
102
RTVSPropertyOp2
 70
     1
102
RTVSPropertyOp3
 70
     1
102
RTVSPropertyOp4
 70
     1
102
RTVSPropertyOp5
 70
     1
102
RTVSPropertyOp6
 70
     1
102
RTVSPropertyOp7
 70
     1
102
RTVSPropertyOp8
 70
     1
102
RTVSPropertyOp9
 70
     1
102
RTVSPropertyOp10
 70
     1
102
RTVSPropertyOp11
 70
     1
102
RTVSPropertyOp12
 70
     1
102
RTVSPropertyOp13
 70
     1
102
RTVSPropertyOp14
 70
     1
102
RTVSPropertyOp15
 70
     1
102
RTVSPropertyOp16
 70
     1
102
RTVSPropertyOp17
 70
     1
102
RTVSPropertyOp18
 70
     1
102
RTVSPropertyOp19
 70
     1
102
RTVSPropertyOp20
 70
     1
102
RTVSPropertyOp21
 70
     1
102
RTVSPropertyOp22
 70
     1
102
RTVSPropertyOp23
 70
     1
102
RTVSPropertyOp24
 70
     1
102
RTVSPropertyOp25
 70
     1
102
RTVSPropertyOp26
 70
     1
102
RTVSPropertyOp27
 70
     1
102
RTVSPropertyOp28
 70
     1
102
RTVSPropertyOp29
 70
     1
102
RTVSPropertyOp30
 70
     1
102
RTVSPropertyOp31
 70
     1
102
RTVSPropertyOp32
 70
     1
102
RTVSPropertyOp33
 70
     1
102
RTVSPropertyOp34
 70
     1
102
RTVSPropertyOp35
 70
     1
102
RTVSPropertyOp36
 70
     1
102
RTVSPropertyOp37
 70
     1
102
RTVSPropertyOp38
 70
     1
102
RTVSPropertyOp39
 70
     1
102
RTVSPropertyOp40
 70
     1
102
RTVSPropertyOp41
 70
     1
102
RTVSPropertyOp42
 70
     1
102
RTVSPropertyOp43
 70
     1
102
RTVSPropertyOp44
 70
     1
102
RTVSPropertyOp45
 70
     1
102
RTVSPropertyOp46
 70
     1
102
RTVSPropertyOp47
 70
     1
102
RTVSPropertyOp48
 70
     1
102
RTVSPropertyOp49
 70
     1
102
RTVSPropertyOp50
 70
     1
102
RTVSPropertyOp51
 70
     0
102
RTVSPropertyOp52
 70
     0
102
RTVSPropertyOp53
 70
     1
102
RTVSPropertyOp54
 70
     1
102
RTVSPropertyOp55
 70
     1
102
RTVSPropertyOp56
 70
     1
102
RTVSPropertyOp57
 70
     1
102
RTVSPropertyOp58
 70
     1
102
RTVSPropertyOp59
 70
     1
102
RTVSPropertyOp60
 70
     1
102
RTVSPropertyOp61
 70
     1
102
RTVSPropertyOp62
 70
     1
  0
XRECORD
  5
323
102
{ACAD_REACTORS
330
322
102
}
330
322
100
AcDbXrecord
280
     1
102
RTVSPost2010Prop28
280
     0
102
RTVSPost2010PropOp28
 70
     1
102
RTVSPost2010Prop29
280
     1
102
RTVSPost2010PropOp29
 70
     1
102
RTVSPost2010Prop30
280
     1
102
RTVSPost2010PropOp30
 70
     1
102
RTVSPost2010Prop31
280
     0
102
RTVSPost2010PropOp31
 70
     1
102
RTVSPost2010Prop32
280
     0
102
RTVSPost2010PropOp32
 70
     1
102
RTVSPost2010Prop33
280
     0
102
RTVSPost2010PropOp33
 70
     1
102
RTVSPost2010Prop34
280
     0
102
RTVSPost2010PropOp34
 70
     1
102
RTVSPost2010Prop35
280
     0
102
RTVSPost2010PropOp35
 70
     1
102
RTVSPost2010Prop36
280
     0
102
RTVSPost2010PropOp36
 70
     1
102
RTVSPost2010Prop37
 90
       50
102
RTVSPost2010PropOp37
 70
     1
102
RTVSPost2010Prop38
140
0.0
102
RTVSPost2010PropOp38
 70
     1
102
RTVSPost2010Prop39
140
1.0
102
RTVSPost2010PropOp39
 70
     1
102
RTVSPost2010Prop40
 90
        0
102
RTVSPost2010PropOp40
 70
     1
102
RTVSPost2010Prop41ColorIndex
 90
       18
102
RTVSPost2010Prop41ColorRGB
 90
        0
102
RTVSPost2010PropOp41
 70
     1
102
RTVSPost2010Prop42
 90
       50
102
RTVSPost2010PropOp42
 70
     1
102
RTVSPost2010Prop43
 90
        3
102
RTVSPost2010PropOp43
 70
     1
102
RTVSPost2010Prop44ColorIndex
 90
        5
102
RTVSPost2010Prop44ColorRGB
 90
      255
102
RTVSPost2010PropOp44
 70
     1
102
RTVSPost2010Prop45
280
     0
102
RTVSPost2010PropOp45
 70
     1
102
RTVSPost2010Prop46
 90
       50
102
RTVSPost2010PropOp46
 70
     1
102
RTVSPost2010Prop47
 90
       50
102
RTVSPost2010PropOp47
 70
     1
102
RTVSPost2010Prop48
 90
       50
102
RTVSPost2010PropOp48
 70
     1
102
RTVSPost2010Prop49
280
     0
102
RTVSPost2010PropOp49
 70
     1
102
RTVSPost2010Prop50
 90
       50
102
RTVSPost2010PropOp50
 70
     1
102
RTVSPost2010Prop51ColorIndex
 90
      256
102
RTVSPost2010Prop51ColorRGB
 90
-16777216
102
RTVSPost2010PropOp51
 70
     0
102
RTVSPost2010Prop52
140
1.0
102
RTVSPost2010PropOp52
 70
     0
102
RTVSPost2010Prop53
 90
        2
102
RTVSPost2010PropOp53
 70
     1
102
RTVSPost2010Prop54
  1
strokes_ogs.tif
102
RTVSPost2010PropOp54
 70
     1
102
RTVSPost2010Prop55
280
     0
102
RTVSPost2010PropOp55
 70
     1
102
RTVSPost2010Prop56
140
1.0
102
RTVSPost2010PropOp56
 70
     1
102
RTVSPost2010Prop57
140
1.0
102
RTVSPost2010PropOp57
 70
     1
102
RTVSPropertyOp0
 70
     1
102
RTVSPropertyOp1
 70
     1
102
RTVSPropertyOp2
 70
     1
102
RTVSPropertyOp3
 70
     1
102
RTVSPropertyOp4
 70
     1
102
RTVSPropertyOp5
 70
     1
102
RTVSPropertyOp6
 70
     1
102
RTVSPropertyOp7
 70
     1
102
RTVSPropertyOp8
 70
     1
102
RTVSPropertyOp9
 70
     1
102
RTVSPropertyOp10
 70
     1
102
RTVSPropertyOp11
 70
     1
102
RTVSPropertyOp12
 70
     1
102
RTVSPropertyOp13
 70
     1
102
RTVSPropertyOp14
 70
     1
102
RTVSPropertyOp15
 70
     1
102
RTVSPropertyOp16
 70
     1
102
RTVSPropertyOp17
 70
     1
102
RTVSPropertyOp18
 70
     1
102
RTVSPropertyOp19
 70
     1
102
RTVSPropertyOp20
 70
     1
102
RTVSPropertyOp21
 70
     1
102
RTVSPropertyOp22
 70
     1
102
RTVSPropertyOp23
 70
     1
102
RTVSPropertyOp24
 70
     1
102
RTVSPropertyOp25
 70
     1
102
RTVSPropertyOp26
 70
     1
102
RTVSPropertyOp27
 70
     1
102
RTVSPropertyOp28
 70
     1
102
RTVSPropertyOp29
 70
     1
102
RTVSPropertyOp30
 70
     1
102
RTVSPropertyOp31
 70
     1
102
RTVSPropertyOp32
 70
     1
102
RTVSPropertyOp33
 70
     1
102
RTVSPropertyOp34
 70
     1
102
RTVSPropertyOp35
 70
     1
102
RTVSPropertyOp36
 70
     1
102
RTVSPropertyOp37
 70
     1
102
RTVSPropertyOp38
 70
     1
102
RTVSPropertyOp39
 70
     1
102
RTVSPropertyOp40
 70
     1
102
RTVSPropertyOp41
 70
     1
102
RTVSPropertyOp42
 70
     1
102
RTVSPropertyOp43
 70
     1
102
RTVSPropertyOp44
 70
     1
102
RTVSPropertyOp45
 70
     1
102
RTVSPropertyOp46
 70
     1
102
RTVSPropertyOp47
 70
     1
102
RTVSPropertyOp48
 70
     1
102
RTVSPropertyOp49
 70
     1
102
RTVSPropertyOp50
 70
     1
102
RTVSPropertyOp51
 70
     0
102
RTVSPropertyOp52
 70
     0
102
RTVSPropertyOp53
 70
     1
102
RTVSPropertyOp54
 70
     1
102
RTVSPropertyOp55
 70
     1
102
RTVSPropertyOp56
 70
     1
102
RTVSPropertyOp57
 70
     1
102
RTVSPropertyOp58
 70
     1
102
RTVSPropertyOp59
 70
     1
102
RTVSPropertyOp60
 70
     1
102
RTVSPropertyOp61
 70
     1
102
RTVSPropertyOp62
 70
     1
  0
XRECORD
  5
325
102
{ACAD_REACTORS
330
324
102
}
330
324
100
AcDbXrecord
280
     1
102
RTVSPost2010Prop28
280
     0
102
RTVSPost2010PropOp28
 70
     1
102
RTVSPost2010Prop29
280
     1
102
RTVSPost2010PropOp29
 70
     1
102
RTVSPost2010Prop30
280
     1
102
RTVSPost2010PropOp30
 70
     1
102
RTVSPost2010Prop31
280
     0
102
RTVSPost2010PropOp31
 70
     1
102
RTVSPost2010Prop32
280
     0
102
RTVSPost2010PropOp32
 70
     1
102
RTVSPost2010Prop33
280
     0
102
RTVSPost2010PropOp33
 70
     1
102
RTVSPost2010Prop34
280
     0
102
RTVSPost2010PropOp34
 70
     1
102
RTVSPost2010Prop35
280
     0
102
RTVSPost2010PropOp35
 70
     1
102
RTVSPost2010Prop36
280
     0
102
RTVSPost2010PropOp36
 70
     1
102
RTVSPost2010Prop37
 90
       50
102
RTVSPost2010PropOp37
 70
     1
102
RTVSPost2010Prop38
140
0.0
102
RTVSPost2010PropOp38
 70
     1
102
RTVSPost2010Prop39
140
1.0
102
RTVSPost2010PropOp39
 70
     1
102
RTVSPost2010Prop40
 90
        0
102
RTVSPost2010PropOp40
 70
     1
102
RTVSPost2010Prop41ColorIndex
 90
       18
102
RTVSPost2010Prop41ColorRGB
 90
        0
102
RTVSPost2010PropOp41
 70
     1
102
RTVSPost2010Prop42
 90
       50
102
RTVSPost2010PropOp42
 70
     1
102
RTVSPost2010Prop43
 90
        3
102
RTVSPost2010PropOp43
 70
     1
102
RTVSPost2010Prop44ColorIndex
 90
        5
102
RTVSPost2010Prop44ColorRGB
 90
      255
102
RTVSPost2010PropOp44
 70
     1
102
RTVSPost2010Prop45
280
     0
102
RTVSPost2010PropOp45
 70
     1
102
RTVSPost2010Prop46
 90
       50
102
RTVSPost2010PropOp46
 70
     1
102
RTVSPost2010Prop47
 90
       50
102
RTVSPost2010PropOp47
 70
     1
102
RTVSPost2010Prop48
 90
       50
102
RTVSPost2010PropOp48
 70
     1
102
RTVSPost2010Prop49
280
     0
102
RTVSPost2010PropOp49
 70
     1
102
RTVSPost2010Prop50
 90
       50
102
RTVSPost2010PropOp50
 70
     1
102
RTVSPost2010Prop51ColorIndex
 90
      256
102
RTVSPost2010Prop51ColorRGB
 90
-16777216
102
RTVSPost2010PropOp51
 70
     0
102
RTVSPost2010Prop52
140
1.0
102
RTVSPost2010PropOp52
 70
     0
102
RTVSPost2010Prop53
 90
        2
102
RTVSPost2010PropOp53
 70
     1
102
RTVSPost2010Prop54
  1
strokes_ogs.tif
102
RTVSPost2010PropOp54
 70
     1
102
RTVSPost2010Prop55
280
     0
102
RTVSPost2010PropOp55
 70
     1
102
RTVSPost2010Prop56
140
1.0
102
RTVSPost2010PropOp56
 70
     1
102
RTVSPost2010Prop57
140
1.0
102
RTVSPost2010PropOp57
 70
     1
102
RTVSPropertyOp0
 70
     1
102
RTVSPropertyOp1
 70
     1
102
RTVSPropertyOp2
 70
     1
102
RTVSPropertyOp3
 70
     1
102
RTVSPropertyOp4
 70
     1
102
RTVSPropertyOp5
 70
     1
102
RTVSPropertyOp6
 70
     1
102
RTVSPropertyOp7
 70
     1
102
RTVSPropertyOp8
 70
     1
102
RTVSPropertyOp9
 70
     1
102
RTVSPropertyOp10
 70
     1
102
RTVSPropertyOp11
 70
     1
102
RTVSPropertyOp12
 70
     1
102
RTVSPropertyOp13
 70
     1
102
RTVSPropertyOp14
 70
     1
102
RTVSPropertyOp15
 70
     1
102
RTVSPropertyOp16
 70
     1
102
RTVSPropertyOp17
 70
     1
102
RTVSPropertyOp18
 70
     1
102
RTVSPropertyOp19
 70
     1
102
RTVSPropertyOp20
 70
     1
102
RTVSPropertyOp21
 70
     1
102
RTVSPropertyOp22
 70
     1
102
RTVSPropertyOp23
 70
     1
102
RTVSPropertyOp24
 70
     1
102
RTVSPropertyOp25
 70
     1
102
RTVSPropertyOp26
 70
     1
102
RTVSPropertyOp27
 70
     1
102
RTVSPropertyOp28
 70
     1
102
RTVSPropertyOp29
 70
     1
102
RTVSPropertyOp30
 70
     1
102
RTVSPropertyOp31
 70
     1
102
RTVSPropertyOp32
 70
     1
102
RTVSPropertyOp33
 70
     1
102
RTVSPropertyOp34
 70
     1
102
RTVSPropertyOp35
 70
     1
102
RTVSPropertyOp36
 70
     1
102
RTVSPropertyOp37
 70
     1
102
RTVSPropertyOp38
 70
     1
102
RTVSPropertyOp39
 70
     1
102
RTVSPropertyOp40
 70
     1
102
RTVSPropertyOp41
 70
     1
102
RTVSPropertyOp42
 70
     1
102
RTVSPropertyOp43
 70
     1
102
RTVSPropertyOp44
 70
     1
102
RTVSPropertyOp45
 70
     1
102
RTVSPropertyOp46
 70
     1
102
RTVSPropertyOp47
 70
     1
102
RTVSPropertyOp48
 70
     1
102
RTVSPropertyOp49
 70
     1
102
RTVSPropertyOp50
 70
     1
102
RTVSPropertyOp51
 70
     0
102
RTVSPropertyOp52
 70
     0
102
RTVSPropertyOp53
 70
     1
102
RTVSPropertyOp54
 70
     1
102
RTVSPropertyOp55
 70
     1
102
RTVSPropertyOp56
 70
     1
102
RTVSPropertyOp57
 70
     1
102
RTVSPropertyOp58
 70
     1
102
RTVSPropertyOp59
 70
     1
102
RTVSPropertyOp60
 70
     1
102
RTVSPropertyOp61
 70
     1
102
RTVSPropertyOp62
 70
     1
  0
XRECORD
  5
32D
102
{ACAD_REACTORS
330
32C
102
}
330
32C
100
AcDbXrecord
280
     1
102
RTVSPost2010Prop28
280
     0
102
RTVSPost2010PropOp28
 70
     1
102
RTVSPost2010Prop29
280
     1
102
RTVSPost2010PropOp29
 70
     1
102
RTVSPost2010Prop30
280
     1
102
RTVSPost2010PropOp30
 70
     1
102
RTVSPost2010Prop31
280
     0
102
RTVSPost2010PropOp31
 70
     1
102
RTVSPost2010Prop32
280
     0
102
RTVSPost2010PropOp32
 70
     1
102
RTVSPost2010Prop33
280
     0
102
RTVSPost2010PropOp33
 70
     1
102
RTVSPost2010Prop34
280
     0
102
RTVSPost2010PropOp34
 70
     1
102
RTVSPost2010Prop35
280
     0
102
RTVSPost2010PropOp35
 70
     1
102
RTVSPost2010Prop36
280
     0
102
RTVSPost2010PropOp36
 70
     1
102
RTVSPost2010Prop37
 90
       50
102
RTVSPost2010PropOp37
 70
     1
102
RTVSPost2010Prop38
140
0.0
102
RTVSPost2010PropOp38
 70
     1
102
RTVSPost2010Prop39
140
1.0
102
RTVSPost2010PropOp39
 70
     1
102
RTVSPost2010Prop40
 90
        0
102
RTVSPost2010PropOp40
 70
     1
102
RTVSPost2010Prop41ColorIndex
 90
       18
102
RTVSPost2010Prop41ColorRGB
 90
        0
102
RTVSPost2010PropOp41
 70
     1
102
RTVSPost2010Prop42
 90
       50
102
RTVSPost2010PropOp42
 70
     1
102
RTVSPost2010Prop43
 90
        3
102
RTVSPost2010PropOp43
 70
     1
102
RTVSPost2010Prop44ColorIndex
 90
        5
102
RTVSPost2010Prop44ColorRGB
 90
      255
102
RTVSPost2010PropOp44
 70
     1
102
RTVSPost2010Prop45
280
     0
102
RTVSPost2010PropOp45
 70
     1
102
RTVSPost2010Prop46
 90
       50
102
RTVSPost2010PropOp46
 70
     1
102
RTVSPost2010Prop47
 90
       50
102
RTVSPost2010PropOp47
 70
     1
102
RTVSPost2010Prop48
 90
       50
102
RTVSPost2010PropOp48
 70
     1
102
RTVSPost2010Prop49
280
     0
102
RTVSPost2010PropOp49
 70
     1
102
RTVSPost2010Prop50
 90
       50
102
RTVSPost2010PropOp50
 70
     1
102
RTVSPost2010Prop51ColorIndex
 90
      256
102
RTVSPost2010Prop51ColorRGB
 90
-16777216
102
RTVSPost2010PropOp51
 70
     0
102
RTVSPost2010Prop52
140
1.0
102
RTVSPost2010PropOp52
 70
     0
102
RTVSPost2010Prop53
 90
        2
102
RTVSPost2010PropOp53
 70
     1
102
RTVSPost2010Prop54
  1
strokes_ogs.tif
102
RTVSPost2010PropOp54
 70
     1
102
RTVSPost2010Prop55
280
     0
102
RTVSPost2010PropOp55
 70
     1
102
RTVSPost2010Prop56
140
1.0
102
RTVSPost2010PropOp56
 70
     1
102
RTVSPost2010Prop57
140
1.0
102
RTVSPost2010PropOp57
 70
     1
102
RTVSPropertyOp0
 70
     1
102
RTVSPropertyOp1
 70
     1
102
RTVSPropertyOp2
 70
     1
102
RTVSPropertyOp3
 70
     1
102
RTVSPropertyOp4
 70
     1
102
RTVSPropertyOp5
 70
     1
102
RTVSPropertyOp6
 70
     1
102
RTVSPropertyOp7
 70
     1
102
RTVSPropertyOp8
 70
     1
102
RTVSPropertyOp9
 70
     1
102
RTVSPropertyOp10
 70
     1
102
RTVSPropertyOp11
 70
     1
102
RTVSPropertyOp12
 70
     1
102
RTVSPropertyOp13
 70
     1
102
RTVSPropertyOp14
 70
     1
102
RTVSPropertyOp15
 70
     1
102
RTVSPropertyOp16
 70
     1
102
RTVSPropertyOp17
 70
     1
102
RTVSPropertyOp18
 70
     1
102
RTVSPropertyOp19
 70
     1
102
RTVSPropertyOp20
 70
     1
102
RTVSPropertyOp21
 70
     1
102
RTVSPropertyOp22
 70
     1
102
RTVSPropertyOp23
 70
     1
102
RTVSPropertyOp24
 70
     1
102
RTVSPropertyOp25
 70
     1
102
RTVSPropertyOp26
 70
     1
102
RTVSPropertyOp27
 70
     1
102
RTVSPropertyOp28
 70
     1
102
RTVSPropertyOp29
 70
     1
102
RTVSPropertyOp30
 70
     1
102
RTVSPropertyOp31
 70
     1
102
RTVSPropertyOp32
 70
     1
102
RTVSPropertyOp33
 70
     1
102
RTVSPropertyOp34
 70
     1
102
RTVSPropertyOp35
 70
     1
102
RTVSPropertyOp36
 70
     1
102
RTVSPropertyOp37
 70
     1
102
RTVSPropertyOp38
 70
     1
102
RTVSPropertyOp39
 70
     1
102
RTVSPropertyOp40
 70
     1
102
RTVSPropertyOp41
 70
     1
102
RTVSPropertyOp42
 70
     1
102
RTVSPropertyOp43
 70
     1
102
RTVSPropertyOp44
 70
     1
102
RTVSPropertyOp45
 70
     1
102
RTVSPropertyOp46
 70
     1
102
RTVSPropertyOp47
 70
     1
102
RTVSPropertyOp48
 70
     1
102
RTVSPropertyOp49
 70
     1
102
RTVSPropertyOp50
 70
     1
102
RTVSPropertyOp51
 70
     0
102
RTVSPropertyOp52
 70
     0
102
RTVSPropertyOp53
 70
     1
102
RTVSPropertyOp54
 70
     1
102
RTVSPropertyOp55
 70
     1
102
RTVSPropertyOp56
 70
     1
102
RTVSPropertyOp57
 70
     1
102
RTVSPropertyOp58
 70
     1
102
RTVSPropertyOp59
 70
     1
102
RTVSPropertyOp60
 70
     1
102
RTVSPropertyOp61
 70
     1
102
RTVSPropertyOp62
 70
     1
  0
XRECORD
  5
349
102
{ACAD_REACTORS
330
348
102
}
330
348
100
AcDbXrecord
280
     1
102
RTVSPost2010Prop28
280
     0
102
RTVSPost2010PropOp28
 70
     1
102
RTVSPost2010Prop29
280
     1
102
RTVSPost2010PropOp29
 70
     1
102
RTVSPost2010Prop30
280
     1
102
RTVSPost2010PropOp30
 70
     1
102
RTVSPost2010Prop31
280
     0
102
RTVSPost2010PropOp31
 70
     1
102
RTVSPost2010Prop32
280
     0
102
RTVSPost2010PropOp32
 70
     1
102
RTVSPost2010Prop33
280
     0
102
RTVSPost2010PropOp33
 70
     1
102
RTVSPost2010Prop34
280
     0
102
RTVSPost2010PropOp34
 70
     1
102
RTVSPost2010Prop35
280
     0
102
RTVSPost2010PropOp35
 70
     1
102
RTVSPost2010Prop36
280
     0
102
RTVSPost2010PropOp36
 70
     1
102
RTVSPost2010Prop37
 90
       50
102
RTVSPost2010PropOp37
 70
     0
102
RTVSPost2010Prop38
140
0.0
102
RTVSPost2010PropOp38
 70
     0
102
RTVSPost2010Prop39
140
1.0
102
RTVSPost2010PropOp39
 70
     0
102
RTVSPost2010Prop40
 90
        0
102
RTVSPost2010PropOp40
 70
     0
102
RTVSPost2010Prop41ColorIndex
 90
       18
102
RTVSPost2010Prop41ColorRGB
 90
        0
102
RTVSPost2010PropOp41
 70
     0
102
RTVSPost2010Prop42
 90
       50
102
RTVSPost2010PropOp42
 70
     0
102
RTVSPost2010Prop43
 90
        3
102
RTVSPost2010PropOp43
 70
     0
102
RTVSPost2010Prop44ColorIndex
 90
        5
102
RTVSPost2010Prop44ColorRGB
 90
      255
102
RTVSPost2010PropOp44
 70
     0
102
RTVSPost2010Prop45
280
     0
102
RTVSPost2010PropOp45
 70
     1
102
RTVSPost2010Prop46
 90
       50
102
RTVSPost2010PropOp46
 70
     0
102
RTVSPost2010Prop47
 90
       50
102
RTVSPost2010PropOp47
 70
     0
102
RTVSPost2010Prop48
 90
       50
102
RTVSPost2010PropOp48
 70
     0
102
RTVSPost2010Prop49
280
     0
102
RTVSPost2010PropOp49
 70
     1
102
RTVSPost2010Prop50
 90
       50
102
RTVSPost2010PropOp50
 70
     0
102
RTVSPost2010Prop51ColorIndex
 90
      256
102
RTVSPost2010Prop51ColorRGB
 90
-16777216
102
RTVSPost2010PropOp51
 70
     0
102
RTVSPost2010Prop52
140
1.0
102
RTVSPost2010PropOp52
 70
     0
102
RTVSPost2010Prop53
 90
        2
102
RTVSPost2010PropOp53
 70
     0
102
RTVSPost2010Prop54
  1
strokes_ogs.tif
102
RTVSPost2010PropOp54
 70
     0
102
RTVSPost2010Prop55
280
     0
102
RTVSPost2010PropOp55
 70
     1
102
RTVSPost2010Prop56
140
1.0
102
RTVSPost2010PropOp56
 70
     0
102
RTVSPost2010Prop57
140
1.0
102
RTVSPost2010PropOp57
 70
     0
102
RTVSPropertyOp0
 70
     0
102
RTVSPropertyOp1
 70
     0
102
RTVSPropertyOp2
 70
     0
102
RTVSPropertyOp3
 70
     0
102
RTVSPropertyOp4
 70
     0
102
RTVSPropertyOp5
 70
     0
102
RTVSPropertyOp6
 70
     0
102
RTVSPropertyOp7
 70
     0
102
RTVSPropertyOp8
 70
     0
102
RTVSPropertyOp9
 70
     0
102
RTVSPropertyOp10
 70
     0
102
RTVSPropertyOp11
 70
     0
102
RTVSPropertyOp12
 70
     0
102
RTVSPropertyOp13
 70
     0
102
RTVSPropertyOp14
 70
     2
102
RTVSPropertyOp15
 70
     0
102
RTVSPropertyOp16
 70
     0
102
RTVSPropertyOp17
 70
     0
102
RTVSPropertyOp18
 70
     0
102
RTVSPropertyOp19
 70
     0
102
RTVSPropertyOp20
 70
     0
102
RTVSPropertyOp21
 70
     0
102
RTVSPropertyOp22
 70
     0
102
RTVSPropertyOp23
 70
     0
102
RTVSPropertyOp24
 70
     0
102
RTVSPropertyOp25
 70
     0
102
RTVSPropertyOp26
 70
     0
102
RTVSPropertyOp27
 70
     0
102
RTVSPropertyOp28
 70
     1
102
RTVSPropertyOp29
 70
     1
102
RTVSPropertyOp30
 70
     1
102
RTVSPropertyOp31
 70
     1
102
RTVSPropertyOp32
 70
     1
102
RTVSPropertyOp33
 70
     1
102
RTVSPropertyOp34
 70
     1
102
RTVSPropertyOp35
 70
     1
102
RTVSPropertyOp36
 70
     1
102
RTVSPropertyOp37
 70
     0
102
RTVSPropertyOp38
 70
     0
102
RTVSPropertyOp39
 70
     0
102
RTVSPropertyOp40
 70
     0
102
RTVSPropertyOp41
 70
     0
102
RTVSPropertyOp42
 70
     0
102
RTVSPropertyOp43
 70
     0
102
RTVSPropertyOp44
 70
     0
102
RTVSPropertyOp45
 70
     1
102
RTVSPropertyOp46
 70
     0
102
RTVSPropertyOp47
 70
     0
102
RTVSPropertyOp48
 70
     0
102
RTVSPropertyOp49
 70
     1
102
RTVSPropertyOp50
 70
     0
102
RTVSPropertyOp51
 70
     0
102
RTVSPropertyOp52
 70
     0
102
RTVSPropertyOp53
 70
     0
102
RTVSPropertyOp54
 70
     0
102
RTVSPropertyOp55
 70
     1
102
RTVSPropertyOp56
 70
     0
102
RTVSPropertyOp57
 70
     0
102
RTVSPropertyOp58
 70
     1
102
RTVSPropertyOp59
 70
     1
102
RTVSPropertyOp60
 70
     1
102
RTVSPropertyOp61
 70
     1
102
RTVSPropertyOp62
 70
     1
  0
XRECORD
  5
339
102
{ACAD_REACTORS
330
338
102
}
330
338
100
AcDbXrecord
280
     1
102
RTVSPost2010Prop28
280
     0
102
RTVSPost2010PropOp28
 70
     1
102
RTVSPost2010Prop29
280
     1
102
RTVSPost2010PropOp29
 70
     1
102
RTVSPost2010Prop30
280
     1
102
RTVSPost2010PropOp30
 70
     1
102
RTVSPost2010Prop31
280
     0
102
RTVSPost2010PropOp31
 70
     1
102
RTVSPost2010Prop32
280
     0
102
RTVSPost2010PropOp32
 70
     1
102
RTVSPost2010Prop33
280
     0
102
RTVSPost2010PropOp33
 70
     1
102
RTVSPost2010Prop34
280
     0
102
RTVSPost2010PropOp34
 70
     1
102
RTVSPost2010Prop35
280
     0
102
RTVSPost2010PropOp35
 70
     1
102
RTVSPost2010Prop36
280
     0
102
RTVSPost2010PropOp36
 70
     1
102
RTVSPost2010Prop37
 90
       50
102
RTVSPost2010PropOp37
 70
     1
102
RTVSPost2010Prop38
140
0.0
102
RTVSPost2010PropOp38
 70
     1
102
RTVSPost2010Prop39
140
1.0
102
RTVSPost2010PropOp39
 70
     1
102
RTVSPost2010Prop40
 90
        0
102
RTVSPost2010PropOp40
 70
     1
102
RTVSPost2010Prop41ColorIndex
 90
       18
102
RTVSPost2010Prop41ColorRGB
 90
        0
102
RTVSPost2010PropOp41
 70
     1
102
RTVSPost2010Prop42
 90
       50
102
RTVSPost2010PropOp42
 70
     1
102
RTVSPost2010Prop43
 90
        3
102
RTVSPost2010PropOp43
 70
     1
102
RTVSPost2010Prop44ColorIndex
 90
        5
102
RTVSPost2010Prop44ColorRGB
 90
      255
102
RTVSPost2010PropOp44
 70
     1
102
RTVSPost2010Prop45
280
     0
102
RTVSPost2010PropOp45
 70
     1
102
RTVSPost2010Prop46
 90
       50
102
RTVSPost2010PropOp46
 70
     1
102
RTVSPost2010Prop47
 90
       50
102
RTVSPost2010PropOp47
 70
     1
102
RTVSPost2010Prop48
 90
       50
102
RTVSPost2010PropOp48
 70
     1
102
RTVSPost2010Prop49
280
     0
102
RTVSPost2010PropOp49
 70
     1
102
RTVSPost2010Prop50
 90
       50
102
RTVSPost2010PropOp50
 70
     1
102
RTVSPost2010Prop51ColorIndex
 90
      256
102
RTVSPost2010Prop51ColorRGB
 90
-16777216
102
RTVSPost2010PropOp51
 70
     0
102
RTVSPost2010Prop52
140
1.0
102
RTVSPost2010PropOp52
 70
     0
102
RTVSPost2010Prop53
 90
        2
102
RTVSPost2010PropOp53
 70
     1
102
RTVSPost2010Prop54
  1
strokes_ogs.tif
102
RTVSPost2010PropOp54
 70
     1
102
RTVSPost2010Prop55
280
     0
102
RTVSPost2010PropOp55
 70
     1
102
RTVSPost2010Prop56
140
1.0
102
RTVSPost2010PropOp56
 70
     1
102
RTVSPost2010Prop57
140
1.0
102
RTVSPost2010PropOp57
 70
     1
102
RTVSPropertyOp0
 70
     1
102
RTVSPropertyOp1
 70
     1
102
RTVSPropertyOp2
 70
     1
102
RTVSPropertyOp3
 70
     1
102
RTVSPropertyOp4
 70
     1
102
RTVSPropertyOp5
 70
     1
102
RTVSPropertyOp6
 70
     1
102
RTVSPropertyOp7
 70
     1
102
RTVSPropertyOp8
 70
     1
102
RTVSPropertyOp9
 70
     1
102
RTVSPropertyOp10
 70
     1
102
RTVSPropertyOp11
 70
     1
102
RTVSPropertyOp12
 70
     1
102
RTVSPropertyOp13
 70
     1
102
RTVSPropertyOp14
 70
     1
102
RTVSPropertyOp15
 70
     1
102
RTVSPropertyOp16
 70
     1
102
RTVSPropertyOp17
 70
     1
102
RTVSPropertyOp18
 70
     1
102
RTVSPropertyOp19
 70
     1
102
RTVSPropertyOp20
 70
     1
102
RTVSPropertyOp21
 70
     1
102
RTVSPropertyOp22
 70
     1
102
RTVSPropertyOp23
 70
     1
102
RTVSPropertyOp24
 70
     1
102
RTVSPropertyOp25
 70
     1
102
RTVSPropertyOp26
 70
     1
102
RTVSPropertyOp27
 70
     1
102
RTVSPropertyOp28
 70
     1
102
RTVSPropertyOp29
 70
     1
102
RTVSPropertyOp30
 70
     1
102
RTVSPropertyOp31
 70
     1
102
RTVSPropertyOp32
 70
     1
102
RTVSPropertyOp33
 70
     1
102
RTVSPropertyOp34
 70
     1
102
RTVSPropertyOp35
 70
     1
102
RTVSPropertyOp36
 70
     1
102
RTVSPropertyOp37
 70
     1
102
RTVSPropertyOp38
 70
     1
102
RTVSPropertyOp39
 70
     1
102
RTVSPropertyOp40
 70
     1
102
RTVSPropertyOp41
 70
     1
102
RTVSPropertyOp42
 70
     1
102
RTVSPropertyOp43
 70
     1
102
RTVSPropertyOp44
 70
     1
102
RTVSPropertyOp45
 70
     1
102
RTVSPropertyOp46
 70
     1
102
RTVSPropertyOp47
 70
     1
102
RTVSPropertyOp48
 70
     1
102
RTVSPropertyOp49
 70
     1
102
RTVSPropertyOp50
 70
     1
102
RTVSPropertyOp51
 70
     0
102
RTVSPropertyOp52
 70
     0
102
RTVSPropertyOp53
 70
     1
102
RTVSPropertyOp54
 70
     1
102
RTVSPropertyOp55
 70
     1
102
RTVSPropertyOp56
 70
     1
102
RTVSPropertyOp57
 70
     1
102
RTVSPropertyOp58
 70
     1
102
RTVSPropertyOp59
 70
     1
102
RTVSPropertyOp60
 70
     1
102
RTVSPropertyOp61
 70
     1
102
RTVSPropertyOp62
 70
     1
  0
XRECORD
  5
34B
102
{ACAD_REACTORS
330
34A
102
}
330
34A
100
AcDbXrecord
280
     1
102
RTVSPost2010Prop28
280
     0
102
RTVSPost2010PropOp28
 70
     1
102
RTVSPost2010Prop29
280
     1
102
RTVSPost2010PropOp29
 70
     1
102
RTVSPost2010Prop30
280
     1
102
RTVSPost2010PropOp30
 70
     1
102
RTVSPost2010Prop31
280
     0
102
RTVSPost2010PropOp31
 70
     1
102
RTVSPost2010Prop32
280
     0
102
RTVSPost2010PropOp32
 70
     1
102
RTVSPost2010Prop33
280
     0
102
RTVSPost2010PropOp33
 70
     1
102
RTVSPost2010Prop34
280
     0
102
RTVSPost2010PropOp34
 70
     1
102
RTVSPost2010Prop35
280
     0
102
RTVSPost2010PropOp35
 70
     1
102
RTVSPost2010Prop36
280
     0
102
RTVSPost2010PropOp36
 70
     1
102
RTVSPost2010Prop37
 90
       50
102
RTVSPost2010PropOp37
 70
     0
102
RTVSPost2010Prop38
140
0.0
102
RTVSPost2010PropOp38
 70
     0
102
RTVSPost2010Prop39
140
1.0
102
RTVSPost2010PropOp39
 70
     0
102
RTVSPost2010Prop40
 90
        0
102
RTVSPost2010PropOp40
 70
     0
102
RTVSPost2010Prop41ColorIndex
 90
       18
102
RTVSPost2010Prop41ColorRGB
 90
        0
102
RTVSPost2010PropOp41
 70
     0
102
RTVSPost2010Prop42
 90
       50
102
RTVSPost2010PropOp42
 70
     0
102
RTVSPost2010Prop43
 90
        3
102
RTVSPost2010PropOp43
 70
     0
102
RTVSPost2010Prop44ColorIndex
 90
        5
102
RTVSPost2010Prop44ColorRGB
 90
      255
102
RTVSPost2010PropOp44
 70
     0
102
RTVSPost2010Prop45
280
     0
102
RTVSPost2010PropOp45
 70
     1
102
RTVSPost2010Prop46
 90
       50
102
RTVSPost2010PropOp46
 70
     0
102
RTVSPost2010Prop47
 90
       50
102
RTVSPost2010PropOp47
 70
     0
102
RTVSPost2010Prop48
 90
       50
102
RTVSPost2010PropOp48
 70
     0
102
RTVSPost2010Prop49
280
     0
102
RTVSPost2010PropOp49
 70
     1
102
RTVSPost2010Prop50
 90
       50
102
RTVSPost2010PropOp50
 70
     0
102
RTVSPost2010Prop51ColorIndex
 90
      256
102
RTVSPost2010Prop51ColorRGB
 90
-16777216
102
RTVSPost2010PropOp51
 70
     0
102
RTVSPost2010Prop52
140
1.0
102
RTVSPost2010PropOp52
 70
     0
102
RTVSPost2010Prop53
 90
        2
102
RTVSPost2010PropOp53
 70
     0
102
RTVSPost2010Prop54
  1
strokes_ogs.tif
102
RTVSPost2010PropOp54
 70
     0
102
RTVSPost2010Prop55
280
     0
102
RTVSPost2010PropOp55
 70
     1
102
RTVSPost2010Prop56
140
1.0
102
RTVSPost2010PropOp56
 70
     0
102
RTVSPost2010Prop57
140
1.0
102
RTVSPost2010PropOp57
 70
     0
102
RTVSPropertyOp0
 70
     0
102
RTVSPropertyOp1
 70
     0
102
RTVSPropertyOp2
 70
     0
102
RTVSPropertyOp3
 70
     0
102
RTVSPropertyOp4
 70
     0
102
RTVSPropertyOp5
 70
     0
102
RTVSPropertyOp6
 70
     0
102
RTVSPropertyOp7
 70
     0
102
RTVSPropertyOp8
 70
     0
102
RTVSPropertyOp9
 70
     0
102
RTVSPropertyOp10
 70
     0
102
RTVSPropertyOp11
 70
     0
102
RTVSPropertyOp12
 70
     0
102
RTVSPropertyOp13
 70
     0
102
RTVSPropertyOp14
 70
     2
102
RTVSPropertyOp15
 70
     0
102
RTVSPropertyOp16
 70
     0
102
RTVSPropertyOp17
 70
     0
102
RTVSPropertyOp18
 70
     0
102
RTVSPropertyOp19
 70
     0
102
RTVSPropertyOp20
 70
     0
102
RTVSPropertyOp21
 70
     0
102
RTVSPropertyOp22
 70
     0
102
RTVSPropertyOp23
 70
     0
102
RTVSPropertyOp24
 70
     0
102
RTVSPropertyOp25
 70
     0
102
RTVSPropertyOp26
 70
     0
102
RTVSPropertyOp27
 70
     0
102
RTVSPropertyOp28
 70
     1
102
RTVSPropertyOp29
 70
     1
102
RTVSPropertyOp30
 70
     1
102
RTVSPropertyOp31
 70
     1
102
RTVSPropertyOp32
 70
     1
102
RTVSPropertyOp33
 70
     1
102
RTVSPropertyOp34
 70
     1
102
RTVSPropertyOp35
 70
     1
102
RTVSPropertyOp36
 70
     1
102
RTVSPropertyOp37
 70
     0
102
RTVSPropertyOp38
 70
     0
102
RTVSPropertyOp39
 70
     0
102
RTVSPropertyOp40
 70
     0
102
RTVSPropertyOp41
 70
     0
102
RTVSPropertyOp42
 70
     0
102
RTVSPropertyOp43
 70
     0
102
RTVSPropertyOp44
 70
     0
102
RTVSPropertyOp45
 70
     1
102
RTVSPropertyOp46
 70
     0
102
RTVSPropertyOp47
 70
     0
102
RTVSPropertyOp48
 70
     0
102
RTVSPropertyOp49
 70
     1
102
RTVSPropertyOp50
 70
     0
102
RTVSPropertyOp51
 70
     0
102
RTVSPropertyOp52
 70
     0
102
RTVSPropertyOp53
 70
     0
102
RTVSPropertyOp54
 70
     0
102
RTVSPropertyOp55
 70
     1
102
RTVSPropertyOp56
 70
     0
102
RTVSPropertyOp57
 70
     0
102
RTVSPropertyOp58
 70
     1
102
RTVSPropertyOp59
 70
     1
102
RTVSPropertyOp60
 70
     1
102
RTVSPropertyOp61
 70
     1
102
RTVSPropertyOp62
 70
     1
  0
XRECORD
  5
331
102
{ACAD_REACTORS
330
330
102
}
330
330
100
AcDbXrecord
280
     1
102
RTVSPost2010Prop28
280
     0
102
RTVSPost2010PropOp28
 70
     1
102
RTVSPost2010Prop29
280
     1
102
RTVSPost2010PropOp29
 70
     1
102
RTVSPost2010Prop30
280
     1
102
RTVSPost2010PropOp30
 70
     1
102
RTVSPost2010Prop31
280
     0
102
RTVSPost2010PropOp31
 70
     1
102
RTVSPost2010Prop32
280
     0
102
RTVSPost2010PropOp32
 70
     1
102
RTVSPost2010Prop33
280
     0
102
RTVSPost2010PropOp33
 70
     1
102
RTVSPost2010Prop34
280
     0
102
RTVSPost2010PropOp34
 70
     1
102
RTVSPost2010Prop35
280
     0
102
RTVSPost2010PropOp35
 70
     1
102
RTVSPost2010Prop36
280
     0
102
RTVSPost2010PropOp36
 70
     1
102
RTVSPost2010Prop37
 90
       50
102
RTVSPost2010PropOp37
 70
     1
102
RTVSPost2010Prop38
140
0.0
102
RTVSPost2010PropOp38
 70
     1
102
RTVSPost2010Prop39
140
1.0
102
RTVSPost2010PropOp39
 70
     1
102
RTVSPost2010Prop40
 90
        0
102
RTVSPost2010PropOp40
 70
     1
102
RTVSPost2010Prop41ColorIndex
 90
       18
102
RTVSPost2010Prop41ColorRGB
 90
        0
102
RTVSPost2010PropOp41
 70
     1
102
RTVSPost2010Prop42
 90
       50
102
RTVSPost2010PropOp42
 70
     1
102
RTVSPost2010Prop43
 90
        3
102
RTVSPost2010PropOp43
 70
     1
102
RTVSPost2010Prop44ColorIndex
 90
        5
102
RTVSPost2010Prop44ColorRGB
 90
      255
102
RTVSPost2010PropOp44
 70
     1
102
RTVSPost2010Prop45
280
     0
102
RTVSPost2010PropOp45
 70
     1
102
RTVSPost2010Prop46
 90
       50
102
RTVSPost2010PropOp46
 70
     1
102
RTVSPost2010Prop47
 90
       50
102
RTVSPost2010PropOp47
 70
     1
102
RTVSPost2010Prop48
 90
       50
102
RTVSPost2010PropOp48
 70
     1
102
RTVSPost2010Prop49
280
     0
102
RTVSPost2010PropOp49
 70
     1
102
RTVSPost2010Prop50
 90
       50
102
RTVSPost2010PropOp50
 70
     1
102
RTVSPost2010Prop51ColorIndex
 90
      256
102
RTVSPost2010Prop51ColorRGB
 90
-16777216
102
RTVSPost2010PropOp51
 70
     0
102
RTVSPost2010Prop52
140
1.0
102
RTVSPost2010PropOp52
 70
     0
102
RTVSPost2010Prop53
 90
        2
102
RTVSPost2010PropOp53
 70
     1
102
RTVSPost2010Prop54
  1
strokes_ogs.tif
102
RTVSPost2010PropOp54
 70
     1
102
RTVSPost2010Prop55
280
     0
102
RTVSPost2010PropOp55
 70
     1
102
RTVSPost2010Prop56
140
1.0
102
RTVSPost2010PropOp56
 70
     1
102
RTVSPost2010Prop57
140
1.0
102
RTVSPost2010PropOp57
 70
     1
102
RTVSPropertyOp0
 70
     1
102
RTVSPropertyOp1
 70
     1
102
RTVSPropertyOp2
 70
     1
102
RTVSPropertyOp3
 70
     1
102
RTVSPropertyOp4
 70
     1
102
RTVSPropertyOp5
 70
     1
102
RTVSPropertyOp6
 70
     1
102
RTVSPropertyOp7
 70
     1
102
RTVSPropertyOp8
 70
     1
102
RTVSPropertyOp9
 70
     1
102
RTVSPropertyOp10
 70
     1
102
RTVSPropertyOp11
 70
     1
102
RTVSPropertyOp12
 70
     1
102
RTVSPropertyOp13
 70
     1
102
RTVSPropertyOp14
 70
     1
102
RTVSPropertyOp15
 70
     1
102
RTVSPropertyOp16
 70
     1
102
RTVSPropertyOp17
 70
     1
102
RTVSPropertyOp18
 70
     1
102
RTVSPropertyOp19
 70
     1
102
RTVSPropertyOp20
 70
     1
102
RTVSPropertyOp21
 70
     1
102
RTVSPropertyOp22
 70
     1
102
RTVSPropertyOp23
 70
     1
102
RTVSPropertyOp24
 70
     1
102
RTVSPropertyOp25
 70
     1
102
RTVSPropertyOp26
 70
     1
102
RTVSPropertyOp27
 70
     1
102
RTVSPropertyOp28
 70
     1
102
RTVSPropertyOp29
 70
     1
102
RTVSPropertyOp30
 70
     1
102
RTVSPropertyOp31
 70
     1
102
RTVSPropertyOp32
 70
     1
102
RTVSPropertyOp33
 70
     1
102
RTVSPropertyOp34
 70
     1
102
RTVSPropertyOp35
 70
     1
102
RTVSPropertyOp36
 70
     1
102
RTVSPropertyOp37
 70
     1
102
RTVSPropertyOp38
 70
     1
102
RTVSPropertyOp39
 70
     1
102
RTVSPropertyOp40
 70
     1
102
RTVSPropertyOp41
 70
     1
102
RTVSPropertyOp42
 70
     1
102
RTVSPropertyOp43
 70
     1
102
RTVSPropertyOp44
 70
     1
102
RTVSPropertyOp45
 70
     1
102
RTVSPropertyOp46
 70
     1
102
RTVSPropertyOp47
 70
     1
102
RTVSPropertyOp48
 70
     1
102
RTVSPropertyOp49
 70
     1
102
RTVSPropertyOp50
 70
     1
102
RTVSPropertyOp51
 70
     0
102
RTVSPropertyOp52
 70
     0
102
RTVSPropertyOp53
 70
     1
102
RTVSPropertyOp54
 70
     1
102
RTVSPropertyOp55
 70
     1
102
RTVSPropertyOp56
 70
     1
102
RTVSPropertyOp57
 70
     1
102
RTVSPropertyOp58
 70
     1
102
RTVSPropertyOp59
 70
     1
102
RTVSPropertyOp60
 70
     1
102
RTVSPropertyOp61
 70
     1
102
RTVSPropertyOp62
 70
     1
  0
XRECORD
  5
347
102
{ACAD_REACTORS
330
346
102
}
330
346
100
AcDbXrecord
280
     1
102
RTVSPost2010Prop28
280
     0
102
RTVSPost2010PropOp28
 70
     1
102
RTVSPost2010Prop29
280
     1
102
RTVSPost2010PropOp29
 70
     1
102
RTVSPost2010Prop30
280
     1
102
RTVSPost2010PropOp30
 70
     1
102
RTVSPost2010Prop31
280
     0
102
RTVSPost2010PropOp31
 70
     1
102
RTVSPost2010Prop32
280
     0
102
RTVSPost2010PropOp32
 70
     1
102
RTVSPost2010Prop33
280
     0
102
RTVSPost2010PropOp33
 70
     1
102
RTVSPost2010Prop34
280
     0
102
RTVSPost2010PropOp34
 70
     1
102
RTVSPost2010Prop35
280
     0
102
RTVSPost2010PropOp35
 70
     1
102
RTVSPost2010Prop36
280
     0
102
RTVSPost2010PropOp36
 70
     1
102
RTVSPost2010Prop37
 90
       50
102
RTVSPost2010PropOp37
 70
     1
102
RTVSPost2010Prop38
140
0.0
102
RTVSPost2010PropOp38
 70
     1
102
RTVSPost2010Prop39
140
1.0
102
RTVSPost2010PropOp39
 70
     1
102
RTVSPost2010Prop40
 90
        0
102
RTVSPost2010PropOp40
 70
     1
102
RTVSPost2010Prop41ColorIndex
 90
       18
102
RTVSPost2010Prop41ColorRGB
 90
        0
102
RTVSPost2010PropOp41
 70
     1
102
RTVSPost2010Prop42
 90
       50
102
RTVSPost2010PropOp42
 70
     1
102
RTVSPost2010Prop43
 90
        3
102
RTVSPost2010PropOp43
 70
     1
102
RTVSPost2010Prop44ColorIndex
 90
        5
102
RTVSPost2010Prop44ColorRGB
 90
      255
102
RTVSPost2010PropOp44
 70
     1
102
RTVSPost2010Prop45
280
     0
102
RTVSPost2010PropOp45
 70
     1
102
RTVSPost2010Prop46
 90
       50
102
RTVSPost2010PropOp46
 70
     1
102
RTVSPost2010Prop47
 90
       50
102
RTVSPost2010PropOp47
 70
     1
102
RTVSPost2010Prop48
 90
       50
102
RTVSPost2010PropOp48
 70
     1
102
RTVSPost2010Prop49
280
     0
102
RTVSPost2010PropOp49
 70
     1
102
RTVSPost2010Prop50
 90
       50
102
RTVSPost2010PropOp50
 70
     1
102
RTVSPost2010Prop51ColorIndex
 90
      256
102
RTVSPost2010Prop51ColorRGB
 90
-16777216
102
RTVSPost2010PropOp51
 70
     0
102
RTVSPost2010Prop52
140
1.0
102
RTVSPost2010PropOp52
 70
     0
102
RTVSPost2010Prop53
 90
        2
102
RTVSPost2010PropOp53
 70
     1
102
RTVSPost2010Prop54
  1
strokes_ogs.tif
102
RTVSPost2010PropOp54
 70
     1
102
RTVSPost2010Prop55
280
     0
102
RTVSPost2010PropOp55
 70
     1
102
RTVSPost2010Prop56
140
1.0
102
RTVSPost2010PropOp56
 70
     1
102
RTVSPost2010Prop57
140
1.0
102
RTVSPost2010PropOp57
 70
     1
102
RTVSPropertyOp0
 70
     1
102
RTVSPropertyOp1
 70
     1
102
RTVSPropertyOp2
 70
     1
102
RTVSPropertyOp3
 70
     1
102
RTVSPropertyOp4
 70
     1
102
RTVSPropertyOp5
 70
     1
102
RTVSPropertyOp6
 70
     1
102
RTVSPropertyOp7
 70
     1
102
RTVSPropertyOp8
 70
     1
102
RTVSPropertyOp9
 70
     1
102
RTVSPropertyOp10
 70
     1
102
RTVSPropertyOp11
 70
     1
102
RTVSPropertyOp12
 70
     1
102
RTVSPropertyOp13
 70
     1
102
RTVSPropertyOp14
 70
     1
102
RTVSPropertyOp15
 70
     1
102
RTVSPropertyOp16
 70
     1
102
RTVSPropertyOp17
 70
     1
102
RTVSPropertyOp18
 70
     1
102
RTVSPropertyOp19
 70
     1
102
RTVSPropertyOp20
 70
     1
102
RTVSPropertyOp21
 70
     1
102
RTVSPropertyOp22
 70
     1
102
RTVSPropertyOp23
 70
     1
102
RTVSPropertyOp24
 70
     1
102
RTVSPropertyOp25
 70
     1
102
RTVSPropertyOp26
 70
     1
102
RTVSPropertyOp27
 70
     1
102
RTVSPropertyOp28
 70
     1
102
RTVSPropertyOp29
 70
     1
102
RTVSPropertyOp30
 70
     1
102
RTVSPropertyOp31
 70
     1
102
RTVSPropertyOp32
 70
     1
102
RTVSPropertyOp33
 70
     1
102
RTVSPropertyOp34
 70
     1
102
RTVSPropertyOp35
 70
     1
102
RTVSPropertyOp36
 70
     1
102
RTVSPropertyOp37
 70
     1
102
RTVSPropertyOp38
 70
     1
102
RTVSPropertyOp39
 70
     1
102
RTVSPropertyOp40
 70
     1
102
RTVSPropertyOp41
 70
     1
102
RTVSPropertyOp42
 70
     1
102
RTVSPropertyOp43
 70
     1
102
RTVSPropertyOp44
 70
     1
102
RTVSPropertyOp45
 70
     1
102
RTVSPropertyOp46
 70
     1
102
RTVSPropertyOp47
 70
     1
102
RTVSPropertyOp48
 70
     1
102
RTVSPropertyOp49
 70
     1
102
RTVSPropertyOp50
 70
     1
102
RTVSPropertyOp51
 70
     0
102
RTVSPropertyOp52
 70
     0
102
RTVSPropertyOp53
 70
     1
102
RTVSPropertyOp54
 70
     1
102
RTVSPropertyOp55
 70
     1
102
RTVSPropertyOp56
 70
     1
102
RTVSPropertyOp57
 70
     1
102
RTVSPropertyOp58
 70
     1
102
RTVSPropertyOp59
 70
     1
102
RTVSPropertyOp60
 70
     1
102
RTVSPropertyOp61
 70
     1
102
RTVSPropertyOp62
 70
     1
  0
XRECORD
  5
345
102
{ACAD_REACTORS
330
344
102
}
330
344
100
AcDbXrecord
280
     1
102
RTVSPost2010Prop28
280
     0
102
RTVSPost2010PropOp28
 70
     1
102
RTVSPost2010Prop29
280
     1
102
RTVSPost2010PropOp29
 70
     1
102
RTVSPost2010Prop30
280
     1
102
RTVSPost2010PropOp30
 70
     1
102
RTVSPost2010Prop31
280
     0
102
RTVSPost2010PropOp31
 70
     1
102
RTVSPost2010Prop32
280
     0
102
RTVSPost2010PropOp32
 70
     1
102
RTVSPost2010Prop33
280
     0
102
RTVSPost2010PropOp33
 70
     1
102
RTVSPost2010Prop34
280
     0
102
RTVSPost2010PropOp34
 70
     1
102
RTVSPost2010Prop35
280
     0
102
RTVSPost2010PropOp35
 70
     1
102
RTVSPost2010Prop36
280
     0
102
RTVSPost2010PropOp36
 70
     1
102
RTVSPost2010Prop37
 90
       50
102
RTVSPost2010PropOp37
 70
     1
102
RTVSPost2010Prop38
140
0.0
102
RTVSPost2010PropOp38
 70
     1
102
RTVSPost2010Prop39
140
1.0
102
RTVSPost2010PropOp39
 70
     1
102
RTVSPost2010Prop40
 90
        0
102
RTVSPost2010PropOp40
 70
     1
102
RTVSPost2010Prop41ColorIndex
 90
       18
102
RTVSPost2010Prop41ColorRGB
 90
        0
102
RTVSPost2010PropOp41
 70
     1
102
RTVSPost2010Prop42
 90
       50
102
RTVSPost2010PropOp42
 70
     1
102
RTVSPost2010Prop43
 90
        3
102
RTVSPost2010PropOp43
 70
     1
102
RTVSPost2010Prop44ColorIndex
 90
        5
102
RTVSPost2010Prop44ColorRGB
 90
      255
102
RTVSPost2010PropOp44
 70
     1
102
RTVSPost2010Prop45
280
     0
102
RTVSPost2010PropOp45
 70
     1
102
RTVSPost2010Prop46
 90
       50
102
RTVSPost2010PropOp46
 70
     1
102
RTVSPost2010Prop47
 90
       50
102
RTVSPost2010PropOp47
 70
     1
102
RTVSPost2010Prop48
 90
       50
102
RTVSPost2010PropOp48
 70
     1
102
RTVSPost2010Prop49
280
     0
102
RTVSPost2010PropOp49
 70
     1
102
RTVSPost2010Prop50
 90
       50
102
RTVSPost2010PropOp50
 70
     1
102
RTVSPost2010Prop51ColorIndex
 90
      256
102
RTVSPost2010Prop51ColorRGB
 90
-16777216
102
RTVSPost2010PropOp51
 70
     0
102
RTVSPost2010Prop52
140
1.0
102
RTVSPost2010PropOp52
 70
     0
102
RTVSPost2010Prop53
 90
        2
102
RTVSPost2010PropOp53
 70
     1
102
RTVSPost2010Prop54
  1
strokes_ogs.tif
102
RTVSPost2010PropOp54
 70
     1
102
RTVSPost2010Prop55
280
     0
102
RTVSPost2010PropOp55
 70
     1
102
RTVSPost2010Prop56
140
1.0
102
RTVSPost2010PropOp56
 70
     1
102
RTVSPost2010Prop57
140
1.0
102
RTVSPost2010PropOp57
 70
     1
102
RTVSPropertyOp0
 70
     1
102
RTVSPropertyOp1
 70
     1
102
RTVSPropertyOp2
 70
     1
102
RTVSPropertyOp3
 70
     1
102
RTVSPropertyOp4
 70
     1
102
RTVSPropertyOp5
 70
     1
102
RTVSPropertyOp6
 70
     1
102
RTVSPropertyOp7
 70
     1
102
RTVSPropertyOp8
 70
     1
102
RTVSPropertyOp9
 70
     1
102
RTVSPropertyOp10
 70
     1
102
RTVSPropertyOp11
 70
     1
102
RTVSPropertyOp12
 70
     1
102
RTVSPropertyOp13
 70
     1
102
RTVSPropertyOp14
 70
     1
102
RTVSPropertyOp15
 70
     1
102
RTVSPropertyOp16
 70
     1
102
RTVSPropertyOp17
 70
     1
102
RTVSPropertyOp18
 70
     1
102
RTVSPropertyOp19
 70
     1
102
RTVSPropertyOp20
 70
     1
102
RTVSPropertyOp21
 70
     1
102
RTVSPropertyOp22
 70
     1
102
RTVSPropertyOp23
 70
     1
102
RTVSPropertyOp24
 70
     1
102
RTVSPropertyOp25
 70
     1
102
RTVSPropertyOp26
 70
     1
102
RTVSPropertyOp27
 70
     1
102
RTVSPropertyOp28
 70
     1
102
RTVSPropertyOp29
 70
     1
102
RTVSPropertyOp30
 70
     1
102
RTVSPropertyOp31
 70
     1
102
RTVSPropertyOp32
 70
     1
102
RTVSPropertyOp33
 70
     1
102
RTVSPropertyOp34
 70
     1
102
RTVSPropertyOp35
 70
     1
102
RTVSPropertyOp36
 70
     1
102
RTVSPropertyOp37
 70
     1
102
RTVSPropertyOp38
 70
     1
102
RTVSPropertyOp39
 70
     1
102
RTVSPropertyOp40
 70
     1
102
RTVSPropertyOp41
 70
     1
102
RTVSPropertyOp42
 70
     1
102
RTVSPropertyOp43
 70
     1
102
RTVSPropertyOp44
 70
     1
102
RTVSPropertyOp45
 70
     1
102
RTVSPropertyOp46
 70
     1
102
RTVSPropertyOp47
 70
     1
102
RTVSPropertyOp48
 70
     1
102
RTVSPropertyOp49
 70
     1
102
RTVSPropertyOp50
 70
     1
102
RTVSPropertyOp51
 70
     0
102
RTVSPropertyOp52
 70
     0
102
RTVSPropertyOp53
 70
     1
102
RTVSPropertyOp54
 70
     1
102
RTVSPropertyOp55
 70
     1
102
RTVSPropertyOp56
 70
     1
102
RTVSPropertyOp57
 70
     1
102
RTVSPropertyOp58
 70
     1
102
RTVSPropertyOp59
 70
     1
102
RTVSPropertyOp60
 70
     1
102
RTVSPropertyOp61
 70
     1
102
RTVSPropertyOp62
 70
     1
  0
XRECORD
  5
33F
102
{ACAD_REACTORS
330
33E
102
}
330
33E
100
AcDbXrecord
280
     1
102
RTVSPost2010Prop28
280
     0
102
RTVSPost2010PropOp28
 70
     1
102
RTVSPost2010Prop29
280
     1
102
RTVSPost2010PropOp29
 70
     1
102
RTVSPost2010Prop30
280
     1
102
RTVSPost2010PropOp30
 70
     1
102
RTVSPost2010Prop31
280
     0
102
RTVSPost2010PropOp31
 70
     1
102
RTVSPost2010Prop32
280
     0
102
RTVSPost2010PropOp32
 70
     1
102
RTVSPost2010Prop33
280
     0
102
RTVSPost2010PropOp33
 70
     1
102
RTVSPost2010Prop34
280
     0
102
RTVSPost2010PropOp34
 70
     1
102
RTVSPost2010Prop35
280
     0
102
RTVSPost2010PropOp35
 70
     1
102
RTVSPost2010Prop36
280
     0
102
RTVSPost2010PropOp36
 70
     1
102
RTVSPost2010Prop37
 90
       50
102
RTVSPost2010PropOp37
 70
     1
102
RTVSPost2010Prop38
140
0.0
102
RTVSPost2010PropOp38
 70
     1
102
RTVSPost2010Prop39
140
1.0
102
RTVSPost2010PropOp39
 70
     1
102
RTVSPost2010Prop40
 90
        0
102
RTVSPost2010PropOp40
 70
     1
102
RTVSPost2010Prop41ColorIndex
 90
       18
102
RTVSPost2010Prop41ColorRGB
 90
        0
102
RTVSPost2010PropOp41
 70
     1
102
RTVSPost2010Prop42
 90
       50
102
RTVSPost2010PropOp42
 70
     1
102
RTVSPost2010Prop43
 90
        3
102
RTVSPost2010PropOp43
 70
     1
102
RTVSPost2010Prop44ColorIndex
 90
        5
102
RTVSPost2010Prop44ColorRGB
 90
      255
102
RTVSPost2010PropOp44
 70
     1
102
RTVSPost2010Prop45
280
     0
102
RTVSPost2010PropOp45
 70
     1
102
RTVSPost2010Prop46
 90
       50
102
RTVSPost2010PropOp46
 70
     1
102
RTVSPost2010Prop47
 90
       50
102
RTVSPost2010PropOp47
 70
     1
102
RTVSPost2010Prop48
 90
       50
102
RTVSPost2010PropOp48
 70
     1
102
RTVSPost2010Prop49
280
     0
102
RTVSPost2010PropOp49
 70
     1
102
RTVSPost2010Prop50
 90
       50
102
RTVSPost2010PropOp50
 70
     1
102
RTVSPost2010Prop51ColorIndex
 90
      256
102
RTVSPost2010Prop51ColorRGB
 90
-16777216
102
RTVSPost2010PropOp51
 70
     0
102
RTVSPost2010Prop52
140
1.0
102
RTVSPost2010PropOp52
 70
     0
102
RTVSPost2010Prop53
 90
        2
102
RTVSPost2010PropOp53
 70
     1
102
RTVSPost2010Prop54
  1
strokes_ogs.tif
102
RTVSPost2010PropOp54
 70
     1
102
RTVSPost2010Prop55
280
     0
102
RTVSPost2010PropOp55
 70
     1
102
RTVSPost2010Prop56
140
1.0
102
RTVSPost2010PropOp56
 70
     1
102
RTVSPost2010Prop57
140
1.0
102
RTVSPost2010PropOp57
 70
     1
102
RTVSPropertyOp0
 70
     1
102
RTVSPropertyOp1
 70
     1
102
RTVSPropertyOp2
 70
     1
102
RTVSPropertyOp3
 70
     1
102
RTVSPropertyOp4
 70
     1
102
RTVSPropertyOp5
 70
     1
102
RTVSPropertyOp6
 70
     1
102
RTVSPropertyOp7
 70
     1
102
RTVSPropertyOp8
 70
     1
102
RTVSPropertyOp9
 70
     1
102
RTVSPropertyOp10
 70
     1
102
RTVSPropertyOp11
 70
     1
102
RTVSPropertyOp12
 70
     1
102
RTVSPropertyOp13
 70
     1
102
RTVSPropertyOp14
 70
     1
102
RTVSPropertyOp15
 70
     1
102
RTVSPropertyOp16
 70
     1
102
RTVSPropertyOp17
 70
     1
102
RTVSPropertyOp18
 70
     1
102
RTVSPropertyOp19
 70
     1
102
RTVSPropertyOp20
 70
     1
102
RTVSPropertyOp21
 70
     1
102
RTVSPropertyOp22
 70
     1
102
RTVSPropertyOp23
 70
     1
102
RTVSPropertyOp24
 70
     1
102
RTVSPropertyOp25
 70
     1
102
RTVSPropertyOp26
 70
     1
102
RTVSPropertyOp27
 70
     1
102
RTVSPropertyOp28
 70
     1
102
RTVSPropertyOp29
 70
     1
102
RTVSPropertyOp30
 70
     1
102
RTVSPropertyOp31
 70
     1
102
RTVSPropertyOp32
 70
     1
102
RTVSPropertyOp33
 70
     1
102
RTVSPropertyOp34
 70
     1
102
RTVSPropertyOp35
 70
     1
102
RTVSPropertyOp36
 70
     1
102
RTVSPropertyOp37
 70
     1
102
RTVSPropertyOp38
 70
     1
102
RTVSPropertyOp39
 70
     1
102
RTVSPropertyOp40
 70
     1
102
RTVSPropertyOp41
 70
     1
102
RTVSPropertyOp42
 70
     1
102
RTVSPropertyOp43
 70
     1
102
RTVSPropertyOp44
 70
     1
102
RTVSPropertyOp45
 70
     1
102
RTVSPropertyOp46
 70
     1
102
RTVSPropertyOp47
 70
     1
102
RTVSPropertyOp48
 70
     1
102
RTVSPropertyOp49
 70
     1
102
RTVSPropertyOp50
 70
     1
102
RTVSPropertyOp51
 70
     0
102
RTVSPropertyOp52
 70
     0
102
RTVSPropertyOp53
 70
     1
102
RTVSPropertyOp54
 70
     1
102
RTVSPropertyOp55
 70
     1
102
RTVSPropertyOp56
 70
     1
102
RTVSPropertyOp57
 70
     1
102
RTVSPropertyOp58
 70
     1
102
RTVSPropertyOp59
 70
     1
102
RTVSPropertyOp60
 70
     1
102
RTVSPropertyOp61
 70
     1
102
RTVSPropertyOp62
 70
     1
  0
XRECORD
  5
341
102
{ACAD_REACTORS
330
340
102
}
330
340
100
AcDbXrecord
280
     1
102
RTVSPost2010Prop28
280
     0
102
RTVSPost2010PropOp28
 70
     1
102
RTVSPost2010Prop29
280
     1
102
RTVSPost2010PropOp29
 70
     1
102
RTVSPost2010Prop30
280
     1
102
RTVSPost2010PropOp30
 70
     1
102
RTVSPost2010Prop31
280
     0
102
RTVSPost2010PropOp31
 70
     1
102
RTVSPost2010Prop32
280
     0
102
RTVSPost2010PropOp32
 70
     1
102
RTVSPost2010Prop33
280
     0
102
RTVSPost2010PropOp33
 70
     1
102
RTVSPost2010Prop34
280
     0
102
RTVSPost2010PropOp34
 70
     1
102
RTVSPost2010Prop35
280
     0
102
RTVSPost2010PropOp35
 70
     1
102
RTVSPost2010Prop36
280
     0
102
RTVSPost2010PropOp36
 70
     1
102
RTVSPost2010Prop37
 90
       50
102
RTVSPost2010PropOp37
 70
     1
102
RTVSPost2010Prop38
140
0.0
102
RTVSPost2010PropOp38
 70
     1
102
RTVSPost2010Prop39
140
1.0
102
RTVSPost2010PropOp39
 70
     1
102
RTVSPost2010Prop40
 90
        0
102
RTVSPost2010PropOp40
 70
     1
102
RTVSPost2010Prop41ColorIndex
 90
       18
102
RTVSPost2010Prop41ColorRGB
 90
        0
102
RTVSPost2010PropOp41
 70
     1
102
RTVSPost2010Prop42
 90
       50
102
RTVSPost2010PropOp42
 70
     1
102
RTVSPost2010Prop43
 90
        3
102
RTVSPost2010PropOp43
 70
     1
102
RTVSPost2010Prop44ColorIndex
 90
        5
102
RTVSPost2010Prop44ColorRGB
 90
      255
102
RTVSPost2010PropOp44
 70
     1
102
RTVSPost2010Prop45
280
     0
102
RTVSPost2010PropOp45
 70
     1
102
RTVSPost2010Prop46
 90
       50
102
RTVSPost2010PropOp46
 70
     1
102
RTVSPost2010Prop47
 90
       50
102
RTVSPost2010PropOp47
 70
     1
102
RTVSPost2010Prop48
 90
       50
102
RTVSPost2010PropOp48
 70
     1
102
RTVSPost2010Prop49
280
     0
102
RTVSPost2010PropOp49
 70
     1
102
RTVSPost2010Prop50
 90
       50
102
RTVSPost2010PropOp50
 70
     1
102
RTVSPost2010Prop51ColorIndex
 90
      256
102
RTVSPost2010Prop51ColorRGB
 90
-16777216
102
RTVSPost2010PropOp51
 70
     0
102
RTVSPost2010Prop52
140
1.0
102
RTVSPost2010PropOp52
 70
     0
102
RTVSPost2010Prop53
 90
        2
102
RTVSPost2010PropOp53
 70
     1
102
RTVSPost2010Prop54
  1
strokes_ogs.tif
102
RTVSPost2010PropOp54
 70
     1
102
RTVSPost2010Prop55
280
     0
102
RTVSPost2010PropOp55
 70
     1
102
RTVSPost2010Prop56
140
1.0
102
RTVSPost2010PropOp56
 70
     1
102
RTVSPost2010Prop57
140
1.0
102
RTVSPost2010PropOp57
 70
     1
102
RTVSPropertyOp0
 70
     1
102
RTVSPropertyOp1
 70
     1
102
RTVSPropertyOp2
 70
     1
102
RTVSPropertyOp3
 70
     1
102
RTVSPropertyOp4
 70
     1
102
RTVSPropertyOp5
 70
     1
102
RTVSPropertyOp6
 70
     1
102
RTVSPropertyOp7
 70
     1
102
RTVSPropertyOp8
 70
     1
102
RTVSPropertyOp9
 70
     1
102
RTVSPropertyOp10
 70
     1
102
RTVSPropertyOp11
 70
     1
102
RTVSPropertyOp12
 70
     1
102
RTVSPropertyOp13
 70
     1
102
RTVSPropertyOp14
 70
     1
102
RTVSPropertyOp15
 70
     1
102
RTVSPropertyOp16
 70
     1
102
RTVSPropertyOp17
 70
     1
102
RTVSPropertyOp18
 70
     1
102
RTVSPropertyOp19
 70
     1
102
RTVSPropertyOp20
 70
     1
102
RTVSPropertyOp21
 70
     1
102
RTVSPropertyOp22
 70
     1
102
RTVSPropertyOp23
 70
     1
102
RTVSPropertyOp24
 70
     1
102
RTVSPropertyOp25
 70
     1
102
RTVSPropertyOp26
 70
     1
102
RTVSPropertyOp27
 70
     1
102
RTVSPropertyOp28
 70
     1
102
RTVSPropertyOp29
 70
     1
102
RTVSPropertyOp30
 70
     1
102
RTVSPropertyOp31
 70
     1
102
RTVSPropertyOp32
 70
     1
102
RTVSPropertyOp33
 70
     1
102
RTVSPropertyOp34
 70
     1
102
RTVSPropertyOp35
 70
     1
102
RTVSPropertyOp36
 70
     1
102
RTVSPropertyOp37
 70
     1
102
RTVSPropertyOp38
 70
     1
102
RTVSPropertyOp39
 70
     1
102
RTVSPropertyOp40
 70
     1
102
RTVSPropertyOp41
 70
     1
102
RTVSPropertyOp42
 70
     1
102
RTVSPropertyOp43
 70
     1
102
RTVSPropertyOp44
 70
     1
102
RTVSPropertyOp45
 70
     1
102
RTVSPropertyOp46
 70
     1
102
RTVSPropertyOp47
 70
     1
102
RTVSPropertyOp48
 70
     1
102
RTVSPropertyOp49
 70
     1
102
RTVSPropertyOp50
 70
     1
102
RTVSPropertyOp51
 70
     0
102
RTVSPropertyOp52
 70
     0
102
RTVSPropertyOp53
 70
     1
102
RTVSPropertyOp54
 70
     1
102
RTVSPropertyOp55
 70
     1
102
RTVSPropertyOp56
 70
     1
102
RTVSPropertyOp57
 70
     1
102
RTVSPropertyOp58
 70
     1
102
RTVSPropertyOp59
 70
     1
102
RTVSPropertyOp60
 70
     1
102
RTVSPropertyOp61
 70
     1
102
RTVSPropertyOp62
 70
     1
  0
XRECORD
  5
337
102
{ACAD_REACTORS
330
336
102
}
330
336
100
AcDbXrecord
280
     1
102
RTVSPost2010Prop28
280
     0
102
RTVSPost2010PropOp28
 70
     1
102
RTVSPost2010Prop29
280
     1
102
RTVSPost2010PropOp29
 70
     1
102
RTVSPost2010Prop30
280
     1
102
RTVSPost2010PropOp30
 70
     1
102
RTVSPost2010Prop31
280
     0
102
RTVSPost2010PropOp31
 70
     1
102
RTVSPost2010Prop32
280
     0
102
RTVSPost2010PropOp32
 70
     1
102
RTVSPost2010Prop33
280
     0
102
RTVSPost2010PropOp33
 70
     1
102
RTVSPost2010Prop34
280
     0
102
RTVSPost2010PropOp34
 70
     1
102
RTVSPost2010Prop35
280
     0
102
RTVSPost2010PropOp35
 70
     1
102
RTVSPost2010Prop36
280
     0
102
RTVSPost2010PropOp36
 70
     1
102
RTVSPost2010Prop37
 90
       50
102
RTVSPost2010PropOp37
 70
     1
102
RTVSPost2010Prop38
140
0.0
102
RTVSPost2010PropOp38
 70
     1
102
RTVSPost2010Prop39
140
1.0
102
RTVSPost2010PropOp39
 70
     1
102
RTVSPost2010Prop40
 90
        0
102
RTVSPost2010PropOp40
 70
     1
102
RTVSPost2010Prop41ColorIndex
 90
       18
102
RTVSPost2010Prop41ColorRGB
 90
        0
102
RTVSPost2010PropOp41
 70
     1
102
RTVSPost2010Prop42
 90
       50
102
RTVSPost2010PropOp42
 70
     1
102
RTVSPost2010Prop43
 90
        3
102
RTVSPost2010PropOp43
 70
     1
102
RTVSPost2010Prop44ColorIndex
 90
        5
102
RTVSPost2010Prop44ColorRGB
 90
      255
102
RTVSPost2010PropOp44
 70
     1
102
RTVSPost2010Prop45
280
     0
102
RTVSPost2010PropOp45
 70
     1
102
RTVSPost2010Prop46
 90
       50
102
RTVSPost2010PropOp46
 70
     1
102
RTVSPost2010Prop47
 90
       50
102
RTVSPost2010PropOp47
 70
     1
102
RTVSPost2010Prop48
 90
       50
102
RTVSPost2010PropOp48
 70
     1
102
RTVSPost2010Prop49
280
     0
102
RTVSPost2010PropOp49
 70
     1
102
RTVSPost2010Prop50
 90
       50
102
RTVSPost2010PropOp50
 70
     1
102
RTVSPost2010Prop51ColorIndex
 90
      256
102
RTVSPost2010Prop51ColorRGB
 90
-16777216
102
RTVSPost2010PropOp51
 70
     0
102
RTVSPost2010Prop52
140
1.0
102
RTVSPost2010PropOp52
 70
     0
102
RTVSPost2010Prop53
 90
        2
102
RTVSPost2010PropOp53
 70
     1
102
RTVSPost2010Prop54
  1
strokes_ogs.tif
102
RTVSPost2010PropOp54
 70
     1
102
RTVSPost2010Prop55
280
     0
102
RTVSPost2010PropOp55
 70
     1
102
RTVSPost2010Prop56
140
1.0
102
RTVSPost2010PropOp56
 70
     1
102
RTVSPost2010Prop57
140
1.0
102
RTVSPost2010PropOp57
 70
     1
102
RTVSPropertyOp0
 70
     1
102
RTVSPropertyOp1
 70
     1
102
RTVSPropertyOp2
 70
     1
102
RTVSPropertyOp3
 70
     1
102
RTVSPropertyOp4
 70
     1
102
RTVSPropertyOp5
 70
     1
102
RTVSPropertyOp6
 70
     1
102
RTVSPropertyOp7
 70
     1
102
RTVSPropertyOp8
 70
     1
102
RTVSPropertyOp9
 70
     1
102
RTVSPropertyOp10
 70
     1
102
RTVSPropertyOp11
 70
     1
102
RTVSPropertyOp12
 70
     1
102
RTVSPropertyOp13
 70
     1
102
RTVSPropertyOp14
 70
     1
102
RTVSPropertyOp15
 70
     1
102
RTVSPropertyOp16
 70
     1
102
RTVSPropertyOp17
 70
     1
102
RTVSPropertyOp18
 70
     1
102
RTVSPropertyOp19
 70
     1
102
RTVSPropertyOp20
 70
     1
102
RTVSPropertyOp21
 70
     1
102
RTVSPropertyOp22
 70
     1
102
RTVSPropertyOp23
 70
     1
102
RTVSPropertyOp24
 70
     1
102
RTVSPropertyOp25
 70
     1
102
RTVSPropertyOp26
 70
     1
102
RTVSPropertyOp27
 70
     1
102
RTVSPropertyOp28
 70
     1
102
RTVSPropertyOp29
 70
     1
102
RTVSPropertyOp30
 70
     1
102
RTVSPropertyOp31
 70
     1
102
RTVSPropertyOp32
 70
     1
102
RTVSPropertyOp33
 70
     1
102
RTVSPropertyOp34
 70
     1
102
RTVSPropertyOp35
 70
     1
102
RTVSPropertyOp36
 70
     1
102
RTVSPropertyOp37
 70
     1
102
RTVSPropertyOp38
 70
     1
102
RTVSPropertyOp39
 70
     1
102
RTVSPropertyOp40
 70
     1
102
RTVSPropertyOp41
 70
     1
102
RTVSPropertyOp42
 70
     1
102
RTVSPropertyOp43
 70
     1
102
RTVSPropertyOp44
 70
     1
102
RTVSPropertyOp45
 70
     1
102
RTVSPropertyOp46
 70
     1
102
RTVSPropertyOp47
 70
     1
102
RTVSPropertyOp48
 70
     1
102
RTVSPropertyOp49
 70
     1
102
RTVSPropertyOp50
 70
     1
102
RTVSPropertyOp51
 70
     0
102
RTVSPropertyOp52
 70
     0
102
RTVSPropertyOp53
 70
     1
102
RTVSPropertyOp54
 70
     1
102
RTVSPropertyOp55
 70
     1
102
RTVSPropertyOp56
 70
     1
102
RTVSPropertyOp57
 70
     1
102
RTVSPropertyOp58
 70
     1
102
RTVSPropertyOp59
 70
     1
102
RTVSPropertyOp60
 70
     1
102
RTVSPropertyOp61
 70
     1
102
RTVSPropertyOp62
 70
     1
  0
XRECORD
  5
32B
102
{ACAD_REACTORS
330
32A
102
}
330
32A
100
AcDbXrecord
280
     1
102
RTVSPost2010Prop28
280
     0
102
RTVSPost2010PropOp28
 70
     1
102
RTVSPost2010Prop29
280
     1
102
RTVSPost2010PropOp29
 70
     1
102
RTVSPost2010Prop30
280
     1
102
RTVSPost2010PropOp30
 70
     1
102
RTVSPost2010Prop31
280
     0
102
RTVSPost2010PropOp31
 70
     1
102
RTVSPost2010Prop32
280
     0
102
RTVSPost2010PropOp32
 70
     1
102
RTVSPost2010Prop33
280
     0
102
RTVSPost2010PropOp33
 70
     1
102
RTVSPost2010Prop34
280
     0
102
RTVSPost2010PropOp34
 70
     1
102
RTVSPost2010Prop35
280
     0
102
RTVSPost2010PropOp35
 70
     1
102
RTVSPost2010Prop36
280
     0
102
RTVSPost2010PropOp36
 70
     1
102
RTVSPost2010Prop37
 90
       50
102
RTVSPost2010PropOp37
 70
     1
102
RTVSPost2010Prop38
140
0.0
102
RTVSPost2010PropOp38
 70
     1
102
RTVSPost2010Prop39
140
1.0
102
RTVSPost2010PropOp39
 70
     1
102
RTVSPost2010Prop40
 90
        0
102
RTVSPost2010PropOp40
 70
     1
102
RTVSPost2010Prop41ColorIndex
 90
       18
102
RTVSPost2010Prop41ColorRGB
 90
        0
102
RTVSPost2010PropOp41
 70
     1
102
RTVSPost2010Prop42
 90
       50
102
RTVSPost2010PropOp42
 70
     1
102
RTVSPost2010Prop43
 90
        3
102
RTVSPost2010PropOp43
 70
     1
102
RTVSPost2010Prop44ColorIndex
 90
        5
102
RTVSPost2010Prop44ColorRGB
 90
      255
102
RTVSPost2010PropOp44
 70
     1
102
RTVSPost2010Prop45
280
     0
102
RTVSPost2010PropOp45
 70
     1
102
RTVSPost2010Prop46
 90
       50
102
RTVSPost2010PropOp46
 70
     1
102
RTVSPost2010Prop47
 90
       50
102
RTVSPost2010PropOp47
 70
     1
102
RTVSPost2010Prop48
 90
       50
102
RTVSPost2010PropOp48
 70
     1
102
RTVSPost2010Prop49
280
     0
102
RTVSPost2010PropOp49
 70
     1
102
RTVSPost2010Prop50
 90
       50
102
RTVSPost2010PropOp50
 70
     1
102
RTVSPost2010Prop51ColorIndex
 90
      256
102
RTVSPost2010Prop51ColorRGB
 90
-16777216
102
RTVSPost2010PropOp51
 70
     0
102
RTVSPost2010Prop52
140
1.0
102
RTVSPost2010PropOp52
 70
     0
102
RTVSPost2010Prop53
 90
        2
102
RTVSPost2010PropOp53
 70
     1
102
RTVSPost2010Prop54
  1
strokes_ogs.tif
102
RTVSPost2010PropOp54
 70
     1
102
RTVSPost2010Prop55
280
     0
102
RTVSPost2010PropOp55
 70
     1
102
RTVSPost2010Prop56
140
1.0
102
RTVSPost2010PropOp56
 70
     1
102
RTVSPost2010Prop57
140
1.0
102
RTVSPost2010PropOp57
 70
     1
102
RTVSPropertyOp0
 70
     1
102
RTVSPropertyOp1
 70
     1
102
RTVSPropertyOp2
 70
     1
102
RTVSPropertyOp3
 70
     1
102
RTVSPropertyOp4
 70
     1
102
RTVSPropertyOp5
 70
     1
102
RTVSPropertyOp6
 70
     1
102
RTVSPropertyOp7
 70
     1
102
RTVSPropertyOp8
 70
     1
102
RTVSPropertyOp9
 70
     1
102
RTVSPropertyOp10
 70
     1
102
RTVSPropertyOp11
 70
     1
102
RTVSPropertyOp12
 70
     1
102
RTVSPropertyOp13
 70
     1
102
RTVSPropertyOp14
 70
     1
102
RTVSPropertyOp15
 70
     1
102
RTVSPropertyOp16
 70
     1
102
RTVSPropertyOp17
 70
     1
102
RTVSPropertyOp18
 70
     1
102
RTVSPropertyOp19
 70
     1
102
RTVSPropertyOp20
 70
     1
102
RTVSPropertyOp21
 70
     1
102
RTVSPropertyOp22
 70
     1
102
RTVSPropertyOp23
 70
     1
102
RTVSPropertyOp24
 70
     1
102
RTVSPropertyOp25
 70
     1
102
RTVSPropertyOp26
 70
     1
102
RTVSPropertyOp27
 70
     1
102
RTVSPropertyOp28
 70
     1
102
RTVSPropertyOp29
 70
     1
102
RTVSPropertyOp30
 70
     1
102
RTVSPropertyOp31
 70
     1
102
RTVSPropertyOp32
 70
     1
102
RTVSPropertyOp33
 70
     1
102
RTVSPropertyOp34
 70
     1
102
RTVSPropertyOp35
 70
     1
102
RTVSPropertyOp36
 70
     1
102
RTVSPropertyOp37
 70
     1
102
RTVSPropertyOp38
 70
     1
102
RTVSPropertyOp39
 70
     1
102
RTVSPropertyOp40
 70
     1
102
RTVSPropertyOp41
 70
     1
102
RTVSPropertyOp42
 70
     1
102
RTVSPropertyOp43
 70
     1
102
RTVSPropertyOp44
 70
     1
102
RTVSPropertyOp45
 70
     1
102
RTVSPropertyOp46
 70
     1
102
RTVSPropertyOp47
 70
     1
102
RTVSPropertyOp48
 70
     1
102
RTVSPropertyOp49
 70
     1
102
RTVSPropertyOp50
 70
     1
102
RTVSPropertyOp51
 70
     0
102
RTVSPropertyOp52
 70
     0
102
RTVSPropertyOp53
 70
     1
102
RTVSPropertyOp54
 70
     1
102
RTVSPropertyOp55
 70
     1
102
RTVSPropertyOp56
 70
     1
102
RTVSPropertyOp57
 70
     1
102
RTVSPropertyOp58
 70
     1
102
RTVSPropertyOp59
 70
     1
102
RTVSPropertyOp60
 70
     1
102
RTVSPropertyOp61
 70
     1
102
RTVSPropertyOp62
 70
     1
  0
XRECORD
  5
343
102
{ACAD_REACTORS
330
342
102
}
330
342
100
AcDbXrecord
280
     1
102
RTVSPost2010Prop28
280
     0
102
RTVSPost2010PropOp28
 70
     1
102
RTVSPost2010Prop29
280
     1
102
RTVSPost2010PropOp29
 70
     1
102
RTVSPost2010Prop30
280
     1
102
RTVSPost2010PropOp30
 70
     1
102
RTVSPost2010Prop31
280
     0
102
RTVSPost2010PropOp31
 70
     1
102
RTVSPost2010Prop32
280
     0
102
RTVSPost2010PropOp32
 70
     1
102
RTVSPost2010Prop33
280
     0
102
RTVSPost2010PropOp33
 70
     1
102
RTVSPost2010Prop34
280
     0
102
RTVSPost2010PropOp34
 70
     1
102
RTVSPost2010Prop35
280
     0
102
RTVSPost2010PropOp35
 70
     1
102
RTVSPost2010Prop36
280
     0
102
RTVSPost2010PropOp36
 70
     1
102
RTVSPost2010Prop37
 90
       50
102
RTVSPost2010PropOp37
 70
     1
102
RTVSPost2010Prop38
140
0.0
102
RTVSPost2010PropOp38
 70
     1
102
RTVSPost2010Prop39
140
1.0
102
RTVSPost2010PropOp39
 70
     1
102
RTVSPost2010Prop40
 90
        0
102
RTVSPost2010PropOp40
 70
     1
102
RTVSPost2010Prop41ColorIndex
 90
       18
102
RTVSPost2010Prop41ColorRGB
 90
        0
102
RTVSPost2010PropOp41
 70
     1
102
RTVSPost2010Prop42
 90
       50
102
RTVSPost2010PropOp42
 70
     1
102
RTVSPost2010Prop43
 90
        3
102
RTVSPost2010PropOp43
 70
     1
102
RTVSPost2010Prop44ColorIndex
 90
        5
102
RTVSPost2010Prop44ColorRGB
 90
      255
102
RTVSPost2010PropOp44
 70
     1
102
RTVSPost2010Prop45
280
     0
102
RTVSPost2010PropOp45
 70
     1
102
RTVSPost2010Prop46
 90
       50
102
RTVSPost2010PropOp46
 70
     1
102
RTVSPost2010Prop47
 90
       50
102
RTVSPost2010PropOp47
 70
     1
102
RTVSPost2010Prop48
 90
       50
102
RTVSPost2010PropOp48
 70
     1
102
RTVSPost2010Prop49
280
     0
102
RTVSPost2010PropOp49
 70
     1
102
RTVSPost2010Prop50
 90
       50
102
RTVSPost2010PropOp50
 70
     1
102
RTVSPost2010Prop51ColorIndex
 90
      256
102
RTVSPost2010Prop51ColorRGB
 90
-16777216
102
RTVSPost2010PropOp51
 70
     0
102
RTVSPost2010Prop52
140
1.0
102
RTVSPost2010PropOp52
 70
     0
102
RTVSPost2010Prop53
 90
        2
102
RTVSPost2010PropOp53
 70
     1
102
RTVSPost2010Prop54
  1
strokes_ogs.tif
102
RTVSPost2010PropOp54
 70
     1
102
RTVSPost2010Prop55
280
     0
102
RTVSPost2010PropOp55
 70
     1
102
RTVSPost2010Prop56
140
1.0
102
RTVSPost2010PropOp56
 70
     1
102
RTVSPost2010Prop57
140
1.0
102
RTVSPost2010PropOp57
 70
     1
102
RTVSPropertyOp0
 70
     1
102
RTVSPropertyOp1
 70
     1
102
RTVSPropertyOp2
 70
     1
102
RTVSPropertyOp3
 70
     1
102
RTVSPropertyOp4
 70
     1
102
RTVSPropertyOp5
 70
     1
102
RTVSPropertyOp6
 70
     1
102
RTVSPropertyOp7
 70
     1
102
RTVSPropertyOp8
 70
     1
102
RTVSPropertyOp9
 70
     1
102
RTVSPropertyOp10
 70
     1
102
RTVSPropertyOp11
 70
     1
102
RTVSPropertyOp12
 70
     1
102
RTVSPropertyOp13
 70
     1
102
RTVSPropertyOp14
 70
     1
102
RTVSPropertyOp15
 70
     1
102
RTVSPropertyOp16
 70
     1
102
RTVSPropertyOp17
 70
     1
102
RTVSPropertyOp18
 70
     1
102
RTVSPropertyOp19
 70
     1
102
RTVSPropertyOp20
 70
     1
102
RTVSPropertyOp21
 70
     1
102
RTVSPropertyOp22
 70
     1
102
RTVSPropertyOp23
 70
     1
102
RTVSPropertyOp24
 70
     1
102
RTVSPropertyOp25
 70
     1
102
RTVSPropertyOp26
 70
     1
102
RTVSPropertyOp27
 70
     1
102
RTVSPropertyOp28
 70
     1
102
RTVSPropertyOp29
 70
     1
102
RTVSPropertyOp30
 70
     1
102
RTVSPropertyOp31
 70
     1
102
RTVSPropertyOp32
 70
     1
102
RTVSPropertyOp33
 70
     1
102
RTVSPropertyOp34
 70
     1
102
RTVSPropertyOp35
 70
     1
102
RTVSPropertyOp36
 70
     1
102
RTVSPropertyOp37
 70
     1
102
RTVSPropertyOp38
 70
     1
102
RTVSPropertyOp39
 70
     1
102
RTVSPropertyOp40
 70
     1
102
RTVSPropertyOp41
 70
     1
102
RTVSPropertyOp42
 70
     1
102
RTVSPropertyOp43
 70
     1
102
RTVSPropertyOp44
 70
     1
102
RTVSPropertyOp45
 70
     1
102
RTVSPropertyOp46
 70
     1
102
RTVSPropertyOp47
 70
     1
102
RTVSPropertyOp48
 70
     1
102
RTVSPropertyOp49
 70
     1
102
RTVSPropertyOp50
 70
     1
102
RTVSPropertyOp51
 70
     0
102
RTVSPropertyOp52
 70
     0
102
RTVSPropertyOp53
 70
     1
102
RTVSPropertyOp54
 70
     1
102
RTVSPropertyOp55
 70
     1
102
RTVSPropertyOp56
 70
     1
102
RTVSPropertyOp57
 70
     1
102
RTVSPropertyOp58
 70
     1
102
RTVSPropertyOp59
 70
     1
102
RTVSPropertyOp60
 70
     1
102
RTVSPropertyOp61
 70
     1
102
RTVSPropertyOp62
 70
     1
  0
ENDSEC
  0
EOF
