  0
SECTION
  2
HEADER
  9
$ACADVER
  1
AC1009
  9
$INSBASE
 10
0
 20
0
 30
0
  9
$EXTMIN
 10
0
 20
0
  9
$EXTMAX
 10
420
 20
297
  9
$LIMMIN
 10
0
 20
0
  9
$LIMMAX
 10
420
 20
297
  9
$LTSCALE
 40
1
  0
ENDSEC
  0
SECTION
  2
TABLES
  0
TABLE
  2
LTYPE
 70
     9
  0
LTYPE
  2
CONTINUOUS
 70
    64
  3
実線
 72
    65
 73
     0
 40
0.0
  0
LTYPE
  2
DASHED1
 70
    64
  3
--  --  --  --  --  --  --  --  
 72
    65
 73
     2
 40
2.5
 49
1.25
 49
-1.25
  0
LTYPE
  2
DASHED2
 70
    64
  3
----    ----    ----    ----    
 72
    65
 73
     2
 40
5.0
 49
2.5
 49
-2.5
  0
LTYPE
  2
DASHED3
 70
    64
  3
------  ------  ------  ------  
 72
    65
 73
     2
 40
5.0
 49
3.75
 49
-1.25
  0
LTYPE
  2
CENTER1
 70
    64
  3
----- - ----- - ----- - ----- - 
 72
    65
 73
     4
 40
10.0
 49
6.25
 49
-1.25
 49
1.25
 49
-1.25
  0
LTYPE
  2
CENTER2
 70
    64
  3
----------  --  ----------  --  
 72
    65
 73
     4
 40
20.0
 49
12.5
 49
-2.5
 49
2.5
 49
-2.5
  0
LTYPE
  2
PHANTOM1
 70
    64
  3
--- - - --- - - --- - - --- - - 
 72
    65
 73
     6
 40
10.0
 49
3.25
 49
-1.25
 49
1.25
 49
-1.25
 49
1.25
 49
-1.25
  0
LTYPE
  2
PHANTOM2
 70
    64
  3
--------  -  -  --------  -  -  
 72
    65
 73
     6
 40
20.0
 49
10.0
 49
-2.5
 49
1.25
 49
-2.5
 49
1.25
 49
-2.5
  0
LTYPE
  2
DOT
 70
    64
  3
-   -   -   -   -   -   -   -   
 72
    65
 73
     2
 40
2.5
 49
0.625
 49
-1.875
  0
LTYPE
  2
DUMMY
 70
    64
  3
ダミー
 72
    65
 73
     0
 40
0.0
  0
LTYPE
  2
RAND1
 70
    64
  3
ランダム線1
 72
    65
 73
     4
 40
10.0
 49
1.0
 49
-2.0
 49
3.0
 49
-4.0
  0
LTYPE
  2
RAND2
 70
    64
  3
ランダム線2
 72
    65
 73
     4
 40
14.0
 49
2.0
 49
-3.0
 49
4.0
 49
-5.0
  0
LTYPE
  2
RAND3
 70
    64
  3
ランダム線3
 72
    65
 73
     4
 40
18.0
 49
3.0
 49
-4.0
 49
5.0
 49
-6.0
  0
LTYPE
  2
RAND4
 70
    64
  3
ランダム線4
 72
    65
 73
     4
 40
22.0
 49
4.0
 49
-5.0
 49
6.0
 49
-7.0
  0
LTYPE
  2
RAND5
 70
    64
  3
ランダム線5
 72
    65
 73
     4
 40
26.0
 49
5.0
 49
-6.0
 49
7.0
 49
-8.0
  0
LTYPE
  2
LONG1
 70
    64
  3
----------  --  ----------  --  
 72
    65
 73
     4
 40
40.0
 49
32.5
 49
-2.5
 49
2.5
 49
-2.5
  0
LTYPE
  2
LONG2
 70
    64
  3
--------  -  -  --------  -  -  
 72
    65
 73
     6
 40
40.0
 49
30.0
 49
-2.5
 49
1.25
 49
-2.5
 49
1.25
 49
-2.5
  0
LTYPE
  2
LONG3
 70
    64
  3
+++++++++++++++..+++++++++++++++
 72
    65
 73
     2
 40
40.0
 49
37.5
 49
-2.5
  0
LTYPE
  2
LONG4
 70
    64
  3
+++++++++++++++..+++++++++++++++
 72
    65
 73
     2
 40
80.0
 49
75.0
 49
-5.0
  0
LTYPE
  2
LONG5
 70
    64
  3
----------  --  ----------  --  
 72
    65
 73
     4
 40
60.0
 49
37.5
 49
-7.5
 49
7.5
 49
-7.5
  0
LTYPE
  2
dashed
 70
   64
  3
-------   -------------   ------
 72
   65
 73
    2
 40
7.5
 49
6
 49
-1.5
  0
LTYPE
  2
dashed_spaced
 70
   64
  3
----        --------        ----
 72
   65
 73
    2
 40
12
 49
6
 49
-6
  0
LTYPE
  2
long_dashed_dotted
 70
   64
  3
------------- --- --------------
 72
   65
 73
    4
 40
15.25
 49
12
 49
-1.5
 49
0.25
 49
-1.5
  0
LTYPE
  2
long_dashed_double-dotted
 70
   64
  3
----------- --- --- ------------
 72
   65
 73
    6
 40
17
 49
12
 49
-1.5
 49
0.25
 49
-1.5
 49
0.25
 49
-1.5
  0
LTYPE
  2
long_dashed_triplicate-dotted
 70
   64
  3
--------- --- --- --- ----------
 72
   65
 73
    8
 40
18.75
 49
12
 49
-1.5
 49
0.25
 49
-1.5
 49
0.25
 49
-1.5
 49
0.25
 49
-1.5
  0
LTYPE
  2
dotted
 70
   64
  3
   -       -       -       -    
 72
   65
 73
    2
 40
1.75
 49
0.25
 49
-1.5
  0
LTYPE
  2
chain
 70
   64
  3
-------------- -- --------------
 72
   65
 73
    4
 40
18.5
 49
12
 49
-1.5
 49
3.5
 49
-1.5
  0
LTYPE
  2
chain_double_dash
 70
   64
  3
------------ -- -- -------------
 72
   65
 73
    6
 40
23.5
 49
12
 49
-1.5
 49
3.5
 49
-1.5
 49
3.5
 49
-1.5
  0
LTYPE
  2
dashed_dotted
 70
   64
  3
-----------     -     ----------
 72
   65
 73
    4
 40
9.25
 49
6
 49
-1.5
 49
0.25
 49
-1.5
  0
LTYPE
  2
double-dashed_dotted
 70
   64
  3
------   -----------   -   -----
 72
   65
 73
    6
 40
16.75
 49
6
 49
-1.5
 49
6
 49
-1.5
 49
0.25
 49
-1.5
  0
LTYPE
  2
dashed_double-dotted
 70
   64
  3
---------    -    -    ---------
 72
   65
 73
    6
 40
11
 49
6
 49
-1.5
 49
0.25
 49
-1.5
 49
0.25
 49
-1.5
  0
LTYPE
  2
double-dashed_double-dotted
 70
   64
  3
-----   ---------   -   -   ----
 72
   65
 73
    8
 40
18.5
 49
6
 49
-1.5
 49
6
 49
-1.5
 49
0.25
 49
-1.5
 49
0.25
 49
-1.5
  0
LTYPE
  2
dashed_triplicate-dotted
 70
   64
  3
-------    -    -    -    ------
 72
   65
 73
    8
 40
12.75
 49
6
 49
-1.5
 49
0.25
 49
-1.5
 49
0.25
 49
-1.5
 49
0.25
 49
-1.5
  0
LTYPE
  2
double-dashed_triplicate-dotted
 70
   64
  3
-----  ---------  -  -  -  -----
 72
   65
 73
   10
 40
20.25
 49
6
 49
-1.5
 49
6
 49
-1.5
 49
0.25
 49
-1.5
 49
0.25
 49
-1.5
 49
0.25
 49
-1.5
  0
LTYPE
  2
undefined
 70
   64
  3
--------------------------------
 72
   65
 73
    0
 40
0
  0
LTYPE
  2
PLINE2
 70
   64
  3
------     -----------     -----
 72
   65
 73
    2
 40
3
 49
2.1000000000000001
 49
-0.9
  0
LTYPE
  2
PLINE3
 70
   64
  3
------------   ---   -----------
 72
   65
 73
    4
 40
10
 49
7
 49
-1
 49
1
 49
-1
  0
LTYPE
  2
PLINE4
 70
   64
  3
---------   ---   ---   --------
 72
   65
 73
    6
 40
10
 49
5
 49
-1
 49
1
 49
-1
 49
1
 49
-1
  0
LTYPE
  2
PLINE5
 70
   64
  3
------     -----------     -----
 72
   65
 73
    2
 40
5
 49
3.5
 49
-1.5
  0
LTYPE
  2
PLINE6
 70
   64
  3
------------   ---   -----------
 72
   65
 73
    4
 40
15
 49
10.5
 49
-1.5
 49
1.5
 49
-1.5
  0
LTYPE
  2
PLINE7
 70
   64
  3
---------   ---   ---   --------
 72
   65
 73
    6
 40
15
 49
7.5
 49
-1.5
 49
1.5
 49
-1.5
 49
1.5
 49
-1.5
  0
LTYPE
  2
PLINE8
 70
   64
  3
------     -----------     -----
 72
   65
 73
    2
 40
7
 49
4.9000000000000004
 49
-2.1000000000000001
  0
LTYPE
  2
PLINE9
 70
   64
  3
------------   ---   -----------
 72
   65
 73
    4
 40
20
 49
14
 49
-2
 49
2
 49
-2
  0
LTYPE
  2
PLINE10
 70
   64
  3
---------   ---   ---   --------
 72
   65
 73
    6
 40
20
 49
10
 49
-2
 49
2
 49
-2
 49
2
 49
-2
  0
LTYPE
  2
PLINE11
 70
   64
  3
------     -----------     -----
 72
   65
 73
    2
 40
9
 49
6.2999999999999989
 49
-2.7000000000000002
  0
LTYPE
  2
PLINE12
 70
   64
  3
------------   ---   -----------
 72
   65
 73
    4
 40
25
 49
17.5
 49
-2.5
 49
2.5
 49
-2.5
  0
LTYPE
  2
PLINE13
 70
   64
  3
---------   ---   ---   --------
 72
   65
 73
    6
 40
25
 49
12.5
 49
-2.5
 49
2.5
 49
-2.5
 49
2.5
 49
-2.5
  0
LTYPE
  2
PLINE14
 70
   64
  3
------     -----------     -----
 72
   65
 73
    2
 40
11
 49
7.7000000000000002
 49
-3.2999999999999989
  0
LTYPE
  2
PLINE15
 70
   64
  3
------------   ---   -----------
 72
   65
 73
    4
 40
30
 49
21
 49
-3
 49
3
 49
-3
  0
LTYPE
  2
PLINE16
 70
   64
  3
---------   ---   ---   --------
 72
   65
 73
    6
 40
30
 49
15
 49
-3
 49
3
 49
-3
 49
3
 49
-3
  0
ENDTAB
  0
TABLE
  2
STYLE
  5
3
100
AcDbSymbolTable
 70
     1
  0
STYLE
  5
10
100
AcDbSymbolTableRecord
100
AcDbTextStyleTableRecord
  2
STANDARD
 70
     0
 40
0.0
 41
1.0
 50
0.0
 71
     0
 42
0.2
  3
txt
  4
bigfont.shx
  0
STYLE
  5
26
100
AcDbSymbolTableRecord
100
AcDbTextStyleTableRecord
  2
TATEGAKI
 70
    68
 40
0.0
 41
1.0
 50
0.0
 71
     0
 42
1.0
  3
txt
  4
bigfont.shx
  0
ENDTAB
  0
TABLE
  2
LAYER
 70
    4
  0
LAYER
  2
_0-2_寸法
 70
   64
 62
    7
  6
CONTINUOUS
  0
LAYER
  2
_0-3_躯体と製品
 70
   64
 62
    7
  6
CONTINUOUS
  0
LAYER
  2
_0-4_文字-記号
 70
   64
 62
    7
  6
CONTINUOUS
  0
LAYER
  2
ADD_LINE
 70
   64
 62
    7
  6
CONTINUOUS
  0
ENDTAB
  0
ENDSEC
  0
SECTION
  2
BLOCKS
  0
BLOCK
  2
-000-_Dot
 70
   64
 10
0
 20
0
 30
0
  0
CIRCLE
  8
_0-0_0
  6
CONTINUOUS
 62
    7
 10
0
 20
0
 40
0.125
  0
LINE
  8
_0-0_0
  6
CONTINUOUS
 62
    7
 10
0.125
 20
0
 11
-0.125
 21
0
  0
LINE
  8
_0-0_0
  6
CONTINUOUS
 62
    7
 10
-0.25
 20
0
 11
-0.5
 21
0
  0
ENDBLK
  0
BLOCK
  2
-001-_D45
 70
   64
 10
0
 20
0
 30
0
  0
LINE
  8
_0-2_寸法
  6
CONTINUOUS
 62
    4
 10
-60.171767202780899
 20
160.23728131399841
 11
-60.171767202780899
 21
183.73728181399841
  0
LINE
  8
_0-2_寸法
  6
CONTINUOUS
 62
    4
 10
-30.171767202780885
 20
160.23728131399841
 11
-30.171767202780885
 21
183.73728181399841
  0
LINE
  8
_0-2_寸法
  6
CONTINUOUS
 62
    4
 10
-59.671767202780899
 20
183.73728181399841
 11
-30.671767202780885
 21
183.73728181399841
  0
INSERT
  2
-000-_Dot
  8
_0-2_寸法
 10
-60.171767202780899
 20
183.73728181399841
 41
1
 42
1
 50
180
  0
INSERT
  2
-000-_Dot
  8
_0-2_寸法
 10
-30.171767202780885
 20
183.73728181399841
 41
1
 42
1
 50
0
  0
TEXT
  8
_0-2_寸法
 62
    7
 10
-47.671767202780892
 20
184.23728181399841
 40
5
 41
1
 50
0
  1
60
  0
POINT
  8
_0-1_Defpoints
 62
    7
 10
-60.171767202780899
 20
160.23728131399841
  0
POINT
  8
_0-1_Defpoints
 62
    7
 10
-30.171767202780885
 20
160.23728131399841
  0
POINT
  8
_0-1_Defpoints
 62
    7
 10
-30.171767202780885
 20
183.73728181399841
  0
ENDBLK
  0
BLOCK
  2
-002-_D46
 70
   64
 10
0
 20
0
 30
0
  0
LINE
  8
_0-2_寸法
  6
CONTINUOUS
 62
    4
 10
-6.6392572027808798
 20
140.48728231399841
 11
16.860743297219095
 21
140.48728231399841
  0
LINE
  8
_0-2_寸法
  6
CONTINUOUS
 62
    4
 10
-6.6392572027808798
 20
159.48728131399841
 11
16.860743297219098
 21
159.48728131399841
  0
LINE
  8
_0-2_寸法
  6
CONTINUOUS
 62
    4
 10
16.860743297219095
 20
140.98728231399841
 11
16.860743297219098
 21
158.98728131399841
  0
INSERT
  2
-000-_Dot
  8
_0-2_寸法
 10
16.860743297219095
 20
140.48728231399841
 41
1
 42
1
 50
270
  0
INSERT
  2
-000-_Dot
  8
_0-2_寸法
 10
16.860743297219098
 20
159.48728131399841
 41
1
 42
1
 50
90
  0
TEXT
  8
_0-2_寸法
 62
    7
 10
16.360743297219074
 20
147.48728181399841
 40
5
 41
1
 50
90
  1
38
  0
POINT
  8
_0-1_Defpoints
 62
    7
 10
-6.6392572027808798
 20
140.48728231399841
  0
POINT
  8
_0-1_Defpoints
 62
    7
 10
-6.6392572027808798
 20
159.48728131399841
  0
POINT
  8
_0-1_Defpoints
 62
    7
 10
16.860743297219098
 20
159.48728131399841
  0
ENDBLK
  0
BLOCK
  2
-003-_D47
 70
   64
 10
0
 20
0
 30
0
  0
LINE
  8
_0-2_寸法
  6
CONTINUOUS
 62
    4
 10
-64.171778202780857
 20
141.23728231399841
 11
-98.796767202780899
 21
141.23728231399841
  0
LINE
  8
_0-2_寸法
  6
CONTINUOUS
 62
    4
 10
-64.171778202780857
 20
158.73728131399841
 11
-98.796767202780899
 21
158.73728131399841
  0
LINE
  8
_0-2_寸法
  6
CONTINUOUS
 62
    4
 10
-98.796767202780899
 20
141.73728231399841
 11
-98.796767202780899
 21
158.23728131399841
  0
INSERT
  2
-000-_Dot
  8
_0-2_寸法
 10
-98.796767202780899
 20
141.23728231399841
 41
1
 42
1
 50
270
  0
INSERT
  2
-000-_Dot
  8
_0-2_寸法
 10
-98.796767202780899
 20
158.73728131399841
 41
1
 42
1
 50
90
  0
TEXT
  8
_0-2_寸法
 62
    7
 10
-99.296767202780899
 20
147.48728181399841
 40
5
 41
1
 50
90
  1
35
  0
POINT
  8
_0-1_Defpoints
 62
    7
 10
-64.171778202780857
 20
141.23728231399841
  0
POINT
  8
_0-1_Defpoints
 62
    7
 10
-64.171778202780857
 20
158.73728131399841
  0
POINT
  8
_0-1_Defpoints
 62
    7
 10
-98.796767202780899
 20
158.73728131399841
  0
ENDBLK
  0
BLOCK
  2
-004-_D48
 70
   64
 10
0
 20
0
 30
0
  0
LINE
  8
_0-2_寸法
  6
CONTINUOUS
 62
    4
 10
-6.6392572027808798
 20
-92.012717686001551
 11
16.860743297219095
 21
-92.012717686001551
  0
LINE
  8
_0-2_寸法
  6
CONTINUOUS
 62
    4
 10
-6.6392572027808798
 20
-73.012718686001548
 11
16.860743297219095
 21
-73.012718686001548
  0
LINE
  8
_0-2_寸法
  6
CONTINUOUS
 62
    4
 10
16.860743297219095
 20
-91.512717686001551
 11
16.860743297219098
 21
-73.512718686001548
  0
INSERT
  2
-000-_Dot
  8
_0-2_寸法
 10
16.860743297219095
 20
-92.012717686001551
 41
1
 42
1
 50
270
  0
INSERT
  2
-000-_Dot
  8
_0-2_寸法
 10
16.860743297219098
 20
-73.012718686001548
 41
1
 42
1
 50
90
  0
TEXT
  8
_0-2_寸法
 62
    7
 10
16.360743297219116
 20
-85.012718186001607
 40
5
 41
1
 50
90
  1
38
  0
POINT
  8
_0-1_Defpoints
 62
    7
 10
-6.6392572027808798
 20
-92.012717686001551
  0
POINT
  8
_0-1_Defpoints
 62
    7
 10
-6.6392572027808798
 20
-73.012718686001548
  0
POINT
  8
_0-1_Defpoints
 62
    7
 10
16.860743297219098
 20
-73.012718686001548
  0
ENDBLK
  0
BLOCK
  2
-005-_D49
 70
   64
 10
0
 20
0
 30
0
  0
LINE
  8
_0-2_寸法
  6
CONTINUOUS
 62
    4
 10
-64.171778202780857
 20
-91.262717686001551
 11
-98.796767202780899
 21
-91.262717686001551
  0
LINE
  8
_0-2_寸法
  6
CONTINUOUS
 62
    4
 10
-64.171778202780857
 20
-73.762718686001548
 11
-98.796767202780899
 21
-73.762718686001548
  0
LINE
  8
_0-2_寸法
  6
CONTINUOUS
 62
    4
 10
-98.796767202780899
 20
-90.762717686001551
 11
-98.796767202780899
 21
-74.262718686001548
  0
INSERT
  2
-000-_Dot
  8
_0-2_寸法
 10
-98.796767202780899
 20
-91.262717686001551
 41
1
 42
1
 50
270
  0
INSERT
  2
-000-_Dot
  8
_0-2_寸法
 10
-98.796767202780899
 20
-73.762718686001548
 41
1
 42
1
 50
90
  0
TEXT
  8
_0-2_寸法
 62
    7
 10
-99.296767202780899
 20
-85.012718186001607
 40
5
 41
1
 50
90
  1
35
  0
POINT
  8
_0-1_Defpoints
 62
    7
 10
-64.171778202780857
 20
-91.262717686001551
  0
POINT
  8
_0-1_Defpoints
 62
    7
 10
-64.171778202780857
 20
-73.762718686001548
  0
POINT
  8
_0-1_Defpoints
 62
    7
 10
-98.796767202780899
 20
-73.762718686001548
  0
ENDBLK
  0
BLOCK
  2
-006-_D50
 70
   64
 10
0
 20
0
 30
0
  0
LINE
  8
_0-2_寸法
  6
CONTINUOUS
 62
    4
 10
-64.171778202780857
 20
-91.262717686001551
 11
-113.79676720278096
 21
-91.262717686001551
  0
LINE
  8
_0-2_寸法
  6
CONTINUOUS
 62
    4
 10
-64.171778202780857
 20
158.73728131399841
 11
-113.7967672027809
 21
158.73728131399841
  0
LINE
  8
_0-2_寸法
  6
CONTINUOUS
 62
    4
 10
-113.79676720278096
 20
-90.762717686001551
 11
-113.7967672027809
 21
158.23728131399841
  0
INSERT
  2
-000-_Dot
  8
_0-2_寸法
 10
-113.79676720278096
 20
-91.262717686001551
 41
1
 42
1
 50
270
  0
INSERT
  2
-000-_Dot
  8
_0-2_寸法
 10
-113.7967672027809
 20
158.73728131399841
 41
1
 42
1
 50
90
  0
TEXT
  8
_0-2_寸法
 62
    7
 10
-114.2967672027809
 20
24.987281813998415
 40
5
 41
1
 50
90
  1
900以下
  0
POINT
  8
_0-1_Defpoints
 62
    7
 10
-64.171778202780857
 20
-91.262717686001551
  0
POINT
  8
_0-1_Defpoints
 62
    7
 10
-64.171778202780857
 20
158.73728131399841
  0
POINT
  8
_0-1_Defpoints
 62
    7
 10
-113.7967672027809
 20
158.73728131399841
  0
ENDBLK
  0
BLOCK
  2
-007-_D51
 70
   64
 10
0
 20
0
 30
0
  0
LINE
  8
_0-2_寸法
  6
CONTINUOUS
 62
    4
 10
-10.67177770278087
 20
-82.51271818600155
 11
29.828222297219074
 21
-82.51271818600155
  0
LINE
  8
_0-2_寸法
  6
CONTINUOUS
 62
    4
 10
-10.67177770278087
 20
149.98728181399841
 11
29.828222297219124
 21
149.98728181399841
  0
LINE
  8
_0-2_寸法
  6
CONTINUOUS
 62
    4
 10
29.828222297219074
 20
-82.01271818600155
 11
29.828222297219131
 21
149.48728181399841
  0
INSERT
  2
-000-_Dot
  8
_0-2_寸法
 10
29.828222297219074
 20
-82.51271818600155
 41
1
 42
1
 50
270
  0
INSERT
  2
-000-_Dot
  8
_0-2_寸法
 10
29.828222297219131
 20
149.98728181399841
 41
1
 42
1
 50
90
  0
TEXT
  8
_0-2_寸法
 62
    7
 10
29.328222297219099
 20
21.237281813998436
 40
5
 41
1
 50
90
  1
８６５以下
  0
POINT
  8
_0-1_Defpoints
 62
    7
 10
-10.67177770278087
 20
-82.51271818600155
  0
POINT
  8
_0-1_Defpoints
 62
    7
 10
-10.67177770278087
 20
149.98728181399841
  0
POINT
  8
_0-1_Defpoints
 62
    7
 10
29.828222297219131
 20
149.98728181399841
  0
ENDBLK
  0
BLOCK
  2
-008-_D52
 70
   64
 10
0
 20
0
 30
0
  0
LINE
  8
_0-2_寸法
  6
CONTINUOUS
 62
    4
 10
152.0084167972191
 20
-72.162797686001554
 11
105.50841679721906
 21
-72.162797686001554
  0
LINE
  8
_0-2_寸法
  6
CONTINUOUS
 62
    4
 10
120.50841679721906
 20
-22.162798186001595
 11
105.50841679721906
 21
-22.162798186001591
  0
LINE
  8
_0-2_寸法
  6
CONTINUOUS
 62
    4
 10
105.50841679721906
 20
-71.662797686001554
 11
105.50841679721906
 21
-22.662798186001591
  0
INSERT
  2
-000-_Dot
  8
_0-2_寸法
 10
105.50841679721906
 20
-72.162797686001554
 41
1
 42
1
 50
270
  0
INSERT
  2
-000-_Dot
  8
_0-2_寸法
 10
105.50841679721906
 20
-22.162798186001591
 41
1
 42
1
 50
90
  0
TEXT
  8
_0-2_寸法
 62
    7
 10
105.00841679721906
 20
-50.91279793600156
 40
5
 41
1
 50
90
  1
100
  0
POINT
  8
_0-1_Defpoints
 62
    7
 10
152.0084167972191
 20
-72.162797686001554
  0
POINT
  8
_0-1_Defpoints
 62
    7
 10
120.50841679721906
 20
-22.162798186001595
  0
POINT
  8
_0-1_Defpoints
 62
    7
 10
105.50841679721906
 20
-22.162798186001591
  0
ENDBLK
  0
BLOCK
  2
-009-_D53
 70
   64
 10
0
 20
0
 30
0
  0
LINE
  8
_0-2_寸法
  6
CONTINUOUS
 62
    4
 10
129.0084172972191
 20
-24.162797686001586
 11
115.5084172972191
 21
-24.162797686001586
  0
LINE
  8
_0-2_寸法
  6
CONTINUOUS
 62
    4
 10
120.50841679721906
 20
-22.162798186001595
 11
115.5084172972191
 21
-22.162798186001591
  0
LINE
  8
_0-2_寸法
  6
CONTINUOUS
 62
    4
 10
115.5084172972191
 20
-24.662797686001586
 11
115.5084172972191
 21
-25.162797686001586
  0
LINE
  8
_0-2_寸法
  6
CONTINUOUS
 62
    4
 10
115.5084172972191
 20
-21.662798186001591
 11
115.5084172972191
 21
-21.162798186001591
  0
INSERT
  2
-000-_Dot
  8
_0-2_寸法
 10
115.5084172972191
 20
-24.162797686001586
 41
1
 42
1
 50
90
  0
INSERT
  2
-000-_Dot
  8
_0-2_寸法
 10
115.5084172972191
 20
-22.162798186001591
 41
1
 42
1
 50
270
  0
TEXT
  8
_0-2_寸法
 62
    7
 10
115.0084172972191
 20
-24.412797936001571
 40
5
 41
1
 50
90
  1
4
  0
POINT
  8
_0-1_Defpoints
 62
    7
 10
129.0084172972191
 20
-24.162797686001586
  0
POINT
  8
_0-1_Defpoints
 62
    7
 10
120.50841679721906
 20
-22.162798186001595
  0
POINT
  8
_0-1_Defpoints
 62
    7
 10
115.5084172972191
 20
-22.162798186001591
  0
ENDBLK
  0
BLOCK
  2
-010-_D54
 70
   64
 10
0
 20
0
 30
0
  0
LINE
  8
_0-2_寸法
  6
CONTINUOUS
 62
    4
 10
134.37107779721904
 20
-18.38143018600158
 11
134.37107779721904
 21
5.1185703139984149
  0
LINE
  8
_0-2_寸法
  6
CONTINUOUS
 62
    4
 10
145.8710782972191
 20
-17.881429186001565
 11
145.8710782972191
 21
5.1185703139984149
  0
LINE
  8
_0-2_寸法
  6
CONTINUOUS
 62
    4
 10
134.87107779721904
 20
5.1185703139984149
 11
145.37107829721904
 21
5.1185703139984149
  0
INSERT
  2
-000-_Dot
  8
_0-2_寸法
 10
134.37107779721904
 20
5.1185703139984149
 41
1
 42
1
 50
180
  0
INSERT
  2
-000-_Dot
  8
_0-2_寸法
 10
145.8710782972191
 20
5.1185703139984149
 41
1
 42
1
 50
0
  0
TEXT
  8
_0-2_寸法
 62
    7
 10
137.62107804721904
 20
5.6185703139984149
 40
5
 41
1
 50
0
  1
23
  0
POINT
  8
_0-1_Defpoints
 62
    7
 10
134.37107779721904
 20
-18.38143018600158
  0
POINT
  8
_0-1_Defpoints
 62
    7
 10
145.8710782972191
 20
-17.881429186001565
  0
POINT
  8
_0-1_Defpoints
 62
    7
 10
145.8710782972191
 20
5.1185703139984149
  0
ENDBLK
  0
BLOCK
  2
-011-_D55
 70
   64
 10
0
 20
0
 30
0
  0
LINE
  8
_0-2_寸法
  6
CONTINUOUS
 62
    4
 10
145.8710782972191
 20
-17.881429186001565
 11
145.8710782972191
 21
5.1185703139984149
  0
LINE
  8
_0-2_寸法
  6
CONTINUOUS
 62
    4
 10
159.3710782972191
 20
-18.38143018600158
 11
159.3710782972191
 21
5.1185703139984149
  0
LINE
  8
_0-2_寸法
  6
CONTINUOUS
 62
    4
 10
146.37107829721904
 20
5.1185703139984149
 11
158.87107829721904
 21
5.1185703139984149
  0
INSERT
  2
-000-_Dot
  8
_0-2_寸法
 10
145.8710782972191
 20
5.1185703139984149
 41
1
 42
1
 50
180
  0
INSERT
  2
-000-_Dot
  8
_0-2_寸法
 10
159.3710782972191
 20
5.1185703139984149
 41
1
 42
1
 50
0
  0
TEXT
  8
_0-2_寸法
 62
    7
 10
150.12107829721904
 20
5.6185703139984149
 40
5
 41
1
 50
0
  1
27
  0
POINT
  8
_0-1_Defpoints
 62
    7
 10
145.8710782972191
 20
-17.881429186001565
  0
POINT
  8
_0-1_Defpoints
 62
    7
 10
159.3710782972191
 20
-18.38143018600158
  0
POINT
  8
_0-1_Defpoints
 62
    7
 10
159.3710782972191
 20
5.1185703139984149
  0
ENDBLK
  0
BLOCK
  2
-012-_D56
 70
   64
 10
0
 20
0
 30
0
  0
LINE
  8
_0-2_寸法
  6
CONTINUOUS
 62
    4
 10
134.37107779721904
 20
-18.38143018600158
 11
134.37107779721904
 21
15.11857081399843
  0
LINE
  8
_0-2_寸法
  6
CONTINUOUS
 62
    4
 10
159.3710782972191
 20
-18.38143018600158
 11
159.3710782972191
 21
15.11857081399843
  0
LINE
  8
_0-2_寸法
  6
CONTINUOUS
 62
    4
 10
134.87107779721904
 20
15.11857081399843
 11
158.87107829721904
 21
15.11857081399843
  0
INSERT
  2
-000-_Dot
  8
_0-2_寸法
 10
134.37107779721904
 20
15.11857081399843
 41
1
 42
1
 50
180
  0
INSERT
  2
-000-_Dot
  8
_0-2_寸法
 10
159.3710782972191
 20
15.11857081399843
 41
1
 42
1
 50
0
  0
TEXT
  8
_0-2_寸法
 62
    7
 10
144.3710780472191
 20
15.618570813998431
 40
5
 41
1
 50
0
  1
50
  0
POINT
  8
_0-1_Defpoints
 62
    7
 10
134.37107779721904
 20
-18.38143018600158
  0
POINT
  8
_0-1_Defpoints
 62
    7
 10
159.3710782972191
 20
-18.38143018600158
  0
POINT
  8
_0-1_Defpoints
 62
    7
 10
159.3710782972191
 20
15.11857081399843
  0
ENDBLK
  0
BLOCK
  2
-013-_D57
 70
   64
 10
0
 20
0
 30
0
  0
LINE
  8
_0-2_寸法
  6
CONTINUOUS
 62
    4
 10
157.3710787972191
 20
-75.293140186001551
 11
157.3710787972191
 21
-90.871990186001554
  0
LINE
  8
_0-2_寸法
  6
CONTINUOUS
 62
    4
 10
159.3710782972191
 20
-76.229338186001556
 11
159.3710782972191
 21
-90.871990186001554
  0
LINE
  8
_0-2_寸法
  6
CONTINUOUS
 62
    4
 10
156.8710787972191
 20
-90.871990186001554
 11
156.3710787972191
 21
-90.871990186001554
  0
LINE
  8
_0-2_寸法
  6
CONTINUOUS
 62
    4
 10
159.87107829721904
 20
-90.871990186001554
 11
160.3710782972191
 21
-90.871990186001554
  0
INSERT
  2
-000-_Dot
  8
_0-2_寸法
 10
157.3710787972191
 20
-90.871990186001554
 41
1
 42
1
 50
0
  0
INSERT
  2
-000-_Dot
  8
_0-2_寸法
 10
159.3710782972191
 20
-90.871990186001554
 41
1
 42
1
 50
180
  0
TEXT
  8
_0-2_寸法
 62
    7
 10
157.1210785472191
 20
-90.371990186001597
 40
5
 41
1
 50
0
  1
4
  0
POINT
  8
_0-1_Defpoints
 62
    7
 10
157.3710787972191
 20
-75.293140186001551
  0
POINT
  8
_0-1_Defpoints
 62
    7
 10
159.3710782972191
 20
-76.229338186001556
  0
POINT
  8
_0-1_Defpoints
 62
    7
 10
159.3710782972191
 20
-90.871990186001554
  0
ENDBLK
  0
BLOCK
  2
-014-_D58
 70
   64
 10
0
 20
0
 30
0
  0
LINE
  8
_0-2_寸法
  6
CONTINUOUS
 62
    4
 10
159.3710782972191
 20
-76.229338186001556
 11
159.3710782972191
 21
-90.871990186001554
  0
LINE
  8
_0-2_寸法
  6
CONTINUOUS
 62
    4
 10
218.37107779721904
 20
-64.229338186001556
 11
218.37107779721904
 21
-90.871990186001554
  0
LINE
  8
_0-2_寸法
  6
CONTINUOUS
 62
    4
 10
159.87107829721904
 20
-90.871990186001554
 11
217.87107779721904
 21
-90.871990186001554
  0
INSERT
  2
-000-_Dot
  8
_0-2_寸法
 10
159.3710782972191
 20
-90.871990186001554
 41
1
 42
1
 50
180
  0
INSERT
  2
-000-_Dot
  8
_0-2_寸法
 10
218.37107779721904
 20
-90.871990186001554
 41
1
 42
1
 50
0
  0
TEXT
  8
_0-2_寸法
 62
    7
 10
181.37107804721904
 20
-90.371990186001597
 40
5
 41
1
 50
0
  1
98以下
  0
POINT
  8
_0-1_Defpoints
 62
    7
 10
159.3710782972191
 20
-76.229338186001556
  0
POINT
  8
_0-1_Defpoints
 62
    7
 10
218.37107779721904
 20
-64.229338186001556
  0
POINT
  8
_0-1_Defpoints
 62
    7
 10
218.37107779721904
 20
-90.871990186001554
  0
ENDBLK
  0
BLOCK
  2
-015-_D59
 70
   64
 10
0
 20
0
 30
0
  0
LINE
  8
_0-2_寸法
  6
CONTINUOUS
 62
    4
 10
218.37107779721904
 20
-64.229338186001556
 11
218.37107779721904
 21
-90.871990186001554
  0
LINE
  8
_0-2_寸法
  6
CONTINUOUS
 62
    4
 10
228.3710782972191
 20
-64.229338186001556
 11
228.3710782972191
 21
-90.871990186001554
  0
LINE
  8
_0-2_寸法
  6
CONTINUOUS
 62
    4
 10
218.87107779721904
 20
-90.871990186001554
 11
227.87107829721904
 21
-90.871990186001554
  0
INSERT
  2
-000-_Dot
  8
_0-2_寸法
 10
218.37107779721904
 20
-90.871990186001554
 41
1
 42
1
 50
180
  0
INSERT
  2
-000-_Dot
  8
_0-2_寸法
 10
228.3710782972191
 20
-90.871990186001554
 41
1
 42
1
 50
0
  0
TEXT
  8
_0-2_寸法
 62
    7
 10
220.8710780472191
 20
-90.371990186001597
 40
5
 41
1
 50
0
  1
20
  0
POINT
  8
_0-1_Defpoints
 62
    7
 10
218.37107779721904
 20
-64.229338186001556
  0
POINT
  8
_0-1_Defpoints
 62
    7
 10
228.3710782972191
 20
-64.229338186001556
  0
POINT
  8
_0-1_Defpoints
 62
    7
 10
228.3710782972191
 20
-90.871990186001554
  0
ENDBLK
  0
BLOCK
  2
-016-_D60
 70
   64
 10
0
 20
0
 30
0
  0
LINE
  8
_0-2_寸法
  6
CONTINUOUS
 62
    4
 10
228.3710782972191
 20
-64.229338186001556
 11
228.3710782972191
 21
-90.871990186001554
  0
LINE
  8
_0-2_寸法
  6
CONTINUOUS
 62
    4
 10
272.37107779721907
 20
-64.229338186001556
 11
272.37107779721907
 21
-90.871990186001554
  0
LINE
  8
_0-2_寸法
  6
CONTINUOUS
 62
    4
 10
228.8710782972191
 20
-90.871990186001554
 11
271.87107779721907
 21
-90.871990186001554
  0
INSERT
  2
-000-_Dot
  8
_0-2_寸法
 10
228.3710782972191
 20
-90.871990186001554
 41
1
 42
1
 50
180
  0
INSERT
  2
-000-_Dot
  8
_0-2_寸法
 10
272.37107779721907
 20
-90.871990186001554
 41
1
 42
1
 50
0
  0
TEXT
  8
_0-2_寸法
 62
    7
 10
242.8710780472191
 20
-90.371990186001597
 40
5
 41
1
 50
0
  1
98以下
  0
POINT
  8
_0-1_Defpoints
 62
    7
 10
228.3710782972191
 20
-64.229338186001556
  0
POINT
  8
_0-1_Defpoints
 62
    7
 10
272.37107779721907
 20
-64.229338186001556
  0
POINT
  8
_0-1_Defpoints
 62
    7
 10
272.37107779721907
 20
-90.871990186001554
  0
ENDBLK
  0
BLOCK
  2
-017-_D61
 70
   64
 10
0
 20
0
 30
0
  0
LINE
  8
_0-2_寸法
  6
CONTINUOUS
 62
    4
 10
272.37107779721907
 20
-64.229338186001556
 11
272.37107779721907
 21
-90.871990186001554
  0
LINE
  8
_0-2_寸法
  6
CONTINUOUS
 62
    4
 10
282.37107829721907
 20
-64.229338186001556
 11
282.37107829721907
 21
-90.871990186001554
  0
LINE
  8
_0-2_寸法
  6
CONTINUOUS
 62
    4
 10
272.87107779721907
 20
-90.871990186001554
 11
281.87107829721907
 21
-90.871990186001554
  0
INSERT
  2
-000-_Dot
  8
_0-2_寸法
 10
272.37107779721907
 20
-90.871990186001554
 41
1
 42
1
 50
180
  0
INSERT
  2
-000-_Dot
  8
_0-2_寸法
 10
282.37107829721907
 20
-90.871990186001554
 41
1
 42
1
 50
0
  0
TEXT
  8
_0-2_寸法
 62
    7
 10
274.87107804721899
 20
-90.371990186001597
 40
5
 41
1
 50
0
  1
20
  0
POINT
  8
_0-1_Defpoints
 62
    7
 10
272.37107779721907
 20
-64.229338186001556
  0
POINT
  8
_0-1_Defpoints
 62
    7
 10
282.37107829721907
 20
-64.229338186001556
  0
POINT
  8
_0-1_Defpoints
 62
    7
 10
282.37107829721907
 20
-90.871990186001554
  0
ENDBLK
  0
BLOCK
  2
-018-_D62
 70
   64
 10
0
 20
0
 30
0
  0
LINE
  8
_0-2_寸法
  6
CONTINUOUS
 62
    4
 10
282.37107829721907
 20
-64.229338186001556
 11
282.37107829721907
 21
-90.871990186001554
  0
LINE
  8
_0-2_寸法
  6
CONTINUOUS
 62
    4
 10
282.87107829721907
 20
-90.871990186001554
 11
309.33181679721912
 21
-90.871990186001554
  0
INSERT
  2
-000-_Dot
  8
_0-2_寸法
 10
282.37107829721907
 20
-90.871990186001554
 41
1
 42
1
 50
180
  0
INSERT
  2
-000-_Dot
  8
_0-2_寸法
 10
309.83181679721912
 20
-90.871990186001554
 41
1
 42
1
 50
0
  0
TEXT
  8
_0-2_寸法
 62
    7
 10
288.60144754721904
 20
-90.371990186001597
 40
5
 41
1
 50
0
  1
98以下
  0
POINT
  8
_0-1_Defpoints
 62
    7
 10
282.37107829721907
 20
-64.229338186001556
  0
POINT
  8
_0-1_Defpoints
 62
    7
 10
309.83181679721912
 20
-90.871990186001554
  0
POINT
  8
_0-1_Defpoints
 62
    7
 10
309.83181679721912
 20
-90.871990186001554
  0
ENDBLK
  0
BLOCK
  2
-019-_D63
 70
   64
 10
0
 20
0
 30
0
  0
LINE
  8
_0-2_寸法
  6
CONTINUOUS
 62
    4
 10
159.3710782972191
 20
-76.229338186001556
 11
159.3710782972191
 21
-101.10433768600156
  0
LINE
  8
_0-2_寸法
  6
CONTINUOUS
 62
    4
 10
308.87107829721907
 20
-101.10433768600156
 11
159.87107829721904
 21
-101.10433768600156
  0
INSERT
  2
-000-_Dot
  8
_0-2_寸法
 10
309.37107829721907
 20
-101.10433768600156
 41
1
 42
1
 50
0
  0
INSERT
  2
-000-_Dot
  8
_0-2_寸法
 10
159.3710782972191
 20
-101.10433768600156
 41
1
 42
1
 50
180
  0
TEXT
  8
_0-2_寸法
 62
    7
 10
224.37107829721904
 20
-100.60433768600156
 40
5
 41
1
 50
0
  1
2000以下
  0
POINT
  8
_0-1_Defpoints
 62
    7
 10
309.37107829721907
 20
-101.10433768600156
  0
POINT
  8
_0-1_Defpoints
 62
    7
 10
159.3710782972191
 20
-76.229338186001556
  0
POINT
  8
_0-1_Defpoints
 62
    7
 10
159.3710782972191
 20
-101.10433768600156
  0
ENDBLK
  0
BLOCK
  2
-020-_D64
 70
   64
 10
0
 20
0
 30
0
  0
LINE
  8
_0-2_寸法
  6
CONTINUOUS
 62
    4
 10
312.91639429721909
 20
-71.162798686001551
 11
326.91639529721914
 21
-71.162798686001551
  0
LINE
  8
_0-2_寸法
  6
CONTINUOUS
 62
    4
 10
312.91639429721909
 20
-41.16279868600158
 11
326.91639529721914
 21
-41.16279868600158
  0
LINE
  8
_0-2_寸法
  6
CONTINUOUS
 62
    4
 10
326.91639529721914
 20
-70.662798686001551
 11
326.91639529721914
 21
-41.66279868600158
  0
INSERT
  2
-000-_Dot
  8
_0-2_寸法
 10
326.91639529721914
 20
-71.162798686001551
 41
1
 42
1
 50
270
  0
INSERT
  2
-000-_Dot
  8
_0-2_寸法
 10
326.91639529721914
 20
-41.16279868600158
 41
1
 42
1
 50
90
  0
TEXT
  8
_0-2_寸法
 62
    7
 10
326.41639529721908
 20
-58.662798686001501
 40
5
 41
1
 50
90
  1
60
  0
POINT
  8
_0-1_Defpoints
 62
    7
 10
312.91639429721909
 20
-71.162798686001551
  0
POINT
  8
_0-1_Defpoints
 62
    7
 10
312.91639429721909
 20
-41.16279868600158
  0
POINT
  8
_0-1_Defpoints
 62
    7
 10
326.91639529721914
 20
-41.16279868600158
  0
ENDBLK
  0
BLOCK
  2
-021-_D65
 70
   64
 10
0
 20
0
 30
0
  0
LINE
  8
_0-2_寸法
  6
CONTINUOUS
 62
    4
 10
215.44522279721909
 20
-61.162798186001552
 11
201.94522279721909
 21
-61.162798186001552
  0
LINE
  8
_0-2_寸法
  6
CONTINUOUS
 62
    4
 10
215.44522279721909
 20
-51.162797686001547
 11
201.94522279721909
 21
-51.162797686001547
  0
LINE
  8
_0-2_寸法
  6
CONTINUOUS
 62
    4
 10
201.94522279721909
 20
-60.662798186001552
 11
201.94522279721909
 21
-51.662797686001547
  0
INSERT
  2
-000-_Dot
  8
_0-2_寸法
 10
201.94522279721909
 20
-61.162798186001552
 41
1
 42
1
 50
270
  0
INSERT
  2
-000-_Dot
  8
_0-2_寸法
 10
201.94522279721909
 20
-51.162797686001547
 41
1
 42
1
 50
90
  0
TEXT
  8
_0-2_寸法
 62
    7
 10
201.44522279721909
 20
-58.662797936001553
 40
5
 41
1
 50
90
  1
20
  0
POINT
  8
_0-1_Defpoints
 62
    7
 10
215.44522279721909
 20
-61.162798186001552
  0
POINT
  8
_0-1_Defpoints
 62
    7
 10
215.44522279721909
 20
-51.162797686001547
  0
POINT
  8
_0-1_Defpoints
 62
    7
 10
201.94522279721909
 20
-51.162797686001547
  0
ENDBLK
  0
BLOCK
  2
-022-_D66
 70
   64
 10
0
 20
0
 30
0
  0
LINE
  8
_0-2_寸法
  6
CONTINUOUS
 62
    4
 10
218.37107779721904
 20
-47.951771686001578
 11
218.37107779721904
 21
-34.451771686001578
  0
LINE
  8
_0-2_寸法
  6
CONTINUOUS
 62
    4
 10
228.3710782972191
 20
-47.951771686001578
 11
228.3710782972191
 21
-34.451771686001578
  0
LINE
  8
_0-2_寸法
  6
CONTINUOUS
 62
    4
 10
218.87107779721904
 20
-34.451771686001578
 11
227.87107829721904
 21
-34.451771686001578
  0
INSERT
  2
-000-_Dot
  8
_0-2_寸法
 10
218.37107779721904
 20
-34.451771686001578
 41
1
 42
1
 50
180
  0
INSERT
  2
-000-_Dot
  8
_0-2_寸法
 10
228.3710782972191
 20
-34.451771686001578
 41
1
 42
1
 50
0
  0
TEXT
  8
_0-2_寸法
 62
    7
 10
220.8710780472191
 20
-33.951771686001578
 40
5
 41
1
 50
0
  1
20
  0
POINT
  8
_0-1_Defpoints
 62
    7
 10
218.37107779721904
 20
-47.951771686001578
  0
POINT
  8
_0-1_Defpoints
 62
    7
 10
228.3710782972191
 20
-47.951771686001578
  0
POINT
  8
_0-1_Defpoints
 62
    7
 10
228.3710782972191
 20
-34.451771686001578
  0
ENDBLK
  0
BLOCK
  2
-023-_D67
 70
   64
 10
0
 20
0
 30
0
  0
LINE
  8
_0-2_寸法
  6
CONTINUOUS
 62
    4
 10
291.34282429721907
 20
92.888893813998394
 11
307.09282429721907
 21
92.888893813998394
  0
LINE
  8
_0-2_寸法
  6
CONTINUOUS
 62
    4
 10
291.33426379721902
 20
95.513893813998394
 11
307.09282429721907
 21
95.513893813998394
  0
LINE
  8
_0-2_寸法
  6
CONTINUOUS
 62
    4
 10
307.09282429721907
 20
92.388893813998394
 11
307.09282429721907
 21
91.888893813998394
  0
LINE
  8
_0-2_寸法
  6
CONTINUOUS
 62
    4
 10
307.09282429721907
 20
96.013893813998394
 11
307.09282429721907
 21
96.513893813998394
  0
INSERT
  2
-000-_Dot
  8
_0-2_寸法
 10
307.09282429721907
 20
92.888893813998394
 41
1
 42
1
 50
90
  0
INSERT
  2
-000-_Dot
  8
_0-2_寸法
 10
307.09282429721907
 20
95.513893813998394
 41
1
 42
1
 50
270
  0
TEXT
  8
_0-2_寸法
 62
    7
 10
306.59282429721907
 20
91.70139381399845
 40
5
 41
1
 50
90
  1
35
  0
POINT
  8
_0-1_Defpoints
 62
    7
 10
291.34282429721907
 20
92.888893813998394
  0
POINT
  8
_0-1_Defpoints
 62
    7
 10
291.33426379721902
 20
95.513893813998394
  0
POINT
  8
_0-1_Defpoints
 62
    7
 10
307.09282429721907
 20
95.513893813998394
  0
ENDBLK
  0
BLOCK
  2
-024-_D68
 70
   64
 10
0
 20
0
 30
0
  0
LINE
  8
_0-2_寸法
  6
CONTINUOUS
 62
    4
 10
291.34282429721907
 20
92.888893813998394
 11
317.38839079721902
 21
92.888893813998394
  0
LINE
  8
_0-2_寸法
  6
CONTINUOUS
 62
    4
 10
291.34282429721907
 20
160.38889381399841
 11
317.38839079721907
 21
160.38889381399841
  0
LINE
  8
_0-2_寸法
  6
CONTINUOUS
 62
    4
 10
317.38839079721902
 20
93.388893813998394
 11
317.38839079721907
 21
159.88889381399841
  0
INSERT
  2
-000-_Dot
  8
_0-2_寸法
 10
317.38839079721902
 20
92.888893813998394
 41
1
 42
1
 50
270
  0
INSERT
  2
-000-_Dot
  8
_0-2_寸法
 10
317.38839079721907
 20
160.38889381399841
 41
1
 42
1
 50
90
  0
TEXT
  8
_0-2_寸法
 62
    7
 10
316.88839079721902
 20
117.88889381399845
 40
5
 41
1
 50
90
  1
900以下
  0
POINT
  8
_0-1_Defpoints
 62
    7
 10
291.34282429721907
 20
92.888893813998394
  0
POINT
  8
_0-1_Defpoints
 62
    7
 10
291.34282429721907
 20
160.38889381399841
  0
POINT
  8
_0-1_Defpoints
 62
    7
 10
317.38839079721907
 20
160.38889381399841
  0
ENDBLK
  0
BLOCK
  2
-025-_D69
 70
   64
 10
0
 20
0
 30
0
  0
LINE
  8
_0-2_寸法
  6
CONTINUOUS
 62
    4
 10
291.34282429721907
 20
160.38889381399841
 11
307.09282429721907
 21
160.38889381399841
  0
LINE
  8
_0-2_寸法
  6
CONTINUOUS
 62
    4
 10
291.33426379721902
 20
157.76389381399841
 11
307.09282429721907
 21
157.76389381399841
  0
LINE
  8
_0-2_寸法
  6
CONTINUOUS
 62
    4
 10
307.09282429721907
 20
160.88889381399841
 11
307.09282429721907
 21
161.38889381399841
  0
LINE
  8
_0-2_寸法
  6
CONTINUOUS
 62
    4
 10
307.09282429721907
 20
157.26389381399841
 11
307.09282429721907
 21
156.76389381399841
  0
INSERT
  2
-000-_Dot
  8
_0-2_寸法
 10
307.09282429721907
 20
160.38889381399841
 41
1
 42
1
 50
270
  0
INSERT
  2
-000-_Dot
  8
_0-2_寸法
 10
307.09282429721907
 20
157.76389381399841
 41
1
 42
1
 50
90
  0
TEXT
  8
_0-2_寸法
 62
    7
 10
306.59282429721895
 20
156.57639381399844
 40
5
 41
1
 50
90
  1
35
  0
POINT
  8
_0-1_Defpoints
 62
    7
 10
291.34282429721907
 20
160.38889381399841
  0
POINT
  8
_0-1_Defpoints
 62
    7
 10
291.33426379721902
 20
157.76389381399841
  0
POINT
  8
_0-1_Defpoints
 62
    7
 10
307.09282429721907
 20
157.76389381399841
  0
ENDBLK
  0
BLOCK
  2
-026-_D70
 70
   64
 10
0
 20
0
 30
0
  0
LINE
  8
_0-2_寸法
  6
CONTINUOUS
 62
    4
 10
286.09282429721907
 20
161.88889381399841
 11
286.09282429721907
 21
185.29590931399841
  0
LINE
  8
_0-2_寸法
  6
CONTINUOUS
 62
    4
 10
136.0928242972191
 20
161.88889381399841
 11
136.0928242972191
 21
185.29590931399841
  0
LINE
  8
_0-2_寸法
  6
CONTINUOUS
 62
    4
 10
285.59282429721907
 20
185.29590931399841
 11
136.5928242972191
 21
185.29590931399841
  0
INSERT
  2
-000-_Dot
  8
_0-2_寸法
 10
286.09282429721907
 20
185.29590931399841
 41
1
 42
1
 50
0
  0
INSERT
  2
-000-_Dot
  8
_0-2_寸法
 10
136.0928242972191
 20
185.29590931399841
 41
1
 42
1
 50
180
  0
TEXT
  8
_0-2_寸法
 62
    7
 10
201.0928242972191
 20
185.79590931399841
 40
5
 41
1
 50
0
  1
2000以下
  0
POINT
  8
_0-1_Defpoints
 62
    7
 10
286.09282429721907
 20
161.88889381399841
  0
POINT
  8
_0-1_Defpoints
 62
    7
 10
136.0928242972191
 20
161.88889381399841
  0
POINT
  8
_0-1_Defpoints
 62
    7
 10
136.0928242972191
 20
185.29590931399841
  0
ENDBLK
  0
ENDSEC
  0
SECTION
  2
ENTITIES
  0
LINE
  8
_0-3_躯体と製品
  6
CONTINUOUS
 62
    3
 10
237.95029016863361
 20
77.043368762379799
 11
199.87127216863362
 21
38.964350762379809
  0
LINE
  8
_0-3_躯体と製品
  6
CONTINUOUS
 62
    3
 10
240.77871716863362
 20
77.043368762379799
 11
202.69969916863352
 21
38.964350762379809
  0
LINE
  8
_0-3_躯体と製品
  6
CONTINUOUS
 62
    7
 10
184.77623216863361
 20
38.964350762379809
 11
336.13446716863353
 21
38.964350762379809
  0
LINE
  8
_0-3_躯体と製品
  6
PLINE3
 62
    3
 10
-88.222102831366442
 20
420.76451076237981
 11
-88.222102831366442
 21
-119.23548923762007
  0
LINE
  8
_0-3_躯体と製品
  6
CONTINUOUS
 62
    3
 10
1.7778761686336679
 20
161.51813376237979
 11
-18.222124831366386
 21
141.51813576237981
  0
LINE
  8
_0-3_躯体と製品
  6
CONTINUOUS
 62
    3
 10
-18.222124831366386
 20
144.34656276237985
 11
1.7778761686336679
 21
164.34656376237979
  0
LINE
  8
_0-3_躯体と製品
  6
CONTINUOUS
 62
    3
 10
1.7778761686336679
 20
158.68970676237984
 11
-18.222124831366386
 21
138.68970876237978
  0
LINE
  8
_0-3_躯体と製品
  6
CONTINUOUS
 62
    7
 10
-18.222124831366386
 20
-140.3148902376202
 11
-18.222124831366386
 21
473.6089857623798
  0
TEXT
  8
_0-4_文字-記号
 62
    7
 10
-145.61107683136629
 20
-176.60300723762009
 40
20
 41
0.8
 50
0
  1
縦断面図（Ｓ：１／３）
  0
LINE
  8
_0-3_躯体と製品
  6
CONTINUOUS
 62
    4
 10
-78.22212483136633
 20
-62.735490237620098
 11
-78.222103831366326
 21
148.26451176237984
  0
LINE
  8
_0-3_躯体と製品
  6
CONTINUOUS
 62
    4
 10
-98.222104831366266
 20
-62.735490237620098
 11
-98.222104831366266
 21
148.26451176237984
  0
LINE
  8
_0-3_躯体と製品
  6
CONTINUOUS
 62
    4
 10
-120.22212483136627
 20
-100.7354882376201
 11
-18.222124831366386
 21
-100.7354882376201
  0
LINE
  8
_0-3_躯体と製品
  6
CONTINUOUS
 62
    4
 10
-120.22212483136627
 20
-62.735490237620098
 11
-18.222124831366386
 21
-62.735490237620098
  0
LINE
  8
_0-3_躯体と製品
  6
CONTINUOUS
 62
    4
 10
-62.222104831366323
 20
-64.235490237620098
 11
-114.22210383136627
 21
-64.235490237620098
  0
LINE
  8
_0-3_躯体と製品
  6
CONTINUOUS
 62
    4
 10
-62.322193831366349
 20
-65.835489237620095
 11
-81.922102831366374
 21
-65.835489237620095
  0
LINE
  8
_0-3_躯体と製品
  6
PLINE3
 62
    3
 10
-71.722105831366434
 20
-81.735489237620101
 11
-50.972104831366323
 21
-81.735489237620101
  0
LINE
  8
_0-3_躯体と製品
  6
CONTINUOUS
 62
    4
 10
-115.12210083136637
 20
-88.735488237620103
 11
-116.62210083136637
 21
-88.735488237620103
  0
LINE
  8
_0-3_躯体と製品
  6
CONTINUOUS
 62
    4
 10
-115.12210083136637
 20
-88.735488237620103
 11
-115.62210183136642
 21
-97.235490237620212
  0
ARC
  8
_0-3_躯体と製品
  6
CONTINUOUS
 62
    4
 10
-114.1220148313663
 20
-68.335488237620211
 40
2.499998999999999
 50
90
 51
179.999392
  0
ARC
  8
_0-3_躯体と製品
  6
CONTINUOUS
 62
    4
 10
-114.72210483136627
 20
-81.735489237620101
 40
3.2498369999999999
 50
62.512081999999879
 51
125.7778720000002
  0
ARC
  8
_0-3_躯体と製品
  6
CONTINUOUS
 62
    4
 10
-114.72210483136627
 20
-81.735489237620101
 40
3.2498369999999999
 50
234.22211100000052
 51
270
  0
LINE
  8
_0-3_躯体と製品
  6
CONTINUOUS
 62
    4
 10
-114.72210483136627
 20
-83.756115237620094
 11
-116.47201683136632
 21
-82.745802237620097
  0
LINE
  8
_0-3_躯体と製品
  6
CONTINUOUS
 62
    4
 10
-114.72210483136627
 20
-79.714863237620108
 11
-116.47201683136632
 21
-80.725176237620104
  0
ARC
  8
_0-3_躯体と製品
  6
CONTINUOUS
 62
    4
 10
-114.22210383136627
 20
-68.235489237620101
 40
3.9999989999999999
 50
90
 51
180
  0
LINE
  8
_0-3_躯体と製品
  6
PLINE3
 62
    3
 10
-104.6221038313663
 20
-81.735489237620101
 11
-125.47210383136627
 21
-81.735489237620101
  0
LINE
  8
_0-3_躯体と製品
  6
CONTINUOUS
 62
    4
 10
-116.6221038313663
 20
-79.098930237620095
 11
-116.62201383136642
 21
-68.335461237620109
  0
LINE
  8
_0-3_躯体と製品
  6
CONTINUOUS
 62
    4
 10
-118.22210283136639
 20
-68.235489237620101
 11
-118.22210283136639
 21
-98.735490237620098
  0
LINE
  8
_0-3_躯体と製品
  6
CONTINUOUS
 62
    4
 10
-120.22212483136627
 20
-62.735490237620098
 11
-120.22212483136627
 21
-100.7354882376201
  0
LINE
  8
_0-3_躯体と製品
  6
CONTINUOUS
 62
    4
 10
-116.6221038313663
 20
-84.372048237620106
 11
-116.6221038313663
 21
-88.735488237620103
  0
LINE
  8
_0-3_躯体と製品
  6
CONTINUOUS
 62
    4
 10
-117.72210483136627
 20
-99.235488237620103
 11
-117.12210483136641
 21
-99.235488237620103
  0
LINE
  8
_0-3_躯体と製品
  6
CONTINUOUS
 62
    4
 10
-115.62210183136642
 20
-97.235490237620212
 11
-116.62210083136637
 21
-97.235490237620212
  0
ARC
  8
_0-3_躯体と製品
  6
CONTINUOUS
 62
    4
 10
-117.72210483136627
 20
-98.735490237620098
 40
0.5000010000000001
 50
180
 51
270
  0
ARC
  8
_0-3_躯体と製品
  6
CONTINUOUS
 62
    4
 10
-117.12210483136641
 20
-98.735490237620098
 40
0.5000010000000001
 50
270
 51
0
  0
LINE
  8
_0-3_躯体と製品
  6
CONTINUOUS
 62
    4
 10
-116.6221038313663
 20
-98.735490237620098
 11
-116.62210083136637
 21
-97.235490237620212
  0
LINE
  8
_0-3_躯体と製品
  6
CONTINUOUS
 62
    4
 10
-116.47201683136632
 20
-82.745802237620097
 11
-116.47201683136632
 21
-81.735489237620101
  0
LINE
  8
_0-3_躯体と製品
  6
CONTINUOUS
 62
    4
 10
-116.47201683136632
 20
-80.725176237620104
 11
-116.47201683136632
 21
-81.735489237620101
  0
LINE
  8
_0-3_躯体と製品
  6
CONTINUOUS
 62
    4
 10
-112.52210283136628
 20
-84.985326237620114
 11
-112.52210283136628
 21
-83.785326237620211
  0
LINE
  8
_0-3_躯体と製品
  6
CONTINUOUS
 62
    4
 10
-113.22210483136627
 20
-83.785326237620211
 11
-112.52210283136628
 21
-83.785326237620211
  0
LINE
  8
_0-3_躯体と製品
  6
CONTINUOUS
 62
    4
 10
-113.22210483136627
 20
-82.890087237620094
 11
-113.22210483136627
 21
-83.785326237620211
  0
LINE
  8
_0-3_躯体と製品
  6
CONTINUOUS
 62
    4
 10
-113.22210483136627
 20
-82.890087237620094
 11
-114.72210483136627
 21
-83.756115237620094
  0
LINE
  8
_0-3_躯体と製品
  6
CONTINUOUS
 62
    4
 10
-113.22210483136627
 20
-80.580888237620115
 11
-114.72210483136627
 21
-79.714863237620108
  0
LINE
  8
_0-3_躯体と製品
  6
CONTINUOUS
 62
    4
 10
-114.72210483136627
 20
-84.985326237620114
 11
-112.52210283136628
 21
-84.985326237620114
  0
LINE
  8
_0-3_躯体と製品
  6
CONTINUOUS
 62
    4
 10
-113.22210483136627
 20
-78.852531237620099
 11
-113.22210483136627
 21
-80.580888237620115
  0
LINE
  8
_0-3_躯体と製品
  6
CONTINUOUS
 62
    4
 10
-88.522102831366396
 20
-65.835489237620095
 11
-93.922102831366374
 21
-65.835489237620095
  0
LINE
  8
_0-3_躯体と製品
  6
CONTINUOUS
 62
    4
 10
-94.522102831366396
 20
-65.835489237620095
 11
-114.1220148313663
 21
-65.835489237620095
  0
LINE
  8
_0-3_躯体と製品
  6
CONTINUOUS
 62
    4
 10
-94.222102831366442
 20
-65.535489237620197
 11
-93.922102831366374
 21
-65.835489237620095
  0
LINE
  8
_0-3_躯体と製品
  6
CONTINUOUS
 62
    4
 10
-94.522102831366396
 20
-65.835489237620095
 11
-94.222102831366442
 21
-65.535489237620197
  0
ARC
  8
_0-3_躯体と製品
  6
CONTINUOUS
 62
    4
 10
-82.235803831366411
 20
-64.235721237620197
 40
4.1997900000000001
 50
230.69686900000031
 51
309.3093709999996
  0
LINE
  8
_0-3_躯体と製品
  6
CONTINUOUS
 62
    4
 10
-88.222102831366442
 20
-65.535489237620197
 11
-87.922102831366374
 21
-65.835489237620095
  0
LINE
  8
_0-3_躯体と製品
  6
CONTINUOUS
 62
    4
 10
-88.522102831366396
 20
-65.835489237620095
 11
-88.222102831366442
 21
-65.535489237620197
  0
LINE
  8
_0-3_躯体と製品
  6
CONTINUOUS
 62
    4
 10
-82.222102831366442
 20
-65.535489237620197
 11
-81.922102831366374
 21
-65.835489237620095
  0
LINE
  8
_0-3_躯体と製品
  6
CONTINUOUS
 62
    4
 10
-82.522102831366396
 20
-65.835489237620095
 11
-82.222102831366442
 21
-65.535489237620197
  0
LINE
  8
_0-3_躯体と製品
  6
CONTINUOUS
 62
    4
 10
-87.922102831366374
 20
-65.835489237620095
 11
-82.522102831366396
 21
-65.835489237620095
  0
ARC
  8
_0-3_躯体と製品
  6
CONTINUOUS
 62
    4
 10
-81.33584883136632
 20
-67.927419237620114
 40
0.3999809999999999
 50
180
 51
283.70023300000003
  0
ARC
  8
_0-3_躯体と製品
  6
CONTINUOUS
 62
    4
 10
-83.135758831366388
 20
-67.927419237620114
 40
0.3999809999999999
 50
256.29976699999992
 51
0
  0
LINE
  8
_0-3_躯体と製品
  6
CONTINUOUS
 62
    4
 10
-82.735777831366363
 20
-67.901259237620195
 11
-81.735829831366345
 21
-67.901259237620195
  0
ARC
  8
_0-3_躯体と製品
  6
CONTINUOUS
 62
    4
 10
-83.443090831366362
 20
-65.702739237620108
 40
2.299884
 50
183.31274299999993
 51
230.82048900000024
  0
ARC
  8
_0-3_躯体と製品
  6
CONTINUOUS
 62
    4
 10
-81.03219183136639
 20
-65.705742237620115
 40
2.299884
 50
309.3091239999996
 51
356.76216300000061
  0
LINE
  8
_0-3_躯体と製品
  6
PLINE2
 62
    3
 10
-23.222122831366448
 20
-74.229933237620088
 11
-28.141570831366352
 21
-74.229933237620088
  0
LINE
  8
_0-3_躯体と製品
  6
PLINE2
 62
    3
 10
-23.222122831366448
 20
-85.735491237620096
 11
-27.864262831366375
 21
-85.735491237620096
  0
LINE
  8
_0-3_躯体と製品
  6
PLINE2
 62
    3
 10
-23.222122831366448
 20
-89.241045237620114
 11
-28.141570831366352
 21
-89.241045237620114
  0
LINE
  8
_0-3_躯体と製品
  6
PLINE2
 62
    3
 10
-23.222122831366448
 20
-77.735487237620106
 11
-27.864262831366375
 21
-77.735487237620106
  0
LINE
  8
_0-3_躯体と製品
  6
PLINE3
 62
    3
 10
-19.222123831366332
 20
-81.735489237620101
 11
-32.693053831366399
 21
-81.735489237620101
  0
LINE
  8
_0-3_躯体と製品
  6
CONTINUOUS
 62
    4
 10
-59.822104831366346
 20
-79.098930237620095
 11
-59.822191831366354
 21
-68.335464237620101
  0
LINE
  8
_0-3_躯体と製品
  6
CONTINUOUS
 62
    4
 10
-58.222102831366328
 20
-68.235489237620101
 11
-58.222102831366328
 21
-98.735490237620098
  0
LINE
  8
_0-3_躯体と製品
  6
CONTINUOUS
 62
    4
 10
-59.822104831366346
 20
-84.372048237620106
 11
-59.822104831366346
 21
-88.735488237620103
  0
ARC
  8
_0-3_躯体と製品
  6
CONTINUOUS
 62
    4
 10
-58.722103831366439
 20
-98.735490237620098
 40
0.5000010000000001
 50
270
 51
0
  0
LINE
  8
_0-3_躯体と製品
  6
CONTINUOUS
 62
    4
 10
-59.322106831366455
 20
-99.235488237620103
 11
-58.722103831366439
 21
-99.235488237620103
  0
LINE
  8
_0-3_躯体と製品
  6
CONTINUOUS
 62
    4
 10
-60.822106831366398
 20
-97.235490237620212
 11
-59.822104831366346
 21
-97.235490237620212
  0
LINE
  8
_0-3_躯体と製品
  6
CONTINUOUS
 62
    4
 10
-61.322104831366346
 20
-88.735488237620103
 11
-59.822104831366346
 21
-88.735488237620103
  0
LINE
  8
_0-3_躯体と製品
  6
CONTINUOUS
 62
    4
 10
-61.322104831366346
 20
-88.735488237620103
 11
-60.822106831366398
 21
-97.235490237620212
  0
ARC
  8
_0-3_躯体と製品
  6
CONTINUOUS
 62
    4
 10
-59.322106831366455
 20
-98.735490237620098
 40
0.5000010000000001
 50
180
 51
270
  0
LINE
  8
_0-3_躯体と製品
  6
CONTINUOUS
 62
    4
 10
-59.822104831366346
 20
-98.735490237620098
 11
-59.822104831366346
 21
-97.235490237620212
  0
LINE
  8
_0-3_躯体と製品
  6
CONTINUOUS
 62
    4
 10
-64.022104831366391
 20
-84.985326237620114
 11
-64.022104831366391
 21
-83.785326237620211
  0
LINE
  8
_0-3_躯体と製品
  6
CONTINUOUS
 62
    4
 10
-63.322102831366351
 20
-83.785326237620211
 11
-64.022104831366391
 21
-83.785326237620211
  0
LINE
  8
_0-3_躯体と製品
  6
CONTINUOUS
 62
    4
 10
-63.322102831366351
 20
-82.832355237620106
 11
-63.322102831366351
 21
-83.785326237620211
  0
ARC
  8
_0-3_躯体と製品
  6
CONTINUOUS
 62
    4
 10
-61.722106831366375
 20
-81.735489237620101
 40
3.2498369999999999
 50
54.222127999999721
 51
131.17173200000011
  0
ARC
  8
_0-3_躯体と製品
  6
CONTINUOUS
 62
    4
 10
-61.722106831366375
 20
-81.735489237620101
 40
3.2498369999999999
 50
270
 51
305.77788899999939
  0
LINE
  8
_0-3_躯体と製品
  6
CONTINUOUS
 62
    4
 10
-63.322102831366351
 20
-82.832355237620106
 11
-61.722106831366375
 21
-83.756115237620094
  0
LINE
  8
_0-3_躯体と製品
  6
CONTINUOUS
 62
    4
 10
-59.972191831366388
 20
-82.745802237620097
 11
-59.972191831366388
 21
-81.735489237620101
  0
LINE
  8
_0-3_躯体と製品
  6
CONTINUOUS
 62
    4
 10
-61.722106831366375
 20
-83.756115237620094
 11
-59.972191831366388
 21
-82.745802237620097
  0
LINE
  8
_0-3_躯体と製品
  6
CONTINUOUS
 62
    4
 10
-63.861532831366389
 20
-80.950062237620187
 11
-61.722106831366375
 21
-79.714863237620108
  0
LINE
  8
_0-3_躯体と製品
  6
CONTINUOUS
 62
    4
 10
-59.972191831366388
 20
-80.725176237620104
 11
-59.972191831366388
 21
-81.735489237620101
  0
LINE
  8
_0-3_躯体と製品
  6
CONTINUOUS
 62
    4
 10
-61.722106831366375
 20
-79.714863237620108
 11
-59.972191831366388
 21
-80.725176237620104
  0
LINE
  8
_0-3_躯体と製品
  6
CONTINUOUS
 62
    4
 10
-64.022104831366391
 20
-84.985326237620114
 11
-61.722106831366375
 21
-84.985326237620114
  0
LINE
  8
_0-3_躯体と製品
  6
CONTINUOUS
 62
    4
 10
-63.861532831366389
 20
-79.289208237620102
 11
-63.861532831366389
 21
-80.950062237620187
  0
LINE
  8
_0-3_躯体と製品
  6
PLINE2
 62
    3
 10
-28.722127831366379
 20
-88.235493237620091
 11
-28.722127831366379
 21
-81.735489237620101
  0
LINE
  8
_0-3_躯体と製品
  6
PLINE2
 62
    3
 10
-28.141570831366352
 20
-89.241045237620114
 11
-28.722127831366379
 21
-88.235493237620091
  0
ARC
  8
_0-3_躯体と製品
  6
PLINE2
 62
    3
 10
-26.860777831366363
 20
-76.163370237620114
 40
1.865081999999999
 50
183.62604000000002
 51
237.44986900000004
  0
LINE
  8
_0-3_躯体と製品
  6
PLINE2
 62
    3
 10
-28.141570831366352
 20
-74.229933237620088
 11
-28.722127831366379
 21
-75.235485237620111
  0
LINE
  8
_0-3_躯体と製品
  6
PLINE2
 62
    3
 10
-28.722127831366379
 20
-75.235485237620111
 11
-28.722127831366379
 21
-81.735489237620101
  0
ARC
  8
_0-3_躯体と製品
  6
PLINE2
 62
    3
 10
-26.860777831366363
 20
-87.307608237620087
 40
1.865081999999999
 50
122.55013099999999
 51
176.3739599999999
  0
ARC
  8
_0-3_躯体と製品
  6
PLINE2
 62
    3
 10
-18.967705831366288
 20
-81.735489237620101
 40
9.7544189999999986
 50
155.79072400000049
 51
204.20927599999939
  0
ARC
  8
_0-3_躯体と製品
  6
CONTINUOUS
 62
    4
 10
-62.222104831366323
 20
-68.235489237620101
 40
3.9999989999999999
 50
0
 51
90
  0
ARC
  8
_0-3_躯体と製品
  6
CONTINUOUS
 62
    4
 10
-62.322193831366349
 20
-68.335488237620211
 40
2.499998999999999
 50
0.0005970000008192
 51
90
  0
LINE
  8
_0-3_躯体と製品
  6
PLINE2
 62
    3
 10
-23.222122831366448
 20
-92.735490237620098
 11
-23.222122831366448
 21
-70.735488237620103
  0
LINE
  8
_0-3_躯体と製品
  6
PLINE2
 62
    3
 10
-22.222123831366332
 20
-100.7354882376201
 11
-22.222123831366332
 21
-62.735490237620098
  0
LINE
  8
_0-3_躯体と製品
  6
PLINE2
 62
    3
 10
7.3254011686336753
 20
-75.735486237620108
 11
-18.222124831366386
 21
-75.735486237620108
  0
LINE
  8
_0-3_躯体と製品
  6
PLINE2
 62
    3
 10
7.3254011686336753
 20
-77.735487237620106
 11
-18.222124831366386
 21
-77.735487237620106
  0
LINE
  8
_0-3_躯体と製品
  6
PLINE2
 62
    3
 10
7.3254011686336753
 20
-85.735491237620096
 11
-18.222124831366386
 21
-85.735491237620096
  0
LINE
  8
_0-3_躯体と製品
  6
PLINE2
 62
    3
 10
7.3254011686336753
 20
-87.735492237620093
 11
-18.222124831366386
 21
-87.735492237620093
  0
LINE
  8
_0-3_躯体と製品
  6
PLINE2
 62
    3
 10
-22.222123831366332
 20
-92.735490237620098
 11
-23.222122831366448
 21
-92.735490237620098
  0
LINE
  8
_0-3_躯体と製品
  6
PLINE2
 62
    3
 10
-23.222122831366448
 20
-70.735488237620103
 11
-22.222123831366332
 21
-70.735488237620103
  0
LINE
  8
_0-3_躯体と製品
  6
CONTINUOUS
 62
    3
 10
1.7778761686336679
 20
8.2424187623798275
 11
-18.222124831366386
 21
-11.75758223762017
  0
LINE
  8
_0-3_躯体と製品
  6
CONTINUOUS
 62
    3
 10
-18.222124831366386
 20
-14.586009237620203
 11
1.7778761686336679
 21
5.413991762379851
  0
LINE
  8
_0-3_躯体と製品
  6
CONTINUOUS
 62
    3
 10
1.7778761686336679
 20
11.070845762379832
 11
-18.222124831366386
 21
-8.9291552376201366
  0
LINE
  8
_0-3_躯体と製品
  6
CONTINUOUS
 62
    4
 10
-78.22212483136633
 20
366.76451076237981
 11
-78.22212483136633
 21
153.2645097623799
  0
LINE
  8
_0-3_躯体と製品
  6
CONTINUOUS
 62
    4
 10
-98.222122831366391
 20
366.76451076237981
 11
-98.222122831366391
 21
153.2645097623799
  0
LINE
  8
_0-3_躯体と製品
  6
CONTINUOUS
 62
    4
 10
-78.22212483136633
 20
364.26451176237981
 11
-18.222124831366386
 21
364.26451176237981
  0
LINE
  8
_0-3_躯体と製品
  6
CONTINUOUS
 62
    4
 10
-120.22212483136627
 20
402.26450976237982
 11
-18.222124831366386
 21
402.26450976237982
  0
LINE
  8
_0-3_躯体と製品
  6
CONTINUOUS
 62
    4
 10
-62.222104831366323
 20
400.76450976237982
 11
-114.22210383136627
 21
400.76450976237982
  0
LINE
  8
_0-3_躯体と製品
  6
CONTINUOUS
 62
    4
 10
-62.322193831366349
 20
399.16451076237979
 11
-78.922102831366374
 21
399.16451076237979
  0
LINE
  8
_0-3_躯体と製品
  6
PLINE3
 62
    3
 10
-71.722105831366434
 20
383.26451076237981
 11
-50.972104831366323
 21
383.26451076237981
  0
LINE
  8
_0-3_躯体と製品
  6
CONTINUOUS
 62
    4
 10
-74.722102831366442
 20
367.36451076237978
 11
-63.527983831366328
 21
367.36451076237978
  0
LINE
  8
_0-3_躯体と製品
  6
CONTINUOUS
 62
    4
 10
-60.322105831366343
 20
365.76451176237981
 11
-77.972104831366323
 21
365.76451176237981
  0
LINE
  8
_0-3_躯体と製品
  6
CONTINUOUS
 62
    4
 10
-120.22212483136627
 20
364.26451176237981
 11
-98.222122831366391
 21
364.26451176237981
  0
LINE
  8
_0-3_躯体と製品
  6
CONTINUOUS
 62
    4
 10
-115.12210083136637
 20
376.26451176237981
 11
-116.62210083136637
 21
376.26451176237981
  0
LINE
  8
_0-3_躯体と製品
  6
CONTINUOUS
 62
    4
 10
-115.12210083136637
 20
376.26451176237981
 11
-115.62210183136642
 21
367.76450976237982
  0
ARC
  8
_0-3_躯体と製品
  6
CONTINUOUS
 62
    4
 10
-114.1220148313663
 20
396.66451176237968
 40
2.499998999999999
 50
90
 51
179.999392
  0
ARC
  8
_0-3_躯体と製品
  6
CONTINUOUS
 62
    4
 10
-114.72210483136627
 20
383.26451076237981
 40
3.2498369999999999
 50
62.512081999999879
 51
125.7778720000002
  0
ARC
  8
_0-3_躯体と製品
  6
CONTINUOUS
 62
    4
 10
-114.72210483136627
 20
383.26451076237981
 40
3.2498369999999999
 50
234.22211100000052
 51
270
  0
LINE
  8
_0-3_躯体と製品
  6
CONTINUOUS
 62
    4
 10
-114.72210483136627
 20
381.24388476237982
 11
-116.47201683136632
 21
382.25419776237982
  0
LINE
  8
_0-3_躯体と製品
  6
CONTINUOUS
 62
    4
 10
-114.72210483136627
 20
385.28513676237969
 11
-116.47201683136632
 21
384.27482376237981
  0
ARC
  8
_0-3_躯体と製品
  6
CONTINUOUS
 62
    4
 10
-114.22210383136627
 20
396.76451076237981
 40
3.9999989999999999
 50
90
 51
180
  0
LINE
  8
_0-3_躯体と製品
  6
PLINE3
 62
    3
 10
-104.6221038313663
 20
383.26451076237981
 11
-125.47210383136627
 21
383.26451076237981
  0
ARC
  8
_0-3_躯体と製品
  6
CONTINUOUS
 62
    4
 10
-115.55570883136636
 20
367.86451176237972
 40
0.5000010000000001
 50
270
 51
351.86989800000049
  0
LINE
  8
_0-3_躯体と製品
  6
CONTINUOUS
 62
    4
 10
-114.6220608313663
 20
378.76451076237981
 11
-116.3621088313663
 21
376.58945076237973
  0
LINE
  8
_0-3_躯体と製品
  6
CONTINUOUS
 62
    4
 10
-116.20593483136628
 20
376.26451176237981
 11
-114.6220608313663
 21
376.26451176237981
  0
LINE
  8
_0-3_躯体と製品
  6
CONTINUOUS
 62
    4
 10
-116.12210283136642
 20
365.76451176237981
 11
-98.472103831366269
 21
365.76451176237981
  0
LINE
  8
_0-3_躯体と製品
  6
CONTINUOUS
 62
    4
 10
-118.22210283136639
 20
396.76451076237981
 11
-118.22210283136639
 21
366.26450976237982
  0
LINE
  8
_0-3_躯体と製品
  6
CONTINUOUS
 62
    4
 10
-120.22212483136627
 20
402.26450976237982
 11
-120.22212483136627
 21
364.26451176237981
  0
LINE
  8
_0-3_躯体と製品
  6
CONTINUOUS
 62
    4
 10
-117.72210483136627
 20
365.76451176237981
 11
-117.12210483136641
 21
365.76451176237981
  0
LINE
  8
_0-3_躯体と製品
  6
CONTINUOUS
 62
    4
 10
-115.62210183136642
 20
367.76450976237982
 11
-116.62210083136637
 21
367.76450976237982
  0
ARC
  8
_0-3_躯体と製品
  6
CONTINUOUS
 62
    4
 10
-117.72210483136627
 20
366.26450976237982
 40
0.5000010000000001
 50
180
 51
270
  0
ARC
  8
_0-3_躯体と製品
  6
CONTINUOUS
 62
    4
 10
-117.12210483136641
 20
366.26450976237982
 40
0.5000010000000001
 50
270
 51
0
  0
LINE
  8
_0-3_躯体と製品
  6
CONTINUOUS
 62
    4
 10
-116.6221038313663
 20
366.26450976237982
 11
-116.62210083136637
 21
367.76450976237982
  0
LINE
  8
_0-3_躯体と製品
  6
CONTINUOUS
 62
    4
 10
-116.62206183136641
 20
367.36451076237978
 11
-115.55570883136636
 21
367.36451076237978
  0
LINE
  8
_0-3_躯体と製品
  6
CONTINUOUS
 62
    4
 10
-116.6221038313663
 20
366.26450976237982
 11
-116.6221038313663
 21
367.36451076237978
  0
ARC
  8
_0-3_躯体と製品
  6
CONTINUOUS
 62
    4
 10
-116.12210283136642
 20
366.26450976237982
 40
0.5000010000000001
 50
180
 51
270
  0
LINE
  8
_0-3_躯体と製品
  6
CONTINUOUS
 62
    4
 10
-116.6221038313663
 20
385.90106976237968
 11
-116.62201383136642
 21
396.66453876237972
  0
LINE
  8
_0-3_躯体と製品
  6
CONTINUOUS
 62
    4
 10
-116.6221038313663
 20
380.62795176237978
 11
-116.6221038313663
 21
376.26451176237981
  0
LINE
  8
_0-3_躯体と製品
  6
CONTINUOUS
 62
    4
 10
-116.47201683136632
 20
382.25419776237982
 11
-116.47201683136632
 21
383.26451076237981
  0
LINE
  8
_0-3_躯体と製品
  6
CONTINUOUS
 62
    4
 10
-116.47201683136632
 20
384.27482376237981
 11
-116.47201683136632
 21
383.26451076237981
  0
ARC
  8
_0-3_躯体と製品
  6
CONTINUOUS
 62
    4
 10
-116.20593483136628
 20
376.46450976237981
 40
0.200001
 50
141.3401919999994
 51
270
  0
LINE
  8
_0-3_躯体と製品
  6
CONTINUOUS
 62
    4
 10
-112.6355448313663
 20
378.76451076237981
 11
-113.41115883136627
 21
367.9352217623798
  0
LINE
  8
_0-3_躯体と製品
  6
CONTINUOUS
 62
    4
 10
-114.6220608313663
 20
376.26451176237981
 11
-115.06073283136629
 21
367.79380176237987
  0
ARC
  8
_0-3_躯体と製品
  6
CONTINUOUS
 62
    3
 10
-93.320416831366401
 20
370.4562897623797
 40
0.3999809999999999
 50
76.29976699999996
 51
180
  0
ARC
  8
_0-3_躯体と製品
  6
CONTINUOUS
 62
    3
 10
-95.120326831366356
 20
370.4562897623797
 40
0.3999809999999999
 50
0
 51
103.70023300000001
  0
ARC
  8
_0-3_躯体と製品
  6
CONTINUOUS
 62
    3
 10
-94.220371831366379
 20
366.76459176237978
 40
4.1997900000000001
 50
50.690629000000342
 51
129.30313099999964
  0
LINE
  8
_0-3_躯体と製品
  6
CONTINUOUS
 62
    4
 10
-98.472103831366269
 20
366.76451076237981
 11
-77.972104831366323
 21
366.76451076237981
  0
LINE
  8
_0-3_躯体と製品
  6
CONTINUOUS
 62
    4
 10
-88.522102831366396
 20
368.3645097623799
 11
-96.922102831366374
 21
368.3645097623799
  0
LINE
  8
_0-3_躯体と製品
  6
CONTINUOUS
 62
    4
 10
-97.723699831366389
 20
368.3645097623799
 11
-90.720547831366389
 21
368.3645097623799
  0
LINE
  8
_0-3_躯体と製品
  6
CONTINUOUS
 62
    4
 10
-101.72210283136639
 20
367.36451076237978
 11
-112.91618283136637
 21
367.36451076237978
  0
ARC
  8
_0-3_躯体と製品
  6
CONTINUOUS
 62
    4
 10
-112.91618283136637
 20
367.86451176237972
 40
0.5000010000000001
 50
171.86989800000049
 51
270
  0
LINE
  8
_0-3_躯体と製品
  6
CONTINUOUS
 62
    4
 10
-94.522102831366396
 20
368.3645097623799
 11
-94.222102831366442
 21
368.06450976237977
  0
LINE
  8
_0-3_躯体と製品
  6
CONTINUOUS
 62
    4
 10
-94.222102831366442
 20
368.06450976237977
 11
-93.922102831366374
 21
368.3645097623799
  0
LINE
  8
_0-3_躯体と製品
  6
CONTINUOUS
 62
    4
 10
-98.472103831366269
 20
365.76451176237981
 11
-98.472103831366269
 21
366.76451076237981
  0
LINE
  8
_0-3_躯体と製品
  6
CONTINUOUS
 62
    4
 10
-101.72210283136639
 20
368.3645097623799
 11
-101.72210283136639
 21
367.36451076237978
  0
LINE
  8
_0-3_躯体と製品
  6
CONTINUOUS
 62
    4
 10
-97.522102831366396
 20
368.3645097623799
 11
-101.72210283136639
 21
368.3645097623799
  0
LINE
  8
_0-3_躯体と製品
  6
CONTINUOUS
 62
    3
 10
-94.720345831366387
 20
370.43012676237981
 11
-93.72039783136637
 21
370.43012676237981
  0
ARC
  8
_0-3_躯体と製品
  6
CONTINUOUS
 62
    3
 10
-95.427658831366443
 20
368.23160976237978
 40
2.299884
 50
129.17951099999979
 51
176.68725699999999
  0
LINE
  8
_0-3_躯体と製品
  6
CONTINUOUS
 62
    4
 10
-74.722102831366442
 20
368.3645097623799
 11
-81.922102831366374
 21
368.3645097623799
  0
LINE
  8
_0-3_躯体と製品
  6
CONTINUOUS
 62
    4
 10
-82.522102831366396
 20
368.3645097623799
 11
-82.222102831366442
 21
368.06450976237977
  0
LINE
  8
_0-3_躯体と製品
  6
CONTINUOUS
 62
    4
 10
-82.222102831366442
 20
368.06450976237977
 11
-81.922102831366374
 21
368.3645097623799
  0
LINE
  8
_0-3_躯体と製品
  6
CONTINUOUS
 62
    4
 10
-88.522102831366396
 20
368.3645097623799
 11
-88.222102831366442
 21
368.06450976237977
  0
LINE
  8
_0-3_躯体と製品
  6
CONTINUOUS
 62
    4
 10
-88.222102831366442
 20
368.06450976237977
 11
-87.922102831366374
 21
368.3645097623799
  0
LINE
  8
_0-3_躯体と製品
  6
CONTINUOUS
 62
    4
 10
-87.922102831366374
 20
368.3645097623799
 11
-82.522102831366396
 21
368.3645097623799
  0
ARC
  8
_0-3_躯体と製品
  6
CONTINUOUS
 62
    3
 10
-93.016759831366358
 20
368.23461276237992
 40
2.299884
 50
3.2378369999993821
 51
50.690876000000429
  0
LINE
  8
_0-3_躯体と製品
  6
CONTINUOUS
 62
    4
 10
-77.972104831366323
 20
365.76451176237981
 11
-77.972104831366323
 21
366.76451076237981
  0
LINE
  8
_0-3_躯体と製品
  6
CONTINUOUS
 62
    4
 10
-74.722102831366442
 20
368.3645097623799
 11
-74.722102831366442
 21
367.36451076237978
  0
LINE
  8
_0-3_躯体と製品
  6
CONTINUOUS
 62
    4
 10
-78.22212483136633
 20
365.76451176237981
 11
-77.972104831366323
 21
365.76451176237981
  0
LINE
  8
_0-3_躯体と製品
  6
CONTINUOUS
 62
    4
 10
-88.522102831366396
 20
399.16451076237979
 11
-96.922102831366374
 21
399.16451076237979
  0
LINE
  8
_0-3_躯体と製品
  6
CONTINUOUS
 62
    4
 10
-112.52210283136628
 20
380.0146737623798
 11
-112.52210283136628
 21
381.21467376237968
  0
LINE
  8
_0-3_躯体と製品
  6
CONTINUOUS
 62
    4
 10
-113.22210483136627
 20
381.21467376237968
 11
-112.52210283136628
 21
381.21467376237968
  0
LINE
  8
_0-3_躯体と製品
  6
CONTINUOUS
 62
    4
 10
-113.22210483136627
 20
382.10991276237968
 11
-113.22210483136627
 21
381.21467376237968
  0
LINE
  8
_0-3_躯体と製品
  6
CONTINUOUS
 62
    4
 10
-113.22210483136627
 20
382.10991276237968
 11
-114.72210483136627
 21
381.24388476237982
  0
LINE
  8
_0-3_躯体と製品
  6
CONTINUOUS
 62
    4
 10
-113.22210483136627
 20
384.41911176237977
 11
-114.72210483136627
 21
385.28513676237969
  0
LINE
  8
_0-3_躯体と製品
  6
CONTINUOUS
 62
    4
 10
-114.72210483136627
 20
380.0146737623798
 11
-112.52210283136628
 21
380.0146737623798
  0
LINE
  8
_0-3_躯体と製品
  6
CONTINUOUS
 62
    4
 10
-113.22210483136627
 20
386.14746876237979
 11
-113.22210483136627
 21
384.41911176237977
  0
LINE
  8
_0-3_躯体と製品
  6
CONTINUOUS
 62
    4
 10
-112.6355448313663
 20
378.76451076237981
 11
-114.6220608313663
 21
378.76451076237981
  0
LINE
  8
_0-3_躯体と製品
  6
CONTINUOUS
 62
    4
 10
-97.522102831366396
 20
399.16451076237979
 11
-114.1220148313663
 21
399.16451076237979
  0
LINE
  8
_0-3_躯体と製品
  6
CONTINUOUS
 62
    4
 10
-97.222102831366442
 20
399.4645107623798
 11
-96.922102831366374
 21
399.16451076237979
  0
LINE
  8
_0-3_躯体と製品
  6
CONTINUOUS
 62
    4
 10
-97.522102831366396
 20
399.16451076237979
 11
-97.222102831366442
 21
399.4645107623798
  0
LINE
  8
_0-3_躯体と製品
  6
CONTINUOUS
 62
    4
 10
-87.922102831366374
 20
399.16451076237979
 11
-79.522102831366396
 21
399.16451076237979
  0
LINE
  8
_0-3_躯体と製品
  6
CONTINUOUS
 62
    4
 10
-88.222102831366442
 20
399.4645107623798
 11
-87.922102831366374
 21
399.16451076237979
  0
LINE
  8
_0-3_躯体と製品
  6
CONTINUOUS
 62
    4
 10
-88.522102831366396
 20
399.16451076237979
 11
-88.222102831366442
 21
399.4645107623798
  0
LINE
  8
_0-3_躯体と製品
  6
CONTINUOUS
 62
    4
 10
-79.222102831366442
 20
399.4645107623798
 11
-78.922102831366374
 21
399.16451076237979
  0
LINE
  8
_0-3_躯体と製品
  6
CONTINUOUS
 62
    4
 10
-79.522102831366396
 20
399.16451076237979
 11
-79.222102831366442
 21
399.4645107623798
  0
LINE
  8
_0-3_躯体と製品
  6
CONTINUOUS
 62
    3
 10
1.7778761686336679
 20
315.17813976237983
 11
-18.222124831366386
 21
295.17813876237972
  0
LINE
  8
_0-3_躯体と製品
  6
CONTINUOUS
 62
    3
 10
-18.222124831366386
 20
298.00656576237981
 11
1.7778761686336679
 21
318.00656676237969
  0
LINE
  8
_0-3_躯体と製品
  6
CONTINUOUS
 62
    3
 10
1.7778761686336679
 20
312.3497127623798
 11
-18.222124831366386
 21
292.3497117623798
  0
LINE
  8
_0-3_躯体と製品
  6
PLINE2
 62
    3
 10
-23.222122831366448
 20
390.77006676237983
 11
-28.141570831366352
 21
390.77006676237983
  0
LINE
  8
_0-3_躯体と製品
  6
PLINE2
 62
    3
 10
-23.222122831366448
 20
379.26450876237982
 11
-27.864262831366375
 21
379.26450876237982
  0
LINE
  8
_0-3_躯体と製品
  6
PLINE2
 62
    3
 10
-23.222122831366448
 20
375.7589547623798
 11
-28.141570831366352
 21
375.7589547623798
  0
LINE
  8
_0-3_躯体と製品
  6
PLINE2
 62
    3
 10
-23.222122831366448
 20
387.26451276237981
 11
-27.864262831366375
 21
387.26451276237981
  0
LINE
  8
_0-3_躯体と製品
  6
PLINE3
 62
    3
 10
-19.222123831366332
 20
383.26451076237981
 11
-32.693053831366399
 21
383.26451076237981
  0
LINE
  8
_0-3_躯体と製品
  6
CONTINUOUS
 62
    4
 10
-61.322104831366346
 20
376.26451176237981
 11
-60.822106831366398
 21
367.76450976237982
  0
LINE
  8
_0-3_躯体と製品
  6
CONTINUOUS
 62
    4
 10
-58.222102831366328
 20
396.76451076237981
 11
-58.222102831366328
 21
366.26450976237982
  0
LINE
  8
_0-3_躯体と製品
  6
CONTINUOUS
 62
    4
 10
-63.808621831366395
 20
378.76451076237981
 11
-63.033007831366376
 21
367.9352217623798
  0
LINE
  8
_0-3_躯体と製品
  6
CONTINUOUS
 62
    4
 10
-61.822105831366343
 20
376.26451176237981
 11
-61.383433831366347
 21
367.79380176237987
  0
ARC
  8
_0-3_躯体と製品
  6
CONTINUOUS
 62
    4
 10
-58.722103831366439
 20
366.26450976237982
 40
0.5000010000000001
 50
270
 51
0
  0
LINE
  8
_0-3_躯体と製品
  6
CONTINUOUS
 62
    4
 10
-59.322106831366455
 20
365.76451176237981
 11
-58.722103831366439
 21
365.76451176237981
  0
LINE
  8
_0-3_躯体と製品
  6
CONTINUOUS
 62
    4
 10
-60.822106831366398
 20
367.76450976237982
 11
-59.822104831366346
 21
367.76450976237982
  0
ARC
  8
_0-3_躯体と製品
  6
CONTINUOUS
 62
    4
 10
-59.322106831366455
 20
366.26450976237982
 40
0.5000010000000001
 50
180
 51
270
  0
LINE
  8
_0-3_躯体と製品
  6
CONTINUOUS
 62
    4
 10
-59.822104831366346
 20
366.26450976237982
 11
-59.822104831366346
 21
367.76450976237982
  0
ARC
  8
_0-3_躯体と製品
  6
CONTINUOUS
 62
    4
 10
-63.527983831366328
 20
367.86451176237972
 40
0.5000010000000001
 50
270
 51
8.1301019999994644
  0
LINE
  8
_0-3_躯体と製品
  6
CONTINUOUS
 62
    4
 10
-59.822104831366346
 20
367.36451076237978
 11
-59.822104831366346
 21
366.26450976237982
  0
LINE
  8
_0-3_躯体と製品
  6
CONTINUOUS
 62
    4
 10
-59.822104831366346
 20
367.36451076237978
 11
-60.888457831366395
 21
367.36451076237978
  0
ARC
  8
_0-3_躯体と製品
  6
CONTINUOUS
 62
    4
 10
-60.888457831366395
 20
367.86451176237972
 40
0.5000010000000001
 50
188.1301019999994
 51
270
  0
ARC
  8
_0-3_躯体と製品
  6
CONTINUOUS
 62
    4
 10
-60.322105831366343
 20
366.26450976237982
 40
0.5000010000000001
 50
270
 51
0
  0
LINE
  8
_0-3_躯体と製品
  6
CONTINUOUS
 62
    4
 10
-59.822104831366346
 20
366.26450976237982
 11
-59.822104831366346
 21
366.66451176237979
  0
LINE
  8
_0-3_躯体と製品
  6
CONTINUOUS
 62
    4
 10
-59.822104831366346
 20
385.90106976237968
 11
-59.822191831366354
 21
396.66453576237967
  0
LINE
  8
_0-3_躯体と製品
  6
CONTINUOUS
 62
    4
 10
-64.022104831366391
 20
380.0146737623798
 11
-64.022104831366391
 21
381.21467376237968
  0
LINE
  8
_0-3_躯体と製品
  6
CONTINUOUS
 62
    4
 10
-63.322102831366351
 20
381.21467376237968
 11
-64.022104831366391
 21
381.21467376237968
  0
LINE
  8
_0-3_躯体と製品
  6
CONTINUOUS
 62
    4
 10
-63.322102831366351
 20
382.16764476237978
 11
-63.322102831366351
 21
381.21467376237968
  0
LINE
  8
_0-3_躯体と製品
  6
CONTINUOUS
 62
    4
 10
-61.322104831366346
 20
376.26451176237981
 11
-59.822104831366346
 21
376.26451176237981
  0
ARC
  8
_0-3_躯体と製品
  6
CONTINUOUS
 62
    4
 10
-61.722106831366375
 20
383.26451076237981
 40
3.2498369999999999
 50
54.222127999999721
 51
131.17173200000011
  0
LINE
  8
_0-3_躯体と製品
  6
CONTINUOUS
 62
    4
 10
-59.822104831366346
 20
380.62795176237978
 11
-59.822104831366346
 21
376.26451176237981
  0
ARC
  8
_0-3_躯体と製品
  6
CONTINUOUS
 62
    4
 10
-61.722106831366375
 20
383.26451076237981
 40
3.2498369999999999
 50
270
 51
305.77788899999939
  0
LINE
  8
_0-3_躯体と製品
  6
CONTINUOUS
 62
    4
 10
-63.322102831366351
 20
382.16764476237978
 11
-61.722106831366375
 21
381.24388476237982
  0
LINE
  8
_0-3_躯体と製品
  6
CONTINUOUS
 62
    4
 10
-59.972191831366388
 20
382.25419776237982
 11
-59.972191831366388
 21
383.26451076237981
  0
LINE
  8
_0-3_躯体と製品
  6
CONTINUOUS
 62
    4
 10
-61.722106831366375
 20
381.24388476237982
 11
-59.972191831366388
 21
382.25419776237982
  0
LINE
  8
_0-3_躯体と製品
  6
CONTINUOUS
 62
    4
 10
-63.861532831366389
 20
384.04993776237967
 11
-61.722106831366375
 21
385.28513676237969
  0
LINE
  8
_0-3_躯体と製品
  6
CONTINUOUS
 62
    4
 10
-59.972191831366388
 20
384.27482376237981
 11
-59.972191831366388
 21
383.26451076237981
  0
LINE
  8
_0-3_躯体と製品
  6
CONTINUOUS
 62
    4
 10
-61.722106831366375
 20
385.28513676237969
 11
-59.972191831366388
 21
384.27482376237981
  0
LINE
  8
_0-3_躯体と製品
  6
CONTINUOUS
 62
    4
 10
-64.022104831366391
 20
380.0146737623798
 11
-61.722106831366375
 21
380.0146737623798
  0
LINE
  8
_0-3_躯体と製品
  6
CONTINUOUS
 62
    4
 10
-63.861532831366389
 20
385.71079176237981
 11
-63.861532831366389
 21
384.04993776237967
  0
LINE
  8
_0-3_躯体と製品
  6
CONTINUOUS
 62
    4
 10
-63.808621831366395
 20
378.76451076237981
 11
-61.822105831366343
 21
378.76451076237981
  0
LINE
  8
_0-3_躯体と製品
  6
CONTINUOUS
 62
    4
 10
-61.822105831366343
 20
376.26451176237981
 11
-60.238231831366363
 21
376.26451176237981
  0
LINE
  8
_0-3_躯体と製品
  6
CONTINUOUS
 62
    4
 10
-61.822105831366343
 20
378.76451076237981
 11
-60.082057831366342
 21
376.58945076237973
  0
ARC
  8
_0-3_躯体と製品
  6
CONTINUOUS
 62
    4
 10
-60.238231831366363
 20
376.4645127623798
 40
0.200001
 50
270
 51
38.659808000000524
  0
ARC
  8
_0-3_躯体と製品
  6
CONTINUOUS
 62
    4
 10
-62.222104831366323
 20
396.76451076237981
 40
3.9999989999999999
 50
0
 51
90
  0
ARC
  8
_0-3_躯体と製品
  6
CONTINUOUS
 62
    4
 10
-62.322193831366349
 20
396.66451176237968
 40
2.499998999999999
 50
0.0005970000008192
 51
90
  0
LINE
  8
_0-3_躯体と製品
  6
PLINE2
 62
    3
 10
-28.722127831366379
 20
389.76451476237992
 11
-28.722127831366379
 21
383.26451076237981
  0
ARC
  8
_0-3_躯体と製品
  6
PLINE2
 62
    3
 10
-18.967705831366288
 20
383.26451076237981
 40
9.7544189999999986
 50
155.79072400000049
 51
204.20927599999939
  0
LINE
  8
_0-3_躯体と製品
  6
PLINE2
 62
    3
 10
-28.141570831366352
 20
375.7589547623798
 11
-28.722127831366379
 21
376.76450676237982
  0
LINE
  8
_0-3_躯体と製品
  6
PLINE2
 62
    3
 10
-28.722127831366379
 20
376.76450676237982
 11
-28.722127831366379
 21
383.26451076237981
  0
ARC
  8
_0-3_躯体と製品
  6
PLINE2
 62
    3
 10
-26.860777831366363
 20
377.69239176237977
 40
1.865081999999999
 50
122.55013099999999
 51
176.3739599999999
  0
ARC
  8
_0-3_躯体と製品
  6
PLINE2
 62
    3
 10
-26.860777831366363
 20
388.8366297623798
 40
1.865081999999999
 50
183.62604000000002
 51
237.44986900000004
  0
LINE
  8
_0-3_躯体と製品
  6
PLINE2
 62
    3
 10
-28.141570831366352
 20
390.77006676237983
 11
-28.722127831366379
 21
389.76451476237992
  0
LINE
  8
_0-3_躯体と製品
  6
PLINE2
 62
    3
 10
-22.222123831366332
 20
364.26451176237981
 11
-22.222123831366332
 21
402.26450976237982
  0
LINE
  8
_0-3_躯体と製品
  6
PLINE2
 62
    3
 10
7.3254011686336753
 20
389.26451376237969
 11
-18.222124831366386
 21
389.26451376237969
  0
LINE
  8
_0-3_躯体と製品
  6
PLINE2
 62
    3
 10
7.3254011686336753
 20
387.26451276237981
 11
-18.222124831366386
 21
387.26451276237981
  0
LINE
  8
_0-3_躯体と製品
  6
PLINE2
 62
    3
 10
7.3254011686336753
 20
379.26450876237982
 11
-18.222124831366386
 21
379.26450876237982
  0
LINE
  8
_0-3_躯体と製品
  6
PLINE2
 62
    3
 10
7.3254011686336753
 20
377.26450776237971
 11
-18.222124831366386
 21
377.26450776237971
  0
LINE
  8
_0-3_躯体と製品
  6
PLINE2
 62
    3
 10
-23.222122831366448
 20
372.26450976237982
 11
-23.222122831366448
 21
394.26451176237981
  0
LINE
  8
_0-3_躯体と製品
  6
PLINE2
 62
    3
 10
-22.222123831366332
 20
372.26450976237982
 11
-23.222122831366448
 21
372.26450976237982
  0
LINE
  8
_0-3_躯体と製品
  6
PLINE2
 62
    3
 10
-23.222122831366448
 20
394.26451176237981
 11
-22.222123831366332
 21
394.26451176237981
  0
LINE
  8
_0-3_躯体と製品
  6
CONTINUOUS
 62
    7
 10
341.86358816863361
 20
161.19280476237981
 11
341.86358816863361
 21
44.693471762379858
  0
LINE
  8
_0-3_躯体と製品
  6
CONTINUOUS
 62
    4
 10
320.86358816863361
 20
0.9643497623798396
 11
620.86358816863356
 21
0.9643497623798396
  0
LINE
  8
_0-3_躯体と製品
  6
CONTINUOUS
 62
    4
 10
320.86358816863361
 20
-59.035650237620104
 11
620.86358816863356
 21
-59.035650237620104
  0
LINE
  8
_0-3_躯体と製品
  6
PLINE3
 62
    3
 10
297.8635871686335
 20
-29.035650237620104
 11
630.86358716863356
 21
-29.035650237620104
  0
TEXT
  8
_0-4_文字-記号
 62
    7
 10
378.04827116863351
 20
-176.35752023762012
 40
20
 41
0.8
 50
0
  1
横断面図（Ｓ：１／３）
  0
LINE
  8
_0-3_躯体と製品
  6
CONTINUOUS
 62
    4
 10
320.86358816863361
 20
-61.035648237620109
 11
320.86358816863361
 21
34.964351762379835
  0
LINE
  8
_0-3_躯体と製品
  6
CONTINUOUS
 62
    4
 10
316.86358916863361
 20
-61.035648237620109
 11
316.86358916863361
 21
33.96434976237984
  0
LINE
  8
_0-3_躯体と製品
  6
PLINE3
 62
    3
 10
293.86358816863361
 20
47.527088762379861
 11
293.86358816863361
 21
20.964350762379809
  0
LINE
  8
_0-3_躯体と製品
  6
PLINE2
 62
    3
 10
316.86358916863361
 20
-57.785649237620106
 11
320.86358816863361
 21
-57.785649237620106
  0
LINE
  8
_0-3_躯体と製品
  6
PLINE2
 62
    3
 10
316.86358916863361
 20
-53.285649237620106
 11
320.86358816863361
 21
-53.285649237620106
  0
LINE
  8
_0-3_躯体と製品
  6
CONTINUOUS
 62
    4
 10
316.86358916863361
 20
-61.035648237620109
 11
320.86358816863361
 21
-61.035648237620109
  0
ARC
  8
_0-3_躯体と製品
  6
CONTINUOUS
 62
    3
 10
314.77180916863369
 20
-56.437356237620094
 40
0.3999809999999999
 50
90
 51
193.70023299999954
  0
ARC
  8
_0-3_躯体と製品
  6
CONTINUOUS
 62
    3
 10
318.46350716863361
 20
-55.537401237620202
 40
4.1997900000000001
 50
140.69686899999982
 51
219.30937099999983
  0
ARC
  8
_0-3_躯体と製品
  6
CONTINUOUS
 62
    3
 10
316.99348916863363
 20
-56.741013237620194
 40
2.299884
 50
219.30912400000011
 51
266.76216299999982
  0
ARC
  8
_0-3_躯体と製品
  6
CONTINUOUS
 62
    3
 10
314.77180916863369
 20
-54.637446237620196
 40
0.3999809999999999
 50
166.2997670000004
 51
270
  0
LINE
  8
_0-3_躯体と製品
  6
CONTINUOUS
 62
    3
 10
314.79797216863363
 20
-55.037427237620108
 11
314.79797216863363
 21
-56.037375237620097
  0
ARC
  8
_0-3_躯体と製品
  6
CONTINUOUS
 62
    3
 10
316.99648916863373
 20
-54.330114237620108
 40
2.299884
 50
93.312742999999884
 51
140.8204889999993
  0
LINE
  8
_0-3_躯体と製品
  6
PLINE2
 62
    3
 10
316.86358916863361
 20
-4.7856482376201654
 11
320.86358816863361
 21
-4.7856482376201654
  0
LINE
  8
_0-3_躯体と製品
  6
PLINE2
 62
    3
 10
316.86358916863361
 20
-0.2856482376201938
 11
320.86358816863361
 21
-0.2856482376201938
  0
ARC
  8
_0-3_躯体と製品
  6
CONTINUOUS
 62
    3
 10
314.77180916863369
 20
-3.4373552376201815
 40
0.3999809999999999
 50
90
 51
193.70023299999954
  0
ARC
  8
_0-3_躯体と製品
  6
CONTINUOUS
 62
    3
 10
314.77180916863369
 20
-1.6374452376201702
 40
0.3999809999999999
 50
166.2997670000004
 51
270
  0
LINE
  8
_0-3_躯体と製品
  6
CONTINUOUS
 62
    3
 10
314.79797216863363
 20
-2.0374262376201386
 11
314.79797216863363
 21
-3.0373772376201487
  0
ARC
  8
_0-3_躯体と製品
  6
CONTINUOUS
 62
    3
 10
316.99348916863363
 20
-3.7410122376201684
 40
2.299884
 50
219.30912400000011
 51
266.76216299999982
  0
ARC
  8
_0-3_躯体と製品
  6
CONTINUOUS
 62
    3
 10
316.99648916863373
 20
-1.3301132376201963
 40
2.299884
 50
93.312742999999884
 51
140.8204889999993
  0
ARC
  8
_0-3_躯体と製品
  6
CONTINUOUS
 62
    3
 10
318.46350716863361
 20
-2.5374002376201474
 40
4.1997900000000001
 50
140.69686899999982
 51
219.30937099999983
  0
LINE
  8
_0-3_躯体と製品
  6
CONTINUOUS
 62
    3
 10
300.3635921686336
 20
28.464347762379873
 11
293.86358816863361
 21
28.464347762379873
  0
ARC
  8
_0-3_躯体と製品
  6
CONTINUOUS
 62
    3
 10
293.86358816863361
 20
38.218766762379829
 40
9.7544189999999986
 50
245.79072400000004
 51
294.20927599999993
  0
LINE
  8
_0-3_躯体と製品
  6
CONTINUOUS
 62
    3
 10
304.86358916863361
 20
33.96434976237984
 11
282.8635871686335
 21
33.96434976237984
  0
LINE
  8
_0-3_躯体と製品
  6
CONTINUOUS
 62
    4
 10
270.8635871686335
 20
34.964351762379835
 11
315.8635871686335
 21
34.964351762379835
  0
LINE
  8
_0-3_躯体と製品
  6
CONTINUOUS
 62
    7
 10
270.8635871686335
 20
38.964350762379809
 11
316.86358916863361
 21
38.964350762379809
  0
LINE
  8
_0-3_躯体と製品
  6
CONTINUOUS
 62
    3
 10
243.60714416863362
 20
77.043368762379799
 11
205.52812616863361
 21
38.964350762379809
  0
LINE
  8
_0-3_躯体と製品
  6
PLINE2
 62
    3
 10
287.8635881686335
 20
71.952716762379865
 11
287.8635881686335
 21
38.964350762379809
  0
LINE
  8
_0-3_躯体と製品
  6
PLINE2
 62
    3
 10
289.86358916863361
 20
71.952716762379865
 11
289.86358916863361
 21
38.964350762379809
  0
LINE
  8
_0-3_躯体と製品
  6
CONTINUOUS
 62
    4
 10
270.8635871686335
 20
38.964350762379809
 11
270.8635871686335
 21
34.964351762379835
  0
LINE
  8
_0-3_躯体と製品
  6
PLINE2
 62
    3
 10
283.86358916863361
 20
38.964350762379809
 11
283.86358916863361
 21
34.964351762379835
  0
LINE
  8
_0-3_躯体と製品
  6
CONTINUOUS
 62
    3
 10
282.8635871686335
 20
33.96434976237984
 11
282.8635871686335
 21
34.964351762379835
  0
LINE
  8
_0-3_躯体と製品
  6
CONTINUOUS
 62
    3
 10
286.3580321686336
 20
29.044904762379844
 11
287.36358416863362
 21
28.464347762379873
  0
LINE
  8
_0-3_躯体と製品
  6
CONTINUOUS
 62
    3
 10
287.36358416863362
 20
28.464347762379873
 11
293.86358816863361
 21
28.464347762379873
  0
LINE
  8
_0-3_躯体と製品
  6
CONTINUOUS
 62
    3
 10
289.8635861686335
 20
33.96434976237984
 11
289.8635861686335
 21
29.32221276237982
  0
LINE
  8
_0-3_躯体と製品
  6
CONTINUOUS
 62
    3
 10
286.3580321686336
 20
33.96434976237984
 11
286.3580321686336
 21
29.044904762379844
  0
ARC
  8
_0-3_躯体と製品
  6
CONTINUOUS
 62
    3
 10
288.2914691686334
 20
30.325697762379832
 40
1.865081999999999
 50
273.62603999999988
 51
327.4498690000006
  0
LINE
  8
_0-3_躯体と製品
  6
CONTINUOUS
 62
    3
 10
341.86358816863361
 20
77.043368762379799
 11
303.78457016863354
 21
38.964350762379809
  0
LINE
  8
_0-3_躯体と製品
  6
CONTINUOUS
 62
    7
 10
336.13446716863353
 20
38.964350762379809
 11
341.86358816863361
 21
44.693471762379858
  0
LINE
  8
_0-3_躯体と製品
  6
CONTINUOUS
 62
    3
 10
341.86358816863361
 20
74.214941762379851
 11
306.61299716863363
 21
38.964350762379809
  0
LINE
  8
_0-3_躯体と製品
  6
CONTINUOUS
 62
    3
 10
341.86358816863361
 20
71.386514762379818
 11
309.44142416863349
 21
38.964350762379809
  0
LINE
  8
_0-3_躯体と製品
  6
PLINE2
 62
    3
 10
297.8635871686335
 20
71.952716762379865
 11
297.8635871686335
 21
38.964350762379809
  0
LINE
  8
_0-3_躯体と製品
  6
PLINE2
 62
    3
 10
299.86358816863361
 20
71.952716762379865
 11
299.86358816863361
 21
38.964350762379809
  0
ARC
  8
_0-3_躯体と製品
  6
CONTINUOUS
 62
    4
 10
316.86358916863361
 20
34.964351762379835
 40
3.9999989999999999
 50
0
 51
90
  0
LINE
  8
_0-3_躯体と製品
  6
PLINE2
 62
    3
 10
303.8635871686335
 20
38.964350762379809
 11
303.8635871686335
 21
34.964351762379835
  0
ARC
  8
_0-3_躯体と製品
  6
CONTINUOUS
 62
    3
 10
299.43570716863348
 20
30.325697762379832
 40
1.865081999999999
 50
212.55013099999931
 51
266.3739599999999
  0
LINE
  8
_0-3_躯体と製品
  6
CONTINUOUS
 62
    3
 10
301.3691471686335
 20
29.044904762379844
 11
300.3635921686336
 21
28.464347762379873
  0
LINE
  8
_0-3_躯体と製品
  6
CONTINUOUS
 62
    3
 10
301.3691471686335
 20
33.96434976237984
 11
301.3691471686335
 21
29.044904762379844
  0
LINE
  8
_0-3_躯体と製品
  6
CONTINUOUS
 62
    3
 10
297.86359016863361
 20
33.96434976237984
 11
297.86359016863361
 21
29.32221276237982
  0
LINE
  8
_0-3_躯体と製品
  6
CONTINUOUS
 62
    3
 10
304.86358916863361
 20
34.964351762379835
 11
304.86358916863361
 21
33.96434976237984
  0
ARC
  8
_0-3_躯体と製品
  6
CONTINUOUS
 62
    4
 10
315.8635871686335
 20
33.96434976237984
 40
0.9999989999999999
 50
0
 51
90
  0
LINE
  8
_0-3_躯体と製品
  6
PLINE3
 62
    3
 10
448.86358916863361
 20
-9.0356492376201913
 11
448.86358916863361
 21
-49.535649237620106
  0
LINE
  8
_0-3_躯体と製品
  6
CONTINUOUS
 62
    4
 10
452.32768916863364
 20
-38.035650237620104
 11
456.8635871686335
 21
-38.035650237620104
  0
LINE
  8
_0-3_躯体と製品
  6
CONTINUOUS
 62
    4
 10
452.32768916863364
 20
-20.035650237620104
 11
456.8635871686335
 21
-20.035650237620104
  0
LINE
  8
_0-3_躯体と製品
  6
CONTINUOUS
 62
    4
 10
456.8635871686335
 20
-19.03564823762008
 11
440.8635881686335
 21
-19.03564823762008
  0
LINE
  8
_0-3_躯体と製品
  6
CONTINUOUS
 62
    4
 10
456.8635871686335
 20
-39.035649237620106
 11
440.8635881686335
 21
-39.035649237620106
  0
LINE
  8
_0-3_躯体と製品
  6
CONTINUOUS
 62
    4
 10
450.2770961686337
 20
-24.699156237620116
 11
450.42691916863362
 21
-24.848979237620085
  0
LINE
  8
_0-3_躯体と製品
  6
CONTINUOUS
 62
    4
 10
447.45008216863351
 20
-24.699156237620116
 11
447.30025916863349
 21
-24.848979237620085
  0
ARC
  8
_0-3_躯体と製品
  6
CONTINUOUS
 62
    4
 10
448.86358916863361
 20
-22.535649237620106
 40
3.5000009999999988
 50
319.58166299999993
 51
30.000001000000644
  0
ARC
  8
_0-3_躯体と製品
  6
CONTINUOUS
 62
    4
 10
448.86358916863361
 20
-22.535649237620106
 40
3.5000009999999988
 50
149.99999800000023
 51
220.4183479999997
  0
LINE
  8
_0-3_躯体と製品
  6
CONTINUOUS
 62
    4
 10
439.86358916863361
 20
-21.035649237620106
 11
439.86358916863361
 21
-37.03564823762008
  0
LINE
  8
_0-3_躯体と製品
  6
CONTINUOUS
 62
    4
 10
438.8635871686335
 20
-37.03564823762008
 11
438.8635871686335
 21
-21.035649237620106
  0
LINE
  8
_0-3_躯体と製品
  6
CONTINUOUS
 62
    4
 10
445.3994861686337
 20
-38.035650237620104
 11
440.8635881686335
 21
-38.035650237620104
  0
ARC
  8
_0-3_躯体と製品
  6
CONTINUOUS
 62
    4
 10
440.8635881686335
 20
-37.03564823762008
 40
0.9999989999999999
 50
180
 51
270
  0
ARC
  8
_0-3_躯体と製品
  6
CONTINUOUS
 62
    4
 10
440.8635881686335
 20
-37.03564823762008
 40
2.0000010000000001
 50
180
 51
270
  0
ARC
  8
_0-3_躯体と製品
  6
CONTINUOUS
 62
    4
 10
446.76992816863373
 20
-24.318648237620209
 40
0.75
 50
220.41833400000064
 51
314.99999999999977
  0
ARC
  8
_0-3_躯体と製品
  6
CONTINUOUS
 62
    4
 10
450.9572471686335
 20
-24.318648237620209
 40
0.75
 50
225.00000000000034
 51
319.58166599999936
  0
LINE
  8
_0-3_躯体と製品
  6
CONTINUOUS
 62
    4
 10
447.45008216863351
 20
-33.372144237620205
 11
447.30025916863349
 21
-33.222321237620207
  0
ARC
  8
_0-3_躯体と製品
  6
CONTINUOUS
 62
    4
 10
446.91975116863352
 20
-33.902472237620088
 40
0.75
 50
330
 51
45.000000000000277
  0
LINE
  8
_0-3_躯体と製品
  6
CONTINUOUS
 62
    4
 10
447.56927216863363
 20
-34.277472237620088
 11
446.84286116863353
 21
-35.53564823762008
  0
ARC
  8
_0-3_躯体と製品
  6
CONTINUOUS
 62
    4
 10
452.32768916863364
 20
-37.535649237620106
 40
0.5000010000000001
 50
150
 51
270
  0
ARC
  8
_0-3_躯体と製品
  6
CONTINUOUS
 62
    4
 10
445.3994861686337
 20
-37.535649237620106
 40
0.5000010000000001
 50
270
 51
29.99999999999994
  0
ARC
  8
_0-3_躯体と製品
  6
CONTINUOUS
 62
    4
 10
450.9572471686335
 20
-33.752649237620119
 40
0.75
 50
40.418334000000698
 51
134.99999999999969
  0
ARC
  8
_0-3_躯体と製品
  6
CONTINUOUS
 62
    4
 10
446.76992816863373
 20
-33.752649237620119
 40
0.75
 50
45.000000000000291
 51
139.5816659999993
  0
LINE
  8
_0-3_躯体と製品
  6
CONTINUOUS
 62
    4
 10
450.2770961686337
 20
-33.372144237620205
 11
450.42691916863362
 21
-33.222321237620207
  0
ARC
  8
_0-3_躯体と製品
  6
CONTINUOUS
 62
    4
 10
450.80742416863359
 20
-33.902472237620088
 40
0.75
 50
134.99999999999969
 51
209.99999999999989
  0
LINE
  8
_0-3_躯体と製品
  6
CONTINUOUS
 62
    4
 10
450.88431416863369
 20
-35.53564823762008
 11
450.15790616863353
 21
-34.277472237620088
  0
ARC
  8
_0-3_躯体と製品
  6
CONTINUOUS
 62
    4
 10
448.86358916863361
 20
-35.53564823762008
 40
3.5000009999999988
 50
139.58166299999979
 51
210.00000399999954
  0
ARC
  8
_0-3_躯体と製品
  6
CONTINUOUS
 62
    4
 10
448.86358916863361
 20
-35.53564823762008
 40
3.5000009999999988
 50
329.99999600000041
 51
40.418347999999831
  0
LINE
  8
_0-3_躯体と製品
  6
CONTINUOUS
 62
    4
 10
447.85322516863363
 20
-37.285650237620104
 11
446.84286116863353
 21
-35.53564823762008
  0
LINE
  8
_0-3_躯体と製品
  6
CONTINUOUS
 62
    4
 10
448.39467716863373
 20
-37.285650237620104
 11
447.85322516863363
 21
-37.285650237620104
  0
LINE
  8
_0-3_躯体と製品
  6
CONTINUOUS
 62
    4
 10
448.39467716863373
 20
-37.285650237620104
 11
449.87395016863348
 21
-37.285650237620104
  0
LINE
  8
_0-3_躯体と製品
  6
CONTINUOUS
 62
    4
 10
449.87395016863348
 20
-37.285650237620104
 11
450.88431416863369
 21
-35.53564823762008
  0
LINE
  8
_0-3_躯体と製品
  6
CONTINUOUS
 62
    4
 10
445.3994861686337
 20
-20.035650237620104
 11
440.8635881686335
 21
-20.035650237620104
  0
ARC
  8
_0-3_躯体と製品
  6
CONTINUOUS
 62
    4
 10
440.8635881686335
 20
-21.035649237620106
 40
0.9999989999999999
 50
90
 51
180
  0
ARC
  8
_0-3_躯体と製品
  6
CONTINUOUS
 62
    4
 10
440.8635881686335
 20
-21.035649237620106
 40
2.0000010000000001
 50
90
 51
180
  0
ARC
  8
_0-3_躯体と製品
  6
CONTINUOUS
 62
    4
 10
450.80742416863359
 20
-24.168825237620098
 40
0.75
 50
150
 51
225.00000000000034
  0
LINE
  8
_0-3_躯体と製品
  6
CONTINUOUS
 62
    4
 10
450.15790616863353
 20
-23.793825237620098
 11
450.88431416863369
 21
-22.535649237620106
  0
ARC
  8
_0-3_躯体と製品
  6
CONTINUOUS
 62
    4
 10
446.91975116863352
 20
-24.168825237620098
 40
0.75
 50
314.99999999999977
 51
29.999999999999979
  0
LINE
  8
_0-3_躯体と製品
  6
CONTINUOUS
 62
    4
 10
446.84286116863353
 20
-22.535649237620106
 11
447.56927216863363
 21
-23.793825237620098
  0
LINE
  8
_0-3_躯体と製品
  6
CONTINUOUS
 62
    4
 10
449.87395016863348
 20
-20.785650237620104
 11
450.88431416863369
 21
-22.535649237620106
  0
LINE
  8
_0-3_躯体と製品
  6
CONTINUOUS
 62
    4
 10
449.33249816863361
 20
-20.785650237620104
 11
449.87395016863348
 21
-20.785650237620104
  0
LINE
  8
_0-3_躯体と製品
  6
CONTINUOUS
 62
    4
 10
449.33249816863361
 20
-20.785650237620104
 11
447.85322516863363
 21
-20.785650237620104
  0
LINE
  8
_0-3_躯体と製品
  6
CONTINUOUS
 62
    4
 10
447.85322516863363
 20
-20.785650237620104
 11
446.84286116863353
 21
-22.535649237620106
  0
ARC
  8
_0-3_躯体と製品
  6
CONTINUOUS
 62
    4
 10
452.32768916863364
 20
-20.53564823762008
 40
0.5000010000000001
 50
90
 51
209.99999999999989
  0
ARC
  8
_0-3_躯体と製品
  6
CONTINUOUS
 62
    4
 10
445.3994861686337
 20
-20.53564823762008
 40
0.5000010000000001
 50
330
 51
89.999999999999972
  0
LINE
  8
_0-3_躯体と製品
  6
CONTINUOUS
 62
    4
 10
457.86358916863361
 20
-21.035649237620106
 11
457.86358916863361
 21
-37.03564823762008
  0
LINE
  8
_0-3_躯体と製品
  6
CONTINUOUS
 62
    4
 10
458.86358816863361
 20
-21.035649237620106
 11
458.86358816863361
 21
-37.03564823762008
  0
ARC
  8
_0-3_躯体と製品
  6
CONTINUOUS
 62
    4
 10
456.8635871686335
 20
-37.03564823762008
 40
0.9999989999999999
 50
270
 51
0
  0
ARC
  8
_0-3_躯体と製品
  6
CONTINUOUS
 62
    4
 10
456.8635871686335
 20
-37.03564823762008
 40
2.0000010000000001
 50
270
 51
0
  0
ARC
  8
_0-3_躯体と製品
  6
CONTINUOUS
 62
    4
 10
456.8635871686335
 20
-21.035649237620106
 40
0.9999989999999999
 50
0
 51
90
  0
ARC
  8
_0-3_躯体と製品
  6
CONTINUOUS
 62
    4
 10
456.8635871686335
 20
-21.035649237620106
 40
2.0000010000000001
 50
0
 51
90
  0
LINE
  8
_0-3_躯体と製品
  6
PLINE3
 62
    3
 10
556.86358916863367
 20
-9.0356492376201913
 11
556.86358916863367
 21
-49.535649237620106
  0
ARC
  8
_0-3_躯体と製品
  6
CONTINUOUS
 62
    4
 10
548.86358816863356
 20
-21.035649237620106
 40
2.0000010000000001
 50
90
 51
180
  0
ARC
  8
_0-3_躯体と製品
  6
CONTINUOUS
 62
    4
 10
548.86358816863356
 20
-37.03564823762008
 40
2.0000010000000001
 50
180
 51
270
  0
LINE
  8
_0-3_躯体と製品
  6
CONTINUOUS
 62
    4
 10
546.86358716863356
 20
-21.035649237620106
 11
546.86358716863356
 21
-37.03564823762008
  0
LINE
  8
_0-3_躯体と製品
  6
CONTINUOUS
 62
    4
 10
558.27709616863376
 20
-24.699156237620116
 11
558.4269191686335
 21
-24.848979237620085
  0
LINE
  8
_0-3_躯体と製品
  6
CONTINUOUS
 62
    4
 10
555.45008216863346
 20
-24.699156237620116
 11
555.30025916863349
 21
-24.848979237620085
  0
ARC
  8
_0-3_躯体と製品
  6
CONTINUOUS
 62
    4
 10
556.86358916863367
 20
-22.535649237620106
 40
3.5000009999999988
 50
319.58166299999993
 51
30.000001000000644
  0
ARC
  8
_0-3_躯体と製品
  6
CONTINUOUS
 62
    4
 10
556.86358916863367
 20
-22.535649237620106
 40
3.5000009999999988
 50
149.99999800000023
 51
220.4183479999997
  0
LINE
  8
_0-3_躯体と製品
  6
CONTINUOUS
 62
    4
 10
565.86358916863367
 20
-21.035649237620106
 11
565.86358916863367
 21
-37.03564823762008
  0
LINE
  8
_0-3_躯体と製品
  6
CONTINUOUS
 62
    4
 10
547.86358916863367
 20
-21.035649237620106
 11
547.86358916863367
 21
-37.03564823762008
  0
LINE
  8
_0-3_躯体と製品
  6
CONTINUOUS
 62
    4
 10
566.86358816863356
 20
-21.035649237620106
 11
566.86358816863356
 21
-37.03564823762008
  0
ARC
  8
_0-3_躯体と製品
  6
CONTINUOUS
 62
    4
 10
558.95724716863356
 20
-24.318648237620209
 40
0.75
 50
225.00000000000034
 51
319.58166599999936
  0
ARC
  8
_0-3_躯体と製品
  6
CONTINUOUS
 62
    4
 10
558.95724716863356
 20
-33.752649237620119
 40
0.75
 50
40.418334000000698
 51
134.99999999999969
  0
LINE
  8
_0-3_躯体と製品
  6
CONTINUOUS
 62
    4
 10
558.88431416863375
 20
-35.53564823762008
 11
558.15790616863353
 21
-34.277472237620088
  0
LINE
  8
_0-3_躯体と製品
  6
CONTINUOUS
 62
    4
 10
557.87395016863354
 20
-37.285650237620104
 11
558.88431416863375
 21
-35.53564823762008
  0
LINE
  8
_0-3_躯体と製品
  6
CONTINUOUS
 62
    4
 10
548.86358816863356
 20
-39.035649237620106
 11
564.86358716863356
 21
-39.035649237620106
  0
ARC
  8
_0-3_躯体と製品
  6
CONTINUOUS
 62
    4
 10
554.76992816863367
 20
-24.318648237620209
 40
0.75
 50
220.41833400000064
 51
314.99999999999977
  0
LINE
  8
_0-3_躯体と製品
  6
CONTINUOUS
 62
    4
 10
555.45008216863346
 20
-33.372144237620205
 11
555.30025916863349
 21
-33.222321237620207
  0
ARC
  8
_0-3_躯体と製品
  6
CONTINUOUS
 62
    4
 10
554.91975116863352
 20
-33.902472237620088
 40
0.75
 50
330
 51
45.000000000000277
  0
LINE
  8
_0-3_躯体と製品
  6
CONTINUOUS
 62
    4
 10
555.56927216863357
 20
-34.277472237620088
 11
554.84286116863348
 21
-35.53564823762008
  0
ARC
  8
_0-3_躯体と製品
  6
CONTINUOUS
 62
    4
 10
553.39948616863364
 20
-37.535649237620106
 40
0.5000010000000001
 50
270
 51
29.99999999999994
  0
LINE
  8
_0-3_躯体と製品
  6
CONTINUOUS
 62
    4
 10
553.39948616863364
 20
-38.035650237620104
 11
548.86358816863356
 21
-38.035650237620104
  0
ARC
  8
_0-3_躯体と製品
  6
CONTINUOUS
 62
    4
 10
548.86358816863356
 20
-37.03564823762008
 40
0.9999989999999999
 50
180
 51
270
  0
ARC
  8
_0-3_躯体と製品
  6
CONTINUOUS
 62
    4
 10
554.76992816863367
 20
-33.752649237620119
 40
0.75
 50
45.000000000000291
 51
139.5816659999993
  0
LINE
  8
_0-3_躯体と製品
  6
CONTINUOUS
 62
    4
 10
558.27709616863376
 20
-33.372144237620205
 11
558.4269191686335
 21
-33.222321237620207
  0
ARC
  8
_0-3_躯体と製品
  6
CONTINUOUS
 62
    4
 10
558.80742416863347
 20
-33.902472237620088
 40
0.75
 50
134.99999999999969
 51
209.99999999999989
  0
ARC
  8
_0-3_躯体と製品
  6
CONTINUOUS
 62
    4
 10
556.86358916863367
 20
-35.53564823762008
 40
3.5000009999999988
 50
139.58166299999979
 51
210.00000399999954
  0
LINE
  8
_0-3_躯体と製品
  6
CONTINUOUS
 62
    4
 10
555.85322516863346
 20
-37.285650237620104
 11
554.84286116863348
 21
-35.53564823762008
  0
LINE
  8
_0-3_躯体と製品
  6
CONTINUOUS
 62
    4
 10
556.39467716863373
 20
-37.285650237620104
 11
555.85322516863346
 21
-37.285650237620104
  0
LINE
  8
_0-3_躯体と製品
  6
CONTINUOUS
 62
    4
 10
556.39467716863373
 20
-37.285650237620104
 11
557.87395016863354
 21
-37.285650237620104
  0
ARC
  8
_0-3_躯体と製品
  6
CONTINUOUS
 62
    4
 10
560.32768916863347
 20
-37.535649237620106
 40
0.5000010000000001
 50
150
 51
270
  0
LINE
  8
_0-3_躯体と製品
  6
CONTINUOUS
 62
    4
 10
560.32768916863347
 20
-38.035650237620104
 11
564.86358716863356
 21
-38.035650237620104
  0
ARC
  8
_0-3_躯体と製品
  6
CONTINUOUS
 62
    4
 10
564.86358716863356
 20
-37.03564823762008
 40
0.9999989999999999
 50
270
 51
0
  0
ARC
  8
_0-3_躯体と製品
  6
CONTINUOUS
 62
    4
 10
556.86358916863367
 20
-35.53564823762008
 40
3.5000009999999988
 50
329.99999600000041
 51
40.418347999999831
  0
ARC
  8
_0-3_躯体と製品
  6
CONTINUOUS
 62
    4
 10
564.86358716863356
 20
-37.03564823762008
 40
2.0000010000000001
 50
270
 51
0
  0
LINE
  8
_0-3_躯体と製品
  6
CONTINUOUS
 62
    4
 10
558.15790616863353
 20
-23.793825237620098
 11
558.88431416863375
 21
-22.535649237620106
  0
LINE
  8
_0-3_躯体と製品
  6
CONTINUOUS
 62
    4
 10
557.87395016863354
 20
-20.785650237620104
 11
558.88431416863375
 21
-22.535649237620106
  0
LINE
  8
_0-3_躯体と製品
  6
CONTINUOUS
 62
    4
 10
564.86358716863356
 20
-19.03564823762008
 11
548.86358816863356
 21
-19.03564823762008
  0
ARC
  8
_0-3_躯体と製品
  6
CONTINUOUS
 62
    4
 10
558.80742416863347
 20
-24.168825237620098
 40
0.75
 50
150
 51
225.00000000000034
  0
ARC
  8
_0-3_躯体と製品
  6
CONTINUOUS
 62
    4
 10
554.91975116863352
 20
-24.168825237620098
 40
0.75
 50
314.99999999999977
 51
29.999999999999979
  0
LINE
  8
_0-3_躯体と製品
  6
CONTINUOUS
 62
    4
 10
554.84286116863348
 20
-22.535649237620106
 11
555.56927216863357
 21
-23.793825237620098
  0
LINE
  8
_0-3_躯体と製品
  6
CONTINUOUS
 62
    4
 10
557.33249816863361
 20
-20.785650237620104
 11
557.87395016863354
 21
-20.785650237620104
  0
LINE
  8
_0-3_躯体と製品
  6
CONTINUOUS
 62
    4
 10
557.33249816863361
 20
-20.785650237620104
 11
555.85322516863346
 21
-20.785650237620104
  0
LINE
  8
_0-3_躯体と製品
  6
CONTINUOUS
 62
    4
 10
555.85322516863346
 20
-20.785650237620104
 11
554.84286116863348
 21
-22.535649237620106
  0
ARC
  8
_0-3_躯体と製品
  6
CONTINUOUS
 62
    4
 10
553.39948616863364
 20
-20.53564823762008
 40
0.5000010000000001
 50
330
 51
89.999999999999972
  0
LINE
  8
_0-3_躯体と製品
  6
CONTINUOUS
 62
    4
 10
553.39948616863364
 20
-20.035650237620104
 11
548.86358816863356
 21
-20.035650237620104
  0
ARC
  8
_0-3_躯体と製品
  6
CONTINUOUS
 62
    4
 10
548.86358816863356
 20
-21.035649237620106
 40
0.9999989999999999
 50
90
 51
180
  0
ARC
  8
_0-3_躯体と製品
  6
CONTINUOUS
 62
    4
 10
560.32768916863347
 20
-20.53564823762008
 40
0.5000010000000001
 50
90
 51
209.99999999999989
  0
LINE
  8
_0-3_躯体と製品
  6
CONTINUOUS
 62
    4
 10
560.32768916863347
 20
-20.035650237620104
 11
564.86358716863356
 21
-20.035650237620104
  0
ARC
  8
_0-3_躯体と製品
  6
CONTINUOUS
 62
    4
 10
564.86358716863356
 20
-21.035649237620106
 40
0.9999989999999999
 50
0
 51
90
  0
ARC
  8
_0-3_躯体と製品
  6
CONTINUOUS
 62
    4
 10
564.86358716863356
 20
-21.035649237620106
 40
2.0000010000000001
 50
0
 51
90
  0
LINE
  8
_0-3_躯体と製品
  6
CONTINUOUS
 62
    4
 10
274.3070801686336
 20
269.06773476237981
 11
574.30708016863355
 21
269.06773476237981
  0
LINE
  8
_0-3_躯体と製品
  6
CONTINUOUS
 62
    4
 10
266.8070801686336
 20
274.31773476237981
 11
581.80708016863355
 21
274.31773476237981
  0
LINE
  8
_0-3_躯体と製品
  6
CONTINUOUS
 62
    4
 10
274.3070801686336
 20
404.06773476237981
 11
574.30708016863355
 21
404.06773476237981
  0
LINE
  8
_0-3_躯体と製品
  6
CONTINUOUS
 62
    4
 10
274.3070801686336
 20
398.81773476237981
 11
581.80708016863355
 21
398.81773476237981
  0
LINE
  8
_0-3_躯体と製品
  6
CONTINUOUS
 62
    3
 10
274.3070801686336
 20
398.81773476237981
 11
274.3070801686336
 21
404.06773476237981
  0
LINE
  8
_0-3_躯体と製品
  6
CONTINUOUS
 62
    4
 10
266.8070801686336
 20
404.06773476237981
 11
266.8070801686336
 21
398.81773476237981
  0
LINE
  8
_0-3_躯体と製品
  6
CONTINUOUS
 62
    3
 10
273.70708016863352
 20
404.06773476237981
 11
273.70708016863352
 21
398.81773476237981
  0
TEXT
  8
_0-4_文字-記号
 62
    7
 10
379.37692916863369
 20
191.09738976237981
 40
20
 41
0.8
 50
0
  1
正面図（Ｓ：１／２０）
  0
LINE
  8
_0-3_躯体と製品
  6
CONTINUOUS
 62
    4
 10
282.5570801686336
 20
398.81773476237981
 11
282.5570801686336
 21
274.31773476237981
  0
LINE
  8
_0-3_躯体と製品
  6
CONTINUOUS
 62
    4
 10
285.5570801686336
 20
274.31773476237981
 11
285.5570801686336
 21
398.81773476237981
  0
LINE
  8
_0-3_躯体と製品
  6
CONTINUOUS
 62
    4
 10
299.0570801686336
 20
398.81773476237981
 11
299.0570801686336
 21
274.31773476237981
  0
LINE
  8
_0-3_躯体と製品
  6
CONTINUOUS
 62
    4
 10
302.0570801686336
 20
274.31773476237981
 11
302.0570801686336
 21
398.81773476237981
  0
LINE
  8
_0-3_躯体と製品
  6
CONTINUOUS
 62
    4
 10
315.5570801686336
 20
398.81773476237981
 11
315.5570801686336
 21
274.31773476237981
  0
LINE
  8
_0-3_躯体と製品
  6
CONTINUOUS
 62
    4
 10
318.5570801686336
 20
274.31773476237981
 11
318.5570801686336
 21
398.81773476237981
  0
LINE
  8
_0-3_躯体と製品
  6
CONTINUOUS
 62
    4
 10
332.0570801686336
 20
398.81773476237981
 11
332.0570801686336
 21
274.31773476237981
  0
LINE
  8
_0-3_躯体と製品
  6
CONTINUOUS
 62
    4
 10
335.0570801686336
 20
274.31773476237981
 11
335.0570801686336
 21
398.81773476237981
  0
LINE
  8
_0-3_躯体と製品
  6
CONTINUOUS
 62
    4
 10
348.5570801686336
 20
398.81773476237981
 11
348.5570801686336
 21
274.31773476237981
  0
LINE
  8
_0-3_躯体と製品
  6
CONTINUOUS
 62
    4
 10
351.55708016863372
 20
274.31773476237981
 11
351.55708016863372
 21
398.81773476237981
  0
LINE
  8
_0-3_躯体と製品
  6
CONTINUOUS
 62
    4
 10
365.0570801686336
 20
398.81773476237981
 11
365.0570801686336
 21
274.31773476237981
  0
LINE
  8
_0-3_躯体と製品
  6
CONTINUOUS
 62
    4
 10
368.05708016863372
 20
274.31773476237981
 11
368.05708016863372
 21
398.81773476237981
  0
LINE
  8
_0-3_躯体と製品
  6
CONTINUOUS
 62
    4
 10
381.55708016863372
 20
398.81773476237981
 11
381.55708016863372
 21
274.31773476237981
  0
LINE
  8
_0-3_躯体と製品
  6
CONTINUOUS
 62
    4
 10
384.55708016863372
 20
274.31773476237981
 11
384.55708016863372
 21
398.81773476237981
  0
LINE
  8
_0-3_躯体と製品
  6
CONTINUOUS
 62
    4
 10
266.8070801686336
 20
269.06773476237981
 11
274.3070801686336
 21
269.06773476237981
  0
LINE
  8
_0-3_躯体と製品
  6
CONTINUOUS
 62
    3
 10
271.00708016863359
 20
270.94273476237981
 11
269.50708016863359
 21
270.94273476237981
  0
LINE
  8
_0-3_躯体と製品
  6
CONTINUOUS
 62
    3
 10
269.50708016863359
 20
272.44273476237981
 11
271.00708016863359
 21
272.44273476237981
  0
ARC
  8
_0-3_躯体と製品
  6
CONTINUOUS
 62
    3
 10
271.00708016863359
 20
271.69273476237981
 40
0.75
 50
270
 51
90
  0
ARC
  8
_0-3_躯体と製品
  6
CONTINUOUS
 62
    3
 10
269.50708016863359
 20
271.69273476237981
 40
0.75
 50
90
 51
270
  0
LINE
  8
_0-3_躯体と製品
  6
CONTINUOUS
 62
    4
 10
266.8070801686336
 20
274.31773476237981
 11
266.8070801686336
 21
269.06773476237981
  0
LINE
  8
_0-3_躯体と製品
  6
CONTINUOUS
 62
    3
 10
273.70708016863352
 20
274.31773476237981
 11
273.70708016863352
 21
269.06773476237981
  0
LINE
  8
_0-3_躯体と製品
  6
CONTINUOUS
 62
    3
 10
274.3070801686336
 20
269.06773476237981
 11
274.3070801686336
 21
274.31773476237981
  0
LINE
  8
_0-3_躯体と製品
  6
CONTINUOUS
 62
    4
 10
266.8070801686336
 20
398.81773476237981
 11
274.3070801686336
 21
398.81773476237981
  0
LINE
  8
_0-3_躯体と製品
  6
CONTINUOUS
 62
    3
 10
271.00708016863359
 20
400.69273476237981
 11
269.50708016863359
 21
400.69273476237981
  0
LINE
  8
_0-3_躯体と製品
  6
CONTINUOUS
 62
    3
 10
269.50708016863359
 20
402.19273476237981
 11
271.00708016863359
 21
402.19273476237981
  0
ARC
  8
_0-3_躯体と製品
  6
CONTINUOUS
 62
    3
 10
271.00708016863359
 20
401.44273476237981
 40
0.75
 50
270
 51
90
  0
ARC
  8
_0-3_躯体と製品
  6
CONTINUOUS
 62
    3
 10
269.50708016863359
 20
401.44273476237981
 40
0.75
 50
90
 51
270
  0
LINE
  8
_0-3_躯体と製品
  6
CONTINUOUS
 62
    4
 10
398.05708016863349
 20
398.81773476237981
 11
398.05708016863349
 21
274.31773476237981
  0
LINE
  8
_0-3_躯体と製品
  6
CONTINUOUS
 62
    4
 10
401.05708016863349
 20
274.31773476237981
 11
401.05708016863349
 21
398.81773476237981
  0
LINE
  8
_0-3_躯体と製品
  6
CONTINUOUS
 62
    4
 10
414.55708016863349
 20
398.81773476237981
 11
414.55708016863349
 21
274.31773476237981
  0
LINE
  8
_0-3_躯体と製品
  6
CONTINUOUS
 62
    4
 10
417.55708016863349
 20
274.31773476237981
 11
417.55708016863349
 21
398.81773476237981
  0
LINE
  8
_0-3_躯体と製品
  6
CONTINUOUS
 62
    4
 10
563.05708016863355
 20
398.81773476237981
 11
563.05708016863355
 21
274.31773476237981
  0
LINE
  8
_0-3_躯体と製品
  6
CONTINUOUS
 62
    4
 10
566.05708016863355
 20
274.31773476237981
 11
566.05708016863355
 21
398.81773476237981
  0
LINE
  8
_0-3_躯体と製品
  6
CONTINUOUS
 62
    4
 10
546.55708016863355
 20
398.81773476237981
 11
546.55708016863355
 21
274.31773476237981
  0
LINE
  8
_0-3_躯体と製品
  6
CONTINUOUS
 62
    4
 10
549.55708016863355
 20
274.31773476237981
 11
549.55708016863355
 21
398.81773476237981
  0
LINE
  8
_0-3_躯体と製品
  6
CONTINUOUS
 62
    4
 10
530.05708016863355
 20
398.81773476237981
 11
530.05708016863355
 21
274.31773476237981
  0
LINE
  8
_0-3_躯体と製品
  6
CONTINUOUS
 62
    4
 10
533.05708016863355
 20
274.31773476237981
 11
533.05708016863355
 21
398.81773476237981
  0
LINE
  8
_0-3_躯体と製品
  6
CONTINUOUS
 62
    4
 10
513.55708016863355
 20
398.81773476237981
 11
513.55708016863355
 21
274.31773476237981
  0
LINE
  8
_0-3_躯体と製品
  6
CONTINUOUS
 62
    4
 10
516.55708016863355
 20
274.31773476237981
 11
516.55708016863355
 21
398.81773476237981
  0
LINE
  8
_0-3_躯体と製品
  6
CONTINUOUS
 62
    4
 10
497.05708016863349
 20
398.81773476237981
 11
497.05708016863349
 21
274.31773476237981
  0
LINE
  8
_0-3_躯体と製品
  6
CONTINUOUS
 62
    4
 10
500.05708016863349
 20
274.31773476237981
 11
500.05708016863349
 21
398.81773476237981
  0
LINE
  8
_0-3_躯体と製品
  6
CONTINUOUS
 62
    4
 10
480.55708016863349
 20
398.81773476237981
 11
480.55708016863349
 21
274.31773476237981
  0
LINE
  8
_0-3_躯体と製品
  6
CONTINUOUS
 62
    4
 10
483.55708016863349
 20
274.31773476237981
 11
483.55708016863349
 21
398.81773476237981
  0
LINE
  8
_0-3_躯体と製品
  6
CONTINUOUS
 62
    4
 10
464.05708016863349
 20
398.81773476237981
 11
464.05708016863349
 21
274.31773476237981
  0
LINE
  8
_0-3_躯体と製品
  6
CONTINUOUS
 62
    4
 10
467.05708016863349
 20
274.31773476237981
 11
467.05708016863349
 21
398.81773476237981
  0
LINE
  8
_0-3_躯体と製品
  6
CONTINUOUS
 62
    4
 10
447.55708016863349
 20
398.81773476237981
 11
447.55708016863349
 21
274.31773476237981
  0
LINE
  8
_0-3_躯体と製品
  6
CONTINUOUS
 62
    4
 10
450.55708016863349
 20
274.31773476237981
 11
450.55708016863349
 21
398.81773476237981
  0
LINE
  8
_0-3_躯体と製品
  6
CONTINUOUS
 62
    4
 10
431.05708016863349
 20
398.81773476237981
 11
431.05708016863349
 21
274.31773476237981
  0
LINE
  8
_0-3_躯体と製品
  6
CONTINUOUS
 62
    4
 10
434.05708016863349
 20
274.31773476237981
 11
434.05708016863349
 21
398.81773476237981
  0
LINE
  8
_0-3_躯体と製品
  6
CONTINUOUS
 62
    4
 10
266.8070801686336
 20
404.06773476237981
 11
274.3070801686336
 21
404.06773476237981
  0
LINE
  8
_0-3_躯体と製品
  6
CONTINUOUS
 62
    3
 10
574.30708016863355
 20
398.81773476237981
 11
574.30708016863355
 21
404.06773476237981
  0
LINE
  8
_0-3_躯体と製品
  6
CONTINUOUS
 62
    4
 10
581.80708016863355
 20
404.06773476237981
 11
581.80708016863355
 21
398.81773476237981
  0
LINE
  8
_0-3_躯体と製品
  6
CONTINUOUS
 62
    3
 10
574.90708016863357
 20
404.06773476237981
 11
574.90708016863357
 21
398.81773476237981
  0
LINE
  8
_0-3_躯体と製品
  6
CONTINUOUS
 62
    4
 10
581.80708016863355
 20
269.06773476237981
 11
574.30708016863355
 21
269.06773476237981
  0
LINE
  8
_0-3_躯体と製品
  6
CONTINUOUS
 62
    3
 10
579.10708016863362
 20
270.94273476237981
 11
577.6070801686335
 21
270.94273476237981
  0
LINE
  8
_0-3_躯体と製品
  6
CONTINUOUS
 62
    3
 10
577.6070801686335
 20
272.44273476237981
 11
579.10708016863362
 21
272.44273476237981
  0
ARC
  8
_0-3_躯体と製品
  6
CONTINUOUS
 62
    3
 10
579.10708016863362
 20
271.69273476237981
 40
0.75
 50
270
 51
90
  0
ARC
  8
_0-3_躯体と製品
  6
CONTINUOUS
 62
    3
 10
577.6070801686335
 20
271.69273476237981
 40
0.75
 50
90
 51
270
  0
LINE
  8
_0-3_躯体と製品
  6
CONTINUOUS
 62
    3
 10
574.90708016863357
 20
274.31773476237981
 11
574.90708016863357
 21
269.06773476237981
  0
LINE
  8
_0-3_躯体と製品
  6
CONTINUOUS
 62
    3
 10
574.30708016863355
 20
269.06773476237981
 11
574.30708016863355
 21
274.31773476237981
  0
LINE
  8
_0-3_躯体と製品
  6
CONTINUOUS
 62
    4
 10
581.80708016863355
 20
274.31773476237981
 11
581.80708016863355
 21
269.06773476237981
  0
LINE
  8
_0-3_躯体と製品
  6
CONTINUOUS
 62
    4
 10
581.80708016863355
 20
398.81773476237981
 11
574.30708016863355
 21
398.81773476237981
  0
LINE
  8
_0-3_躯体と製品
  6
CONTINUOUS
 62
    3
 10
579.10708016863362
 20
400.69273476237981
 11
577.6070801686335
 21
400.69273476237981
  0
LINE
  8
_0-3_躯体と製品
  6
CONTINUOUS
 62
    3
 10
577.6070801686335
 20
402.19273476237981
 11
579.10708016863362
 21
402.19273476237981
  0
ARC
  8
_0-3_躯体と製品
  6
CONTINUOUS
 62
    3
 10
579.10708016863362
 20
401.44273476237981
 40
0.75
 50
270
 51
90
  0
ARC
  8
_0-3_躯体と製品
  6
CONTINUOUS
 62
    3
 10
577.6070801686335
 20
401.44273476237981
 40
0.75
 50
90
 51
270
  0
LINE
  8
_0-3_躯体と製品
  6
CONTINUOUS
 62
    4
 10
581.80708016863355
 20
404.06773476237981
 11
574.30708016863355
 21
404.06773476237981
  0
INSERT
  2
-001-_D45
  8
_0-2_寸法
 10
2.1214315741954124
 20
83.289947134382999
 41
2
 42
2
 50
0
  0
INSERT
  2
-002-_D46
  8
_0-2_寸法
 10
2.1214315741954124
 20
83.289947134382999
 41
2
 42
2
 50
0
  0
INSERT
  2
-003-_D47
  8
_0-2_寸法
 10
2.1214315741954124
 20
83.289947134382999
 41
2
 42
2
 50
0
  0
INSERT
  2
-004-_D48
  8
_0-2_寸法
 10
2.1214315741954124
 20
83.289947134382999
 41
2
 42
2
 50
0
  0
INSERT
  2
-005-_D49
  8
_0-2_寸法
 10
2.1214315741954124
 20
83.289947134382999
 41
2
 42
2
 50
0
  0
INSERT
  2
-006-_D50
  8
_0-2_寸法
 10
2.1214315741954124
 20
83.289947134382999
 41
2
 42
2
 50
0
  0
INSERT
  2
-007-_D51
  8
_0-2_寸法
 10
2.1214315741954124
 20
83.289947134382999
 41
2
 42
2
 50
0
  0
INSERT
  2
-008-_D52
  8
_0-2_寸法
 10
2.1214315741954124
 20
83.289947134382999
 41
2
 42
2
 50
0
  0
INSERT
  2
-009-_D53
  8
_0-2_寸法
 10
2.1214315741954124
 20
83.289947134382999
 41
2
 42
2
 50
0
  0
INSERT
  2
-010-_D54
  8
_0-2_寸法
 10
2.1214315741954124
 20
83.289947134382999
 41
2
 42
2
 50
0
  0
INSERT
  2
-011-_D55
  8
_0-2_寸法
 10
2.1214315741954124
 20
83.289947134382999
 41
2
 42
2
 50
0
  0
INSERT
  2
-012-_D56
  8
_0-2_寸法
 10
2.1214315741954124
 20
83.289947134382999
 41
2
 42
2
 50
0
  0
INSERT
  2
-013-_D57
  8
_0-2_寸法
 10
2.1214315741954124
 20
83.289947134382999
 41
2
 42
2
 50
0
  0
INSERT
  2
-014-_D58
  8
_0-2_寸法
 10
2.1214315741954124
 20
83.289947134382999
 41
2
 42
2
 50
0
  0
INSERT
  2
-015-_D59
  8
_0-2_寸法
 10
2.1214315741954124
 20
83.289947134382999
 41
2
 42
2
 50
0
  0
INSERT
  2
-016-_D60
  8
_0-2_寸法
 10
2.1214315741954124
 20
83.289947134382999
 41
2
 42
2
 50
0
  0
INSERT
  2
-017-_D61
  8
_0-2_寸法
 10
2.1214315741954124
 20
83.289947134382999
 41
2
 42
2
 50
0
  0
INSERT
  2
-018-_D62
  8
_0-2_寸法
 10
2.1214315741954124
 20
83.289947134382999
 41
2
 42
2
 50
0
  0
INSERT
  2
-019-_D63
  8
_0-2_寸法
 10
2.1214315741954124
 20
83.289947134382999
 41
2
 42
2
 50
0
  0
INSERT
  2
-020-_D64
  8
_0-2_寸法
 10
2.1214315741954124
 20
83.289947134382999
 41
2
 42
2
 50
0
  0
INSERT
  2
-021-_D65
  8
_0-2_寸法
 10
2.1214315741954124
 20
83.289947134382999
 41
2
 42
2
 50
0
  0
INSERT
  2
-022-_D66
  8
_0-2_寸法
 10
2.1214315741954124
 20
83.289947134382999
 41
2
 42
2
 50
0
  0
INSERT
  2
-023-_D67
  8
_0-2_寸法
 10
2.1214315741954124
 20
83.289947134382999
 41
2
 42
2
 50
0
  0
INSERT
  2
-024-_D68
  8
_0-2_寸法
 10
2.1214315741954124
 20
83.289947134382999
 41
2
 42
2
 50
0
  0
INSERT
  2
-025-_D69
  8
_0-2_寸法
 10
2.1214315741954124
 20
83.289947134382999
 41
2
 42
2
 50
0
  0
INSERT
  2
-026-_D70
  8
_0-2_寸法
 10
2.1214315741954124
 20
83.289947134382999
 41
2
 42
2
 50
0
  0
ENDSEC
  0
EOF
