  0
SECTION
  2
HEADER
  9
$ACADVER
  1
AC1009
  9
$INSBASE
 10
0
 20
0
 30
0
  9
$EXTMIN
 10
0
 20
0
  9
$EXTMAX
 10
420
 20
297
  9
$LIMMIN
 10
0
 20
0
  9
$LIMMAX
 10
420
 20
297
  9
$LTSCALE
 40
1
  0
ENDSEC
  0
SECTION
  2
TABLES
  0
TABLE
  2
LTYPE
 70
     9
  0
LTYPE
  2
CONTINUOUS
 70
    64
  3
実線
 72
    65
 73
     0
 40
0.0
  0
LTYPE
  2
DASHED1
 70
    64
  3
--  --  --  --  --  --  --  --  
 72
    65
 73
     2
 40
2.5
 49
1.25
 49
-1.25
  0
LTYPE
  2
DASHED2
 70
    64
  3
----    ----    ----    ----    
 72
    65
 73
     2
 40
5.0
 49
2.5
 49
-2.5
  0
LTYPE
  2
DASHED3
 70
    64
  3
------  ------  ------  ------  
 72
    65
 73
     2
 40
5.0
 49
3.75
 49
-1.25
  0
LTYPE
  2
CENTER1
 70
    64
  3
----- - ----- - ----- - ----- - 
 72
    65
 73
     4
 40
10.0
 49
6.25
 49
-1.25
 49
1.25
 49
-1.25
  0
LTYPE
  2
CENTER2
 70
    64
  3
----------  --  ----------  --  
 72
    65
 73
     4
 40
20.0
 49
12.5
 49
-2.5
 49
2.5
 49
-2.5
  0
LTYPE
  2
PHANTOM1
 70
    64
  3
--- - - --- - - --- - - --- - - 
 72
    65
 73
     6
 40
10.0
 49
3.25
 49
-1.25
 49
1.25
 49
-1.25
 49
1.25
 49
-1.25
  0
LTYPE
  2
PHANTOM2
 70
    64
  3
--------  -  -  --------  -  -  
 72
    65
 73
     6
 40
20.0
 49
10.0
 49
-2.5
 49
1.25
 49
-2.5
 49
1.25
 49
-2.5
  0
LTYPE
  2
DOT
 70
    64
  3
-   -   -   -   -   -   -   -   
 72
    65
 73
     2
 40
2.5
 49
0.625
 49
-1.875
  0
LTYPE
  2
DUMMY
 70
    64
  3
ダミー
 72
    65
 73
     0
 40
0.0
  0
LTYPE
  2
RAND1
 70
    64
  3
ランダム線1
 72
    65
 73
     4
 40
10.0
 49
1.0
 49
-2.0
 49
3.0
 49
-4.0
  0
LTYPE
  2
RAND2
 70
    64
  3
ランダム線2
 72
    65
 73
     4
 40
14.0
 49
2.0
 49
-3.0
 49
4.0
 49
-5.0
  0
LTYPE
  2
RAND3
 70
    64
  3
ランダム線3
 72
    65
 73
     4
 40
18.0
 49
3.0
 49
-4.0
 49
5.0
 49
-6.0
  0
LTYPE
  2
RAND4
 70
    64
  3
ランダム線4
 72
    65
 73
     4
 40
22.0
 49
4.0
 49
-5.0
 49
6.0
 49
-7.0
  0
LTYPE
  2
RAND5
 70
    64
  3
ランダム線5
 72
    65
 73
     4
 40
26.0
 49
5.0
 49
-6.0
 49
7.0
 49
-8.0
  0
LTYPE
  2
LONG1
 70
    64
  3
----------  --  ----------  --  
 72
    65
 73
     4
 40
40.0
 49
32.5
 49
-2.5
 49
2.5
 49
-2.5
  0
LTYPE
  2
LONG2
 70
    64
  3
--------  -  -  --------  -  -  
 72
    65
 73
     6
 40
40.0
 49
30.0
 49
-2.5
 49
1.25
 49
-2.5
 49
1.25
 49
-2.5
  0
LTYPE
  2
LONG3
 70
    64
  3
+++++++++++++++..+++++++++++++++
 72
    65
 73
     2
 40
40.0
 49
37.5
 49
-2.5
  0
LTYPE
  2
LONG4
 70
    64
  3
+++++++++++++++..+++++++++++++++
 72
    65
 73
     2
 40
80.0
 49
75.0
 49
-5.0
  0
LTYPE
  2
LONG5
 70
    64
  3
----------  --  ----------  --  
 72
    65
 73
     4
 40
60.0
 49
37.5
 49
-7.5
 49
7.5
 49
-7.5
  0
LTYPE
  2
dashed
 70
   64
  3
-------   -------------   ------
 72
   65
 73
    2
 40
7.5
 49
6
 49
-1.5
  0
LTYPE
  2
dashed_spaced
 70
   64
  3
----        --------        ----
 72
   65
 73
    2
 40
12
 49
6
 49
-6
  0
LTYPE
  2
long_dashed_dotted
 70
   64
  3
------------- --- --------------
 72
   65
 73
    4
 40
15.25
 49
12
 49
-1.5
 49
0.25
 49
-1.5
  0
LTYPE
  2
long_dashed_double-dotted
 70
   64
  3
----------- --- --- ------------
 72
   65
 73
    6
 40
17
 49
12
 49
-1.5
 49
0.25
 49
-1.5
 49
0.25
 49
-1.5
  0
LTYPE
  2
long_dashed_triplicate-dotted
 70
   64
  3
--------- --- --- --- ----------
 72
   65
 73
    8
 40
18.75
 49
12
 49
-1.5
 49
0.25
 49
-1.5
 49
0.25
 49
-1.5
 49
0.25
 49
-1.5
  0
LTYPE
  2
dotted
 70
   64
  3
   -       -       -       -    
 72
   65
 73
    2
 40
1.75
 49
0.25
 49
-1.5
  0
LTYPE
  2
chain
 70
   64
  3
-------------- -- --------------
 72
   65
 73
    4
 40
18.5
 49
12
 49
-1.5
 49
3.5
 49
-1.5
  0
LTYPE
  2
chain_double_dash
 70
   64
  3
------------ -- -- -------------
 72
   65
 73
    6
 40
23.5
 49
12
 49
-1.5
 49
3.5
 49
-1.5
 49
3.5
 49
-1.5
  0
LTYPE
  2
dashed_dotted
 70
   64
  3
-----------     -     ----------
 72
   65
 73
    4
 40
9.25
 49
6
 49
-1.5
 49
0.25
 49
-1.5
  0
LTYPE
  2
double-dashed_dotted
 70
   64
  3
------   -----------   -   -----
 72
   65
 73
    6
 40
16.75
 49
6
 49
-1.5
 49
6
 49
-1.5
 49
0.25
 49
-1.5
  0
LTYPE
  2
dashed_double-dotted
 70
   64
  3
---------    -    -    ---------
 72
   65
 73
    6
 40
11
 49
6
 49
-1.5
 49
0.25
 49
-1.5
 49
0.25
 49
-1.5
  0
LTYPE
  2
double-dashed_double-dotted
 70
   64
  3
-----   ---------   -   -   ----
 72
   65
 73
    8
 40
18.5
 49
6
 49
-1.5
 49
6
 49
-1.5
 49
0.25
 49
-1.5
 49
0.25
 49
-1.5
  0
LTYPE
  2
dashed_triplicate-dotted
 70
   64
  3
-------    -    -    -    ------
 72
   65
 73
    8
 40
12.75
 49
6
 49
-1.5
 49
0.25
 49
-1.5
 49
0.25
 49
-1.5
 49
0.25
 49
-1.5
  0
LTYPE
  2
double-dashed_triplicate-dotted
 70
   64
  3
-----  ---------  -  -  -  -----
 72
   65
 73
   10
 40
20.25
 49
6
 49
-1.5
 49
6
 49
-1.5
 49
0.25
 49
-1.5
 49
0.25
 49
-1.5
 49
0.25
 49
-1.5
  0
LTYPE
  2
undefined
 70
   64
  3
--------------------------------
 72
   65
 73
    0
 40
0
  0
LTYPE
  2
PLINE2
 70
   64
  3
------     -----------     -----
 72
   65
 73
    2
 40
3
 49
2.1000000000000001
 49
-0.9
  0
LTYPE
  2
PLINE3
 70
   64
  3
------------   ---   -----------
 72
   65
 73
    4
 40
10
 49
7
 49
-1
 49
1
 49
-1
  0
LTYPE
  2
PLINE4
 70
   64
  3
---------   ---   ---   --------
 72
   65
 73
    6
 40
10
 49
5
 49
-1
 49
1
 49
-1
 49
1
 49
-1
  0
LTYPE
  2
PLINE5
 70
   64
  3
------     -----------     -----
 72
   65
 73
    2
 40
5
 49
3.5
 49
-1.5
  0
LTYPE
  2
PLINE6
 70
   64
  3
------------   ---   -----------
 72
   65
 73
    4
 40
15
 49
10.5
 49
-1.5
 49
1.5
 49
-1.5
  0
LTYPE
  2
PLINE7
 70
   64
  3
---------   ---   ---   --------
 72
   65
 73
    6
 40
15
 49
7.5
 49
-1.5
 49
1.5
 49
-1.5
 49
1.5
 49
-1.5
  0
LTYPE
  2
PLINE8
 70
   64
  3
------     -----------     -----
 72
   65
 73
    2
 40
7
 49
4.9000000000000004
 49
-2.1000000000000001
  0
LTYPE
  2
PLINE9
 70
   64
  3
------------   ---   -----------
 72
   65
 73
    4
 40
20
 49
14
 49
-2
 49
2
 49
-2
  0
LTYPE
  2
PLINE10
 70
   64
  3
---------   ---   ---   --------
 72
   65
 73
    6
 40
20
 49
10
 49
-2
 49
2
 49
-2
 49
2
 49
-2
  0
LTYPE
  2
PLINE11
 70
   64
  3
------     -----------     -----
 72
   65
 73
    2
 40
9
 49
6.2999999999999989
 49
-2.7000000000000002
  0
LTYPE
  2
PLINE12
 70
   64
  3
------------   ---   -----------
 72
   65
 73
    4
 40
25
 49
17.5
 49
-2.5
 49
2.5
 49
-2.5
  0
LTYPE
  2
PLINE13
 70
   64
  3
---------   ---   ---   --------
 72
   65
 73
    6
 40
25
 49
12.5
 49
-2.5
 49
2.5
 49
-2.5
 49
2.5
 49
-2.5
  0
LTYPE
  2
PLINE14
 70
   64
  3
------     -----------     -----
 72
   65
 73
    2
 40
11
 49
7.7000000000000002
 49
-3.2999999999999989
  0
LTYPE
  2
PLINE15
 70
   64
  3
------------   ---   -----------
 72
   65
 73
    4
 40
30
 49
21
 49
-3
 49
3
 49
-3
  0
LTYPE
  2
PLINE16
 70
   64
  3
---------   ---   ---   --------
 72
   65
 73
    6
 40
30
 49
15
 49
-3
 49
3
 49
-3
 49
3
 49
-3
  0
ENDTAB
  0
TABLE
  2
STYLE
  5
3
100
AcDbSymbolTable
 70
     1
  0
STYLE
  5
10
100
AcDbSymbolTableRecord
100
AcDbTextStyleTableRecord
  2
STANDARD
 70
     0
 40
0.0
 41
1.0
 50
0.0
 71
     0
 42
0.2
  3
txt
  4
bigfont.shx
  0
STYLE
  5
26
100
AcDbSymbolTableRecord
100
AcDbTextStyleTableRecord
  2
TATEGAKI
 70
    68
 40
0.0
 41
1.0
 50
0.0
 71
     0
 42
1.0
  3
txt
  4
bigfont.shx
  0
ENDTAB
  0
TABLE
  2
LAYER
 70
    4
  0
LAYER
  2
_0-2_寸法
 70
   64
 62
    7
  6
CONTINUOUS
  0
LAYER
  2
_0-3_躯体と製品
 70
   64
 62
    7
  6
CONTINUOUS
  0
LAYER
  2
_0-4_文字-記号
 70
   64
 62
    7
  6
CONTINUOUS
  0
LAYER
  2
ADD_LINE
 70
   64
 62
    7
  6
CONTINUOUS
  0
ENDTAB
  0
ENDSEC
  0
SECTION
  2
BLOCKS
  0
BLOCK
  2
-000-_Dot
 70
   64
 10
0
 20
0
 30
0
  0
CIRCLE
  8
_0-0_0
  6
CONTINUOUS
 62
    7
 10
0
 20
0
 40
0.125
  0
LINE
  8
_0-0_0
  6
CONTINUOUS
 62
    7
 10
0.125
 20
0
 11
-0.125
 21
0
  0
LINE
  8
_0-0_0
  6
CONTINUOUS
 62
    7
 10
-0.25
 20
0
 11
-0.5
 21
0
  0
ENDBLK
  0
BLOCK
  2
-001-_D14
 70
   64
 10
0
 20
0
 30
0
  0
LINE
  8
_0-2_寸法
  6
CONTINUOUS
 62
    4
 10
-21.436366567234899
 20
329.02124720746315
 11
-21.436366567234899
 21
352.52124770746309
  0
LINE
  8
_0-2_寸法
  6
CONTINUOUS
 62
    4
 10
8.5636334327650996
 20
329.02124720746315
 11
8.5636334327650996
 21
352.52124770746309
  0
LINE
  8
_0-2_寸法
  6
CONTINUOUS
 62
    4
 10
-20.936366567234895
 20
352.52124770746309
 11
8.0636334327650996
 21
352.52124770746309
  0
INSERT
  2
-000-_Dot
  8
_0-2_寸法
 10
-21.436366567234899
 20
352.52124770746309
 41
1
 42
1
 50
180
  0
INSERT
  2
-000-_Dot
  8
_0-2_寸法
 10
8.5636334327650996
 20
352.52124770746309
 41
1
 42
1
 50
0
  0
TEXT
  8
_0-2_寸法
 62
    7
 10
-8.9363665672348951
 20
353.02124770746303
 40
5
 41
1
 50
0
  1
60
  0
POINT
  8
_0-1_Defpoints
 62
    7
 10
-21.436366567234899
 20
329.02124720746315
  0
POINT
  8
_0-1_Defpoints
 62
    7
 10
8.5636334327650996
 20
329.02124720746315
  0
POINT
  8
_0-1_Defpoints
 62
    7
 10
8.5636334327650996
 20
352.52124770746309
  0
ENDBLK
  0
BLOCK
  2
-002-_D15
 70
   64
 10
0
 20
0
 30
0
  0
LINE
  8
_0-2_寸法
  6
CONTINUOUS
 62
    4
 10
-25.4363760672349
 20
310.02124670746309
 11
-60.061366567234899
 21
310.02124670746309
  0
LINE
  8
_0-2_寸法
  6
CONTINUOUS
 62
    4
 10
-25.4363760672349
 20
327.52124720746315
 11
-60.061366567234899
 21
327.52124720746315
  0
LINE
  8
_0-2_寸法
  6
CONTINUOUS
 62
    4
 10
-60.061366567234899
 20
310.52124670746315
 11
-60.061366567234899
 21
327.02124720746315
  0
INSERT
  2
-000-_Dot
  8
_0-2_寸法
 10
-60.061366567234899
 20
310.02124670746309
 41
1
 42
1
 50
270
  0
INSERT
  2
-000-_Dot
  8
_0-2_寸法
 10
-60.061366567234899
 20
327.52124720746315
 41
1
 42
1
 50
90
  0
TEXT
  8
_0-2_寸法
 62
    7
 10
-60.561366567234948
 20
316.27124695746318
 40
5
 41
1
 50
90
  1
35
  0
POINT
  8
_0-1_Defpoints
 62
    7
 10
-25.4363760672349
 20
310.02124670746309
  0
POINT
  8
_0-1_Defpoints
 62
    7
 10
-25.4363760672349
 20
327.52124720746315
  0
POINT
  8
_0-1_Defpoints
 62
    7
 10
-60.061366567234899
 20
327.52124720746315
  0
ENDBLK
  0
BLOCK
  2
-003-_D16
 70
   64
 10
0
 20
0
 30
0
  0
LINE
  8
_0-2_寸法
  6
CONTINUOUS
 62
    4
 10
-25.4363760672349
 20
327.52124720746315
 11
-75.061366567234856
 21
327.52124720746315
  0
LINE
  8
_0-2_寸法
  6
CONTINUOUS
 62
    4
 10
-25.4363760672349
 20
85.349856207463105
 11
-75.061366567234899
 21
85.349856207463105
  0
LINE
  8
_0-2_寸法
  6
CONTINUOUS
 62
    4
 10
-75.061366567234856
 20
327.02124720746315
 11
-75.061366567234899
 21
85.849856207463105
  0
INSERT
  2
-000-_Dot
  8
_0-2_寸法
 10
-75.061366567234856
 20
327.52124720746315
 41
1
 42
1
 50
90
  0
INSERT
  2
-000-_Dot
  8
_0-2_寸法
 10
-75.061366567234899
 20
85.349856207463105
 41
1
 42
1
 50
270
  0
TEXT
  8
_0-2_寸法
 62
    7
 10
-75.561366567234899
 20
197.68555170746311
 40
5
 41
1
 50
90
  1
900以下
  0
POINT
  8
_0-1_Defpoints
 62
    7
 10
-25.4363760672349
 20
327.52124720746315
  0
POINT
  8
_0-1_Defpoints
 62
    7
 10
-25.4363760672349
 20
85.349856207463105
  0
POINT
  8
_0-1_Defpoints
 62
    7
 10
-75.061366567234899
 20
85.349856207463105
  0
ENDBLK
  0
BLOCK
  2
-004-_D17
 70
   64
 10
0
 20
0
 30
0
  0
LINE
  8
_0-2_寸法
  6
CONTINUOUS
 62
    4
 10
-25.4363760672349
 20
102.84985670746305
 11
-60.061366567234899
 21
102.8498567074631
  0
LINE
  8
_0-2_寸法
  6
CONTINUOUS
 62
    4
 10
-25.4363760672349
 20
85.349856207463105
 11
-60.061366567234899
 21
85.349856207463105
  0
LINE
  8
_0-2_寸法
  6
CONTINUOUS
 62
    4
 10
-60.061366567234899
 20
102.3498567074631
 11
-60.061366567234899
 21
85.849856207463105
  0
INSERT
  2
-000-_Dot
  8
_0-2_寸法
 10
-60.061366567234899
 20
102.8498567074631
 41
1
 42
1
 50
90
  0
INSERT
  2
-000-_Dot
  8
_0-2_寸法
 10
-60.061366567234899
 20
85.349856207463105
 41
1
 42
1
 50
270
  0
TEXT
  8
_0-2_寸法
 62
    7
 10
-60.561366567234899
 20
91.599856457463105
 40
5
 41
1
 50
90
  1
35
  0
POINT
  8
_0-1_Defpoints
 62
    7
 10
-25.4363760672349
 20
102.84985670746305
  0
POINT
  8
_0-1_Defpoints
 62
    7
 10
-25.4363760672349
 20
85.349856207463105
  0
POINT
  8
_0-1_Defpoints
 62
    7
 10
-60.061366567234899
 20
85.349856207463105
  0
ENDBLK
  0
BLOCK
  2
-005-_D18
 70
   64
 10
0
 20
0
 30
0
  0
LINE
  8
_0-2_寸法
  6
CONTINUOUS
 62
    4
 10
15.15355193276511
 20
85.349856207463105
 11
69.622385932765056
 21
85.349856207463105
  0
LINE
  8
_0-2_寸法
  6
CONTINUOUS
 62
    4
 10
32.653550932765057
 20
135.34985720746309
 11
69.622385932765098
 21
135.34985720746306
  0
LINE
  8
_0-2_寸法
  6
CONTINUOUS
 62
    4
 10
69.622385932765056
 20
85.849856207463105
 11
69.622385932765098
 21
134.84985720746306
  0
INSERT
  2
-000-_Dot
  8
_0-2_寸法
 10
69.622385932765056
 20
85.349856207463105
 41
1
 42
1
 50
270
  0
INSERT
  2
-000-_Dot
  8
_0-2_寸法
 10
69.622385932765098
 20
135.34985720746306
 41
1
 42
1
 50
90
  0
TEXT
  8
_0-2_寸法
 62
    7
 10
69.122385932765056
 20
106.5998567074631
 40
5
 41
1
 50
90
  1
100
  0
POINT
  8
_0-1_Defpoints
 62
    7
 10
15.15355193276511
 20
85.349856207463105
  0
POINT
  8
_0-1_Defpoints
 62
    7
 10
32.653550932765057
 20
135.34985720746309
  0
POINT
  8
_0-1_Defpoints
 62
    7
 10
69.622385932765098
 20
135.34985720746306
  0
ENDBLK
  0
BLOCK
  2
-006-_D19
 70
   64
 10
0
 20
0
 30
0
  0
LINE
  8
_0-2_寸法
  6
CONTINUOUS
 62
    4
 10
32.653550932765057
 20
135.34985720746309
 11
69.622385932765056
 21
135.34985720746306
  0
LINE
  8
_0-2_寸法
  6
CONTINUOUS
 62
    4
 10
32.653550932765057
 20
277.52124770746315
 11
69.622385932765098
 21
277.52124770746315
  0
LINE
  8
_0-2_寸法
  6
CONTINUOUS
 62
    4
 10
69.622385932765056
 20
135.84985720746306
 11
69.622385932765098
 21
277.02124770746315
  0
INSERT
  2
-000-_Dot
  8
_0-2_寸法
 10
69.622385932765056
 20
135.34985720746306
 41
1
 42
1
 50
270
  0
INSERT
  2
-000-_Dot
  8
_0-2_寸法
 10
69.622385932765098
 20
277.52124770746315
 41
1
 42
1
 50
90
  0
TEXT
  8
_0-2_寸法
 62
    7
 10
69.122385932765056
 20
197.6855524574631
 40
5
 41
1
 50
90
  1
700以下
  0
POINT
  8
_0-1_Defpoints
 62
    7
 10
32.653550932765057
 20
135.34985720746309
  0
POINT
  8
_0-1_Defpoints
 62
    7
 10
32.653550932765057
 20
277.52124770746315
  0
POINT
  8
_0-1_Defpoints
 62
    7
 10
69.622385932765098
 20
277.52124770746315
  0
ENDBLK
  0
BLOCK
  2
-007-_D20
 70
   64
 10
0
 20
0
 30
0
  0
LINE
  8
_0-2_寸法
  6
CONTINUOUS
 62
    4
 10
32.653550932765057
 20
277.52124770746315
 11
69.622385932765056
 21
277.52124770746315
  0
LINE
  8
_0-2_寸法
  6
CONTINUOUS
 62
    4
 10
15.15355193276511
 20
327.52124720746315
 11
69.622385932765098
 21
327.52124720746315
  0
LINE
  8
_0-2_寸法
  6
CONTINUOUS
 62
    4
 10
69.622385932765056
 20
278.02124770746309
 11
69.622385932765098
 21
327.02124720746315
  0
INSERT
  2
-000-_Dot
  8
_0-2_寸法
 10
69.622385932765056
 20
277.52124770746315
 41
1
 42
1
 50
270
  0
INSERT
  2
-000-_Dot
  8
_0-2_寸法
 10
69.622385932765098
 20
327.52124720746315
 41
1
 42
1
 50
90
  0
TEXT
  8
_0-2_寸法
 62
    7
 10
69.122385932765056
 20
298.77124745746312
 40
5
 41
1
 50
90
  1
100
  0
POINT
  8
_0-1_Defpoints
 62
    7
 10
32.653550932765057
 20
277.52124770746315
  0
POINT
  8
_0-1_Defpoints
 62
    7
 10
15.15355193276511
 20
327.52124720746315
  0
POINT
  8
_0-1_Defpoints
 62
    7
 10
69.622385932765098
 20
327.52124720746315
  0
ENDBLK
  0
BLOCK
  2
-008-_D21
 70
   64
 10
0
 20
0
 30
0
  0
LINE
  8
_0-2_寸法
  6
CONTINUOUS
 62
    4
 10
32.259829432765088
 20
125.84985620746305
 11
51.153551932765048
 21
125.84985620746305
  0
LINE
  8
_0-2_寸法
  6
CONTINUOUS
 62
    4
 10
32.259829432765088
 20
144.84985670746309
 11
51.153551932765048
 21
144.84985670746309
  0
LINE
  8
_0-2_寸法
  6
CONTINUOUS
 62
    4
 10
51.153551932765048
 20
126.34985620746305
 11
51.153551932765048
 21
144.34985670746309
  0
INSERT
  2
-000-_Dot
  8
_0-2_寸法
 10
51.153551932765048
 20
125.84985620746305
 41
1
 42
1
 50
270
  0
INSERT
  2
-000-_Dot
  8
_0-2_寸法
 10
51.153551932765048
 20
144.84985670746309
 41
1
 42
1
 50
90
  0
TEXT
  8
_0-2_寸法
 62
    7
 10
50.653551932765041
 20
132.84985645746309
 40
5
 41
1
 50
90
  1
38
  0
POINT
  8
_0-1_Defpoints
 62
    7
 10
32.259829432765088
 20
125.84985620746305
  0
POINT
  8
_0-1_Defpoints
 62
    7
 10
32.259829432765088
 20
144.84985670746309
  0
POINT
  8
_0-1_Defpoints
 62
    7
 10
51.153551932765048
 20
144.84985670746309
  0
ENDBLK
  0
BLOCK
  2
-009-_D22
 70
   64
 10
0
 20
0
 30
0
  0
LINE
  8
_0-2_寸法
  6
CONTINUOUS
 62
    4
 10
32.653550932765057
 20
268.02124670746309
 11
51.153551932765048
 21
268.02124670746309
  0
LINE
  8
_0-2_寸法
  6
CONTINUOUS
 62
    4
 10
32.653550932765057
 20
287.02124720746309
 11
51.153551932765048
 21
287.02124720746309
  0
LINE
  8
_0-2_寸法
  6
CONTINUOUS
 62
    4
 10
51.153551932765048
 20
268.52124670746304
 11
51.153551932765048
 21
286.52124720746309
  0
INSERT
  2
-000-_Dot
  8
_0-2_寸法
 10
51.153551932765048
 20
268.02124670746309
 41
1
 42
1
 50
270
  0
INSERT
  2
-000-_Dot
  8
_0-2_寸法
 10
51.153551932765048
 20
287.02124720746309
 41
1
 42
1
 50
90
  0
TEXT
  8
_0-2_寸法
 62
    7
 10
50.653551932765026
 20
275.02124695746312
 40
5
 41
1
 50
90
  1
38
  0
POINT
  8
_0-1_Defpoints
 62
    7
 10
32.653550932765057
 20
268.02124670746309
  0
POINT
  8
_0-1_Defpoints
 62
    7
 10
32.653550932765057
 20
287.02124720746309
  0
POINT
  8
_0-1_Defpoints
 62
    7
 10
51.153551932765048
 20
287.02124720746309
  0
ENDBLK
  0
BLOCK
  2
-010-_D23
 70
   64
 10
0
 20
0
 30
0
  0
LINE
  8
_0-2_寸法
  6
CONTINUOUS
 62
    4
 10
185.9138009327651
 20
94.054261707463098
 11
136.0753064327651
 21
94.054261707463098
  0
LINE
  8
_0-2_寸法
  6
CONTINUOUS
 62
    4
 10
136.0753064327651
 20
94.554261707463098
 11
136.0753064327651
 21
143.5542627074631
  0
INSERT
  2
-000-_Dot
  8
_0-2_寸法
 10
136.0753064327651
 20
94.054261707463098
 41
1
 42
1
 50
270
  0
INSERT
  2
-000-_Dot
  8
_0-2_寸法
 10
136.0753064327651
 20
144.0542627074631
 41
1
 42
1
 50
90
  0
TEXT
  8
_0-2_寸法
 62
    7
 10
135.57530643276505
 20
115.3042622074631
 40
5
 41
1
 50
90
  1
100
  0
POINT
  8
_0-1_Defpoints
 62
    7
 10
185.9138009327651
 20
94.054261707463098
  0
POINT
  8
_0-1_Defpoints
 62
    7
 10
136.0753064327651
 20
144.0542627074631
  0
POINT
  8
_0-1_Defpoints
 62
    7
 10
136.0753064327651
 20
144.0542627074631
  0
ENDBLK
  0
BLOCK
  2
-011-_D24
 70
   64
 10
0
 20
0
 30
0
  0
LINE
  8
_0-2_寸法
  6
CONTINUOUS
 62
    4
 10
163.143229432765
 20
142.0542617074631
 11
150.14323043276505
 21
142.0542617074631
  0
LINE
  8
_0-2_寸法
  6
CONTINUOUS
 62
    4
 10
150.14323043276505
 20
141.5542617074631
 11
150.14323043276505
 21
141.0542617074631
  0
LINE
  8
_0-2_寸法
  6
CONTINUOUS
 62
    4
 10
150.14323043276505
 20
144.5542627074631
 11
150.14323043276505
 21
145.0542627074631
  0
INSERT
  2
-000-_Dot
  8
_0-2_寸法
 10
150.14323043276505
 20
142.0542617074631
 41
1
 42
1
 50
90
  0
INSERT
  2
-000-_Dot
  8
_0-2_寸法
 10
150.14323043276505
 20
144.0542627074631
 41
1
 42
1
 50
270
  0
TEXT
  8
_0-2_寸法
 62
    7
 10
149.64323043276499
 20
141.80426220746315
 40
5
 41
1
 50
90
  1
4
  0
POINT
  8
_0-1_Defpoints
 62
    7
 10
163.143229432765
 20
142.0542617074631
  0
POINT
  8
_0-1_Defpoints
 62
    7
 10
150.14323043276505
 20
144.0542627074631
  0
POINT
  8
_0-1_Defpoints
 62
    7
 10
150.14323043276505
 20
144.0542627074631
  0
ENDBLK
  0
BLOCK
  2
-012-_D25
 70
   64
 10
0
 20
0
 30
0
  0
LINE
  8
_0-2_寸法
  6
CONTINUOUS
 62
    4
 10
185.9138009327651
 20
94.054261707463098
 11
172.447466932765
 21
94.054261707463098
  0
LINE
  8
_0-2_寸法
  6
CONTINUOUS
 62
    4
 10
185.61736793276506
 20
126.3042617074631
 11
172.447466932765
 21
126.3042617074631
  0
LINE
  8
_0-2_寸法
  6
CONTINUOUS
 62
    4
 10
172.447466932765
 20
94.554261707463098
 11
172.447466932765
 21
125.8042617074631
  0
INSERT
  2
-000-_Dot
  8
_0-2_寸法
 10
172.447466932765
 20
94.054261707463098
 41
1
 42
1
 50
270
  0
INSERT
  2
-000-_Dot
  8
_0-2_寸法
 10
172.447466932765
 20
126.3042617074631
 41
1
 42
1
 50
90
  0
TEXT
  8
_0-2_寸法
 62
    7
 10
171.947466932765
 20
105.1792617074631
 40
5
 41
1
 50
90
  1
64.5
  0
POINT
  8
_0-1_Defpoints
 62
    7
 10
185.9138009327651
 20
94.054261707463098
  0
POINT
  8
_0-1_Defpoints
 62
    7
 10
185.61736793276506
 20
126.3042617074631
  0
POINT
  8
_0-1_Defpoints
 62
    7
 10
172.447466932765
 20
126.3042617074631
  0
ENDBLK
  0
BLOCK
  2
-013-_D26
 70
   64
 10
0
 20
0
 30
0
  0
LINE
  8
_0-2_寸法
  6
CONTINUOUS
 62
    4
 10
188.91134543276499
 20
90.923919207463101
 11
188.91134543276499
 21
75.423919707463099
  0
LINE
  8
_0-2_寸法
  6
CONTINUOUS
 62
    4
 10
190.91134643276504
 20
87.798919707463057
 11
190.91134643276504
 21
75.423919707463099
  0
LINE
  8
_0-2_寸法
  6
CONTINUOUS
 62
    4
 10
188.41134543276499
 20
75.423919707463099
 11
187.91134543276499
 21
75.423919707463099
  0
LINE
  8
_0-2_寸法
  6
CONTINUOUS
 62
    4
 10
191.41134643276504
 20
75.423919707463099
 11
191.91134643276504
 21
75.423919707463099
  0
INSERT
  2
-000-_Dot
  8
_0-2_寸法
 10
188.91134543276499
 20
75.423919707463099
 41
1
 42
1
 50
0
  0
INSERT
  2
-000-_Dot
  8
_0-2_寸法
 10
190.91134643276504
 20
75.423919707463099
 41
1
 42
1
 50
180
  0
TEXT
  8
_0-2_寸法
 62
    7
 10
188.66134593276499
 20
75.923919707463057
 40
5
 41
1
 50
0
  1
4
  0
POINT
  8
_0-1_Defpoints
 62
    7
 10
188.91134543276499
 20
90.923919207463101
  0
POINT
  8
_0-1_Defpoints
 62
    7
 10
190.91134643276504
 20
87.798919707463057
  0
POINT
  8
_0-1_Defpoints
 62
    7
 10
190.91134643276504
 20
75.423919707463099
  0
ENDBLK
  0
BLOCK
  2
-014-_D27
 70
   64
 10
0
 20
0
 30
0
  0
LINE
  8
_0-2_寸法
  6
CONTINUOUS
 62
    4
 10
190.91134643276504
 20
87.798919707463057
 11
190.91134643276504
 21
75.423919707463099
  0
LINE
  8
_0-2_寸法
  6
CONTINUOUS
 62
    4
 10
205.91134643276504
 20
87.798919707463057
 11
205.91134643276504
 21
75.423919707463099
  0
LINE
  8
_0-2_寸法
  6
CONTINUOUS
 62
    4
 10
191.41134643276504
 20
75.423919707463099
 11
205.41134643276504
 21
75.423919707463099
  0
INSERT
  2
-000-_Dot
  8
_0-2_寸法
 10
190.91134643276504
 20
75.423919707463099
 41
1
 42
1
 50
180
  0
INSERT
  2
-000-_Dot
  8
_0-2_寸法
 10
205.91134643276504
 20
75.423919707463099
 41
1
 42
1
 50
0
  0
TEXT
  8
_0-2_寸法
 62
    7
 10
195.91134643276504
 20
75.923919707463057
 40
5
 41
1
 50
0
  1
30
  0
POINT
  8
_0-1_Defpoints
 62
    7
 10
190.91134643276504
 20
87.798919707463057
  0
POINT
  8
_0-1_Defpoints
 62
    7
 10
205.91134643276504
 20
87.798919707463057
  0
POINT
  8
_0-1_Defpoints
 62
    7
 10
205.91134643276504
 20
75.423919707463099
  0
ENDBLK
  0
BLOCK
  2
-015-_D28
 70
   64
 10
0
 20
0
 30
0
  0
LINE
  8
_0-2_寸法
  6
CONTINUOUS
 62
    4
 10
205.91134643276504
 20
87.798919707463057
 11
205.91134643276504
 21
75.423919707463099
  0
LINE
  8
_0-2_寸法
  6
CONTINUOUS
 62
    4
 10
249.9113459327651
 20
98.923920207463098
 11
249.9113459327651
 21
75.423919707463099
  0
LINE
  8
_0-2_寸法
  6
CONTINUOUS
 62
    4
 10
206.41134643276504
 20
75.423919707463099
 11
249.4113459327651
 21
75.423919707463099
  0
INSERT
  2
-000-_Dot
  8
_0-2_寸法
 10
205.91134643276504
 20
75.423919707463099
 41
1
 42
1
 50
180
  0
INSERT
  2
-000-_Dot
  8
_0-2_寸法
 10
249.9113459327651
 20
75.423919707463099
 41
1
 42
1
 50
0
  0
TEXT
  8
_0-2_寸法
 62
    7
 10
220.41134618276504
 20
75.923919707463057
 40
5
 41
1
 50
0
  1
98以下
  0
POINT
  8
_0-1_Defpoints
 62
    7
 10
205.91134643276504
 20
87.798919707463057
  0
POINT
  8
_0-1_Defpoints
 62
    7
 10
249.9113459327651
 20
98.923920207463098
  0
POINT
  8
_0-1_Defpoints
 62
    7
 10
249.9113459327651
 20
75.423919707463099
  0
ENDBLK
  0
BLOCK
  2
-016-_D29
 70
   64
 10
0
 20
0
 30
0
  0
LINE
  8
_0-2_寸法
  6
CONTINUOUS
 62
    4
 10
249.9113459327651
 20
98.923920207463098
 11
249.9113459327651
 21
75.423919707463099
  0
LINE
  8
_0-2_寸法
  6
CONTINUOUS
 62
    4
 10
259.91134643276507
 20
98.923920207463098
 11
259.91134643276507
 21
75.423919707463099
  0
LINE
  8
_0-2_寸法
  6
CONTINUOUS
 62
    4
 10
250.4113459327651
 20
75.423919707463099
 11
259.41134643276507
 21
75.423919707463099
  0
INSERT
  2
-000-_Dot
  8
_0-2_寸法
 10
249.9113459327651
 20
75.423919707463099
 41
1
 42
1
 50
180
  0
INSERT
  2
-000-_Dot
  8
_0-2_寸法
 10
259.91134643276507
 20
75.423919707463099
 41
1
 42
1
 50
0
  0
TEXT
  8
_0-2_寸法
 62
    7
 10
252.41134618276504
 20
75.923919707463057
 40
5
 41
1
 50
0
  1
20
  0
POINT
  8
_0-1_Defpoints
 62
    7
 10
249.9113459327651
 20
98.923920207463098
  0
POINT
  8
_0-1_Defpoints
 62
    7
 10
259.91134643276507
 20
98.923920207463098
  0
POINT
  8
_0-1_Defpoints
 62
    7
 10
259.91134643276507
 20
75.423919707463099
  0
ENDBLK
  0
BLOCK
  2
-017-_D30
 70
   64
 10
0
 20
0
 30
0
  0
LINE
  8
_0-2_寸法
  6
CONTINUOUS
 62
    4
 10
259.91134643276507
 20
98.923920207463098
 11
259.91134643276507
 21
75.423919707463099
  0
LINE
  8
_0-2_寸法
  6
CONTINUOUS
 62
    4
 10
303.91134593276507
 20
98.923920207463098
 11
303.91134593276507
 21
75.423919707463099
  0
LINE
  8
_0-2_寸法
  6
CONTINUOUS
 62
    4
 10
260.41134643276507
 20
75.423919707463099
 11
303.41134593276513
 21
75.423919707463099
  0
INSERT
  2
-000-_Dot
  8
_0-2_寸法
 10
259.91134643276507
 20
75.423919707463099
 41
1
 42
1
 50
180
  0
INSERT
  2
-000-_Dot
  8
_0-2_寸法
 10
303.91134593276507
 20
75.423919707463099
 41
1
 42
1
 50
0
  0
TEXT
  8
_0-2_寸法
 62
    7
 10
274.41134618276504
 20
75.923919707463057
 40
5
 41
1
 50
0
  1
98以下
  0
POINT
  8
_0-1_Defpoints
 62
    7
 10
259.91134643276507
 20
98.923920207463098
  0
POINT
  8
_0-1_Defpoints
 62
    7
 10
303.91134593276507
 20
98.923920207463098
  0
POINT
  8
_0-1_Defpoints
 62
    7
 10
303.91134593276507
 20
75.423919707463099
  0
ENDBLK
  0
BLOCK
  2
-018-_D31
 70
   64
 10
0
 20
0
 30
0
  0
LINE
  8
_0-2_寸法
  6
CONTINUOUS
 62
    4
 10
303.91134593276507
 20
98.923920207463098
 11
303.91134593276507
 21
75.423919707463099
  0
LINE
  8
_0-2_寸法
  6
CONTINUOUS
 62
    4
 10
313.91134643276507
 20
98.923920207463098
 11
313.91134643276507
 21
75.423919707463099
  0
LINE
  8
_0-2_寸法
  6
CONTINUOUS
 62
    4
 10
304.41134593276507
 20
75.423919707463099
 11
313.41134643276507
 21
75.423919707463099
  0
INSERT
  2
-000-_Dot
  8
_0-2_寸法
 10
303.91134593276507
 20
75.423919707463099
 41
1
 42
1
 50
180
  0
INSERT
  2
-000-_Dot
  8
_0-2_寸法
 10
313.91134643276507
 20
75.423919707463099
 41
1
 42
1
 50
0
  0
TEXT
  8
_0-2_寸法
 62
    7
 10
306.4113461827651
 20
75.923919707463057
 40
5
 41
1
 50
0
  1
20
  0
POINT
  8
_0-1_Defpoints
 62
    7
 10
303.91134593276507
 20
98.923920207463098
  0
POINT
  8
_0-1_Defpoints
 62
    7
 10
313.91134643276507
 20
98.923920207463098
  0
POINT
  8
_0-1_Defpoints
 62
    7
 10
313.91134643276507
 20
75.423919707463099
  0
ENDBLK
  0
BLOCK
  2
-019-_D32
 70
   64
 10
0
 20
0
 30
0
  0
LINE
  8
_0-2_寸法
  6
CONTINUOUS
 62
    4
 10
313.91134643276507
 20
98.923920207463098
 11
313.91134643276507
 21
75.423919707463099
  0
LINE
  8
_0-2_寸法
  6
CONTINUOUS
 62
    4
 10
314.41134643276507
 20
75.423919707463099
 11
347.59854543276509
 21
75.423919707463099
  0
INSERT
  2
-000-_Dot
  8
_0-2_寸法
 10
313.91134643276507
 20
75.423919707463099
 41
1
 42
1
 50
180
  0
INSERT
  2
-000-_Dot
  8
_0-2_寸法
 10
348.09854543276509
 20
75.423919707463099
 41
1
 42
1
 50
0
  0
TEXT
  8
_0-2_寸法
 62
    7
 10
321.00494593276505
 20
75.923919707463057
 40
5
 41
1
 50
0
  1
９８以下
  0
POINT
  8
_0-1_Defpoints
 62
    7
 10
313.91134643276507
 20
98.923920207463098
  0
POINT
  8
_0-1_Defpoints
 62
    7
 10
348.09854543276509
 20
75.423919707463099
  0
POINT
  8
_0-1_Defpoints
 62
    7
 10
348.09854543276509
 20
75.423919707463099
  0
ENDBLK
  0
BLOCK
  2
-020-_D33
 70
   64
 10
0
 20
0
 30
0
  0
LINE
  8
_0-2_寸法
  6
CONTINUOUS
 62
    4
 10
190.91134643276504
 20
87.798919707463057
 11
190.91134643276504
 21
62.923920207463098
  0
LINE
  8
_0-2_寸法
  6
CONTINUOUS
 62
    4
 10
191.41134643276504
 20
62.923920207463098
 11
347.59854543276509
 21
62.923920207463098
  0
INSERT
  2
-000-_Dot
  8
_0-2_寸法
 10
190.91134643276504
 20
62.923920207463098
 41
1
 42
1
 50
180
  0
INSERT
  2
-000-_Dot
  8
_0-2_寸法
 10
348.09854543276509
 20
62.923920207463098
 41
1
 42
1
 50
0
  0
TEXT
  8
_0-2_寸法
 62
    7
 10
259.50494593276505
 20
63.423920207463098
 40
5
 41
1
 50
0
  1
2000以下
  0
POINT
  8
_0-1_Defpoints
 62
    7
 10
190.91134643276504
 20
87.798919707463057
  0
POINT
  8
_0-1_Defpoints
 62
    7
 10
348.09854543276509
 20
62.923920207463098
  0
POINT
  8
_0-1_Defpoints
 62
    7
 10
348.09854543276509
 20
62.923920207463098
  0
ENDBLK
  0
BLOCK
  2
-021-_D34
 70
   64
 10
0
 20
0
 30
0
  0
LINE
  8
_0-2_寸法
  6
CONTINUOUS
 62
    4
 10
351.64386143276505
 20
95.179261707463098
 11
365.64386243276505
 21
95.179261707463098
  0
LINE
  8
_0-2_寸法
  6
CONTINUOUS
 62
    4
 10
351.64386143276505
 20
125.1792617074631
 11
365.64386243276505
 21
125.17926170746306
  0
LINE
  8
_0-2_寸法
  6
CONTINUOUS
 62
    4
 10
365.64386243276505
 20
95.679261707463098
 11
365.64386243276505
 21
124.6792617074631
  0
INSERT
  2
-000-_Dot
  8
_0-2_寸法
 10
365.64386243276505
 20
95.179261707463098
 41
1
 42
1
 50
270
  0
INSERT
  2
-000-_Dot
  8
_0-2_寸法
 10
365.64386243276505
 20
125.17926170746306
 41
1
 42
1
 50
90
  0
TEXT
  8
_0-2_寸法
 62
    7
 10
365.1438624327651
 20
107.6792617074631
 40
5
 41
1
 50
90
  1
60
  0
POINT
  8
_0-1_Defpoints
 62
    7
 10
351.64386143276505
 20
95.179261707463098
  0
POINT
  8
_0-1_Defpoints
 62
    7
 10
351.64386143276505
 20
125.1792617074631
  0
POINT
  8
_0-1_Defpoints
 62
    7
 10
365.64386243276505
 20
125.17926170746306
  0
ENDBLK
  0
BLOCK
  2
-022-_D35
 70
   64
 10
0
 20
0
 30
0
  0
LINE
  8
_0-2_寸法
  6
CONTINUOUS
 62
    4
 10
259.91134643276507
 20
116.6792627074631
 11
259.91134643276507
 21
130.1792627074631
  0
LINE
  8
_0-2_寸法
  6
CONTINUOUS
 62
    4
 10
249.9113459327651
 20
116.6792627074631
 11
249.9113459327651
 21
130.1792627074631
  0
LINE
  8
_0-2_寸法
  6
CONTINUOUS
 62
    4
 10
259.41134643276507
 20
130.1792627074631
 11
250.4113459327651
 21
130.1792627074631
  0
INSERT
  2
-000-_Dot
  8
_0-2_寸法
 10
259.91134643276507
 20
130.1792627074631
 41
1
 42
1
 50
0
  0
INSERT
  2
-000-_Dot
  8
_0-2_寸法
 10
249.9113459327651
 20
130.1792627074631
 41
1
 42
1
 50
180
  0
TEXT
  8
_0-2_寸法
 62
    7
 10
252.41134618276504
 20
130.6792627074631
 40
5
 41
1
 50
0
  1
20
  0
POINT
  8
_0-1_Defpoints
 62
    7
 10
259.91134643276507
 20
116.6792627074631
  0
POINT
  8
_0-1_Defpoints
 62
    7
 10
249.9113459327651
 20
116.6792627074631
  0
POINT
  8
_0-1_Defpoints
 62
    7
 10
249.9113459327651
 20
130.1792627074631
  0
ENDBLK
  0
BLOCK
  2
-023-_D36
 70
   64
 10
0
 20
0
 30
0
  0
LINE
  8
_0-2_寸法
  6
CONTINUOUS
 62
    4
 10
248.4113459327651
 20
115.1792627074631
 11
234.9113459327651
 21
115.1792627074631
  0
LINE
  8
_0-2_寸法
  6
CONTINUOUS
 62
    4
 10
248.4113459327651
 20
105.17926220746305
 11
234.9113459327651
 21
105.17926220746305
  0
LINE
  8
_0-2_寸法
  6
CONTINUOUS
 62
    4
 10
234.9113459327651
 20
114.6792627074631
 11
234.9113459327651
 21
105.6792622074631
  0
INSERT
  2
-000-_Dot
  8
_0-2_寸法
 10
234.9113459327651
 20
115.1792627074631
 41
1
 42
1
 50
90
  0
INSERT
  2
-000-_Dot
  8
_0-2_寸法
 10
234.9113459327651
 20
105.17926220746305
 41
1
 42
1
 50
270
  0
TEXT
  8
_0-2_寸法
 62
    7
 10
234.4113459327651
 20
107.6792624574631
 40
5
 41
1
 50
90
  1
20
  0
POINT
  8
_0-1_Defpoints
 62
    7
 10
248.4113459327651
 20
115.1792627074631
  0
POINT
  8
_0-1_Defpoints
 62
    7
 10
248.4113459327651
 20
105.17926220746305
  0
POINT
  8
_0-1_Defpoints
 62
    7
 10
234.9113459327651
 20
105.17926220746305
  0
ENDBLK
  0
BLOCK
  2
-024-_D37
 70
   64
 10
0
 20
0
 30
0
  0
LINE
  8
_0-2_寸法
  6
CONTINUOUS
 62
    4
 10
165.9113459327651
 20
148.63397270746304
 11
165.9113459327651
 21
172.1339717074631
  0
LINE
  8
_0-2_寸法
  6
CONTINUOUS
 62
    4
 10
177.41134643276504
 20
149.13397220746305
 11
177.41134643276504
 21
172.1339717074631
  0
LINE
  8
_0-2_寸法
  6
CONTINUOUS
 62
    4
 10
166.4113459327651
 20
172.1339717074631
 11
176.91134643276504
 21
172.1339717074631
  0
INSERT
  2
-000-_Dot
  8
_0-2_寸法
 10
165.9113459327651
 20
172.1339717074631
 41
1
 42
1
 50
180
  0
INSERT
  2
-000-_Dot
  8
_0-2_寸法
 10
177.41134643276504
 20
172.1339717074631
 41
1
 42
1
 50
0
  0
TEXT
  8
_0-2_寸法
 62
    7
 10
169.16134618276504
 20
172.6339717074631
 40
5
 41
1
 50
0
  1
23
  0
POINT
  8
_0-1_Defpoints
 62
    7
 10
165.9113459327651
 20
148.63397270746304
  0
POINT
  8
_0-1_Defpoints
 62
    7
 10
177.41134643276504
 20
149.13397220746305
  0
POINT
  8
_0-1_Defpoints
 62
    7
 10
177.41134643276504
 20
172.1339717074631
  0
ENDBLK
  0
BLOCK
  2
-025-_D38
 70
   64
 10
0
 20
0
 30
0
  0
LINE
  8
_0-2_寸法
  6
CONTINUOUS
 62
    4
 10
177.41134643276504
 20
149.13397220746305
 11
177.41134643276504
 21
172.1339717074631
  0
LINE
  8
_0-2_寸法
  6
CONTINUOUS
 62
    4
 10
190.91134643276504
 20
148.63397270746304
 11
190.91134643276504
 21
172.1339717074631
  0
LINE
  8
_0-2_寸法
  6
CONTINUOUS
 62
    4
 10
177.91134643276504
 20
172.1339717074631
 11
190.41134643276504
 21
172.1339717074631
  0
INSERT
  2
-000-_Dot
  8
_0-2_寸法
 10
177.41134643276504
 20
172.1339717074631
 41
1
 42
1
 50
180
  0
INSERT
  2
-000-_Dot
  8
_0-2_寸法
 10
190.91134643276504
 20
172.1339717074631
 41
1
 42
1
 50
0
  0
TEXT
  8
_0-2_寸法
 62
    7
 10
181.66134643276504
 20
172.6339717074631
 40
5
 41
1
 50
0
  1
27
  0
POINT
  8
_0-1_Defpoints
 62
    7
 10
177.41134643276504
 20
149.13397220746305
  0
POINT
  8
_0-1_Defpoints
 62
    7
 10
190.91134643276504
 20
148.63397270746304
  0
POINT
  8
_0-1_Defpoints
 62
    7
 10
190.91134643276504
 20
172.1339717074631
  0
ENDBLK
  0
BLOCK
  2
-026-_D39
 70
   64
 10
0
 20
0
 30
0
  0
LINE
  8
_0-2_寸法
  6
CONTINUOUS
 62
    4
 10
190.91134643276504
 20
148.63397270746304
 11
190.91134643276504
 21
182.1339722074631
  0
LINE
  8
_0-2_寸法
  6
CONTINUOUS
 62
    4
 10
165.9113459327651
 20
148.63397270746304
 11
165.9113459327651
 21
182.1339722074631
  0
LINE
  8
_0-2_寸法
  6
CONTINUOUS
 62
    4
 10
190.41134643276504
 20
182.1339722074631
 11
166.4113459327651
 21
182.1339722074631
  0
INSERT
  2
-000-_Dot
  8
_0-2_寸法
 10
190.91134643276504
 20
182.1339722074631
 41
1
 42
1
 50
0
  0
INSERT
  2
-000-_Dot
  8
_0-2_寸法
 10
165.9113459327651
 20
182.1339722074631
 41
1
 42
1
 50
180
  0
TEXT
  8
_0-2_寸法
 62
    7
 10
175.9113461827651
 20
182.6339722074631
 40
5
 41
1
 50
0
  1
50
  0
POINT
  8
_0-1_Defpoints
 62
    7
 10
190.91134643276504
 20
148.63397270746304
  0
POINT
  8
_0-1_Defpoints
 62
    7
 10
165.9113459327651
 20
148.63397270746304
  0
POINT
  8
_0-1_Defpoints
 62
    7
 10
165.9113459327651
 20
182.1339722074631
  0
ENDBLK
  0
BLOCK
  2
-027-_D40
 70
   64
 10
0
 20
0
 30
0
  0
LINE
  8
_0-2_寸法
  6
CONTINUOUS
 62
    4
 10
174.89455943276505
 20
330.89295320746311
 11
174.89455943276505
 21
354.01151420746311
  0
LINE
  8
_0-2_寸法
  6
CONTINUOUS
 62
    4
 10
324.89455943276516
 20
330.89295320746311
 11
324.89455943276516
 21
354.01151420746311
  0
LINE
  8
_0-2_寸法
  6
CONTINUOUS
 62
    4
 10
175.39455943276505
 20
354.01151420746311
 11
324.39455943276516
 21
354.01151420746311
  0
INSERT
  2
-000-_Dot
  8
_0-2_寸法
 10
174.89455943276505
 20
354.01151420746311
 41
1
 42
1
 50
180
  0
INSERT
  2
-000-_Dot
  8
_0-2_寸法
 10
324.89455943276516
 20
354.01151420746311
 41
1
 42
1
 50
0
  0
TEXT
  8
_0-2_寸法
 62
    7
 10
239.89455943276511
 20
354.51151420746311
 40
5
 41
1
 50
0
  1
2000以下
  0
POINT
  8
_0-1_Defpoints
 62
    7
 10
174.89455943276505
 20
330.89295320746311
  0
POINT
  8
_0-1_Defpoints
 62
    7
 10
324.89455943276516
 20
330.89295320746311
  0
POINT
  8
_0-1_Defpoints
 62
    7
 10
324.89455943276516
 20
354.01151420746311
  0
ENDBLK
  0
BLOCK
  2
-028-_D41
 70
   64
 10
0
 20
0
 30
0
  0
LINE
  8
_0-2_寸法
  6
CONTINUOUS
 62
    4
 10
327.93867743276508
 20
261.89295320746311
 11
343.68867743276508
 21
261.89295320746311
  0
LINE
  8
_0-2_寸法
  6
CONTINUOUS
 62
    4
 10
327.93011693276497
 20
264.51795320746311
 11
343.68867743276508
 21
264.51795320746311
  0
LINE
  8
_0-2_寸法
  6
CONTINUOUS
 62
    4
 10
343.68867743276508
 20
261.39295320746311
 11
343.68867743276508
 21
260.89295320746311
  0
LINE
  8
_0-2_寸法
  6
CONTINUOUS
 62
    4
 10
343.68867743276508
 20
265.01795320746311
 11
343.68867743276508
 21
265.51795320746305
  0
INSERT
  2
-000-_Dot
  8
_0-2_寸法
 10
343.68867743276508
 20
261.89295320746311
 41
1
 42
1
 50
90
  0
INSERT
  2
-000-_Dot
  8
_0-2_寸法
 10
343.68867743276508
 20
264.51795320746311
 41
1
 42
1
 50
270
  0
TEXT
  8
_0-2_寸法
 62
    7
 10
343.18867743276502
 20
260.70545320746317
 40
5
 41
1
 50
90
  1
35
  0
POINT
  8
_0-1_Defpoints
 62
    7
 10
327.93867743276508
 20
261.89295320746311
  0
POINT
  8
_0-1_Defpoints
 62
    7
 10
327.93011693276497
 20
264.51795320746311
  0
POINT
  8
_0-1_Defpoints
 62
    7
 10
343.68867743276508
 20
264.51795320746311
  0
ENDBLK
  0
BLOCK
  2
-029-_D42
 70
   64
 10
0
 20
0
 30
0
  0
LINE
  8
_0-2_寸法
  6
CONTINUOUS
 62
    4
 10
327.93011693276497
 20
326.76795320746311
 11
343.68867743276508
 21
326.76795320746311
  0
LINE
  8
_0-2_寸法
  6
CONTINUOUS
 62
    4
 10
327.93867743276508
 20
329.39295320746311
 11
343.68867743276508
 21
329.39295320746311
  0
LINE
  8
_0-2_寸法
  6
CONTINUOUS
 62
    4
 10
343.68867743276508
 20
326.26795320746311
 11
343.68867743276508
 21
325.76795320746311
  0
LINE
  8
_0-2_寸法
  6
CONTINUOUS
 62
    4
 10
343.68867743276508
 20
329.89295320746311
 11
343.68867743276508
 21
330.39295320746311
  0
INSERT
  2
-000-_Dot
  8
_0-2_寸法
 10
343.68867743276508
 20
326.76795320746311
 41
1
 42
1
 50
90
  0
INSERT
  2
-000-_Dot
  8
_0-2_寸法
 10
343.68867743276508
 20
329.39295320746311
 41
1
 42
1
 50
270
  0
TEXT
  8
_0-2_寸法
 62
    7
 10
343.18867743276502
 20
325.58045320746317
 40
5
 41
1
 50
90
  1
35
  0
POINT
  8
_0-1_Defpoints
 62
    7
 10
327.93011693276497
 20
326.76795320746311
  0
POINT
  8
_0-1_Defpoints
 62
    7
 10
327.93867743276508
 20
329.39295320746311
  0
POINT
  8
_0-1_Defpoints
 62
    7
 10
343.68867743276508
 20
329.39295320746311
  0
ENDBLK
  0
BLOCK
  2
-030-_D43
 70
   64
 10
0
 20
0
 30
0
  0
LINE
  8
_0-2_寸法
  6
CONTINUOUS
 62
    4
 10
327.93867743276508
 20
329.39295320746311
 11
353.98424393276503
 21
329.39295320746311
  0
LINE
  8
_0-2_寸法
  6
CONTINUOUS
 62
    4
 10
327.93867743276508
 20
261.89295320746311
 11
353.98424393276503
 21
261.89295320746311
  0
LINE
  8
_0-2_寸法
  6
CONTINUOUS
 62
    4
 10
353.98424393276503
 20
328.89295320746311
 11
353.98424393276503
 21
262.39295320746305
  0
INSERT
  2
-000-_Dot
  8
_0-2_寸法
 10
353.98424393276503
 20
329.39295320746311
 41
1
 42
1
 50
90
  0
INSERT
  2
-000-_Dot
  8
_0-2_寸法
 10
353.98424393276503
 20
261.89295320746311
 41
1
 42
1
 50
270
  0
TEXT
  8
_0-2_寸法
 62
    7
 10
353.48424393276497
 20
286.89295320746317
 40
5
 41
1
 50
90
  1
900以下
  0
POINT
  8
_0-1_Defpoints
 62
    7
 10
327.93867743276508
 20
329.39295320746311
  0
POINT
  8
_0-1_Defpoints
 62
    7
 10
327.93867743276508
 20
261.89295320746311
  0
POINT
  8
_0-1_Defpoints
 62
    7
 10
353.98424393276503
 20
261.89295320746311
  0
ENDBLK
  0
ENDSEC
  0
SECTION
  2
ENTITIES
  0
LINE
  8
_0-3_躯体と製品
  6
CONTINUOUS
 62
    7
 10
174.32869465579466
 20
34.081060023233704
 11
396.09097465579458
 21
34.081060023233704
  0
LINE
  8
_0-3_躯体と製品
  6
CONTINUOUS
 62
    3
 10
191.20999465579467
 20
34.081060023233704
 11
232.20999265579468
 21
75.081058023233709
  0
LINE
  8
_0-3_躯体と製品
  6
CONTINUOUS
 62
    3
 10
194.03842165579476
 20
34.081060023233704
 11
235.03841965579477
 21
75.081058023233709
  0
LINE
  8
_0-3_躯体と製品
  6
CONTINUOUS
 62
    3
 10
196.86684865579468
 20
34.081060023233704
 11
237.86684665579469
 21
75.081058023233709
  0
LINE
  8
_0-3_躯体と製品
  6
PLINE3
 62
    3
 10
-67.875330344205224
 20
421.01503002323358
 11
-67.875330344205224
 21
-103.32775097676628
  0
LINE
  8
_0-3_躯体と製品
  6
CONTINUOUS
 62
    3
 10
22.124648655794743
 20
152.26030902323373
 11
2.1246506557947669
 21
132.26031102323373
  0
LINE
  8
_0-3_躯体と製品
  6
CONTINUOUS
 62
    3
 10
2.1246506557947669
 20
135.0887380232337
 11
22.124648655794743
 21
155.08873602323371
  0
LINE
  8
_0-3_躯体と製品
  6
CONTINUOUS
 62
    3
 10
22.124648655794743
 20
149.4318820232337
 11
2.1246506557947669
 21
129.4318810232337
  0
LINE
  8
_0-3_躯体と製品
  6
CONTINUOUS
 62
    7
 10
2.1246506557947669
 20
-141.56437397676632
 11
2.1246506557947669
 21
469.50943902323371
  0
LINE
  8
_0-3_躯体と製品
  6
CONTINUOUS
 62
    4
 10
-57.875328344205286
 20
166.37959602323372
 11
-57.875328344205286
 21
-48.327751976766393
  0
LINE
  8
_0-3_躯体と製品
  6
CONTINUOUS
 62
    4
 10
-98.125329344205284
 20
-83.327752976766277
 11
-98.125329344205284
 21
166.37959602323372
  0
LINE
  8
_0-3_躯体と製品
  6
CONTINUOUS
 62
    4
 10
-100.12533034420522
 20
-83.327752976766277
 11
-100.12533034420522
 21
166.37959602323372
  0
LINE
  8
_0-3_躯体と製品
  6
CONTINUOUS
 62
    4
 10
-35.625330344205224
 20
166.37959602323372
 11
-35.625330344205224
 21
-83.327752976766277
  0
LINE
  8
_0-3_躯体と製品
  6
CONTINUOUS
 62
    4
 10
-37.625328344205286
 20
-83.327752976766277
 11
-37.625328344205286
 21
166.37959602323372
  0
LINE
  8
_0-3_躯体と製品
  6
CONTINUOUS
 62
    4
 10
-77.875329344205284
 20
166.37959602323372
 11
-77.875329344205284
 21
-48.327751976766393
  0
LINE
  8
_0-3_躯体と製品
  6
CONTINUOUS
 62
    3
 10
22.124648655794743
 20
-97.674538976766286
 11
2.1246506557947669
 21
-117.67453997676625
  0
LINE
  8
_0-3_躯体と製品
  6
CONTINUOUS
 62
    3
 10
2.1246506557947669
 20
-120.50296697676629
 11
22.124648655794743
 21
-100.50296597676629
  0
LINE
  8
_0-3_躯体と製品
  6
CONTINUOUS
 62
    3
 10
22.124648655794743
 20
-94.846111976766281
 11
2.1246506557947669
 21
-114.84610997676629
  0
TEXT
  8
_0-4_文字-記号
 62
    7
 10
-139.25089534420528
 20
-180.07896797676625
 40
20
 41
0.8
 50
0
  1
縦断面図（Ｓ：１／３）
  0
LINE
  8
_0-3_躯体と製品
  6
PLINE2
 62
    3
 10
27.672176655794715
 20
22.67224902323369
 11
2.1246506557947669
 21
22.67224902323369
  0
LINE
  8
_0-3_躯体と製品
  6
PLINE2
 62
    3
 10
27.672176655794715
 20
20.672251023233684
 11
2.1246506557947669
 21
20.672251023233684
  0
LINE
  8
_0-3_躯体と製品
  6
PLINE2
 62
    3
 10
27.672176655794715
 20
12.672247023233638
 11
2.1246506557947669
 21
12.672247023233638
  0
LINE
  8
_0-3_躯体と製品
  6
PLINE2
 62
    3
 10
27.672176655794715
 20
10.672246023233697
 11
2.1246506557947669
 21
10.672246023233697
  0
CIRCLE
  8
_0-3_躯体と製品
  6
PLINE2
 62
    3
 10
-67.875330344205224
 20
16.67224902323369
 40
6.5000039999999997
  0
LINE
  8
_0-3_躯体と製品
  6
PLINE2
 62
    3
 10
-61.375326344205348
 20
20.425027023233724
 11
-67.875330344205224
 21
24.177805023233702
  0
LINE
  8
_0-3_躯体と製品
  6
PLINE2
 62
    3
 10
-67.875330344205224
 20
24.177805023233702
 11
-74.375334344205271
 21
20.425027023233724
  0
CIRCLE
  8
_0-3_躯体と製品
  6
PLINE2
 62
    3
 10
-67.875330344205224
 20
16.67224902323369
 40
11.00000099999999
  0
ARC
  8
_0-3_躯体と製品
  6
PLINE2
 62
    3
 10
-6.5140053442052874
 20
22.244368023233733
 40
1.865081999999999
 50
183.62604000000002
 51
237.44986900000004
  0
LINE
  8
_0-3_躯体と製品
  6
PLINE2
 62
    3
 10
-8.3753523442052256
 20
23.172253023233736
 11
-8.3753523442052256
 21
16.67224902323369
  0
LINE
  8
_0-3_躯体と製品
  6
PLINE2
 62
    3
 10
-2.8753503442052875
 20
5.672248023233692
 11
-2.8753503442052875
 21
27.672247023233638
  0
LINE
  8
_0-3_躯体と製品
  6
CONTINUOUS
 62
    4
 10
2.1246506557947669
 20
34.172248023233692
 11
2.1246506557947669
 21
-0.827752976766277
  0
LINE
  8
_0-3_躯体と製品
  6
PLINE2
 62
    3
 10
-1.8753513442053418
 20
-2.3277529767663907
 11
-1.8753513442053418
 21
35.672248023233692
  0
LINE
  8
_0-3_躯体と製品
  6
PLINE2
 62
    3
 10
-67.875330344205224
 20
9.1666900232336275
 11
-61.375326344205348
 21
12.919471023233712
  0
LINE
  8
_0-3_躯体と製品
  6
CONTINUOUS
 62
    4
 10
-41.87532934420517
 20
-48.327751976766393
 11
-93.875328344205286
 21
-48.327751976766393
  0
LINE
  8
_0-3_躯体と製品
  6
CONTINUOUS
 62
    4
 10
-67.575330344205327
 20
-49.927750976766276
 11
-62.175330344205292
 21
-49.927750976766276
  0
LINE
  8
_0-3_躯体と製品
  6
PLINE2
 62
    3
 10
-100.12533034420522
 20
-2.3277529767663907
 11
-35.625330344205224
 21
-2.3277529767663907
  0
LINE
  8
_0-3_躯体と製品
  6
CONTINUOUS
 62
    4
 10
-94.775328344205263
 20
-72.827752976766277
 11
-95.275329344205204
 21
-81.32775197676628
  0
LINE
  8
_0-3_躯体と製品
  6
CONTINUOUS
 62
    4
 10
-97.875330344205224
 20
-52.327750976766282
 11
-97.875330344205224
 21
-82.82775197676628
  0
LINE
  8
_0-3_躯体と製品
  6
CONTINUOUS
 62
    4
 10
-97.375329344205284
 20
-83.327752976766277
 11
-96.775329344205204
 21
-83.327752976766277
  0
LINE
  8
_0-3_躯体と製品
  6
CONTINUOUS
 62
    4
 10
-95.275329344205204
 20
-81.32775197676628
 11
-96.275328344205263
 21
-81.32775197676628
  0
ARC
  8
_0-3_躯体と製品
  6
CONTINUOUS
 62
    4
 10
-97.375329344205284
 20
-82.82775197676628
 40
0.5000010000000001
 50
180
 51
270
  0
ARC
  8
_0-3_躯体と製品
  6
CONTINUOUS
 62
    4
 10
-96.775329344205204
 20
-82.82775197676628
 40
0.5000010000000001
 50
270
 51
0
  0
LINE
  8
_0-3_躯体と製品
  6
CONTINUOUS
 62
    4
 10
-96.275328344205263
 20
-82.82775197676628
 11
-96.275328344205263
 21
-81.32775197676628
  0
LINE
  8
_0-3_躯体と製品
  6
CONTINUOUS
 62
    4
 10
-100.12533034420522
 20
-83.327752976766277
 11
-98.125329344205284
 21
-83.327752976766277
  0
LINE
  8
_0-3_躯体と製品
  6
PLINE3
 62
    3
 10
-84.275328344205263
 20
-65.827750976766396
 11
-105.12532834420529
 21
-65.827750976766396
  0
LINE
  8
_0-3_躯体と製品
  6
CONTINUOUS
 62
    4
 10
-74.175330344205292
 20
-49.927750976766276
 11
-93.775242344205253
 21
-49.927750976766276
  0
LINE
  8
_0-3_躯体と製品
  6
CONTINUOUS
 62
    4
 10
-96.275328344205263
 20
-63.191191976766277
 11
-96.275241344205256
 21
-52.427725976766283
  0
LINE
  8
_0-3_躯体と製品
  6
CONTINUOUS
 62
    4
 10
-92.175330344205292
 20
-69.077587976766381
 11
-92.175330344205292
 21
-67.877587976766279
  0
LINE
  8
_0-3_躯体と製品
  6
CONTINUOUS
 62
    4
 10
-92.875329344205284
 20
-67.877587976766279
 11
-92.175330344205292
 21
-67.877587976766279
  0
LINE
  8
_0-3_躯体と製品
  6
CONTINUOUS
 62
    4
 10
-92.875329344205284
 20
-66.982351976766296
 11
-92.875329344205284
 21
-67.877587976766279
  0
LINE
  8
_0-3_躯体と製品
  6
CONTINUOUS
 62
    4
 10
-94.775328344205263
 20
-72.827752976766277
 11
-96.275328344205263
 21
-72.827752976766277
  0
LINE
  8
_0-3_躯体と製品
  6
CONTINUOUS
 62
    4
 10
-96.275328344205263
 20
-68.464309976766287
 11
-96.275328344205263
 21
-72.827752976766277
  0
ARC
  8
_0-3_躯体と製品
  6
CONTINUOUS
 62
    4
 10
-94.375329344205284
 20
-65.827750976766396
 40
3.2498369999999999
 50
62.512081999999879
 51
125.7778720000001
  0
ARC
  8
_0-3_躯体と製品
  6
CONTINUOUS
 62
    4
 10
-94.375329344205284
 20
-65.827750976766396
 40
3.2498369999999999
 50
234.22211100000001
 51
270
  0
LINE
  8
_0-3_躯体と製品
  6
CONTINUOUS
 62
    4
 10
-92.875329344205284
 20
-66.982351976766296
 11
-94.375329344205284
 21
-67.848376976766275
  0
LINE
  8
_0-3_躯体と製品
  6
CONTINUOUS
 62
    4
 10
-96.125241344205278
 20
-66.838063976766279
 11
-96.125241344205278
 21
-65.827750976766396
  0
LINE
  8
_0-3_躯体と製品
  6
CONTINUOUS
 62
    4
 10
-94.375329344205284
 20
-67.848376976766275
 11
-96.125241344205278
 21
-66.838063976766279
  0
LINE
  8
_0-3_躯体と製品
  6
CONTINUOUS
 62
    4
 10
-92.875329344205284
 20
-64.673152976766289
 11
-94.375329344205284
 21
-63.807127976766282
  0
LINE
  8
_0-3_躯体と製品
  6
CONTINUOUS
 62
    4
 10
-96.125241344205278
 20
-64.817437976766286
 11
-96.125241344205278
 21
-65.827750976766396
  0
LINE
  8
_0-3_躯体と製品
  6
CONTINUOUS
 62
    4
 10
-94.375329344205284
 20
-63.807127976766282
 11
-96.125241344205278
 21
-64.817437976766286
  0
LINE
  8
_0-3_躯体と製品
  6
CONTINUOUS
 62
    4
 10
-94.375329344205284
 20
-69.077587976766381
 11
-92.175330344205292
 21
-69.077587976766381
  0
LINE
  8
_0-3_躯体と製品
  6
CONTINUOUS
 62
    4
 10
-92.875329344205284
 20
-62.944792976766394
 11
-92.875329344205284
 21
-64.673152976766289
  0
ARC
  8
_0-3_躯体と製品
  6
CONTINUOUS
 62
    4
 10
-93.775242344205253
 20
-52.4277529767663
 40
2.499998999999999
 50
90
 51
179.999392
  0
ARC
  8
_0-3_躯体と製品
  6
CONTINUOUS
 62
    4
 10
-93.875328344205286
 20
-52.327750976766282
 40
3.9999989999999999
 50
90
 51
180
  0
LINE
  8
_0-3_躯体と製品
  6
CONTINUOUS
 62
    4
 10
-73.875330344205224
 20
-49.627750976766293
 11
-73.575330344205327
 21
-49.927750976766276
  0
LINE
  8
_0-3_躯体と製品
  6
CONTINUOUS
 62
    4
 10
-74.175330344205292
 20
-49.927750976766276
 11
-73.875330344205224
 21
-49.627750976766293
  0
LINE
  8
_0-3_躯体と製品
  6
CONTINUOUS
 62
    4
 10
-67.875330344205224
 20
-49.627750976766293
 11
-67.575330344205327
 21
-49.927750976766276
  0
LINE
  8
_0-3_躯体と製品
  6
CONTINUOUS
 62
    4
 10
-68.175330344205292
 20
-49.927750976766276
 11
-67.875330344205224
 21
-49.627750976766293
  0
LINE
  8
_0-3_躯体と製品
  6
CONTINUOUS
 62
    4
 10
-68.175330344205292
 20
-49.927750976766276
 11
-73.575330344205327
 21
-49.927750976766276
  0
LINE
  8
_0-3_躯体と製品
  6
PLINE2
 62
    3
 10
-74.375334344205271
 20
12.919471023233712
 11
-67.875330344205224
 21
9.1666900232336275
  0
LINE
  8
_0-3_躯体と製品
  6
PLINE2
 62
    3
 10
-74.375334344205271
 20
20.425027023233724
 11
-74.375334344205271
 21
12.919471023233712
  0
LINE
  8
_0-3_躯体と製品
  6
CONTINUOUS
 62
    4
 10
-40.975332344205214
 20
-72.827752976766277
 11
-40.475331344205244
 21
-81.32775197676628
  0
LINE
  8
_0-3_躯体と製品
  6
CONTINUOUS
 62
    4
 10
-37.875330344205224
 20
-52.327750976766282
 11
-37.875330344205224
 21
-82.82775197676628
  0
LINE
  8
_0-3_躯体と製品
  6
CONTINUOUS
 62
    4
 10
-38.975331344205244
 20
-83.327752976766277
 11
-38.375328344205286
 21
-83.327752976766277
  0
LINE
  8
_0-3_躯体と製品
  6
CONTINUOUS
 62
    4
 10
-40.475331344205244
 20
-81.32775197676628
 11
-39.475332344205214
 21
-81.32775197676628
  0
ARC
  8
_0-3_躯体と製品
  6
CONTINUOUS
 62
    4
 10
-38.375328344205286
 20
-82.82775197676628
 40
0.5000010000000001
 50
270
 51
0
  0
ARC
  8
_0-3_躯体と製品
  6
CONTINUOUS
 62
    4
 10
-38.975331344205244
 20
-82.82775197676628
 40
0.5000010000000001
 50
180
 51
270
  0
LINE
  8
_0-3_躯体と製品
  6
CONTINUOUS
 62
    4
 10
-39.475332344205214
 20
-82.82775197676628
 11
-39.475332344205214
 21
-81.32775197676628
  0
LINE
  8
_0-3_躯体と製品
  6
CONTINUOUS
 62
    4
 10
-37.625328344205286
 20
-83.327752976766277
 11
-35.625330344205224
 21
-83.327752976766277
  0
LINE
  8
_0-3_躯体と製品
  6
PLINE3
 62
    3
 10
-51.375330344205224
 20
-65.827750976766396
 11
-30.62532934420517
 21
-65.827750976766396
  0
LINE
  8
_0-3_躯体と製品
  6
CONTINUOUS
 62
    4
 10
-42.975330344205275
 20
-67.877587976766279
 11
-43.675329344205238
 21
-67.877587976766279
  0
ARC
  8
_0-3_躯体と製品
  6
CONTINUOUS
 62
    4
 10
-41.375331344205279
 20
-65.827750976766396
 40
3.2498369999999999
 50
54.222127999999877
 51
131.17173199999991
  0
LINE
  8
_0-3_躯体と製品
  6
CONTINUOUS
 62
    4
 10
-43.514757344205208
 20
-65.042323976766284
 11
-41.375331344205279
 21
-63.807127976766282
  0
LINE
  8
_0-3_躯体と製品
  6
CONTINUOUS
 62
    4
 10
-41.975418344205195
 20
-49.927750976766276
 11
-61.575330344205327
 21
-49.927750976766276
  0
LINE
  8
_0-3_躯体と製品
  6
CONTINUOUS
 62
    4
 10
-43.675329344205238
 20
-69.077587976766381
 11
-41.375331344205279
 21
-69.077587976766381
  0
LINE
  8
_0-3_躯体と製品
  6
CONTINUOUS
 62
    4
 10
-43.675329344205238
 20
-69.077587976766381
 11
-43.675329344205238
 21
-67.877587976766279
  0
LINE
  8
_0-3_躯体と製品
  6
CONTINUOUS
 62
    4
 10
-43.514757344205208
 20
-63.381469976766283
 11
-43.514757344205208
 21
-65.042323976766284
  0
LINE
  8
_0-3_躯体と製品
  6
CONTINUOUS
 62
    4
 10
-61.875330344205224
 20
-49.627750976766293
 11
-61.575330344205327
 21
-49.927750976766276
  0
LINE
  8
_0-3_躯体と製品
  6
CONTINUOUS
 62
    4
 10
-62.175330344205292
 20
-49.927750976766276
 11
-61.875330344205224
 21
-49.627750976766293
  0
ARC
  8
_0-3_躯体と製品
  6
CONTINUOUS
 62
    3
 10
-60.989073344205281
 20
-52.019680976766296
 40
0.3999809999999999
 50
180
 51
283.70023299999963
  0
ARC
  8
_0-3_躯体と製品
  6
CONTINUOUS
 62
    3
 10
-62.788983344205235
 20
-52.019680976766296
 40
0.3999809999999999
 50
256.29976700000032
 51
0
  0
LINE
  8
_0-3_躯体と製品
  6
CONTINUOUS
 62
    3
 10
-62.389005344205316
 20
-51.993520976766291
 11
-61.389054344205192
 21
-51.993520976766291
  0
ARC
  8
_0-3_躯体と製品
  6
CONTINUOUS
 62
    3
 10
-60.685419344205229
 20
-49.798003976766296
 40
2.299884
 50
309.30912400000039
 51
356.76216299999982
  0
ARC
  8
_0-3_躯体と製品
  6
CONTINUOUS
 62
    3
 10
-63.096315344205209
 20
-49.795000976766289
 40
2.299884
 50
183.31274299999993
 51
230.82048900000024
  0
ARC
  8
_0-3_躯体と製品
  6
CONTINUOUS
 62
    3
 10
-61.889028344205258
 20
-48.327982976766293
 40
4.1997900000000001
 50
230.69686900000002
 51
309.3093709999996
  0
LINE
  8
_0-3_躯体と製品
  6
CONTINUOUS
 62
    4
 10
-39.475332344205214
 20
-63.191191976766277
 11
-39.47541934420525
 21
-52.427725976766283
  0
LINE
  8
_0-3_躯体と製品
  6
CONTINUOUS
 62
    4
 10
-42.975330344205275
 20
-66.924616976766288
 11
-42.975330344205275
 21
-67.877587976766279
  0
LINE
  8
_0-3_躯体と製品
  6
CONTINUOUS
 62
    4
 10
-40.975332344205214
 20
-72.827752976766277
 11
-39.475332344205214
 21
-72.827752976766277
  0
LINE
  8
_0-3_躯体と製品
  6
CONTINUOUS
 62
    4
 10
-39.475332344205214
 20
-68.464309976766287
 11
-39.475332344205214
 21
-72.827752976766277
  0
ARC
  8
_0-3_躯体と製品
  6
CONTINUOUS
 62
    4
 10
-41.375331344205279
 20
-65.827750976766396
 40
3.2498369999999999
 50
270
 51
305.7778889999999
  0
LINE
  8
_0-3_躯体と製品
  6
CONTINUOUS
 62
    4
 10
-42.975330344205275
 20
-66.924616976766288
 11
-41.375331344205279
 21
-67.848376976766275
  0
LINE
  8
_0-3_躯体と製品
  6
CONTINUOUS
 62
    4
 10
-39.625419344205284
 20
-66.838063976766279
 11
-39.625419344205284
 21
-65.827750976766396
  0
LINE
  8
_0-3_躯体と製品
  6
CONTINUOUS
 62
    4
 10
-41.375331344205279
 20
-67.848376976766275
 11
-39.625419344205284
 21
-66.838063976766279
  0
LINE
  8
_0-3_躯体と製品
  6
CONTINUOUS
 62
    4
 10
-39.625419344205284
 20
-64.817437976766286
 11
-39.625419344205284
 21
-65.827750976766396
  0
LINE
  8
_0-3_躯体と製品
  6
CONTINUOUS
 62
    4
 10
-41.375331344205279
 20
-63.807127976766282
 11
-39.625419344205284
 21
-64.817437976766286
  0
ARC
  8
_0-3_躯体と製品
  6
CONTINUOUS
 62
    4
 10
-41.87532934420517
 20
-52.327750976766282
 40
3.9999989999999999
 50
0
 51
90
  0
ARC
  8
_0-3_躯体と製品
  6
CONTINUOUS
 62
    4
 10
-41.975418344205195
 20
-52.4277529767663
 40
2.499998999999999
 50
0.000597000000005
 51
90.000000000000014
  0
LINE
  8
_0-3_躯体と製品
  6
CONTINUOUS
 62
    4
 10
-35.625330344205224
 20
-2.3277529767663907
 11
2.1246506557947669
 21
-2.3277529767663907
  0
LINE
  8
_0-3_躯体と製品
  6
PLINE2
 62
    3
 10
-61.375326344205348
 20
12.919471023233712
 11
-61.375326344205348
 21
20.425027023233724
  0
LINE
  8
_0-3_躯体と製品
  6
PLINE3
 62
    3
 10
10.304504655794688
 20
16.67224902323369
 11
-12.346278344205246
 21
16.67224902323369
  0
LINE
  8
_0-3_躯体と製品
  6
PLINE2
 62
    3
 10
-7.7947953442052835
 20
9.1666900232336275
 11
-8.3753523442052256
 21
10.1722450232337
  0
LINE
  8
_0-3_躯体と製品
  6
PLINE2
 62
    3
 10
-8.3753523442052256
 20
10.1722450232337
 11
-8.3753523442052256
 21
16.67224902323369
  0
LINE
  8
_0-3_躯体と製品
  6
PLINE2
 62
    3
 10
-2.8753503442052875
 20
12.672247023233638
 11
-7.5174873442052217
 21
12.672247023233638
  0
LINE
  8
_0-3_躯体と製品
  6
PLINE2
 62
    3
 10
-2.8753503442052875
 20
9.1666900232336275
 11
-7.7947953442052835
 21
9.1666900232336275
  0
LINE
  8
_0-3_躯体と製品
  6
PLINE2
 62
    3
 10
-2.8753503442052875
 20
20.672251023233684
 11
-7.5174873442052217
 21
20.672251023233684
  0
ARC
  8
_0-3_躯体と製品
  6
PLINE2
 62
    3
 10
-6.5140053442052874
 20
11.100130023233589
 40
1.865081999999999
 50
122.55013099999999
 51
176.3739599999999
  0
ARC
  8
_0-3_躯体と製品
  6
PLINE2
 62
    3
 10
1.379066655794702
 20
16.67224902323369
 40
9.7544189999999986
 50
155.79072399999961
 51
204.2092760000003
  0
LINE
  8
_0-3_躯体と製品
  6
PLINE2
 62
    3
 10
-1.8753513442053418
 20
5.672248023233692
 11
-2.8753503442052875
 21
5.672248023233692
  0
LINE
  8
_0-3_躯体と製品
  6
PLINE2
 62
    3
 10
-100.12533034420522
 20
35.672248023233692
 11
-35.625330344205224
 21
35.672248023233692
  0
LINE
  8
_0-3_躯体と製品
  6
CONTINUOUS
 62
    4
 10
-35.625330344205224
 20
35.672248023233692
 11
2.1246506557947669
 21
35.672248023233692
  0
LINE
  8
_0-3_躯体と製品
  6
PLINE2
 62
    3
 10
-7.7947953442052835
 20
24.177805023233702
 11
-8.3753523442052256
 21
23.172253023233736
  0
LINE
  8
_0-3_躯体と製品
  6
PLINE2
 62
    3
 10
-2.8753503442052875
 20
24.177805023233702
 11
-7.7947953442052835
 21
24.177805023233702
  0
LINE
  8
_0-3_躯体と製品
  6
PLINE2
 62
    3
 10
-2.8753503442052875
 20
27.672247023233638
 11
-1.8753513442053418
 21
27.672247023233638
  0
TEXT
  8
_0-4_文字-記号
 62
    7
 10
-258.91199134420526
 20
458.38291302323358
 40
20
 41
0.8
 50
0
  1
６０Ｗ－Ａ
  0
ARC
  8
_0-3_躯体と製品
  6
CONTINUOUS
 62
    4
 10
-41.87532934420517
 20
397.01503002323369
 40
3.9999989999999999
 50
0
 51
90
  0
ARC
  8
_0-3_躯体と製品
  6
CONTINUOUS
 62
    4
 10
-93.875328344205286
 20
397.01503002323369
 40
3.9999989999999999
 50
90
 51
180
  0
LINE
  8
_0-3_躯体と製品
  6
CONTINUOUS
 62
    4
 10
-98.125329344205284
 20
401.01502902323381
 11
-98.125329344205284
 21
171.37959702323371
  0
LINE
  8
_0-3_躯体と製品
  6
CONTINUOUS
 62
    4
 10
-100.12533034420522
 20
171.37959702323371
 11
-100.12533034420522
 21
401.01502902323381
  0
LINE
  8
_0-3_躯体と製品
  6
CONTINUOUS
 62
    4
 10
-35.625330344205224
 20
401.01502902323381
 11
-35.625330344205224
 21
171.37959702323371
  0
LINE
  8
_0-3_躯体と製品
  6
CONTINUOUS
 62
    4
 10
-37.625328344205286
 20
171.37959702323371
 11
-37.625328344205286
 21
401.01502902323381
  0
LINE
  8
_0-3_躯体と製品
  6
PLINE2
 62
    3
 10
27.672176655794715
 20
307.01503002323369
 11
2.1246506557947669
 21
307.01503002323369
  0
LINE
  8
_0-3_躯体と製品
  6
PLINE2
 62
    3
 10
27.672176655794715
 20
305.0150320232338
 11
2.1246506557947669
 21
305.0150320232338
  0
LINE
  8
_0-3_躯体と製品
  6
PLINE2
 62
    3
 10
27.672176655794715
 20
297.0150280232337
 11
2.1246506557947669
 21
297.0150280232337
  0
LINE
  8
_0-3_躯体と製品
  6
PLINE2
 62
    3
 10
27.672176655794715
 20
295.01502702323359
 11
2.1246506557947669
 21
295.01502702323359
  0
LINE
  8
_0-3_躯体と製品
  6
CONTINUOUS
 62
    4
 10
-57.875328344205286
 20
367.01503002323358
 11
-57.875328344205286
 21
171.37959702323371
  0
LINE
  8
_0-3_躯体と製品
  6
CONTINUOUS
 62
    4
 10
-77.875329344205284
 20
367.01503002323358
 11
-77.875329344205284
 21
171.37959702323371
  0
CIRCLE
  8
_0-3_躯体と製品
  6
PLINE2
 62
    3
 10
-67.875330344205224
 20
301.01503002323381
 40
6.5000039999999997
  0
LINE
  8
_0-3_躯体と製品
  6
PLINE2
 62
    3
 10
-61.375326344205348
 20
304.76780802323361
 11
-67.875330344205224
 21
308.52058602323376
  0
LINE
  8
_0-3_躯体と製品
  6
PLINE2
 62
    3
 10
-67.875330344205224
 20
293.50947102323374
 11
-61.375326344205348
 21
297.26224902323366
  0
LINE
  8
_0-3_躯体と製品
  6
CONTINUOUS
 62
    4
 10
-67.575330344205327
 20
399.41503002323367
 11
-59.175330344205292
 21
399.41503002323367
  0
LINE
  8
_0-3_躯体と製品
  6
CONTINUOUS
 62
    4
 10
-78.125310344205218
 20
367.01503002323358
 11
-57.625308344205223
 21
367.01503002323358
  0
LINE
  8
_0-3_躯体と製品
  6
CONTINUOUS
 62
    4
 10
-67.575330344205327
 20
368.61502902323383
 11
-62.175330344205292
 21
368.61502902323383
  0
LINE
  8
_0-3_躯体と製品
  6
PLINE2
 62
    3
 10
-100.12533034420522
 20
282.0150280232337
 11
-35.625330344205224
 21
282.0150280232337
  0
LINE
  8
_0-3_躯体と製品
  6
PLINE2
 62
    3
 10
-100.12533034420522
 20
320.01502902323369
 11
-35.625330344205224
 21
320.01502902323369
  0
CIRCLE
  8
_0-3_躯体と製品
  6
PLINE2
 62
    3
 10
-67.875330344205224
 20
301.01503002323381
 40
11.00000099999999
  0
LINE
  8
_0-3_躯体と製品
  6
PLINE2
 62
    3
 10
-67.875330344205224
 20
308.52058602323376
 11
-74.375334344205271
 21
304.76780802323361
  0
LINE
  8
_0-3_躯体と製品
  6
PLINE2
 62
    3
 10
-74.375334344205271
 20
297.26224902323366
 11
-67.875330344205224
 21
293.50947102323374
  0
LINE
  8
_0-3_躯体と製品
  6
PLINE2
 62
    3
 10
-74.375334344205271
 20
304.76780802323361
 11
-74.375334344205271
 21
297.26224902323366
  0
LINE
  8
_0-3_躯体と製品
  6
CONTINUOUS
 62
    4
 10
-94.775328344205263
 20
376.51502802323381
 11
-95.275329344205204
 21
368.01502902323381
  0
LINE
  8
_0-3_躯体と製品
  6
CONTINUOUS
 62
    4
 10
-97.875330344205224
 20
397.01503002323369
 11
-97.875330344205224
 21
366.51502902323381
  0
LINE
  8
_0-3_躯体と製品
  6
CONTINUOUS
 62
    4
 10
-92.288772344205199
 20
379.01503002323358
 11
-93.064386344205218
 21
368.18573802323357
  0
LINE
  8
_0-3_躯体と製品
  6
CONTINUOUS
 62
    4
 10
-94.275288344205251
 20
376.51502802323381
 11
-94.713960344205248
 21
368.04431802323376
  0
ARC
  8
_0-3_躯体と製品
  6
CONTINUOUS
 62
    3
 10
-72.66998734420531
 20
368.48512902323381
 40
2.299884
 50
3.2378370000001939
 51
50.690875999999598
  0
ARC
  8
_0-3_躯体と製品
  6
CONTINUOUS
 62
    3
 10
-75.080886344205283
 20
368.48212602323389
 40
2.299884
 50
129.17951099999979
 51
176.68725699999999
  0
LINE
  8
_0-3_躯体と製品
  6
CONTINUOUS
 62
    4
 10
-81.375309344205277
 20
367.61503002323383
 11
-92.56941034420521
 21
367.61503002323383
  0
LINE
  8
_0-3_躯体と製品
  6
CONTINUOUS
 62
    4
 10
-95.775330344205258
 20
366.0150280232337
 11
-78.125310344205218
 21
366.0150280232337
  0
LINE
  8
_0-3_躯体と製品
  6
CONTINUOUS
 62
    4
 10
-97.375329344205284
 20
366.0150280232337
 11
-96.775329344205204
 21
366.0150280232337
  0
LINE
  8
_0-3_躯体と製品
  6
CONTINUOUS
 62
    4
 10
-95.275329344205204
 20
368.01502902323381
 11
-96.275328344205263
 21
368.01502902323381
  0
ARC
  8
_0-3_躯体と製品
  6
CONTINUOUS
 62
    4
 10
-97.375329344205284
 20
366.51502902323381
 40
0.5000010000000001
 50
180
 51
270
  0
ARC
  8
_0-3_躯体と製品
  6
CONTINUOUS
 62
    4
 10
-96.775329344205204
 20
366.51502902323381
 40
0.5000010000000001
 50
270
 51
0
  0
LINE
  8
_0-3_躯体と製品
  6
CONTINUOUS
 62
    4
 10
-96.275328344205263
 20
366.51502902323381
 11
-96.275328344205263
 21
368.01502902323381
  0
ARC
  8
_0-3_躯体と製品
  6
CONTINUOUS
 62
    4
 10
-92.56941034420521
 20
368.11502802323361
 40
0.5000010000000001
 50
171.86989799999984
 51
270
  0
ARC
  8
_0-3_躯体と製品
  6
CONTINUOUS
 62
    4
 10
-95.208936344205199
 20
368.11502802323361
 40
0.5000010000000001
 50
270
 51
351.86989799999981
  0
LINE
  8
_0-3_躯体と製品
  6
CONTINUOUS
 62
    4
 10
-96.275286344205256
 20
367.61503002323383
 11
-95.208936344205199
 21
367.61503002323383
  0
LINE
  8
_0-3_躯体と製品
  6
CONTINUOUS
 62
    4
 10
-96.275328344205263
 20
366.51502902323381
 11
-96.275328344205263
 21
367.61503002323383
  0
ARC
  8
_0-3_躯体と製品
  6
CONTINUOUS
 62
    4
 10
-95.775330344205258
 20
366.51502902323381
 40
0.5000010000000001
 50
180
 51
270
  0
LINE
  8
_0-3_躯体と製品
  6
CONTINUOUS
 62
    4
 10
-74.175330344205292
 20
368.61502902323383
 11
-81.375309344205277
 21
368.61502902323383
  0
LINE
  8
_0-3_躯体と製品
  6
CONTINUOUS
 62
    4
 10
-77.376927344205228
 20
368.61502902323383
 11
-70.373772344205179
 21
368.61502902323383
  0
LINE
  8
_0-3_躯体と製品
  6
CONTINUOUS
 62
    4
 10
-78.125310344205218
 20
366.0150280232337
 11
-78.125310344205218
 21
367.01503002323358
  0
LINE
  8
_0-3_躯体と製品
  6
CONTINUOUS
 62
    4
 10
-81.375309344205277
 20
368.61502902323383
 11
-81.375309344205277
 21
367.61503002323383
  0
LINE
  8
_0-3_躯体と製品
  6
CONTINUOUS
 62
    4
 10
-68.175330344205292
 20
368.61502902323383
 11
-67.875330344205224
 21
368.31502902323388
  0
LINE
  8
_0-3_躯体と製品
  6
CONTINUOUS
 62
    4
 10
-67.875330344205224
 20
368.31502902323388
 11
-67.575330344205327
 21
368.61502902323383
  0
LINE
  8
_0-3_躯体と製品
  6
CONTINUOUS
 62
    4
 10
-74.175330344205292
 20
368.61502902323383
 11
-73.875330344205224
 21
368.31502902323388
  0
LINE
  8
_0-3_躯体と製品
  6
CONTINUOUS
 62
    4
 10
-73.875330344205224
 20
368.31502902323388
 11
-73.575330344205327
 21
368.61502902323383
  0
LINE
  8
_0-3_躯体と製品
  6
CONTINUOUS
 62
    4
 10
-68.175330344205292
 20
368.61502902323383
 11
-73.575330344205327
 21
368.61502902323383
  0
LINE
  8
_0-3_躯体と製品
  6
PLINE3
 62
    3
 10
-84.275328344205263
 20
383.51503002323358
 11
-105.12532834420529
 21
383.51503002323358
  0
LINE
  8
_0-3_躯体と製品
  6
CONTINUOUS
 62
    4
 10
-77.175330344205292
 20
399.41503002323367
 11
-93.775242344205253
 21
399.41503002323367
  0
LINE
  8
_0-3_躯体と製品
  6
CONTINUOUS
 62
    4
 10
-92.875329344205284
 20
384.66962802323377
 11
-94.375329344205284
 21
385.53565302323358
  0
LINE
  8
_0-3_躯体と製品
  6
CONTINUOUS
 62
    4
 10
-94.375329344205284
 20
385.53565302323358
 11
-96.125241344205278
 21
384.52534002323358
  0
LINE
  8
_0-3_躯体と製品
  6
CONTINUOUS
 62
    4
 10
-92.875329344205284
 20
386.39798502323384
 11
-92.875329344205284
 21
384.66962802323377
  0
LINE
  8
_0-3_躯体と製品
  6
CONTINUOUS
 62
    4
 10
-92.175330344205292
 20
380.26519002323386
 11
-92.175330344205292
 21
381.46519002323379
  0
LINE
  8
_0-3_躯体と製品
  6
CONTINUOUS
 62
    4
 10
-92.875329344205284
 20
381.46519002323379
 11
-92.175330344205292
 21
381.46519002323379
  0
LINE
  8
_0-3_躯体と製品
  6
CONTINUOUS
 62
    4
 10
-92.875329344205284
 20
382.36042902323373
 11
-92.875329344205284
 21
381.46519002323379
  0
LINE
  8
_0-3_躯体と製品
  6
CONTINUOUS
 62
    4
 10
-94.775328344205263
 20
376.51502802323381
 11
-96.275328344205263
 21
376.51502802323381
  0
LINE
  8
_0-3_躯体と製品
  6
CONTINUOUS
 62
    4
 10
-96.275328344205263
 20
380.87847102323389
 11
-96.275328344205263
 21
376.51502802323381
  0
ARC
  8
_0-3_躯体と製品
  6
CONTINUOUS
 62
    4
 10
-94.375329344205284
 20
383.51503002323358
 40
3.2498369999999999
 50
234.22211100000001
 51
270
  0
LINE
  8
_0-3_躯体と製品
  6
CONTINUOUS
 62
    4
 10
-92.875329344205284
 20
382.36042902323373
 11
-94.375329344205284
 21
381.4944040232337
  0
LINE
  8
_0-3_躯体と製品
  6
CONTINUOUS
 62
    4
 10
-96.125241344205278
 20
382.5047170232337
 11
-96.125241344205278
 21
383.51503002323358
  0
LINE
  8
_0-3_躯体と製品
  6
CONTINUOUS
 62
    4
 10
-94.375329344205284
 20
381.4944040232337
 11
-96.125241344205278
 21
382.5047170232337
  0
LINE
  8
_0-3_躯体と製品
  6
CONTINUOUS
 62
    4
 10
-96.125241344205278
 20
384.52534002323358
 11
-96.125241344205278
 21
383.51503002323358
  0
LINE
  8
_0-3_躯体と製品
  6
CONTINUOUS
 62
    4
 10
-94.375329344205284
 20
380.26519002323386
 11
-92.175330344205292
 21
380.26519002323386
  0
LINE
  8
_0-3_躯体と製品
  6
CONTINUOUS
 62
    4
 10
-92.288772344205199
 20
379.01503002323358
 11
-94.275288344205251
 21
379.01503002323358
  0
LINE
  8
_0-3_躯体と製品
  6
CONTINUOUS
 62
    4
 10
-94.275288344205251
 20
379.01503002323358
 11
-96.015336344205195
 21
376.83996702323367
  0
ARC
  8
_0-3_躯体と製品
  6
CONTINUOUS
 62
    4
 10
-95.859162344205231
 20
376.71502902323374
 40
0.200001
 50
141.34019200000009
 51
270
  0
LINE
  8
_0-3_躯体と製品
  6
CONTINUOUS
 62
    4
 10
-95.859162344205231
 20
376.51502802323381
 11
-94.275288344205251
 21
376.51502802323381
  0
LINE
  8
_0-3_躯体と製品
  6
CONTINUOUS
 62
    4
 10
-96.275328344205263
 20
386.1515890232335
 11
-96.275241344205256
 21
396.91505502323372
  0
ARC
  8
_0-3_躯体と製品
  6
CONTINUOUS
 62
    4
 10
-93.775242344205253
 20
396.91502802323367
 40
2.499998999999999
 50
90
 51
179.999392
  0
ARC
  8
_0-3_躯体と製品
  6
CONTINUOUS
 62
    4
 10
-94.375329344205284
 20
383.51503002323358
 40
3.2498369999999999
 50
62.512081999999879
 51
125.7778720000001
  0
ARC
  8
_0-3_躯体と製品
  6
CONTINUOUS
 62
    3
 10
-72.97364434420524
 20
370.70680902323357
 40
0.3999809999999999
 50
76.299767000000344
 51
180
  0
ARC
  8
_0-3_躯体と製品
  6
CONTINUOUS
 62
    3
 10
-74.773554344205309
 20
370.70680902323357
 40
0.3999809999999999
 50
0
 51
103.70023299999961
  0
LINE
  8
_0-3_躯体と製品
  6
CONTINUOUS
 62
    3
 10
-74.373573344205283
 20
370.68064602323381
 11
-73.373622344205216
 21
370.68064602323381
  0
ARC
  8
_0-3_躯体と製品
  6
CONTINUOUS
 62
    3
 10
-73.873599344205218
 20
367.01510802323384
 40
4.1997900000000001
 50
50.690629000000342
 51
129.3031309999993
  0
LINE
  8
_0-3_躯体と製品
  6
CONTINUOUS
 62
    4
 10
-76.875330344205224
 20
399.71503002323362
 11
-76.575330344205327
 21
399.41503002323367
  0
LINE
  8
_0-3_躯体と製品
  6
CONTINUOUS
 62
    4
 10
-77.175330344205292
 20
399.41503002323367
 11
-76.875330344205224
 21
399.71503002323362
  0
LINE
  8
_0-3_躯体と製品
  6
CONTINUOUS
 62
    4
 10
-67.875330344205224
 20
399.71503002323362
 11
-67.575330344205327
 21
399.41503002323367
  0
LINE
  8
_0-3_躯体と製品
  6
CONTINUOUS
 62
    4
 10
-68.175330344205292
 20
399.41503002323367
 11
-67.875330344205224
 21
399.71503002323362
  0
LINE
  8
_0-3_躯体と製品
  6
CONTINUOUS
 62
    4
 10
-68.175330344205292
 20
399.41503002323367
 11
-76.575330344205327
 21
399.41503002323367
  0
LINE
  8
_0-3_躯体と製品
  6
CONTINUOUS
 62
    4
 10
-35.625330344205224
 20
320.01502902323369
 11
2.1246506557947669
 21
320.01502902323369
  0
LINE
  8
_0-3_躯体と製品
  6
CONTINUOUS
 62
    4
 10
-35.625330344205224
 20
282.0150280232337
 11
2.1246506557947669
 21
282.0150280232337
  0
LINE
  8
_0-3_躯体と製品
  6
PLINE2
 62
    3
 10
-61.375326344205348
 20
297.26224902323366
 11
-61.375326344205348
 21
304.76780802323361
  0
ARC
  8
_0-3_躯体と製品
  6
PLINE2
 62
    3
 10
-6.5140053442052874
 20
306.58714902323374
 40
1.865081999999999
 50
183.62604000000002
 51
237.44986900000004
  0
LINE
  8
_0-3_躯体と製品
  6
PLINE2
 62
    3
 10
-8.3753523442052256
 20
307.51503102323369
 11
-8.3753523442052256
 21
301.01503002323381
  0
LINE
  8
_0-3_躯体と製品
  6
PLINE2
 62
    3
 10
-2.8753503442052875
 20
290.01502902323369
 11
-2.8753503442052875
 21
312.01502802323358
  0
LINE
  8
_0-3_躯体と製品
  6
CONTINUOUS
 62
    4
 10
2.1246506557947669
 20
320.01502902323369
 11
2.1246506557947669
 21
282.0150280232337
  0
LINE
  8
_0-3_躯体と製品
  6
PLINE2
 62
    3
 10
-1.8753513442053418
 20
320.01502902323369
 11
-1.8753513442053418
 21
282.0150280232337
  0
LINE
  8
_0-3_躯体と製品
  6
PLINE3
 62
    3
 10
10.304504655794688
 20
301.01503002323381
 11
-12.346278344205246
 21
301.01503002323381
  0
LINE
  8
_0-3_躯体と製品
  6
PLINE2
 62
    3
 10
-1.8753513442053418
 20
290.01502902323369
 11
-2.8753503442052875
 21
290.01502902323369
  0
LINE
  8
_0-3_躯体と製品
  6
PLINE2
 62
    3
 10
-7.7947953442052835
 20
293.50947102323374
 11
-8.3753523442052256
 21
294.5150260232337
  0
LINE
  8
_0-3_躯体と製品
  6
PLINE2
 62
    3
 10
-8.3753523442052256
 20
294.5150260232337
 11
-8.3753523442052256
 21
301.01503002323381
  0
LINE
  8
_0-3_躯体と製品
  6
PLINE2
 62
    3
 10
-2.8753503442052875
 20
297.0150280232337
 11
-7.5174873442052217
 21
297.0150280232337
  0
LINE
  8
_0-3_躯体と製品
  6
PLINE2
 62
    3
 10
-2.8753503442052875
 20
293.50947102323374
 11
-7.7947953442052835
 21
293.50947102323374
  0
LINE
  8
_0-3_躯体と製品
  6
PLINE2
 62
    3
 10
-2.8753503442052875
 20
305.0150320232338
 11
-7.5174873442052217
 21
305.0150320232338
  0
ARC
  8
_0-3_躯体と製品
  6
PLINE2
 62
    3
 10
-6.5140053442052874
 20
295.44290802323366
 40
1.865081999999999
 50
122.55013099999999
 51
176.3739599999999
  0
ARC
  8
_0-3_躯体と製品
  6
PLINE2
 62
    3
 10
1.379066655794702
 20
301.01503002323381
 40
9.7544189999999986
 50
155.79072399999961
 51
204.2092760000003
  0
LINE
  8
_0-3_躯体と製品
  6
PLINE2
 62
    3
 10
-7.7947953442052835
 20
308.52058602323376
 11
-8.3753523442052256
 21
307.51503102323369
  0
LINE
  8
_0-3_躯体と製品
  6
PLINE2
 62
    3
 10
-2.8753503442052875
 20
308.52058602323376
 11
-7.7947953442052835
 21
308.52058602323376
  0
LINE
  8
_0-3_躯体と製品
  6
PLINE2
 62
    3
 10
-2.8753503442052875
 20
312.01502802323358
 11
-1.8753513442053418
 21
312.01502802323358
  0
LINE
  8
_0-3_躯体と製品
  6
CONTINUOUS
 62
    4
 10
-40.975332344205214
 20
376.51502802323381
 11
-40.475331344205244
 21
368.01502902323381
  0
LINE
  8
_0-3_躯体と製品
  6
CONTINUOUS
 62
    4
 10
-37.875330344205224
 20
397.01503002323369
 11
-37.875330344205224
 21
366.51502902323381
  0
LINE
  8
_0-3_躯体と製品
  6
CONTINUOUS
 62
    4
 10
-43.46184634420527
 20
379.01503002323358
 11
-42.686235344205215
 21
368.18573802323357
  0
LINE
  8
_0-3_躯体と製品
  6
CONTINUOUS
 62
    4
 10
-41.475330344205275
 20
376.51502802323381
 11
-41.036658344205307
 21
368.04431802323376
  0
ARC
  8
_0-3_躯体と製品
  6
CONTINUOUS
 62
    4
 10
-43.18120834420526
 20
368.11502802323361
 40
0.5000010000000001
 50
270
 51
8.1301020000002033
  0
LINE
  8
_0-3_躯体と製品
  6
CONTINUOUS
 62
    4
 10
-39.975333344205268
 20
366.0150280232337
 11
-57.625308344205223
 21
366.0150280232337
  0
LINE
  8
_0-3_躯体と製品
  6
CONTINUOUS
 62
    4
 10
-54.375309344205277
 20
368.61502902323383
 11
-61.575330344205327
 21
368.61502902323383
  0
LINE
  8
_0-3_躯体と製品
  6
CONTINUOUS
 62
    4
 10
-62.175330344205292
 20
368.61502902323383
 11
-61.875330344205224
 21
368.31502902323388
  0
LINE
  8
_0-3_躯体と製品
  6
CONTINUOUS
 62
    4
 10
-61.875330344205224
 20
368.31502902323388
 11
-61.575330344205327
 21
368.61502902323383
  0
LINE
  8
_0-3_躯体と製品
  6
CONTINUOUS
 62
    4
 10
-57.625308344205223
 20
366.0150280232337
 11
-57.625308344205223
 21
367.01503002323358
  0
LINE
  8
_0-3_躯体と製品
  6
CONTINUOUS
 62
    4
 10
-54.375309344205277
 20
367.61503002323383
 11
-43.18120834420526
 21
367.61503002323383
  0
LINE
  8
_0-3_躯体と製品
  6
CONTINUOUS
 62
    4
 10
-54.375309344205277
 20
368.61502902323383
 11
-54.375309344205277
 21
367.61503002323383
  0
LINE
  8
_0-3_躯体と製品
  6
CONTINUOUS
 62
    4
 10
-38.975331344205244
 20
366.0150280232337
 11
-38.375328344205286
 21
366.0150280232337
  0
LINE
  8
_0-3_躯体と製品
  6
CONTINUOUS
 62
    4
 10
-40.475331344205244
 20
368.01502902323381
 11
-39.475332344205214
 21
368.01502902323381
  0
ARC
  8
_0-3_躯体と製品
  6
CONTINUOUS
 62
    4
 10
-38.375328344205286
 20
366.51502902323381
 40
0.5000010000000001
 50
270
 51
0
  0
ARC
  8
_0-3_躯体と製品
  6
CONTINUOUS
 62
    4
 10
-38.975331344205244
 20
366.51502902323381
 40
0.5000010000000001
 50
180
 51
270
  0
LINE
  8
_0-3_躯体と製品
  6
CONTINUOUS
 62
    4
 10
-39.475332344205214
 20
366.51502902323381
 11
-39.475332344205214
 21
368.01502902323381
  0
LINE
  8
_0-3_躯体と製品
  6
CONTINUOUS
 62
    4
 10
-39.475332344205214
 20
367.61503002323383
 11
-39.475332344205214
 21
366.51502902323381
  0
LINE
  8
_0-3_躯体と製品
  6
CONTINUOUS
 62
    4
 10
-39.475332344205214
 20
367.61503002323383
 11
-40.541685344205177
 21
367.61503002323383
  0
ARC
  8
_0-3_躯体と製品
  6
CONTINUOUS
 62
    4
 10
-40.541685344205177
 20
368.11502802323361
 40
0.5000010000000001
 50
188.13010200000014
 51
270
  0
ARC
  8
_0-3_躯体と製品
  6
CONTINUOUS
 62
    4
 10
-39.975333344205268
 20
366.51502902323381
 40
0.5000010000000001
 50
270
 51
0
  0
LINE
  8
_0-3_躯体と製品
  6
CONTINUOUS
 62
    4
 10
-39.475332344205214
 20
366.51502902323381
 11
-39.475332344205214
 21
366.91502802323379
  0
LINE
  8
_0-3_躯体と製品
  6
PLINE3
 62
    3
 10
-51.375330344205224
 20
383.51503002323358
 11
-30.62532934420517
 21
383.51503002323358
  0
LINE
  8
_0-3_躯体と製品
  6
CONTINUOUS
 62
    4
 10
-42.975330344205275
 20
381.46519002323379
 11
-43.675329344205238
 21
381.46519002323379
  0
ARC
  8
_0-3_躯体と製品
  6
CONTINUOUS
 62
    4
 10
-41.375331344205279
 20
383.51503002323358
 40
3.2498369999999999
 50
54.222127999999877
 51
131.17173199999991
  0
LINE
  8
_0-3_躯体と製品
  6
CONTINUOUS
 62
    4
 10
-43.514757344205208
 20
384.30045402323361
 11
-41.375331344205279
 21
385.53565302323358
  0
LINE
  8
_0-3_躯体と製品
  6
CONTINUOUS
 62
    4
 10
-41.975418344205195
 20
399.41503002323367
 11
-58.575330344205327
 21
399.41503002323367
  0
LINE
  8
_0-3_躯体と製品
  6
CONTINUOUS
 62
    4
 10
-43.675329344205238
 20
380.26519002323386
 11
-41.375331344205279
 21
380.26519002323386
  0
LINE
  8
_0-3_躯体と製品
  6
CONTINUOUS
 62
    4
 10
-43.46184634420527
 20
379.01503002323358
 11
-41.475330344205275
 21
379.01503002323358
  0
LINE
  8
_0-3_躯体と製品
  6
CONTINUOUS
 62
    4
 10
-43.514757344205208
 20
385.96131102323358
 11
-43.514757344205208
 21
384.30045402323361
  0
LINE
  8
_0-3_躯体と製品
  6
CONTINUOUS
 62
    4
 10
-43.675329344205238
 20
380.26519002323386
 11
-43.675329344205238
 21
381.46519002323379
  0
LINE
  8
_0-3_躯体と製品
  6
CONTINUOUS
 62
    4
 10
-58.875330344205224
 20
399.71503002323362
 11
-58.575330344205327
 21
399.41503002323367
  0
LINE
  8
_0-3_躯体と製品
  6
CONTINUOUS
 62
    4
 10
-59.175330344205292
 20
399.41503002323367
 11
-58.875330344205224
 21
399.71503002323362
  0
LINE
  8
_0-3_躯体と製品
  6
CONTINUOUS
 62
    4
 10
-41.375331344205279
 20
385.53565302323358
 11
-39.625419344205284
 21
384.52534002323358
  0
LINE
  8
_0-3_躯体と製品
  6
CONTINUOUS
 62
    4
 10
-42.975330344205275
 20
382.4181640232336
 11
-42.975330344205275
 21
381.46519002323379
  0
LINE
  8
_0-3_躯体と製品
  6
CONTINUOUS
 62
    4
 10
-40.975332344205214
 20
376.51502802323381
 11
-39.475332344205214
 21
376.51502802323381
  0
LINE
  8
_0-3_躯体と製品
  6
CONTINUOUS
 62
    4
 10
-39.475332344205214
 20
380.87847102323389
 11
-39.475332344205214
 21
376.51502802323381
  0
ARC
  8
_0-3_躯体と製品
  6
CONTINUOUS
 62
    4
 10
-41.375331344205279
 20
383.51503002323358
 40
3.2498369999999999
 50
270
 51
305.7778889999999
  0
LINE
  8
_0-3_躯体と製品
  6
CONTINUOUS
 62
    4
 10
-42.975330344205275
 20
382.4181640232336
 11
-41.375331344205279
 21
381.4944040232337
  0
LINE
  8
_0-3_躯体と製品
  6
CONTINUOUS
 62
    4
 10
-39.625419344205284
 20
382.5047170232337
 11
-39.625419344205284
 21
383.51503002323358
  0
LINE
  8
_0-3_躯体と製品
  6
CONTINUOUS
 62
    4
 10
-41.375331344205279
 20
381.4944040232337
 11
-39.625419344205284
 21
382.5047170232337
  0
LINE
  8
_0-3_躯体と製品
  6
CONTINUOUS
 62
    4
 10
-39.625419344205284
 20
384.52534002323358
 11
-39.625419344205284
 21
383.51503002323358
  0
LINE
  8
_0-3_躯体と製品
  6
CONTINUOUS
 62
    4
 10
-41.475330344205275
 20
376.51502802323381
 11
-39.891456344205238
 21
376.51502802323381
  0
LINE
  8
_0-3_躯体と製品
  6
CONTINUOUS
 62
    4
 10
-41.475330344205275
 20
379.01503002323358
 11
-39.735282344205189
 21
376.83996702323367
  0
ARC
  8
_0-3_躯体と製品
  6
CONTINUOUS
 62
    4
 10
-39.891456344205238
 20
376.71502902323374
 40
0.200001
 50
270
 51
38.659807999999892
  0
LINE
  8
_0-3_躯体と製品
  6
CONTINUOUS
 62
    4
 10
-39.475332344205214
 20
386.1515890232335
 11
-39.47541934420525
 21
396.91505502323372
  0
ARC
  8
_0-3_躯体と製品
  6
CONTINUOUS
 62
    4
 10
-41.975418344205195
 20
396.91502802323367
 40
2.499998999999999
 50
0.000597000000005
 51
90.000000000000014
  0
LINE
  8
_0-3_躯体と製品
  6
CONTINUOUS
 62
    4
 10
-41.87532934420517
 20
401.01502902323381
 11
-93.875328344205286
 21
401.01502902323381
  0
LINE
  8
_0-3_躯体と製品
  6
CONTINUOUS
 62
    4
 10
-100.12533034420522
 20
401.01502902323381
 11
-35.625330344205224
 21
401.01502902323381
  0
LINE
  8
_0-3_躯体と製品
  6
CONTINUOUS
 62
    3
 10
22.124648655794743
 20
446.9062750232336
 11
2.1246506557947669
 21
426.90627402323361
  0
LINE
  8
_0-3_躯体と製品
  6
CONTINUOUS
 62
    3
 10
2.1246506557947669
 20
429.73470102323375
 11
22.124648655794743
 21
449.73470202323364
  0
LINE
  8
_0-3_躯体と製品
  6
CONTINUOUS
 62
    3
 10
22.124648655794743
 20
444.07784802323357
 11
2.1246506557947669
 21
424.07784702323357
  0
LINE
  8
_0-3_躯体と製品
  6
CONTINUOUS
 62
    4
 10
641.19449365579476
 20
-3.6689419767662912
 11
328.82009365579455
 21
-3.6689419767662912
  0
LINE
  8
_0-3_躯体と製品
  6
CONTINUOUS
 62
    4
 10
641.19449365579476
 20
-63.668941976766291
 11
328.82009365579455
 21
-63.668941976766291
  0
LINE
  8
_0-3_躯体と製品
  6
PLINE3
 62
    3
 10
641.19449365579476
 20
-33.668941976766291
 11
303.82009465579478
 21
-33.668941976766291
  0
TEXT
  8
_0-4_文字-記号
 62
    7
 10
396.90842065579466
 20
-175.66681397676632
 40
20
 41
0.8
 50
0
  1
横断面図（Ｓ：１／３）
  0
LINE
  8
_0-3_躯体と製品
  6
CONTINUOUS
 62
    3
 10
401.82009565579466
 20
78.774931023233705
 11
357.12622165579455
 21
34.081060023233704
  0
LINE
  8
_0-3_躯体と製品
  6
CONTINUOUS
 62
    3
 10
401.82009565579466
 20
75.946504023233729
 11
359.9546486557947
 21
34.081060023233704
  0
LINE
  8
_0-3_躯体と製品
  6
CONTINUOUS
 62
    3
 10
401.82009565579466
 20
73.118077023233695
 11
362.78307565579468
 21
34.081060023233704
  0
LINE
  8
_0-3_躯体と製品
  6
CONTINUOUS
 62
    4
 10
322.82009365579455
 20
-65.918941976766291
 11
322.82009365579455
 21
29.081059023233706
  0
LINE
  8
_0-3_躯体と製品
  6
CONTINUOUS
 62
    4
 10
326.82009565579466
 20
-65.918941976766291
 11
326.82009565579466
 21
30.081058023233709
  0
LINE
  8
_0-3_躯体と製品
  6
PLINE3
 62
    3
 10
299.82009565579466
 20
44.240479023233604
 11
299.82009565579466
 21
17.881060023233715
  0
LINE
  8
_0-3_躯体と製品
  6
CONTINUOUS
 62
    4
 10
328.82009365579455
 20
-3.4189399767662962
 11
328.82009365579455
 21
-63.918940976766294
  0
LINE
  8
_0-3_躯体と製品
  6
CONTINUOUS
 62
    3
 10
329.82009565579466
 20
-42.668941976766291
 11
329.82009565579466
 21
-24.668941976766291
  0
LINE
  8
_0-3_躯体と製品
  6
CONTINUOUS
 62
    3
 10
321.82009465579478
 20
-24.668941976766291
 11
321.82009465579478
 21
-42.668941976766291
  0
LINE
  8
_0-3_躯体と製品
  6
CONTINUOUS
 62
    4
 10
356.82009565579466
 20
-63.918940976766294
 11
328.82009365579455
 21
-63.918940976766294
  0
LINE
  8
_0-3_躯体と製品
  6
CONTINUOUS
 62
    4
 10
326.82009565579466
 20
-65.918941976766291
 11
356.82009565579466
 21
-65.918941976766291
  0
LINE
  8
_0-3_躯体と製品
  6
CONTINUOUS
 62
    3
 10
322.82009365579455
 20
-42.668941976766291
 11
321.82009465579478
 21
-42.668941976766291
  0
ARC
  8
_0-3_躯体と製品
  6
CONTINUOUS
 62
    3
 10
328.42001365579478
 20
-60.170692976766276
 40
4.1997900000000001
 50
140.69686899999951
 51
219.3093709999996
  0
LINE
  8
_0-3_躯体と製品
  6
CONTINUOUS
 62
    4
 10
322.82009365579455
 20
-65.918941976766291
 11
326.82009565579466
 21
-65.918941976766291
  0
ARC
  8
_0-3_躯体と製品
  6
CONTINUOUS
 62
    3
 10
324.72831565579457
 20
-61.070647976766281
 40
0.3999809999999999
 50
90
 51
193.7002329999996
  0
ARC
  8
_0-3_躯体と製品
  6
CONTINUOUS
 62
    3
 10
324.72831565579457
 20
-59.270737976766299
 40
0.3999809999999999
 50
166.29976700000029
 51
270
  0
LINE
  8
_0-3_躯体と製品
  6
CONTINUOUS
 62
    3
 10
324.75447865579468
 20
-59.670718976766295
 11
324.75447865579468
 21
-60.670666976766285
  0
ARC
  8
_0-3_躯体と製品
  6
CONTINUOUS
 62
    3
 10
326.94999265579469
 20
-61.374304976766297
 40
2.299884
 50
219.30912400000042
 51
266.76216299999987
  0
LINE
  8
_0-3_躯体と製品
  6
CONTINUOUS
 62
    3
 10
326.82009565579466
 20
-60.468940976766277
 11
327.12009565579478
 21
-60.168940976766294
  0
LINE
  8
_0-3_躯体と製品
  6
CONTINUOUS
 62
    3
 10
326.82009565579466
 20
-59.868940976766282
 11
327.12009565579478
 21
-60.168940976766294
  0
ARC
  8
_0-3_躯体と製品
  6
CONTINUOUS
 62
    3
 10
326.95299565579478
 20
-58.963405976766296
 40
2.299884
 50
93.312742999999955
 51
140.82048900000024
  0
LINE
  8
_0-3_躯体と製品
  6
CONTINUOUS
 62
    3
 10
328.82009365579455
 20
-42.668941976766291
 11
329.82009565579466
 21
-42.668941976766291
  0
LINE
  8
_0-3_躯体と製品
  6
CONTINUOUS
 62
    4
 10
356.82009565579466
 20
-65.918941976766291
 11
356.82009565579466
 21
-63.918940976766294
  0
LINE
  8
_0-3_躯体と製品
  6
CONTINUOUS
 62
    4
 10
356.82009565579466
 20
-3.4189399767662962
 11
328.82009365579455
 21
-3.4189399767662962
  0
LINE
  8
_0-3_躯体と製品
  6
CONTINUOUS
 62
    4
 10
356.82009565579466
 20
-1.4189419767662912
 11
326.82009565579466
 21
-1.4189419767662912
  0
ARC
  8
_0-3_躯体と製品
  6
CONTINUOUS
 62
    3
 10
326.94999265579469
 20
-8.3743039767662992
 40
2.299884
 50
219.30912400000042
 51
266.76216299999987
  0
LINE
  8
_0-3_躯体と製品
  6
CONTINUOUS
 62
    3
 10
321.82009465579478
 20
-24.668941976766291
 11
322.82009365579455
 21
-24.668941976766291
  0
LINE
  8
_0-3_躯体と製品
  6
CONTINUOUS
 62
    3
 10
316.90064965579467
 20
-26.163382976766286
 11
316.32009265579467
 21
-27.168937976766301
  0
ARC
  8
_0-3_躯体と製品
  6
CONTINUOUS
 62
    3
 10
318.18143965579469
 20
-39.241060976766278
 40
1.865081999999999
 50
122.55013099999999
 51
176.3739599999999
  0
LINE
  8
_0-3_躯体と製品
  6
CONTINUOUS
 62
    3
 10
316.90064965579467
 20
-41.174497976766276
 11
316.32009265579467
 21
-40.168945976766395
  0
LINE
  8
_0-3_躯体と製品
  6
CONTINUOUS
 62
    3
 10
321.82009465579478
 20
-41.174497976766276
 11
316.90064965579467
 21
-41.174497976766276
  0
LINE
  8
_0-3_躯体と製品
  6
CONTINUOUS
 62
    3
 10
316.32009265579467
 20
-27.168937976766301
 11
316.32009265579467
 21
-33.668941976766291
  0
LINE
  8
_0-3_躯体と製品
  6
CONTINUOUS
 62
    3
 10
321.82009465579478
 20
-29.668939976766296
 11
317.1779576557949
 21
-29.668939976766296
  0
LINE
  8
_0-3_躯体と製品
  6
CONTINUOUS
 62
    3
 10
316.32009265579467
 20
-40.168945976766395
 11
316.32009265579467
 21
-33.668941976766291
  0
LINE
  8
_0-3_躯体と製品
  6
CONTINUOUS
 62
    3
 10
321.82009465579478
 20
-37.668943976766286
 11
317.1779576557949
 21
-37.668943976766286
  0
ARC
  8
_0-3_躯体と製品
  6
CONTINUOUS
 62
    3
 10
318.18143965579469
 20
-28.09682297676639
 40
1.865081999999999
 50
183.62604000000002
 51
237.44986900000004
  0
ARC
  8
_0-3_躯体と製品
  6
CONTINUOUS
 62
    3
 10
326.07451165579477
 20
-33.668941976766291
 40
9.7544189999999986
 50
155.79072399999961
 51
204.2092760000003
  0
LINE
  8
_0-3_躯体と製品
  6
CONTINUOUS
 62
    3
 10
321.82009465579478
 20
-26.163382976766286
 11
316.90064965579467
 21
-26.163382976766286
  0
LINE
  8
_0-3_躯体と製品
  6
CONTINUOUS
 62
    3
 10
335.73953965579477
 20
-26.163382976766286
 11
336.32009665579477
 21
-27.168937976766301
  0
LINE
  8
_0-3_躯体と製品
  6
CONTINUOUS
 62
    3
 10
329.82009565579466
 20
-26.163382976766286
 11
329.82009565579466
 21
-41.174497976766276
  0
LINE
  8
_0-3_躯体と製品
  6
CONTINUOUS
 62
    3
 10
329.82009565579466
 20
-37.668943976766286
 11
335.46223165579477
 21
-37.668943976766286
  0
LINE
  8
_0-3_躯体と製品
  6
CONTINUOUS
 62
    3
 10
329.82009565579466
 20
-41.174497976766276
 11
335.73953965579477
 21
-41.174497976766276
  0
LINE
  8
_0-3_躯体と製品
  6
CONTINUOUS
 62
    3
 10
329.82009565579466
 20
-29.668939976766296
 11
335.46223165579477
 21
-29.668939976766296
  0
LINE
  8
_0-3_躯体と製品
  6
PLINE2
 62
    3
 10
322.82009365579455
 20
-38.168941976766291
 11
326.82009565579466
 21
-38.168941976766291
  0
LINE
  8
_0-3_躯体と製品
  6
PLINE2
 62
    3
 10
322.82009365579455
 20
-29.168941976766291
 11
326.82009565579466
 21
-29.168941976766291
  0
ARC
  8
_0-3_躯体と製品
  6
CONTINUOUS
 62
    3
 10
334.45874965579458
 20
-28.09682297676639
 40
1.865081999999999
 50
302.55013100000002
 51
356.37395999999995
  0
LINE
  8
_0-3_躯体と製品
  6
CONTINUOUS
 62
    3
 10
335.73953965579477
 20
-41.174497976766276
 11
336.32009665579477
 21
-40.168945976766395
  0
LINE
  8
_0-3_躯体と製品
  6
CONTINUOUS
 62
    3
 10
336.32009665579477
 20
-40.168945976766395
 11
336.32009665579477
 21
-33.668941976766291
  0
LINE
  8
_0-3_躯体と製品
  6
CONTINUOUS
 62
    3
 10
336.32009665579477
 20
-27.168937976766301
 11
336.32009665579477
 21
-33.668941976766291
  0
ARC
  8
_0-3_躯体と製品
  6
CONTINUOUS
 62
    3
 10
334.45874965579458
 20
-39.241060976766278
 40
1.865081999999999
 50
3.6260400000000557
 51
57.449868999999964
  0
ARC
  8
_0-3_躯体と製品
  6
CONTINUOUS
 62
    3
 10
326.56567765579479
 20
-33.668941976766291
 40
9.7544189999999986
 50
335.79072399999961
 51
24.209276000000301
  0
LINE
  8
_0-3_躯体と製品
  6
CONTINUOUS
 62
    3
 10
336.82009465579478
 20
-37.668940976766294
 11
336.82009465579478
 21
-29.668939976766296
  0
LINE
  8
_0-3_躯体と製品
  6
CONTINUOUS
 62
    3
 10
336.82009465579478
 20
-29.668939976766296
 11
336.32009665579477
 21
-29.668939976766296
  0
LINE
  8
_0-3_躯体と製品
  6
CONTINUOUS
 62
    3
 10
336.82009465579478
 20
-37.668940976766294
 11
336.32009665579477
 21
-37.668940976766294
  0
LINE
  8
_0-3_躯体と製品
  6
CONTINUOUS
 62
    3
 10
337.82009365579455
 20
-36.668941976766291
 11
337.82009365579455
 21
-30.668941976766291
  0
LINE
  8
_0-3_躯体と製品
  6
CONTINUOUS
 62
    3
 10
337.82009365579455
 20
-36.668941976766291
 11
336.82009465579478
 21
-37.668940976766294
  0
LINE
  8
_0-3_躯体と製品
  6
CONTINUOUS
 62
    3
 10
336.82009465579478
 20
-29.668939976766296
 11
337.82009365579455
 21
-30.668941976766291
  0
LINE
  8
_0-3_躯体と製品
  6
CONTINUOUS
 62
    3
 10
337.82009365579455
 20
-36.668941976766291
 11
336.32009665579477
 21
-36.668941976766291
  0
LINE
  8
_0-3_躯体と製品
  6
CONTINUOUS
 62
    3
 10
337.82009365579455
 20
-30.668941976766291
 11
336.32009665579477
 21
-30.668941976766291
  0
LINE
  8
_0-3_躯体と製品
  6
CONTINUOUS
 62
    3
 10
329.82009565579466
 20
-26.163382976766286
 11
335.73953965579477
 21
-26.163382976766286
  0
LINE
  8
_0-3_躯体と製品
  6
CONTINUOUS
 62
    3
 10
328.82009365579455
 20
-24.668941976766291
 11
329.82009565579466
 21
-24.668941976766291
  0
ARC
  8
_0-3_躯体と製品
  6
CONTINUOUS
 62
    3
 10
324.72831565579457
 20
-8.0706469767662838
 40
0.3999809999999999
 50
90
 51
193.7002329999996
  0
ARC
  8
_0-3_躯体と製品
  6
CONTINUOUS
 62
    3
 10
324.72831565579457
 20
-6.270736976766301
 40
0.3999809999999999
 50
166.29976700000029
 51
270
  0
LINE
  8
_0-3_躯体と製品
  6
CONTINUOUS
 62
    3
 10
324.75447865579468
 20
-6.6707179767662979
 11
324.75447865579468
 21
-7.6706689767662795
  0
ARC
  8
_0-3_躯体と製品
  6
CONTINUOUS
 62
    3
 10
326.95299565579478
 20
-5.9634049767663839
 40
2.299884
 50
93.312742999999955
 51
140.82048900000024
  0
ARC
  8
_0-3_躯体と製品
  6
CONTINUOUS
 62
    3
 10
328.42001365579478
 20
-7.1706919767662782
 40
4.1997900000000001
 50
140.69686899999951
 51
219.3093709999996
  0
LINE
  8
_0-3_躯体と製品
  6
CONTINUOUS
 62
    3
 10
326.82009565579466
 20
-7.4689399767663929
 11
327.12009565579478
 21
-7.1689399767662962
  0
LINE
  8
_0-3_躯体と製品
  6
CONTINUOUS
 62
    3
 10
326.82009565579466
 20
-6.8689399767662849
 11
327.12009565579478
 21
-7.1689399767662962
  0
LINE
  8
_0-3_躯体と製品
  6
CONTINUOUS
 62
    4
 10
356.82009565579466
 20
-1.4189419767662912
 11
356.82009565579466
 21
-3.4189399767662962
  0
LINE
  8
_0-3_躯体と製品
  6
CONTINUOUS
 62
    3
 10
293.32009165579478
 20
23.581057023233711
 11
299.82009565579466
 21
23.581057023233711
  0
ARC
  8
_0-3_躯体と製品
  6
CONTINUOUS
 62
    3
 10
299.82009565579466
 20
33.335476023233639
 40
9.7544189999999986
 50
245.79072399999964
 51
294.20927599999948
  0
LINE
  8
_0-3_躯体と製品
  6
CONTINUOUS
 62
    3
 10
310.82009365579455
 20
29.081059023233706
 11
288.82009465579478
 21
29.081059023233706
  0
LINE
  8
_0-3_躯体と製品
  6
CONTINUOUS
 62
    4
 10
276.82009465579478
 20
34.081060023233704
 11
322.82009365579455
 21
34.081060023233704
  0
LINE
  8
_0-3_躯体と製品
  6
CONTINUOUS
 62
    4
 10
276.82009465579478
 20
30.081058023233709
 11
321.82009465579478
 21
30.081058023233709
  0
LINE
  8
_0-3_躯体と製品
  6
PLINE2
 62
    3
 10
293.82009565579466
 20
67.069426023233689
 11
293.82009565579466
 21
34.081060023233704
  0
LINE
  8
_0-3_躯体と製品
  6
PLINE2
 62
    3
 10
295.82009365579455
 20
67.069426023233689
 11
295.82009365579455
 21
34.081060023233704
  0
LINE
  8
_0-3_躯体と製品
  6
CONTINUOUS
 62
    4
 10
276.82009465579478
 20
34.081060023233704
 11
276.82009465579478
 21
30.081058023233709
  0
LINE
  8
_0-3_躯体と製品
  6
CONTINUOUS
 62
    3
 10
292.31453665579465
 20
24.16161402323371
 11
293.32009165579478
 21
23.581057023233711
  0
LINE
  8
_0-3_躯体と製品
  6
CONTINUOUS
 62
    3
 10
295.82009365579455
 20
29.081059023233706
 11
295.82009365579455
 21
24.438922023233715
  0
LINE
  8
_0-3_躯体と製品
  6
CONTINUOUS
 62
    3
 10
292.31453665579465
 20
29.081059023233706
 11
292.31453665579465
 21
24.16161402323371
  0
ARC
  8
_0-3_躯体と製品
  6
CONTINUOUS
 62
    3
 10
294.2479766557949
 20
25.442404023233735
 40
1.865081999999999
 50
273.62603999999999
 51
327.44986899999992
  0
LINE
  8
_0-3_躯体と製品
  6
CONTINUOUS
 62
    3
 10
288.82009465579478
 20
29.081059023233706
 11
288.82009465579478
 21
30.081058023233709
  0
LINE
  8
_0-3_躯体と製品
  6
PLINE2
 62
    3
 10
289.82009365579455
 20
34.081060023233704
 11
289.82009365579455
 21
30.081058023233709
  0
LINE
  8
_0-3_躯体と製品
  6
PLINE2
 62
    3
 10
303.82009465579478
 20
67.069426023233689
 11
303.82009465579478
 21
34.081060023233704
  0
LINE
  8
_0-3_躯体と製品
  6
PLINE2
 62
    3
 10
305.82009565579466
 20
67.069426023233689
 11
305.82009565579466
 21
34.081060023233704
  0
ARC
  8
_0-3_躯体と製品
  6
CONTINUOUS
 62
    4
 10
321.82009465579478
 20
29.081059023233706
 40
0.9999989999999999
 50
0
 51
90
  0
ARC
  8
_0-3_躯体と製品
  6
CONTINUOUS
 62
    3
 10
305.39221465579487
 20
25.442404023233735
 40
1.865081999999999
 50
212.55013099999999
 51
266.3739599999999
  0
LINE
  8
_0-3_躯体と製品
  6
CONTINUOUS
 62
    3
 10
307.32565165579467
 20
24.16161402323371
 11
306.32009665579466
 21
23.581057023233711
  0
LINE
  8
_0-3_躯体と製品
  6
CONTINUOUS
 62
    3
 10
307.32565165579467
 20
29.081059023233706
 11
307.32565165579467
 21
24.16161402323371
  0
LINE
  8
_0-3_躯体と製品
  6
CONTINUOUS
 62
    3
 10
306.32009665579466
 20
23.581057023233711
 11
299.82009565579466
 21
23.581057023233711
  0
LINE
  8
_0-3_躯体と製品
  6
CONTINUOUS
 62
    3
 10
303.82009765579477
 20
29.081059023233706
 11
303.82009765579477
 21
24.438922023233715
  0
LINE
  8
_0-3_躯体と製品
  6
CONTINUOUS
 62
    3
 10
310.82009365579455
 20
30.081058023233709
 11
310.82009365579455
 21
29.081059023233706
  0
LINE
  8
_0-3_躯体と製品
  6
PLINE2
 62
    3
 10
309.82009465579478
 20
34.081060023233704
 11
309.82009465579478
 21
30.081058023233709
  0
ARC
  8
_0-3_躯体と製品
  6
CONTINUOUS
 62
    4
 10
322.82009365579455
 20
30.081058023233709
 40
3.9999989999999999
 50
0
 51
90
  0
ARC
  8
_0-3_躯体と製品
  6
CONTINUOUS
 62
    4
 10
458.28419665579463
 20
-42.168940976766294
 40
0.5000010000000001
 50
149.9999999999998
 51
270
  0
ARC
  8
_0-3_躯体と製品
  6
CONTINUOUS
 62
    4
 10
451.35599365579469
 20
-42.168940976766294
 40
0.5000010000000001
 50
270
 51
30.000000000000146
  0
ARC
  8
_0-3_躯体と製品
  6
CONTINUOUS
 62
    4
 10
462.82009465579472
 20
-41.668939976766382
 40
0.9999989999999999
 50
270
 51
0
  0
ARC
  8
_0-3_躯体と製品
  6
CONTINUOUS
 62
    4
 10
446.82009565579466
 20
-41.668939976766382
 40
0.9999989999999999
 50
180
 51
270
  0
ARC
  8
_0-3_躯体と製品
  6
CONTINUOUS
 62
    4
 10
462.82009465579472
 20
-41.668939976766382
 40
2.0000010000000001
 50
270
 51
0
  0
ARC
  8
_0-3_躯体と製品
  6
CONTINUOUS
 62
    4
 10
446.82009565579466
 20
-41.668939976766382
 40
2.0000010000000001
 50
180
 51
270
  0
LINE
  8
_0-3_躯体と製品
  6
PLINE3
 62
    3
 10
454.82009365579455
 20
-13.668940976766379
 11
454.82009365579455
 21
-54.168940976766379
  0
LINE
  8
_0-3_躯体と製品
  6
CONTINUOUS
 62
    4
 10
458.28419665579463
 20
-42.668941976766291
 11
462.82009465579472
 21
-42.668941976766291
  0
LINE
  8
_0-3_躯体と製品
  6
CONTINUOUS
 62
    4
 10
446.82009565579466
 20
-43.668940976766379
 11
462.82009465579472
 21
-43.668940976766379
  0
LINE
  8
_0-3_躯体と製品
  6
CONTINUOUS
 62
    4
 10
451.35599365579469
 20
-42.668941976766291
 11
446.82009565579466
 21
-42.668941976766291
  0
LINE
  8
_0-3_躯体と製品
  6
CONTINUOUS
 62
    4
 10
458.28419665579463
 20
-24.668941976766291
 11
462.82009465579472
 21
-24.668941976766291
  0
LINE
  8
_0-3_躯体と製品
  6
CONTINUOUS
 62
    4
 10
462.82009465579472
 20
-23.668939976766296
 11
446.82009565579466
 21
-23.668939976766296
  0
ARC
  8
_0-3_躯体と製品
  6
CONTINUOUS
 62
    4
 10
454.82009365579455
 20
-27.168940976766379
 40
3.5000009999999988
 50
319.58166299999993
 51
30.000000999999969
  0
ARC
  8
_0-3_躯体と製品
  6
CONTINUOUS
 62
    4
 10
454.82009365579455
 20
-27.168940976766379
 40
3.5000009999999988
 50
149.99999800000023
 51
220.41834800000012
  0
LINE
  8
_0-3_躯体と製品
  6
CONTINUOUS
 62
    4
 10
455.83045765579476
 20
-25.418941976766291
 11
456.84082165579457
 21
-27.168940976766379
  0
LINE
  8
_0-3_躯体と製品
  6
CONTINUOUS
 62
    4
 10
453.80973265579468
 20
-25.418941976766291
 11
452.79936865579469
 21
-27.168940976766379
  0
LINE
  8
_0-3_躯体と製品
  6
CONTINUOUS
 62
    4
 10
445.82009365579455
 20
-25.668940976766294
 11
445.82009365579455
 21
-41.668939976766382
  0
LINE
  8
_0-3_躯体と製品
  6
CONTINUOUS
 62
    4
 10
444.82009465579478
 20
-25.668940976766294
 11
444.82009465579478
 21
-41.668939976766382
  0
LINE
  8
_0-3_躯体と製品
  6
CONTINUOUS
 62
    4
 10
456.23360065579487
 20
-29.332447976766275
 11
456.38342365579456
 21
-29.482270976766301
  0
ARC
  8
_0-3_躯体と製品
  6
CONTINUOUS
 62
    4
 10
456.76393165579475
 20
-28.802116976766285
 40
0.75
 50
149.9999999999998
 51
225
  0
LINE
  8
_0-3_躯体と製品
  6
CONTINUOUS
 62
    4
 10
456.11441065579459
 20
-28.427116976766285
 11
456.84082165579457
 21
-27.168940976766379
  0
ARC
  8
_0-3_躯体と製品
  6
CONTINUOUS
 62
    4
 10
452.72643565579455
 20
-28.951939976766283
 40
0.75
 50
220.41833399999982
 51
315
  0
ARC
  8
_0-3_躯体と製品
  6
CONTINUOUS
 62
    4
 10
456.91375465579466
 20
-28.951939976766283
 40
0.75
 50
225
 51
319.5816660000001
  0
LINE
  8
_0-3_躯体と製品
  6
CONTINUOUS
 62
    4
 10
453.40658665579468
 20
-29.332447976766275
 11
453.25676365579466
 21
-29.482270976766301
  0
ARC
  8
_0-3_躯体と製品
  6
CONTINUOUS
 62
    4
 10
452.8762586557948
 20
-28.802116976766285
 40
0.75
 50
315.00000000000006
 51
30.000000000000171
  0
LINE
  8
_0-3_躯体と製品
  6
CONTINUOUS
 62
    4
 10
452.79936865579469
 20
-27.168940976766379
 11
453.52577665579469
 21
-28.427116976766285
  0
LINE
  8
_0-3_躯体と製品
  6
CONTINUOUS
 62
    4
 10
453.40658665579468
 20
-38.005435976766279
 11
453.25676365579466
 21
-37.855609976766289
  0
ARC
  8
_0-3_躯体と製品
  6
CONTINUOUS
 62
    4
 10
452.8762586557948
 20
-38.535763976766276
 40
0.75
 50
329.99999999999977
 51
45.000000000000014
  0
LINE
  8
_0-3_躯体と製品
  6
CONTINUOUS
 62
    4
 10
453.52577665579469
 20
-38.910763976766276
 11
452.79936865579469
 21
-40.168939976766296
  0
ARC
  8
_0-3_躯体と製品
  6
CONTINUOUS
 62
    4
 10
456.91375465579466
 20
-38.385940976766278
 40
0.75
 50
40.41833399999981
 51
135
  0
ARC
  8
_0-3_躯体と製品
  6
CONTINUOUS
 62
    4
 10
452.72643565579455
 20
-38.385940976766278
 40
0.75
 50
45
 51
139.5816660000001
  0
LINE
  8
_0-3_躯体と製品
  6
CONTINUOUS
 62
    4
 10
456.23360065579487
 20
-38.005435976766279
 11
456.38342365579456
 21
-37.855609976766289
  0
ARC
  8
_0-3_躯体と製品
  6
CONTINUOUS
 62
    4
 10
456.76393165579475
 20
-38.535763976766276
 40
0.75
 50
135
 51
210.00000000000011
  0
LINE
  8
_0-3_躯体と製品
  6
CONTINUOUS
 62
    4
 10
456.84082165579457
 20
-40.168939976766296
 11
456.11441065579459
 21
-38.910763976766276
  0
ARC
  8
_0-3_躯体と製品
  6
CONTINUOUS
 62
    4
 10
454.82009365579455
 20
-40.168939976766296
 40
3.5000009999999988
 50
139.58166299999979
 51
210.00000399999999
  0
ARC
  8
_0-3_躯体と製品
  6
CONTINUOUS
 62
    4
 10
454.82009365579455
 20
-40.168939976766296
 40
3.5000009999999988
 50
329.9999959999999
 51
40.418348000000165
  0
LINE
  8
_0-3_躯体と製品
  6
CONTINUOUS
 62
    4
 10
453.80973265579468
 20
-41.918941976766291
 11
452.79936865579469
 21
-40.168939976766296
  0
LINE
  8
_0-3_躯体と製品
  6
CONTINUOUS
 62
    4
 10
454.35118465579467
 20
-41.918941976766291
 11
453.80973265579468
 21
-41.918941976766291
  0
LINE
  8
_0-3_躯体と製品
  6
CONTINUOUS
 62
    4
 10
454.35118465579467
 20
-41.918941976766291
 11
455.83045765579476
 21
-41.918941976766291
  0
LINE
  8
_0-3_躯体と製品
  6
CONTINUOUS
 62
    4
 10
455.83045765579476
 20
-41.918941976766291
 11
456.84082165579457
 21
-40.168939976766296
  0
LINE
  8
_0-3_躯体と製品
  6
CONTINUOUS
 62
    4
 10
451.35599365579469
 20
-24.668941976766291
 11
446.82009565579466
 21
-24.668941976766291
  0
ARC
  8
_0-3_躯体と製品
  6
CONTINUOUS
 62
    4
 10
446.82009565579466
 20
-25.668940976766294
 40
0.9999989999999999
 50
90
 51
180
  0
ARC
  8
_0-3_躯体と製品
  6
CONTINUOUS
 62
    4
 10
446.82009565579466
 20
-25.668940976766294
 40
2.0000010000000001
 50
90
 51
180
  0
LINE
  8
_0-3_躯体と製品
  6
CONTINUOUS
 62
    4
 10
455.28900565579465
 20
-25.418941976766291
 11
455.83045765579476
 21
-25.418941976766291
  0
LINE
  8
_0-3_躯体と製品
  6
CONTINUOUS
 62
    4
 10
455.28900565579465
 20
-25.418941976766291
 11
453.80973265579468
 21
-25.418941976766291
  0
ARC
  8
_0-3_躯体と製品
  6
CONTINUOUS
 62
    4
 10
458.28419665579463
 20
-25.168939976766296
 40
0.5000010000000001
 50
90
 51
210.00000000000011
  0
ARC
  8
_0-3_躯体と製品
  6
CONTINUOUS
 62
    4
 10
451.35599365579469
 20
-25.168939976766296
 40
0.5000010000000001
 50
329.99999999999977
 51
90
  0
LINE
  8
_0-3_躯体と製品
  6
CONTINUOUS
 62
    4
 10
463.82009365579461
 20
-25.668940976766294
 11
463.82009365579461
 21
-41.668939976766382
  0
LINE
  8
_0-3_躯体と製品
  6
CONTINUOUS
 62
    4
 10
464.82009565579472
 20
-25.668940976766294
 11
464.82009565579472
 21
-41.668939976766382
  0
ARC
  8
_0-3_躯体と製品
  6
CONTINUOUS
 62
    4
 10
462.82009465579472
 20
-25.668940976766294
 40
0.9999989999999999
 50
0
 51
90
  0
ARC
  8
_0-3_躯体と製品
  6
CONTINUOUS
 62
    4
 10
462.82009465579472
 20
-25.668940976766294
 40
2.0000010000000001
 50
0
 51
90
  0
ARC
  8
_0-3_躯体と製品
  6
CONTINUOUS
 62
    4
 10
566.28419665579474
 20
-42.168940976766294
 40
0.5000010000000001
 50
149.9999999999998
 51
270
  0
ARC
  8
_0-3_躯体と製品
  6
CONTINUOUS
 62
    4
 10
559.35599365579458
 20
-42.168940976766294
 40
0.5000010000000001
 50
270
 51
30.000000000000146
  0
ARC
  8
_0-3_躯体と製品
  6
CONTINUOUS
 62
    4
 10
570.82009465579472
 20
-41.668939976766382
 40
0.9999989999999999
 50
270
 51
0
  0
ARC
  8
_0-3_躯体と製品
  6
CONTINUOUS
 62
    4
 10
554.82009565579472
 20
-41.668939976766382
 40
0.9999989999999999
 50
180
 51
270
  0
ARC
  8
_0-3_躯体と製品
  6
CONTINUOUS
 62
    4
 10
570.82009465579472
 20
-41.668939976766382
 40
2.0000010000000001
 50
270
 51
0
  0
ARC
  8
_0-3_躯体と製品
  6
CONTINUOUS
 62
    4
 10
554.82009565579472
 20
-41.668939976766382
 40
2.0000010000000001
 50
180
 51
270
  0
LINE
  8
_0-3_躯体と製品
  6
PLINE3
 62
    3
 10
562.82009365579461
 20
-13.668940976766379
 11
562.82009365579461
 21
-54.168940976766379
  0
LINE
  8
_0-3_躯体と製品
  6
CONTINUOUS
 62
    4
 10
554.82009565579472
 20
-43.668940976766379
 11
570.82009465579472
 21
-43.668940976766379
  0
LINE
  8
_0-3_躯体と製品
  6
CONTINUOUS
 62
    4
 10
559.35599365579458
 20
-42.668941976766291
 11
554.82009565579472
 21
-42.668941976766291
  0
LINE
  8
_0-3_躯体と製品
  6
CONTINUOUS
 62
    4
 10
566.28419665579474
 20
-42.668941976766291
 11
570.82009465579472
 21
-42.668941976766291
  0
ARC
  8
_0-3_躯体と製品
  6
CONTINUOUS
 62
    4
 10
562.82009365579461
 20
-27.168940976766379
 40
3.5000009999999988
 50
319.58166299999993
 51
30.000000999999969
  0
ARC
  8
_0-3_躯体と製品
  6
CONTINUOUS
 62
    4
 10
562.82009365579461
 20
-27.168940976766379
 40
3.5000009999999988
 50
149.99999800000023
 51
220.41834800000012
  0
LINE
  8
_0-3_躯体と製品
  6
CONTINUOUS
 62
    4
 10
563.83045765579482
 20
-25.418941976766291
 11
564.84082165579457
 21
-27.168940976766379
  0
LINE
  8
_0-3_躯体と製品
  6
CONTINUOUS
 62
    4
 10
561.80973265579462
 20
-25.418941976766291
 11
560.79936865579452
 21
-27.168940976766379
  0
LINE
  8
_0-3_躯体と製品
  6
CONTINUOUS
 62
    4
 10
553.82009365579461
 20
-25.668940976766294
 11
553.82009365579461
 21
-41.668939976766382
  0
LINE
  8
_0-3_躯体と製品
  6
CONTINUOUS
 62
    4
 10
571.82009365579461
 20
-41.668939976766382
 11
571.82009365579461
 21
-25.668940976766294
  0
LINE
  8
_0-3_躯体と製品
  6
CONTINUOUS
 62
    4
 10
572.82009565579472
 20
-25.668940976766294
 11
572.82009565579472
 21
-41.668939976766382
  0
LINE
  8
_0-3_躯体と製品
  6
CONTINUOUS
 62
    4
 10
552.82009465579472
 20
-25.668940976766294
 11
552.82009465579472
 21
-41.668939976766382
  0
LINE
  8
_0-3_躯体と製品
  6
CONTINUOUS
 62
    4
 10
562.35118465579467
 20
-41.918941976766291
 11
563.83045765579482
 21
-41.918941976766291
  0
ARC
  8
_0-3_躯体と製品
  6
CONTINUOUS
 62
    4
 10
560.72643565579472
 20
-28.951939976766283
 40
0.75
 50
220.41833399999982
 51
315
  0
LINE
  8
_0-3_躯体と製品
  6
CONTINUOUS
 62
    4
 10
561.40658665579463
 20
-29.332447976766275
 11
561.25676365579477
 21
-29.482270976766301
  0
ARC
  8
_0-3_躯体と製品
  6
CONTINUOUS
 62
    4
 10
560.8762586557948
 20
-28.802116976766285
 40
0.75
 50
315.00000000000006
 51
30.000000000000171
  0
LINE
  8
_0-3_躯体と製品
  6
CONTINUOUS
 62
    4
 10
560.79936865579452
 20
-27.168940976766379
 11
561.52577665579463
 21
-28.427116976766285
  0
LINE
  8
_0-3_躯体と製品
  6
CONTINUOUS
 62
    4
 10
561.40658665579463
 20
-38.005435976766279
 11
561.25676365579477
 21
-37.855609976766289
  0
ARC
  8
_0-3_躯体と製品
  6
CONTINUOUS
 62
    4
 10
560.8762586557948
 20
-38.535763976766276
 40
0.75
 50
329.99999999999977
 51
45.000000000000014
  0
LINE
  8
_0-3_躯体と製品
  6
CONTINUOUS
 62
    4
 10
561.52577665579463
 20
-38.910763976766276
 11
560.79936865579452
 21
-40.168939976766296
  0
ARC
  8
_0-3_躯体と製品
  6
CONTINUOUS
 62
    4
 10
560.72643565579472
 20
-38.385940976766278
 40
0.75
 50
45
 51
139.5816660000001
  0
ARC
  8
_0-3_躯体と製品
  6
CONTINUOUS
 62
    4
 10
562.82009365579461
 20
-40.168939976766296
 40
3.5000009999999988
 50
139.58166299999979
 51
210.00000399999999
  0
LINE
  8
_0-3_躯体と製品
  6
CONTINUOUS
 62
    4
 10
561.80973265579462
 20
-41.918941976766291
 11
560.79936865579452
 21
-40.168939976766296
  0
LINE
  8
_0-3_躯体と製品
  6
CONTINUOUS
 62
    4
 10
562.35118465579467
 20
-41.918941976766291
 11
561.80973265579462
 21
-41.918941976766291
  0
LINE
  8
_0-3_躯体と製品
  6
CONTINUOUS
 62
    4
 10
564.23360065579482
 20
-29.332447976766275
 11
564.38342365579456
 21
-29.482270976766301
  0
ARC
  8
_0-3_躯体と製品
  6
CONTINUOUS
 62
    4
 10
564.76393165579475
 20
-28.802116976766285
 40
0.75
 50
149.9999999999998
 51
225
  0
LINE
  8
_0-3_躯体と製品
  6
CONTINUOUS
 62
    4
 10
564.11441065579459
 20
-28.427116976766285
 11
564.84082165579457
 21
-27.168940976766379
  0
ARC
  8
_0-3_躯体と製品
  6
CONTINUOUS
 62
    4
 10
564.91375465579472
 20
-28.951939976766283
 40
0.75
 50
225
 51
319.5816660000001
  0
ARC
  8
_0-3_躯体と製品
  6
CONTINUOUS
 62
    4
 10
564.91375465579472
 20
-38.385940976766278
 40
0.75
 50
40.41833399999981
 51
135
  0
LINE
  8
_0-3_躯体と製品
  6
CONTINUOUS
 62
    4
 10
564.23360065579482
 20
-38.005435976766279
 11
564.38342365579456
 21
-37.855609976766289
  0
ARC
  8
_0-3_躯体と製品
  6
CONTINUOUS
 62
    4
 10
564.76393165579475
 20
-38.535763976766276
 40
0.75
 50
135
 51
210.00000000000011
  0
LINE
  8
_0-3_躯体と製品
  6
CONTINUOUS
 62
    4
 10
564.84082165579457
 20
-40.168939976766296
 11
564.11441065579459
 21
-38.910763976766276
  0
ARC
  8
_0-3_躯体と製品
  6
CONTINUOUS
 62
    4
 10
562.82009365579461
 20
-40.168939976766296
 40
3.5000009999999988
 50
329.9999959999999
 51
40.418348000000165
  0
LINE
  8
_0-3_躯体と製品
  6
CONTINUOUS
 62
    4
 10
563.83045765579482
 20
-41.918941976766291
 11
564.84082165579457
 21
-40.168939976766296
  0
LINE
  8
_0-3_躯体と製品
  6
CONTINUOUS
 62
    4
 10
563.28900565579465
 20
-25.418941976766291
 11
561.80973265579462
 21
-25.418941976766291
  0
LINE
  8
_0-3_躯体と製品
  6
CONTINUOUS
 62
    4
 10
570.82009465579472
 20
-23.668939976766296
 11
554.82009565579472
 21
-23.668939976766296
  0
ARC
  8
_0-3_躯体と製品
  6
CONTINUOUS
 62
    4
 10
559.35599365579458
 20
-25.168939976766296
 40
0.5000010000000001
 50
329.99999999999977
 51
90
  0
LINE
  8
_0-3_躯体と製品
  6
CONTINUOUS
 62
    4
 10
559.35599365579458
 20
-24.668941976766291
 11
554.82009565579472
 21
-24.668941976766291
  0
ARC
  8
_0-3_躯体と製品
  6
CONTINUOUS
 62
    4
 10
554.82009565579472
 20
-25.668940976766294
 40
0.9999989999999999
 50
90
 51
180
  0
ARC
  8
_0-3_躯体と製品
  6
CONTINUOUS
 62
    4
 10
554.82009565579472
 20
-25.668940976766294
 40
2.0000010000000001
 50
90
 51
180
  0
LINE
  8
_0-3_躯体と製品
  6
CONTINUOUS
 62
    4
 10
563.28900565579465
 20
-25.418941976766291
 11
563.83045765579482
 21
-25.418941976766291
  0
ARC
  8
_0-3_躯体と製品
  6
CONTINUOUS
 62
    4
 10
566.28419665579474
 20
-25.168939976766296
 40
0.5000010000000001
 50
90
 51
210.00000000000011
  0
LINE
  8
_0-3_躯体と製品
  6
CONTINUOUS
 62
    4
 10
566.28419665579474
 20
-24.668941976766291
 11
570.82009465579472
 21
-24.668941976766291
  0
ARC
  8
_0-3_躯体と製品
  6
CONTINUOUS
 62
    4
 10
570.82009465579472
 20
-25.668940976766294
 40
0.9999989999999999
 50
0
 51
90
  0
ARC
  8
_0-3_躯体と製品
  6
CONTINUOUS
 62
    4
 10
570.82009465579472
 20
-25.668940976766294
 40
2.0000010000000001
 50
0
 51
90
  0
LINE
  8
_0-3_躯体と製品
  6
CONTINUOUS
 62
    7
 10
401.82009565579466
 20
115.88145402323369
 11
401.82009565579466
 21
39.810181023233611
  0
LINE
  8
_0-3_躯体と製品
  6
CONTINUOUS
 62
    7
 10
396.09097465579458
 20
34.081060023233704
 11
401.82009565579466
 21
39.810181023233611
  0
LINE
  8
_0-3_躯体と製品
  6
CONTINUOUS
 62
    4
 10
294.78652165579467
 20
269.75844102323373
 11
594.7865216557949
 21
269.75844102323373
  0
LINE
  8
_0-3_躯体と製品
  6
CONTINUOUS
 62
    4
 10
590.2865216557949
 20
275.00844102323373
 11
299.28652165579467
 21
275.00844102323373
  0
LINE
  8
_0-3_躯体と製品
  6
CONTINUOUS
 62
    4
 10
294.78652165579467
 20
404.75844102323373
 11
594.7865216557949
 21
404.75844102323373
  0
LINE
  8
_0-3_躯体と製品
  6
CONTINUOUS
 62
    4
 10
590.2865216557949
 20
399.50844102323373
 11
299.28652165579467
 21
399.50844102323373
  0
LINE
  8
_0-3_躯体と製品
  6
CONTINUOUS
 62
    4
 10
294.78652165579467
 20
404.75844102323373
 11
294.78652165579467
 21
269.75844102323373
  0
LINE
  8
_0-3_躯体と製品
  6
CONTINUOUS
 62
    4
 10
299.28652165579467
 20
404.75844102323373
 11
299.28652165579467
 21
269.75844102323373
  0
LINE
  8
_0-3_躯体と製品
  6
CONTINUOUS
 62
    4
 10
294.78652165579467
 20
287.60844102323375
 11
287.28652165579467
 21
287.60844102323375
  0
LINE
  8
_0-3_躯体と製品
  6
CONTINUOUS
 62
    4
 10
287.28652165579467
 20
281.90844102323371
 11
294.78652165579467
 21
281.90844102323371
  0
LINE
  8
_0-3_躯体と製品
  6
CONTINUOUS
 62
    4
 10
287.28652165579467
 20
287.60844102323375
 11
287.28652165579467
 21
281.90844102323371
  0
LINE
  8
_0-3_躯体と製品
  6
CONTINUOUS
 62
    3
 10
289.98652165579477
 20
284.00844102323373
 11
291.48652165579477
 21
284.00844102323373
  0
LINE
  8
_0-3_躯体と製品
  6
CONTINUOUS
 62
    3
 10
289.98652165579477
 20
285.50844102323362
 11
291.48652165579477
 21
285.50844102323362
  0
ARC
  8
_0-3_躯体と製品
  6
CONTINUOUS
 62
    3
 10
291.48652165579477
 20
284.75844102323373
 40
0.75
 50
270
 51
90
  0
ARC
  8
_0-3_躯体と製品
  6
CONTINUOUS
 62
    3
 10
289.98652165579477
 20
284.75844102323373
 40
0.75
 50
90
 51
270
  0
LINE
  8
_0-3_躯体と製品
  6
CONTINUOUS
 62
    3
 10
294.18652165579488
 20
287.60844102323375
 11
294.18652165579488
 21
281.90844102323371
  0
LINE
  8
_0-3_躯体と製品
  6
CONTINUOUS
 62
    4
 10
287.28652165579467
 20
386.90844102323382
 11
294.78652165579467
 21
386.90844102323382
  0
LINE
  8
_0-3_躯体と製品
  6
CONTINUOUS
 62
    4
 10
287.28652165579467
 20
392.60844102323387
 11
294.78652165579467
 21
392.60844102323387
  0
LINE
  8
_0-3_躯体と製品
  6
CONTINUOUS
 62
    4
 10
287.28652165579467
 20
392.60844102323387
 11
287.28652165579467
 21
386.90844102323382
  0
LINE
  8
_0-3_躯体と製品
  6
CONTINUOUS
 62
    3
 10
289.98652165579477
 20
389.00844102323373
 11
291.48652165579477
 21
389.00844102323373
  0
LINE
  8
_0-3_躯体と製品
  6
CONTINUOUS
 62
    3
 10
291.48652165579477
 20
390.50844102323373
 11
289.98652165579477
 21
390.50844102323373
  0
ARC
  8
_0-3_躯体と製品
  6
CONTINUOUS
 62
    3
 10
291.48652165579477
 20
389.75844102323373
 40
0.75
 50
270
 51
90
  0
ARC
  8
_0-3_躯体と製品
  6
CONTINUOUS
 62
    3
 10
289.98652165579477
 20
389.75844102323373
 40
0.75
 50
90
 51
270
  0
LINE
  8
_0-3_躯体と製品
  6
CONTINUOUS
 62
    3
 10
294.18652165579488
 20
392.60844102323387
 11
294.18652165579488
 21
386.90844102323382
  0
LINE
  8
_0-3_躯体と製品
  6
CONTINUOUS
 62
    4
 10
313.68652165579488
 20
399.50844102323373
 11
313.68652165579488
 21
275.00844102323373
  0
LINE
  8
_0-3_躯体と製品
  6
CONTINUOUS
 62
    4
 10
316.68652165579488
 20
275.00844102323373
 11
316.68652165579488
 21
399.50844102323373
  0
LINE
  8
_0-3_躯体と製品
  6
CONTINUOUS
 62
    4
 10
329.88652165579475
 20
399.50844102323373
 11
329.88652165579475
 21
275.00844102323373
  0
LINE
  8
_0-3_躯体と製品
  6
CONTINUOUS
 62
    4
 10
332.88652165579475
 20
275.00844102323373
 11
332.88652165579475
 21
399.50844102323373
  0
LINE
  8
_0-3_躯体と製品
  6
CONTINUOUS
 62
    4
 10
346.0865216557948
 20
399.50844102323373
 11
346.0865216557948
 21
275.00844102323373
  0
LINE
  8
_0-3_躯体と製品
  6
CONTINUOUS
 62
    4
 10
349.08652165579468
 20
275.00844102323373
 11
349.08652165579468
 21
399.50844102323373
  0
LINE
  8
_0-3_躯体と製品
  6
CONTINUOUS
 62
    4
 10
362.28652165579467
 20
399.50844102323373
 11
362.28652165579467
 21
275.00844102323373
  0
LINE
  8
_0-3_躯体と製品
  6
CONTINUOUS
 62
    4
 10
365.28652165579467
 20
275.00844102323373
 11
365.28652165579467
 21
399.50844102323373
  0
LINE
  8
_0-3_躯体と製品
  6
CONTINUOUS
 62
    4
 10
378.48652165579466
 20
399.50844102323373
 11
378.48652165579466
 21
275.00844102323373
  0
LINE
  8
_0-3_躯体と製品
  6
CONTINUOUS
 62
    4
 10
381.48652165579477
 20
275.00844102323373
 11
381.48652165579477
 21
399.50844102323373
  0
TEXT
  8
_0-4_文字-記号
 62
    7
 10
398.23712665579467
 20
191.7880810232337
 40
20
 41
0.8
 50
0
  1
正面図（Ｓ：１／２０）
  0
LINE
  8
_0-3_躯体と製品
  6
CONTINUOUS
 62
    4
 10
394.68652165579465
 20
399.50844102323373
 11
394.68652165579465
 21
275.00844102323373
  0
LINE
  8
_0-3_躯体と製品
  6
CONTINUOUS
 62
    4
 10
397.68652165579465
 20
275.00844102323373
 11
397.68652165579465
 21
399.50844102323373
  0
LINE
  8
_0-3_躯体と製品
  6
CONTINUOUS
 62
    4
 10
410.88652165579475
 20
399.50844102323373
 11
410.88652165579475
 21
275.00844102323373
  0
LINE
  8
_0-3_躯体と製品
  6
CONTINUOUS
 62
    4
 10
413.88652165579475
 20
275.00844102323373
 11
413.88652165579475
 21
399.50844102323373
  0
LINE
  8
_0-3_躯体と製品
  6
CONTINUOUS
 62
    4
 10
427.08652165579468
 20
399.50844102323373
 11
427.08652165579468
 21
275.00844102323373
  0
LINE
  8
_0-3_躯体と製品
  6
CONTINUOUS
 62
    4
 10
430.08652165579468
 20
275.00844102323373
 11
430.08652165579468
 21
399.50844102323373
  0
LINE
  8
_0-3_躯体と製品
  6
CONTINUOUS
 62
    4
 10
443.28652165579479
 20
399.50844102323373
 11
443.28652165579479
 21
275.00844102323373
  0
LINE
  8
_0-3_躯体と製品
  6
CONTINUOUS
 62
    4
 10
446.28652165579479
 20
275.00844102323373
 11
446.28652165579479
 21
399.50844102323373
  0
LINE
  8
_0-3_躯体と製品
  6
CONTINUOUS
 62
    4
 10
459.48652165579472
 20
399.50844102323373
 11
459.48652165579472
 21
275.00844102323373
  0
LINE
  8
_0-3_躯体と製品
  6
CONTINUOUS
 62
    4
 10
462.48652165579472
 20
275.00844102323373
 11
462.48652165579472
 21
399.50844102323373
  0
LINE
  8
_0-3_躯体と製品
  6
CONTINUOUS
 62
    4
 10
475.68652165579476
 20
399.50844102323373
 11
475.68652165579476
 21
275.00844102323373
  0
LINE
  8
_0-3_躯体と製品
  6
CONTINUOUS
 62
    4
 10
478.68652165579465
 20
275.00844102323373
 11
478.68652165579465
 21
399.50844102323373
  0
LINE
  8
_0-3_躯体と製品
  6
CONTINUOUS
 62
    4
 10
491.88652165579481
 20
399.50844102323373
 11
491.88652165579481
 21
275.00844102323373
  0
LINE
  8
_0-3_躯体と製品
  6
CONTINUOUS
 62
    4
 10
494.88652165579481
 20
275.00844102323373
 11
494.88652165579481
 21
399.50844102323373
  0
LINE
  8
_0-3_躯体と製品
  6
CONTINUOUS
 62
    4
 10
508.08652165579474
 20
399.50844102323373
 11
508.08652165579474
 21
275.00844102323373
  0
LINE
  8
_0-3_躯体と製品
  6
CONTINUOUS
 62
    4
 10
511.08652165579463
 20
275.00844102323373
 11
511.08652165579463
 21
399.50844102323373
  0
LINE
  8
_0-3_躯体と製品
  6
CONTINUOUS
 62
    4
 10
524.28652165579479
 20
399.50844102323373
 11
524.28652165579479
 21
275.00844102323373
  0
LINE
  8
_0-3_躯体と製品
  6
CONTINUOUS
 62
    4
 10
527.2865216557949
 20
275.00844102323373
 11
527.2865216557949
 21
399.50844102323373
  0
LINE
  8
_0-3_躯体と製品
  6
CONTINUOUS
 62
    4
 10
540.48652165579472
 20
399.50844102323373
 11
540.48652165579472
 21
275.00844102323373
  0
LINE
  8
_0-3_躯体と製品
  6
CONTINUOUS
 62
    4
 10
543.48652165579472
 20
275.00844102323373
 11
543.48652165579472
 21
399.50844102323373
  0
LINE
  8
_0-3_躯体と製品
  6
CONTINUOUS
 62
    4
 10
556.68652165579465
 20
399.50844102323373
 11
556.68652165579465
 21
275.00844102323373
  0
LINE
  8
_0-3_躯体と製品
  6
CONTINUOUS
 62
    4
 10
559.68652165579476
 20
275.00844102323373
 11
559.68652165579476
 21
399.50844102323373
  0
LINE
  8
_0-3_躯体と製品
  6
CONTINUOUS
 62
    4
 10
572.88652165579481
 20
399.50844102323373
 11
572.88652165579481
 21
275.00844102323373
  0
LINE
  8
_0-3_躯体と製品
  6
CONTINUOUS
 62
    4
 10
594.7865216557949
 20
404.75844102323373
 11
594.7865216557949
 21
269.75844102323373
  0
LINE
  8
_0-3_躯体と製品
  6
CONTINUOUS
 62
    4
 10
590.2865216557949
 20
269.75844102323373
 11
590.2865216557949
 21
404.75844102323373
  0
LINE
  8
_0-3_躯体と製品
  6
CONTINUOUS
 62
    4
 10
575.88652165579481
 20
275.00844102323373
 11
575.88652165579481
 21
399.50844102323373
  0
LINE
  8
_0-3_躯体と製品
  6
CONTINUOUS
 62
    4
 10
594.7865216557949
 20
287.60844102323375
 11
602.2865216557949
 21
287.60844102323375
  0
LINE
  8
_0-3_躯体と製品
  6
CONTINUOUS
 62
    4
 10
594.7865216557949
 20
281.90844102323371
 11
602.2865216557949
 21
281.90844102323371
  0
LINE
  8
_0-3_躯体と製品
  6
CONTINUOUS
 62
    3
 10
595.38652165579481
 20
287.60844102323375
 11
595.38652165579481
 21
281.90844102323371
  0
LINE
  8
_0-3_躯体と製品
  6
CONTINUOUS
 62
    3
 10
598.08652165579463
 20
284.00844102323373
 11
599.58652165579474
 21
284.00844102323373
  0
LINE
  8
_0-3_躯体と製品
  6
CONTINUOUS
 62
    3
 10
599.58652165579474
 20
285.50844102323362
 11
598.08652165579463
 21
285.50844102323362
  0
ARC
  8
_0-3_躯体と製品
  6
CONTINUOUS
 62
    3
 10
599.58652165579474
 20
284.75844102323373
 40
0.75
 50
270
 51
90
  0
ARC
  8
_0-3_躯体と製品
  6
CONTINUOUS
 62
    3
 10
598.08652165579463
 20
284.75844102323373
 40
0.75
 50
90
 51
270
  0
LINE
  8
_0-3_躯体と製品
  6
CONTINUOUS
 62
    4
 10
602.2865216557949
 20
287.60844102323375
 11
602.2865216557949
 21
281.90844102323371
  0
LINE
  8
_0-3_躯体と製品
  6
CONTINUOUS
 62
    4
 10
602.2865216557949
 20
386.90844102323382
 11
594.7865216557949
 21
386.90844102323382
  0
LINE
  8
_0-3_躯体と製品
  6
CONTINUOUS
 62
    4
 10
594.7865216557949
 20
392.60844102323387
 11
602.2865216557949
 21
392.60844102323387
  0
LINE
  8
_0-3_躯体と製品
  6
CONTINUOUS
 62
    3
 10
595.38652165579481
 20
392.60844102323387
 11
595.38652165579481
 21
386.90844102323382
  0
LINE
  8
_0-3_躯体と製品
  6
CONTINUOUS
 62
    3
 10
598.08652165579463
 20
389.00844102323373
 11
599.58652165579474
 21
389.00844102323373
  0
LINE
  8
_0-3_躯体と製品
  6
CONTINUOUS
 62
    3
 10
599.58652165579474
 20
390.50844102323373
 11
598.08652165579463
 21
390.50844102323373
  0
ARC
  8
_0-3_躯体と製品
  6
CONTINUOUS
 62
    3
 10
599.58652165579474
 20
389.75844102323373
 40
0.75
 50
270
 51
90
  0
ARC
  8
_0-3_躯体と製品
  6
CONTINUOUS
 62
    3
 10
598.08652165579463
 20
389.75844102323373
 40
0.75
 50
90
 51
270
  0
LINE
  8
_0-3_躯体と製品
  6
CONTINUOUS
 62
    4
 10
602.2865216557949
 20
392.60844102323387
 11
602.2865216557949
 21
386.90844102323382
  0
INSERT
  2
-001-_D14
  8
_0-2_寸法
 10
-55.002597209735427
 20
-254.02746539169249
 41
2
 42
2
 50
0
  0
INSERT
  2
-002-_D15
  8
_0-2_寸法
 10
-55.002597209735427
 20
-254.02746539169249
 41
2
 42
2
 50
0
  0
INSERT
  2
-003-_D16
  8
_0-2_寸法
 10
-55.002597209735427
 20
-254.02746539169249
 41
2
 42
2
 50
0
  0
INSERT
  2
-004-_D17
  8
_0-2_寸法
 10
-55.002597209735427
 20
-254.02746539169249
 41
2
 42
2
 50
0
  0
INSERT
  2
-005-_D18
  8
_0-2_寸法
 10
-55.002597209735427
 20
-254.02746539169249
 41
2
 42
2
 50
0
  0
INSERT
  2
-006-_D19
  8
_0-2_寸法
 10
-55.002597209735427
 20
-254.02746539169249
 41
2
 42
2
 50
0
  0
INSERT
  2
-007-_D20
  8
_0-2_寸法
 10
-55.002597209735427
 20
-254.02746539169249
 41
2
 42
2
 50
0
  0
INSERT
  2
-008-_D21
  8
_0-2_寸法
 10
-55.002597209735427
 20
-254.02746539169249
 41
2
 42
2
 50
0
  0
INSERT
  2
-009-_D22
  8
_0-2_寸法
 10
-55.002597209735427
 20
-254.02746539169249
 41
2
 42
2
 50
0
  0
INSERT
  2
-010-_D23
  8
_0-2_寸法
 10
-55.002597209735427
 20
-254.02746539169249
 41
2
 42
2
 50
0
  0
INSERT
  2
-011-_D24
  8
_0-2_寸法
 10
-55.002597209735427
 20
-254.02746539169249
 41
2
 42
2
 50
0
  0
INSERT
  2
-012-_D25
  8
_0-2_寸法
 10
-55.002597209735427
 20
-254.02746539169249
 41
2
 42
2
 50
0
  0
INSERT
  2
-013-_D26
  8
_0-2_寸法
 10
-55.002597209735427
 20
-254.02746539169249
 41
2
 42
2
 50
0
  0
INSERT
  2
-014-_D27
  8
_0-2_寸法
 10
-55.002597209735427
 20
-254.02746539169249
 41
2
 42
2
 50
0
  0
INSERT
  2
-015-_D28
  8
_0-2_寸法
 10
-55.002597209735427
 20
-254.02746539169249
 41
2
 42
2
 50
0
  0
INSERT
  2
-016-_D29
  8
_0-2_寸法
 10
-55.002597209735427
 20
-254.02746539169249
 41
2
 42
2
 50
0
  0
INSERT
  2
-017-_D30
  8
_0-2_寸法
 10
-55.002597209735427
 20
-254.02746539169249
 41
2
 42
2
 50
0
  0
INSERT
  2
-018-_D31
  8
_0-2_寸法
 10
-55.002597209735427
 20
-254.02746539169249
 41
2
 42
2
 50
0
  0
INSERT
  2
-019-_D32
  8
_0-2_寸法
 10
-55.002597209735427
 20
-254.02746539169249
 41
2
 42
2
 50
0
  0
INSERT
  2
-020-_D33
  8
_0-2_寸法
 10
-55.002597209735427
 20
-254.02746539169249
 41
2
 42
2
 50
0
  0
INSERT
  2
-021-_D34
  8
_0-2_寸法
 10
-55.002597209735427
 20
-254.02746539169249
 41
2
 42
2
 50
0
  0
INSERT
  2
-022-_D35
  8
_0-2_寸法
 10
-55.002597209735427
 20
-254.02746539169249
 41
2
 42
2
 50
0
  0
INSERT
  2
-023-_D36
  8
_0-2_寸法
 10
-55.002597209735427
 20
-254.02746539169249
 41
2
 42
2
 50
0
  0
INSERT
  2
-024-_D37
  8
_0-2_寸法
 10
-55.002597209735427
 20
-254.02746539169249
 41
2
 42
2
 50
0
  0
INSERT
  2
-025-_D38
  8
_0-2_寸法
 10
-55.002597209735427
 20
-254.02746539169249
 41
2
 42
2
 50
0
  0
INSERT
  2
-026-_D39
  8
_0-2_寸法
 10
-55.002597209735427
 20
-254.02746539169249
 41
2
 42
2
 50
0
  0
INSERT
  2
-027-_D40
  8
_0-2_寸法
 10
-55.002597209735427
 20
-254.02746539169249
 41
2
 42
2
 50
0
  0
INSERT
  2
-028-_D41
  8
_0-2_寸法
 10
-55.002597209735427
 20
-254.02746539169249
 41
2
 42
2
 50
0
  0
INSERT
  2
-029-_D42
  8
_0-2_寸法
 10
-55.002597209735427
 20
-254.02746539169249
 41
2
 42
2
 50
0
  0
INSERT
  2
-030-_D43
  8
_0-2_寸法
 10
-55.002597209735427
 20
-254.02746539169249
 41
2
 42
2
 50
0
  0
ENDSEC
  0
EOF
