  0
SECTION
  2
HEADER
  9
$ACADVER
  1
AC1009
  9
$INSBASE
 10
0
 20
0
 30
0
  9
$EXTMIN
 10
0
 20
0
  9
$EXTMAX
 10
420
 20
297
  9
$LIMMIN
 10
0
 20
0
  9
$LIMMAX
 10
420
 20
297
  9
$LTSCALE
 40
1
  0
ENDSEC
  0
SECTION
  2
TABLES
  0
TABLE
  2
LTYPE
 70
     9
  0
LTYPE
  2
CONTINUOUS
 70
    64
  3
実線
 72
    65
 73
     0
 40
0.0
  0
LTYPE
  2
DASHED1
 70
    64
  3
--  --  --  --  --  --  --  --  
 72
    65
 73
     2
 40
2.5
 49
1.25
 49
-1.25
  0
LTYPE
  2
DASHED2
 70
    64
  3
----    ----    ----    ----    
 72
    65
 73
     2
 40
5.0
 49
2.5
 49
-2.5
  0
LTYPE
  2
DASHED3
 70
    64
  3
------  ------  ------  ------  
 72
    65
 73
     2
 40
5.0
 49
3.75
 49
-1.25
  0
LTYPE
  2
CENTER1
 70
    64
  3
----- - ----- - ----- - ----- - 
 72
    65
 73
     4
 40
10.0
 49
6.25
 49
-1.25
 49
1.25
 49
-1.25
  0
LTYPE
  2
CENTER2
 70
    64
  3
----------  --  ----------  --  
 72
    65
 73
     4
 40
20.0
 49
12.5
 49
-2.5
 49
2.5
 49
-2.5
  0
LTYPE
  2
PHANTOM1
 70
    64
  3
--- - - --- - - --- - - --- - - 
 72
    65
 73
     6
 40
10.0
 49
3.25
 49
-1.25
 49
1.25
 49
-1.25
 49
1.25
 49
-1.25
  0
LTYPE
  2
PHANTOM2
 70
    64
  3
--------  -  -  --------  -  -  
 72
    65
 73
     6
 40
20.0
 49
10.0
 49
-2.5
 49
1.25
 49
-2.5
 49
1.25
 49
-2.5
  0
LTYPE
  2
DOT
 70
    64
  3
-   -   -   -   -   -   -   -   
 72
    65
 73
     2
 40
2.5
 49
0.625
 49
-1.875
  0
LTYPE
  2
DUMMY
 70
    64
  3
ダミー
 72
    65
 73
     0
 40
0.0
  0
LTYPE
  2
RAND1
 70
    64
  3
ランダム線1
 72
    65
 73
     4
 40
10.0
 49
1.0
 49
-2.0
 49
3.0
 49
-4.0
  0
LTYPE
  2
RAND2
 70
    64
  3
ランダム線2
 72
    65
 73
     4
 40
14.0
 49
2.0
 49
-3.0
 49
4.0
 49
-5.0
  0
LTYPE
  2
RAND3
 70
    64
  3
ランダム線3
 72
    65
 73
     4
 40
18.0
 49
3.0
 49
-4.0
 49
5.0
 49
-6.0
  0
LTYPE
  2
RAND4
 70
    64
  3
ランダム線4
 72
    65
 73
     4
 40
22.0
 49
4.0
 49
-5.0
 49
6.0
 49
-7.0
  0
LTYPE
  2
RAND5
 70
    64
  3
ランダム線5
 72
    65
 73
     4
 40
26.0
 49
5.0
 49
-6.0
 49
7.0
 49
-8.0
  0
LTYPE
  2
LONG1
 70
    64
  3
----------  --  ----------  --  
 72
    65
 73
     4
 40
40.0
 49
32.5
 49
-2.5
 49
2.5
 49
-2.5
  0
LTYPE
  2
LONG2
 70
    64
  3
--------  -  -  --------  -  -  
 72
    65
 73
     6
 40
40.0
 49
30.0
 49
-2.5
 49
1.25
 49
-2.5
 49
1.25
 49
-2.5
  0
LTYPE
  2
LONG3
 70
    64
  3
+++++++++++++++..+++++++++++++++
 72
    65
 73
     2
 40
40.0
 49
37.5
 49
-2.5
  0
LTYPE
  2
LONG4
 70
    64
  3
+++++++++++++++..+++++++++++++++
 72
    65
 73
     2
 40
80.0
 49
75.0
 49
-5.0
  0
LTYPE
  2
LONG5
 70
    64
  3
----------  --  ----------  --  
 72
    65
 73
     4
 40
60.0
 49
37.5
 49
-7.5
 49
7.5
 49
-7.5
  0
LTYPE
  2
dashed
 70
   64
  3
-------   -------------   ------
 72
   65
 73
    2
 40
7.5
 49
6
 49
-1.5
  0
LTYPE
  2
dashed_spaced
 70
   64
  3
----        --------        ----
 72
   65
 73
    2
 40
12
 49
6
 49
-6
  0
LTYPE
  2
long_dashed_dotted
 70
   64
  3
------------- --- --------------
 72
   65
 73
    4
 40
15.25
 49
12
 49
-1.5
 49
0.25
 49
-1.5
  0
LTYPE
  2
long_dashed_double-dotted
 70
   64
  3
----------- --- --- ------------
 72
   65
 73
    6
 40
17
 49
12
 49
-1.5
 49
0.25
 49
-1.5
 49
0.25
 49
-1.5
  0
LTYPE
  2
long_dashed_triplicate-dotted
 70
   64
  3
--------- --- --- --- ----------
 72
   65
 73
    8
 40
18.75
 49
12
 49
-1.5
 49
0.25
 49
-1.5
 49
0.25
 49
-1.5
 49
0.25
 49
-1.5
  0
LTYPE
  2
dotted
 70
   64
  3
   -       -       -       -    
 72
   65
 73
    2
 40
1.75
 49
0.25
 49
-1.5
  0
LTYPE
  2
chain
 70
   64
  3
-------------- -- --------------
 72
   65
 73
    4
 40
18.5
 49
12
 49
-1.5
 49
3.5
 49
-1.5
  0
LTYPE
  2
chain_double_dash
 70
   64
  3
------------ -- -- -------------
 72
   65
 73
    6
 40
23.5
 49
12
 49
-1.5
 49
3.5
 49
-1.5
 49
3.5
 49
-1.5
  0
LTYPE
  2
dashed_dotted
 70
   64
  3
-----------     -     ----------
 72
   65
 73
    4
 40
9.25
 49
6
 49
-1.5
 49
0.25
 49
-1.5
  0
LTYPE
  2
double-dashed_dotted
 70
   64
  3
------   -----------   -   -----
 72
   65
 73
    6
 40
16.75
 49
6
 49
-1.5
 49
6
 49
-1.5
 49
0.25
 49
-1.5
  0
LTYPE
  2
dashed_double-dotted
 70
   64
  3
---------    -    -    ---------
 72
   65
 73
    6
 40
11
 49
6
 49
-1.5
 49
0.25
 49
-1.5
 49
0.25
 49
-1.5
  0
LTYPE
  2
double-dashed_double-dotted
 70
   64
  3
-----   ---------   -   -   ----
 72
   65
 73
    8
 40
18.5
 49
6
 49
-1.5
 49
6
 49
-1.5
 49
0.25
 49
-1.5
 49
0.25
 49
-1.5
  0
LTYPE
  2
dashed_triplicate-dotted
 70
   64
  3
-------    -    -    -    ------
 72
   65
 73
    8
 40
12.75
 49
6
 49
-1.5
 49
0.25
 49
-1.5
 49
0.25
 49
-1.5
 49
0.25
 49
-1.5
  0
LTYPE
  2
double-dashed_triplicate-dotted
 70
   64
  3
-----  ---------  -  -  -  -----
 72
   65
 73
   10
 40
20.25
 49
6
 49
-1.5
 49
6
 49
-1.5
 49
0.25
 49
-1.5
 49
0.25
 49
-1.5
 49
0.25
 49
-1.5
  0
LTYPE
  2
undefined
 70
   64
  3
--------------------------------
 72
   65
 73
    0
 40
0
  0
LTYPE
  2
PLINE2
 70
   64
  3
------     -----------     -----
 72
   65
 73
    2
 40
3
 49
2.1000000000000001
 49
-0.9
  0
LTYPE
  2
PLINE3
 70
   64
  3
------------   ---   -----------
 72
   65
 73
    4
 40
10
 49
7
 49
-1
 49
1
 49
-1
  0
LTYPE
  2
PLINE4
 70
   64
  3
---------   ---   ---   --------
 72
   65
 73
    6
 40
10
 49
5
 49
-1
 49
1
 49
-1
 49
1
 49
-1
  0
LTYPE
  2
PLINE5
 70
   64
  3
------     -----------     -----
 72
   65
 73
    2
 40
5
 49
3.5
 49
-1.5
  0
LTYPE
  2
PLINE6
 70
   64
  3
------------   ---   -----------
 72
   65
 73
    4
 40
15
 49
10.5
 49
-1.5
 49
1.5
 49
-1.5
  0
LTYPE
  2
PLINE7
 70
   64
  3
---------   ---   ---   --------
 72
   65
 73
    6
 40
15
 49
7.5
 49
-1.5
 49
1.5
 49
-1.5
 49
1.5
 49
-1.5
  0
LTYPE
  2
PLINE8
 70
   64
  3
------     -----------     -----
 72
   65
 73
    2
 40
7
 49
4.9000000000000004
 49
-2.1000000000000001
  0
LTYPE
  2
PLINE9
 70
   64
  3
------------   ---   -----------
 72
   65
 73
    4
 40
20
 49
14
 49
-2
 49
2
 49
-2
  0
LTYPE
  2
PLINE10
 70
   64
  3
---------   ---   ---   --------
 72
   65
 73
    6
 40
20
 49
10
 49
-2
 49
2
 49
-2
 49
2
 49
-2
  0
LTYPE
  2
PLINE11
 70
   64
  3
------     -----------     -----
 72
   65
 73
    2
 40
9
 49
6.2999999999999989
 49
-2.7000000000000002
  0
LTYPE
  2
PLINE12
 70
   64
  3
------------   ---   -----------
 72
   65
 73
    4
 40
25
 49
17.5
 49
-2.5
 49
2.5
 49
-2.5
  0
LTYPE
  2
PLINE13
 70
   64
  3
---------   ---   ---   --------
 72
   65
 73
    6
 40
25
 49
12.5
 49
-2.5
 49
2.5
 49
-2.5
 49
2.5
 49
-2.5
  0
LTYPE
  2
PLINE14
 70
   64
  3
------     -----------     -----
 72
   65
 73
    2
 40
11
 49
7.7000000000000002
 49
-3.2999999999999989
  0
LTYPE
  2
PLINE15
 70
   64
  3
------------   ---   -----------
 72
   65
 73
    4
 40
30
 49
21
 49
-3
 49
3
 49
-3
  0
LTYPE
  2
PLINE16
 70
   64
  3
---------   ---   ---   --------
 72
   65
 73
    6
 40
30
 49
15
 49
-3
 49
3
 49
-3
 49
3
 49
-3
  0
ENDTAB
  0
TABLE
  2
STYLE
  5
3
100
AcDbSymbolTable
 70
     1
  0
STYLE
  5
10
100
AcDbSymbolTableRecord
100
AcDbTextStyleTableRecord
  2
STANDARD
 70
     0
 40
0.0
 41
1.0
 50
0.0
 71
     0
 42
0.2
  3
txt
  4
bigfont.shx
  0
STYLE
  5
26
100
AcDbSymbolTableRecord
100
AcDbTextStyleTableRecord
  2
TATEGAKI
 70
    68
 40
0.0
 41
1.0
 50
0.0
 71
     0
 42
1.0
  3
txt
  4
bigfont.shx
  0
ENDTAB
  0
TABLE
  2
LAYER
 70
    5
  0
LAYER
  2
_0-2_寸法
 70
   64
 62
    7
  6
CONTINUOUS
  0
LAYER
  2
_0-3_躯体
 70
   64
 62
    7
  6
CONTINUOUS
  0
LAYER
  2
_0-4_笠木
 70
   64
 62
    7
  6
CONTINUOUS
  0
LAYER
  2
_0-5_受金具
 70
   64
 62
    7
  6
CONTINUOUS
  0
LAYER
  2
ADD_LINE
 70
   64
 62
    7
  6
CONTINUOUS
  0
ENDTAB
  0
ENDSEC
  0
SECTION
  2
BLOCKS
  0
BLOCK
  2
-000-_Dot
 70
   64
 10
0
 20
0
 30
0
  0
CIRCLE
  8
_0-0_0
  6
CONTINUOUS
 62
    7
 10
0
 20
0
 40
0.5
  0
LINE
  8
_0-0_0
  6
CONTINUOUS
 62
    7
 10
0.5
 20
0
 11
-0.5
 21
0
  0
LINE
  8
_0-0_0
  6
CONTINUOUS
 62
    7
 10
-1
 20
0
 11
-2
 21
0
  0
ENDBLK
  0
BLOCK
  2
-001-_D4
 70
   64
 10
0
 20
0
 30
0
  0
LINE
  8
_0-2_寸法
  6
CONTINUOUS
 62
    4
 10
1605.8624285370086
 20
267.92334027004699
 11
1605.8624285370086
 21
269.12334027004698
  0
LINE
  8
_0-2_寸法
  6
CONTINUOUS
 62
    4
 10
1805.8624285370086
 20
267.92334027004699
 11
1805.8624285370086
 21
269.12334027004698
  0
LINE
  8
_0-2_寸法
  6
CONTINUOUS
 62
    4
 10
1607.8624285370086
 20
269.12334027004698
 11
1803.8624285370086
 21
269.12334027004698
  0
INSERT
  2
-000-_Dot
  8
_0-2_寸法
 10
1605.8624285370086
 20
269.12334027004698
 41
1
 42
1
 50
180
  0
INSERT
  2
-000-_Dot
  8
_0-2_寸法
 10
1805.8624285370086
 20
269.12334027004698
 41
1
 42
1
 50
0
  0
TEXT
  8
_0-2_寸法
 62
    7
 10
1697.5124285370086
 20
271.12334027004698
 40
10
 41
1
 50
0
  1
100
  0
POINT
  8
_0-1_Defpoints
 62
    7
 10
1605.8624285370086
 20
267.92334027004699
  0
POINT
  8
_0-1_Defpoints
 62
    7
 10
1805.8624285370086
 20
267.92334027004699
  0
POINT
  8
_0-1_Defpoints
 62
    7
 10
1805.8624285370086
 20
269.12334027004698
  0
ENDBLK
  0
BLOCK
  2
-002-_D5
 70
   64
 10
0
 20
0
 30
0
  0
LINE
  8
_0-2_寸法
  6
CONTINUOUS
 62
    4
 10
1605.8624285370086
 20
189.63904427004707
 11
1605.8624285370086
 21
185.63904427004707
  0
LINE
  8
_0-2_寸法
  6
CONTINUOUS
 62
    4
 10
1735.8624285370086
 20
189.63904427004707
 11
1735.8624285370086
 21
185.63904427004707
  0
LINE
  8
_0-2_寸法
  6
CONTINUOUS
 62
    4
 10
1607.8624285370086
 20
185.63904427004707
 11
1733.8624285370083
 21
185.63904427004707
  0
INSERT
  2
-000-_Dot
  8
_0-2_寸法
 10
1605.8624285370086
 20
185.63904427004707
 41
1
 42
1
 50
180
  0
INSERT
  2
-000-_Dot
  8
_0-2_寸法
 10
1735.8624285370086
 20
185.63904427004707
 41
1
 42
1
 50
0
  0
TEXT
  8
_0-2_寸法
 62
    7
 10
1665.4374285370084
 20
187.63904427004707
 40
10
 41
1
 50
0
  1
65
  0
POINT
  8
_0-1_Defpoints
 62
    7
 10
1605.8624285370086
 20
189.63904427004707
  0
POINT
  8
_0-1_Defpoints
 62
    7
 10
1735.8624285370086
 20
189.63904427004707
  0
POINT
  8
_0-1_Defpoints
 62
    7
 10
1735.8624285370086
 20
185.63904427004707
  0
ENDBLK
  0
BLOCK
  2
-003-_D6
 70
   64
 10
0
 20
0
 30
0
  0
LINE
  8
_0-2_寸法
  6
CONTINUOUS
 62
    4
 10
1584.7723706831425
 20
122.19504427004702
 11
1555.8624285370086
 21
122.19504427004703
  0
LINE
  8
_0-2_寸法
  6
CONTINUOUS
 62
    4
 10
1584.7723706831425
 20
102.19504427004702
 11
1555.8624285370086
 21
102.19504427004703
  0
LINE
  8
_0-2_寸法
  6
CONTINUOUS
 62
    4
 10
1555.8624285370086
 20
120.19504427004703
 11
1555.8624285370086
 21
104.19504427004702
  0
INSERT
  2
-000-_Dot
  8
_0-2_寸法
 10
1555.8624285370086
 20
122.19504427004703
 41
1
 42
1
 50
90
  0
INSERT
  2
-000-_Dot
  8
_0-2_寸法
 10
1555.8624285370086
 20
102.19504427004703
 41
1
 42
1
 50
270
  0
TEXT
  8
_0-2_寸法
 62
    7
 10
1553.8624285370086
 20
106.77004427004728
 40
10
 41
1
 50
90
  1
10
  0
POINT
  8
_0-1_Defpoints
 62
    7
 10
1584.7723706831425
 20
122.19504427004702
  0
POINT
  8
_0-1_Defpoints
 62
    7
 10
1584.7723706831425
 20
102.19504427004702
  0
POINT
  8
_0-1_Defpoints
 62
    7
 10
1555.8624285370086
 20
102.19504427004703
  0
ENDBLK
  0
BLOCK
  2
-004-_D7
 70
   64
 10
0
 20
0
 30
0
  0
LINE
  8
_0-2_寸法
  6
CONTINUOUS
 62
    4
 10
1584.7723706831425
 20
102.19504427004702
 11
1555.8624285370086
 21
102.19504427004703
  0
LINE
  8
_0-2_寸法
  6
CONTINUOUS
 62
    4
 10
1584.7723706831425
 20
36.195044270047021
 11
1555.8624285370086
 21
36.195044270047021
  0
LINE
  8
_0-2_寸法
  6
CONTINUOUS
 62
    4
 10
1555.8624285370086
 20
100.19504427004703
 11
1555.8624285370086
 21
38.195044270047021
  0
INSERT
  2
-000-_Dot
  8
_0-2_寸法
 10
1555.8624285370086
 20
102.19504427004703
 41
1
 42
1
 50
90
  0
INSERT
  2
-000-_Dot
  8
_0-2_寸法
 10
1555.8624285370086
 20
36.195044270047021
 41
1
 42
1
 50
270
  0
TEXT
  8
_0-2_寸法
 62
    7
 10
1553.8624285370086
 20
63.770044270047279
 40
10
 41
1
 50
90
  1
33
  0
POINT
  8
_0-1_Defpoints
 62
    7
 10
1584.7723706831425
 20
102.19504427004702
  0
POINT
  8
_0-1_Defpoints
 62
    7
 10
1584.7723706831425
 20
36.195044270047021
  0
POINT
  8
_0-1_Defpoints
 62
    7
 10
1555.8624285370086
 20
36.195044270047021
  0
ENDBLK
  0
BLOCK
  2
-005-_D8
 70
   64
 10
0
 20
0
 30
0
  0
LINE
  8
_0-2_寸法
  6
CONTINUOUS
 62
    4
 10
1584.7723706831425
 20
36.195044270047021
 11
1555.8624285370086
 21
36.195044270047021
  0
LINE
  8
_0-2_寸法
  6
CONTINUOUS
 62
    4
 10
1584.7723706831425
 20
32.195044270047021
 11
1555.8624285370086
 21
32.195044270047021
  0
LINE
  8
_0-2_寸法
  6
CONTINUOUS
 62
    4
 10
1555.8624285370086
 20
38.195044270047021
 11
1555.8624285370086
 21
40.195044270047021
  0
LINE
  8
_0-2_寸法
  6
CONTINUOUS
 62
    4
 10
1555.8624285370086
 20
30.195044270047021
 11
1555.8624285370086
 21
28.195044270047021
  0
INSERT
  2
-000-_Dot
  8
_0-2_寸法
 10
1555.8624285370086
 20
36.195044270047021
 41
1
 42
1
 50
270
  0
INSERT
  2
-000-_Dot
  8
_0-2_寸法
 10
1555.8624285370086
 20
32.195044270047021
 41
1
 42
1
 50
90
  0
TEXT
  8
_0-2_寸法
 62
    7
 10
1553.8624285370086
 20
31.695044270047283
 40
10
 41
1
 50
90
  1
2
  0
POINT
  8
_0-1_Defpoints
 62
    7
 10
1584.7723706831425
 20
36.195044270047021
  0
POINT
  8
_0-1_Defpoints
 62
    7
 10
1584.7723706831425
 20
32.195044270047021
  0
POINT
  8
_0-1_Defpoints
 62
    7
 10
1555.8624285370086
 20
32.195044270047021
  0
ENDBLK
  0
BLOCK
  2
-006-_D9
 70
   64
 10
0
 20
0
 30
0
  0
LINE
  8
_0-2_寸法
  6
CONTINUOUS
 62
    4
 10
1584.7723706831425
 20
32.195044270047021
 11
1535.8624285370083
 21
32.195044270047021
  0
LINE
  8
_0-2_寸法
  6
CONTINUOUS
 62
    4
 10
1584.7723706831425
 20
122.19504427004702
 11
1535.8624285370083
 21
122.19504427004703
  0
LINE
  8
_0-2_寸法
  6
CONTINUOUS
 62
    4
 10
1535.8624285370083
 20
34.195044270047021
 11
1535.8624285370083
 21
120.19504427004703
  0
INSERT
  2
-000-_Dot
  8
_0-2_寸法
 10
1535.8624285370083
 20
32.195044270047021
 41
1
 42
1
 50
270
  0
INSERT
  2
-000-_Dot
  8
_0-2_寸法
 10
1535.8624285370083
 20
122.19504427004703
 41
1
 42
1
 50
90
  0
TEXT
  8
_0-2_寸法
 62
    7
 10
1533.8624285370083
 20
71.770044270047279
 40
10
 41
1
 50
90
  1
45
  0
POINT
  8
_0-1_Defpoints
 62
    7
 10
1584.7723706831425
 20
32.195044270047021
  0
POINT
  8
_0-1_Defpoints
 62
    7
 10
1584.7723706831425
 20
122.19504427004702
  0
POINT
  8
_0-1_Defpoints
 62
    7
 10
1535.8624285370083
 20
122.19504427004703
  0
ENDBLK
  0
BLOCK
  2
-007-_D10
 70
   64
 10
0
 20
0
 30
0
  0
LINE
  8
_0-2_寸法
  6
CONTINUOUS
 62
    4
 10
1605.8624285370086
 20
23.138694137675419
 11
1605.8624285370086
 21
-4.0201797299529556
  0
LINE
  8
_0-2_寸法
  6
CONTINUOUS
 62
    4
 10
1845.8624285370083
 20
23.138694137675419
 11
1845.8624285370083
 21
-4.0201797299529556
  0
LINE
  8
_0-2_寸法
  6
CONTINUOUS
 62
    4
 10
1607.8624285370086
 20
-4.0201797299529556
 11
1843.8624285370083
 21
-4.0201797299529556
  0
INSERT
  2
-000-_Dot
  8
_0-2_寸法
 10
1605.8624285370086
 20
-4.0201797299529556
 41
1
 42
1
 50
180
  0
INSERT
  2
-000-_Dot
  8
_0-2_寸法
 10
1845.8624285370083
 20
-4.0201797299529556
 41
1
 42
1
 50
0
  0
TEXT
  8
_0-2_寸法
 62
    7
 10
1717.5124285370084
 20
-2.0201797299529578
 40
10
 41
1
 50
0
  1
120
  0
POINT
  8
_0-1_Defpoints
 62
    7
 10
1605.8624285370086
 20
23.138694137675419
  0
POINT
  8
_0-1_Defpoints
 62
    7
 10
1845.8624285370083
 20
23.138694137675419
  0
POINT
  8
_0-1_Defpoints
 62
    7
 10
1845.8624285370083
 20
-4.0201797299529556
  0
ENDBLK
  0
BLOCK
  2
-008-_D11
 70
   64
 10
0
 20
0
 30
0
  0
LINE
  8
_0-2_寸法
  6
CONTINUOUS
 62
    4
 10
1863.5375004625521
 20
36.195044270047021
 11
1885.8624285370086
 21
36.195044270046999
  0
LINE
  8
_0-2_寸法
  6
CONTINUOUS
 62
    4
 10
1863.5375004625521
 20
66.195044270047021
 11
1885.8624285370086
 21
66.195044270047021
  0
LINE
  8
_0-2_寸法
  6
CONTINUOUS
 62
    4
 10
1885.8624285370086
 20
38.195044270046999
 11
1885.8624285370086
 21
64.195044270047021
  0
INSERT
  2
-000-_Dot
  8
_0-2_寸法
 10
1885.8624285370086
 20
36.195044270046999
 41
1
 42
1
 50
270
  0
INSERT
  2
-000-_Dot
  8
_0-2_寸法
 10
1885.8624285370086
 20
66.195044270047021
 41
1
 42
1
 50
90
  0
TEXT
  8
_0-2_寸法
 62
    7
 10
1883.8624285370086
 20
45.770044270047322
 40
10
 41
1
 50
90
  1
15
  0
POINT
  8
_0-1_Defpoints
 62
    7
 10
1863.5375004625521
 20
36.195044270047021
  0
POINT
  8
_0-1_Defpoints
 62
    7
 10
1863.5375004625521
 20
66.195044270047021
  0
POINT
  8
_0-1_Defpoints
 62
    7
 10
1885.8624285370086
 20
66.195044270047021
  0
ENDBLK
  0
BLOCK
  2
-009-_D12
 70
   64
 10
0
 20
0
 30
0
  0
LINE
  8
_0-2_寸法
  6
CONTINUOUS
 62
    4
 10
1863.5375004625521
 20
36.195044270047021
 11
1966.1162845370084
 21
36.195044270046978
  0
LINE
  8
_0-2_寸法
  6
CONTINUOUS
 62
    4
 10
1863.5375004625521
 20
110.19504427004702
 11
1966.1162845370084
 21
110.19504427004698
  0
LINE
  8
_0-2_寸法
  6
CONTINUOUS
 62
    4
 10
1966.1162845370084
 20
38.195044270046978
 11
1966.1162845370084
 21
108.19504427004701
  0
INSERT
  2
-000-_Dot
  8
_0-2_寸法
 10
1966.1162845370084
 20
36.195044270046978
 41
1
 42
1
 50
270
  0
INSERT
  2
-000-_Dot
  8
_0-2_寸法
 10
1966.1162845370084
 20
110.19504427004698
 41
1
 42
1
 50
90
  0
TEXT
  8
_0-2_寸法
 62
    7
 10
1964.1162845370084
 20
67.770044270047322
 40
10
 41
1
 50
90
  1
37
  0
POINT
  8
_0-1_Defpoints
 62
    7
 10
1863.5375004625521
 20
36.195044270047021
  0
POINT
  8
_0-1_Defpoints
 62
    7
 10
1863.5375004625521
 20
110.19504427004702
  0
POINT
  8
_0-1_Defpoints
 62
    7
 10
1966.1162845370084
 20
110.19504427004698
  0
ENDBLK
  0
ENDSEC
  0
SECTION
  2
ENTITIES
  0
ARC
  8
_0-4_笠木
  6
CONTINUOUS
 62
    4
 10
244.39552633333324
 20
106.7106486666667
 40
8.5
 50
270
 51
0
  0
LINE
  8
_0-3_躯体
  6
CONTINUOUS
 62
    4
 10
242.89552633333335
 20
98.2106486666667
 11
252.89552633333335
 21
108.2106486666667
  0
LINE
  8
_0-3_躯体
  6
CONTINUOUS
 62
    3
 10
190.70666233333338
 20
98.2106486666667
 11
252.89552633333335
 21
160.39951266666668
  0
LINE
  8
_0-3_躯体
  6
CONTINUOUS
 62
    3
 10
252.89552633333335
 20
157.57108666666659
 11
193.5350903333333
 21
98.2106486666667
  0
LINE
  8
_0-4_笠木
  6
CONTINUOUS
 62
    4
 10
193.89552633333335
 20
92.2106486666667
 11
258.89552633333335
 21
92.2106486666667
  0
LINE
  8
_0-5_受金具
  6
CONTINUOUS
 62
    4
 10
218.19552633333342
 20
87.7106486666667
 11
255.39552633333335
 21
87.7106486666667
  0
LINE
  8
_0-5_受金具
  6
CONTINUOUS
 62
    4
 10
174.5955263333334
 20
90.2106486666667
 11
257.39552633333335
 21
90.2106486666667
  0
LINE
  8
_0-4_笠木
  6
CONTINUOUS
 62
    4
 10
272.39552633333335
 20
55.2106486666667
 11
154.39552633333324
 21
55.2106486666667
  0
LINE
  8
_0-4_笠木
  6
CONTINUOUS
 62
    4
 10
154.59552633333328
 20
56.410648666666702
 11
271.19552633333342
 21
56.410648666666702
  0
LINE
  8
_0-5_受金具
  6
CONTINUOUS
 62
    4
 10
225.73552633333338
 20
86.510648666666711
 11
225.73552633333338
 21
80.768972666666713
  0
LINE
  8
_0-5_受金具
  6
CONTINUOUS
 62
    4
 10
213.97552633333328
 20
80.768972666666713
 11
213.97552633333328
 21
86.510648666666711
  0
LINE
  8
_0-5_受金具
  6
CONTINUOUS
 62
    4
 10
221.81552633333331
 20
86.510648666666711
 11
221.81552633333331
 21
80.768972666666713
  0
LINE
  8
_0-5_受金具
  6
CONTINUOUS
 62
    4
 10
210.05552633333332
 20
80.768972666666713
 11
210.05552633333332
 21
86.510648666666711
  0
LINE
  8
_0-5_受金具
  6
CONTINUOUS
 62
    4
 10
177.8957723333333
 20
58.149738666666721
 11
170.43631433333337
 21
85.74973866666673
  0
LINE
  8
_0-5_受金具
  6
CONTINUOUS
 62
    4
 10
173.36090033333323
 20
84.510648666666697
 11
180.34444033333341
 21
58.671556666666703
  0
LINE
  8
_0-4_笠木
  6
CONTINUOUS
 62
    4
 10
152.89552633333335
 20
85.2106486666667
 11
152.89552633333335
 21
53.2106486666667
  0
LINE
  8
_0-4_笠木
  6
CONTINUOUS
 62
    4
 10
154.0955263333334
 20
84.317810666666702
 11
154.0955263333334
 21
56.910648666666702
  0
LINE
  8
_0-2_寸法
  6
PLINE3
 62
    3
 10
217.89552633333335
 20
60.210648666666685
 11
217.89552633333335
 21
129.93264866666672
  0
LINE
  8
_0-4_笠木
  6
CONTINUOUS
 62
    4
 10
154.0955263333334
 20
58.410648666666702
 11
154.0955263333334
 21
81.922586666666689
  0
LINE
  8
_0-4_笠木
  6
CONTINUOUS
 62
    4
 10
152.89552633333335
 20
53.2106486666667
 11
154.39552633333324
 21
53.2106486666667
  0
ARC
  8
_0-4_笠木
  6
CONTINUOUS
 62
    4
 10
154.59552633333328
 20
56.910648666666702
 40
0.5
 50
180
 51
270
  0
LINE
  8
_0-4_笠木
  6
CONTINUOUS
 62
    4
 10
154.39552633333324
 20
53.2106486666667
 11
154.39552633333324
 21
55.2106486666667
  0
ARC
  8
_0-5_受金具
  6
CONTINUOUS
 62
    4
 10
179.37907633333339
 20
58.410648666666702
 40
1
 50
270
 51
15.124007000000667
  0
ARC
  8
_0-5_受金具
  6
CONTINUOUS
 62
    4
 10
178.86113633333343
 20
58.410648666666702
 40
1
 50
195.1240070000006
 51
270
  0
LINE
  8
_0-5_受金具
  6
CONTINUOUS
 62
    4
 10
178.86113633333343
 20
57.410648666666702
 11
179.37907633333339
 21
57.410648666666702
  0
LINE
  8
_0-5_受金具
  6
CONTINUOUS
 62
    4
 10
213.89552633333324
 20
66.2106486666667
 11
213.89552633333324
 21
80.110648666666691
  0
LINE
  8
_0-5_受金具
  6
CONTINUOUS
 62
    4
 10
221.89552633333324
 20
66.2106486666667
 11
221.89552633333324
 21
80.110648666666691
  0
LINE
  8
_0-5_受金具
  6
CONTINUOUS
 62
    3
 10
220.89552633333335
 20
80.110648666666691
 11
220.89552633333335
 21
65.2106486666667
  0
LINE
  8
_0-5_受金具
  6
CONTINUOUS
 62
    3
 10
214.89552633333324
 20
65.2106486666667
 11
214.89552633333324
 21
80.110648666666691
  0
LINE
  8
_0-5_受金具
  6
CONTINUOUS
 62
    4
 10
214.89552633333324
 20
65.2106486666667
 11
220.89552633333335
 21
65.2106486666667
  0
LINE
  8
_0-5_受金具
  6
CONTINUOUS
 62
    3
 10
213.89552633333324
 20
66.2106486666667
 11
221.89552633333324
 21
66.2106486666667
  0
LINE
  8
_0-5_受金具
  6
CONTINUOUS
 62
    4
 10
213.89552633333324
 20
66.2106486666667
 11
214.89552633333324
 21
65.2106486666667
  0
LINE
  8
_0-5_受金具
  6
CONTINUOUS
 62
    4
 10
221.89552633333324
 20
66.2106486666667
 11
220.89552633333335
 21
65.2106486666667
  0
ARC
  8
_0-5_受金具
  6
CONTINUOUS
 62
    4
 10
217.89552633333335
 20
92.110648666666691
 40
12
 50
250.9334199999974
 51
289.06658000000249
  0
LINE
  8
_0-5_受金具
  6
CONTINUOUS
 62
    4
 10
223.89824033333343
 20
80.110648666666691
 11
211.89281433333326
 21
80.110648666666691
  0
LINE
  8
_0-5_受金具
  6
CONTINUOUS
 62
    4
 10
211.89281433333326
 20
80.110648666666691
 11
210.05552633333332
 21
80.768972666666713
  0
ARC
  8
_0-5_受金具
  6
CONTINUOUS
 62
    4
 10
211.77441033333344
 20
84.108894666666714
 40
4
 50
271.69625399999683
 51
303.3861779999981
  0
ARC
  8
_0-5_受金具
  6
CONTINUOUS
 62
    4
 10
224.01664433333326
 20
84.108894666666714
 40
4
 50
236.61382200000179
 51
268.30374299999994
  0
LINE
  8
_0-5_受金具
  6
CONTINUOUS
 62
    4
 10
225.73552633333338
 20
80.768972666666713
 11
223.89824033333343
 21
80.110648666666691
  0
LINE
  8
_0-3_躯体
  6
CONTINUOUS
 62
    3
 10
152.89552633333335
 20
150.8029166666667
 11
192.92442033333327
 21
190.83180866666669
  0
LINE
  8
_0-3_躯体
  6
CONTINUOUS
 62
    3
 10
195.75284633333342
 20
190.83180866666669
 11
152.89552633333335
 21
147.97448866666667
  0
LINE
  8
_0-5_受金具
  6
CONTINUOUS
 62
    3
 10
162.68310033333353
 20
95.726142666666718
 11
165.16760433333343
 21
98.2106486666667
  0
LINE
  8
_0-5_受金具
  6
CONTINUOUS
 62
    3
 10
162.89518833333341
 20
93.10980466666669
 11
167.89552633333335
 21
98.110142666666732
  0
LINE
  8
_0-5_受金具
  6
CONTINUOUS
 62
    3
 10
167.89552633333335
 20
92.453288666666722
 11
161.98117233333323
 21
98.36764466666672
  0
LINE
  8
_0-5_受金具
  6
CONTINUOUS
 62
    3
 10
163.65288633333341
 20
88.2106486666667
 11
162.41585833333329
 21
89.4476746666667
  0
LINE
  8
_0-5_受金具
  6
CONTINUOUS
 62
    4
 10
162.89552633333324
 20
88.2106486666667
 11
172.89552633333324
 21
88.2106486666667
  0
LINE
  8
_0-5_受金具
  6
CONTINUOUS
 62
    4
 10
162.89552633333324
 20
88.2106486666667
 11
172.89552633333324
 21
88.2106486666667
  0
LINE
  8
_0-4_笠木
  6
CONTINUOUS
 62
    4
 10
163.07165033333342
 20
87.010648666666711
 11
174.0955263333334
 21
87.010648666666711
  0
LINE
  8
_0-5_受金具
  6
CONTINUOUS
 62
    3
 10
162.52906233333329
 20
89.915250666666708
 11
167.89552633333335
 21
95.281716666666711
  0
LINE
  8
_0-5_受金具
  6
CONTINUOUS
 62
    3
 10
167.89552633333335
 20
89.624862666666701
 11
162.82151833333342
 21
94.69887066666675
  0
LINE
  8
_0-5_受金具
  6
CONTINUOUS
 62
    3
 10
166.48131433333333
 20
88.2106486666667
 11
162.83437633333335
 21
91.85758466666671
  0
LINE
  8
_0-3_躯体
  6
CONTINUOUS
 62
    4
 10
242.89552633333335
 20
98.2106486666667
 11
162.89552633333324
 21
98.2106486666667
  0
LINE
  8
_0-3_躯体
  6
CONTINUOUS
 62
    4
 10
152.89552633333335
 20
108.2106486666667
 11
152.89552633333335
 21
190.83180866666669
  0
ARC
  8
_0-5_受金具
  6
CONTINUOUS
 62
    4
 10
147.89552633333324
 20
93.2106486666667
 40
15
 50
339.35349899999909
 51
25.528778999999506
  0
LINE
  8
_0-4_笠木
  6
CONTINUOUS
 62
    4
 10
152.89552633333335
 20
85.2106486666667
 11
162.89552633333324
 21
88.2106486666667
  0
LINE
  8
_0-4_笠木
  6
CONTINUOUS
 62
    4
 10
163.07165033333342
 20
87.010648666666711
 11
154.0955263333334
 21
84.317810666666702
  0
LINE
  8
_0-3_躯体
  6
CONTINUOUS
 62
    4
 10
162.89552633333324
 20
98.2106486666667
 11
152.89552633333335
 21
108.2106486666667
  0
LINE
  8
_0-5_受金具
  6
CONTINUOUS
 62
    3
 10
162.11495033333324
 20
97.986420666666703
 11
162.61735233333343
 21
98.488822666666721
  0
LINE
  8
_0-5_受金具
  6
CONTINUOUS
 62
    4
 10
176.5955263333334
 20
87.7106486666667
 11
217.59552633333317
 21
87.7106486666667
  0
LINE
  8
_0-5_受金具
  6
CONTINUOUS
 62
    3
 10
167.89552633333335
 20
95.281716666666711
 11
164.96659433333332
 21
98.2106486666667
  0
LINE
  8
_0-5_受金具
  6
CONTINUOUS
 62
    4
 10
167.89552633333335
 20
98.2106486666667
 11
167.89552633333335
 21
88.2106486666667
  0
LINE
  8
_0-5_受金具
  6
CONTINUOUS
 62
    4
 10
172.89552633333324
 20
88.2106486666667
 11
172.89552633333324
 21
98.2106486666667
  0
LINE
  8
_0-5_受金具
  6
CONTINUOUS
 62
    3
 10
172.89552633333324
 20
88.2106486666667
 11
167.89552633333335
 21
98.2106486666667
  0
ARC
  8
_0-5_受金具
  6
CONTINUOUS
 62
    4
 10
174.5955263333334
 20
89.7106486666667
 40
0.5
 50
90
 51
180
  0
LINE
  8
_0-5_受金具
  6
CONTINUOUS
 62
    4
 10
176.5955263333334
 20
84.510648666666697
 11
173.36090033333323
 21
84.510648666666697
  0
LINE
  8
_0-5_受金具
  6
CONTINUOUS
 62
    4
 10
174.0955263333334
 20
87.010648666666711
 11
174.0955263333334
 21
89.7106486666667
  0
LINE
  8
_0-5_受金具
  6
CONTINUOUS
 62
    4
 10
172.89552633333324
 20
91.410648666666717
 11
172.89552633333324
 21
88.2106486666667
  0
LINE
  8
_0-4_笠木
  6
CONTINUOUS
 62
    4
 10
174.0955263333334
 20
91.160648666666702
 11
174.0955263333334
 21
87.034358666666719
  0
LINE
  8
_0-4_笠木
  6
CONTINUOUS
 62
    4
 10
174.0955263333334
 20
91.410648666666717
 11
174.0955263333334
 21
87.010648666666711
  0
LINE
  8
_0-5_受金具
  6
CONTINUOUS
 62
    3
 10
166.48131433333333
 20
88.2106486666667
 11
167.89552633333335
 21
89.624862666666701
  0
LINE
  8
_0-5_受金具
  6
CONTINUOUS
 62
    3
 10
163.65288633333341
 20
88.2106486666667
 11
167.89552633333335
 21
92.453288666666722
  0
LINE
  8
_0-5_受金具
  6
CONTINUOUS
 62
    4
 10
174.0955263333334
 20
87.010648666666711
 11
171.4016763333334
 21
87.010648666666711
  0
ARC
  8
_0-5_受金具
  6
CONTINUOUS
 62
    4
 10
171.4016763333334
 20
86.010648666666711
 40
1
 50
90
 51
195.12400700000063
  0
LINE
  8
_0-5_受金具
  6
CONTINUOUS
 62
    4
 10
174.0955263333334
 20
87.010648666666711
 11
174.0955263333334
 21
87.7106486666667
  0
LINE
  8
_0-5_受金具
  6
CONTINUOUS
 62
    4
 10
174.0955263333334
 20
87.010648666666711
 11
171.69617233333338
 21
87.010648666666711
  0
ARC
  8
_0-4_笠木
  6
CONTINUOUS
 62
    4
 10
173.49552633333326
 20
91.410648666666717
 40
0.5999999999999999
 50
0
 51
180
  0
LINE
  8
_0-5_受金具
  6
CONTINUOUS
 62
    4
 10
176.5955263333334
 20
87.7106486666667
 11
176.5955263333334
 21
84.510648666666697
  0
LINE
  8
_0-5_受金具
  6
CONTINUOUS
 62
    3
 10
167.89552633333335
 20
98.110142666666732
 11
167.79502233333324
 21
98.2106486666667
  0
ARC
  8
_0-4_笠木
  6
CONTINUOUS
 62
    4
 10
197.89552633333324
 20
94.2106486666667
 40
4
 50
90
 51
180
  0
LINE
  8
_0-4_笠木
  6
CONTINUOUS
 62
    4
 10
193.89552633333335
 20
94.2106486666667
 11
193.89552633333335
 21
92.2106486666667
  0
LINE
  8
_0-5_受金具
  6
CONTINUOUS
 62
    4
 10
205.39552633333335
 20
92.2106486666667
 11
205.39552633333335
 21
90.2106486666667
  0
LINE
  8
_0-5_受金具
  6
CONTINUOUS
 62
    4
 10
208.29552633333333
 20
87.7106486666667
 11
227.49552633333337
 21
87.7106486666667
  0
LINE
  8
_0-5_受金具
  6
CONTINUOUS
 62
    4
 10
208.29552633333333
 20
86.510648666666711
 11
227.49552633333337
 21
86.510648666666711
  0
LINE
  8
_0-5_受金具
  6
CONTINUOUS
 62
    4
 10
210.05552633333332
 20
86.510648666666711
 11
225.73552633333338
 21
86.510648666666711
  0
LINE
  8
_0-5_受金具
  6
CONTINUOUS
 62
    4
 10
208.29552633333333
 20
86.510648666666711
 11
208.29552633333333
 21
87.7106486666667
  0
LINE
  8
_0-5_受金具
  6
CONTINUOUS
 62
    4
 10
217.59552633333317
 20
87.7106486666667
 11
217.89552633333335
 21
88.010648666666711
  0
LINE
  8
_0-5_受金具
  6
CONTINUOUS
 62
    4
 10
217.89552633333335
 20
88.010648666666711
 11
218.19552633333342
 21
87.7106486666667
  0
LINE
  8
_0-5_受金具
  6
CONTINUOUS
 62
    4
 10
227.49552633333337
 20
86.510648666666711
 11
227.49552633333337
 21
87.7106486666667
  0
LINE
  8
_0-5_受金具
  6
CONTINUOUS
 62
    4
 10
245.39552633333324
 20
92.2106486666667
 11
245.39552633333324
 21
90.2106486666667
  0
LINE
  8
_0-2_寸法
  6
CONTINUOUS
 62
    3
 10
217.89552633333335
 20
129.93264866666672
 11
217.89552633333335
 21
131.93264866666672
  0
TEXT
  8
_0-2_寸法
 62
    7
 10
84.509252333333279
 20
243.73029666666659
 40
20
 41
0.73811
 50
0
  1
Ｋ－１２０Ｎ
  0
LINE
  8
_0-5_受金具
  6
CONTINUOUS
 62
    4
 10
255.39552633333335
 20
87.7106486666667
 11
255.39552633333335
 21
65.7106486666667
  0
LINE
  8
_0-5_受金具
  6
CONTINUOUS
 62
    4
 10
257.89552633333324
 20
89.7106486666667
 11
257.89552633333324
 21
68.2106486666667
  0
LINE
  8
_0-3_躯体
  6
CONTINUOUS
 62
    4
 10
262.89552633333324
 20
79.210648666666685
 11
317.25505233333342
 21
79.210648666666685
  0
LINE
  8
_0-3_躯体
  6
CONTINUOUS
 62
    4
 10
262.89552633333324
 20
76.2106486666667
 11
317.25505233333342
 21
76.2106486666667
  0
LINE
  8
_0-3_躯体
  6
CONTINUOUS
 62
    4
 10
262.89552633333324
 20
73.2106486666667
 11
317.25505233333342
 21
73.2106486666667
  0
LINE
  8
_0-3_躯体
  6
CONTINUOUS
 62
    4
 10
317.25505233333342
 20
70.2106486666667
 11
262.89552633333324
 21
70.2106486666667
  0
LINE
  8
_0-4_笠木
  6
CONTINUOUS
 62
    4
 10
271.69552633333342
 20
67.2106486666667
 11
264.09552633333317
 21
67.2106486666667
  0
LINE
  8
_0-4_笠木
  6
CONTINUOUS
 62
    4
 10
262.89552633333324
 20
66.010648666666711
 11
271.19552633333342
 21
66.010648666666711
  0
ARC
  8
_0-4_笠木
  6
CONTINUOUS
 62
    4
 10
269.69552633333342
 20
58.410648666666702
 40
2
 50
270
 51
0
  0
LINE
  8
_0-4_笠木
  6
CONTINUOUS
 62
    4
 10
262.89552633333324
 20
68.2106486666667
 11
262.89552633333324
 21
66.010648666666711
  0
LINE
  8
_0-4_笠木
  6
CONTINUOUS
 62
    4
 10
264.09552633333317
 20
67.2106486666667
 11
264.09552633333317
 21
69.410648666666717
  0
ARC
  8
_0-5_受金具
  6
CONTINUOUS
 62
    4
 10
260.33059633333335
 20
67.2106486666667
 40
1
 50
335.15761099999958
 51
89.999999999999972
  0
LINE
  8
_0-5_受金具
  6
CONTINUOUS
 62
    4
 10
257.16398833333324
 20
57.990524666666701
 11
261.23806233333335
 21
66.790524666666713
  0
LINE
  8
_0-5_受金具
  6
CONTINUOUS
 62
    4
 10
257.98319833333335
 20
65.7106486666667
 11
254.79807033333338
 21
58.830772666666732
  0
ARC
  8
_0-5_受金具
  6
CONTINUOUS
 62
    4
 10
256.25652233333335
 20
58.410648666666702
 40
1
 50
270
 51
335.15761099999958
  0
ARC
  8
_0-5_受金具
  6
CONTINUOUS
 62
    4
 10
255.70553833333327
 20
58.410648666666702
 40
1
 50
155.1576109999996
 51
270
  0
LINE
  8
_0-5_受金具
  6
CONTINUOUS
 62
    4
 10
256.25652233333335
 20
57.410648666666702
 11
255.70553833333327
 21
57.410648666666702
  0
LINE
  8
_0-5_受金具
  6
CONTINUOUS
 62
    4
 10
255.39552633333335
 20
65.7106486666667
 11
257.98319833333335
 21
65.7106486666667
  0
LINE
  8
_0-4_笠木
  6
CONTINUOUS
 62
    4
 10
260.89552633333335
 20
72.410648666666702
 11
257.89552633333324
 21
72.410648666666702
  0
LINE
  8
_0-4_笠木
  6
CONTINUOUS
 62
    4
 10
259.09552633333328
 20
71.410648666666702
 11
260.89552633333335
 21
71.410648666666702
  0
LINE
  8
_0-5_受金具
  6
CONTINUOUS
 62
    4
 10
257.89552633333324
 20
68.2106486666667
 11
260.33059633333335
 21
68.2106486666667
  0
LINE
  8
_0-4_笠木
  6
CONTINUOUS
 62
    4
 10
259.09552633333328
 20
69.410648666666717
 11
264.09552633333317
 21
69.410648666666717
  0
LINE
  8
_0-4_笠木
  6
CONTINUOUS
 62
    4
 10
262.89552633333324
 20
68.2106486666667
 11
257.89552633333324
 21
68.2106486666667
  0
LINE
  8
_0-4_笠木
  6
CONTINUOUS
 62
    4
 10
259.09552633333328
 20
71.410648666666702
 11
259.09552633333328
 21
69.410648666666717
  0
LINE
  8
_0-5_受金具
  6
CONTINUOUS
 62
    4
 10
257.89552633333324
 20
72.410648666666702
 11
257.89552633333324
 21
68.2106486666667
  0
LINE
  8
_0-3_躯体
  6
CONTINUOUS
 62
    4
 10
262.89552633333324
 20
79.210648666666685
 11
262.89552633333324
 21
70.2106486666667
  0
LINE
  8
_0-4_笠木
  6
CONTINUOUS
 62
    4
 10
260.89552633333335
 20
72.410648666666702
 11
260.89552633333335
 21
71.410648666666702
  0
LINE
  8
_0-4_笠木
  6
CONTINUOUS
 62
    4
 10
270.39552633333324
 20
70.2106486666667
 11
271.69552633333342
 21
67.2106486666667
  0
LINE
  8
_0-4_笠木
  6
CONTINUOUS
 62
    4
 10
272.89552633333324
 20
70.2106486666667
 11
272.89552633333324
 21
55.7106486666667
  0
LINE
  8
_0-4_笠木
  6
CONTINUOUS
 62
    4
 10
271.69552633333342
 20
58.410648666666702
 11
271.69552633333342
 21
65.010648666666711
  0
LINE
  8
_0-4_笠木
  6
CONTINUOUS
 62
    4
 10
271.69552633333342
 20
56.910648666666702
 11
271.69552633333342
 21
65.510648666666711
  0
ARC
  8
_0-4_笠木
  6
CONTINUOUS
 62
    4
 10
271.19552633333342
 20
56.910648666666702
 40
0.5
 50
270
 51
0
  0
ARC
  8
_0-4_笠木
  6
CONTINUOUS
 62
    4
 10
272.39552633333335
 20
55.7106486666667
 40
0.5
 50
270
 51
0
  0
ARC
  8
_0-4_笠木
  6
CONTINUOUS
 62
    4
 10
271.19552633333342
 20
65.510648666666711
 40
0.5
 50
0
 51
90
  0
LINE
  8
_0-4_笠木
  6
CONTINUOUS
 62
    4
 10
270.39552633333324
 20
70.2106486666667
 11
272.89552633333324
 21
70.2106486666667
  0
LINE
  8
_0-3_躯体
  6
CONTINUOUS
 62
    4
 10
252.89552633333335
 20
108.2106486666667
 11
252.89552633333335
 21
190.83180866666669
  0
LINE
  8
_0-4_笠木
  6
CONTINUOUS
 62
    4
 10
258.89552633333335
 20
157.2106486666666
 11
258.89552633333335
 21
92.2106486666667
  0
ARC
  8
_0-5_受金具
  6
CONTINUOUS
 62
    4
 10
257.39552633333335
 20
89.7106486666667
 40
0.5
 50
0
 51
90
  0
ARC
  8
_0-4_笠木
  6
CONTINUOUS
 62
    4
 10
256.89552633333324
 20
153.2106486666666
 40
4
 50
90
 51
180
  0
LINE
  8
_0-4_笠木
  6
CONTINUOUS
 62
    4
 10
256.89552633333324
 20
157.2106486666666
 11
258.89552633333335
 21
157.2106486666666
  0
LINE
  8
_0-4_笠木
  6
CONTINUOUS
 62
    4
 10
252.89552633333335
 20
153.2106486666666
 11
252.89552633333335
 21
106.7106486666667
  0
LINE
  8
_0-4_笠木
  6
CONTINUOUS
 62
    4
 10
197.89552633333324
 20
98.2106486666667
 11
244.39552633333324
 21
98.2106486666667
  0
INSERT
  2
-001-_D4
  8
_0-2_寸法
 10
-650.03568793517093
 20
37.113126531643189
 41
0.5
 42
0.5
 50
0
  0
INSERT
  2
-002-_D5
  8
_0-2_寸法
 10
-650.03568793517093
 20
37.113126531643189
 41
0.5
 42
0.5
 50
0
  0
INSERT
  2
-003-_D6
  8
_0-2_寸法
 10
-650.03568793517093
 20
37.113126531643189
 41
0.5
 42
0.5
 50
0
  0
INSERT
  2
-004-_D7
  8
_0-2_寸法
 10
-650.03568793517093
 20
37.113126531643189
 41
0.5
 42
0.5
 50
0
  0
INSERT
  2
-005-_D8
  8
_0-2_寸法
 10
-650.03568793517093
 20
37.113126531643189
 41
0.5
 42
0.5
 50
0
  0
INSERT
  2
-006-_D9
  8
_0-2_寸法
 10
-650.03568793517093
 20
37.113126531643189
 41
0.5
 42
0.5
 50
0
  0
INSERT
  2
-007-_D10
  8
_0-2_寸法
 10
-650.03568793517093
 20
37.113126531643189
 41
0.5
 42
0.5
 50
0
  0
INSERT
  2
-008-_D11
  8
_0-2_寸法
 10
-650.03568793517093
 20
37.113126531643189
 41
0.5
 42
0.5
 50
0
  0
INSERT
  2
-009-_D12
  8
_0-2_寸法
 10
-650.03568793517093
 20
37.113126531643189
 41
0.5
 42
0.5
 50
0
  0
LINE
  8
_0-4_笠木
  6
CONTINUOUS
 62
    4
 10
162.89552633333324
 20
88.2106486666667
 11
172.89552633333324
 21
88.2106486666667
  0
LINE
  8
_0-4_笠木
  6
CONTINUOUS
 62
    4
 10
172.89552633333324
 20
91.410648666666717
 11
172.89552633333324
 21
88.2106486666667
  0
LINE
  8
_0-4_笠木
  6
CONTINUOUS
 62
    4
 10
257.89552633333324
 20
72.410648666666702
 11
257.89552633333324
 21
68.2106486666667
  0
LINE
  8
_0-5_受金具
  6
CONTINUOUS
 62
    4
 10
172.89552633333324
 20
98.2106486666667
 11
162.89552633333324
 21
98.2106486666667
  0
LINE
  8
_0-5_受金具
  6
CONTINUOUS
 62
    4
 10
162.89552633333324
 20
98.2106486666667
 11
161.43106028050522
 21
99.675114674386052
  0
LINE
  8
_0-5_受金具
  6
CONTINUOUS
 62
    4
 10
162.89552633333324
 20
88.2106486666667
 11
161.93213146910273
 21
87.921630207397541
  0
LINE
  8
_0-5_受金具
  6
CONTINUOUS
 62
    4
 10
205.39552633333335
 20
92.2106486666667
 11
245.39552633333324
 21
92.2106486666667
  0
ENDSEC
  0
EOF
