  0
SECTION
  2
HEADER
  9
$ACADVER
  1
AC1009
  9
$INSBASE
 10
0
 20
0
 30
0
  9
$EXTMIN
 10
0
 20
0
  9
$EXTMAX
 10
420
 20
297
  9
$LIMMIN
 10
0
 20
0
  9
$LIMMAX
 10
420
 20
297
  9
$LTSCALE
 40
1
  0
ENDSEC
  0
SECTION
  2
TABLES
  0
TABLE
  2
LTYPE
 70
     9
  0
LTYPE
  2
CONTINUOUS
 70
    64
  3
実線
 72
    65
 73
     0
 40
0.0
  0
LTYPE
  2
DASHED1
 70
    64
  3
--  --  --  --  --  --  --  --  
 72
    65
 73
     2
 40
2.5
 49
1.25
 49
-1.25
  0
LTYPE
  2
DASHED2
 70
    64
  3
----    ----    ----    ----    
 72
    65
 73
     2
 40
5.0
 49
2.5
 49
-2.5
  0
LTYPE
  2
DASHED3
 70
    64
  3
------  ------  ------  ------  
 72
    65
 73
     2
 40
5.0
 49
3.75
 49
-1.25
  0
LTYPE
  2
CENTER1
 70
    64
  3
----- - ----- - ----- - ----- - 
 72
    65
 73
     4
 40
10.0
 49
6.25
 49
-1.25
 49
1.25
 49
-1.25
  0
LTYPE
  2
CENTER2
 70
    64
  3
----------  --  ----------  --  
 72
    65
 73
     4
 40
20.0
 49
12.5
 49
-2.5
 49
2.5
 49
-2.5
  0
LTYPE
  2
PHANTOM1
 70
    64
  3
--- - - --- - - --- - - --- - - 
 72
    65
 73
     6
 40
10.0
 49
3.25
 49
-1.25
 49
1.25
 49
-1.25
 49
1.25
 49
-1.25
  0
LTYPE
  2
PHANTOM2
 70
    64
  3
--------  -  -  --------  -  -  
 72
    65
 73
     6
 40
20.0
 49
10.0
 49
-2.5
 49
1.25
 49
-2.5
 49
1.25
 49
-2.5
  0
LTYPE
  2
DOT
 70
    64
  3
-   -   -   -   -   -   -   -   
 72
    65
 73
     2
 40
2.5
 49
0.625
 49
-1.875
  0
LTYPE
  2
DUMMY
 70
    64
  3
ダミー
 72
    65
 73
     0
 40
0.0
  0
LTYPE
  2
RAND1
 70
    64
  3
ランダム線1
 72
    65
 73
     4
 40
10.0
 49
1.0
 49
-2.0
 49
3.0
 49
-4.0
  0
LTYPE
  2
RAND2
 70
    64
  3
ランダム線2
 72
    65
 73
     4
 40
14.0
 49
2.0
 49
-3.0
 49
4.0
 49
-5.0
  0
LTYPE
  2
RAND3
 70
    64
  3
ランダム線3
 72
    65
 73
     4
 40
18.0
 49
3.0
 49
-4.0
 49
5.0
 49
-6.0
  0
LTYPE
  2
RAND4
 70
    64
  3
ランダム線4
 72
    65
 73
     4
 40
22.0
 49
4.0
 49
-5.0
 49
6.0
 49
-7.0
  0
LTYPE
  2
RAND5
 70
    64
  3
ランダム線5
 72
    65
 73
     4
 40
26.0
 49
5.0
 49
-6.0
 49
7.0
 49
-8.0
  0
LTYPE
  2
LONG1
 70
    64
  3
----------  --  ----------  --  
 72
    65
 73
     4
 40
40.0
 49
32.5
 49
-2.5
 49
2.5
 49
-2.5
  0
LTYPE
  2
LONG2
 70
    64
  3
--------  -  -  --------  -  -  
 72
    65
 73
     6
 40
40.0
 49
30.0
 49
-2.5
 49
1.25
 49
-2.5
 49
1.25
 49
-2.5
  0
LTYPE
  2
LONG3
 70
    64
  3
+++++++++++++++..+++++++++++++++
 72
    65
 73
     2
 40
40.0
 49
37.5
 49
-2.5
  0
LTYPE
  2
LONG4
 70
    64
  3
+++++++++++++++..+++++++++++++++
 72
    65
 73
     2
 40
80.0
 49
75.0
 49
-5.0
  0
LTYPE
  2
LONG5
 70
    64
  3
----------  --  ----------  --  
 72
    65
 73
     4
 40
60.0
 49
37.5
 49
-7.5
 49
7.5
 49
-7.5
  0
LTYPE
  2
dashed
 70
   64
  3
-------   -------------   ------
 72
   65
 73
    2
 40
7.5
 49
6
 49
-1.5
  0
LTYPE
  2
dashed_spaced
 70
   64
  3
----        --------        ----
 72
   65
 73
    2
 40
12
 49
6
 49
-6
  0
LTYPE
  2
long_dashed_dotted
 70
   64
  3
------------- --- --------------
 72
   65
 73
    4
 40
15.25
 49
12
 49
-1.5
 49
0.25
 49
-1.5
  0
LTYPE
  2
long_dashed_double-dotted
 70
   64
  3
----------- --- --- ------------
 72
   65
 73
    6
 40
17
 49
12
 49
-1.5
 49
0.25
 49
-1.5
 49
0.25
 49
-1.5
  0
LTYPE
  2
long_dashed_triplicate-dotted
 70
   64
  3
--------- --- --- --- ----------
 72
   65
 73
    8
 40
18.75
 49
12
 49
-1.5
 49
0.25
 49
-1.5
 49
0.25
 49
-1.5
 49
0.25
 49
-1.5
  0
LTYPE
  2
dotted
 70
   64
  3
   -       -       -       -    
 72
   65
 73
    2
 40
1.75
 49
0.25
 49
-1.5
  0
LTYPE
  2
chain
 70
   64
  3
-------------- -- --------------
 72
   65
 73
    4
 40
18.5
 49
12
 49
-1.5
 49
3.5
 49
-1.5
  0
LTYPE
  2
chain_double_dash
 70
   64
  3
------------ -- -- -------------
 72
   65
 73
    6
 40
23.5
 49
12
 49
-1.5
 49
3.5
 49
-1.5
 49
3.5
 49
-1.5
  0
LTYPE
  2
dashed_dotted
 70
   64
  3
-----------     -     ----------
 72
   65
 73
    4
 40
9.25
 49
6
 49
-1.5
 49
0.25
 49
-1.5
  0
LTYPE
  2
double-dashed_dotted
 70
   64
  3
------   -----------   -   -----
 72
   65
 73
    6
 40
16.75
 49
6
 49
-1.5
 49
6
 49
-1.5
 49
0.25
 49
-1.5
  0
LTYPE
  2
dashed_double-dotted
 70
   64
  3
---------    -    -    ---------
 72
   65
 73
    6
 40
11
 49
6
 49
-1.5
 49
0.25
 49
-1.5
 49
0.25
 49
-1.5
  0
LTYPE
  2
double-dashed_double-dotted
 70
   64
  3
-----   ---------   -   -   ----
 72
   65
 73
    8
 40
18.5
 49
6
 49
-1.5
 49
6
 49
-1.5
 49
0.25
 49
-1.5
 49
0.25
 49
-1.5
  0
LTYPE
  2
dashed_triplicate-dotted
 70
   64
  3
-------    -    -    -    ------
 72
   65
 73
    8
 40
12.75
 49
6
 49
-1.5
 49
0.25
 49
-1.5
 49
0.25
 49
-1.5
 49
0.25
 49
-1.5
  0
LTYPE
  2
double-dashed_triplicate-dotted
 70
   64
  3
-----  ---------  -  -  -  -----
 72
   65
 73
   10
 40
20.25
 49
6
 49
-1.5
 49
6
 49
-1.5
 49
0.25
 49
-1.5
 49
0.25
 49
-1.5
 49
0.25
 49
-1.5
  0
LTYPE
  2
undefined
 70
   64
  3
--------------------------------
 72
   65
 73
    0
 40
0
  0
LTYPE
  2
PLINE2
 70
   64
  3
------     -----------     -----
 72
   65
 73
    2
 40
3
 49
2.1000000000000001
 49
-0.9
  0
LTYPE
  2
PLINE3
 70
   64
  3
------------   ---   -----------
 72
   65
 73
    4
 40
10
 49
7
 49
-1
 49
1
 49
-1
  0
LTYPE
  2
PLINE4
 70
   64
  3
---------   ---   ---   --------
 72
   65
 73
    6
 40
10
 49
5
 49
-1
 49
1
 49
-1
 49
1
 49
-1
  0
LTYPE
  2
PLINE5
 70
   64
  3
------     -----------     -----
 72
   65
 73
    2
 40
5
 49
3.5
 49
-1.5
  0
LTYPE
  2
PLINE6
 70
   64
  3
------------   ---   -----------
 72
   65
 73
    4
 40
15
 49
10.5
 49
-1.5
 49
1.5
 49
-1.5
  0
LTYPE
  2
PLINE7
 70
   64
  3
---------   ---   ---   --------
 72
   65
 73
    6
 40
15
 49
7.5
 49
-1.5
 49
1.5
 49
-1.5
 49
1.5
 49
-1.5
  0
LTYPE
  2
PLINE8
 70
   64
  3
------     -----------     -----
 72
   65
 73
    2
 40
7
 49
4.9000000000000004
 49
-2.1000000000000001
  0
LTYPE
  2
PLINE9
 70
   64
  3
------------   ---   -----------
 72
   65
 73
    4
 40
20
 49
14
 49
-2
 49
2
 49
-2
  0
LTYPE
  2
PLINE10
 70
   64
  3
---------   ---   ---   --------
 72
   65
 73
    6
 40
20
 49
10
 49
-2
 49
2
 49
-2
 49
2
 49
-2
  0
LTYPE
  2
PLINE11
 70
   64
  3
------     -----------     -----
 72
   65
 73
    2
 40
9
 49
6.2999999999999989
 49
-2.7000000000000002
  0
LTYPE
  2
PLINE12
 70
   64
  3
------------   ---   -----------
 72
   65
 73
    4
 40
25
 49
17.5
 49
-2.5
 49
2.5
 49
-2.5
  0
LTYPE
  2
PLINE13
 70
   64
  3
---------   ---   ---   --------
 72
   65
 73
    6
 40
25
 49
12.5
 49
-2.5
 49
2.5
 49
-2.5
 49
2.5
 49
-2.5
  0
LTYPE
  2
PLINE14
 70
   64
  3
------     -----------     -----
 72
   65
 73
    2
 40
11
 49
7.7000000000000002
 49
-3.2999999999999989
  0
LTYPE
  2
PLINE15
 70
   64
  3
------------   ---   -----------
 72
   65
 73
    4
 40
30
 49
21
 49
-3
 49
3
 49
-3
  0
LTYPE
  2
PLINE16
 70
   64
  3
---------   ---   ---   --------
 72
   65
 73
    6
 40
30
 49
15
 49
-3
 49
3
 49
-3
 49
3
 49
-3
  0
ENDTAB
  0
TABLE
  2
STYLE
  5
3
100
AcDbSymbolTable
 70
     1
  0
STYLE
  5
10
100
AcDbSymbolTableRecord
100
AcDbTextStyleTableRecord
  2
STANDARD
 70
     0
 40
0.0
 41
1.0
 50
0.0
 71
     0
 42
0.2
  3
txt
  4
bigfont.shx
  0
STYLE
  5
26
100
AcDbSymbolTableRecord
100
AcDbTextStyleTableRecord
  2
TATEGAKI
 70
    68
 40
0.0
 41
1.0
 50
0.0
 71
     0
 42
1.0
  3
txt
  4
bigfont.shx
  0
ENDTAB
  0
TABLE
  2
LAYER
 70
    5
  0
LAYER
  2
_0-2_寸法
 70
   64
 62
    7
  6
CONTINUOUS
  0
LAYER
  2
_0-3_躯体
 70
   64
 62
    7
  6
CONTINUOUS
  0
LAYER
  2
_0-4_笠木
 70
   64
 62
    7
  6
CONTINUOUS
  0
LAYER
  2
_0-5_受金具
 70
   64
 62
    7
  6
CONTINUOUS
  0
LAYER
  2
ADD_LINE
 70
   64
 62
    7
  6
CONTINUOUS
  0
ENDTAB
  0
ENDSEC
  0
SECTION
  2
BLOCKS
  0
BLOCK
  2
-000-_Dot
 70
   64
 10
0
 20
0
 30
0
  0
CIRCLE
  8
_0-0_0
  6
CONTINUOUS
 62
    7
 10
0
 20
0
 40
0.25
  0
LINE
  8
_0-0_0
  6
CONTINUOUS
 62
    7
 10
0.25
 20
0
 11
-0.25
 21
0
  0
LINE
  8
_0-0_0
  6
CONTINUOUS
 62
    7
 10
-0.5
 20
0
 11
-1
 21
0
  0
ENDBLK
  0
BLOCK
  2
-001-_D89
 70
   64
 10
0
 20
0
 30
0
  0
LINE
  8
_0-2_寸法
  6
CONTINUOUS
 62
    4
 10
-1014.6080349584799
 20
-965.49203228193755
 11
-1002.136611320002
 21
-965.49203228193755
  0
LINE
  8
_0-2_寸法
  6
CONTINUOUS
 62
    4
 10
-1014.6080349584799
 20
-981.49203228193755
 11
-1002.136611320002
 21
-981.49203228193755
  0
LINE
  8
_0-2_寸法
  6
CONTINUOUS
 62
    4
 10
-1002.136611320002
 20
-966.49203228193755
 11
-1002.136611320002
 21
-980.49203228193755
  0
INSERT
  2
-000-_Dot
  8
_0-2_寸法
 10
-1002.136611320002
 20
-965.49203228193755
 41
1
 42
1
 50
90
  0
INSERT
  2
-000-_Dot
  8
_0-2_寸法
 10
-1002.136611320002
 20
-981.49203228193755
 41
1
 42
1
 50
270
  0
TEXT
  8
_0-2_寸法
 62
    7
 10
-1003.136611320002
 20
-976.20453228193765
 40
5
 41
1
 50
90
  1
16
  0
POINT
  8
_0-1_Defpoints
 62
    7
 10
-1014.6080349584799
 20
-965.49203228193755
  0
POINT
  8
_0-1_Defpoints
 62
    7
 10
-1014.6080349584799
 20
-981.49203228193755
  0
POINT
  8
_0-1_Defpoints
 62
    7
 10
-1002.136611320002
 20
-981.49203228193755
  0
ENDBLK
  0
BLOCK
  2
-002-_D90
 70
   64
 10
0
 20
0
 30
0
  0
LINE
  8
_0-2_寸法
  6
CONTINUOUS
 62
    4
 10
-1014.6080349584799
 20
-981.49203228193755
 11
-1002.136611320002
 21
-981.49203228193755
  0
LINE
  8
_0-2_寸法
  6
CONTINUOUS
 62
    4
 10
-1014.6080349584799
 20
-1015.492032281937
 11
-1002.136611320002
 21
-1015.492032281937
  0
LINE
  8
_0-2_寸法
  6
CONTINUOUS
 62
    4
 10
-1002.136611320002
 20
-982.49203228193755
 11
-1002.136611320002
 21
-1014.492032281937
  0
INSERT
  2
-000-_Dot
  8
_0-2_寸法
 10
-1002.136611320002
 20
-981.49203228193755
 41
1
 42
1
 50
90
  0
INSERT
  2
-000-_Dot
  8
_0-2_寸法
 10
-1002.136611320002
 20
-1015.492032281937
 41
1
 42
1
 50
270
  0
TEXT
  8
_0-2_寸法
 62
    7
 10
-1003.136611320002
 20
-1001.2045322819376
 40
5
 41
1
 50
90
  1
34
  0
POINT
  8
_0-1_Defpoints
 62
    7
 10
-1014.6080349584799
 20
-981.49203228193755
  0
POINT
  8
_0-1_Defpoints
 62
    7
 10
-1014.6080349584799
 20
-1015.492032281937
  0
POINT
  8
_0-1_Defpoints
 62
    7
 10
-1002.136611320002
 20
-1015.492032281937
  0
ENDBLK
  0
BLOCK
  2
-003-_D91
 70
   64
 10
0
 20
0
 30
0
  0
LINE
  8
_0-2_寸法
  6
CONTINUOUS
 62
    4
 10
-1014.6080349584799
 20
-1015.492032281937
 11
-988.13661132000209
 21
-1015.492032281937
  0
LINE
  8
_0-2_寸法
  6
CONTINUOUS
 62
    4
 10
-1014.6080349584799
 20
-965.49203228193755
 11
-988.13661132000209
 21
-965.49203228193755
  0
LINE
  8
_0-2_寸法
  6
CONTINUOUS
 62
    4
 10
-988.13661132000209
 20
-1014.492032281937
 11
-988.13661132000209
 21
-966.49203228193755
  0
INSERT
  2
-000-_Dot
  8
_0-2_寸法
 10
-988.13661132000209
 20
-1015.492032281937
 41
1
 42
1
 50
270
  0
INSERT
  2
-000-_Dot
  8
_0-2_寸法
 10
-988.13661132000209
 20
-965.49203228193755
 41
1
 42
1
 50
90
  0
TEXT
  8
_0-2_寸法
 62
    7
 10
-989.13661132000209
 20
-993.20453228193765
 40
5
 41
1
 50
90
  1
50
  0
POINT
  8
_0-1_Defpoints
 62
    7
 10
-1014.6080349584799
 20
-1015.492032281937
  0
POINT
  8
_0-1_Defpoints
 62
    7
 10
-1014.6080349584799
 20
-965.49203228193755
  0
POINT
  8
_0-1_Defpoints
 62
    7
 10
-988.13661132000209
 20
-965.49203228193755
  0
ENDBLK
  0
BLOCK
  2
-004-_D92
 70
   64
 10
0
 20
0
 30
0
  0
LINE
  8
_0-2_寸法
  6
CONTINUOUS
 62
    4
 10
-1022.136611320002
 20
-963.54714846416891
 11
-1022.136611320002
 21
-936.60634728193747
  0
LINE
  8
_0-2_寸法
  6
CONTINUOUS
 62
    4
 10
-1028.136611320002
 20
-963.54714846416891
 11
-1028.136611320002
 21
-936.60634728193747
  0
LINE
  8
_0-2_寸法
  6
CONTINUOUS
 62
    4
 10
-1023.136611320002
 20
-936.60634728193747
 11
-1027.136611320002
 21
-936.60634728193747
  0
INSERT
  2
-000-_Dot
  8
_0-2_寸法
 10
-1022.136611320002
 20
-936.60634728193747
 41
1
 42
1
 50
0
  0
INSERT
  2
-000-_Dot
  8
_0-2_寸法
 10
-1028.136611320002
 20
-936.60634728193747
 41
1
 42
1
 50
180
  0
TEXT
  8
_0-2_寸法
 62
    7
 10
-1026.386611320002
 20
-935.60634728193759
 40
5
 41
1
 50
0
  1
6
  0
POINT
  8
_0-1_Defpoints
 62
    7
 10
-1022.136611320002
 20
-963.54714846416891
  0
POINT
  8
_0-1_Defpoints
 62
    7
 10
-1028.136611320002
 20
-963.54714846416891
  0
POINT
  8
_0-1_Defpoints
 62
    7
 10
-1028.136611320002
 20
-936.60634728193747
  0
ENDBLK
  0
BLOCK
  2
-005-_D93
 70
   64
 10
0
 20
0
 30
0
  0
LINE
  8
_0-2_寸法
  6
CONTINUOUS
 62
    4
 10
-1028.136611320002
 20
-963.54714846416891
 11
-1028.136611320002
 21
-936.60634728193747
  0
LINE
  8
_0-2_寸法
  6
CONTINUOUS
 62
    4
 10
-1047.136611320002
 20
-963.54714846416891
 11
-1047.136611320002
 21
-936.60634728193747
  0
LINE
  8
_0-2_寸法
  6
CONTINUOUS
 62
    4
 10
-1029.136611320002
 20
-936.60634728193747
 11
-1046.136611320002
 21
-936.60634728193747
  0
INSERT
  2
-000-_Dot
  8
_0-2_寸法
 10
-1028.136611320002
 20
-936.60634728193747
 41
1
 42
1
 50
0
  0
INSERT
  2
-000-_Dot
  8
_0-2_寸法
 10
-1047.136611320002
 20
-936.60634728193747
 41
1
 42
1
 50
180
  0
TEXT
  8
_0-2_寸法
 62
    7
 10
-1040.3491113200021
 20
-935.60634728193759
 40
5
 41
1
 50
0
  1
19
  0
POINT
  8
_0-1_Defpoints
 62
    7
 10
-1028.136611320002
 20
-963.54714846416891
  0
POINT
  8
_0-1_Defpoints
 62
    7
 10
-1047.136611320002
 20
-963.54714846416891
  0
POINT
  8
_0-1_Defpoints
 62
    7
 10
-1047.136611320002
 20
-936.60634728193747
  0
ENDBLK
  0
BLOCK
  2
-006-_D94
 70
   64
 10
0
 20
0
 30
0
  0
LINE
  8
_0-2_寸法
  6
CONTINUOUS
 62
    4
 10
-1047.136611320002
 20
-963.54714846416891
 11
-1047.136611320002
 21
-936.60634728193747
  0
LINE
  8
_0-2_寸法
  6
CONTINUOUS
 62
    4
 10
-1297.136611320002
 20
-963.54714846416891
 11
-1297.136611320002
 21
-936.60634728193747
  0
LINE
  8
_0-2_寸法
  6
CONTINUOUS
 62
    4
 10
-1048.136611320002
 20
-936.60634728193747
 11
-1296.136611320002
 21
-936.60634728193747
  0
INSERT
  2
-000-_Dot
  8
_0-2_寸法
 10
-1047.136611320002
 20
-936.60634728193747
 41
1
 42
1
 50
0
  0
INSERT
  2
-000-_Dot
  8
_0-2_寸法
 10
-1297.136611320002
 20
-936.60634728193747
 41
1
 42
1
 50
180
  0
TEXT
  8
_0-2_寸法
 62
    7
 10
-1176.3116113200019
 20
-935.60634728193759
 40
5
 41
1
 50
0
  1
250
  0
POINT
  8
_0-1_Defpoints
 62
    7
 10
-1047.136611320002
 20
-963.54714846416891
  0
POINT
  8
_0-1_Defpoints
 62
    7
 10
-1297.136611320002
 20
-963.54714846416891
  0
POINT
  8
_0-1_Defpoints
 62
    7
 10
-1297.136611320002
 20
-936.60634728193747
  0
ENDBLK
  0
BLOCK
  2
-007-_D95
 70
   64
 10
0
 20
0
 30
0
  0
LINE
  8
_0-2_寸法
  6
CONTINUOUS
 62
    4
 10
-1022.136611320002
 20
-963.54714846416891
 11
-1022.136611320002
 21
-954.65468628193764
  0
LINE
  8
_0-2_寸法
  6
CONTINUOUS
 62
    4
 10
-1047.136611320002
 20
-963.54714846416891
 11
-1047.136611320002
 21
-954.65468628193764
  0
LINE
  8
_0-2_寸法
  6
CONTINUOUS
 62
    4
 10
-1023.136611320002
 20
-954.65468628193764
 11
-1046.136611320002
 21
-954.65468628193764
  0
INSERT
  2
-000-_Dot
  8
_0-2_寸法
 10
-1022.136611320002
 20
-954.65468628193764
 41
1
 42
1
 50
0
  0
INSERT
  2
-000-_Dot
  8
_0-2_寸法
 10
-1047.136611320002
 20
-954.65468628193764
 41
1
 42
1
 50
180
  0
TEXT
  8
_0-2_寸法
 62
    7
 10
-1037.3491113200021
 20
-953.65468628193764
 40
5
 41
1
 50
0
  1
25
  0
POINT
  8
_0-1_Defpoints
 62
    7
 10
-1022.136611320002
 20
-963.54714846416891
  0
POINT
  8
_0-1_Defpoints
 62
    7
 10
-1047.136611320002
 20
-963.54714846416891
  0
POINT
  8
_0-1_Defpoints
 62
    7
 10
-1047.136611320002
 20
-954.65468628193764
  0
ENDBLK
  0
BLOCK
  2
-008-_D96
 70
   64
 10
0
 20
0
 30
0
  0
LINE
  8
_0-2_寸法
  6
CONTINUOUS
 62
    4
 10
-1047.136611320002
 20
-963.54714846416891
 11
-1047.136611320002
 21
-954.65468628193764
  0
LINE
  8
_0-2_寸法
  6
CONTINUOUS
 62
    4
 10
-1172.136611320002
 20
-963.54714846416891
 11
-1172.136611320002
 21
-954.65468628193764
  0
LINE
  8
_0-2_寸法
  6
CONTINUOUS
 62
    4
 10
-1048.136611320002
 20
-954.65468628193764
 11
-1171.136611320002
 21
-954.65468628193764
  0
INSERT
  2
-000-_Dot
  8
_0-2_寸法
 10
-1047.136611320002
 20
-954.65468628193764
 41
1
 42
1
 50
0
  0
INSERT
  2
-000-_Dot
  8
_0-2_寸法
 10
-1172.136611320002
 20
-954.65468628193764
 41
1
 42
1
 50
180
  0
TEXT
  8
_0-2_寸法
 62
    7
 10
-1113.8116113200019
 20
-953.65468628193764
 40
5
 41
1
 50
0
  1
125
  0
POINT
  8
_0-1_Defpoints
 62
    7
 10
-1047.136611320002
 20
-963.54714846416891
  0
POINT
  8
_0-1_Defpoints
 62
    7
 10
-1172.136611320002
 20
-963.54714846416891
  0
POINT
  8
_0-1_Defpoints
 62
    7
 10
-1172.136611320002
 20
-954.65468628193764
  0
ENDBLK
  0
BLOCK
  2
-009-_D97
 70
   64
 10
0
 20
0
 30
0
  0
LINE
  8
_0-2_寸法
  6
CONTINUOUS
 62
    4
 10
-1304.740332702361
 20
-981.49203228193755
 11
-1331.136611320002
 21
-981.49203228193755
  0
LINE
  8
_0-2_寸法
  6
CONTINUOUS
 62
    4
 10
-1304.740332702361
 20
-991.49203228193755
 11
-1331.136611320002
 21
-991.49203228193755
  0
LINE
  8
_0-2_寸法
  6
CONTINUOUS
 62
    4
 10
-1331.136611320002
 20
-982.49203228193755
 11
-1331.136611320002
 21
-990.49203228193755
  0
INSERT
  2
-000-_Dot
  8
_0-2_寸法
 10
-1331.136611320002
 20
-981.49203228193755
 41
1
 42
1
 50
90
  0
INSERT
  2
-000-_Dot
  8
_0-2_寸法
 10
-1331.136611320002
 20
-991.49203228193755
 41
1
 42
1
 50
270
  0
TEXT
  8
_0-2_寸法
 62
    7
 10
-1332.136611320002
 20
-989.20453228193776
 40
5
 41
1
 50
90
  1
10
  0
POINT
  8
_0-1_Defpoints
 62
    7
 10
-1304.740332702361
 20
-981.49203228193755
  0
POINT
  8
_0-1_Defpoints
 62
    7
 10
-1304.740332702361
 20
-991.49203228193755
  0
POINT
  8
_0-1_Defpoints
 62
    7
 10
-1331.136611320002
 20
-991.49203228193755
  0
ENDBLK
  0
BLOCK
  2
-010-_D98
 70
   64
 10
0
 20
0
 30
0
  0
LINE
  8
_0-2_寸法
  6
CONTINUOUS
 62
    4
 10
-1304.740332702361
 20
-991.49203228193755
 11
-1331.136611320002
 21
-991.49203228193755
  0
LINE
  8
_0-2_寸法
  6
CONTINUOUS
 62
    4
 10
-1304.740332702361
 20
-1001.492032281937
 11
-1331.136611320002
 21
-1001.492032281937
  0
LINE
  8
_0-2_寸法
  6
CONTINUOUS
 62
    4
 10
-1331.136611320002
 20
-992.49203228193744
 11
-1331.136611320002
 21
-1000.492032281937
  0
INSERT
  2
-000-_Dot
  8
_0-2_寸法
 10
-1331.136611320002
 20
-991.49203228193755
 41
1
 42
1
 50
90
  0
INSERT
  2
-000-_Dot
  8
_0-2_寸法
 10
-1331.136611320002
 20
-1001.492032281937
 41
1
 42
1
 50
270
  0
TEXT
  8
_0-2_寸法
 62
    7
 10
-1332.136611320002
 20
-999.20453228193765
 40
5
 41
1
 50
90
  1
10
  0
POINT
  8
_0-1_Defpoints
 62
    7
 10
-1304.740332702361
 20
-991.49203228193755
  0
POINT
  8
_0-1_Defpoints
 62
    7
 10
-1304.740332702361
 20
-1001.492032281937
  0
POINT
  8
_0-1_Defpoints
 62
    7
 10
-1331.136611320002
 20
-1001.492032281937
  0
ENDBLK
  0
BLOCK
  2
-011-_D99
 70
   64
 10
0
 20
0
 30
0
  0
LINE
  8
_0-2_寸法
  6
CONTINUOUS
 62
    4
 10
-1304.740332702361
 20
-1001.492032281937
 11
-1331.136611320002
 21
-1001.492032281937
  0
LINE
  8
_0-2_寸法
  6
CONTINUOUS
 62
    4
 10
-1304.740332702361
 20
-1061.4920322819371
 11
-1331.136611320002
 21
-1061.4920322819371
  0
LINE
  8
_0-2_寸法
  6
CONTINUOUS
 62
    4
 10
-1331.136611320002
 20
-1002.492032281937
 11
-1331.136611320002
 21
-1060.4920322819371
  0
INSERT
  2
-000-_Dot
  8
_0-2_寸法
 10
-1331.136611320002
 20
-1001.492032281937
 41
1
 42
1
 50
90
  0
INSERT
  2
-000-_Dot
  8
_0-2_寸法
 10
-1331.136611320002
 20
-1061.4920322819371
 41
1
 42
1
 50
270
  0
TEXT
  8
_0-2_寸法
 62
    7
 10
-1332.136611320002
 20
-1034.2045322819372
 40
5
 41
1
 50
90
  1
60
  0
POINT
  8
_0-1_Defpoints
 62
    7
 10
-1304.740332702361
 20
-1001.492032281937
  0
POINT
  8
_0-1_Defpoints
 62
    7
 10
-1304.740332702361
 20
-1061.4920322819371
  0
POINT
  8
_0-1_Defpoints
 62
    7
 10
-1331.136611320002
 20
-1061.4920322819371
  0
ENDBLK
  0
BLOCK
  2
-012-_D100
 70
   64
 10
0
 20
0
 30
0
  0
LINE
  8
_0-2_寸法
  6
CONTINUOUS
 62
    4
 10
-1304.740332702361
 20
-1061.4920322819371
 11
-1317.136611320002
 21
-1061.4920322819371
  0
LINE
  8
_0-2_寸法
  6
CONTINUOUS
 62
    4
 10
-1304.740332702361
 20
-1015.492032281937
 11
-1317.136611320002
 21
-1015.492032281937
  0
LINE
  8
_0-2_寸法
  6
CONTINUOUS
 62
    4
 10
-1317.136611320002
 20
-1060.4920322819371
 11
-1317.136611320002
 21
-1016.492032281937
  0
INSERT
  2
-000-_Dot
  8
_0-2_寸法
 10
-1317.136611320002
 20
-1061.4920322819371
 41
1
 42
1
 50
270
  0
INSERT
  2
-000-_Dot
  8
_0-2_寸法
 10
-1317.136611320002
 20
-1015.492032281937
 41
1
 42
1
 50
90
  0
TEXT
  8
_0-2_寸法
 62
    7
 10
-1318.136611320002
 20
-1041.2045322819372
 40
5
 41
1
 50
90
  1
46
  0
POINT
  8
_0-1_Defpoints
 62
    7
 10
-1304.740332702361
 20
-1061.4920322819371
  0
POINT
  8
_0-1_Defpoints
 62
    7
 10
-1304.740332702361
 20
-1015.492032281937
  0
POINT
  8
_0-1_Defpoints
 62
    7
 10
-1317.136611320002
 20
-1015.492032281937
  0
ENDBLK
  0
BLOCK
  2
-013-_D101
 70
   64
 10
0
 20
0
 30
0
  0
LINE
  8
_0-2_寸法
  6
CONTINUOUS
 62
    4
 10
-1282.136611320002
 20
-1081.737071980164
 11
-1282.136611320002
 21
-1099.5291982819369
  0
LINE
  8
_0-2_寸法
  6
CONTINUOUS
 62
    4
 10
-1297.136611320002
 20
-1081.737071980164
 11
-1297.136611320002
 21
-1099.5291982819369
  0
LINE
  8
_0-2_寸法
  6
CONTINUOUS
 62
    4
 10
-1281.136611320002
 20
-1099.5291982819369
 11
-1280.136611320002
 21
-1099.5291982819369
  0
LINE
  8
_0-2_寸法
  6
CONTINUOUS
 62
    4
 10
-1298.136611320002
 20
-1099.5291982819369
 11
-1299.136611320002
 21
-1099.5291982819369
  0
INSERT
  2
-000-_Dot
  8
_0-2_寸法
 10
-1282.136611320002
 20
-1099.5291982819369
 41
1
 42
1
 50
180
  0
INSERT
  2
-000-_Dot
  8
_0-2_寸法
 10
-1297.136611320002
 20
-1099.5291982819369
 41
1
 42
1
 50
0
  0
TEXT
  8
_0-2_寸法
 62
    7
 10
-1296.7366113200019
 20
-1098.5291982819369
 40
5
 41
1
 50
0
  1
15~20
  0
POINT
  8
_0-1_Defpoints
 62
    7
 10
-1282.136611320002
 20
-1081.737071980164
  0
POINT
  8
_0-1_Defpoints
 62
    7
 10
-1297.136611320002
 20
-1081.737071980164
  0
POINT
  8
_0-1_Defpoints
 62
    7
 10
-1297.136611320002
 20
-1099.5291982819369
  0
ENDBLK
  0
BLOCK
  2
-014-_D102
 70
   64
 10
0
 20
0
 30
0
  0
LINE
  8
_0-2_寸法
  6
CONTINUOUS
 62
    4
 10
-1122.136611320002
 20
-1067.128292870832
 11
-1122.136611320002
 21
-1083.041796281937
  0
LINE
  8
_0-2_寸法
  6
CONTINUOUS
 62
    4
 10
-1172.136611320002
 20
-1067.128292870832
 11
-1172.136611320002
 21
-1083.041796281937
  0
LINE
  8
_0-2_寸法
  6
CONTINUOUS
 62
    4
 10
-1123.136611320002
 20
-1083.041796281937
 11
-1171.136611320002
 21
-1083.041796281937
  0
INSERT
  2
-000-_Dot
  8
_0-2_寸法
 10
-1122.136611320002
 20
-1083.041796281937
 41
1
 42
1
 50
0
  0
INSERT
  2
-000-_Dot
  8
_0-2_寸法
 10
-1172.136611320002
 20
-1083.041796281937
 41
1
 42
1
 50
180
  0
TEXT
  8
_0-2_寸法
 62
    7
 10
-1149.8491113200021
 20
-1082.041796281937
 40
5
 41
1
 50
0
  1
50
  0
POINT
  8
_0-1_Defpoints
 62
    7
 10
-1122.136611320002
 20
-1067.128292870832
  0
POINT
  8
_0-1_Defpoints
 62
    7
 10
-1172.136611320002
 20
-1067.128292870832
  0
POINT
  8
_0-1_Defpoints
 62
    7
 10
-1172.136611320002
 20
-1083.041796281937
  0
ENDBLK
  0
BLOCK
  2
-015-_D103
 70
   64
 10
0
 20
0
 30
0
  0
LINE
  8
_0-2_寸法
  6
CONTINUOUS
 62
    4
 10
-1172.136611320002
 20
-1067.128292870832
 11
-1172.136611320002
 21
-1083.041796281937
  0
LINE
  8
_0-2_寸法
  6
CONTINUOUS
 62
    4
 10
-1222.136611320002
 20
-1067.128292870832
 11
-1222.136611320002
 21
-1083.041796281937
  0
LINE
  8
_0-2_寸法
  6
CONTINUOUS
 62
    4
 10
-1173.136611320002
 20
-1083.041796281937
 11
-1221.136611320002
 21
-1083.041796281937
  0
INSERT
  2
-000-_Dot
  8
_0-2_寸法
 10
-1172.136611320002
 20
-1083.041796281937
 41
1
 42
1
 50
0
  0
INSERT
  2
-000-_Dot
  8
_0-2_寸法
 10
-1222.136611320002
 20
-1083.041796281937
 41
1
 42
1
 50
180
  0
TEXT
  8
_0-2_寸法
 62
    7
 10
-1199.8491113200021
 20
-1082.041796281937
 40
5
 41
1
 50
0
  1
50
  0
POINT
  8
_0-1_Defpoints
 62
    7
 10
-1172.136611320002
 20
-1067.128292870832
  0
POINT
  8
_0-1_Defpoints
 62
    7
 10
-1222.136611320002
 20
-1067.128292870832
  0
POINT
  8
_0-1_Defpoints
 62
    7
 10
-1222.136611320002
 20
-1083.041796281937
  0
ENDBLK
  0
ENDSEC
  0
SECTION
  2
ENTITIES
  0
LINE
  8
_0-3_躯体
  6
CONTINUOUS
 62
    4
 10
347.80573649999997
 20
154.52092850000031
 11
98.634163499999886
 21
154.52092850000031
  0
LINE
  8
_0-5_受金具
  6
CONTINUOUS
 62
    4
 10
293.15103550000003
 20
156.52092850000031
 11
198.30573649999997
 21
156.52092850000031
  0
LINE
  8
_0-5_受金具
  6
CONTINUOUS
 62
    4
 10
200.30573649999997
 20
169.56668650000029
 11
203.80573649999997
 21
169.56668650000029
  0
LINE
  8
_0-5_受金具
  6
CONTINUOUS
 62
    4
 10
200.30573649999997
 20
160.52092850000031
 11
247.30573649999997
 21
160.52092850000031
  0
LINE
  8
_0-4_笠木
  6
CONTINUOUS
 62
    4
 10
74.901890500000036
 20
170.61708250000027
 11
320.80573649999997
 21
180.52092849999974
  0
ARC
  8
_0-5_受金具
  6
CONTINUOUS
 62
    4
 10
197.80573649999997
 20
148.19396550000033
 40
25.361985000000001
 50
76.31554500000216
 51
103.6844549999978
  0
ARC
  8
_0-5_受金具
  6
CONTINUOUS
 62
    4
 10
197.80573649999997
 20
146.5666865000004
 40
25
 50
76.113459999998227
 51
103.88654000000169
  0
LINE
  8
_0-4_笠木
  6
CONTINUOUS
 62
    4
 10
77.684959499999877
 20
168.72684450000031
 11
321.67061749999993
 21
178.55738249999979
  0
LINE
  8
_0-5_受金具
  6
CONTINUOUS
 62
    3
 10
201.95101550000004
 20
173.21489549999978
 11
200.18895249999991
 21
171.45283250000034
  0
LINE
  8
_0-5_受金具
  6
CONTINUOUS
 62
    3
 10
201.33780950000005
 20
173.30879649999974
 11
199.53576750000002
 21
171.50675450000028
  0
LINE
  8
_0-5_受金具
  6
CONTINUOUS
 62
    3
 10
200.71091549999983
 20
173.3890084999997
 11
198.86609550000003
 21
171.54418850000025
  0
LINE
  8
_0-5_受金具
  6
CONTINUOUS
 62
    4
 10
84.173108499999898
 20
154.51121850000027
 11
77.411492499999895
 21
120.70314050000036
  0
LINE
  8
_0-5_受金具
  6
CONTINUOUS
 62
    4
 10
81.001852500000041
 20
156.50150950000034
 11
74.805736499999966
 21
125.5209285000002
  0
LINE
  8
_0-3_躯体
  6
CONTINUOUS
 62
    4
 10
89.805736499999966
 20
145.69250150000028
 11
89.805736499999966
 21
43.593928500000288
  0
LINE
  8
_0-3_躯体
  6
CONTINUOUS
 62
    4
 10
87.805736499999966
 20
43.593928500000288
 11
87.805736499999966
 21
146.5209285000002
  0
LINE
  8
_0-2_寸法
  6
CONTINUOUS
 62
    3
 10
147.80573649999997
 20
167.09118450000028
 11
147.80573649999997
 21
87.971164500000327
  0
LINE
  8
_0-2_寸法
  6
CONTINUOUS
 62
    3
 10
197.80573649999997
 20
89.971164500000327
 11
197.80573649999997
 21
218.35827449999965
  0
LINE
  8
_0-5_受金具
  6
PLINE2
 62
    3
 10
143.18250149999994
 20
136.7205495000004
 11
143.07782950000001
 21
134.72329050000019
  0
LINE
  8
_0-5_受金具
  6
PLINE2
 62
    3
 10
145.17976049999993
 20
136.61587750000024
 11
143.18250149999994
 21
136.7205495000004
  0
LINE
  8
_0-5_受金具
  6
PLINE2
 62
    3
 10
145.28443249999987
 20
138.61313650000022
 11
145.17976049999993
 21
136.61587750000024
  0
LINE
  8
_0-5_受金具
  6
PLINE2
 62
    3
 10
145.68332149999992
 20
117.56341250000025
 11
147.30573649999997
 21
148.52092850000031
  0
LINE
  8
_0-5_受金具
  6
PLINE2
 62
    3
 10
144.39588749999984
 20
136.66485550000027
 11
142.85020650000001
 21
141.7205495000004
  0
LINE
  8
_0-5_受金具
  6
PLINE2
 62
    3
 10
151.36625149999986
 20
136.66485550000027
 11
152.91193249999992
 21
141.7205495000004
  0
LINE
  8
_0-4_笠木
  6
CONTINUOUS
 62
    4
 10
74.805736499999966
 20
120.5209285000002
 11
74.805736499999966
 21
165.72927750000031
  0
LINE
  8
_0-4_笠木
  6
CONTINUOUS
 62
    4
 10
72.805736499999966
 20
111.0209285000002
 11
72.805736499999966
 21
168.52092850000031
  0
LINE
  8
_0-5_受金具
  6
PLINE2
 62
    3
 10
152.42897149999999
 20
136.7205495000004
 11
152.53364349999993
 21
134.72329050000019
  0
LINE
  8
_0-5_受金具
  6
PLINE2
 62
    3
 10
150.4317125
 20
136.61587750000024
 11
152.42897149999999
 21
136.7205495000004
  0
LINE
  8
_0-5_受金具
  6
PLINE2
 62
    3
 10
150.32704049999984
 20
138.61313650000022
 11
150.4317125
 21
136.61587750000024
  0
LINE
  8
_0-5_受金具
  6
PLINE2
 62
    3
 10
149.92815150000001
 20
117.56341250000025
 11
148.30573649999997
 21
148.52092850000031
  0
ARC
  8
_0-4_笠木
  6
CONTINUOUS
 62
    4
 10
77.305736499999966
 20
119.89564050000024
 40
1.5
 50
287.74086800000049
 51
0.0000000000000127
  0
ARC
  8
_0-4_笠木
  6
CONTINUOUS
 62
    4
 10
78.305736499999966
 20
120.26445150000029
 40
0.5
 50
0
 51
93.99999999999649
  0
LINE
  8
_0-4_笠木
  6
CONTINUOUS
 62
    4
 10
74.805736499999966
 20
117.5209285000002
 11
74.805736499999966
 21
111.0209285000002
  0
ARC
  8
_0-4_笠木
  6
CONTINUOUS
 62
    4
 10
74.305736499999966
 20
111.0209285000002
 40
0.5
 50
270
 51
0
  0
ARC
  8
_0-4_笠木
  6
CONTINUOUS
 62
    4
 10
73.305736499999966
 20
111.0209285000002
 40
0.5
 50
180
 51
270
  0
LINE
  8
_0-4_笠木
  6
CONTINUOUS
 62
    4
 10
74.305736499999966
 20
110.5209285000002
 11
73.305736499999966
 21
110.5209285000002
  0
LINE
  8
_0-4_笠木
  6
CONTINUOUS
 62
    4
 10
77.762805500000013
 20
118.46697350000034
 11
74.805736499999966
 21
117.5209285000002
  0
LINE
  8
_0-4_笠木
  6
CONTINUOUS
 62
    4
 10
74.805736499999966
 20
120.5209285000002
 11
78.270858500000031
 21
120.76323350000018
  0
LINE
  8
_0-3_躯体
  6
CONTINUOUS
 62
    3
 10
89.805736499999966
 20
133.46302150000031
 11
179.67482949999999
 21
43.593928500000288
  0
LINE
  8
_0-3_躯体
  6
CONTINUOUS
 62
    3
 10
176.84640249999984
 20
43.593928500000288
 11
89.805736499999966
 21
130.63459450000039
  0
LINE
  8
_0-3_躯体
  6
CONTINUOUS
 62
    3
 10
89.805736499999966
 20
127.80616750000024
 11
174.01797550000083
 21
43.593928500000288
  0
LINE
  8
_0-4_笠木
  6
CONTINUOUS
 62
    4
 10
78.805736499999966
 20
120.26445150000029
 11
78.805736499999966
 21
119.89564050000024
  0
LINE
  8
_0-5_受金具
  6
PLINE2
 62
    3
 10
152.95233050000002
 20
126.73425450000025
 11
153.05700249999995
 21
124.73699550000026
  0
LINE
  8
_0-5_受金具
  6
PLINE2
 62
    3
 10
142.65914150000003
 20
126.73425450000025
 11
142.55447049999998
 21
124.73699550000026
  0
LINE
  8
_0-5_受金具
  6
PLINE2
 62
    3
 10
145.93629149999992
 20
122.39037250000035
 11
147.80573649999997
 21
120.5209285000002
  0
LINE
  8
_0-5_受金具
  6
PLINE2
 62
    3
 10
142.39746249999985
 20
121.74110650000023
 11
142.29279049999991
 21
119.74384750000024
  0
LINE
  8
_0-5_受金具
  6
PLINE2
 62
    3
 10
142.29279049999991
 20
119.74384750000024
 11
144.18537749999996
 21
117.64191650000032
  0
LINE
  8
_0-5_受金具
  6
PLINE2
 62
    3
 10
145.78799349999986
 20
119.56067150000024
 11
142.29279049999991
 21
119.74384750000024
  0
LINE
  8
_0-5_受金具
  6
PLINE2
 62
    3
 10
144.18537749999996
 20
117.64191650000032
 11
145.68332149999992
 21
117.56341250000025
  0
LINE
  8
_0-5_受金具
  6
PLINE2
 62
    3
 10
144.39472149999983
 20
121.63643450000029
 11
142.39746249999985
 21
121.74110650000023
  0
LINE
  8
_0-5_受金具
  6
PLINE2
 62
    3
 10
142.55447049999998
 20
124.73699550000026
 11
144.4993935
 21
123.63369350000028
  0
LINE
  8
_0-5_受金具
  6
PLINE2
 62
    3
 10
144.4993935
 20
123.63369350000028
 11
144.39472149999983
 21
121.63643450000029
  0
LINE
  8
_0-5_受金具
  6
PLINE2
 62
    3
 10
147.74643049999986
 20
120.5802345000003
 11
149.68013150000002
 21
122.29590550000023
  0
LINE
  8
_0-5_受金具
  6
PLINE2
 62
    3
 10
153.21401049999986
 20
121.74110650000023
 11
153.31868250000002
 21
119.74384750000024
  0
LINE
  8
_0-5_受金具
  6
PLINE2
 62
    3
 10
151.42609549999997
 20
117.64191650000032
 11
149.92815150000001
 21
117.56341250000025
  0
LINE
  8
_0-5_受金具
  6
PLINE2
 62
    3
 10
149.82347949999985
 20
119.56067150000024
 11
153.31868250000002
 21
119.74384750000024
  0
LINE
  8
_0-5_受金具
  6
PLINE2
 62
    3
 10
153.31868250000002
 20
119.74384750000024
 11
151.42609549999997
 21
117.64191650000032
  0
LINE
  8
_0-5_受金具
  6
PLINE2
 62
    3
 10
151.21675149999987
 20
121.63643450000029
 11
153.21401049999986
 21
121.74110650000023
  0
LINE
  8
_0-5_受金具
  6
PLINE2
 62
    3
 10
151.11207949999994
 20
123.63369350000028
 11
151.21675149999987
 21
121.63643450000029
  0
LINE
  8
_0-5_受金具
  6
PLINE2
 62
    3
 10
153.05700249999995
 20
124.73699550000026
 11
151.11207949999994
 21
123.63369350000028
  0
LINE
  8
_0-5_受金具
  6
PLINE2
 62
    3
 10
142.92082149999987
 20
131.72740250000027
 11
142.81614949999994
 21
129.73014350000028
  0
LINE
  8
_0-5_受金具
  6
PLINE2
 62
    3
 10
144.6564014999999
 20
126.62958250000031
 11
142.65914150000003
 21
126.73425450000025
  0
LINE
  8
_0-5_受金具
  6
PLINE2
 62
    3
 10
142.81614949999994
 20
129.73014350000028
 11
144.76107249999995
 21
128.6268415000003
  0
LINE
  8
_0-5_受金具
  6
PLINE2
 62
    3
 10
144.76107249999995
 20
128.6268415000003
 11
144.6564014999999
 21
126.62958250000031
  0
LINE
  8
_0-5_受金具
  6
PLINE2
 62
    3
 10
143.07782950000001
 20
134.72329050000019
 11
145.02275250000002
 21
133.61998950000032
  0
LINE
  8
_0-5_受金具
  6
PLINE2
 62
    3
 10
144.91808049999986
 20
131.62273050000033
 11
142.92082149999987
 21
131.72740250000027
  0
LINE
  8
_0-5_受金具
  6
PLINE2
 62
    3
 10
145.02275250000002
 20
133.61998950000032
 11
144.91808049999986
 21
131.62273050000033
  0
LINE
  8
_0-5_受金具
  6
PLINE2
 62
    3
 10
152.69065049999995
 20
131.72740250000027
 11
152.79532249999988
 21
129.73014350000028
  0
LINE
  8
_0-5_受金具
  6
PLINE2
 62
    3
 10
150.95507150000003
 20
126.62958250000031
 11
152.95233050000002
 21
126.73425450000025
  0
LINE
  8
_0-5_受金具
  6
PLINE2
 62
    3
 10
150.85039949999987
 20
128.6268415000003
 11
150.95507150000003
 21
126.62958250000031
  0
LINE
  8
_0-5_受金具
  6
PLINE2
 62
    3
 10
152.79532249999988
 20
129.73014350000028
 11
150.85039949999987
 21
128.6268415000003
  0
LINE
  8
_0-5_受金具
  6
PLINE2
 62
    3
 10
150.69339149999996
 20
131.62273050000033
 11
152.69065049999995
 21
131.72740250000027
  0
LINE
  8
_0-5_受金具
  6
PLINE2
 62
    3
 10
152.53364349999993
 20
134.72329050000019
 11
150.58872049999991
 21
133.61998950000032
  0
LINE
  8
_0-5_受金具
  6
PLINE2
 62
    3
 10
150.58872049999991
 20
133.61998950000032
 11
150.69339149999996
 21
131.62273050000033
  0
ARC
  8
_0-4_笠木
  6
CONTINUOUS
 62
    4
 10
77.805736499999966
 20
165.72927750000031
 40
3
 50
92.307281999995084
 51
180
  0
LINE
  8
_0-4_笠木
  6
CONTINUOUS
 62
    4
 10
72.805736499999966
 20
168.52092850000031
 11
74.901890500000036
 21
170.61708250000027
  0
LINE
  8
_0-5_受金具
  6
CONTINUOUS
 62
    4
 10
111.30573649999997
 20
160.52092850000031
 11
147.30573649999997
 21
160.52092850000031
  0
LINE
  8
_0-5_受金具
  6
CONTINUOUS
 62
    4
 10
86.624559500000032
 20
156.52092850000031
 11
197.30573649999997
 21
156.52092850000031
  0
LINE
  8
_0-5_受金具
  6
CONTINUOUS
 62
    3
 10
135.30573649999997
 20
161.52092850000031
 11
160.30573649999997
 21
161.52092850000031
  0
ARC
  8
_0-5_受金具
  6
CONTINUOUS
 62
    4
 10
108.80573649999997
 20
144.60802550000028
 40
25.361985000000001
 50
76.31554500000216
 51
103.6844549999978
  0
ARC
  8
_0-5_受金具
  6
CONTINUOUS
 62
    4
 10
108.80573649999997
 20
142.98074650000024
 40
25
 50
76.113459999998227
 51
103.88654000000169
  0
LINE
  8
_0-5_受金具
  6
CONTINUOUS
 62
    3
 10
110.30491349999988
 20
169.92566250000027
 11
108.35595049999984
 21
167.97669950000034
  0
LINE
  8
_0-5_受金具
  6
CONTINUOUS
 62
    3
 10
109.62879550000002
 20
169.95665150000025
 11
107.62499149999985
 21
167.9528475000003
  0
LINE
  8
_0-5_受金具
  6
CONTINUOUS
 62
    3
 10
108.93471950000003
 20
169.96968250000032
 11
106.87079049999988
 21
167.90575350000029
  0
ARC
  8
_0-5_受金具
  6
CONTINUOUS
 62
    4
 10
85.904755499999965
 20
155.52092850000031
 40
5
 50
90
 51
168.69006800000301
  0
LINE
  8
_0-3_躯体
  6
CONTINUOUS
 62
    4
 10
98.634163499999886
 20
154.52092850000031
 11
89.805736499999966
 21
145.69250150000028
  0
LINE
  8
_0-3_躯体
  6
CONTINUOUS
 62
    4
 10
87.805736499999966
 20
146.5209285000002
 11
97.805736499999966
 21
156.52092850000031
  0
ARC
  8
_0-5_受金具
  6
CONTINUOUS
 62
    4
 10
86.624559500000032
 20
154.02092850000031
 40
2.5
 50
90
 51
168.69006800000301
  0
LINE
  8
_0-5_受金具
  6
CONTINUOUS
 62
    4
 10
106.30573649999997
 20
160.52092850000031
 11
85.904755499999965
 21
160.52092850000031
  0
LINE
  8
_0-5_受金具
  6
CONTINUOUS
 62
    4
 10
102.80573649999997
 20
169.25006850000034
 11
102.80573649999997
 21
167.25006850000034
  0
LINE
  8
_0-5_受金具
  6
CONTINUOUS
 62
    3
 10
108.22120449999989
 20
169.96327350000024
 11
106.09082450000005
 21
167.83289450000029
  0
LINE
  8
_0-5_受金具
  6
CONTINUOUS
 62
    3
 10
107.48650049999992
 20
169.93567650000034
 11
105.2819884999999
 21
167.73116450000032
  0
LINE
  8
_0-5_受金具
  6
CONTINUOUS
 62
    3
 10
106.72851949999995
 20
169.88480250000032
 11
104.44038750000004
 21
167.5966705000003
  0
LINE
  8
_0-5_受金具
  6
CONTINUOUS
 62
    3
 10
105.94473349999998
 20
169.80812350000031
 11
103.56102650000003
 21
167.42441650000035
  0
LINE
  8
_0-5_受金具
  6
CONTINUOUS
 62
    3
 10
104.28652349999993
 20
169.56412750000027
 11
102.80573649999997
 21
168.08333950000031
  0
LINE
  8
_0-5_受金具
  6
CONTINUOUS
 62
    3
 10
105.13203449999992
 20
169.70253050000031
 11
102.80573649999997
 21
167.37623350000024
  0
LINE
  8
_0-5_受金具
  6
CONTINUOUS
 62
    4
 10
107.30573649999997
 20
164.98074650000035
 11
107.30573649999997
 21
161.52092850000031
  0
ARC
  8
_0-5_受金具
  6
CONTINUOUS
 62
    4
 10
106.30573649999997
 20
161.52092850000031
 40
1
 50
270
 51
0
  0
LINE
  8
_0-5_受金具
  6
CONTINUOUS
 62
    4
 10
106.30573649999997
 20
165.98074650000035
 11
102.80573649999997
 21
165.98074650000035
  0
LINE
  8
_0-5_受金具
  6
CONTINUOUS
 62
    4
 10
102.80573649999997
 20
167.25006850000034
 11
102.80573649999997
 21
165.98074650000035
  0
ARC
  8
_0-5_受金具
  6
CONTINUOUS
 62
    4
 10
106.30573649999997
 20
164.98074650000035
 40
1
 50
0
 51
90
  0
LINE
  8
_0-5_受金具
  6
CONTINUOUS
 62
    3
 10
103.40320550000001
 20
169.3879155000003
 11
102.80573649999997
 21
168.79044650000026
  0
LINE
  8
_0-5_受金具
  6
CONTINUOUS
 62
    4
 10
114.80573649999997
 20
169.25006850000034
 11
114.80573649999997
 21
167.25006850000034
  0
LINE
  8
_0-5_受金具
  6
CONTINUOUS
 62
    3
 10
113.56052649999992
 20
167.52442150000024
 11
114.80573649999997
 21
168.76963150000029
  0
LINE
  8
_0-5_受金具
  6
CONTINUOUS
 62
    3
 10
114.62287349999997
 20
169.29387550000024
 11
112.96185749999995
 21
167.63285950000034
  0
LINE
  8
_0-5_受金具
  6
CONTINUOUS
 62
    3
 10
114.04486750000001
 20
169.42297650000035
 11
112.35011050000003
 21
167.72821950000025
  0
LINE
  8
_0-5_受金具
  6
CONTINUOUS
 62
    3
 10
113.45500949999996
 20
169.54022450000025
 11
111.72455649999984
 21
167.80977150000035
  0
LINE
  8
_0-5_受金具
  6
CONTINUOUS
 62
    3
 10
112.85272050000003
 20
169.64504250000027
 11
111.08436449999999
 21
167.87668650000035
  0
LINE
  8
_0-5_受金具
  6
CONTINUOUS
 62
    3
 10
112.23735149999993
 20
169.73678050000035
 11
110.42858849999993
 21
167.92801750000035
  0
LINE
  8
_0-5_受金具
  6
CONTINUOUS
 62
    3
 10
111.60816849999992
 20
169.81470450000029
 11
109.75613849999991
 21
167.96267450000028
  0
LINE
  8
_0-5_受金具
  6
CONTINUOUS
 62
    3
 10
110.96433950000005
 20
169.87798250000026
 11
109.06575150000003
 21
167.97939450000024
  0
LINE
  8
_0-5_受金具
  6
CONTINUOUS
 62
    4
 10
110.30573649999997
 20
161.52092850000031
 11
110.30573649999997
 21
164.98074650000035
  0
ARC
  8
_0-5_受金具
  6
CONTINUOUS
 62
    4
 10
111.30573649999997
 20
161.52092850000031
 40
1
 50
180
 51
270
  0
LINE
  8
_0-5_受金具
  6
CONTINUOUS
 62
    4
 10
111.30573649999997
 20
165.98074650000035
 11
114.80573649999997
 21
165.98074650000035
  0
ARC
  8
_0-5_受金具
  6
CONTINUOUS
 62
    4
 10
111.30573649999997
 20
164.98074650000035
 40
1
 50
90
 51
180
  0
LINE
  8
_0-5_受金具
  6
CONTINUOUS
 62
    4
 10
114.80573649999997
 20
165.98074650000035
 11
114.80573649999997
 21
167.25006850000034
  0
LINE
  8
_0-5_受金具
  6
CONTINUOUS
 62
    3
 10
114.72114450000004
 20
167.27082550000034
 11
114.80573649999997
 21
167.35541750000027
  0
LINE
  8
_0-5_受金具
  6
CONTINUOUS
 62
    3
 10
114.14676349999991
 20
167.40355150000028
 11
114.80573649999997
 21
168.06252450000034
  0
LINE
  8
_0-5_受金具
  6
CONTINUOUS
 62
    3
 10
135.30573649999997
 20
160.52092850000031
 11
135.30573649999997
 21
161.52092850000031
  0
LINE
  8
_0-5_受金具
  6
CONTINUOUS
 62
    4
 10
195.30573649999997
 20
160.52092850000031
 11
148.30573649999997
 21
160.52092850000031
  0
LINE
  8
_0-5_受金具
  6
PLINE2
 62
    3
 10
153.92572649999988
 20
141.7205495000004
 11
154.81612749999999
 21
147.06295350000039
  0
ARC
  8
_0-5_受金具
  6
PLINE2
 62
    3
 10
154.32293049999998
 20
147.14515350000022
 40
0.5
 50
350.53767799999275
 51
170.53767799999278
  0
LINE
  8
_0-5_受金具
  6
PLINE2
 62
    3
 10
143.80573649999997
 20
144.5209285000002
 11
143.80573649999997
 21
148.52092850000031
  0
ARC
  8
_0-5_受金具
  6
PLINE2
 62
    3
 10
141.43920949999983
 20
147.14515350000022
 40
0.5
 50
9.4623220000071342
 51
189.46232199999423
  0
LINE
  8
_0-5_受金具
  6
PLINE2
 62
    3
 10
151.80573649999997
 20
144.5209285000002
 11
151.80573649999997
 21
148.52092850000031
  0
LINE
  8
_0-5_受金具
  6
PLINE2
 62
    3
 10
145.54611249999994
 20
143.60628450000024
 11
145.4414405
 21
141.60902550000026
  0
LINE
  8
_0-5_受金具
  6
PLINE2
 62
    3
 10
142.85020650000001
 20
141.7205495000004
 11
141.93240649999984
 21
147.22735250000039
  0
LINE
  8
_0-5_受金具
  6
PLINE2
 62
    3
 10
141.83641349999994
 20
141.7205495000004
 11
140.94601250000005
 21
147.06295350000039
  0
LINE
  8
_0-5_受金具
  6
PLINE2
 62
    3
 10
143.33316849999983
 20
136.7205495000004
 11
141.83641349999994
 21
141.7205495000004
  0
LINE
  8
_0-5_受金具
  6
PLINE2
 62
    3
 10
143.33950949999985
 20
139.71643850000021
 11
145.28443249999987
 21
138.61313650000022
  0
LINE
  8
_0-5_受金具
  6
PLINE2
 62
    3
 10
143.44418150000001
 20
141.71369750000019
 11
143.33950949999985
 21
139.71643850000021
  0
LINE
  8
_0-5_受金具
  6
PLINE2
 62
    3
 10
145.4414405
 20
141.60902550000026
 11
143.44418150000001
 21
141.71369750000019
  0
LINE
  8
_0-5_受金具
  6
PLINE2
 62
    3
 10
143.80573649999997
 20
144.5209285000002
 11
145.54611249999994
 21
143.60628450000024
  0
LINE
  8
_0-5_受金具
  6
PLINE2
 62
    3
 10
152.91193249999992
 20
141.7205495000004
 11
153.82973349999997
 21
147.22735250000039
  0
LINE
  8
_0-5_受金具
  6
PLINE2
 62
    3
 10
150.0653605
 20
143.60628450000024
 11
150.17003249999993
 21
141.60902550000026
  0
LINE
  8
_0-5_受金具
  6
PLINE2
 62
    3
 10
152.27196349999986
 20
139.71643850000021
 11
150.32704049999984
 21
138.61313650000022
  0
LINE
  8
_0-5_受金具
  6
PLINE2
 62
    3
 10
150.17003249999993
 20
141.60902550000026
 11
152.16729149999992
 21
141.71369750000019
  0
LINE
  8
_0-5_受金具
  6
PLINE2
 62
    3
 10
152.42897149999999
 20
136.7205495000004
 11
153.92572649999988
 21
141.7205495000004
  0
LINE
  8
_0-5_受金具
  6
PLINE2
 62
    3
 10
152.16729149999992
 20
141.71369750000019
 11
152.27196349999986
 21
139.71643850000021
  0
LINE
  8
_0-5_受金具
  6
PLINE2
 62
    3
 10
151.80573649999997
 20
144.5209285000002
 11
150.0653605
 21
143.60628450000024
  0
LINE
  8
_0-5_受金具
  6
PLINE2
 62
    3
 10
146.80573649999997
 20
156.52092850000031
 11
147.80573649999997
 21
151.52092850000031
  0
LINE
  8
_0-5_受金具
  6
PLINE2
 62
    3
 10
142.80573649999997
 20
156.52092850000031
 11
147.80573649999997
 21
156.52092850000031
  0
LINE
  8
_0-5_受金具
  6
PLINE2
 62
    3
 10
142.80573649999997
 20
156.52092850000031
 11
143.80573649999997
 21
151.52092850000031
  0
LINE
  8
_0-5_受金具
  6
PLINE2
 62
    3
 10
143.80573649999997
 20
156.52092850000031
 11
143.80573649999997
 21
148.52092850000031
  0
LINE
  8
_0-5_受金具
  6
PLINE2
 62
    3
 10
147.80573649999997
 20
151.52092850000031
 11
147.80573649999997
 21
156.52092850000031
  0
LINE
  8
_0-5_受金具
  6
PLINE2
 62
    3
 10
148.80573649999997
 20
156.52092850000031
 11
147.80573649999997
 21
151.52092850000031
  0
LINE
  8
_0-5_受金具
  6
PLINE2
 62
    3
 10
152.80573649999997
 20
156.52092850000031
 11
151.80573649999997
 21
151.52092850000031
  0
LINE
  8
_0-5_受金具
  6
PLINE2
 62
    3
 10
151.80573649999997
 20
156.52092850000031
 11
151.80573649999997
 21
148.52092850000031
  0
LINE
  8
_0-5_受金具
  6
PLINE2
 62
    3
 10
147.30573649999997
 20
148.52092850000031
 11
147.80573649999997
 21
148.52092850000031
  0
LINE
  8
_0-5_受金具
  6
PLINE2
 62
    3
 10
148.30573649999997
 20
148.52092850000031
 11
147.80573649999997
 21
148.52092850000031
  0
LINE
  8
_0-5_受金具
  6
PLINE2
 62
    3
 10
152.80573649999997
 20
156.52092850000031
 11
147.80573649999997
 21
156.52092850000031
  0
ARC
  8
_0-5_受金具
  6
CONTINUOUS
 62
    4
 10
147.80573649999997
 20
159.52092850000031
 40
5.4000000000000004
 50
90
 51
128.85106200000621
  0
ARC
  8
_0-5_受金具
  6
CONTINUOUS
 62
    4
 10
146.30297449999989
 20
161.39221850000024
 40
3
 50
128.61463799999811
 51
177.54107400000379
  0
ARC
  8
_0-5_受金具
  6
CONTINUOUS
 62
    4
 10
149.30849850000004
 20
161.39221850000024
 40
3
 50
2.4589259999961444
 51
51.385362000001884
  0
LINE
  8
_0-5_受金具
  6
CONTINUOUS
 62
    3
 10
147.30573649999997
 20
160.52092850000031
 11
148.30573649999997
 21
160.52092850000031
  0
LINE
  8
_0-5_受金具
  6
CONTINUOUS
 62
    4
 10
147.80573649999997
 20
160.02092850000031
 11
147.30573649999997
 21
160.52092850000031
  0
LINE
  8
_0-5_受金具
  6
CONTINUOUS
 62
    4
 10
147.80573649999997
 20
160.02092850000031
 11
148.30573649999997
 21
160.52092850000031
  0
ARC
  8
_0-5_受金具
  6
CONTINUOUS
 62
    4
 10
147.80573649999997
 20
159.52092850000031
 40
5.4000000000000004
 50
51.317813000006751
 51
90
  0
LINE
  8
_0-5_受金具
  6
CONTINUOUS
 62
    3
 10
160.30573649999997
 20
161.52092850000031
 11
160.30573649999997
 21
160.52092850000031
  0
LINE
  8
_0-5_受金具
  6
CONTINUOUS
 62
    4
 10
197.80573649999997
 20
157.02092850000031
 11
198.30573649999997
 21
156.52092850000031
  0
LINE
  8
_0-5_受金具
  6
CONTINUOUS
 62
    4
 10
197.30573649999997
 20
156.52092850000031
 11
197.80573649999997
 21
157.02092850000031
  0
LINE
  8
_0-5_受金具
  6
CONTINUOUS
 62
    4
 10
199.30573649999997
 20
168.56668650000029
 11
199.30573649999997
 21
161.52092850000031
  0
LINE
  8
_0-5_受金具
  6
CONTINUOUS
 62
    4
 10
196.30573649999997
 20
161.52092850000031
 11
196.30573649999997
 21
168.56668650000029
  0
ARC
  8
_0-5_受金具
  6
CONTINUOUS
 62
    4
 10
195.30573649999997
 20
161.52092850000031
 40
1
 50
270
 51
0
  0
ARC
  8
_0-5_受金具
  6
CONTINUOUS
 62
    4
 10
200.30573649999997
 20
161.52092850000031
 40
1
 50
180
 51
270
  0
LINE
  8
_0-5_受金具
  6
CONTINUOUS
 62
    4
 10
195.30573649999997
 20
169.56668650000029
 11
191.80573649999997
 21
169.56668650000029
  0
LINE
  8
_0-5_受金具
  6
CONTINUOUS
 62
    3
 10
195.07339049999996
 20
173.40833749999967
 11
192.70608349999998
 21
171.04103050000026
  0
LINE
  8
_0-5_受金具
  6
CONTINUOUS
 62
    3
 10
193.42571049999992
 20
173.17487149999977
 11
191.80573649999997
 21
171.55489750000027
  0
LINE
  8
_0-5_受金具
  6
CONTINUOUS
 62
    3
 10
194.26560849999987
 20
173.30766249999965
 11
191.80573649999997
 21
170.84779050000031
  0
LINE
  8
_0-5_受金具
  6
CONTINUOUS
 62
    4
 10
191.80573649999997
 20
172.83600849999971
 11
191.80573649999997
 21
170.83600850000028
  0
LINE
  8
_0-5_受金具
  6
CONTINUOUS
 62
    4
 10
191.80573649999997
 20
170.83600850000028
 11
191.80573649999997
 21
169.56668650000029
  0
LINE
  8
_0-5_受金具
  6
CONTINUOUS
 62
    3
 10
192.54890449999994
 20
173.00517249999973
 11
191.80573649999997
 21
172.26200449999976
  0
LINE
  8
_0-5_受金具
  6
CONTINUOUS
 62
    3
 10
198.04827049999994
 20
173.55479049999974
 11
195.99446549999993
 21
171.5009855000003
  0
LINE
  8
_0-5_受金具
  6
CONTINUOUS
 62
    3
 10
197.3380095
 20
173.55163749999974
 11
195.21886049999989
 21
171.43248750000032
  0
LINE
  8
_0-5_受金具
  6
CONTINUOUS
 62
    3
 10
196.60686450000003
 20
173.52759849999984
 11
194.41493449999984
 21
171.33566750000034
  0
ARC
  8
_0-5_受金具
  6
CONTINUOUS
 62
    4
 10
195.30573649999997
 20
168.56668650000029
 40
1
 50
0
 51
90
  0
LINE
  8
_0-5_受金具
  6
CONTINUOUS
 62
    3
 10
195.85280749999993
 20
173.4806484999998
 11
193.57893850000005
 21
171.20677950000027
  0
LINE
  8
_0-5_受金具
  6
CONTINUOUS
 62
    4
 10
197.80573649999997
 20
171.06668650000029
 11
198.30083349999995
 21
171.56178350000027
  0
LINE
  8
_0-5_受金具
  6
CONTINUOUS
 62
    4
 10
197.30573649999997
 20
171.56668650000029
 11
197.80573649999997
 21
171.06668650000029
  0
ARC
  8
_0-5_受金具
  6
CONTINUOUS
 62
    4
 10
200.30573649999997
 20
168.56668650000029
 40
1
 50
90
 51
180
  0
LINE
  8
_0-5_受金具
  6
CONTINUOUS
 62
    3
 10
200.06951749999985
 20
173.45471749999979
 11
198.17870349999998
 21
171.56390350000027
  0
LINE
  8
_0-5_受金具
  6
CONTINUOUS
 62
    3
 10
199.41268349999996
 20
173.50499049999985
 11
197.47215349999988
 21
171.56446050000034
  0
LINE
  8
_0-5_受金具
  6
CONTINUOUS
 62
    3
 10
198.73934749999989
 20
173.53876049999974
 11
196.74474850000001
 21
171.54416250000031
  0
LINE
  8
_0-3_躯体
  6
CONTINUOUS
 62
    3
 10
310.80573649999997
 20
83.470052500000406
 11
253.60998649999988
 21
140.66580150000038
  0
LINE
  8
_0-3_躯体
  6
CONTINUOUS
 62
    3
 10
387.19426349999981
 20
137.84496950000027
 11
318.80573649999997
 21
69.456442500000207
  0
LINE
  8
_0-3_躯体
  6
CONTINUOUS
 62
    3
 10
318.80573649999997
 20
71.577762500000404
 11
387.19426349999981
 21
139.96628950000024
  0
LINE
  8
_0-3_躯体
  6
CONTINUOUS
 62
    3
 10
252.95835949999991
 20
138.48900250000031
 11
310.80573649999997
 21
80.641625500000259
  0
LINE
  8
_0-3_躯体
  6
CONTINUOUS
 62
    4
 10
347.80573649999997
 20
154.52092850000031
 11
347.80573649999997
 21
123.64528450000023
  0
LINE
  8
_0-2_寸法
  6
CONTINUOUS
 62
    3
 10
247.80573649999997
 20
167.09118450000028
 11
247.80573649999997
 21
87.971164500000327
  0
LINE
  8
_0-5_受金具
  6
PLINE2
 62
    3
 10
244.39588749999984
 20
136.66485550000027
 11
242.85020650000001
 21
141.7205495000004
  0
LINE
  8
_0-5_受金具
  6
PLINE2
 62
    3
 10
251.36625149999986
 20
136.66485550000027
 11
252.91193249999992
 21
141.7205495000004
  0
LINE
  8
_0-5_受金具
  6
PLINE2
 62
    3
 10
252.42897149999999
 20
136.7205495000004
 11
252.53364349999993
 21
134.72329050000019
  0
LINE
  8
_0-5_受金具
  6
PLINE2
 62
    3
 10
250.4317125
 20
136.61587750000024
 11
252.42897149999999
 21
136.7205495000004
  0
LINE
  8
_0-5_受金具
  6
PLINE2
 62
    3
 10
250.32704049999984
 20
138.61313650000022
 11
250.4317125
 21
136.61587750000024
  0
LINE
  8
_0-5_受金具
  6
PLINE2
 62
    3
 10
249.92815150000001
 20
117.56341250000025
 11
248.30573649999997
 21
148.52092850000031
  0
LINE
  8
_0-5_受金具
  6
PLINE2
 62
    3
 10
243.18250149999994
 20
136.7205495000004
 11
243.07782950000001
 21
134.72329050000019
  0
LINE
  8
_0-5_受金具
  6
PLINE2
 62
    3
 10
245.17976049999993
 20
136.61587750000024
 11
243.18250149999994
 21
136.7205495000004
  0
LINE
  8
_0-5_受金具
  6
PLINE2
 62
    3
 10
245.28443249999987
 20
138.61313650000022
 11
245.17976049999993
 21
136.61587750000024
  0
LINE
  8
_0-5_受金具
  6
PLINE2
 62
    3
 10
245.68332149999992
 20
117.56341250000025
 11
247.30573649999997
 21
148.52092850000031
  0
LINE
  8
_0-3_躯体
  6
CONTINUOUS
 62
    3
 10
318.80573649999997
 20
67.335121500000355
 11
387.19426349999981
 21
135.72364950000031
  0
LINE
  8
_0-3_躯体
  6
CONTINUOUS
 62
    4
 10
319.80573649999997
 20
107.47947650000026
 11
347.80573649999997
 21
123.64528450000023
  0
LINE
  8
_0-3_躯体
  6
CONTINUOUS
 62
    3
 10
318.80573649999997
 20
109.21152750000022
 11
346.58573749999994
 21
125.25031850000039
  0
LINE
  8
_0-3_躯体
  6
CONTINUOUS
 62
    3
 10
317.80573649999997
 20
110.9435785000004
 11
344.87753350000003
 21
126.5734875000004
  0
LINE
  8
_0-3_躯体
  6
CONTINUOUS
 62
    3
 10
316.80573649999997
 20
112.67562850000024
 11
342.46010849999993
 21
127.48718750000023
  0
LINE
  8
_0-3_躯体
  6
CONTINUOUS
 62
    4
 10
315.80573649999997
 20
114.4076795000002
 11
336.87753350000003
 21
126.5734875000004
  0
LINE
  8
_0-3_躯体
  6
CONTINUOUS
 62
    4
 10
318.80573649999997
 20
105.7474255000003
 11
318.80573649999997
 21
43.593928500000288
  0
LINE
  8
_0-3_躯体
  6
CONTINUOUS
 62
    3
 10
316.80573649999997
 20
105.7474255000003
 11
316.80573649999997
 21
43.593928500000288
  0
LINE
  8
_0-3_躯体
  6
CONTINUOUS
 62
    3
 10
314.80573649999997
 20
105.7474255000003
 11
314.80573649999997
 21
43.593928500000288
  0
LINE
  8
_0-3_躯体
  6
CONTINUOUS
 62
    3
 10
312.80573649999997
 20
105.7474255000003
 11
312.80573649999997
 21
43.593928500000288
  0
LINE
  8
_0-3_躯体
  6
CONTINUOUS
 62
    4
 10
310.80573649999997
 20
105.7474255000003
 11
310.80573649999997
 21
43.593928500000288
  0
LINE
  8
_0-3_躯体
  6
CONTINUOUS
 62
    3
 10
310.80573649999997
 20
77.813197500000229
 11
252.45831550000003
 21
136.1606185000004
  0
LINE
  8
_0-5_受金具
  6
PLINE2
 62
    3
 10
245.93629149999992
 20
122.39037250000035
 11
247.80573649999997
 21
120.5209285000002
  0
LINE
  8
_0-5_受金具
  6
PLINE2
 62
    3
 10
242.65914150000003
 20
126.73425450000025
 11
242.55447049999998
 21
124.73699550000026
  0
LINE
  8
_0-5_受金具
  6
PLINE2
 62
    3
 10
242.39746249999985
 20
121.74110650000023
 11
242.29279049999991
 21
119.74384750000024
  0
LINE
  8
_0-5_受金具
  6
PLINE2
 62
    3
 10
244.18537749999996
 20
117.64191650000032
 11
245.68332149999992
 21
117.56341250000025
  0
LINE
  8
_0-5_受金具
  6
PLINE2
 62
    3
 10
242.29279049999991
 20
119.74384750000024
 11
244.18537749999996
 21
117.64191650000032
  0
LINE
  8
_0-5_受金具
  6
PLINE2
 62
    3
 10
245.78799349999986
 20
119.56067150000024
 11
242.29279049999991
 21
119.74384750000024
  0
LINE
  8
_0-5_受金具
  6
PLINE2
 62
    3
 10
244.39472149999983
 20
121.63643450000029
 11
242.39746249999985
 21
121.74110650000023
  0
LINE
  8
_0-5_受金具
  6
PLINE2
 62
    3
 10
244.4993935
 20
123.63369350000028
 11
244.39472149999983
 21
121.63643450000029
  0
LINE
  8
_0-5_受金具
  6
PLINE2
 62
    3
 10
242.55447049999998
 20
124.73699550000026
 11
244.4993935
 21
123.63369350000028
  0
LINE
  8
_0-5_受金具
  6
PLINE2
 62
    3
 10
242.92082149999987
 20
131.72740250000027
 11
242.81614949999994
 21
129.73014350000028
  0
LINE
  8
_0-5_受金具
  6
PLINE2
 62
    3
 10
244.6564014999999
 20
126.62958250000031
 11
242.65914150000003
 21
126.73425450000025
  0
LINE
  8
_0-5_受金具
  6
PLINE2
 62
    3
 10
244.76107249999995
 20
128.6268415000003
 11
244.6564014999999
 21
126.62958250000031
  0
LINE
  8
_0-5_受金具
  6
PLINE2
 62
    3
 10
242.81614949999994
 20
129.73014350000028
 11
244.76107249999995
 21
128.6268415000003
  0
LINE
  8
_0-5_受金具
  6
PLINE2
 62
    3
 10
244.91808049999986
 20
131.62273050000033
 11
242.92082149999987
 21
131.72740250000027
  0
LINE
  8
_0-5_受金具
  6
PLINE2
 62
    3
 10
245.02275250000002
 20
133.61998950000032
 11
244.91808049999986
 21
131.62273050000033
  0
LINE
  8
_0-5_受金具
  6
PLINE2
 62
    3
 10
243.07782950000001
 20
134.72329050000019
 11
245.02275250000002
 21
133.61998950000032
  0
LINE
  8
_0-5_受金具
  6
PLINE2
 62
    3
 10
252.95233050000002
 20
126.73425450000025
 11
253.05700249999995
 21
124.73699550000026
  0
LINE
  8
_0-5_受金具
  6
PLINE2
 62
    3
 10
247.74643049999986
 20
120.5802345000003
 11
249.68013150000002
 21
122.29590550000023
  0
LINE
  8
_0-5_受金具
  6
PLINE2
 62
    3
 10
253.21401049999986
 20
121.74110650000023
 11
253.31868250000002
 21
119.74384750000024
  0
LINE
  8
_0-5_受金具
  6
PLINE2
 62
    3
 10
249.82347949999985
 20
119.56067150000024
 11
253.31868250000002
 21
119.74384750000024
  0
LINE
  8
_0-5_受金具
  6
PLINE2
 62
    3
 10
251.42609549999997
 20
117.64191650000032
 11
249.92815150000001
 21
117.56341250000025
  0
LINE
  8
_0-5_受金具
  6
PLINE2
 62
    3
 10
253.31868250000002
 20
119.74384750000024
 11
251.42609549999997
 21
117.64191650000032
  0
LINE
  8
_0-5_受金具
  6
PLINE2
 62
    3
 10
251.21675149999987
 20
121.63643450000029
 11
253.21401049999986
 21
121.74110650000023
  0
LINE
  8
_0-5_受金具
  6
PLINE2
 62
    3
 10
251.11207949999994
 20
123.63369350000028
 11
251.21675149999987
 21
121.63643450000029
  0
LINE
  8
_0-5_受金具
  6
PLINE2
 62
    3
 10
253.05700249999995
 20
124.73699550000026
 11
251.11207949999994
 21
123.63369350000028
  0
LINE
  8
_0-5_受金具
  6
PLINE2
 62
    3
 10
252.69065049999995
 20
131.72740250000027
 11
252.79532250000102
 21
129.73014350000028
  0
LINE
  8
_0-5_受金具
  6
PLINE2
 62
    3
 10
250.95507150000003
 20
126.62958250000031
 11
252.95233050000002
 21
126.73425450000025
  0
LINE
  8
_0-5_受金具
  6
PLINE2
 62
    3
 10
250.85039949999987
 20
128.6268415000003
 11
250.95507150000003
 21
126.62958250000031
  0
LINE
  8
_0-5_受金具
  6
PLINE2
 62
    3
 10
252.79532250000102
 20
129.73014350000028
 11
250.85039949999987
 21
128.6268415000003
  0
LINE
  8
_0-5_受金具
  6
PLINE2
 62
    3
 10
252.53364349999993
 20
134.72329050000019
 11
250.58872049999991
 21
133.61998950000032
  0
LINE
  8
_0-5_受金具
  6
PLINE2
 62
    3
 10
250.69339149999996
 20
131.62273050000033
 11
252.69065049999995
 21
131.72740250000027
  0
LINE
  8
_0-5_受金具
  6
PLINE2
 62
    3
 10
250.58872049999991
 20
133.61998950000032
 11
250.69339149999996
 21
131.62273050000033
  0
ARC
  8
_0-3_躯体
  6
PLINE3
 62
    3
 10
320.80573649999997
 20
105.7474255000003
 40
6
 50
119.9999999999973
 51
180
  0
ARC
  8
_0-3_躯体
  6
PLINE3
 62
    3
 10
320.80573649999997
 20
105.7474255000003
 40
8
 50
119.9999999999973
 51
180
  0
ARC
  8
_0-3_躯体
  6
CONTINUOUS
 62
    4
 10
320.80573649999997
 20
105.7474255000003
 40
10
 50
119.9999999999973
 51
180
  0
ARC
  8
_0-3_躯体
  6
PLINE3
 62
    3
 10
320.80573649999997
 20
105.7474255000003
 40
4
 50
119.9999999999973
 51
180
  0
ARC
  8
_0-3_躯体
  6
CONTINUOUS
 62
    4
 10
320.80573649999997
 20
105.7474255000003
 40
2
 50
119.9999999999973
 51
180
  0
LINE
  8
_0-2_寸法
  6
PLINE2
 62
    3
 10
347.80573649999997
 20
123.64528450000023
 11
347.80573649999997
 21
43.593928500000288
  0
ARC
  8
_0-3_躯体
  6
CONTINUOUS
 62
    4
 10
340.87753350000003
 20
119.64528450000023
 40
8
 50
29.999996000000127
 51
119.99999999999731
  0
LINE
  8
_0-3_躯体
  6
CONTINUOUS
 62
    4
 10
97.805736499999966
 20
156.52092850000031
 11
347.80573649999997
 21
156.52092850000031
  0
LINE
  8
_0-5_受金具
  6
CONTINUOUS
 62
    4
 10
332.30573649999997
 20
168.52092850000031
 11
302.38864049999984
 21
168.52092850000031
  0
LINE
  8
_0-5_受金具
  6
CONTINUOUS
 62
    4
 10
329.80573649999997
 20
171.52092850000031
 11
301.23393949999991
 21
171.52092850000031
  0
LINE
  8
_0-4_笠木
  6
CONTINUOUS
 62
    4
 10
320.80573649999997
 20
180.52092849999974
 11
322.80573649999997
 21
182.52092849999974
  0
LINE
  8
_0-4_笠木
  6
CONTINUOUS
 62
    4
 10
321.67061749999993
 20
178.55738249999979
 11
324.80573649999997
 21
181.69250149999993
  0
LINE
  8
_0-5_受金具
  6
CONTINUOUS
 62
    4
 10
291.41898550000087
 20
160.52092850000031
 11
248.30573649999997
 21
160.52092850000031
  0
LINE
  8
_0-5_受金具
  6
CONTINUOUS
 62
    4
 10
203.80573649999997
 20
172.83600849999971
 11
203.80573649999997
 21
170.83600850000028
  0
LINE
  8
_0-5_受金具
  6
CONTINUOUS
 62
    4
 10
203.80573649999997
 20
169.56668650000029
 11
203.80573649999997
 21
170.83600850000028
  0
LINE
  8
_0-5_受金具
  6
CONTINUOUS
 62
    3
 10
203.24046550000003
 20
170.96881150000024
 11
203.80573649999997
 21
171.5340825000003
  0
LINE
  8
_0-5_受金具
  6
CONTINUOUS
 62
    3
 10
202.6561835
 20
171.09163550000028
 11
203.80573649999997
 21
172.24118849999979
  0
LINE
  8
_0-5_受金具
  6
CONTINUOUS
 62
    3
 10
203.71529450000003
 20
172.8578544999998
 11
202.05956749999996
 21
171.2021265000003
  0
LINE
  8
_0-5_受金具
  6
CONTINUOUS
 62
    3
 10
203.13915550000002
 20
172.98882249999974
 11
201.44998349999992
 21
171.29964950000033
  0
LINE
  8
_0-5_受金具
  6
CONTINUOUS
 62
    3
 10
202.55125250000083
 20
173.10802449999983
 11
200.82671549999986
 21
171.38348850000034
  0
LINE
  8
_0-5_受金具
  6
PLINE2
 62
    3
 10
242.80573649999997
 20
156.52092850000031
 11
247.80573649999997
 21
156.52092850000031
  0
ARC
  8
_0-5_受金具
  6
PLINE2
 62
    3
 10
241.43920949999983
 20
147.14515350000022
 40
0.5
 50
9.4623220000071342
 51
189.46232199999423
  0
LINE
  8
_0-5_受金具
  6
PLINE2
 62
    3
 10
243.80573649999997
 20
144.5209285000002
 11
243.80573649999997
 21
148.52092850000031
  0
LINE
  8
_0-5_受金具
  6
PLINE2
 62
    3
 10
242.85020650000001
 20
141.7205495000004
 11
241.93240649999984
 21
147.22735250000039
  0
LINE
  8
_0-5_受金具
  6
PLINE2
 62
    3
 10
241.83641349999994
 20
141.7205495000004
 11
240.94601250000005
 21
147.06295350000039
  0
LINE
  8
_0-5_受金具
  6
PLINE2
 62
    3
 10
245.54611249999994
 20
143.60628450000024
 11
245.4414405
 21
141.60902550000026
  0
LINE
  8
_0-5_受金具
  6
PLINE2
 62
    3
 10
243.33316849999983
 20
136.7205495000004
 11
241.83641349999994
 21
141.7205495000004
  0
LINE
  8
_0-5_受金具
  6
PLINE2
 62
    3
 10
243.33950949999985
 20
139.71643850000021
 11
245.28443249999987
 21
138.61313650000022
  0
LINE
  8
_0-5_受金具
  6
PLINE2
 62
    3
 10
243.44418150000001
 20
141.71369750000019
 11
243.33950949999985
 21
139.71643850000021
  0
LINE
  8
_0-5_受金具
  6
PLINE2
 62
    3
 10
245.4414405
 20
141.60902550000026
 11
243.44418150000001
 21
141.71369750000019
  0
LINE
  8
_0-5_受金具
  6
PLINE2
 62
    3
 10
243.80573649999997
 20
144.5209285000002
 11
245.54611249999994
 21
143.60628450000024
  0
LINE
  8
_0-3_躯体
  6
CONTINUOUS
 62
    3
 10
241.1033645
 20
147.5155695000002
 11
234.0980055
 21
154.52092850000031
  0
LINE
  8
_0-3_躯体
  6
CONTINUOUS
 62
    3
 10
236.92643350000003
 20
154.52092850000031
 11
243.80573649999997
 21
147.64162550000026
  0
LINE
  8
_0-3_躯体
  6
CONTINUOUS
 62
    3
 10
243.80573649999997
 20
150.47005250000029
 11
239.75486049999995
 21
154.52092850000031
  0
LINE
  8
_0-5_受金具
  6
PLINE2
 62
    3
 10
242.80573649999997
 20
156.52092850000031
 11
243.80573649999997
 21
151.52092850000031
  0
LINE
  8
_0-5_受金具
  6
PLINE2
 62
    3
 10
243.80573649999997
 20
156.52092850000031
 11
243.80573649999997
 21
148.52092850000031
  0
ARC
  8
_0-5_受金具
  6
PLINE2
 62
    3
 10
254.32293049999998
 20
147.14515350000022
 40
0.5
 50
350.53767799999275
 51
170.53767799999278
  0
LINE
  8
_0-5_受金具
  6
PLINE2
 62
    3
 10
251.80573649999997
 20
144.5209285000002
 11
251.80573649999997
 21
148.52092850000031
  0
LINE
  8
_0-5_受金具
  6
PLINE2
 62
    3
 10
252.42897149999999
 20
136.7205495000004
 11
253.92572649999988
 21
141.7205495000004
  0
LINE
  8
_0-5_受金具
  6
PLINE2
 62
    3
 10
252.91193249999992
 20
141.7205495000004
 11
253.82973349999997
 21
147.22735250000039
  0
LINE
  8
_0-5_受金具
  6
PLINE2
 62
    3
 10
250.0653605
 20
143.60628450000024
 11
250.17003249999993
 21
141.60902550000026
  0
LINE
  8
_0-5_受金具
  6
PLINE2
 62
    3
 10
252.27196349999986
 20
139.71643850000021
 11
250.32704049999984
 21
138.61313650000022
  0
LINE
  8
_0-5_受金具
  6
PLINE2
 62
    3
 10
252.16729149999992
 20
141.71369750000019
 11
252.27196349999986
 21
139.71643850000021
  0
LINE
  8
_0-5_受金具
  6
PLINE2
 62
    3
 10
250.17003249999993
 20
141.60902550000026
 11
252.16729149999992
 21
141.71369750000019
  0
LINE
  8
_0-5_受金具
  6
PLINE2
 62
    3
 10
251.80573649999997
 20
144.5209285000002
 11
250.0653605
 21
143.60628450000024
  0
LINE
  8
_0-5_受金具
  6
PLINE2
 62
    3
 10
253.92572649999988
 20
141.7205495000004
 11
254.81612749999999
 21
147.06295350000039
  0
LINE
  8
_0-5_受金具
  6
PLINE2
 62
    3
 10
252.80573649999997
 20
156.52092850000031
 11
251.80573649999997
 21
151.52092850000031
  0
LINE
  8
_0-5_受金具
  6
PLINE2
 62
    3
 10
251.80573649999997
 20
156.52092850000031
 11
251.80573649999997
 21
148.52092850000031
  0
LINE
  8
_0-5_受金具
  6
PLINE2
 62
    3
 10
247.80573649999997
 20
151.52092850000031
 11
247.80573649999997
 21
156.52092850000031
  0
LINE
  8
_0-5_受金具
  6
PLINE2
 62
    3
 10
248.80573649999997
 20
156.52092850000031
 11
247.80573649999997
 21
151.52092850000031
  0
LINE
  8
_0-5_受金具
  6
PLINE2
 62
    3
 10
246.80573649999997
 20
156.52092850000031
 11
247.80573649999997
 21
151.52092850000031
  0
LINE
  8
_0-5_受金具
  6
PLINE2
 62
    3
 10
247.30573649999997
 20
148.52092850000031
 11
247.80573649999997
 21
148.52092850000031
  0
LINE
  8
_0-5_受金具
  6
PLINE2
 62
    3
 10
248.30573649999997
 20
148.52092850000031
 11
247.80573649999997
 21
148.52092850000031
  0
LINE
  8
_0-5_受金具
  6
PLINE2
 62
    3
 10
252.80573649999997
 20
156.52092850000031
 11
247.80573649999997
 21
156.52092850000031
  0
ARC
  8
_0-5_受金具
  6
CONTINUOUS
 62
    4
 10
247.80573649999997
 20
159.52092850000031
 40
5.4000000000000004
 50
90
 51
128.85106200000621
  0
LINE
  8
_0-5_受金具
  6
CONTINUOUS
 62
    3
 10
235.30573649999997
 20
161.52092850000031
 11
260.30573649999997
 21
161.52092850000031
  0
LINE
  8
_0-5_受金具
  6
CONTINUOUS
 62
    3
 10
235.30573649999997
 20
160.52092850000031
 11
235.30573649999997
 21
161.52092850000031
  0
ARC
  8
_0-5_受金具
  6
CONTINUOUS
 62
    4
 10
246.30297449999989
 20
161.39221850000024
 40
3
 50
128.61463799999811
 51
177.54107400000379
  0
ARC
  8
_0-5_受金具
  6
CONTINUOUS
 62
    4
 10
249.30849850000004
 20
161.39221850000024
 40
3
 50
2.4589259999961444
 51
51.385362000001884
  0
LINE
  8
_0-5_受金具
  6
CONTINUOUS
 62
    3
 10
247.30573649999997
 20
160.52092850000031
 11
248.30573649999997
 21
160.52092850000031
  0
LINE
  8
_0-5_受金具
  6
CONTINUOUS
 62
    4
 10
247.80573649999997
 20
160.02092850000031
 11
248.30573649999997
 21
160.52092850000031
  0
LINE
  8
_0-5_受金具
  6
CONTINUOUS
 62
    4
 10
247.30573649999997
 20
160.52092850000031
 11
247.80573649999997
 21
160.02092850000031
  0
ARC
  8
_0-5_受金具
  6
CONTINUOUS
 62
    4
 10
247.80573649999997
 20
159.52092850000031
 40
5.4000000000000004
 50
51.317813000006751
 51
90
  0
LINE
  8
_0-5_受金具
  6
CONTINUOUS
 62
    3
 10
260.30573649999997
 20
161.52092850000031
 11
260.30573649999997
 21
160.52092850000031
  0
ARC
  8
_0-5_受金具
  6
CONTINUOUS
 62
    4
 10
291.41898550000087
 20
163.52092850000031
 40
3
 50
270
 51
330.00000000000267
  0
LINE
  8
_0-5_受金具
  6
CONTINUOUS
 62
    4
 10
300.65658949999988
 20
167.52092850000031
 11
294.88308649999999
 21
157.52092850000031
  0
ARC
  8
_0-5_受金具
  6
CONTINUOUS
 62
    4
 10
293.15103550000003
 20
158.52092850000031
 40
2
 50
270
 51
330.00000000000267
  0
ARC
  8
_0-5_受金具
  6
CONTINUOUS
 62
    4
 10
302.38864049999984
 20
166.52092850000031
 40
2
 50
90
 51
150.0000000000027
  0
LINE
  8
_0-5_受金具
  6
CONTINUOUS
 62
    4
 10
298.63586349999991
 20
170.02092850000031
 11
294.01706149999995
 21
162.02092850000031
  0
ARC
  8
_0-5_受金具
  6
CONTINUOUS
 62
    4
 10
301.23393949999991
 20
168.52092850000031
 40
3
 50
90
 51
150.0000000000027
  0
LINE
  8
_0-3_躯体
  6
CONTINUOUS
 62
    3
 10
322.80573649999997
 20
208.45948949999968
 11
367.75231750000091
 21
253.40607149999971
  0
LINE
  8
_0-3_躯体
  6
CONTINUOUS
 62
    3
 10
322.6520395
 20
211.13421949999974
 11
364.6755455
 21
253.15772649999974
  0
LINE
  8
_0-3_躯体
  6
CONTINUOUS
 62
    4
 10
322.80573649999997
 20
206.52092849999974
 11
322.80573649999997
 21
253.40607149999971
  0
LINE
  8
_0-3_躯体
  6
CONTINUOUS
 62
    3
 10
322.80573649999997
 20
214.11634349999974
 11
361.84585549999997
 21
253.15646349999975
  0
LINE
  8
_0-3_躯体
  6
CONTINUOUS
 62
    4
 10
347.80573649999997
 20
156.52092850000031
 11
347.80573649999997
 21
206.52092849999974
  0
LINE
  8
_0-5_受金具
  6
CONTINUOUS
 62
    4
 10
333.80573649999997
 20
178.52092849999974
 11
333.80573649999997
 21
183.52092849999974
  0
LINE
  8
_0-5_受金具
  6
CONTINUOUS
 62
    4
 10
331.30573649999997
 20
173.02092849999974
 11
331.30573649999997
 21
188.02092849999974
  0
LINE
  8
_0-3_躯体
  6
CONTINUOUS
 62
    4
 10
347.80573649999997
 20
156.52092850000031
 11
347.80573649999997
 21
154.52092850000031
  0
ARC
  8
_0-5_受金具
  6
CONTINUOUS
 62
    4
 10
332.30573649999997
 20
170.52092850000031
 40
2
 50
270
 51
0
  0
ARC
  8
_0-5_受金具
  6
CONTINUOUS
 62
    4
 10
329.80573649999997
 20
173.02092849999974
 40
1.5
 50
270
 51
0
  0
LINE
  8
_0-5_受金具
  6
CONTINUOUS
 62
    4
 10
334.30573649999997
 20
170.52092850000031
 11
334.30573649999997
 21
178.52092849999974
  0
LINE
  8
_0-5_受金具
  6
CONTINUOUS
 62
    4
 10
334.30573649999997
 20
178.52092849999974
 11
333.80573649999997
 21
178.52092849999974
  0
LINE
  8
_0-5_受金具
  6
CONTINUOUS
 62
    3
 10
340.30573649999997
 20
206.52092849999974
 11
347.80573649999997
 21
190.52092849999974
  0
LINE
  8
_0-5_受金具
  6
CONTINUOUS
 62
    4
 10
340.30573649999997
 20
206.52092849999974
 11
340.30573649999997
 21
190.52762961066651
  0
ARC
  8
_0-5_受金具
  6
CONTINUOUS
 62
    4
 10
291.30573649999997
 20
198.52092849999974
 40
32.5
 50
345.74996699999622
 51
14.250033000003713
  0
LINE
  8
_0-5_受金具
  6
CONTINUOUS
 62
    3
 10
323.76390449999985
 20
200.16936249999981
 11
333.41233850000003
 21
190.52092849999974
  0
LINE
  8
_0-5_受金具
  6
CONTINUOUS
 62
    3
 10
329.87680449999993
 20
190.52092849999974
 11
340.30573649999997
 21
200.94986049999966
  0
LINE
  8
_0-5_受金具
  6
CONTINUOUS
 62
    3
 10
326.34127049999984
 20
190.52092849999974
 11
340.30573649999997
 21
204.48539449999976
  0
LINE
  8
_0-5_受金具
  6
CONTINUOUS
 62
    3
 10
331.72966849999989
 20
206.52092849999974
 11
323.80564749999985
 21
198.59690749999982
  0
LINE
  8
_0-5_受金具
  6
CONTINUOUS
 62
    3
 10
335.26520249999999
 20
206.52092849999974
 11
323.59819749999997
 21
194.85392349999984
  0
LINE
  8
_0-5_受金具
  6
CONTINUOUS
 62
    3
 10
338.80073649999986
 20
206.52092849999974
 11
322.80743749999988
 21
190.52762949999976
  0
LINE
  8
_0-5_受金具
  6
CONTINUOUS
 62
    3
 10
331.55447349999986
 20
206.52092849999974
 11
340.30573649999997
 21
197.76966549999975
  0
LINE
  8
_0-5_受金具
  6
CONTINUOUS
 62
    3
 10
328.01893949999999
 20
206.52092849999974
 11
340.30573649999997
 21
194.23413149999976
  0
LINE
  8
_0-5_受金具
  6
CONTINUOUS
 62
    3
 10
324.48340549999989
 20
206.52092849999974
 11
340.30573649999997
 21
190.69859749999978
  0
LINE
  8
_0-5_受金具
  6
CONTINUOUS
 62
    3
 10
323.31363149999993
 20
204.15516949999972
 11
336.94787150000002
 21
190.52092849999974
  0
LINE
  8
_0-4_笠木
  6
CONTINUOUS
 62
    4
 10
322.80573649999997
 20
190.52092849999974
 11
340.30573649999997
 21
190.52092849999974
  0
LINE
  8
_0-4_笠木
  6
CONTINUOUS
 62
    4
 10
336.732787500001
 20
180.52092849999974
 11
337.80573649999997
 21
180.52092849999974
  0
LINE
  8
_0-5_受金具
  6
CONTINUOUS
 62
    3
 10
336.94787150000002
 20
190.52092849999974
 11
340.30573649999997
 21
193.8787924999998
  0
LINE
  8
_0-5_受金具
  6
CONTINUOUS
 62
    3
 10
333.41233850000003
 20
190.52092849999974
 11
340.30573649999997
 21
197.4143264999999
  0
LINE
  8
_0-4_笠木
  6
CONTINUOUS
 62
    4
 10
322.80573649999997
 20
182.52092849999974
 11
322.80573649999997
 21
190.52092849999974
  0
LINE
  8
_0-4_笠木
  6
CONTINUOUS
 62
    4
 10
324.80573649999997
 20
188.52092849999974
 11
335.80573649999997
 21
188.52092849999974
  0
LINE
  8
_0-4_笠木
  6
CONTINUOUS
 62
    4
 10
324.80573649999997
 20
181.69250149999993
 11
324.80573649999997
 21
188.52092849999974
  0
LINE
  8
_0-5_受金具
  6
CONTINUOUS
 62
    4
 10
334.73332749999986
 20
187.09562449999987
 11
335.80573649999997
 21
183.52092849999974
  0
LINE
  8
_0-4_笠木
  6
CONTINUOUS
 62
    4
 10
335.80573649999997
 20
183.52092849999974
 11
335.80573649999997
 21
188.52092849999974
  0
LINE
  8
_0-5_受金具
  6
CONTINUOUS
 62
    4
 10
333.80573649999997
 20
183.52092849999974
 11
335.80573649999997
 21
183.52092849999974
  0
LINE
  8
_0-4_笠木
  6
CONTINUOUS
 62
    4
 10
334.30573649999997
 20
183.52092849999974
 11
335.80573649999997
 21
183.52092849999974
  0
ARC
  8
_0-4_笠木
  6
CONTINUOUS
 62
    4
 10
336.732787500001
 20
182.02092849999974
 40
1.5
 50
206.5650509999937
 51
270
  0
LINE
  8
_0-4_笠木
  6
CONTINUOUS
 62
    4
 10
334.30573649999997
 20
183.52092849999974
 11
335.39114649999988
 21
181.35010749999981
  0
ARC
  8
_0-5_受金具
  6
CONTINUOUS
 62
    4
 10
332.81767549999995
 20
186.52092849999974
 40
2
 50
16.699243999996199
 51
90.000000000000014
  0
LINE
  8
_0-5_受金具
  6
CONTINUOUS
 62
    4
 10
332.81767549999995
 20
188.52092849999974
 11
331.80573649999997
 21
188.52092849999974
  0
ARC
  8
_0-5_受金具
  6
CONTINUOUS
 62
    4
 10
331.80573649999997
 20
188.02092849999974
 40
0.5
 50
90
 51
180
  0
LINE
  8
_0-5_受金具
  6
CONTINUOUS
 62
    3
 10
323.75161549999984
 20
196.64611649999983
 11
329.87680449999993
 21
190.52092849999974
  0
LINE
  8
_0-5_受金具
  6
CONTINUOUS
 62
    3
 10
323.40830849999998
 20
193.45389049999983
 11
326.34127049999984
 21
190.52092849999974
  0
LINE
  8
_0-4_笠木
  6
CONTINUOUS
 62
    4
 10
341.80573649999997
 20
190.52092849999974
 11
341.80573649999997
 21
188.7209284999999
  0
LINE
  8
_0-4_笠木
  6
CONTINUOUS
 62
    4
 10
341.80573649999997
 20
188.52092849999974
 11
341.80573649999997
 21
190.52092849999974
  0
LINE
  8
_0-4_笠木
  6
CONTINUOUS
 62
    4
 10
337.80573649999997
 20
188.52092849999974
 11
337.80573649999997
 21
180.52092849999974
  0
LINE
  8
_0-4_笠木
  6
CONTINUOUS
 62
    4
 10
337.80573649999997
 20
188.52092849999974
 11
341.80573649999997
 21
188.52092849999974
  0
LINE
  8
_0-5_受金具
  6
CONTINUOUS
 62
    4
 10
341.80573649999997
 20
190.52092849999974
 11
347.80573649999997
 21
190.52092849999974
  0
LINE
  8
_0-4_笠木
  6
CONTINUOUS
 62
    4
 10
340.30573649999997
 20
193.52092849999974
 11
341.80573649999997
 21
193.52092849999974
  0
LINE
  8
_0-4_笠木
  6
CONTINUOUS
 62
    4
 10
340.30573649999997
 20
190.52092849999974
 11
340.30573649999997
 21
193.52092849999974
  0
LINE
  8
_0-4_笠木
  6
CONTINUOUS
 62
    4
 10
341.80573649999997
 20
193.52092849999974
 11
341.80573649999997
 21
190.52092849999974
  0
LINE
  8
_0-3_躯体
  6
CONTINUOUS
 62
    4
 10
347.80573649999997
 20
206.52092849999974
 11
322.80573649999997
 21
206.52092849999974
  0
LINE
  8
_0-5_受金具
  6
CONTINUOUS
 62
    3
 10
335.09000749999996
 20
206.52092849999974
 11
340.30573649999997
 21
201.30519949999984
  0
LINE
  8
_0-5_受金具
  6
CONTINUOUS
 62
    3
 10
324.65860049999992
 20
206.52092849999974
 11
323.15071250000005
 21
205.01303949999976
  0
LINE
  8
_0-5_受金具
  6
CONTINUOUS
 62
    3
 10
328.19413450000002
 20
206.52092849999974
 11
323.62422149999998
 21
201.9510154999997
  0
LINE
  8
_0-5_受金具
  6
CONTINUOUS
 62
    3
 10
338.62554150000005
 20
206.52092849999974
 11
340.30573649999997
 21
204.84073349999971
  0
INSERT
  2
-001-_D89
  8
_0-2_寸法
 10
1369.9423478200019
 20
1172.0129607819372
 41
1
 42
1
 50
0
  0
INSERT
  2
-002-_D90
  8
_0-2_寸法
 10
1369.9423478200019
 20
1172.0129607819372
 41
1
 42
1
 50
0
  0
INSERT
  2
-003-_D91
  8
_0-2_寸法
 10
1369.9423478200019
 20
1172.0129607819372
 41
1
 42
1
 50
0
  0
INSERT
  2
-004-_D92
  8
_0-2_寸法
 10
1369.9423478200019
 20
1172.0129607819372
 41
1
 42
1
 50
0
  0
INSERT
  2
-005-_D93
  8
_0-2_寸法
 10
1369.9423478200019
 20
1172.0129607819372
 41
1
 42
1
 50
0
  0
INSERT
  2
-006-_D94
  8
_0-2_寸法
 10
1369.9423478200019
 20
1172.0129607819372
 41
1
 42
1
 50
0
  0
INSERT
  2
-007-_D95
  8
_0-2_寸法
 10
1369.9423478200019
 20
1172.0129607819372
 41
1
 42
1
 50
0
  0
INSERT
  2
-008-_D96
  8
_0-2_寸法
 10
1369.9423478200019
 20
1172.0129607819372
 41
1
 42
1
 50
0
  0
INSERT
  2
-009-_D97
  8
_0-2_寸法
 10
1369.9423478200019
 20
1172.0129607819372
 41
1
 42
1
 50
0
  0
INSERT
  2
-010-_D98
  8
_0-2_寸法
 10
1369.9423478200019
 20
1172.0129607819372
 41
1
 42
1
 50
0
  0
INSERT
  2
-011-_D99
  8
_0-2_寸法
 10
1369.9423478200019
 20
1172.0129607819372
 41
1
 42
1
 50
0
  0
INSERT
  2
-012-_D100
  8
_0-2_寸法
 10
1369.9423478200019
 20
1172.0129607819372
 41
1
 42
1
 50
0
  0
INSERT
  2
-013-_D101
  8
_0-2_寸法
 10
1369.9423478200019
 20
1172.0129607819372
 41
1
 42
1
 50
0
  0
INSERT
  2
-014-_D102
  8
_0-2_寸法
 10
1369.9423478200019
 20
1172.0129607819372
 41
1
 42
1
 50
0
  0
INSERT
  2
-015-_D103
  8
_0-2_寸法
 10
1369.9423478200019
 20
1172.0129607819372
 41
1
 42
1
 50
0
  0
LINE
  8
_0-5_受金具
  6
CONTINUOUS
 62
    4
 10
322.80403545780496
 20
206.51422766614303
 11
347.80573649999997
 21
206.51422766614303
  0
LINE
  8
_0-5_受金具
  6
CONTINUOUS
 62
    4
 10
347.80573649999997
 20
190.52092849999974
 11
347.80573649999997
 21
206.51422766614303
  0
LINE
  8
_0-5_受金具
  6
CONTINUOUS
 62
    4
 10
74.805736499999966
 20
125.5209285000002
 11
74.805736499999966
 21
120.5209285000002
  0
LINE
  8
_0-5_受金具
  6
CONTINUOUS
 62
    4
 10
74.805736499999966
 20
120.5209285000002
 11
77.411492499999895
 21
120.70314050000036
  0
LINE
  8
_0-5_受金具
  6
CONTINUOUS
 62
    4
 10
322.80743761066697
 20
190.52762961066651
 11
340.30573649999997
 21
190.52762961066651
  0
ENDSEC
  0
EOF
