  0
SECTION
  2
HEADER
  9
$ACADVER
  1
AC1009
  9
$INSBASE
 10
0
 20
0
 30
0
  9
$EXTMIN
 10
0
 20
0
  9
$EXTMAX
 10
420
 20
297
  9
$LIMMIN
 10
0
 20
0
  9
$LIMMAX
 10
420
 20
297
  9
$LTSCALE
 40
1
  0
ENDSEC
  0
SECTION
  2
TABLES
  0
TABLE
  2
LTYPE
 70
     9
  0
LTYPE
  2
CONTINUOUS
 70
    64
  3
実線
 72
    65
 73
     0
 40
0.0
  0
LTYPE
  2
DASHED1
 70
    64
  3
--  --  --  --  --  --  --  --  
 72
    65
 73
     2
 40
2.5
 49
1.25
 49
-1.25
  0
LTYPE
  2
DASHED2
 70
    64
  3
----    ----    ----    ----    
 72
    65
 73
     2
 40
5.0
 49
2.5
 49
-2.5
  0
LTYPE
  2
DASHED3
 70
    64
  3
------  ------  ------  ------  
 72
    65
 73
     2
 40
5.0
 49
3.75
 49
-1.25
  0
LTYPE
  2
CENTER1
 70
    64
  3
----- - ----- - ----- - ----- - 
 72
    65
 73
     4
 40
10.0
 49
6.25
 49
-1.25
 49
1.25
 49
-1.25
  0
LTYPE
  2
CENTER2
 70
    64
  3
----------  --  ----------  --  
 72
    65
 73
     4
 40
20.0
 49
12.5
 49
-2.5
 49
2.5
 49
-2.5
  0
LTYPE
  2
PHANTOM1
 70
    64
  3
--- - - --- - - --- - - --- - - 
 72
    65
 73
     6
 40
10.0
 49
3.25
 49
-1.25
 49
1.25
 49
-1.25
 49
1.25
 49
-1.25
  0
LTYPE
  2
PHANTOM2
 70
    64
  3
--------  -  -  --------  -  -  
 72
    65
 73
     6
 40
20.0
 49
10.0
 49
-2.5
 49
1.25
 49
-2.5
 49
1.25
 49
-2.5
  0
LTYPE
  2
DOT
 70
    64
  3
-   -   -   -   -   -   -   -   
 72
    65
 73
     2
 40
2.5
 49
0.625
 49
-1.875
  0
LTYPE
  2
DUMMY
 70
    64
  3
ダミー
 72
    65
 73
     0
 40
0.0
  0
LTYPE
  2
RAND1
 70
    64
  3
ランダム線1
 72
    65
 73
     4
 40
10.0
 49
1.0
 49
-2.0
 49
3.0
 49
-4.0
  0
LTYPE
  2
RAND2
 70
    64
  3
ランダム線2
 72
    65
 73
     4
 40
14.0
 49
2.0
 49
-3.0
 49
4.0
 49
-5.0
  0
LTYPE
  2
RAND3
 70
    64
  3
ランダム線3
 72
    65
 73
     4
 40
18.0
 49
3.0
 49
-4.0
 49
5.0
 49
-6.0
  0
LTYPE
  2
RAND4
 70
    64
  3
ランダム線4
 72
    65
 73
     4
 40
22.0
 49
4.0
 49
-5.0
 49
6.0
 49
-7.0
  0
LTYPE
  2
RAND5
 70
    64
  3
ランダム線5
 72
    65
 73
     4
 40
26.0
 49
5.0
 49
-6.0
 49
7.0
 49
-8.0
  0
LTYPE
  2
LONG1
 70
    64
  3
----------  --  ----------  --  
 72
    65
 73
     4
 40
40.0
 49
32.5
 49
-2.5
 49
2.5
 49
-2.5
  0
LTYPE
  2
LONG2
 70
    64
  3
--------  -  -  --------  -  -  
 72
    65
 73
     6
 40
40.0
 49
30.0
 49
-2.5
 49
1.25
 49
-2.5
 49
1.25
 49
-2.5
  0
LTYPE
  2
LONG3
 70
    64
  3
+++++++++++++++..+++++++++++++++
 72
    65
 73
     2
 40
40.0
 49
37.5
 49
-2.5
  0
LTYPE
  2
LONG4
 70
    64
  3
+++++++++++++++..+++++++++++++++
 72
    65
 73
     2
 40
80.0
 49
75.0
 49
-5.0
  0
LTYPE
  2
LONG5
 70
    64
  3
----------  --  ----------  --  
 72
    65
 73
     4
 40
60.0
 49
37.5
 49
-7.5
 49
7.5
 49
-7.5
  0
LTYPE
  2
dashed
 70
   64
  3
-------   -------------   ------
 72
   65
 73
    2
 40
7.5
 49
6
 49
-1.5
  0
LTYPE
  2
dashed_spaced
 70
   64
  3
----        --------        ----
 72
   65
 73
    2
 40
12
 49
6
 49
-6
  0
LTYPE
  2
long_dashed_dotted
 70
   64
  3
------------- --- --------------
 72
   65
 73
    4
 40
15.25
 49
12
 49
-1.5
 49
0.25
 49
-1.5
  0
LTYPE
  2
long_dashed_double-dotted
 70
   64
  3
----------- --- --- ------------
 72
   65
 73
    6
 40
17
 49
12
 49
-1.5
 49
0.25
 49
-1.5
 49
0.25
 49
-1.5
  0
LTYPE
  2
long_dashed_triplicate-dotted
 70
   64
  3
--------- --- --- --- ----------
 72
   65
 73
    8
 40
18.75
 49
12
 49
-1.5
 49
0.25
 49
-1.5
 49
0.25
 49
-1.5
 49
0.25
 49
-1.5
  0
LTYPE
  2
dotted
 70
   64
  3
   -       -       -       -    
 72
   65
 73
    2
 40
1.75
 49
0.25
 49
-1.5
  0
LTYPE
  2
chain
 70
   64
  3
-------------- -- --------------
 72
   65
 73
    4
 40
18.5
 49
12
 49
-1.5
 49
3.5
 49
-1.5
  0
LTYPE
  2
chain_double_dash
 70
   64
  3
------------ -- -- -------------
 72
   65
 73
    6
 40
23.5
 49
12
 49
-1.5
 49
3.5
 49
-1.5
 49
3.5
 49
-1.5
  0
LTYPE
  2
dashed_dotted
 70
   64
  3
-----------     -     ----------
 72
   65
 73
    4
 40
9.25
 49
6
 49
-1.5
 49
0.25
 49
-1.5
  0
LTYPE
  2
double-dashed_dotted
 70
   64
  3
------   -----------   -   -----
 72
   65
 73
    6
 40
16.75
 49
6
 49
-1.5
 49
6
 49
-1.5
 49
0.25
 49
-1.5
  0
LTYPE
  2
dashed_double-dotted
 70
   64
  3
---------    -    -    ---------
 72
   65
 73
    6
 40
11
 49
6
 49
-1.5
 49
0.25
 49
-1.5
 49
0.25
 49
-1.5
  0
LTYPE
  2
double-dashed_double-dotted
 70
   64
  3
-----   ---------   -   -   ----
 72
   65
 73
    8
 40
18.5
 49
6
 49
-1.5
 49
6
 49
-1.5
 49
0.25
 49
-1.5
 49
0.25
 49
-1.5
  0
LTYPE
  2
dashed_triplicate-dotted
 70
   64
  3
-------    -    -    -    ------
 72
   65
 73
    8
 40
12.75
 49
6
 49
-1.5
 49
0.25
 49
-1.5
 49
0.25
 49
-1.5
 49
0.25
 49
-1.5
  0
LTYPE
  2
double-dashed_triplicate-dotted
 70
   64
  3
-----  ---------  -  -  -  -----
 72
   65
 73
   10
 40
20.25
 49
6
 49
-1.5
 49
6
 49
-1.5
 49
0.25
 49
-1.5
 49
0.25
 49
-1.5
 49
0.25
 49
-1.5
  0
LTYPE
  2
undefined
 70
   64
  3
--------------------------------
 72
   65
 73
    0
 40
0
  0
LTYPE
  2
PLINE2
 70
   64
  3
------     -----------     -----
 72
   65
 73
    2
 40
3
 49
2.1000000000000001
 49
-0.9
  0
LTYPE
  2
PLINE3
 70
   64
  3
------------   ---   -----------
 72
   65
 73
    4
 40
10
 49
7
 49
-1
 49
1
 49
-1
  0
LTYPE
  2
PLINE4
 70
   64
  3
---------   ---   ---   --------
 72
   65
 73
    6
 40
10
 49
5
 49
-1
 49
1
 49
-1
 49
1
 49
-1
  0
LTYPE
  2
PLINE5
 70
   64
  3
------     -----------     -----
 72
   65
 73
    2
 40
5
 49
3.5
 49
-1.5
  0
LTYPE
  2
PLINE6
 70
   64
  3
------------   ---   -----------
 72
   65
 73
    4
 40
15
 49
10.5
 49
-1.5
 49
1.5
 49
-1.5
  0
LTYPE
  2
PLINE7
 70
   64
  3
---------   ---   ---   --------
 72
   65
 73
    6
 40
15
 49
7.5
 49
-1.5
 49
1.5
 49
-1.5
 49
1.5
 49
-1.5
  0
LTYPE
  2
PLINE8
 70
   64
  3
------     -----------     -----
 72
   65
 73
    2
 40
7
 49
4.9000000000000004
 49
-2.1000000000000001
  0
LTYPE
  2
PLINE9
 70
   64
  3
------------   ---   -----------
 72
   65
 73
    4
 40
20
 49
14
 49
-2
 49
2
 49
-2
  0
LTYPE
  2
PLINE10
 70
   64
  3
---------   ---   ---   --------
 72
   65
 73
    6
 40
20
 49
10
 49
-2
 49
2
 49
-2
 49
2
 49
-2
  0
LTYPE
  2
PLINE11
 70
   64
  3
------     -----------     -----
 72
   65
 73
    2
 40
9
 49
6.2999999999999989
 49
-2.7000000000000002
  0
LTYPE
  2
PLINE12
 70
   64
  3
------------   ---   -----------
 72
   65
 73
    4
 40
25
 49
17.5
 49
-2.5
 49
2.5
 49
-2.5
  0
LTYPE
  2
PLINE13
 70
   64
  3
---------   ---   ---   --------
 72
   65
 73
    6
 40
25
 49
12.5
 49
-2.5
 49
2.5
 49
-2.5
 49
2.5
 49
-2.5
  0
LTYPE
  2
PLINE14
 70
   64
  3
------     -----------     -----
 72
   65
 73
    2
 40
11
 49
7.7000000000000002
 49
-3.2999999999999989
  0
LTYPE
  2
PLINE15
 70
   64
  3
------------   ---   -----------
 72
   65
 73
    4
 40
30
 49
21
 49
-3
 49
3
 49
-3
  0
LTYPE
  2
PLINE16
 70
   64
  3
---------   ---   ---   --------
 72
   65
 73
    6
 40
30
 49
15
 49
-3
 49
3
 49
-3
 49
3
 49
-3
  0
ENDTAB
  0
TABLE
  2
STYLE
  5
3
100
AcDbSymbolTable
 70
     1
  0
STYLE
  5
10
100
AcDbSymbolTableRecord
100
AcDbTextStyleTableRecord
  2
STANDARD
 70
     0
 40
0.0
 41
1.0
 50
0.0
 71
     0
 42
0.2
  3
txt
  4
bigfont.shx
  0
STYLE
  5
26
100
AcDbSymbolTableRecord
100
AcDbTextStyleTableRecord
  2
TATEGAKI
 70
    68
 40
0.0
 41
1.0
 50
0.0
 71
     0
 42
1.0
  3
txt
  4
bigfont.shx
  0
ENDTAB
  0
TABLE
  2
LAYER
 70
    6
  0
LAYER
  2
_0-0_
 70
   64
 62
    7
  6
CONTINUOUS
  0
LAYER
  2
_0-2_寸法
 70
   64
 62
    7
  6
CONTINUOUS
  0
LAYER
  2
_0-3_躯体
 70
   64
 62
    7
  6
CONTINUOUS
  0
LAYER
  2
_0-4_笠木
 70
   64
 62
    7
  6
CONTINUOUS
  0
LAYER
  2
_0-5_受金具
 70
   64
 62
    7
  6
CONTINUOUS
  0
LAYER
  2
ADD_LINE
 70
   64
 62
    7
  6
CONTINUOUS
  0
ENDTAB
  0
ENDSEC
  0
SECTION
  2
BLOCKS
  0
BLOCK
  2
-000-_Dot
 70
   64
 10
0
 20
0
 30
0
  0
CIRCLE
  8
_0-7__0-0_0
  6
CONTINUOUS
 62
    7
 10
0
 20
0
 40
0.25
  0
LINE
  8
_0-7__0-0_0
  6
CONTINUOUS
 62
    7
 10
0.25
 20
0
 11
-0.25
 21
0
  0
LINE
  8
_0-7__0-0_0
  6
CONTINUOUS
 62
    7
 10
-0.5
 20
0
 11
-1
 21
0
  0
ENDBLK
  0
BLOCK
  2
-001-_D59
 70
   64
 10
0
 20
0
 30
0
  0
LINE
  8
_0-2_寸法
  6
CONTINUOUS
 62
    4
 10
-858.66827098777844
 20
-919.80549925025753
 11
-858.66827098777844
 21
-925.31551755184262
  0
LINE
  8
_0-2_寸法
  6
CONTINUOUS
 62
    4
 10
-898.66827098777856
 20
-919.80549925025753
 11
-898.66827098777856
 21
-925.31551755184262
  0
LINE
  8
_0-2_寸法
  6
CONTINUOUS
 62
    4
 10
-859.66827098777844
 20
-925.31551755184262
 11
-897.66827098777856
 21
-925.31551755184262
  0
INSERT
  2
-000-_Dot
  8
_0-2_寸法
 10
-858.66827098777844
 20
-925.31551755184262
 41
1
 42
1
 50
0
  0
INSERT
  2
-000-_Dot
  8
_0-2_寸法
 10
-898.66827098777856
 20
-925.31551755184262
 41
1
 42
1
 50
180
  0
TEXT
  8
_0-2_寸法
 62
    7
 10
-881.38077098777831
 20
-924.3155175518425
 40
5
 41
1
 50
0
  1
40
  0
POINT
  8
_0-8__0-1_Defpoints
 62
    7
 10
-858.66827098777844
 20
-919.80549925025753
  0
POINT
  8
_0-8__0-1_Defpoints
 62
    7
 10
-898.66827098777856
 20
-919.80549925025753
  0
POINT
  8
_0-8__0-1_Defpoints
 62
    7
 10
-898.66827098777856
 20
-925.31551755184262
  0
ENDBLK
  0
BLOCK
  2
-002-_D60
 70
   64
 10
0
 20
0
 30
0
  0
LINE
  8
_0-2_寸法
  6
CONTINUOUS
 62
    4
 10
-898.66827098777856
 20
-919.80549925025753
 11
-898.66827098777856
 21
-925.31551755184262
  0
LINE
  8
_0-2_寸法
  6
CONTINUOUS
 62
    4
 10
-938.66827098777856
 20
-919.80549925025753
 11
-938.66827098777856
 21
-925.31551755184262
  0
LINE
  8
_0-2_寸法
  6
CONTINUOUS
 62
    4
 10
-899.66827098777844
 20
-925.31551755184262
 11
-937.66827098777833
 21
-925.31551755184262
  0
INSERT
  2
-000-_Dot
  8
_0-2_寸法
 10
-898.66827098777856
 20
-925.31551755184262
 41
1
 42
1
 50
0
  0
INSERT
  2
-000-_Dot
  8
_0-2_寸法
 10
-938.66827098777856
 20
-925.31551755184262
 41
1
 42
1
 50
180
  0
TEXT
  8
_0-2_寸法
 62
    7
 10
-921.38077098777842
 20
-924.3155175518425
 40
5
 41
1
 50
0
  1
40
  0
POINT
  8
_0-8__0-1_Defpoints
 62
    7
 10
-898.66827098777856
 20
-919.80549925025753
  0
POINT
  8
_0-8__0-1_Defpoints
 62
    7
 10
-938.66827098777856
 20
-919.80549925025753
  0
POINT
  8
_0-8__0-1_Defpoints
 62
    7
 10
-938.66827098777856
 20
-925.31551755184262
  0
ENDBLK
  0
BLOCK
  2
-003-_D61
 70
   64
 10
0
 20
0
 30
0
  0
LINE
  8
_0-2_寸法
  6
CONTINUOUS
 62
    4
 10
-1010.918150357813
 20
-911.91651755184273
 11
-1027.938270987778
 21
-911.91651755184273
  0
LINE
  8
_0-2_寸法
  6
CONTINUOUS
 62
    4
 10
-1010.918150357813
 20
-866.20251755184256
 11
-1027.938270987778
 21
-866.20251755184256
  0
LINE
  8
_0-2_寸法
  6
CONTINUOUS
 62
    4
 10
-1027.938270987778
 20
-910.9165175518425
 11
-1027.938270987778
 21
-867.20251755184256
  0
INSERT
  2
-000-_Dot
  8
_0-2_寸法
 10
-1027.938270987778
 20
-911.91651755184273
 41
1
 42
1
 50
270
  0
INSERT
  2
-000-_Dot
  8
_0-2_寸法
 10
-1027.938270987778
 20
-866.20251755184256
 41
1
 42
1
 50
90
  0
TEXT
  8
_0-2_寸法
 62
    7
 10
-1028.938270987778
 20
-891.77201755184262
 40
5
 41
1
 50
90
  1
46
  0
POINT
  8
_0-8__0-1_Defpoints
 62
    7
 10
-1010.918150357813
 20
-911.91651755184273
  0
POINT
  8
_0-8__0-1_Defpoints
 62
    7
 10
-1010.918150357813
 20
-866.20251755184256
  0
POINT
  8
_0-8__0-1_Defpoints
 62
    7
 10
-1027.938270987778
 20
-866.20251755184256
  0
ENDBLK
  0
BLOCK
  2
-004-_D62
 70
   64
 10
0
 20
0
 30
0
  0
LINE
  8
_0-2_寸法
  6
CONTINUOUS
 62
    4
 10
-1010.918150357813
 20
-831.91651755184262
 11
-1050.6442709877781
 21
-831.91651755184262
  0
LINE
  8
_0-2_寸法
  6
CONTINUOUS
 62
    4
 10
-1010.918150357813
 20
-842.10251755184265
 11
-1050.6442709877781
 21
-842.10251755184265
  0
LINE
  8
_0-2_寸法
  6
CONTINUOUS
 62
    4
 10
-1050.6442709877781
 20
-832.91651755184262
 11
-1050.6442709877781
 21
-841.10251755184265
  0
INSERT
  2
-000-_Dot
  8
_0-2_寸法
 10
-1050.6442709877781
 20
-831.91651755184262
 41
1
 42
1
 50
90
  0
INSERT
  2
-000-_Dot
  8
_0-2_寸法
 10
-1050.6442709877781
 20
-842.10251755184265
 41
1
 42
1
 50
270
  0
TEXT
  8
_0-2_寸法
 62
    7
 10
-1051.6442709877781
 20
-839.72201755184267
 40
5
 41
1
 50
90
  1
10
  0
POINT
  8
_0-8__0-1_Defpoints
 62
    7
 10
-1010.918150357813
 20
-831.91651755184262
  0
POINT
  8
_0-8__0-1_Defpoints
 62
    7
 10
-1010.918150357813
 20
-842.10251755184265
  0
POINT
  8
_0-8__0-1_Defpoints
 62
    7
 10
-1050.6442709877781
 20
-842.10251755184265
  0
ENDBLK
  0
BLOCK
  2
-005-_D63
 70
   64
 10
0
 20
0
 30
0
  0
LINE
  8
_0-2_寸法
  6
CONTINUOUS
 62
    4
 10
-1010.918150357813
 20
-842.10251755184265
 11
-1050.6442709877781
 21
-842.10251755184265
  0
LINE
  8
_0-2_寸法
  6
CONTINUOUS
 62
    4
 10
-1010.918150357813
 20
-851.9165175518425
 11
-1050.6442709877781
 21
-851.9165175518425
  0
LINE
  8
_0-2_寸法
  6
CONTINUOUS
 62
    4
 10
-1050.6442709877781
 20
-843.10251755184265
 11
-1050.6442709877781
 21
-850.9165175518425
  0
INSERT
  2
-000-_Dot
  8
_0-2_寸法
 10
-1050.6442709877781
 20
-842.10251755184265
 41
1
 42
1
 50
90
  0
INSERT
  2
-000-_Dot
  8
_0-2_寸法
 10
-1050.6442709877781
 20
-851.9165175518425
 41
1
 42
1
 50
270
  0
TEXT
  8
_0-2_寸法
 62
    7
 10
-1051.6442709877781
 20
-849.72201755184278
 40
5
 41
1
 50
90
  1
10
  0
POINT
  8
_0-8__0-1_Defpoints
 62
    7
 10
-1010.918150357813
 20
-842.10251755184265
  0
POINT
  8
_0-8__0-1_Defpoints
 62
    7
 10
-1010.918150357813
 20
-851.9165175518425
  0
POINT
  8
_0-8__0-1_Defpoints
 62
    7
 10
-1050.6442709877781
 20
-851.9165175518425
  0
ENDBLK
  0
BLOCK
  2
-006-_D64
 70
   64
 10
0
 20
0
 30
0
  0
LINE
  8
_0-2_寸法
  6
CONTINUOUS
 62
    4
 10
-1010.918150357813
 20
-851.9165175518425
 11
-1050.6442709877781
 21
-851.9165175518425
  0
LINE
  8
_0-2_寸法
  6
CONTINUOUS
 62
    4
 10
-1010.918150357813
 20
-911.91651755184273
 11
-1050.6442709877781
 21
-911.91651755184273
  0
LINE
  8
_0-2_寸法
  6
CONTINUOUS
 62
    4
 10
-1050.6442709877781
 20
-852.9165175518425
 11
-1050.6442709877781
 21
-910.9165175518425
  0
INSERT
  2
-000-_Dot
  8
_0-2_寸法
 10
-1050.6442709877781
 20
-851.9165175518425
 41
1
 42
1
 50
90
  0
INSERT
  2
-000-_Dot
  8
_0-2_寸法
 10
-1050.6442709877781
 20
-911.91651755184273
 41
1
 42
1
 50
270
  0
TEXT
  8
_0-2_寸法
 62
    7
 10
-1051.6442709877781
 20
-884.62901755184282
 40
5
 41
1
 50
90
  1
60
  0
POINT
  8
_0-8__0-1_Defpoints
 62
    7
 10
-1010.918150357813
 20
-851.9165175518425
  0
POINT
  8
_0-8__0-1_Defpoints
 62
    7
 10
-1010.918150357813
 20
-911.91651755184273
  0
POINT
  8
_0-8__0-1_Defpoints
 62
    7
 10
-1050.6442709877781
 20
-911.91651755184273
  0
ENDBLK
  0
BLOCK
  2
-007-_D65
 70
   64
 10
0
 20
0
 30
0
  0
LINE
  8
_0-2_寸法
  6
CONTINUOUS
 62
    4
 10
-778.51871027272409
 20
-815.90251755184261
 11
-767.64827098777846
 21
-815.90251755184272
  0
LINE
  8
_0-2_寸法
  6
CONTINUOUS
 62
    4
 10
-778.51871027272409
 20
-831.90251755184261
 11
-767.64827098777846
 21
-831.90251755184283
  0
LINE
  8
_0-2_寸法
  6
CONTINUOUS
 62
    4
 10
-767.64827098777846
 20
-816.90251755184272
 11
-767.64827098777846
 21
-830.90251755184261
  0
INSERT
  2
-000-_Dot
  8
_0-2_寸法
 10
-767.64827098777846
 20
-815.90251755184272
 41
1
 42
1
 50
90
  0
INSERT
  2
-000-_Dot
  8
_0-2_寸法
 10
-767.64827098777846
 20
-831.90251755184283
 41
1
 42
1
 50
270
  0
TEXT
  8
_0-2_寸法
 62
    7
 10
-768.64827098777823
 20
-826.61501755184281
 40
5
 41
1
 50
90
  1
16
  0
POINT
  8
_0-8__0-1_Defpoints
 62
    7
 10
-778.51871027272409
 20
-815.90251755184261
  0
POINT
  8
_0-8__0-1_Defpoints
 62
    7
 10
-778.51871027272409
 20
-831.90251755184261
  0
POINT
  8
_0-8__0-1_Defpoints
 62
    7
 10
-767.64827098777846
 20
-831.90251755184283
  0
ENDBLK
  0
BLOCK
  2
-008-_D66
 70
   64
 10
0
 20
0
 30
0
  0
LINE
  8
_0-2_寸法
  6
CONTINUOUS
 62
    4
 10
-778.51871027272409
 20
-831.90251755184261
 11
-767.64827098777846
 21
-831.90251755184283
  0
LINE
  8
_0-2_寸法
  6
CONTINUOUS
 62
    4
 10
-778.51871027272409
 20
-866.20251755184256
 11
-767.64827098777846
 21
-866.20251755184279
  0
LINE
  8
_0-2_寸法
  6
CONTINUOUS
 62
    4
 10
-767.64827098777846
 20
-832.90251755184272
 11
-767.64827098777846
 21
-865.20251755184279
  0
INSERT
  2
-000-_Dot
  8
_0-2_寸法
 10
-767.64827098777846
 20
-831.90251755184283
 41
1
 42
1
 50
90
  0
INSERT
  2
-000-_Dot
  8
_0-2_寸法
 10
-767.64827098777846
 20
-866.20251755184279
 41
1
 42
1
 50
270
  0
TEXT
  8
_0-2_寸法
 62
    7
 10
-768.64827098777823
 20
-851.76501755184279
 40
5
 41
1
 50
90
  1
34
  0
POINT
  8
_0-8__0-1_Defpoints
 62
    7
 10
-778.51871027272409
 20
-831.90251755184261
  0
POINT
  8
_0-8__0-1_Defpoints
 62
    7
 10
-778.51871027272409
 20
-866.20251755184256
  0
POINT
  8
_0-8__0-1_Defpoints
 62
    7
 10
-767.64827098777846
 20
-866.20251755184279
  0
ENDBLK
  0
BLOCK
  2
-009-_D67
 70
   64
 10
0
 20
0
 30
0
  0
LINE
  8
_0-2_寸法
  6
CONTINUOUS
 62
    4
 10
-778.51871027272409
 20
-866.20251755184256
 11
-749.31827098777842
 21
-866.20251755184279
  0
LINE
  8
_0-2_寸法
  6
CONTINUOUS
 62
    4
 10
-778.51871027272409
 20
-815.90251755184261
 11
-749.31827098777842
 21
-815.90251755184272
  0
LINE
  8
_0-2_寸法
  6
CONTINUOUS
 62
    4
 10
-749.31827098777842
 20
-865.20251755184279
 11
-749.31827098777842
 21
-816.90251755184272
  0
INSERT
  2
-000-_Dot
  8
_0-2_寸法
 10
-749.31827098777842
 20
-866.20251755184279
 41
1
 42
1
 50
270
  0
INSERT
  2
-000-_Dot
  8
_0-2_寸法
 10
-749.31827098777842
 20
-815.90251755184272
 41
1
 42
1
 50
90
  0
TEXT
  8
_0-2_寸法
 62
    7
 10
-750.31827098777819
 20
-843.76501755184279
 40
5
 41
1
 50
90
  1
50
  0
POINT
  8
_0-8__0-1_Defpoints
 62
    7
 10
-778.51871027272409
 20
-866.20251755184256
  0
POINT
  8
_0-8__0-1_Defpoints
 62
    7
 10
-778.51871027272409
 20
-815.90251755184261
  0
POINT
  8
_0-8__0-1_Defpoints
 62
    7
 10
-749.31827098777842
 20
-815.90251755184272
  0
ENDBLK
  0
BLOCK
  2
-010-_D68
 70
   64
 10
0
 20
0
 30
0
  0
LINE
  8
_0-2_寸法
  6
CONTINUOUS
 62
    4
 10
-786.36827098777837
 20
-810.50047099825213
 11
-786.36827098777837
 21
-784.92351755184256
  0
LINE
  8
_0-2_寸法
  6
CONTINUOUS
 62
    4
 10
-792.76827098777835
 20
-810.50047099825213
 11
-792.76827098777835
 21
-784.92351755184256
  0
LINE
  8
_0-2_寸法
  6
CONTINUOUS
 62
    4
 10
-787.36827098777837
 20
-784.92351755184256
 11
-791.76827098777835
 21
-784.92351755184256
  0
INSERT
  2
-000-_Dot
  8
_0-2_寸法
 10
-786.36827098777837
 20
-784.92351755184256
 41
1
 42
1
 50
0
  0
INSERT
  2
-000-_Dot
  8
_0-2_寸法
 10
-792.76827098777835
 20
-784.92351755184256
 41
1
 42
1
 50
180
  0
TEXT
  8
_0-2_寸法
 62
    7
 10
-790.81827098777831
 20
-783.92351755184268
 40
5
 41
1
 50
0
  1
6
  0
POINT
  8
_0-8__0-1_Defpoints
 62
    7
 10
-786.36827098777837
 20
-810.50047099825213
  0
POINT
  8
_0-8__0-1_Defpoints
 62
    7
 10
-792.76827098777835
 20
-810.50047099825213
  0
POINT
  8
_0-8__0-1_Defpoints
 62
    7
 10
-792.76827098777835
 20
-784.92351755184256
  0
ENDBLK
  0
BLOCK
  2
-011-_D69
 70
   64
 10
0
 20
0
 30
0
  0
LINE
  8
_0-2_寸法
  6
CONTINUOUS
 62
    4
 10
-792.76827098777835
 20
-810.50047099825213
 11
-792.76827098777835
 21
-784.92351755184256
  0
LINE
  8
_0-2_寸法
  6
CONTINUOUS
 62
    4
 10
-811.36827098777849
 20
-810.50047099825213
 11
-811.36827098777849
 21
-784.92351755184256
  0
LINE
  8
_0-2_寸法
  6
CONTINUOUS
 62
    4
 10
-793.76827098777835
 20
-784.92351755184256
 11
-810.36827098777837
 21
-784.92351755184256
  0
INSERT
  2
-000-_Dot
  8
_0-2_寸法
 10
-792.76827098777835
 20
-784.92351755184256
 41
1
 42
1
 50
0
  0
INSERT
  2
-000-_Dot
  8
_0-2_寸法
 10
-811.36827098777849
 20
-784.92351755184256
 41
1
 42
1
 50
180
  0
TEXT
  8
_0-2_寸法
 62
    7
 10
-804.78077098777828
 20
-783.92351755184268
 40
5
 41
1
 50
0
  1
19
  0
POINT
  8
_0-8__0-1_Defpoints
 62
    7
 10
-792.76827098777835
 20
-810.50047099825213
  0
POINT
  8
_0-8__0-1_Defpoints
 62
    7
 10
-811.36827098777849
 20
-810.50047099825213
  0
POINT
  8
_0-8__0-1_Defpoints
 62
    7
 10
-811.36827098777849
 20
-784.92351755184256
  0
ENDBLK
  0
BLOCK
  2
-012-_D70
 70
   64
 10
0
 20
0
 30
0
  0
LINE
  8
_0-2_寸法
  6
CONTINUOUS
 62
    4
 10
-811.36827098777849
 20
-810.50047099825213
 11
-811.36827098777849
 21
-784.92351755184256
  0
LINE
  8
_0-2_寸法
  6
CONTINUOUS
 62
    4
 10
-1001.382270987778
 20
-810.50047099825213
 11
-1001.382270987778
 21
-784.92351755184256
  0
LINE
  8
_0-2_寸法
  6
CONTINUOUS
 62
    4
 10
-812.36827098777849
 20
-784.92351755184256
 11
-1000.382270987778
 21
-784.92351755184256
  0
INSERT
  2
-000-_Dot
  8
_0-2_寸法
 10
-811.36827098777849
 20
-784.92351755184256
 41
1
 42
1
 50
0
  0
INSERT
  2
-000-_Dot
  8
_0-2_寸法
 10
-1001.382270987778
 20
-784.92351755184256
 41
1
 42
1
 50
180
  0
TEXT
  8
_0-2_寸法
 62
    7
 10
-910.55027098777839
 20
-783.92351755184268
 40
5
 41
1
 50
0
  1
190
  0
POINT
  8
_0-8__0-1_Defpoints
 62
    7
 10
-811.36827098777849
 20
-810.50047099825213
  0
POINT
  8
_0-8__0-1_Defpoints
 62
    7
 10
-1001.382270987778
 20
-810.50047099825213
  0
POINT
  8
_0-8__0-1_Defpoints
 62
    7
 10
-1001.382270987778
 20
-784.92351755184256
  0
ENDBLK
  0
BLOCK
  2
-013-_D71
 70
   64
 10
0
 20
0
 30
0
  0
LINE
  8
_0-2_寸法
  6
CONTINUOUS
 62
    4
 10
-786.36827098777837
 20
-810.50047099825213
 11
-786.36827098777837
 21
-806.16351755184269
  0
LINE
  8
_0-2_寸法
  6
CONTINUOUS
 62
    4
 10
-811.36827098777849
 20
-810.50047099825213
 11
-811.36827098777849
 21
-806.16351755184269
  0
LINE
  8
_0-2_寸法
  6
CONTINUOUS
 62
    4
 10
-787.36827098777837
 20
-806.16351755184269
 11
-810.36827098777837
 21
-806.16351755184269
  0
INSERT
  2
-000-_Dot
  8
_0-2_寸法
 10
-786.36827098777837
 20
-806.16351755184269
 41
1
 42
1
 50
0
  0
INSERT
  2
-000-_Dot
  8
_0-2_寸法
 10
-811.36827098777849
 20
-806.16351755184269
 41
1
 42
1
 50
180
  0
TEXT
  8
_0-2_寸法
 62
    7
 10
-801.58077098777835
 20
-805.16351755184269
 40
5
 41
1
 50
0
  1
25
  0
POINT
  8
_0-8__0-1_Defpoints
 62
    7
 10
-786.36827098777837
 20
-810.50047099825213
  0
POINT
  8
_0-8__0-1_Defpoints
 62
    7
 10
-811.36827098777849
 20
-810.50047099825213
  0
POINT
  8
_0-8__0-1_Defpoints
 62
    7
 10
-811.36827098777849
 20
-806.16351755184269
  0
ENDBLK
  0
BLOCK
  2
-015-_D73
 70
   64
 10
0
 20
0
 30
0
  0
LINE
  8
_0-2_寸法
  6
CONTINUOUS
 62
    4
 10
-1000.882270987778
 20
-916.91651755184262
 11
-1000.882270987778
 21
-933.30351755184267
  0
LINE
  8
_0-2_寸法
  6
CONTINUOUS
 62
    4
 10
-985.38827098777836
 20
-916.91651755184262
 11
-985.38827098777836
 21
-933.30351755184267
  0
LINE
  8
_0-2_寸法
  6
CONTINUOUS
 62
    4
 10
-1001.882270987778
 20
-933.30351755184267
 11
-1002.882270987778
 21
-933.30351755184267
  0
LINE
  8
_0-2_寸法
  6
CONTINUOUS
 62
    4
 10
-984.38827098777836
 20
-933.30351755184267
 11
-983.38827098777836
 21
-933.30351755184267
  0
INSERT
  2
-000-_Dot
  8
_0-2_寸法
 10
-1000.882270987778
 20
-933.30351755184267
 41
1
 42
1
 50
0
  0
INSERT
  2
-000-_Dot
  8
_0-2_寸法
 10
-985.38827098777836
 20
-933.30351755184267
 41
1
 42
1
 50
180
  0
TEXT
  8
_0-2_寸法
 62
    7
 10
-1000.2352709877783
 20
-932.30351755184256
 40
5
 41
1
 50
0
  1
15~20
  0
POINT
  8
_0-8__0-1_Defpoints
 62
    7
 10
-1000.882270987778
 20
-916.91651755184262
  0
POINT
  8
_0-8__0-1_Defpoints
 62
    7
 10
-985.38827098777836
 20
-916.91651755184262
  0
POINT
  8
_0-8__0-1_Defpoints
 62
    7
 10
-985.38827098777836
 20
-933.30351755184267
  0
ENDBLK
  0
ENDSEC
  0
SECTION
  2
ENTITIES
  0
LINE
  8
_0-2_寸法
  6
CONTINUOUS
 62
    3
 10
207.04499999999973
 20
225.7711081421688
 11
207.04499999999973
 21
101.10550000000001
  0
LINE
  8
_0-4_笠木
  6
CONTINUOUS
 62
    4
 10
114.14800000000002
 20
172.6635
 11
298.22299999999996
 21
182.36850000000015
  0
LINE
  8
_0-4_笠木
  6
CONTINUOUS
 62
    4
 10
111.32599999999991
 20
174.49450000000013
 11
297.3449999999998
 21
184.31849999999997
  0
LINE
  8
_0-3_躯体
  6
CONTINUOUS
 62
    3
 10
176.1869999999999
 20
146.86850000000004
 11
275.26400000000001
 21
47.791500000000156
  0
LINE
  8
_0-3_躯体
  6
CONTINUOUS
 62
    3
 10
176.03700000000003
 20
149.01850000000002
 11
277.2639999999999
 21
47.791500000000156
  0
LINE
  8
_0-3_躯体
  6
CONTINUOUS
 62
    3
 10
176.03700000000003
 20
151.01850000000002
 11
279.84399999999982
 21
47.211500000000001
  0
LINE
  8
_0-3_躯体
  6
CONTINUOUS
 62
    4
 10
125.32499999999993
 20
160.21850000000006
 11
324.34499999999991
 21
160.21850000000006
  0
LINE
  8
_0-3_躯体
  6
CONTINUOUS
 62
    3
 10
126.32499999999993
 20
159.21850000000006
 11
324.34499999999991
 21
159.21850000000006
  0
LINE
  8
_0-5_受金具
  6
CONTINUOUS
 62
    4
 10
123.42097099999989
 20
160.21850000000006
 11
309.8449999999998
 21
160.21850000000006
  0
LINE
  8
_0-5_受金具
  6
CONTINUOUS
 62
    4
 10
139.04499999999973
 20
164.21849999999995
 11
211.54499999999985
 21
164.21849999999995
  0
LINE
  8
_0-4_笠木
  6
CONTINUOUS
 62
    4
 10
109.33100000000024
 20
115.00450000000001
 11
109.33100000000024
 21
172.49950000000001
  0
LINE
  8
_0-4_笠木
  6
CONTINUOUS
 62
    4
 10
111.3309999999999
 20
124.50450000000012
 11
111.3309999999999
 21
169.66849999999999
  0
LINE
  8
_0-2_寸法
  6
CONTINUOUS
 62
    3
 10
82.775000000000318
 20
114.50449999999989
 11
82.775000000000318
 21
160.21850000000006
  0
LINE
  8
_0-3_躯体
  6
CONTINUOUS
 62
    4
 10
125.32499999999993
 20
47.791500000000156
 11
125.32499999999993
 21
160.21850000000006
  0
LINE
  8
_0-3_躯体
  6
CONTINUOUS
 62
    3
 10
126.32499999999993
 20
47.791500000000156
 11
126.32499999999993
 21
159.21850000000006
  0
LINE
  8
_0-5_受金具
  6
CONTINUOUS
 62
    4
 10
120.95716100000004
 20
158.142338
 11
114.15075599999989
 21
124.70170100000007
  0
LINE
  8
_0-5_受金具
  6
CONTINUOUS
 62
    4
 10
117.74111600000003
 20
160.19907999999998
 11
111.54499999999985
 21
129.51948900000014
  0
LINE
  8
_0-3_躯体
  6
CONTINUOUS
 62
    3
 10
126.32499999999993
 20
92.66050000000007
 11
171.19400000000007
 21
47.791500000000156
  0
LINE
  8
_0-3_躯体
  6
CONTINUOUS
 62
    3
 10
126.32499999999993
 20
96.904499999999871
 11
175.43799999999999
 21
47.791500000000156
  0
LINE
  8
_0-3_躯体
  6
CONTINUOUS
 62
    3
 10
126.32499999999993
 20
94.782500000000027
 11
173.31600000000003
 21
47.791500000000156
  0
LINE
  8
_0-4_笠木
  6
CONTINUOUS
 62
    4
 10
111.3309999999999
 20
115.00450000000001
 11
111.3309999999999
 21
121.50450000000001
  0
ARC
  8
_0-4_笠木
  6
CONTINUOUS
 62
    4
 10
110.83100000000002
 20
115.00450000000001
 40
0.5
 50
270
 51
0
  0
ARC
  8
_0-4_笠木
  6
CONTINUOUS
 62
    4
 10
109.83100000000024
 20
115.00450000000001
 40
0.5
 50
180
 51
270
  0
LINE
  8
_0-4_笠木
  6
CONTINUOUS
 62
    4
 10
110.63100000000031
 20
114.50449999999989
 11
110.83100000000002
 21
114.50449999999989
  0
LINE
  8
_0-4_笠木
  6
CONTINUOUS
 62
    4
 10
109.83100000000024
 20
114.50449999999989
 11
110.63100000000031
 21
114.50449999999989
  0
LINE
  8
_0-5_受金具
  6
CONTINUOUS
 62
    4
 10
111.54499999999985
 20
125.05567299999996
 11
111.54499999999985
 21
129.51948900000014
  0
LINE
  8
_0-4_笠木
  6
CONTINUOUS
 62
    4
 10
114.279
 20
122.44949999999994
 11
111.3309999999999
 21
121.50450000000001
  0
LINE
  8
_0-4_笠木
  6
CONTINUOUS
 62
    4
 10
111.3309999999999
 20
124.50450000000012
 11
114.78599999999994
 21
124.74649999999997
  0
LINE
  8
_0-5_受金具
  6
CONTINUOUS
 62
    4
 10
112.07987800000001
 20
124.55689099999995
 11
114.15075599999989
 21
124.70170100000007
  0
ARC
  8
_0-5_受金具
  6
CONTINUOUS
 62
    4
 10
112.04499999999973
 20
125.05567299999996
 40
0.5
 50
180
 51
273.99999999999642
  0
ARC
  8
_0-4_笠木
  6
CONTINUOUS
 62
    4
 10
113.82099999999991
 20
123.87750000000005
 40
1.5
 50
287.78250099999434
 51
0.0000000000000127
  0
LINE
  8
_0-4_笠木
  6
CONTINUOUS
 62
    4
 10
115.32100000000003
 20
124.24749999999995
 11
115.32100000000003
 21
123.87750000000005
  0
ARC
  8
_0-4_笠木
  6
CONTINUOUS
 62
    4
 10
114.82099999999991
 20
124.24749999999995
 40
0.5
 50
0
 51
94.012168999994358
  0
ARC
  8
_0-4_笠木
  6
CONTINUOUS
 62
    4
 10
114.33100000000002
 20
169.66849999999999
 40
3
 50
93.496529000003491
 51
180
  0
LINE
  8
_0-4_笠木
  6
CONTINUOUS
 62
    4
 10
109.33100000000024
 20
172.49950000000001
 11
111.32599999999991
 21
174.49450000000013
  0
ARC
  8
_0-4_笠木
  6
CONTINUOUS
 62
    4
 10
114.33100000000002
 20
169.66949999999997
 40
3
 50
93.497695999994633
 51
180.03819299999958
  0
LINE
  8
_0-4_笠木
  6
CONTINUOUS
 62
    4
 10
111.3309999999999
 20
169.54250000000002
 11
111.3309999999999
 21
169.66750000000013
  0
ARC
  8
_0-5_受金具
  6
CONTINUOUS
 62
    4
 10
122.64401899999984
 20
159.21850000000006
 40
5
 50
90
 51
168.69006799999659
  0
ARC
  8
_0-5_受金具
  6
CONTINUOUS
 62
    4
 10
123.42097099999989
 20
157.71850000000006
 40
2.5
 50
90
 51
170.23919799999979
  0
ARC
  8
_0-5_受金具
  6
CONTINUOUS
 62
    3
 10
136.54499999999985
 20
146.41849999999999
 40
27.371935000000001
 50
77.337796000005355
 51
102.6622039999946
  0
LINE
  8
_0-5_受金具
  6
CONTINUOUS
 62
    4
 10
130.54499999999985
 20
169.41850000000011
 11
134.04499999999985
 21
169.41850000000011
  0
ARC
  8
_0-5_受金具
  6
CONTINUOUS
 62
    4
 10
136.54499999999985
 20
146.41849999999999
 40
25
 50
76.11345999999979
 51
103.88654000000018
  0
LINE
  8
_0-5_受金具
  6
CONTINUOUS
 62
    4
 10
122.64401899999984
 20
164.21849999999995
 11
134.04499999999985
 21
164.21849999999995
  0
LINE
  8
_0-5_受金具
  6
CONTINUOUS
 62
    3
 10
134.25910099999999
 20
173.69481599999995
 11
131.46022400000004
 21
170.895939
  0
LINE
  8
_0-5_受金具
  6
CONTINUOUS
 62
    3
 10
132.66279700000007
 20
173.51372600000002
 11
130.54499999999985
 21
171.39592900000002
  0
LINE
  8
_0-5_受金具
  6
CONTINUOUS
 62
    3
 10
133.47376399999985
 20
173.61758599999996
 11
130.54499999999985
 21
170.68782199999998
  0
LINE
  8
_0-5_受金具
  6
CONTINUOUS
 62
    3
 10
130.54499999999985
 20
173.124731
 11
130.54499999999985
 21
170.68782199999998
  0
LINE
  8
_0-5_受金具
  6
CONTINUOUS
 62
    3
 10
130.94666799999993
 20
173.21181000000013
 11
130.54499999999985
 21
172.81014200000016
  0
LINE
  8
_0-5_受金具
  6
CONTINUOUS
 62
    3
 10
131.82181199999991
 20
173.37984800000015
 11
130.54499999999985
 21
172.10303499999998
  0
LINE
  8
_0-5_受金具
  6
CONTINUOUS
 62
    4
 10
130.54499999999985
 20
170.68782199999998
 11
130.54499999999985
 21
169.41850000000011
  0
LINE
  8
_0-5_受金具
  6
CONTINUOUS
 62
    3
 10
142.54499999999973
 20
173.124731
 11
142.54499999999973
 21
170.68782199999998
  0
LINE
  8
_0-5_受金具
  6
CONTINUOUS
 62
    3
 10
142.24082099999987
 20
173.19125500000007
 11
140.19951399999991
 21
171.14994799999999
  0
LINE
  8
_0-5_受金具
  6
CONTINUOUS
 62
    3
 10
141.65220699999986
 20
173.3097479999999
 11
139.57648099999994
 21
171.23402099999998
  0
LINE
  8
_0-5_受金具
  6
CONTINUOUS
 62
    3
 10
141.05215499999986
 20
173.41680200000008
 11
138.93896699999993
 21
171.30361400000004
  0
LINE
  8
_0-5_受金具
  6
CONTINUOUS
 62
    3
 10
140.44011799999987
 20
173.51187200000015
 11
138.28604699999994
 21
171.35780100000011
  0
LINE
  8
_0-5_受金具
  6
CONTINUOUS
 62
    3
 10
139.81548699999985
 20
173.59434799999997
 11
137.61665899999991
 21
171.39552000000015
  0
LINE
  8
_0-5_受金具
  6
CONTINUOUS
 62
    3
 10
139.17757499999993
 20
173.66354200000001
 11
136.92957399999989
 21
171.41554100000008
  0
LINE
  8
_0-5_受金具
  6
CONTINUOUS
 62
    3
 10
138.52560800000003
 20
173.71868200000006
 11
136.22335599999997
 21
171.41642999999999
  0
LINE
  8
_0-5_受金具
  6
CONTINUOUS
 62
    3
 10
137.85870899999975
 20
173.75889000000006
 11
135.49631399999987
 21
171.39649499999996
  0
LINE
  8
_0-5_受金具
  6
CONTINUOUS
 62
    3
 10
137.17587500000002
 20
173.78316300000006
 11
134.74643100000003
 21
171.35371900000007
  0
LINE
  8
_0-5_受金具
  6
CONTINUOUS
 62
    3
 10
136.47595200000001
 20
173.79034700000011
 11
133.97127
 21
171.28566500000011
  0
LINE
  8
_0-5_受金具
  6
CONTINUOUS
 62
    3
 10
135.7576049999999
 20
173.77910599999996
 11
133.16784399999995
 21
171.189346
  0
LINE
  8
_0-5_受金具
  6
CONTINUOUS
 62
    3
 10
135.01926999999989
 20
173.74787800000001
 11
132.33241899999996
 21
171.06102699999997
  0
LINE
  8
_0-5_受金具
  6
CONTINUOUS
 62
    4
 10
139.04499999999973
 20
169.41850000000011
 11
142.54499999999973
 21
169.41850000000011
  0
LINE
  8
_0-5_受金具
  6
CONTINUOUS
 62
    4
 10
135.04499999999985
 20
165.21849999999995
 11
135.04499999999985
 21
168.41849999999988
  0
LINE
  8
_0-5_受金具
  6
CONTINUOUS
 62
    4
 10
138.04499999999973
 20
165.21849999999995
 11
138.04499999999973
 21
168.41849999999988
  0
ARC
  8
_0-5_受金具
  6
CONTINUOUS
 62
    4
 10
134.04499999999985
 20
165.21849999999995
 40
1
 50
270
 51
0
  0
ARC
  8
_0-5_受金具
  6
CONTINUOUS
 62
    4
 10
139.04499999999973
 20
165.21849999999995
 40
1
 50
180
 51
270
  0
ARC
  8
_0-5_受金具
  6
CONTINUOUS
 62
    4
 10
134.04499999999985
 20
168.41849999999988
 40
1
 50
0
 51
90
  0
ARC
  8
_0-5_受金具
  6
CONTINUOUS
 62
    4
 10
139.04499999999973
 20
168.41849999999988
 40
1
 50
90
 51
180
  0
LINE
  8
_0-5_受金具
  6
CONTINUOUS
 62
    4
 10
142.54499999999973
 20
169.41850000000011
 11
142.54499999999973
 21
170.68782199999998
  0
LINE
  8
_0-5_受金具
  6
CONTINUOUS
 62
    3
 10
141.98936400000002
 20
170.81847700000014
 11
142.54499999999973
 21
171.37411300000008
  0
LINE
  8
_0-5_受金具
  6
CONTINUOUS
 62
    3
 10
141.40528199999994
 20
170.94150200000001
 11
142.54499999999973
 21
172.08122000000014
  0
LINE
  8
_0-5_受金具
  6
CONTINUOUS
 62
    3
 10
140.80887599999994
 20
171.05220300000008
 11
142.54499999999973
 21
172.78832699999987
  0
LINE
  8
_0-3_躯体
  6
CONTINUOUS
 62
    3
 10
267.23099999999999
 20
159.21850000000006
 11
295.78599999999983
 21
130.6635
  0
LINE
  8
_0-3_躯体
  6
CONTINUOUS
 62
    3
 10
322.12499999999989
 20
141.87050000000011
 11
293.10900000000004
 21
125.11750000000006
  0
LINE
  8
_0-3_躯体
  6
CONTINUOUS
 62
    3
 10
320.32499999999982
 20
142.83050000000003
 11
291.10900000000004
 21
125.96349999999995
  0
LINE
  8
_0-3_躯体
  6
CONTINUOUS
 62
    4
 10
317.08000000000004
 20
142.95650000000001
 11
291.60799999999983
 21
128.25049999999999
  0
LINE
  8
_0-3_躯体
  6
CONTINUOUS
 62
    3
 10
263.0089999999999
 20
159.19650000000001
 11
293.09599999999989
 21
129.10950000000003
  0
LINE
  8
_0-3_躯体
  6
CONTINUOUS
 62
    3
 10
265.12
 20
159.10250000000008
 11
294.43999999999983
 21
129.88549999999998
  0
ARC
  8
_0-3_躯体
  6
CONTINUOUS
 62
    4
 10
318.52699999999993
 20
137.29549999999995
 40
5.8200000000000003
 50
358.58218399999777
 51
105.19207799999329
  0
LINE
  8
_0-3_躯体
  6
CONTINUOUS
 62
    4
 10
324.34499999999991
 20
160.51850000000002
 11
324.34499999999991
 21
137.15150000000006
  0
LINE
  8
_0-3_躯体
  6
CONTINUOUS
 62
    3
 10
365.93099999999993
 20
129.01150000000007
 11
299.15899999999988
 21
62.239500000000135
  0
LINE
  8
_0-3_躯体
  6
CONTINUOUS
 62
    3
 10
365.93099999999993
 20
133.25549999999987
 11
299.10799999999995
 21
66.432500000000005
  0
LINE
  8
_0-3_躯体
  6
CONTINUOUS
 62
    3
 10
365.93099999999993
 20
131.15650000000016
 11
299.11199999999985
 21
64.483500000000049
  0
LINE
  8
_0-3_躯体
  6
CONTINUOUS
 62
    4
 10
299.10799999999995
 20
122.58150000000012
 11
299.10799999999995
 21
47.791500000000156
  0
LINE
  8
_0-3_躯体
  6
CONTINUOUS
 62
    3
 10
297.09899999999993
 20
123.42150000000004
 11
297.09899999999993
 21
47.793499999999995
  0
LINE
  8
_0-3_躯体
  6
CONTINUOUS
 62
    3
 10
295.10899999999992
 20
124.27250000000004
 11
295.10899999999992
 21
47.793499999999995
  0
LINE
  8
_0-3_躯体
  6
CONTINUOUS
 62
    4
 10
289.10800000000006
 20
123.92050000000006
 11
289.10800000000006
 21
47.683499999999867
  0
LINE
  8
_0-3_躯体
  6
CONTINUOUS
 62
    3
 10
293.10900000000004
 20
125.11750000000006
 11
293.10900000000004
 21
47.793499999999995
  0
LINE
  8
_0-3_躯体
  6
CONTINUOUS
 62
    3
 10
291.10900000000004
 20
125.96349999999995
 11
291.10900000000004
 21
47.793499999999995
  0
LINE
  8
_0-2_寸法
  6
PLINE2
 62
    4
 10
324.34499999999991
 20
137.15150000000006
 11
324.34499999999991
 21
47.487499999999955
  0
LINE
  8
_0-3_躯体
  6
CONTINUOUS
 62
    3
 10
324.09100000000001
 20
139.00450000000001
 11
297.09899999999993
 21
123.42150000000004
  0
LINE
  8
_0-3_躯体
  6
CONTINUOUS
 62
    3
 10
323.33799999999985
 20
140.57050000000015
 11
295.10899999999992
 21
124.27250000000004
  0
LINE
  8
_0-3_躯体
  6
CONTINUOUS
 62
    4
 10
299.10799999999995
 20
122.58150000000012
 11
324.34499999999991
 21
137.15150000000006
  0
ARC
  8
_0-3_躯体
  6
CONTINUOUS
 62
    4
 10
294.10799999999995
 20
123.92050000000006
 40
5
 50
120.0007249999998
 51
180
  0
LINE
  8
_0-3_躯体
  6
CONTINUOUS
 62
    3
 10
324.34499999999991
 20
165.59249999999997
 11
365.93099999999993
 21
207.17250000000001
  0
LINE
  8
_0-3_躯体
  6
CONTINUOUS
 62
    3
 10
299.3449999999998
 20
218.63450000000012
 11
330.49899999999991
 21
249.7885
  0
LINE
  8
_0-3_躯体
  6
CONTINUOUS
 62
    3
 10
324.34499999999991
 20
169.5575
 11
365.93099999999993
 21
211.22249999999997
  0
LINE
  8
_0-3_躯体
  6
CONTINUOUS
 62
    3
 10
324.34499999999991
 20
167.44350000000009
 11
365.93099999999993
 21
209.08249999999998
  0
LINE
  8
_0-3_躯体
  6
CONTINUOUS
 62
    4
 10
299.3449999999998
 20
210.51850000000002
 11
299.3449999999998
 21
249.57050000000015
  0
LINE
  8
_0-3_躯体
  6
CONTINUOUS
 62
    3
 10
299.3449999999998
 20
222.87850000000003
 11
325.86500000000001
 21
249.39850000000001
  0
LINE
  8
_0-3_躯体
  6
CONTINUOUS
 62
    3
 10
299.3449999999998
 20
220.75650000000007
 11
328.37699999999995
 21
249.7885
  0
LINE
  8
_0-5_受金具
  6
CONTINUOUS
 62
    4
 10
304.84499999999991
 20
164.21849999999995
 11
212.54499999999985
 21
164.21849999999995
  0
LINE
  8
_0-4_笠木
  6
CONTINUOUS
 62
    4
 10
301.34499999999991
 20
185.4905
 11
298.22299999999996
 21
182.36850000000015
  0
LINE
  8
_0-3_躯体
  6
CONTINUOUS
 62
    4
 10
324.34499999999991
 20
160.51850000000002
 11
324.34499999999991
 21
210.51850000000002
  0
LINE
  8
_0-5_受金具
  6
CONTINUOUS
 62
    4
 10
309.8449999999998
 20
160.21850000000006
 11
309.8449999999998
 21
188.21850000000006
  0
LINE
  8
_0-5_受金具
  6
CONTINUOUS
 62
    4
 10
306.84499999999991
 20
166.21849999999995
 11
306.84499999999991
 21
192.21850000000006
  0
ARC
  8
_0-5_受金具
  6
CONTINUOUS
 62
    4
 10
304.84499999999991
 20
166.21849999999995
 40
2
 50
270
 51
0
  0
LINE
  8
_0-4_笠木
  6
CONTINUOUS
 62
    4
 10
299.3449999999998
 20
194.51850000000002
 11
318.3449999999998
 21
194.51850000000002
  0
LINE
  8
_0-4_笠木
  6
CONTINUOUS
 62
    4
 10
299.3449999999998
 20
194.51850000000002
 11
318.3449999999998
 21
194.51850000000002
  0
LINE
  8
_0-3_躯体
  6
CONTINUOUS
 62
    4
 10
324.34499999999991
 20
210.51850000000002
 11
299.3449999999998
 21
210.51850000000002
  0
ARC
  8
_0-5_受金具
  6
CONTINUOUS
 62
    4
 10
284.86700000000008
 20
202.51850000000002
 40
16.541
 50
331.07659900000061
 51
28.923393000002914
  0
LINE
  8
_0-4_笠木
  6
CONTINUOUS
 62
    4
 10
299.3449999999998
 20
186.31849999999997
 11
299.3449999999998
 21
194.51850000000002
  0
LINE
  8
_0-4_笠木
  6
CONTINUOUS
 62
    4
 10
297.57699999999988
 20
184.55050000000017
 11
299.3449999999998
 21
186.31849999999997
  0
LINE
  8
_0-4_笠木
  6
CONTINUOUS
 62
    4
 10
299.3449999999998
 20
186.31849999999997
 11
297.3449999999998
 21
184.31849999999997
  0
LINE
  8
_0-5_受金具
  6
CONTINUOUS
 62
    3
 10
312.30099999999993
 20
195.442452
 11
300.87800000000004
 21
206.86649999999997
  0
LINE
  8
_0-5_受金具
  6
CONTINUOUS
 62
    3
 10
312.30099999999993
 20
198.27150000000006
 11
300.05399999999986
 21
210.51850000000002
  0
LINE
  8
_0-5_受金具
  6
CONTINUOUS
 62
    3
 10
312.30099999999993
 20
201.09944799999994
 11
302.88304299999982
 21
210.51850000000002
  0
LINE
  8
_0-5_受金具
  6
CONTINUOUS
 62
    3
 10
312.30099999999993
 20
203.92849999999987
 11
305.71100000000001
 21
210.51850000000002
  0
LINE
  8
_0-5_受金具
  6
CONTINUOUS
 62
    3
 10
301.46799999999985
 20
204.01250000000016
 11
307.97399999999993
 21
210.51850000000002
  0
LINE
  8
_0-5_受金具
  6
CONTINUOUS
 62
    3
 10
301.49400000000003
 20
201.20950000000005
 11
310.803
 21
210.51850000000002
  0
LINE
  8
_0-5_受金具
  6
CONTINUOUS
 62
    3
 10
300.59799999999984
 20
197.4855
 11
312.30099999999993
 21
209.18849999999998
  0
LINE
  8
_0-5_受金具
  6
CONTINUOUS
 62
    3
 10
300.45899999999983
 20
194.51850000000002
 11
312.30099999999993
 21
206.36050000000012
  0
LINE
  8
_0-5_受金具
  6
CONTINUOUS
 62
    3
 10
312.30099999999993
 20
194.51850000000002
 11
312.30099999999993
 21
210.51850000000002
  0
LINE
  8
_0-5_受金具
  6
CONTINUOUS
 62
    3
 10
324.34499999999991
 20
210.51850000000002
 11
312.30099999999993
 21
194.51850000000002
  0
LINE
  8
_0-4_笠木
  6
CONTINUOUS
 62
    4
 10
318.3449999999998
 20
192.51850000000013
 11
314.3449999999998
 21
192.51850000000013
  0
LINE
  8
_0-4_笠木
  6
CONTINUOUS
 62
    4
 10
312.34499999999991
 20
192.51850000000013
 11
301.34499999999991
 21
192.51850000000013
  0
LINE
  8
_0-4_笠木
  6
CONTINUOUS
 62
    4
 10
301.34499999999991
 20
192.51850000000013
 11
301.34499999999991
 21
185.4905
  0
LINE
  8
_0-4_笠木
  6
CONTINUOUS
 62
    4
 10
312.34499999999991
 20
192.51850000000013
 11
312.34499999999991
 21
187.51850000000002
  0
LINE
  8
_0-4_笠木
  6
CONTINUOUS
 62
    4
 10
314.3449999999998
 20
192.51850000000013
 11
314.3449999999998
 21
184.51850000000013
  0
LINE
  8
_0-5_受金具
  6
CONTINUOUS
 62
    4
 10
310.43250099999989
 20
191.27849700000002
 11
312.15374999999995
 21
188.52449899999999
  0
LINE
  8
_0-4_笠木
  6
CONTINUOUS
 62
    4
 10
312.14499999999987
 20
184.71849999999995
 11
310.37699999999984
 21
186.48649999999998
  0
LINE
  8
_0-4_笠木
  6
CONTINUOUS
 62
    4
 10
310.34499999999991
 20
186.51850000000002
 11
312.34499999999991
 21
184.51850000000013
  0
LINE
  8
_0-4_笠木
  6
CONTINUOUS
 62
    4
 10
310.34499999999991
 20
187.51850000000002
 11
312.34499999999991
 21
187.51850000000002
  0
LINE
  8
_0-5_受金具
  6
CONTINUOUS
 62
    4
 10
309.8449999999998
 20
188.21850000000006
 11
311.98414999999989
 21
188.21850000000006
  0
LINE
  8
_0-4_笠木
  6
CONTINUOUS
 62
    4
 10
310.34499999999991
 20
187.51850000000002
 11
310.34499999999991
 21
186.51850000000002
  0
LINE
  8
_0-4_笠木
  6
CONTINUOUS
 62
    4
 10
314.3449999999998
 20
184.51850000000013
 11
312.34499999999991
 21
184.51850000000013
  0
LINE
  8
_0-4_笠木
  6
CONTINUOUS
 62
    4
 10
314.3449999999998
 20
184.51850000000013
 11
314.3839999999999
 21
184.51850000000013
  0
ARC
  8
_0-5_受金具
  6
CONTINUOUS
 62
    4
 10
311.98414999999989
 20
188.41849999999999
 40
0.2
 50
270
 51
32.005382999999902
  0
ARC
  8
_0-5_受金具
  6
CONTINUOUS
 62
    4
 10
308.73650499999985
 20
190.21849999999995
 40
2
 50
32.005382999999902
 51
90
  0
LINE
  8
_0-5_受金具
  6
CONTINUOUS
 62
    4
 10
308.73650499999985
 20
192.21850000000006
 11
306.84499999999991
 21
192.21850000000006
  0
LINE
  8
_0-5_受金具
  6
CONTINUOUS
 62
    3
 10
303.2879999999999
 20
194.51850000000002
 11
312.30099999999993
 21
203.53150000000005
  0
LINE
  8
_0-5_受金具
  6
CONTINUOUS
 62
    3
 10
306.11699499999986
 20
194.51850000000002
 11
312.30099999999993
 21
200.70354599999996
  0
LINE
  8
_0-5_受金具
  6
CONTINUOUS
 62
    3
 10
307.56899999999996
 20
194.51850000000002
 11
301.38799999999992
 21
200.69950000000006
  0
LINE
  8
_0-5_受金具
  6
CONTINUOUS
 62
    3
 10
310.39700000000005
 20
194.51850000000002
 11
301.53999999999974
 21
203.3755000000001
  0
LINE
  8
_0-5_受金具
  6
CONTINUOUS
 62
    3
 10
304.74000000000001
 20
194.51850000000002
 11
301.00900000000001
 21
198.24950000000001
  0
LINE
  8
_0-5_受金具
  6
CONTINUOUS
 62
    4
 10
301.91199999999992
 20
194.51850000000002
 11
300.21699999999998
 21
196.21350000000018
  0
LINE
  8
_0-5_受金具
  6
CONTINUOUS
 62
    3
 10
308.94499999999994
 20
194.51850000000002
 11
312.30099999999993
 21
197.87450000000001
  0
LINE
  8
_0-5_受金具
  6
CONTINUOUS
 62
    3
 10
311.84699999999987
 20
194.59250000000009
 11
312.30099999999993
 21
195.04650000000015
  0
LINE
  8
_0-4_笠木
  6
CONTINUOUS
 62
    4
 10
318.3449999999998
 20
194.51850000000002
 11
318.3449999999998
 21
192.51850000000013
  0
LINE
  8
_0-4_笠木
  6
CONTINUOUS
 62
    4
 10
316.16199999999992
 20
192.51850000000013
 11
318.34000000000003
 21
192.51850000000013
  0
LINE
  8
_0-5_受金具
  6
CONTINUOUS
 62
    4
 10
299.34479259862155
 20
194.51861234633282
 11
324.34499999999991
 21
194.51850000000002
  0
LINE
  8
_0-5_受金具
  6
CONTINUOUS
 62
    4
 10
317.94499999999994
 20
194.51850000000002
 11
318.3449999999998
 21
194.51850000000002
  0
LINE
  8
_0-5_受金具
  6
CONTINUOUS
 62
    3
 10
300.24199999999985
 20
208.44249999999988
 11
302.31799999999976
 21
210.51850000000002
  0
LINE
  8
_0-5_受金具
  6
CONTINUOUS
 62
    3
 10
301.06499999999994
 20
206.4375
 11
305.14600000000007
 21
210.51850000000002
  0
LINE
  8
_0-5_受金具
  6
CONTINUOUS
 62
    3
 10
312.30099999999993
 20
206.75638000000004
 11
308.54012299999988
 21
210.51850000000002
  0
LINE
  8
_0-5_受金具
  6
CONTINUOUS
 62
    3
 10
312.30099999999993
 20
209.58550000000002
 11
311.36799999999994
 21
210.51850000000002
  0
INSERT
  2
-003-_D61
  8
_0-2_寸法
 10
1110.7132709877783
 20
1026.4210175518426
 41
1
 42
1
 50
0
  0
INSERT
  2
-004-_D62
  8
_0-2_寸法
 10
1110.7132709877783
 20
1026.4210175518426
 41
1
 42
1
 50
0
  0
INSERT
  2
-005-_D63
  8
_0-2_寸法
 10
1110.7132709877783
 20
1026.4210175518426
 41
1
 42
1
 50
0
  0
INSERT
  2
-006-_D64
  8
_0-2_寸法
 10
1110.7132709877783
 20
1026.4210175518426
 41
1
 42
1
 50
0
  0
INSERT
  2
-007-_D65
  8
_0-2_寸法
 10
1110.7132709877783
 20
1026.4210175518426
 41
1
 42
1
 50
0
  0
INSERT
  2
-008-_D66
  8
_0-2_寸法
 10
1110.7132709877783
 20
1026.4210175518426
 41
1
 42
1
 50
0
  0
INSERT
  2
-009-_D67
  8
_0-2_寸法
 10
1110.7132709877783
 20
1026.4210175518426
 41
1
 42
1
 50
0
  0
INSERT
  2
-010-_D68
  8
_0-2_寸法
 10
1110.7132709877783
 20
1026.4210175518426
 41
1
 42
1
 50
0
  0
INSERT
  2
-011-_D69
  8
_0-2_寸法
 10
1110.7132709877783
 20
1026.4210175518426
 41
1
 42
1
 50
0
  0
INSERT
  2
-012-_D70
  8
_0-2_寸法
 10
1110.7132709877783
 20
1026.4210175518426
 41
1
 42
1
 50
0
  0
INSERT
  2
-013-_D71
  8
_0-2_寸法
 10
1110.7132709877783
 20
1026.4210175518426
 41
1
 42
1
 50
0
  0
INSERT
  2
-015-_D73
  8
_0-2_寸法
 10
1110.7132709877783
 20
1026.4210175518426
 41
1
 42
1
 50
0
  0
LINE
  8
_0-5_受金具
  6
CONTINUOUS
 62
    4
 10
299.34479371561588
 20
210.51838563218701
 11
324.34500111699424
 21
210.51827328585432
  0
LINE
  8
_0-5_受金具
  6
CONTINUOUS
 62
    4
 10
324.34482934150765
 20
210.51827328662637
 11
324.34499999999991
 21
194.51850000000002
  0
LINE
  8
_0-5_受金具
  6
PLINE2
 62
    3
 10
162.57243199999994
 20
140.218121
 11
161.07567699999993
 21
145.21812100000011
  0
LINE
  8
_0-5_受金具
  6
PLINE2
 62
    3
 10
163.63515099999995
 20
140.16242599999998
 11
162.08947000000001
 21
145.21812100000011
  0
LINE
  8
_0-5_受金具
  6
PLINE2
 62
    3
 10
171.66823499999975
 20
140.218121
 11
173.16498999999999
 21
145.21812100000011
  0
LINE
  8
_0-5_受金具
  6
PLINE2
 62
    3
 10
170.60551499999974
 20
140.16242599999998
 11
172.15119600000003
 21
145.21812100000011
  0
LINE
  8
_0-2_寸法
  6
CONTINUOUS
 62
    3
 10
167.04499999999973
 20
171.08150000000001
 11
167.04499999999973
 21
101.10550000000001
  0
LINE
  8
_0-5_受金具
  6
PLINE2
 62
    3
 10
169.56630399999995
 20
142.11070800000005
 11
169.67097599999977
 21
140.11344900000006
  0
LINE
  8
_0-5_受金具
  6
PLINE2
 62
    3
 10
169.16741500000001
 20
121.06098400000008
 11
167.54499999999985
 21
152.0184999999999
  0
LINE
  8
_0-5_受金具
  6
PLINE2
 62
    3
 10
164.52369599999986
 20
142.11070800000005
 11
164.41902400000004
 21
140.11344900000006
  0
LINE
  8
_0-5_受金具
  6
PLINE2
 62
    3
 10
164.92258500000003
 20
121.06098400000008
 11
166.54499999999985
 21
152.0184999999999
  0
LINE
  8
_0-5_受金具
  6
PLINE2
 62
    3
 10
170.08966299999975
 20
132.124413
 11
170.19433500000002
 21
130.12715400000002
  0
LINE
  8
_0-5_受金具
  6
PLINE2
 62
    3
 10
164.00033599999983
 20
132.124413
 11
163.89566500000001
 21
130.12715400000002
  0
LINE
  8
_0-5_受金具
  6
PLINE2
 62
    3
 10
163.73865699999999
 20
127.13126499999998
 11
163.63398499999994
 21
125.134006
  0
LINE
  8
_0-5_受金具
  6
PLINE2
 62
    3
 10
161.63672599999995
 20
125.23867800000005
 11
161.53205400000002
 21
123.24141900000006
  0
LINE
  8
_0-5_受金具
  6
PLINE2
 62
    3
 10
163.63398499999994
 20
125.134006
 11
161.63672599999995
 21
125.23867800000005
  0
LINE
  8
_0-5_受金具
  6
PLINE2
 62
    3
 10
163.42464099999984
 20
121.13948800000003
 11
164.92258500000003
 21
121.06098400000008
  0
LINE
  8
_0-5_受金具
  6
PLINE2
 62
    3
 10
161.53205400000002
 20
123.24141900000006
 11
163.42464099999984
 21
121.13948800000003
  0
LINE
  8
_0-5_受金具
  6
PLINE2
 62
    3
 10
165.02725699999985
 20
123.05824300000006
 11
161.53205400000002
 21
123.24141900000006
  0
LINE
  8
_0-5_受金具
  6
PLINE2
 62
    3
 10
161.79373399999974
 20
128.23456699999997
 11
163.73865699999999
 21
127.13126499999998
  0
LINE
  8
_0-5_受金具
  6
PLINE2
 62
    3
 10
161.89840499999991
 20
130.23182600000007
 11
161.79373399999974
 21
128.23456699999997
  0
LINE
  8
_0-5_受金具
  6
PLINE2
 62
    3
 10
163.89566500000001
 20
130.12715400000002
 11
161.89840499999991
 21
130.23182600000007
  0
LINE
  8
_0-5_受金具
  6
PLINE2
 62
    3
 10
166.98569399999974
 20
124.07780600000001
 11
168.91939499999989
 21
125.79347600000017
  0
LINE
  8
_0-5_受金具
  6
PLINE2
 62
    3
 10
165.17555500000003
 20
125.88794399999995
 11
167.04499999999973
 21
124.01850000000002
  0
LINE
  8
_0-5_受金具
  6
PLINE2
 62
    3
 10
170.35134300000004
 20
127.13126499999998
 11
170.45601499999998
 21
125.134006
  0
LINE
  8
_0-5_受金具
  6
PLINE2
 62
    3
 10
172.45327399999996
 20
125.23867800000005
 11
172.55794600000002
 21
123.24141900000006
  0
LINE
  8
_0-5_受金具
  6
PLINE2
 62
    3
 10
170.45601499999998
 20
125.134006
 11
172.45327399999996
 21
125.23867800000005
  0
LINE
  8
_0-5_受金具
  6
PLINE2
 62
    3
 10
170.66535899999985
 20
121.13948800000003
 11
169.16741500000001
 21
121.06098400000008
  0
LINE
  8
_0-5_受金具
  6
PLINE2
 62
    3
 10
172.55794600000002
 20
123.24141900000006
 11
170.66535899999985
 21
121.13948800000003
  0
LINE
  8
_0-5_受金具
  6
PLINE2
 62
    3
 10
169.06274299999995
 20
123.05824300000006
 11
172.55794600000002
 21
123.24141900000006
  0
LINE
  8
_0-5_受金具
  6
PLINE2
 62
    3
 10
172.29626599999995
 20
128.23456699999997
 11
170.35134300000004
 21
127.13126499999998
  0
LINE
  8
_0-5_受金具
  6
PLINE2
 62
    3
 10
172.19159400000001
 20
130.23182600000007
 11
172.29626599999995
 21
128.23456699999997
  0
LINE
  8
_0-5_受金具
  6
PLINE2
 62
    3
 10
170.19433500000002
 20
130.12715400000002
 11
172.19159400000001
 21
130.23182600000007
  0
LINE
  8
_0-5_受金具
  6
PLINE2
 62
    3
 10
164.2620159999999
 20
137.11756000000014
 11
164.15734399999985
 21
135.12030100000015
  0
LINE
  8
_0-5_受金具
  6
PLINE2
 62
    3
 10
162.05541299999993
 20
133.22771399999999
 11
164.00033599999983
 21
132.124413
  0
LINE
  8
_0-5_受金具
  6
PLINE2
 62
    3
 10
162.16008499999987
 20
135.22497299999998
 11
162.05541299999993
 21
133.22771399999999
  0
LINE
  8
_0-5_受金具
  6
PLINE2
 62
    3
 10
164.15734399999985
 20
135.12030100000015
 11
162.16008499999987
 21
135.22497299999998
  0
LINE
  8
_0-5_受金具
  6
PLINE2
 62
    3
 10
162.317093
 20
138.22086200000001
 11
164.2620159999999
 21
137.11756000000014
  0
LINE
  8
_0-5_受金具
  6
PLINE2
 62
    3
 10
162.42176499999994
 20
140.218121
 11
162.317093
 21
138.22086200000001
  0
LINE
  8
_0-5_受金具
  6
PLINE2
 62
    3
 10
164.41902400000004
 20
140.11344900000006
 11
162.42176499999994
 21
140.218121
  0
LINE
  8
_0-5_受金具
  6
PLINE2
 62
    3
 10
169.8279839999999
 20
137.11756000000014
 11
169.93265499999995
 21
135.12030100000015
  0
LINE
  8
_0-5_受金具
  6
PLINE2
 62
    3
 10
172.03458599999988
 20
133.22771399999999
 11
170.08966299999975
 21
132.124413
  0
LINE
  8
_0-5_受金具
  6
PLINE2
 62
    3
 10
171.92991399999983
 20
135.22497299999998
 11
172.03458599999988
 21
133.22771399999999
  0
LINE
  8
_0-5_受金具
  6
PLINE2
 62
    3
 10
169.93265499999995
 20
135.12030100000015
 11
171.92991399999983
 21
135.22497299999998
  0
LINE
  8
_0-5_受金具
  6
PLINE2
 62
    3
 10
171.77290700000003
 20
138.22086200000001
 11
169.8279839999999
 21
137.11756000000014
  0
LINE
  8
_0-5_受金具
  6
PLINE2
 62
    3
 10
171.66823499999975
 20
140.218121
 11
171.77290700000003
 21
138.22086200000001
  0
LINE
  8
_0-5_受金具
  6
PLINE2
 62
    3
 10
169.67097599999977
 20
140.11344900000006
 11
171.66823499999975
 21
140.218121
  0
LINE
  8
_0-5_受金具
  6
PLINE2
 62
    3
 10
172.15119600000003
 20
145.21812100000011
 11
173.06899699999985
 21
150.72492399999999
  0
LINE
  8
_0-5_受金具
  6
CONTINUOUS
 62
    3
 10
154.54499999999973
 20
165.01850000000002
 11
179.54499999999973
 21
165.01850000000002
  0
LINE
  8
_0-5_受金具
  6
PLINE2
 62
    3
 10
169.54499999999973
 20
164.79549999999995
 11
169.54499999999973
 21
160.01850000000002
  0
LINE
  8
_0-5_受金具
  6
PLINE2
 62
    3
 10
168.54499999999985
 20
164.79549999999995
 11
168.54499999999985
 21
160.01850000000002
  0
LINE
  8
_0-5_受金具
  6
PLINE2
 62
    3
 10
165.54499999999985
 20
164.79549999999995
 11
165.54499999999985
 21
160.01850000000002
  0
LINE
  8
_0-5_受金具
  6
PLINE2
 62
    3
 10
164.54499999999996
 20
164.79549999999995
 11
164.54499999999996
 21
160.01850000000002
  0
LINE
  8
_0-5_受金具
  6
PLINE2
 62
    3
 10
163.04499999999985
 20
148.01850000000002
 11
163.04499999999985
 21
152.0184999999999
  0
LINE
  8
_0-5_受金具
  6
PLINE2
 62
    3
 10
171.04499999999985
 20
148.01850000000002
 11
171.04499999999985
 21
152.0184999999999
  0
LINE
  8
_0-5_受金具
  6
PLINE2
 62
    3
 10
164.78537599999993
 20
147.10385600000006
 11
164.68070399999999
 21
145.10659700000008
  0
LINE
  8
_0-5_受金具
  6
PLINE2
 62
    3
 10
162.08947000000001
 20
145.21812100000011
 11
161.17166999999995
 21
150.72492399999999
  0
LINE
  8
_0-5_受金具
  6
PLINE2
 62
    3
 10
161.07567699999993
 20
145.21812100000011
 11
160.18527599999993
 21
150.56052499999998
  0
LINE
  8
_0-5_受金具
  6
PLINE2
 62
    3
 10
164.68070399999999
 20
145.10659700000008
 11
162.68344500000001
 21
145.21126900000002
  0
LINE
  8
_0-5_受金具
  6
PLINE2
 62
    3
 10
162.57877299999996
 20
143.21401000000003
 11
164.52369599999986
 21
142.11070800000005
  0
LINE
  8
_0-5_受金具
  6
PLINE2
 62
    3
 10
162.68344500000001
 20
145.21126900000002
 11
162.57877299999996
 21
143.21401000000003
  0
ARC
  8
_0-5_受金具
  6
PLINE2
 62
    3
 10
160.67847299999994
 20
150.64272500000015
 40
0.5
 50
9.4623220000007073
 51
189.46232200000071
  0
LINE
  8
_0-5_受金具
  6
PLINE2
 62
    3
 10
163.04499999999985
 20
148.01850000000002
 11
164.78537599999993
 21
147.10385600000006
  0
LINE
  8
_0-5_受金具
  6
PLINE2
 62
    3
 10
169.30462399999976
 20
147.10385600000006
 11
169.40929600000004
 21
145.10659700000008
  0
LINE
  8
_0-5_受金具
  6
PLINE2
 62
    3
 10
171.51122699999996
 20
143.21401000000003
 11
169.56630399999995
 21
142.11070800000005
  0
LINE
  8
_0-5_受金具
  6
PLINE2
 62
    3
 10
171.40655500000003
 20
145.21126900000002
 11
171.51122699999996
 21
143.21401000000003
  0
LINE
  8
_0-5_受金具
  6
PLINE2
 62
    3
 10
169.40929600000004
 20
145.10659700000008
 11
171.40655500000003
 21
145.21126900000002
  0
LINE
  8
_0-5_受金具
  6
PLINE2
 62
    3
 10
171.04499999999985
 20
148.01850000000002
 11
169.30462399999976
 21
147.10385600000006
  0
LINE
  8
_0-5_受金具
  6
PLINE2
 62
    3
 10
162.04499999999985
 20
160.01850000000002
 11
167.04499999999973
 21
160.01850000000002
  0
LINE
  8
_0-3_躯体
  6
CONTINUOUS
 62
    3
 10
158.83699999999988
 20
159.21850000000006
 11
163.03700000000003
 21
155.01850000000013
  0
LINE
  8
_0-3_躯体
  6
CONTINUOUS
 62
    3
 10
160.83699999999999
 20
159.21850000000006
 11
163.03700000000003
 21
157.01850000000002
  0
LINE
  8
_0-5_受金具
  6
PLINE2
 62
    3
 10
162.04499999999985
 20
160.01850000000002
 11
163.04499999999985
 21
155.01850000000013
  0
LINE
  8
_0-5_受金具
  6
PLINE2
 62
    3
 10
163.04499999999985
 20
160.01850000000002
 11
163.04499999999985
 21
152.0184999999999
  0
LINE
  8
_0-5_受金具
  6
PLINE2
 62
    3
 10
167.04499999999973
 20
155.01850000000013
 11
167.04499999999973
 21
160.01850000000002
  0
LINE
  8
_0-5_受金具
  6
PLINE2
 62
    3
 10
168.04499999999996
 20
160.01850000000002
 11
167.04499999999973
 21
155.01850000000013
  0
LINE
  8
_0-5_受金具
  6
PLINE2
 62
    3
 10
166.04499999999973
 20
160.01850000000002
 11
167.04499999999973
 21
155.01850000000013
  0
LINE
  8
_0-5_受金具
  6
PLINE2
 62
    3
 10
172.04499999999985
 20
160.01850000000002
 11
171.04499999999985
 21
155.01850000000013
  0
LINE
  8
_0-5_受金具
  6
PLINE2
 62
    3
 10
171.04499999999985
 20
160.01850000000002
 11
171.04499999999985
 21
152.0184999999999
  0
LINE
  8
_0-5_受金具
  6
PLINE2
 62
    3
 10
166.54499999999985
 20
152.0184999999999
 11
167.04499999999973
 21
152.0184999999999
  0
LINE
  8
_0-5_受金具
  6
PLINE2
 62
    3
 10
167.54499999999985
 20
152.0184999999999
 11
167.04499999999973
 21
152.0184999999999
  0
LINE
  8
_0-5_受金具
  6
PLINE2
 62
    3
 10
172.04499999999985
 20
160.01850000000002
 11
167.04499999999973
 21
160.01850000000002
  0
LINE
  8
_0-5_受金具
  6
CONTINUOUS
 62
    3
 10
154.54499999999973
 20
164.01850000000002
 11
154.54499999999973
 21
165.01850000000002
  0
ARC
  8
_0-5_受金具
  6
CONTINUOUS
 62
    4
 10
167.04499999999973
 20
163.01850000000013
 40
5.4000000000000004
 50
90
 51
128.8510620000022
  0
ARC
  8
_0-5_受金具
  6
CONTINUOUS
 62
    4
 10
165.54223799999977
 20
164.88978999999995
 40
3
 50
128.61463800000206
 51
177.54107399999734
  0
ARC
  8
_0-5_受金具
  6
CONTINUOUS
 62
    4
 10
167.04499999999973
 20
163.01850000000013
 40
5.4000000000000004
 50
51.317813000002687
 51
90
  0
ARC
  8
_0-5_受金具
  6
CONTINUOUS
 62
    4
 10
168.54776200000003
 20
164.88978999999995
 40
3
 50
2.458926000002652
 51
51.385361999997833
  0
LINE
  8
_0-5_受金具
  6
PLINE2
 62
    3
 10
173.16498999999999
 20
145.21812100000011
 11
174.05539099999976
 21
150.56052499999998
  0
ARC
  8
_0-5_受金具
  6
PLINE2
 62
    3
 10
173.56219399999986
 20
150.64272500000015
 40
0.5
 50
350.53767799999929
 51
170.53767799999923
  0
LINE
  8
_0-5_受金具
  6
CONTINUOUS
 62
    3
 10
179.54499999999973
 20
165.01850000000002
 11
179.54499999999973
 21
164.01850000000002
  0
LINE
  8
_0-2_寸法
  6
CONTINUOUS
 62
    3
 10
247.04499999999985
 20
101.10550000000001
 11
247.04499999999985
 21
171.08150000000001
  0
LINE
  8
_0-5_受金具
  6
PLINE2
 62
    3
 10
244.52369599999997
 20
142.10507499999994
 11
244.41902400000004
 21
140.10781599999996
  0
LINE
  8
_0-5_受金具
  6
PLINE2
 62
    3
 10
244.92258499999991
 20
121.05535099999997
 11
246.54499999999973
 21
152.01286600000014
  0
LINE
  8
_0-5_受金具
  6
PLINE2
 62
    3
 10
242.57243199999994
 20
140.21248800000001
 11
241.07567699999981
 21
145.21248799999989
  0
LINE
  8
_0-5_受金具
  6
PLINE2
 62
    3
 10
243.63515100000006
 20
140.15679299999999
 11
242.08946999999989
 21
145.21248799999989
  0
LINE
  8
_0-5_受金具
  6
PLINE2
 62
    3
 10
251.66823499999987
 20
140.21248800000001
 11
253.16498999999988
 21
145.21248799999989
  0
LINE
  8
_0-5_受金具
  6
PLINE2
 62
    3
 10
250.60551500000008
 20
140.15679299999999
 11
252.15119599999991
 21
145.21248799999989
  0
LINE
  8
_0-5_受金具
  6
PLINE2
 62
    3
 10
249.56630399999983
 20
142.10507499999994
 11
249.67097599999988
 21
140.10781599999996
  0
LINE
  8
_0-5_受金具
  6
PLINE2
 62
    3
 10
249.16741499999989
 20
121.05535099999997
 11
247.54499999999996
 21
152.01286600000014
  0
LINE
  8
_0-5_受金具
  6
PLINE2
 62
    3
 10
246.98569400000008
 20
124.07217200000002
 11
248.91939500000001
 21
125.78784300000007
  0
LINE
  8
_0-5_受金具
  6
PLINE2
 62
    3
 10
244.00033599999995
 20
132.11877900000002
 11
243.89566499999989
 21
130.12152000000015
  0
LINE
  8
_0-5_受金具
  6
PLINE2
 62
    3
 10
243.73865699999976
 20
127.12563200000011
 11
243.63398500000005
 21
125.12837300000012
  0
LINE
  8
_0-5_受金具
  6
PLINE2
 62
    3
 10
245.17555499999992
 20
125.88231100000007
 11
247.04499999999985
 21
124.01286600000003
  0
LINE
  8
_0-5_受金具
  6
PLINE2
 62
    3
 10
241.63672599999995
 20
125.23304500000006
 11
241.5320539999999
 21
123.23578600000008
  0
LINE
  8
_0-5_受金具
  6
PLINE2
 62
    3
 10
243.63398500000005
 20
125.12837300000012
 11
241.63672599999995
 21
125.23304500000006
  0
LINE
  8
_0-5_受金具
  6
PLINE2
 62
    3
 10
243.42464099999984
 20
121.13385500000004
 11
244.92258499999991
 21
121.05535099999997
  0
LINE
  8
_0-5_受金具
  6
PLINE2
 62
    3
 10
241.5320539999999
 20
123.23578600000008
 11
243.42464099999984
 21
121.13385500000004
  0
LINE
  8
_0-5_受金具
  6
PLINE2
 62
    3
 10
245.02725699999996
 20
123.05261000000007
 11
241.5320539999999
 21
123.23578600000008
  0
LINE
  8
_0-5_受金具
  6
PLINE2
 62
    3
 10
241.79373399999986
 20
128.22893299999987
 11
243.73865699999976
 21
127.12563200000011
  0
LINE
  8
_0-5_受金具
  6
PLINE2
 62
    3
 10
241.89840500000003
 20
130.22619199999997
 11
241.79373399999986
 21
128.22893299999987
  0
LINE
  8
_0-5_受金具
  6
PLINE2
 62
    3
 10
243.89566499999989
 20
130.12152000000015
 11
241.89840500000003
 21
130.22619199999997
  0
LINE
  8
_0-5_受金具
  6
PLINE2
 62
    3
 10
244.26201600000002
 20
137.11192700000015
 11
244.15734399999997
 21
135.11466799999994
  0
LINE
  8
_0-5_受金具
  6
PLINE2
 62
    3
 10
242.05541299999993
 20
133.22208100000012
 11
244.00033599999995
 21
132.11877900000002
  0
LINE
  8
_0-5_受金具
  6
PLINE2
 62
    3
 10
242.16008499999975
 20
135.2193400000001
 11
242.05541299999993
 21
133.22208100000012
  0
LINE
  8
_0-5_受金具
  6
PLINE2
 62
    3
 10
244.15734399999997
 20
135.11466799999994
 11
242.16008499999975
 21
135.2193400000001
  0
LINE
  8
_0-5_受金具
  6
PLINE2
 62
    3
 10
242.31709299999989
 20
138.21522900000002
 11
244.26201600000002
 21
137.11192700000015
  0
LINE
  8
_0-5_受金具
  6
PLINE2
 62
    3
 10
242.42176499999994
 20
140.21248800000001
 11
242.31709299999989
 21
138.21522900000002
  0
LINE
  8
_0-5_受金具
  6
PLINE2
 62
    3
 10
244.41902400000004
 20
140.10781599999996
 11
242.42176499999994
 21
140.21248800000001
  0
LINE
  8
_0-5_受金具
  6
PLINE2
 62
    3
 10
250.08966300000009
 20
132.11877900000002
 11
250.19433499999991
 21
130.12152000000015
  0
LINE
  8
_0-5_受金具
  6
PLINE2
 62
    3
 10
250.35134299999993
 20
127.12563200000011
 11
250.45601500000009
 21
125.12837300000012
  0
LINE
  8
_0-5_受金具
  6
PLINE2
 62
    3
 10
252.45327400000008
 20
125.23304500000006
 11
252.5579459999999
 21
123.23578600000008
  0
LINE
  8
_0-5_受金具
  6
PLINE2
 62
    3
 10
250.45601500000009
 20
125.12837300000012
 11
252.45327400000008
 21
125.23304500000006
  0
LINE
  8
_0-5_受金具
  6
PLINE2
 62
    3
 10
250.66535899999974
 20
121.13385500000004
 11
249.16741499999989
 21
121.05535099999997
  0
LINE
  8
_0-5_受金具
  6
PLINE2
 62
    3
 10
252.5579459999999
 20
123.23578600000008
 11
250.66535899999974
 21
121.13385500000004
  0
LINE
  8
_0-5_受金具
  6
PLINE2
 62
    3
 10
249.06274299999984
 20
123.05261000000007
 11
252.5579459999999
 21
123.23578600000008
  0
LINE
  8
_0-5_受金具
  6
PLINE2
 62
    3
 10
252.29626599999983
 20
128.22893299999987
 11
250.35134299999993
 21
127.12563200000011
  0
LINE
  8
_0-5_受金具
  6
PLINE2
 62
    3
 10
252.1915939999999
 20
130.22619199999997
 11
252.29626599999983
 21
128.22893299999987
  0
LINE
  8
_0-5_受金具
  6
PLINE2
 62
    3
 10
250.19433499999991
 20
130.12152000000015
 11
252.1915939999999
 21
130.22619199999997
  0
LINE
  8
_0-5_受金具
  6
PLINE2
 62
    3
 10
249.82798400000001
 20
137.11192700000015
 11
249.93265499999984
 21
135.11466799999994
  0
LINE
  8
_0-5_受金具
  6
PLINE2
 62
    3
 10
252.03458599999999
 20
133.22208100000012
 11
250.08966300000009
 21
132.11877900000002
  0
LINE
  8
_0-5_受金具
  6
PLINE2
 62
    3
 10
251.92991399999994
 20
135.2193400000001
 11
252.03458599999999
 21
133.22208100000012
  0
LINE
  8
_0-5_受金具
  6
PLINE2
 62
    3
 10
249.93265499999984
 20
135.11466799999994
 11
251.92991399999994
 21
135.2193400000001
  0
LINE
  8
_0-5_受金具
  6
PLINE2
 62
    3
 10
251.77290699999992
 20
138.21522900000002
 11
249.82798400000001
 21
137.11192700000015
  0
LINE
  8
_0-5_受金具
  6
PLINE2
 62
    3
 10
251.66823499999987
 20
140.21248800000001
 11
251.77290699999992
 21
138.21522900000002
  0
LINE
  8
_0-5_受金具
  6
PLINE2
 62
    3
 10
249.67097599999988
 20
140.10781599999996
 11
251.66823499999987
 21
140.21248800000001
  0
LINE
  8
_0-5_受金具
  6
CONTINUOUS
 62
    4
 10
207.04499999999973
 20
163.71850000000006
 11
206.54499999999985
 21
164.21849999999995
  0
LINE
  8
_0-5_受金具
  6
CONTINUOUS
 62
    4
 10
207.04499999999973
 20
163.71850000000006
 11
207.54499999999985
 21
164.21849999999995
  0
LINE
  8
_0-5_受金具
  6
PLINE2
 62
    3
 10
249.553
 20
164.79549999999995
 11
249.553
 21
160.01850000000002
  0
LINE
  8
_0-5_受金具
  6
PLINE2
 62
    3
 10
248.553
 20
164.79549999999995
 11
248.553
 21
160.01850000000002
  0
LINE
  8
_0-5_受金具
  6
PLINE2
 62
    3
 10
245.55299999999988
 20
164.79549999999995
 11
245.55299999999988
 21
160.01850000000002
  0
LINE
  8
_0-5_受金具
  6
PLINE2
 62
    3
 10
244.55299999999988
 20
164.79549999999995
 11
244.55299999999988
 21
160.01850000000002
  0
LINE
  8
_0-5_受金具
  6
PLINE2
 62
    3
 10
252.04499999999996
 20
160.01286600000014
 11
247.04499999999985
 21
160.01286600000014
  0
LINE
  8
_0-5_受金具
  6
PLINE2
 62
    3
 10
243.04499999999996
 20
148.01286600000003
 11
243.04499999999996
 21
152.01286600000014
  0
LINE
  8
_0-5_受金具
  6
PLINE2
 62
    3
 10
242.08946999999989
 20
145.21248799999989
 11
241.17166999999995
 21
150.719291
  0
LINE
  8
_0-5_受金具
  6
PLINE2
 62
    3
 10
241.07567699999981
 20
145.21248799999989
 11
240.18527599999993
 21
150.554892
  0
ARC
  8
_0-5_受金具
  6
PLINE2
 62
    3
 10
240.67847299999994
 20
150.63709100000017
 40
0.5
 50
9.4623220000007073
 51
189.46232200000071
  0
LINE
  8
_0-5_受金具
  6
PLINE2
 62
    3
 10
244.78537600000004
 20
147.09822200000008
 11
244.68070399999988
 21
145.10096299999998
  0
LINE
  8
_0-5_受金具
  6
PLINE2
 62
    3
 10
242.57877299999984
 20
143.20837600000016
 11
244.52369599999997
 21
142.10507499999994
  0
LINE
  8
_0-5_受金具
  6
PLINE2
 62
    3
 10
242.68344499999989
 20
145.20563500000014
 11
242.57877299999984
 21
143.20837600000016
  0
LINE
  8
_0-5_受金具
  6
PLINE2
 62
    3
 10
244.68070399999988
 20
145.10096299999998
 11
242.68344499999989
 21
145.20563500000014
  0
LINE
  8
_0-5_受金具
  6
PLINE2
 62
    3
 10
243.04499999999996
 20
148.01286600000003
 11
244.78537600000004
 21
147.09822200000008
  0
LINE
  8
_0-5_受金具
  6
PLINE2
 62
    3
 10
247.04499999999985
 20
155.01286600000003
 11
247.04499999999985
 21
160.01286600000014
  0
LINE
  8
_0-5_受金具
  6
PLINE2
 62
    3
 10
248.04499999999985
 20
160.01286600000014
 11
247.04499999999985
 21
155.01286600000003
  0
LINE
  8
_0-5_受金具
  6
PLINE2
 62
    3
 10
246.04499999999985
 20
160.01286600000014
 11
247.04499999999985
 21
155.01286600000003
  0
LINE
  8
_0-5_受金具
  6
PLINE2
 62
    3
 10
242.04499999999973
 20
160.01286600000014
 11
243.04499999999996
 21
155.01286600000003
  0
LINE
  8
_0-5_受金具
  6
PLINE2
 62
    3
 10
243.04499999999996
 20
160.01286600000014
 11
243.04499999999996
 21
152.01286600000014
  0
LINE
  8
_0-5_受金具
  6
PLINE2
 62
    3
 10
247.54499999999996
 20
152.01286600000014
 11
247.04499999999985
 21
152.01286600000014
  0
LINE
  8
_0-5_受金具
  6
PLINE2
 62
    3
 10
246.54499999999973
 20
152.01286600000014
 11
247.04499999999985
 21
152.01286600000014
  0
LINE
  8
_0-5_受金具
  6
PLINE2
 62
    3
 10
242.04499999999973
 20
160.01286600000014
 11
247.04499999999985
 21
160.01286600000014
  0
LINE
  8
_0-5_受金具
  6
PLINE2
 62
    3
 10
251.04499999999996
 20
148.01286600000003
 11
251.04499999999996
 21
152.01286600000014
  0
LINE
  8
_0-5_受金具
  6
PLINE2
 62
    3
 10
253.16498999999988
 20
145.21248799999989
 11
254.05539099999987
 21
150.554892
  0
LINE
  8
_0-5_受金具
  6
PLINE2
 62
    3
 10
252.15119599999991
 20
145.21248799999989
 11
253.06899699999974
 21
150.719291
  0
LINE
  8
_0-5_受金具
  6
PLINE2
 62
    3
 10
249.30462399999988
 20
147.09822200000008
 11
249.40929599999993
 21
145.10096299999998
  0
LINE
  8
_0-5_受金具
  6
PLINE2
 62
    3
 10
251.51122699999985
 20
143.20837600000016
 11
249.56630399999983
 21
142.10507499999994
  0
LINE
  8
_0-5_受金具
  6
PLINE2
 62
    3
 10
251.40655499999991
 20
145.20563500000014
 11
251.51122699999985
 21
143.20837600000016
  0
LINE
  8
_0-5_受金具
  6
PLINE2
 62
    3
 10
249.40929599999993
 20
145.10096299999998
 11
251.40655499999991
 21
145.20563500000014
  0
LINE
  8
_0-5_受金具
  6
PLINE2
 62
    3
 10
251.04499999999996
 20
148.01286600000003
 11
249.30462399999988
 21
147.09822200000008
  0
ARC
  8
_0-5_受金具
  6
PLINE2
 62
    3
 10
253.56219399999998
 20
150.63709100000017
 40
0.5
 50
350.53767799999929
 51
170.53767799999923
  0
LINE
  8
_0-5_受金具
  6
PLINE2
 62
    3
 10
252.04499999999996
 20
160.01286600000014
 11
251.04499999999996
 21
155.01286600000003
  0
LINE
  8
_0-5_受金具
  6
PLINE2
 62
    3
 10
251.04499999999996
 20
160.01286600000014
 11
251.04499999999996
 21
152.01286600000014
  0
ARC
  8
_0-5_受金具
  6
CONTINUOUS
 62
    4
 10
247.04499999999985
 20
163.01286600000003
 40
5.4000000000000004
 50
51.317813000002687
 51
90
  0
LINE
  8
_0-5_受金具
  6
CONTINUOUS
 62
    3
 10
234.54499999999985
 20
165.01286600000003
 11
259.54499999999985
 21
165.01286600000003
  0
LINE
  8
_0-5_受金具
  6
CONTINUOUS
 62
    3
 10
234.54499999999985
 20
164.01286600000003
 11
234.54499999999985
 21
165.01286600000003
  0
ARC
  8
_0-5_受金具
  6
CONTINUOUS
 62
    4
 10
247.04499999999985
 20
163.01286600000003
 40
5.4000000000000004
 50
90
 51
128.8510620000022
  0
ARC
  8
_0-5_受金具
  6
CONTINUOUS
 62
    4
 10
245.54223799999988
 20
164.88415700000007
 40
3
 50
128.61463800000206
 51
177.54107399999734
  0
ARC
  8
_0-5_受金具
  6
CONTINUOUS
 62
    4
 10
248.54776200000003
 20
164.88415700000007
 40
3
 50
2.458926000002652
 51
51.385361999997833
  0
LINE
  8
_0-5_受金具
  6
CONTINUOUS
 62
    3
 10
259.54499999999985
 20
165.01286600000003
 11
259.54499999999985
 21
164.01286600000003
  0
INSERT
  2
-002-_D60
  8
_0-2_寸法
 10
1105.7132709877783
 20
1026.4210175518426
 41
1
 42
1
 50
0
  0
INSERT
  2
-001-_D59
  8
_0-2_寸法
 10
1105.7132709877783
 20
1026.4210175518426
 41
1
 42
1
 50
0
  0
POINT
  8
_0-0_
 62
    3
 10
207.04499999999973
 20
225.7711081421688
  0
POINT
  8
_0-0_
 62
    3
 10
299.3449999999998
 20
225.7711081421688
  0
LINE
  8
_0-0_
  6
CONTINUOUS
 62
    4
 10
207.04499999999973
 20
225.7711081421688
 11
207.04499999999973
 21
223.73240107899775
  0
LINE
  8
_0-0_
  6
CONTINUOUS
 62
    4
 10
299.3449999999998
 20
225.7711081421688
 11
299.3449999999998
 21
223.73240107899775
  0
LINE
  8
_0-0_
  6
CONTINUOUS
 62
    4
 10
207.04499999999973
 20
225.7711081421688
 11
299.3449999999998
 21
225.7711081421688
  0
TEXT
  8
_0-0_
 62
    7
 10
248.81999999999977
 20
226.2711081421688
 40
4
 41
1
 50
0
  1
92.3
  0
ENDSEC
  0
EOF
