  0
SECTION
  2
HEADER
  9
$ACADVER
  1
AC1009
  9
$INSBASE
 10
0
 20
0
 30
0
  9
$EXTMIN
 10
0
 20
0
  9
$EXTMAX
 10
420
 20
297
  9
$LIMMIN
 10
0
 20
0
  9
$LIMMAX
 10
420
 20
297
  9
$LTSCALE
 40
1
  0
ENDSEC
  0
SECTION
  2
TABLES
  0
TABLE
  2
LTYPE
 70
     9
  0
LTYPE
  2
CONTINUOUS
 70
    64
  3
実線
 72
    65
 73
     0
 40
0.0
  0
LTYPE
  2
DASHED1
 70
    64
  3
--  --  --  --  --  --  --  --  
 72
    65
 73
     2
 40
2.5
 49
1.25
 49
-1.25
  0
LTYPE
  2
DASHED2
 70
    64
  3
----    ----    ----    ----    
 72
    65
 73
     2
 40
5.0
 49
2.5
 49
-2.5
  0
LTYPE
  2
DASHED3
 70
    64
  3
------  ------  ------  ------  
 72
    65
 73
     2
 40
5.0
 49
3.75
 49
-1.25
  0
LTYPE
  2
CENTER1
 70
    64
  3
----- - ----- - ----- - ----- - 
 72
    65
 73
     4
 40
10.0
 49
6.25
 49
-1.25
 49
1.25
 49
-1.25
  0
LTYPE
  2
CENTER2
 70
    64
  3
----------  --  ----------  --  
 72
    65
 73
     4
 40
20.0
 49
12.5
 49
-2.5
 49
2.5
 49
-2.5
  0
LTYPE
  2
PHANTOM1
 70
    64
  3
--- - - --- - - --- - - --- - - 
 72
    65
 73
     6
 40
10.0
 49
3.25
 49
-1.25
 49
1.25
 49
-1.25
 49
1.25
 49
-1.25
  0
LTYPE
  2
PHANTOM2
 70
    64
  3
--------  -  -  --------  -  -  
 72
    65
 73
     6
 40
20.0
 49
10.0
 49
-2.5
 49
1.25
 49
-2.5
 49
1.25
 49
-2.5
  0
LTYPE
  2
DOT
 70
    64
  3
-   -   -   -   -   -   -   -   
 72
    65
 73
     2
 40
2.5
 49
0.625
 49
-1.875
  0
LTYPE
  2
DUMMY
 70
    64
  3
ダミー
 72
    65
 73
     0
 40
0.0
  0
LTYPE
  2
RAND1
 70
    64
  3
ランダム線1
 72
    65
 73
     4
 40
10.0
 49
1.0
 49
-2.0
 49
3.0
 49
-4.0
  0
LTYPE
  2
RAND2
 70
    64
  3
ランダム線2
 72
    65
 73
     4
 40
14.0
 49
2.0
 49
-3.0
 49
4.0
 49
-5.0
  0
LTYPE
  2
RAND3
 70
    64
  3
ランダム線3
 72
    65
 73
     4
 40
18.0
 49
3.0
 49
-4.0
 49
5.0
 49
-6.0
  0
LTYPE
  2
RAND4
 70
    64
  3
ランダム線4
 72
    65
 73
     4
 40
22.0
 49
4.0
 49
-5.0
 49
6.0
 49
-7.0
  0
LTYPE
  2
RAND5
 70
    64
  3
ランダム線5
 72
    65
 73
     4
 40
26.0
 49
5.0
 49
-6.0
 49
7.0
 49
-8.0
  0
LTYPE
  2
LONG1
 70
    64
  3
----------  --  ----------  --  
 72
    65
 73
     4
 40
40.0
 49
32.5
 49
-2.5
 49
2.5
 49
-2.5
  0
LTYPE
  2
LONG2
 70
    64
  3
--------  -  -  --------  -  -  
 72
    65
 73
     6
 40
40.0
 49
30.0
 49
-2.5
 49
1.25
 49
-2.5
 49
1.25
 49
-2.5
  0
LTYPE
  2
LONG3
 70
    64
  3
+++++++++++++++..+++++++++++++++
 72
    65
 73
     2
 40
40.0
 49
37.5
 49
-2.5
  0
LTYPE
  2
LONG4
 70
    64
  3
+++++++++++++++..+++++++++++++++
 72
    65
 73
     2
 40
80.0
 49
75.0
 49
-5.0
  0
LTYPE
  2
LONG5
 70
    64
  3
----------  --  ----------  --  
 72
    65
 73
     4
 40
60.0
 49
37.5
 49
-7.5
 49
7.5
 49
-7.5
  0
LTYPE
  2
dashed
 70
   64
  3
-------   -------------   ------
 72
   65
 73
    2
 40
7.5
 49
6
 49
-1.5
  0
LTYPE
  2
dashed_spaced
 70
   64
  3
----        --------        ----
 72
   65
 73
    2
 40
12
 49
6
 49
-6
  0
LTYPE
  2
long_dashed_dotted
 70
   64
  3
------------- --- --------------
 72
   65
 73
    4
 40
15.25
 49
12
 49
-1.5
 49
0.25
 49
-1.5
  0
LTYPE
  2
long_dashed_double-dotted
 70
   64
  3
----------- --- --- ------------
 72
   65
 73
    6
 40
17
 49
12
 49
-1.5
 49
0.25
 49
-1.5
 49
0.25
 49
-1.5
  0
LTYPE
  2
long_dashed_triplicate-dotted
 70
   64
  3
--------- --- --- --- ----------
 72
   65
 73
    8
 40
18.75
 49
12
 49
-1.5
 49
0.25
 49
-1.5
 49
0.25
 49
-1.5
 49
0.25
 49
-1.5
  0
LTYPE
  2
dotted
 70
   64
  3
   -       -       -       -    
 72
   65
 73
    2
 40
1.75
 49
0.25
 49
-1.5
  0
LTYPE
  2
chain
 70
   64
  3
-------------- -- --------------
 72
   65
 73
    4
 40
18.5
 49
12
 49
-1.5
 49
3.5
 49
-1.5
  0
LTYPE
  2
chain_double_dash
 70
   64
  3
------------ -- -- -------------
 72
   65
 73
    6
 40
23.5
 49
12
 49
-1.5
 49
3.5
 49
-1.5
 49
3.5
 49
-1.5
  0
LTYPE
  2
dashed_dotted
 70
   64
  3
-----------     -     ----------
 72
   65
 73
    4
 40
9.25
 49
6
 49
-1.5
 49
0.25
 49
-1.5
  0
LTYPE
  2
double-dashed_dotted
 70
   64
  3
------   -----------   -   -----
 72
   65
 73
    6
 40
16.75
 49
6
 49
-1.5
 49
6
 49
-1.5
 49
0.25
 49
-1.5
  0
LTYPE
  2
dashed_double-dotted
 70
   64
  3
---------    -    -    ---------
 72
   65
 73
    6
 40
11
 49
6
 49
-1.5
 49
0.25
 49
-1.5
 49
0.25
 49
-1.5
  0
LTYPE
  2
double-dashed_double-dotted
 70
   64
  3
-----   ---------   -   -   ----
 72
   65
 73
    8
 40
18.5
 49
6
 49
-1.5
 49
6
 49
-1.5
 49
0.25
 49
-1.5
 49
0.25
 49
-1.5
  0
LTYPE
  2
dashed_triplicate-dotted
 70
   64
  3
-------    -    -    -    ------
 72
   65
 73
    8
 40
12.75
 49
6
 49
-1.5
 49
0.25
 49
-1.5
 49
0.25
 49
-1.5
 49
0.25
 49
-1.5
  0
LTYPE
  2
double-dashed_triplicate-dotted
 70
   64
  3
-----  ---------  -  -  -  -----
 72
   65
 73
   10
 40
20.25
 49
6
 49
-1.5
 49
6
 49
-1.5
 49
0.25
 49
-1.5
 49
0.25
 49
-1.5
 49
0.25
 49
-1.5
  0
LTYPE
  2
undefined
 70
   64
  3
--------------------------------
 72
   65
 73
    0
 40
0
  0
LTYPE
  2
PLINE2
 70
   64
  3
------     -----------     -----
 72
   65
 73
    2
 40
3
 49
2.1000000000000001
 49
-0.9
  0
LTYPE
  2
PLINE3
 70
   64
  3
------------   ---   -----------
 72
   65
 73
    4
 40
10
 49
7
 49
-1
 49
1
 49
-1
  0
LTYPE
  2
PLINE4
 70
   64
  3
---------   ---   ---   --------
 72
   65
 73
    6
 40
10
 49
5
 49
-1
 49
1
 49
-1
 49
1
 49
-1
  0
LTYPE
  2
PLINE5
 70
   64
  3
------     -----------     -----
 72
   65
 73
    2
 40
5
 49
3.5
 49
-1.5
  0
LTYPE
  2
PLINE6
 70
   64
  3
------------   ---   -----------
 72
   65
 73
    4
 40
15
 49
10.5
 49
-1.5
 49
1.5
 49
-1.5
  0
LTYPE
  2
PLINE7
 70
   64
  3
---------   ---   ---   --------
 72
   65
 73
    6
 40
15
 49
7.5
 49
-1.5
 49
1.5
 49
-1.5
 49
1.5
 49
-1.5
  0
LTYPE
  2
PLINE8
 70
   64
  3
------     -----------     -----
 72
   65
 73
    2
 40
7
 49
4.9000000000000004
 49
-2.1000000000000001
  0
LTYPE
  2
PLINE9
 70
   64
  3
------------   ---   -----------
 72
   65
 73
    4
 40
20
 49
14
 49
-2
 49
2
 49
-2
  0
LTYPE
  2
PLINE10
 70
   64
  3
---------   ---   ---   --------
 72
   65
 73
    6
 40
20
 49
10
 49
-2
 49
2
 49
-2
 49
2
 49
-2
  0
LTYPE
  2
PLINE11
 70
   64
  3
------     -----------     -----
 72
   65
 73
    2
 40
9
 49
6.2999999999999989
 49
-2.7000000000000002
  0
LTYPE
  2
PLINE12
 70
   64
  3
------------   ---   -----------
 72
   65
 73
    4
 40
25
 49
17.5
 49
-2.5
 49
2.5
 49
-2.5
  0
LTYPE
  2
PLINE13
 70
   64
  3
---------   ---   ---   --------
 72
   65
 73
    6
 40
25
 49
12.5
 49
-2.5
 49
2.5
 49
-2.5
 49
2.5
 49
-2.5
  0
LTYPE
  2
PLINE14
 70
   64
  3
------     -----------     -----
 72
   65
 73
    2
 40
11
 49
7.7000000000000002
 49
-3.2999999999999989
  0
LTYPE
  2
PLINE15
 70
   64
  3
------------   ---   -----------
 72
   65
 73
    4
 40
30
 49
21
 49
-3
 49
3
 49
-3
  0
LTYPE
  2
PLINE16
 70
   64
  3
---------   ---   ---   --------
 72
   65
 73
    6
 40
30
 49
15
 49
-3
 49
3
 49
-3
 49
3
 49
-3
  0
ENDTAB
  0
TABLE
  2
STYLE
  5
3
100
AcDbSymbolTable
 70
     1
  0
STYLE
  5
10
100
AcDbSymbolTableRecord
100
AcDbTextStyleTableRecord
  2
STANDARD
 70
     0
 40
0.0
 41
1.0
 50
0.0
 71
     0
 42
0.2
  3
txt
  4
bigfont.shx
  0
STYLE
  5
26
100
AcDbSymbolTableRecord
100
AcDbTextStyleTableRecord
  2
TATEGAKI
 70
    68
 40
0.0
 41
1.0
 50
0.0
 71
     0
 42
1.0
  3
txt
  4
bigfont.shx
  0
ENDTAB
  0
TABLE
  2
LAYER
 70
    5
  0
LAYER
  2
_0-2_寸法
 70
   64
 62
    7
  6
CONTINUOUS
  0
LAYER
  2
_0-3_躯体
 70
   64
 62
    7
  6
CONTINUOUS
  0
LAYER
  2
_0-4_笠木
 70
   64
 62
    7
  6
CONTINUOUS
  0
LAYER
  2
_0-5_受金具
 70
   64
 62
    7
  6
CONTINUOUS
  0
LAYER
  2
ADD_LINE
 70
   64
 62
    7
  6
CONTINUOUS
  0
ENDTAB
  0
ENDSEC
  0
SECTION
  2
BLOCKS
  0
BLOCK
  2
-000-_Dot
 70
   64
 10
0
 20
0
 30
0
  0
CIRCLE
  8
_0-0_0
  6
CONTINUOUS
 62
    7
 10
0
 20
0
 40
0.5
  0
LINE
  8
_0-0_0
  6
CONTINUOUS
 62
    7
 10
0.5
 20
0
 11
-0.5
 21
0
  0
LINE
  8
_0-0_0
  6
CONTINUOUS
 62
    7
 10
-1
 20
0
 11
-2
 21
0
  0
ENDBLK
  0
BLOCK
  2
-001-_D44
 70
   64
 10
0
 20
0
 30
0
  0
LINE
  8
_0-2_寸法
  6
CONTINUOUS
 62
    4
 10
-1060.6220568832268
 20
-1656.5522483436553
 11
-1060.6220568832268
 21
-1597.1884346514803
  0
LINE
  8
_0-2_寸法
  6
CONTINUOUS
 62
    4
 10
-1073.4220568832268
 20
-1656.5522483436553
 11
-1073.4220568832268
 21
-1597.1884346514803
  0
LINE
  8
_0-2_寸法
  6
CONTINUOUS
 62
    4
 10
-1062.6220568832268
 20
-1597.1884346514803
 11
-1071.4220568832266
 21
-1597.1884346514803
  0
INSERT
  2
-000-_Dot
  8
_0-2_寸法
 10
-1060.6220568832268
 20
-1597.1884346514803
 41
1
 42
1
 50
0
  0
INSERT
  2
-000-_Dot
  8
_0-2_寸法
 10
-1073.4220568832268
 20
-1597.1884346514803
 41
1
 42
1
 50
180
  0
TEXT
  8
_0-2_寸法
 62
    7
 10
-1069.5220568832267
 20
-1595.1884346514803
 40
10
 41
1
 50
0
  1
6
  0
POINT
  8
_0-1_Defpoints
 62
    7
 10
-1060.6220568832268
 20
-1656.5522483436553
  0
POINT
  8
_0-1_Defpoints
 62
    7
 10
-1073.4220568832268
 20
-1656.5522483436553
  0
POINT
  8
_0-1_Defpoints
 62
    7
 10
-1073.4220568832268
 20
-1597.1884346514803
  0
ENDBLK
  0
BLOCK
  2
-002-_D45
 70
   64
 10
0
 20
0
 30
0
  0
LINE
  8
_0-2_寸法
  6
CONTINUOUS
 62
    4
 10
-1073.4220568832268
 20
-1656.5522483436553
 11
-1073.4220568832268
 21
-1597.1884346514803
  0
LINE
  8
_0-2_寸法
  6
CONTINUOUS
 62
    4
 10
-1110.6220568832268
 20
-1656.5522483436553
 11
-1110.6220568832268
 21
-1597.1884346514803
  0
LINE
  8
_0-2_寸法
  6
CONTINUOUS
 62
    4
 10
-1075.4220568832268
 20
-1597.1884346514803
 11
-1108.6220568832268
 21
-1597.1884346514803
  0
INSERT
  2
-000-_Dot
  8
_0-2_寸法
 10
-1073.4220568832268
 20
-1597.1884346514803
 41
1
 42
1
 50
0
  0
INSERT
  2
-000-_Dot
  8
_0-2_寸法
 10
-1110.6220568832268
 20
-1597.1884346514803
 41
1
 42
1
 50
180
  0
TEXT
  8
_0-2_寸法
 62
    7
 10
-1097.4470568832267
 20
-1595.1884346514803
 40
10
 41
1
 50
0
  1
19
  0
POINT
  8
_0-1_Defpoints
 62
    7
 10
-1073.4220568832268
 20
-1656.5522483436553
  0
POINT
  8
_0-1_Defpoints
 62
    7
 10
-1110.6220568832268
 20
-1656.5522483436553
  0
POINT
  8
_0-1_Defpoints
 62
    7
 10
-1110.6220568832268
 20
-1597.1884346514803
  0
ENDBLK
  0
BLOCK
  2
-003-_D46
 70
   64
 10
0
 20
0
 30
0
  0
LINE
  8
_0-2_寸法
  6
CONTINUOUS
 62
    4
 10
-1110.6220568832268
 20
-1656.5522483436553
 11
-1110.6220568832268
 21
-1597.1884346514803
  0
LINE
  8
_0-2_寸法
  6
CONTINUOUS
 62
    4
 10
-1440.6500568832269
 20
-1656.5522483436553
 11
-1440.6500568832269
 21
-1597.1884346514803
  0
LINE
  8
_0-2_寸法
  6
CONTINUOUS
 62
    4
 10
-1112.6220568832268
 20
-1597.1884346514803
 11
-1438.6500568832269
 21
-1597.1884346514803
  0
INSERT
  2
-000-_Dot
  8
_0-2_寸法
 10
-1110.6220568832268
 20
-1597.1884346514803
 41
1
 42
1
 50
0
  0
INSERT
  2
-000-_Dot
  8
_0-2_寸法
 10
-1440.6500568832269
 20
-1597.1884346514803
 41
1
 42
1
 50
180
  0
TEXT
  8
_0-2_寸法
 62
    7
 10
-1283.9860568832266
 20
-1595.1884346514803
 40
10
 41
1
 50
0
  1
165
  0
POINT
  8
_0-1_Defpoints
 62
    7
 10
-1110.6220568832268
 20
-1656.5522483436553
  0
POINT
  8
_0-1_Defpoints
 62
    7
 10
-1440.6500568832269
 20
-1656.5522483436553
  0
POINT
  8
_0-1_Defpoints
 62
    7
 10
-1440.6500568832269
 20
-1597.1884346514803
  0
ENDBLK
  0
BLOCK
  2
-004-_D47
 70
   64
 10
0
 20
0
 30
0
  0
LINE
  8
_0-2_寸法
  6
CONTINUOUS
 62
    4
 10
-1060.6220568832268
 20
-1656.5522483436553
 11
-1060.6220568832268
 21
-1639.6684346514805
  0
LINE
  8
_0-2_寸法
  6
CONTINUOUS
 62
    4
 10
-1110.6220568832268
 20
-1656.5522483436553
 11
-1110.6220568832268
 21
-1639.6684346514805
  0
LINE
  8
_0-2_寸法
  6
CONTINUOUS
 62
    4
 10
-1062.6220568832268
 20
-1639.6684346514805
 11
-1108.6220568832268
 21
-1639.6684346514805
  0
INSERT
  2
-000-_Dot
  8
_0-2_寸法
 10
-1060.6220568832268
 20
-1639.6684346514805
 41
1
 42
1
 50
0
  0
INSERT
  2
-000-_Dot
  8
_0-2_寸法
 10
-1110.6220568832268
 20
-1639.6684346514805
 41
1
 42
1
 50
180
  0
TEXT
  8
_0-2_寸法
 62
    7
 10
-1091.0470568832268
 20
-1637.6684346514805
 40
10
 41
1
 50
0
  1
25
  0
POINT
  8
_0-1_Defpoints
 62
    7
 10
-1060.6220568832268
 20
-1656.5522483436553
  0
POINT
  8
_0-1_Defpoints
 62
    7
 10
-1110.6220568832268
 20
-1656.5522483436553
  0
POINT
  8
_0-1_Defpoints
 62
    7
 10
-1110.6220568832268
 20
-1639.6684346514805
  0
ENDBLK
  0
BLOCK
  2
-005-_D48
 70
   64
 10
0
 20
0
 30
0
  0
LINE
  8
_0-2_寸法
  6
CONTINUOUS
 62
    4
 10
-1110.6220568832268
 20
-1656.5522483436553
 11
-1110.6220568832268
 21
-1639.6684346514805
  0
LINE
  8
_0-2_寸法
  6
CONTINUOUS
 62
    4
 10
-1260.2220568832265
 20
-1656.5522483436553
 11
-1260.2220568832265
 21
-1639.6684346514805
  0
LINE
  8
_0-2_寸法
  6
CONTINUOUS
 62
    4
 10
-1112.6220568832268
 20
-1639.6684346514805
 11
-1258.2220568832265
 21
-1639.6684346514805
  0
INSERT
  2
-000-_Dot
  8
_0-2_寸法
 10
-1110.6220568832268
 20
-1639.6684346514805
 41
1
 42
1
 50
0
  0
INSERT
  2
-000-_Dot
  8
_0-2_寸法
 10
-1260.2220568832265
 20
-1639.6684346514805
 41
1
 42
1
 50
180
  0
TEXT
  8
_0-2_寸法
 62
    7
 10
-1190.8470568832267
 20
-1637.6684346514805
 40
10
 41
1
 50
0
  1
75
  0
POINT
  8
_0-1_Defpoints
 62
    7
 10
-1110.6220568832268
 20
-1656.5522483436553
  0
POINT
  8
_0-1_Defpoints
 62
    7
 10
-1260.2220568832265
 20
-1656.5522483436553
  0
POINT
  8
_0-1_Defpoints
 62
    7
 10
-1260.2220568832265
 20
-1639.6684346514805
  0
ENDBLK
  0
BLOCK
  2
-006-_D49
 70
   64
 10
0
 20
0
 30
0
  0
LINE
  8
_0-2_寸法
  6
CONTINUOUS
 62
    4
 10
-1043.0767290064211
 20
-1659.1464346514804
 11
-1023.1820568832266
 21
-1659.1464346514804
  0
LINE
  8
_0-2_寸法
  6
CONTINUOUS
 62
    4
 10
-1043.0767290064211
 20
-1691.1464346514804
 11
-1023.1820568832266
 21
-1691.1464346514804
  0
LINE
  8
_0-2_寸法
  6
CONTINUOUS
 62
    4
 10
-1023.1820568832266
 20
-1661.1464346514806
 11
-1023.1820568832266
 21
-1689.1464346514804
  0
INSERT
  2
-000-_Dot
  8
_0-2_寸法
 10
-1023.1820568832266
 20
-1659.1464346514804
 41
1
 42
1
 50
90
  0
INSERT
  2
-000-_Dot
  8
_0-2_寸法
 10
-1023.1820568832266
 20
-1691.1464346514804
 41
1
 42
1
 50
270
  0
TEXT
  8
_0-2_寸法
 62
    7
 10
-1025.1820568832263
 20
-1680.5714346514808
 40
10
 41
1
 50
90
  1
16
  0
POINT
  8
_0-1_Defpoints
 62
    7
 10
-1043.0767290064211
 20
-1659.1464346514804
  0
POINT
  8
_0-1_Defpoints
 62
    7
 10
-1043.0767290064211
 20
-1691.1464346514804
  0
POINT
  8
_0-1_Defpoints
 62
    7
 10
-1023.1820568832266
 20
-1691.1464346514804
  0
ENDBLK
  0
BLOCK
  2
-007-_D50
 70
   64
 10
0
 20
0
 30
0
  0
LINE
  8
_0-2_寸法
  6
CONTINUOUS
 62
    4
 10
-1043.0767290064211
 20
-1691.1464346514804
 11
-1023.1820568832266
 21
-1691.1464346514804
  0
LINE
  8
_0-2_寸法
  6
CONTINUOUS
 62
    4
 10
-1043.0767290064211
 20
-1759.7464346514805
 11
-1023.1820568832266
 21
-1759.7464346514805
  0
LINE
  8
_0-2_寸法
  6
CONTINUOUS
 62
    4
 10
-1023.1820568832266
 20
-1693.1464346514808
 11
-1023.1820568832266
 21
-1757.7464346514805
  0
INSERT
  2
-000-_Dot
  8
_0-2_寸法
 10
-1023.1820568832266
 20
-1691.1464346514804
 41
1
 42
1
 50
90
  0
INSERT
  2
-000-_Dot
  8
_0-2_寸法
 10
-1023.1820568832266
 20
-1759.7464346514805
 41
1
 42
1
 50
270
  0
TEXT
  8
_0-2_寸法
 62
    7
 10
-1025.1820568832263
 20
-1730.8714346514807
 40
10
 41
1
 50
90
  1
34
  0
POINT
  8
_0-1_Defpoints
 62
    7
 10
-1043.0767290064211
 20
-1691.1464346514804
  0
POINT
  8
_0-1_Defpoints
 62
    7
 10
-1043.0767290064211
 20
-1759.7464346514805
  0
POINT
  8
_0-1_Defpoints
 62
    7
 10
-1023.1820568832266
 20
-1759.7464346514805
  0
ENDBLK
  0
BLOCK
  2
-008-_D51
 70
   64
 10
0
 20
0
 30
0
  0
LINE
  8
_0-2_寸法
  6
CONTINUOUS
 62
    4
 10
-1043.0767290064211
 20
-1659.1464346514804
 11
-986.52205688322681
 21
-1659.1464346514804
  0
LINE
  8
_0-2_寸法
  6
CONTINUOUS
 62
    4
 10
-1043.0767290064211
 20
-1759.7464346514805
 11
-986.52205688322681
 21
-1759.7464346514805
  0
LINE
  8
_0-2_寸法
  6
CONTINUOUS
 62
    4
 10
-986.52205688322681
 20
-1661.1464346514806
 11
-986.52205688322681
 21
-1757.7464346514805
  0
INSERT
  2
-000-_Dot
  8
_0-2_寸法
 10
-986.52205688322681
 20
-1659.1464346514804
 41
1
 42
1
 50
90
  0
INSERT
  2
-000-_Dot
  8
_0-2_寸法
 10
-986.52205688322681
 20
-1759.7464346514805
 41
1
 42
1
 50
270
  0
TEXT
  8
_0-2_寸法
 62
    7
 10
-988.52205688322636
 20
-1714.8714346514807
 40
10
 41
1
 50
90
  1
50
  0
POINT
  8
_0-1_Defpoints
 62
    7
 10
-1043.0767290064211
 20
-1659.1464346514804
  0
POINT
  8
_0-1_Defpoints
 62
    7
 10
-1043.0767290064211
 20
-1759.7464346514805
  0
POINT
  8
_0-1_Defpoints
 62
    7
 10
-986.52205688322681
 20
-1759.7464346514805
  0
ENDBLK
  0
BLOCK
  2
-009-_D52
 70
   64
 10
0
 20
0
 30
0
  0
LINE
  8
_0-2_寸法
  6
CONTINUOUS
 62
    4
 10
-1320.2220568832265
 20
-1862.7029849470725
 11
-1320.2220568832265
 21
-1877.9724346514806
  0
LINE
  8
_0-2_寸法
  6
CONTINUOUS
 62
    4
 10
-1260.2220568832265
 20
-1862.7029849470725
 11
-1260.2220568832265
 21
-1877.9724346514806
  0
LINE
  8
_0-2_寸法
  6
CONTINUOUS
 62
    4
 10
-1318.2220568832265
 20
-1877.9724346514806
 11
-1262.2220568832265
 21
-1877.9724346514806
  0
INSERT
  2
-000-_Dot
  8
_0-2_寸法
 10
-1320.2220568832265
 20
-1877.9724346514806
 41
1
 42
1
 50
180
  0
INSERT
  2
-000-_Dot
  8
_0-2_寸法
 10
-1260.2220568832265
 20
-1877.9724346514806
 41
1
 42
1
 50
0
  0
TEXT
  8
_0-2_寸法
 62
    7
 10
-1295.6470568832267
 20
-1875.9724346514806
 40
10
 41
1
 50
0
  1
30
  0
POINT
  8
_0-1_Defpoints
 62
    7
 10
-1320.2220568832265
 20
-1862.7029849470725
  0
POINT
  8
_0-1_Defpoints
 62
    7
 10
-1260.2220568832265
 20
-1862.7029849470725
  0
POINT
  8
_0-1_Defpoints
 62
    7
 10
-1260.2220568832265
 20
-1877.9724346514806
  0
ENDBLK
  0
BLOCK
  2
-010-_D53
 70
   64
 10
0
 20
0
 30
0
  0
LINE
  8
_0-2_寸法
  6
CONTINUOUS
 62
    4
 10
-1260.2220568832265
 20
-1862.7029849470725
 11
-1260.2220568832265
 21
-1877.9724346514806
  0
LINE
  8
_0-2_寸法
  6
CONTINUOUS
 62
    4
 10
-1200.2220568832265
 20
-1862.7029849470725
 11
-1200.2220568832265
 21
-1877.9724346514806
  0
LINE
  8
_0-2_寸法
  6
CONTINUOUS
 62
    4
 10
-1258.2220568832265
 20
-1877.9724346514806
 11
-1202.2220568832265
 21
-1877.9724346514806
  0
INSERT
  2
-000-_Dot
  8
_0-2_寸法
 10
-1260.2220568832265
 20
-1877.9724346514806
 41
1
 42
1
 50
180
  0
INSERT
  2
-000-_Dot
  8
_0-2_寸法
 10
-1200.2220568832265
 20
-1877.9724346514806
 41
1
 42
1
 50
0
  0
TEXT
  8
_0-2_寸法
 62
    7
 10
-1235.6470568832267
 20
-1875.9724346514806
 40
10
 41
1
 50
0
  1
30
  0
POINT
  8
_0-1_Defpoints
 62
    7
 10
-1260.2220568832265
 20
-1862.7029849470725
  0
POINT
  8
_0-1_Defpoints
 62
    7
 10
-1200.2220568832265
 20
-1862.7029849470725
  0
POINT
  8
_0-1_Defpoints
 62
    7
 10
-1200.2220568832265
 20
-1877.9724346514806
  0
ENDBLK
  0
BLOCK
  2
-011-_D54
 70
   64
 10
0
 20
0
 30
0
  0
LINE
  8
_0-2_寸法
  6
CONTINUOUS
 62
    4
 10
-1439.6500568832269
 20
-1862.7029849470725
 11
-1439.6500568832269
 21
-1893.9484346514805
  0
LINE
  8
_0-2_寸法
  6
CONTINUOUS
 62
    4
 10
-1408.6620568832268
 20
-1862.7029849470725
 11
-1408.6620568832268
 21
-1893.9484346514805
  0
LINE
  8
_0-2_寸法
  6
CONTINUOUS
 62
    4
 10
-1441.6500568832269
 20
-1893.9484346514805
 11
-1443.6500568832269
 21
-1893.9484346514805
  0
LINE
  8
_0-2_寸法
  6
CONTINUOUS
 62
    4
 10
-1406.6620568832268
 20
-1893.9484346514805
 11
-1404.6620568832266
 21
-1893.9484346514805
  0
INSERT
  2
-000-_Dot
  8
_0-2_寸法
 10
-1439.6500568832269
 20
-1893.9484346514805
 41
1
 42
1
 50
0
  0
INSERT
  2
-000-_Dot
  8
_0-2_寸法
 10
-1408.6620568832268
 20
-1893.9484346514805
 41
1
 42
1
 50
180
  0
TEXT
  8
_0-2_寸法
 62
    7
 10
-1438.3560568832268
 20
-1891.9484346514805
 40
10
 41
1
 50
0
  1
15~20
  0
POINT
  8
_0-1_Defpoints
 62
    7
 10
-1439.6500568832269
 20
-1862.7029849470725
  0
POINT
  8
_0-1_Defpoints
 62
    7
 10
-1408.6620568832268
 20
-1862.7029849470725
  0
POINT
  8
_0-1_Defpoints
 62
    7
 10
-1408.6620568832268
 20
-1893.9484346514805
  0
ENDBLK
  0
BLOCK
  2
-012-_D55
 70
   64
 10
0
 20
0
 30
0
  0
LINE
  8
_0-2_寸法
  6
CONTINUOUS
 62
    4
 10
-1459.1654173257973
 20
-1759.7464346514805
 11
-1493.7620568832267
 21
-1759.7464346514805
  0
LINE
  8
_0-2_寸法
  6
CONTINUOUS
 62
    4
 10
-1459.1654173257973
 20
-1851.1744346514806
 11
-1493.7620568832267
 21
-1851.1744346514806
  0
LINE
  8
_0-2_寸法
  6
CONTINUOUS
 62
    4
 10
-1493.7620568832267
 20
-1761.7464346514805
 11
-1493.7620568832267
 21
-1849.1744346514806
  0
INSERT
  2
-000-_Dot
  8
_0-2_寸法
 10
-1493.7620568832267
 20
-1759.7464346514805
 41
1
 42
1
 50
90
  0
INSERT
  2
-000-_Dot
  8
_0-2_寸法
 10
-1493.7620568832267
 20
-1851.1744346514806
 41
1
 42
1
 50
270
  0
TEXT
  8
_0-2_寸法
 62
    7
 10
-1495.7620568832263
 20
-1810.8854346514806
 40
10
 41
1
 50
90
  1
46
  0
POINT
  8
_0-1_Defpoints
 62
    7
 10
-1459.1654173257973
 20
-1759.7464346514805
  0
POINT
  8
_0-1_Defpoints
 62
    7
 10
-1459.1654173257973
 20
-1851.1744346514806
  0
POINT
  8
_0-1_Defpoints
 62
    7
 10
-1493.7620568832267
 20
-1851.1744346514806
  0
ENDBLK
  0
BLOCK
  2
-013-_D56
 70
   64
 10
0
 20
0
 30
0
  0
LINE
  8
_0-2_寸法
  6
CONTINUOUS
 62
    4
 10
-1459.1654173257973
 20
-1691.1744346514804
 11
-1539.1740568832265
 21
-1691.1744346514804
  0
LINE
  8
_0-2_寸法
  6
CONTINUOUS
 62
    4
 10
-1459.1654173257973
 20
-1711.5464346514805
 11
-1539.1740568832265
 21
-1711.54643465148
  0
LINE
  8
_0-2_寸法
  6
CONTINUOUS
 62
    4
 10
-1539.1740568832265
 20
-1693.1744346514804
 11
-1539.1740568832265
 21
-1709.5464346514802
  0
INSERT
  2
-000-_Dot
  8
_0-2_寸法
 10
-1539.1740568832265
 20
-1691.1744346514804
 41
1
 42
1
 50
90
  0
INSERT
  2
-000-_Dot
  8
_0-2_寸法
 10
-1539.1740568832265
 20
-1711.54643465148
 41
1
 42
1
 50
270
  0
TEXT
  8
_0-2_寸法
 62
    7
 10
-1541.1740568832263
 20
-1706.7854346514805
 40
10
 41
1
 50
90
  1
10
  0
POINT
  8
_0-1_Defpoints
 62
    7
 10
-1459.1654173257973
 20
-1691.1744346514804
  0
POINT
  8
_0-1_Defpoints
 62
    7
 10
-1459.1654173257973
 20
-1711.5464346514805
  0
POINT
  8
_0-1_Defpoints
 62
    7
 10
-1539.1740568832265
 20
-1711.54643465148
  0
ENDBLK
  0
BLOCK
  2
-014-_D57
 70
   64
 10
0
 20
0
 30
0
  0
LINE
  8
_0-2_寸法
  6
CONTINUOUS
 62
    4
 10
-1459.1654173257973
 20
-1711.5464346514805
 11
-1539.1740568832265
 21
-1711.54643465148
  0
LINE
  8
_0-2_寸法
  6
CONTINUOUS
 62
    4
 10
-1459.1654173257973
 20
-1731.1744346514806
 11
-1539.1740568832265
 21
-1731.1744346514802
  0
LINE
  8
_0-2_寸法
  6
CONTINUOUS
 62
    4
 10
-1539.1740568832265
 20
-1713.54643465148
 11
-1539.1740568832265
 21
-1729.1744346514802
  0
INSERT
  2
-000-_Dot
  8
_0-2_寸法
 10
-1539.1740568832265
 20
-1711.54643465148
 41
1
 42
1
 50
90
  0
INSERT
  2
-000-_Dot
  8
_0-2_寸法
 10
-1539.1740568832265
 20
-1731.1744346514802
 41
1
 42
1
 50
270
  0
TEXT
  8
_0-2_寸法
 62
    7
 10
-1541.1740568832263
 20
-1726.7854346514807
 40
10
 41
1
 50
90
  1
10
  0
POINT
  8
_0-1_Defpoints
 62
    7
 10
-1459.1654173257973
 20
-1711.5464346514805
  0
POINT
  8
_0-1_Defpoints
 62
    7
 10
-1459.1654173257973
 20
-1731.1744346514806
  0
POINT
  8
_0-1_Defpoints
 62
    7
 10
-1539.1740568832265
 20
-1731.1744346514802
  0
ENDBLK
  0
BLOCK
  2
-015-_D58
 70
   64
 10
0
 20
0
 30
0
  0
LINE
  8
_0-2_寸法
  6
CONTINUOUS
 62
    4
 10
-1459.1654173257973
 20
-1731.1744346514806
 11
-1539.1740568832265
 21
-1731.1744346514802
  0
LINE
  8
_0-2_寸法
  6
CONTINUOUS
 62
    4
 10
-1459.1654173257973
 20
-1851.1744346514806
 11
-1539.1740568832265
 21
-1851.1744346514802
  0
LINE
  8
_0-2_寸法
  6
CONTINUOUS
 62
    4
 10
-1539.1740568832265
 20
-1733.1744346514802
 11
-1539.1740568832265
 21
-1849.1744346514802
  0
INSERT
  2
-000-_Dot
  8
_0-2_寸法
 10
-1539.1740568832265
 20
-1731.1744346514802
 41
1
 42
1
 50
90
  0
INSERT
  2
-000-_Dot
  8
_0-2_寸法
 10
-1539.1740568832265
 20
-1851.1744346514802
 41
1
 42
1
 50
270
  0
TEXT
  8
_0-2_寸法
 62
    7
 10
-1541.1740568832263
 20
-1796.5994346514808
 40
10
 41
1
 50
90
  1
60
  0
POINT
  8
_0-1_Defpoints
 62
    7
 10
-1459.1654173257973
 20
-1731.1744346514806
  0
POINT
  8
_0-1_Defpoints
 62
    7
 10
-1459.1654173257973
 20
-1851.1744346514806
  0
POINT
  8
_0-1_Defpoints
 62
    7
 10
-1539.1740568832265
 20
-1851.1744346514802
  0
ENDBLK
  0
ENDSEC
  0
SECTION
  2
ENTITIES
  0
LINE
  8
_0-4_笠木
  6
CONTINUOUS
 62
    4
 10
126.64799999999991
 20
172.52549999999997
 11
285.72299999999996
 21
182.23049999999989
  0
LINE
  8
_0-4_笠木
  6
CONTINUOUS
 62
    4
 10
123.82599999999991
 20
174.35649999999987
 11
284.84500000000003
 21
184.18049999999994
  0
LINE
  8
_0-3_躯体
  6
CONTINUOUS
 62
    3
 10
185.61699999999996
 20
137.07150000000001
 11
275.03500000000008
 21
47.653499999999894
  0
LINE
  8
_0-3_躯体
  6
CONTINUOUS
 62
    3
 10
138.82499999999993
 20
159.08049999999992
 11
311.84499999999991
 21
159.08049999999992
  0
LINE
  8
_0-3_躯体
  6
CONTINUOUS
 62
    4
 10
137.82499999999993
 20
160.08049999999992
 11
311.84499999999991
 21
160.08049999999992
  0
LINE
  8
_0-3_躯体
  6
CONTINUOUS
 62
    3
 10
187.10745100000008
 20
133.13104899999985
 11
272.58499999999992
 21
47.653499999999894
  0
LINE
  8
_0-3_躯体
  6
CONTINUOUS
 62
    3
 10
186.585148
 20
137.97635200000002
 11
276.90800000000002
 21
47.653499999999894
  0
LINE
  8
_0-5_受金具
  6
CONTINUOUS
 62
    4
 10
135.92097099999989
 20
160.08049999999992
 11
297.34500000000003
 21
160.08049999999992
  0
LINE
  8
_0-5_受金具
  6
CONTINUOUS
 62
    4
 10
151.54499999999996
 20
164.08049999999992
 11
211.54500000000007
 21
164.08049999999992
  0
LINE
  8
_0-4_笠木
  6
CONTINUOUS
 62
    4
 10
123.8309999999999
 20
124.36649999999986
 11
123.8309999999999
 21
169.53049999999973
  0
LINE
  8
_0-4_笠木
  6
CONTINUOUS
 62
    4
 10
121.8309999999999
 20
114.86649999999975
 11
121.8309999999999
 21
172.36149999999986
  0
LINE
  8
_0-3_躯体
  6
CONTINUOUS
 62
    4
 10
137.82499999999993
 20
47.653499999999894
 11
137.82499999999993
 21
160.08049999999992
  0
LINE
  8
_0-3_躯体
  6
CONTINUOUS
 62
    3
 10
138.82499999999993
 20
47.653499999999894
 11
138.82499999999993
 21
159.08049999999992
  0
LINE
  8
_0-5_受金具
  6
PLINE2
 62
    3
 10
177.57243199999994
 20
140.28634699999986
 11
176.07567599999993
 21
145.28634699999986
  0
LINE
  8
_0-5_受金具
  6
PLINE2
 62
    3
 10
178.63515099999995
 20
140.23065199999985
 11
177.08946999999989
 21
145.28634699999986
  0
LINE
  8
_0-5_受金具
  6
PLINE2
 62
    3
 10
186.66823399999998
 20
140.28634699999986
 11
188.16498999999999
 21
145.28634699999986
  0
LINE
  8
_0-5_受金具
  6
PLINE2
 62
    3
 10
185.60551499999997
 20
140.23065199999985
 11
187.15119599999991
 21
145.28634699999986
  0
LINE
  8
_0-2_寸法
  6
CONTINUOUS
 62
    3
 10
182.04500000000007
 20
170.94349999999997
 11
182.04500000000007
 21
100.96749999999986
  0
LINE
  8
_0-5_受金具
  6
PLINE2
 62
    3
 10
184.56630300000006
 20
142.17893399999991
 11
184.67097499999988
 21
140.18167499999993
  0
LINE
  8
_0-5_受金具
  6
PLINE2
 62
    3
 10
184.16741399999989
 20
121.12920999999983
 11
182.54500000000007
 21
152.08672499999989
  0
LINE
  8
_0-5_受金具
  6
PLINE2
 62
    3
 10
179.52369599999997
 20
142.17893399999991
 11
179.41902400000004
 21
140.18167499999993
  0
LINE
  8
_0-5_受金具
  6
PLINE2
 62
    3
 10
179.92258499999991
 20
121.12920999999983
 11
181.54500000000007
 21
152.08672499999989
  0
LINE
  8
_0-5_受金具
  6
CONTINUOUS
 62
    4
 10
133.45715999999993
 20
158.00433899999985
 11
126.65075599999989
 21
124.56370199999992
  0
LINE
  8
_0-5_受金具
  6
CONTINUOUS
 62
    4
 10
130.24111599999992
 20
160.06108099999972
 11
124.04500000000007
 21
129.38148999999999
  0
LINE
  8
_0-3_躯体
  6
CONTINUOUS
 62
    3
 10
138.82499999999993
 20
92.522499999999923
 11
183.69400000000007
 21
47.653499999999894
  0
LINE
  8
_0-3_躯体
  6
CONTINUOUS
 62
    3
 10
138.82499999999993
 20
96.766499999999837
 11
187.93799999999999
 21
47.653499999999894
  0
LINE
  8
_0-3_躯体
  6
CONTINUOUS
 62
    3
 10
138.82499999999993
 20
94.644499999999994
 11
185.81600000000003
 21
47.653499999999894
  0
LINE
  8
_0-4_笠木
  6
CONTINUOUS
 62
    4
 10
123.8309999999999
 20
114.86649999999975
 11
123.8309999999999
 21
121.36649999999997
  0
ARC
  8
_0-4_笠木
  6
CONTINUOUS
 62
    4
 10
122.3309999999999
 20
114.86649999999975
 40
0.5
 50
180
 51
270
  0
LINE
  8
_0-4_笠木
  6
CONTINUOUS
 62
    4
 10
123.13099999999997
 20
114.36649999999986
 11
123.3309999999999
 21
114.36649999999986
  0
ARC
  8
_0-4_笠木
  6
CONTINUOUS
 62
    4
 10
123.3309999999999
 20
114.86649999999975
 40
0.5
 50
270
 51
0
  0
LINE
  8
_0-4_笠木
  6
CONTINUOUS
 62
    4
 10
122.3309999999999
 20
114.36649999999986
 11
123.13099999999997
 21
114.36649999999986
  0
LINE
  8
_0-4_笠木
  6
CONTINUOUS
 62
    4
 10
126.77899999999988
 20
122.31149999999991
 11
123.8309999999999
 21
121.36649999999997
  0
LINE
  8
_0-4_笠木
  6
CONTINUOUS
 62
    4
 10
123.8309999999999
 20
124.36649999999986
 11
127.28599999999994
 21
124.60849999999982
  0
LINE
  8
_0-5_受金具
  6
CONTINUOUS
 62
    4
 10
124.57987799999989
 20
124.41889200000003
 11
126.65075599999989
 21
124.56370199999992
  0
LINE
  8
_0-5_受金具
  6
CONTINUOUS
 62
    4
 10
124.04500000000007
 20
124.91767399999992
 11
124.04500000000007
 21
129.38148999999999
  0
ARC
  8
_0-5_受金具
  6
CONTINUOUS
 62
    4
 10
124.54500000000007
 20
124.91767399999992
 40
0.5
 50
180
 51
274.0000000000029
  0
ARC
  8
_0-4_笠木
  6
CONTINUOUS
 62
    4
 10
126.32099999999991
 20
123.73950000000002
 40
1.5
 50
287.78250100000048
 51
0
  0
LINE
  8
_0-4_笠木
  6
CONTINUOUS
 62
    4
 10
127.82099999999991
 20
124.10950000000003
 11
127.82099999999991
 21
123.73950000000002
  0
ARC
  8
_0-4_笠木
  6
CONTINUOUS
 62
    4
 10
127.32100000000003
 20
124.10950000000003
 40
0.5
 50
0
 51
94.012169000000853
  0
LINE
  8
_0-5_受金具
  6
PLINE2
 62
    3
 10
178.63398399999994
 20
125.20223199999987
 11
176.63672500000007
 21
125.30690399999992
  0
LINE
  8
_0-5_受金具
  6
PLINE2
 62
    3
 10
176.79373299999997
 20
128.30279199999984
 11
178.73865599999988
 21
127.19949099999985
  0
LINE
  8
_0-5_受金具
  6
PLINE2
 62
    3
 10
178.89566400000001
 20
130.195379
 11
176.89840499999991
 21
130.30005099999983
  0
LINE
  8
_0-5_受金具
  6
PLINE2
 62
    3
 10
177.05541300000004
 20
133.29593999999986
 11
179.00033600000006
 21
132.19263799999999
  0
LINE
  8
_0-5_受金具
  6
PLINE2
 62
    3
 10
179.15734399999997
 20
135.18852699999991
 11
177.16008499999998
 21
135.29319899999985
  0
LINE
  8
_0-5_受金具
  6
PLINE2
 62
    3
 10
177.317093
 20
138.28908799999988
 11
179.26201600000002
 21
137.18578599999989
  0
LINE
  8
_0-5_受金具
  6
PLINE2
 62
    3
 10
179.41902400000004
 20
140.18167499999993
 11
177.42176500000005
 21
140.28634699999986
  0
LINE
  8
_0-5_受金具
  6
PLINE2
 62
    3
 10
178.42464100000007
 20
121.2077139999999
 11
179.92258499999991
 21
121.12920999999983
  0
LINE
  8
_0-5_受金具
  6
PLINE2
 62
    3
 10
180.02725700000008
 20
123.12646899999982
 11
176.53205299999991
 21
123.30964499999982
  0
LINE
  8
_0-5_受金具
  6
PLINE2
 62
    3
 10
176.63672500000007
 20
125.30690399999992
 11
176.53205299999991
 21
123.30964499999982
  0
LINE
  8
_0-5_受金具
  6
PLINE2
 62
    3
 10
176.53205299999991
 20
123.30964499999982
 11
178.42464100000007
 21
121.2077139999999
  0
LINE
  8
_0-5_受金具
  6
PLINE2
 62
    3
 10
176.89840499999991
 20
130.30005099999983
 11
176.79373299999997
 21
128.30279199999984
  0
LINE
  8
_0-5_受金具
  6
PLINE2
 62
    3
 10
177.16008499999998
 20
135.29319899999985
 11
177.05541300000004
 21
133.29593999999986
  0
LINE
  8
_0-5_受金具
  6
PLINE2
 62
    3
 10
177.42176500000005
 20
140.28634699999986
 11
177.317093
 21
138.28908799999988
  0
LINE
  8
_0-5_受金具
  6
PLINE2
 62
    3
 10
185.08966299999997
 20
132.19263799999999
 11
185.19433499999991
 21
130.195379
  0
LINE
  8
_0-5_受金具
  6
PLINE2
 62
    3
 10
179.00033600000006
 20
132.19263799999999
 11
178.89566400000001
 21
130.195379
  0
LINE
  8
_0-5_受金具
  6
PLINE2
 62
    3
 10
185.45601499999998
 20
125.20223199999987
 11
187.45327400000008
 21
125.30690399999992
  0
LINE
  8
_0-5_受金具
  6
PLINE2
 62
    3
 10
187.29626600000006
 20
128.30279199999984
 11
185.35134299999993
 21
127.19949099999985
  0
LINE
  8
_0-5_受金具
  6
PLINE2
 62
    3
 10
185.19433499999991
 20
130.195379
 11
187.1915939999999
 21
130.30005099999983
  0
LINE
  8
_0-5_受金具
  6
PLINE2
 62
    3
 10
187.5579459999999
 20
123.30964499999982
 11
185.66535800000008
 21
121.2077139999999
  0
LINE
  8
_0-5_受金具
  6
PLINE2
 62
    3
 10
184.06274199999996
 20
123.12646899999982
 11
187.5579459999999
 21
123.30964499999982
  0
LINE
  8
_0-5_受金具
  6
PLINE2
 62
    3
 10
181.98569400000008
 20
124.14603099999999
 11
183.91939499999989
 21
125.86170199999992
  0
LINE
  8
_0-5_受金具
  6
PLINE2
 62
    3
 10
180.17555499999992
 20
125.95616999999993
 11
182.04500000000007
 21
124.086725
  0
LINE
  8
_0-5_受金具
  6
PLINE2
 62
    3
 10
185.35134299999993
 20
127.19949099999985
 11
185.45601499999998
 21
125.20223199999987
  0
LINE
  8
_0-5_受金具
  6
PLINE2
 62
    3
 10
178.73865599999988
 20
127.19949099999985
 11
178.63398399999994
 21
125.20223199999987
  0
LINE
  8
_0-5_受金具
  6
PLINE2
 62
    3
 10
185.66535800000008
 20
121.2077139999999
 11
184.16741399999989
 21
121.12920999999983
  0
LINE
  8
_0-5_受金具
  6
PLINE2
 62
    3
 10
187.45327400000008
 20
125.30690399999992
 11
187.5579459999999
 21
123.30964499999982
  0
LINE
  8
_0-5_受金具
  6
PLINE2
 62
    3
 10
187.1915939999999
 20
130.30005099999983
 11
187.29626600000006
 21
128.30279199999984
  0
LINE
  8
_0-5_受金具
  6
PLINE2
 62
    3
 10
187.03458599999988
 20
133.29593999999986
 11
185.08966299999997
 21
132.19263799999999
  0
LINE
  8
_0-5_受金具
  6
PLINE2
 62
    3
 10
184.93265500000007
 20
135.18852699999991
 11
186.92991400000005
 21
135.29319899999985
  0
LINE
  8
_0-5_受金具
  6
PLINE2
 62
    3
 10
186.77290599999992
 20
138.28908799999988
 11
184.8279829999999
 21
137.18578599999989
  0
LINE
  8
_0-5_受金具
  6
PLINE2
 62
    3
 10
184.67097499999988
 20
140.18167499999993
 11
186.66823399999998
 21
140.28634699999986
  0
LINE
  8
_0-5_受金具
  6
PLINE2
 62
    3
 10
184.8279829999999
 20
137.18578599999989
 11
184.93265500000007
 21
135.18852699999991
  0
LINE
  8
_0-5_受金具
  6
PLINE2
 62
    3
 10
179.26201600000002
 20
137.18578599999989
 11
179.15734399999997
 21
135.18852699999991
  0
LINE
  8
_0-5_受金具
  6
PLINE2
 62
    3
 10
186.92991400000005
 20
135.29319899999985
 11
187.03458599999988
 21
133.29593999999986
  0
LINE
  8
_0-5_受金具
  6
PLINE2
 62
    3
 10
186.66823399999998
 20
140.28634699999986
 11
186.77290599999992
 21
138.28908799999988
  0
ARC
  8
_0-5_受金具
  6
CONTINUOUS
 62
    3
 10
149.04500000000007
 20
146.28049999999973
 40
27.493935999999991
 50
77.394909999997793
 51
102.60509000000221
  0
ARC
  8
_0-5_受金具
  6
CONTINUOUS
 62
    4
 10
149.04500000000007
 20
146.28049999999973
 40
25
 50
76.11345999999979
 51
103.88654000000018
  0
LINE
  8
_0-5_受金具
  6
CONTINUOUS
 62
    3
 10
150.47503900000004
 20
173.73722099999986
 11
147.99631299999999
 21
171.25849599999992
  0
LINE
  8
_0-5_受金具
  6
CONTINUOUS
 62
    3
 10
149.79491800000005
 20
173.76420699999994
 11
147.24642999999992
 21
171.21571899999981
  0
LINE
  8
_0-5_受金具
  6
CONTINUOUS
 62
    3
 10
149.09798899999998
 20
173.77438499999994
 11
146.47126999999989
 21
171.14766599999996
  0
LINE
  8
_0-5_受金具
  6
CONTINUOUS
 62
    3
 10
148.38296199999991
 20
173.76646499999993
 11
145.66784400000006
 21
171.05134699999985
  0
ARC
  8
_0-5_受金具
  6
CONTINUOUS
 62
    4
 10
135.14401900000007
 20
159.08049999999992
 40
5
 50
90
 51
168.69006799999792
  0
ARC
  8
_0-5_受金具
  6
CONTINUOUS
 62
    4
 10
135.92097099999989
 20
157.58049999999992
 40
2.5
 50
90
 51
170.23919800000078
  0
LINE
  8
_0-4_笠木
  6
CONTINUOUS
 62
    4
 10
121.8309999999999
 20
172.36149999999986
 11
123.82599999999991
 21
174.35649999999987
  0
ARC
  8
_0-4_笠木
  6
CONTINUOUS
 62
    4
 10
126.8309999999999
 20
169.53049999999973
 40
3
 50
93.496528999996954
 51
180
  0
ARC
  8
_0-4_笠木
  6
CONTINUOUS
 62
    4
 10
126.8309999999999
 20
169.53149999999982
 40
3
 50
93.497696000001099
 51
180.03819299999958
  0
LINE
  8
_0-4_笠木
  6
CONTINUOUS
 62
    4
 10
123.8309999999999
 20
169.40449999999998
 11
123.8309999999999
 21
169.52949999999987
  0
LINE
  8
_0-5_受金具
  6
CONTINUOUS
 62
    3
 10
147.64832899999999
 20
173.73893899999996
 11
144.83241800000008
 21
170.92302800000004
  0
LINE
  8
_0-5_受金具
  6
CONTINUOUS
 62
    3
 10
146.89231699999993
 20
173.69003299999997
 11
143.96022399999993
 21
170.75793999999985
  0
LINE
  8
_0-5_受金具
  6
CONTINUOUS
 62
    3
 10
144.47130799999991
 20
173.39134399999989
 11
143.04499999999996
 21
171.96503599999983
  0
LINE
  8
_0-5_受金具
  6
CONTINUOUS
 62
    3
 10
145.30609299999992
 20
173.51902299999995
 11
143.04499999999996
 21
171.25792899999999
  0
LINE
  8
_0-5_受金具
  6
CONTINUOUS
 62
    3
 10
146.11168899999996
 20
173.61751199999992
 11
143.04499999999996
 21
170.54982299999983
  0
LINE
  8
_0-5_受金具
  6
CONTINUOUS
 62
    4
 10
135.14401900000007
 20
164.08049999999992
 11
146.54500000000007
 21
164.08049999999992
  0
LINE
  8
_0-5_受金具
  6
CONTINUOUS
 62
    4
 10
147.54499999999996
 20
165.08049999999992
 11
147.54499999999996
 21
168.28049999999985
  0
ARC
  8
_0-5_受金具
  6
CONTINUOUS
 62
    4
 10
146.54500000000007
 20
165.08049999999992
 40
1
 50
270
 51
0
  0
LINE
  8
_0-5_受金具
  6
CONTINUOUS
 62
    4
 10
143.04499999999996
 20
169.28049999999985
 11
146.54500000000007
 21
169.28049999999985
  0
LINE
  8
_0-5_受金具
  6
CONTINUOUS
 62
    3
 10
143.04499999999996
 20
173.11176
 11
143.04499999999996
 21
170.54982299999983
  0
LINE
  8
_0-5_受金具
  6
CONTINUOUS
 62
    4
 10
143.04499999999996
 20
170.54982299999983
 11
143.04499999999996
 21
169.28049999999985
  0
LINE
  8
_0-5_受金具
  6
CONTINUOUS
 62
    3
 10
143.60341599999992
 20
173.23055999999985
 11
143.04499999999996
 21
172.67214300000001
  0
ARC
  8
_0-5_受金具
  6
CONTINUOUS
 62
    4
 10
146.54500000000007
 20
168.28049999999985
 40
1
 50
0
 51
90
  0
LINE
  8
_0-5_受金具
  6
PLINE2
 62
    3
 10
177.04499999999996
 20
160.08672499999989
 11
182.04500000000007
 21
160.08672499999989
  0
LINE
  8
_0-5_受金具
  6
PLINE2
 62
    3
 10
178.04500000000007
 20
148.086725
 11
179.78537500000004
 21
147.17208099999993
  0
LINE
  8
_0-5_受金具
  6
PLINE2
 62
    3
 10
177.57877300000007
 20
143.2822349999999
 11
179.52369599999997
 21
142.17893399999991
  0
LINE
  8
_0-5_受金具
  6
PLINE2
 62
    3
 10
179.68070399999999
 20
145.17482199999995
 11
177.68344399999989
 21
145.27949399999989
  0
ARC
  8
_0-5_受金具
  6
CONTINUOUS
 62
    4
 10
182.04500000000007
 20
162.88049999999987
 40
5.4000000000000004
 50
90
 51
128.85106199999711
  0
ARC
  8
_0-5_受金具
  6
CONTINUOUS
 62
    4
 10
180.542237
 20
164.75179100000003
 40
3
 50
128.61463800000209
 51
177.54107399999734
  0
LINE
  8
_0-5_受金具
  6
CONTINUOUS
 62
    3
 10
169.54500000000007
 20
164.88049999999998
 11
194.54500000000007
 21
164.88049999999998
  0
LINE
  8
_0-3_躯体
  6
CONTINUOUS
 62
    3
 10
161.1579999999999
 20
159.08049999999992
 11
176.25913600000001
 21
143.9793639999998
  0
LINE
  8
_0-5_受金具
  6
PLINE2
 62
    3
 10
178.04500000000007
 20
160.08672499999989
 11
178.04500000000007
 21
152.08672499999989
  0
LINE
  8
_0-3_躯体
  6
CONTINUOUS
 62
    3
 10
163.60800000000006
 20
159.08049999999992
 11
175.769136
 21
146.91936399999986
  0
LINE
  8
_0-3_躯体
  6
CONTINUOUS
 62
    3
 10
165.48099999999988
 20
159.08049999999992
 11
175.39437800000007
 21
149.16791399999988
  0
LINE
  8
_0-5_受金具
  6
PLINE2
 62
    3
 10
177.08946999999989
 20
145.28634699999986
 11
176.17167000000006
 21
150.79314999999986
  0
LINE
  8
_0-5_受金具
  6
PLINE2
 62
    3
 10
176.07567599999993
 20
145.28634699999986
 11
175.18527599999993
 21
150.62875099999985
  0
LINE
  8
_0-5_受金具
  6
PLINE2
 62
    3
 10
177.68344399999989
 20
145.27949399999989
 11
177.57877300000007
 21
143.2822349999999
  0
LINE
  8
_0-5_受金具
  6
PLINE2
 62
    3
 10
178.04500000000007
 20
148.086725
 11
178.04500000000007
 21
152.08672499999989
  0
ARC
  8
_0-5_受金具
  6
PLINE2
 62
    3
 10
175.67847299999994
 20
150.71094999999991
 40
0.5
 50
9.4623219999996362
 51
189.4623219999996
  0
LINE
  8
_0-5_受金具
  6
PLINE2
 62
    3
 10
177.04499999999996
 20
160.08672499999989
 11
178.04500000000007
 21
155.086725
  0
LINE
  8
_0-5_受金具
  6
CONTINUOUS
 62
    3
 10
154.25646199999994
 20
173.27600299999995
 11
152.07648099999994
 21
171.09602199999983
  0
LINE
  8
_0-5_受金具
  6
CONTINUOUS
 62
    3
 10
153.65803000000005
 20
173.38467799999989
 11
151.43896600000005
 21
171.165615
  0
LINE
  8
_0-5_受金具
  6
CONTINUOUS
 62
    3
 10
153.04774700000007
 20
173.48150299999986
 11
150.78604700000005
 21
171.21980199999996
  0
LINE
  8
_0-5_受金具
  6
CONTINUOUS
 62
    3
 10
152.42501899999991
 20
173.56588099999988
 11
150.11665899999991
 21
171.257521
  0
LINE
  8
_0-5_受金具
  6
CONTINUOUS
 62
    3
 10
151.78917599999988
 20
173.63714499999992
 11
149.429573
 21
171.27754199999993
  0
LINE
  8
_0-5_受金具
  6
CONTINUOUS
 62
    3
 10
151.13946699999997
 20
173.69454299999984
 11
148.72335600000008
 21
171.27843100000007
  0
LINE
  8
_0-5_受金具
  6
CONTINUOUS
 62
    4
 10
150.54500000000007
 20
165.08049999999992
 11
150.54500000000007
 21
168.28049999999985
  0
ARC
  8
_0-5_受金具
  6
CONTINUOUS
 62
    4
 10
151.54499999999996
 20
165.08049999999992
 40
1
 50
180
 51
270
  0
LINE
  8
_0-5_受金具
  6
CONTINUOUS
 62
    4
 10
151.54499999999996
 20
169.28049999999985
 11
155.04499999999996
 21
169.28049999999985
  0
ARC
  8
_0-5_受金具
  6
CONTINUOUS
 62
    4
 10
151.54499999999996
 20
168.28049999999985
 40
1
 50
90
 51
180
  0
LINE
  8
_0-5_受金具
  6
CONTINUOUS
 62
    3
 10
155.04499999999996
 20
173.11176
 11
155.04499999999996
 21
170.54982299999983
  0
LINE
  8
_0-5_受金具
  6
CONTINUOUS
 62
    4
 10
155.04499999999996
 20
169.28049999999985
 11
155.04499999999996
 21
170.54982299999983
  0
LINE
  8
_0-5_受金具
  6
CONTINUOUS
 62
    3
 10
154.48936300000003
 20
170.68047799999999
 11
155.04499999999996
 21
171.23611399999982
  0
LINE
  8
_0-5_受金具
  6
CONTINUOUS
 62
    3
 10
153.90528199999994
 20
170.80350299999975
 11
155.04499999999996
 21
171.94322099999999
  0
LINE
  8
_0-5_受金具
  6
CONTINUOUS
 62
    3
 10
153.30887600000005
 20
170.91420399999993
 11
155.04499999999996
 21
172.65032799999994
  0
LINE
  8
_0-5_受金具
  6
CONTINUOUS
 62
    3
 10
154.84357499999999
 20
173.15600999999992
 11
152.69951399999991
 21
171.01194899999985
  0
LINE
  8
_0-5_受金具
  6
CONTINUOUS
 62
    3
 10
169.54500000000007
 20
163.88049999999987
 11
169.54500000000007
 21
164.88049999999998
  0
LINE
  8
_0-5_受金具
  6
PLINE2
 62
    3
 10
184.54499999999996
 20
164.88049999999998
 11
184.54499999999996
 21
159.88049999999987
  0
LINE
  8
_0-5_受金具
  6
PLINE2
 62
    3
 10
183.54500000000007
 20
164.87149999999997
 11
183.54500000000007
 21
159.88049999999987
  0
LINE
  8
_0-5_受金具
  6
PLINE2
 62
    3
 10
180.54499999999996
 20
164.88049999999998
 11
180.54499999999996
 21
159.88049999999987
  0
LINE
  8
_0-5_受金具
  6
PLINE2
 62
    3
 10
179.54500000000007
 20
164.88049999999998
 11
179.54500000000007
 21
159.88049999999987
  0
LINE
  8
_0-5_受金具
  6
PLINE2
 62
    3
 10
186.04500000000007
 20
160.08672499999989
 11
186.04500000000007
 21
152.08672499999989
  0
LINE
  8
_0-5_受金具
  6
PLINE2
 62
    3
 10
186.51122700000008
 20
143.2822349999999
 11
184.56630300000006
 21
142.17893399999991
  0
LINE
  8
_0-5_受金具
  6
PLINE2
 62
    3
 10
184.40929599999993
 20
145.17482199999995
 11
186.40655499999991
 21
145.27949399999989
  0
LINE
  8
_0-5_受金具
  6
PLINE2
 62
    3
 10
184.30462399999999
 20
147.17208099999993
 11
184.40929599999993
 21
145.17482199999995
  0
LINE
  8
_0-5_受金具
  6
PLINE2
 62
    3
 10
179.78537500000004
 20
147.17208099999993
 11
179.68070399999999
 21
145.17482199999995
  0
LINE
  8
_0-5_受金具
  6
PLINE2
 62
    3
 10
182.54500000000007
 20
152.08672499999989
 11
182.04500000000007
 21
152.08672499999989
  0
LINE
  8
_0-5_受金具
  6
PLINE2
 62
    3
 10
181.54500000000007
 20
152.08672499999989
 11
182.04500000000007
 21
152.08672499999989
  0
LINE
  8
_0-5_受金具
  6
PLINE2
 62
    3
 10
186.04500000000007
 20
148.086725
 11
184.30462399999999
 21
147.17208099999993
  0
LINE
  8
_0-5_受金具
  6
PLINE2
 62
    3
 10
186.04500000000007
 20
148.086725
 11
186.04500000000007
 21
152.08672499999989
  0
LINE
  8
_0-5_受金具
  6
PLINE2
 62
    3
 10
188.16498999999999
 20
145.28634699999986
 11
189.05538999999999
 21
150.62875099999985
  0
LINE
  8
_0-5_受金具
  6
PLINE2
 62
    3
 10
187.15119599999991
 20
145.28634699999986
 11
188.06899700000008
 21
150.79314999999986
  0
LINE
  8
_0-5_受金具
  6
PLINE2
 62
    3
 10
186.40655499999991
 20
145.27949399999989
 11
186.51122700000008
 21
143.2822349999999
  0
ARC
  8
_0-5_受金具
  6
PLINE2
 62
    3
 10
188.56219299999998
 20
150.71094999999991
 40
0.5
 50
350.53767800000031
 51
170.53767800000031
  0
LINE
  8
_0-5_受金具
  6
PLINE2
 62
    3
 10
187.04500000000007
 20
160.08672499999989
 11
182.04500000000007
 21
160.08672499999989
  0
LINE
  8
_0-5_受金具
  6
PLINE2
 62
    3
 10
187.04500000000007
 20
160.08672499999989
 11
186.04500000000007
 21
155.086725
  0
LINE
  8
_0-5_受金具
  6
PLINE2
 62
    3
 10
182.04500000000007
 20
155.086725
 11
182.04500000000007
 21
160.08672499999989
  0
LINE
  8
_0-5_受金具
  6
PLINE2
 62
    3
 10
183.04500000000007
 20
160.08672499999989
 11
182.04500000000007
 21
155.086725
  0
LINE
  8
_0-5_受金具
  6
PLINE2
 62
    3
 10
181.04499999999996
 20
160.08672499999989
 11
182.04500000000007
 21
155.086725
  0
ARC
  8
_0-5_受金具
  6
CONTINUOUS
 62
    4
 10
183.54776200000003
 20
164.75179100000003
 40
3
 50
2.458926000002652
 51
51.385361999997833
  0
ARC
  8
_0-5_受金具
  6
CONTINUOUS
 62
    4
 10
182.04500000000007
 20
162.88049999999987
 40
5.4000000000000004
 50
51.317812999997599
 51
90
  0
LINE
  8
_0-5_受金具
  6
CONTINUOUS
 62
    3
 10
194.54500000000007
 20
164.88049999999998
 11
194.54500000000007
 21
163.88049999999987
  0
LINE
  8
_0-2_寸法
  6
CONTINUOUS
 62
    3
 10
212.04500000000007
 20
220.1194999999999
 11
212.04500000000007
 21
100.96749999999986
  0
LINE
  8
_0-3_躯体
  6
CONTINUOUS
 62
    3
 10
254.73099999999988
 20
159.08049999999992
 11
283.28600000000006
 21
130.52549999999997
  0
LINE
  8
_0-3_躯体
  6
CONTINUOUS
 62
    3
 10
309.62499999999989
 20
141.73249999999985
 11
280.60899999999992
 21
124.97949999999992
  0
LINE
  8
_0-3_躯体
  6
CONTINUOUS
 62
    3
 10
307.82500000000005
 20
142.6925
 11
278.60900000000004
 21
125.82549999999992
  0
LINE
  8
_0-3_躯体
  6
CONTINUOUS
 62
    4
 10
304.58000000000004
 20
142.81849999999997
 11
279.10800000000006
 21
128.11249999999973
  0
LINE
  8
_0-3_躯体
  6
CONTINUOUS
 62
    3
 10
250.5089999999999
 20
159.05849999999998
 11
280.59599999999989
 21
128.97149999999999
  0
LINE
  8
_0-3_躯体
  6
CONTINUOUS
 62
    3
 10
252.62
 20
158.96449999999982
 11
281.94000000000005
 21
129.74749999999983
  0
LINE
  8
_0-2_寸法
  6
CONTINUOUS
 62
    3
 10
242.04500000000007
 20
100.96749999999986
 11
242.04500000000007
 21
170.94349999999997
  0
ARC
  8
_0-3_躯体
  6
CONTINUOUS
 62
    4
 10
306.02699999999993
 20
137.15749999999991
 40
5.8200000000000003
 50
358.5821839999976
 51
105.19207799999957
  0
LINE
  8
_0-3_躯体
  6
CONTINUOUS
 62
    4
 10
311.84499999999991
 20
160.38049999999976
 11
311.84499999999991
 21
137.01350000000002
  0
LINE
  8
_0-5_受金具
  6
PLINE2
 62
    3
 10
239.52369600000009
 20
142.17270899999994
 11
239.41902399999992
 21
140.17544999999996
  0
LINE
  8
_0-5_受金具
  6
PLINE2
 62
    3
 10
239.92258499999991
 20
121.12298499999986
 11
241.54500000000007
 21
152.08049999999992
  0
LINE
  8
_0-5_受金具
  6
PLINE2
 62
    3
 10
237.57243200000005
 20
140.28012200000001
 11
236.07567599999993
 21
145.28012200000001
  0
LINE
  8
_0-5_受金具
  6
PLINE2
 62
    3
 10
238.63515100000006
 20
140.22442699999999
 11
237.08947000000001
 21
145.28012200000001
  0
LINE
  8
_0-5_受金具
  6
PLINE2
 62
    3
 10
246.66823399999998
 20
140.28012200000001
 11
248.16498999999988
 21
145.28012200000001
  0
LINE
  8
_0-5_受金具
  6
PLINE2
 62
    3
 10
245.60551500000008
 20
140.22442699999999
 11
247.15119599999991
 21
145.28012200000001
  0
LINE
  8
_0-5_受金具
  6
PLINE2
 62
    3
 10
244.56630299999995
 20
142.17270899999994
 11
244.67097499999988
 21
140.17544999999996
  0
LINE
  8
_0-5_受金具
  6
PLINE2
 62
    3
 10
244.16741399999989
 20
121.12298499999986
 11
242.54499999999996
 21
152.08049999999992
  0
LINE
  8
_0-3_躯体
  6
CONTINUOUS
 62
    3
 10
353.43099999999993
 20
128.87349999999992
 11
286.65899999999999
 21
62.101499999999874
  0
LINE
  8
_0-3_躯体
  6
CONTINUOUS
 62
    3
 10
353.43099999999993
 20
133.11749999999984
 11
286.60800000000006
 21
66.294499999999857
  0
LINE
  8
_0-3_躯体
  6
CONTINUOUS
 62
    3
 10
353.43099999999993
 20
131.01850000000002
 11
286.61199999999997
 21
64.345500000000015
  0
LINE
  8
_0-3_躯体
  6
CONTINUOUS
 62
    4
 10
286.60800000000006
 20
122.44349999999986
 11
286.60800000000006
 21
47.653499999999894
  0
LINE
  8
_0-3_躯体
  6
CONTINUOUS
 62
    3
 10
284.59899999999993
 20
123.28349999999989
 11
284.59899999999993
 21
47.655499999999734
  0
LINE
  8
_0-3_躯体
  6
CONTINUOUS
 62
    3
 10
282.60900000000004
 20
124.1345
 11
282.60900000000004
 21
47.655499999999734
  0
LINE
  8
_0-3_躯体
  6
CONTINUOUS
 62
    4
 10
276.60799999999995
 20
123.78250000000003
 11
276.60799999999995
 21
47.545499999999834
  0
LINE
  8
_0-3_躯体
  6
CONTINUOUS
 62
    3
 10
280.60899999999992
 20
124.97949999999992
 11
280.60899999999992
 21
47.655499999999734
  0
LINE
  8
_0-3_躯体
  6
CONTINUOUS
 62
    3
 10
278.60900000000004
 20
125.82549999999992
 11
278.60900000000004
 21
47.655499999999734
  0
LINE
  8
_0-2_寸法
  6
PLINE2
 62
    4
 10
311.84499999999991
 20
137.01350000000002
 11
311.84499999999991
 21
47.349499999999921
  0
LINE
  8
_0-5_受金具
  6
PLINE2
 62
    3
 10
238.42464099999995
 20
121.20148899999981
 11
239.92258499999991
 21
121.12298499999986
  0
LINE
  8
_0-5_受金具
  6
PLINE2
 62
    3
 10
240.02725699999985
 20
123.12024399999984
 11
236.53205300000013
 21
123.30341999999985
  0
LINE
  8
_0-5_受金具
  6
PLINE2
 62
    3
 10
239.00033599999995
 20
132.18641400000001
 11
238.89566400000001
 21
130.18915499999991
  0
LINE
  8
_0-5_受金具
  6
PLINE2
 62
    3
 10
238.73865599999988
 20
127.19326599999999
 11
238.63398400000005
 21
125.19600700000001
  0
LINE
  8
_0-5_受金具
  6
PLINE2
 62
    3
 10
238.63398400000005
 20
125.19600700000001
 11
236.63672500000007
 21
125.30067899999995
  0
LINE
  8
_0-5_受金具
  6
PLINE2
 62
    3
 10
236.53205300000013
 20
123.30341999999985
 11
238.42464099999995
 21
121.20148899999981
  0
LINE
  8
_0-5_受金具
  6
PLINE2
 62
    3
 10
236.63672500000007
 20
125.30067899999995
 11
236.53205300000013
 21
123.30341999999985
  0
LINE
  8
_0-5_受金具
  6
PLINE2
 62
    3
 10
236.79373299999997
 20
128.29656699999998
 11
238.73865599999988
 21
127.19326599999999
  0
LINE
  8
_0-5_受金具
  6
PLINE2
 62
    3
 10
236.89840499999991
 20
130.29382699999985
 11
236.79373299999997
 21
128.29656699999998
  0
LINE
  8
_0-5_受金具
  6
PLINE2
 62
    3
 10
238.89566400000001
 20
130.18915499999991
 11
236.89840499999991
 21
130.29382699999985
  0
LINE
  8
_0-5_受金具
  6
PLINE2
 62
    3
 10
239.26201600000013
 20
137.17956099999992
 11
239.15734400000008
 21
135.18230199999994
  0
LINE
  8
_0-5_受金具
  6
PLINE2
 62
    3
 10
237.05541299999993
 20
133.289715
 11
239.00033599999995
 21
132.18641400000001
  0
LINE
  8
_0-5_受金具
  6
PLINE2
 62
    3
 10
237.16008499999998
 20
135.28697399999999
 11
237.05541299999993
 21
133.289715
  0
LINE
  8
_0-5_受金具
  6
PLINE2
 62
    3
 10
239.15734400000008
 20
135.18230199999994
 11
237.16008499999998
 21
135.28697399999999
  0
LINE
  8
_0-5_受金具
  6
PLINE2
 62
    3
 10
237.317093
 20
138.28286299999991
 11
239.26201600000013
 21
137.17956099999992
  0
LINE
  8
_0-5_受金具
  6
PLINE2
 62
    3
 10
237.42176499999994
 20
140.28012200000001
 11
237.317093
 21
138.28286299999991
  0
LINE
  8
_0-5_受金具
  6
PLINE2
 62
    3
 10
239.41902399999992
 20
140.17544999999996
 11
237.42176499999994
 21
140.28012200000001
  0
LINE
  8
_0-5_受金具
  6
PLINE2
 62
    3
 10
245.08966299999997
 20
132.18641400000001
 11
245.19433499999991
 21
130.18915499999991
  0
LINE
  8
_0-5_受金具
  6
PLINE2
 62
    3
 10
245.45601499999998
 20
125.19600700000001
 11
247.45327400000008
 21
125.30067899999995
  0
LINE
  8
_0-5_受金具
  6
PLINE2
 62
    3
 10
247.29626599999995
 20
128.29656699999998
 11
245.35134299999993
 21
127.19326599999999
  0
LINE
  8
_0-5_受金具
  6
PLINE2
 62
    3
 10
245.19433499999991
 20
130.18915499999991
 11
247.1915939999999
 21
130.29382699999985
  0
LINE
  8
_0-5_受金具
  6
PLINE2
 62
    3
 10
247.5579459999999
 20
123.30341999999985
 11
245.66535800000008
 21
121.20148899999981
  0
LINE
  8
_0-5_受金具
  6
PLINE2
 62
    3
 10
244.06274200000007
 20
123.12024399999984
 11
247.5579459999999
 21
123.30341999999985
  0
LINE
  8
_0-5_受金具
  6
PLINE2
 62
    3
 10
241.98569400000008
 20
124.13980599999991
 11
243.91939500000001
 21
125.85547699999984
  0
LINE
  8
_0-5_受金具
  6
PLINE2
 62
    3
 10
240.17555500000003
 20
125.94994499999984
 11
242.04500000000007
 21
124.08049999999992
  0
LINE
  8
_0-5_受金具
  6
PLINE2
 62
    3
 10
245.35134299999993
 20
127.19326599999999
 11
245.45601499999998
 21
125.19600700000001
  0
LINE
  8
_0-5_受金具
  6
PLINE2
 62
    3
 10
245.66535800000008
 20
121.20148899999981
 11
244.16741399999989
 21
121.12298499999986
  0
LINE
  8
_0-5_受金具
  6
PLINE2
 62
    3
 10
247.45327400000008
 20
125.30067899999995
 11
247.5579459999999
 21
123.30341999999985
  0
LINE
  8
_0-5_受金具
  6
PLINE2
 62
    3
 10
247.1915939999999
 20
130.29382699999985
 11
247.29626599999995
 21
128.29656699999998
  0
LINE
  8
_0-5_受金具
  6
PLINE2
 62
    3
 10
244.82798300000002
 20
137.17956099999992
 11
244.93265499999995
 21
135.18230199999994
  0
LINE
  8
_0-5_受金具
  6
PLINE2
 62
    3
 10
247.03458599999988
 20
133.289715
 11
245.08966299999997
 21
132.18641400000001
  0
LINE
  8
_0-5_受金具
  6
PLINE2
 62
    3
 10
246.92991399999994
 20
135.28697399999999
 11
247.03458599999988
 21
133.289715
  0
LINE
  8
_0-5_受金具
  6
PLINE2
 62
    3
 10
244.93265499999995
 20
135.18230199999994
 11
246.92991399999994
 21
135.28697399999999
  0
LINE
  8
_0-5_受金具
  6
PLINE2
 62
    3
 10
246.77290600000003
 20
138.28286299999991
 11
244.82798300000002
 21
137.17956099999992
  0
LINE
  8
_0-5_受金具
  6
PLINE2
 62
    3
 10
246.66823399999998
 20
140.28012200000001
 11
246.77290600000003
 21
138.28286299999991
  0
LINE
  8
_0-5_受金具
  6
PLINE2
 62
    3
 10
244.67097499999988
 20
140.17544999999996
 11
246.66823399999998
 21
140.28012200000001
  0
LINE
  8
_0-3_躯体
  6
CONTINUOUS
 62
    3
 10
311.59100000000001
 20
138.86649999999986
 11
284.59899999999993
 21
123.28349999999989
  0
LINE
  8
_0-3_躯体
  6
CONTINUOUS
 62
    3
 10
310.83800000000008
 20
140.43249999999989
 11
282.60900000000004
 21
124.1345
  0
LINE
  8
_0-3_躯体
  6
CONTINUOUS
 62
    4
 10
286.60800000000006
 20
122.44349999999986
 11
311.84499999999991
 21
137.01350000000002
  0
ARC
  8
_0-3_躯体
  6
CONTINUOUS
 62
    4
 10
281.60799999999995
 20
123.78250000000003
 40
5
 50
120.0007249999998
 51
180
  0
LINE
  8
_0-3_躯体
  6
CONTINUOUS
 62
    3
 10
311.84499999999991
 20
165.45449999999994
 11
353.43099999999993
 21
207.03449999999987
  0
LINE
  8
_0-3_躯体
  6
CONTINUOUS
 62
    3
 10
311.84499999999991
 20
169.41949999999986
 11
353.43099999999993
 21
211.08449999999993
  0
LINE
  8
_0-3_躯体
  6
CONTINUOUS
 62
    3
 10
311.84499999999991
 20
167.30549999999994
 11
353.43099999999993
 21
208.94449999999972
  0
LINE
  8
_0-3_躯体
  6
CONTINUOUS
 62
    4
 10
286.84499999999991
 20
210.38049999999998
 11
286.84499999999991
 21
249.4325
  0
LINE
  8
_0-3_躯体
  6
CONTINUOUS
 62
    3
 10
286.84499999999991
 20
218.49650000000008
 11
317.99899999999991
 21
249.65050000000008
  0
LINE
  8
_0-3_躯体
  6
CONTINUOUS
 62
    3
 10
286.84499999999991
 20
222.7405
 11
313.3649999999999
 21
249.26049999999987
  0
LINE
  8
_0-3_躯体
  6
CONTINUOUS
 62
    3
 10
286.84499999999991
 20
220.61849999999993
 11
315.87699999999995
 21
249.65050000000008
  0
LINE
  8
_0-2_寸法
  6
CONTINUOUS
 62
    3
 10
212.04500000000007
 20
220.1194999999999
 11
311.84499999999991
 21
220.1194999999999
  0
LINE
  8
_0-5_受金具
  6
CONTINUOUS
 62
    4
 10
292.34499999999991
 20
164.08049999999992
 11
212.54500000000007
 21
164.08049999999992
  0
LINE
  8
_0-5_受金具
  6
PLINE2
 62
    3
 10
239.68070399999999
 20
145.16859799999997
 11
237.68344399999989
 21
145.27326999999991
  0
LINE
  8
_0-5_受金具
  6
PLINE2
 62
    3
 10
237.04500000000007
 20
160.08049999999992
 11
242.04500000000007
 21
160.08049999999992
  0
LINE
  8
_0-5_受金具
  6
PLINE2
 62
    3
 10
238.04500000000007
 20
148.08049999999992
 11
239.78537499999993
 21
147.16585699999996
  0
ARC
  8
_0-5_受金具
  6
CONTINUOUS
 62
    4
 10
242.04500000000007
 20
162.8742759999999
 40
5.4000000000000004
 50
90
 51
128.85106199999711
  0
LINE
  8
_0-5_受金具
  6
CONTINUOUS
 62
    3
 10
229.54500000000007
 20
164.87427600000001
 11
254.54500000000007
 21
164.87427600000001
  0
LINE
  8
_0-5_受金具
  6
PLINE2
 62
    3
 10
239.54499999999996
 20
164.87149999999997
 11
239.54499999999996
 21
159.88049999999987
  0
LINE
  8
_0-5_受金具
  6
PLINE2
 62
    3
 10
238.04500000000007
 20
160.08049999999992
 11
238.04500000000007
 21
152.08049999999992
  0
LINE
  8
_0-5_受金具
  6
PLINE2
 62
    3
 10
237.08947000000001
 20
145.28012200000001
 11
236.17166999999995
 21
150.786925
  0
LINE
  8
_0-5_受金具
  6
PLINE2
 62
    3
 10
236.07567599999993
 20
145.28012200000001
 11
235.18527600000004
 21
150.62252599999999
  0
LINE
  8
_0-5_受金具
  6
PLINE2
 62
    3
 10
237.57877300000007
 20
143.27600999999993
 11
239.52369600000009
 21
142.17270899999994
  0
LINE
  8
_0-5_受金具
  6
PLINE2
 62
    3
 10
237.68344399999989
 20
145.27326999999991
 11
237.57877300000007
 21
143.27600999999993
  0
ARC
  8
_0-5_受金具
  6
PLINE2
 62
    3
 10
235.67847299999994
 20
150.70472499999983
 40
0.5
 50
9.4623219999996362
 51
189.4623219999996
  0
LINE
  8
_0-5_受金具
  6
PLINE2
 62
    3
 10
238.04500000000007
 20
148.08049999999992
 11
238.04500000000007
 21
152.08049999999992
  0
LINE
  8
_0-5_受金具
  6
PLINE2
 62
    3
 10
237.04500000000007
 20
160.08049999999992
 11
238.04500000000007
 21
155.08049999999992
  0
LINE
  8
_0-5_受金具
  6
CONTINUOUS
 62
    4
 10
212.04500000000007
 20
163.58049999999992
 11
211.54500000000007
 21
164.08049999999992
  0
LINE
  8
_0-5_受金具
  6
CONTINUOUS
 62
    4
 10
212.04500000000007
 20
163.58049999999992
 11
212.54500000000007
 21
164.08049999999992
  0
LINE
  8
_0-5_受金具
  6
CONTINUOUS
 62
    3
 10
229.54500000000007
 20
163.87427600000001
 11
229.54500000000007
 21
164.87427600000001
  0
ARC
  8
_0-5_受金具
  6
CONTINUOUS
 62
    4
 10
240.542237
 20
164.74556599999983
 40
3
 50
128.61463800000209
 51
177.54107399999734
  0
LINE
  8
_0-5_受金具
  6
PLINE2
 62
    3
 10
244.54500000000007
 20
164.88049999999998
 11
244.54500000000007
 21
159.88049999999987
  0
LINE
  8
_0-5_受金具
  6
PLINE2
 62
    3
 10
243.54499999999996
 20
164.87149999999997
 11
243.54499999999996
 21
159.88049999999987
  0
LINE
  8
_0-5_受金具
  6
PLINE2
 62
    3
 10
240.54500000000007
 20
164.88049999999998
 11
240.54500000000007
 21
159.88049999999987
  0
LINE
  8
_0-5_受金具
  6
PLINE2
 62
    3
 10
246.04500000000007
 20
160.08049999999992
 11
246.04500000000007
 21
152.08049999999992
  0
LINE
  8
_0-5_受金具
  6
PLINE2
 62
    3
 10
247.15119599999991
 20
145.28012200000001
 11
248.06899700000008
 21
150.786925
  0
LINE
  8
_0-5_受金具
  6
PLINE2
 62
    3
 10
239.78537499999993
 20
147.16585699999996
 11
239.68070399999999
 21
145.16859799999997
  0
LINE
  8
_0-5_受金具
  6
PLINE2
 62
    3
 10
244.30462399999999
 20
147.16585699999996
 11
244.40929600000004
 21
145.16859799999997
  0
LINE
  8
_0-5_受金具
  6
PLINE2
 62
    3
 10
246.51122699999996
 20
143.27600999999993
 11
244.56630299999995
 21
142.17270899999994
  0
LINE
  8
_0-5_受金具
  6
PLINE2
 62
    3
 10
246.40655499999991
 20
145.27326999999991
 11
246.51122699999996
 21
143.27600999999993
  0
LINE
  8
_0-5_受金具
  6
PLINE2
 62
    3
 10
244.40929600000004
 20
145.16859799999997
 11
246.40655499999991
 21
145.27326999999991
  0
LINE
  8
_0-5_受金具
  6
PLINE2
 62
    3
 10
241.54500000000007
 20
152.08049999999992
 11
242.04500000000007
 21
152.08049999999992
  0
LINE
  8
_0-5_受金具
  6
PLINE2
 62
    3
 10
242.54499999999996
 20
152.08049999999992
 11
242.04500000000007
 21
152.08049999999992
  0
LINE
  8
_0-5_受金具
  6
PLINE2
 62
    3
 10
246.04500000000007
 20
148.08049999999992
 11
244.30462399999999
 21
147.16585699999996
  0
LINE
  8
_0-5_受金具
  6
PLINE2
 62
    3
 10
246.04500000000007
 20
148.08049999999992
 11
246.04500000000007
 21
152.08049999999992
  0
LINE
  8
_0-5_受金具
  6
PLINE2
 62
    3
 10
248.16498999999988
 20
145.28012200000001
 11
249.05538999999987
 21
150.62252599999999
  0
ARC
  8
_0-5_受金具
  6
PLINE2
 62
    3
 10
248.56219299999998
 20
150.70472499999983
 40
0.5
 50
350.53767800000031
 51
170.53767800000031
  0
LINE
  8
_0-5_受金具
  6
PLINE2
 62
    3
 10
242.04500000000007
 20
155.08049999999992
 11
242.04500000000007
 21
160.08049999999992
  0
LINE
  8
_0-5_受金具
  6
PLINE2
 62
    3
 10
243.04499999999996
 20
160.08049999999992
 11
242.04500000000007
 21
155.08049999999992
  0
LINE
  8
_0-5_受金具
  6
PLINE2
 62
    3
 10
241.04500000000007
 20
160.08049999999992
 11
242.04500000000007
 21
155.08049999999992
  0
LINE
  8
_0-5_受金具
  6
PLINE2
 62
    3
 10
247.04499999999996
 20
160.08049999999992
 11
246.04500000000007
 21
155.08049999999992
  0
LINE
  8
_0-5_受金具
  6
PLINE2
 62
    3
 10
247.04499999999996
 20
160.08049999999992
 11
242.04500000000007
 21
160.08049999999992
  0
ARC
  8
_0-5_受金具
  6
CONTINUOUS
 62
    4
 10
242.04500000000007
 20
162.8742759999999
 40
5.4000000000000004
 50
51.317812999997599
 51
90
  0
ARC
  8
_0-5_受金具
  6
CONTINUOUS
 62
    4
 10
243.54776199999992
 20
164.74556599999983
 40
3
 50
2.458926000002652
 51
51.385361999997833
  0
LINE
  8
_0-5_受金具
  6
CONTINUOUS
 62
    3
 10
254.54500000000007
 20
164.87427600000001
 11
254.54500000000007
 21
163.87427600000001
  0
LINE
  8
_0-4_笠木
  6
CONTINUOUS
 62
    4
 10
288.84500000000003
 20
185.35249999999974
 11
285.72299999999996
 21
182.23049999999989
  0
LINE
  8
_0-3_躯体
  6
CONTINUOUS
 62
    4
 10
311.84499999999991
 20
160.38049999999976
 11
311.84499999999991
 21
210.38049999999998
  0
LINE
  8
_0-5_受金具
  6
CONTINUOUS
 62
    4
 10
297.34500000000003
 20
160.08049999999992
 11
297.34500000000003
 21
188.08049999999992
  0
LINE
  8
_0-5_受金具
  6
CONTINUOUS
 62
    4
 10
294.34499999999991
 20
166.08050000000003
 11
294.34499999999991
 21
192.08049999999992
  0
ARC
  8
_0-5_受金具
  6
CONTINUOUS
 62
    4
 10
292.34499999999991
 20
166.08050000000003
 40
2
 50
270
 51
0
  0
LINE
  8
_0-4_笠木
  6
CONTINUOUS
 62
    4
 10
301.84499999999991
 20
184.38049999999987
 11
299.84499999999991
 21
184.38049999999987
  0
LINE
  8
_0-5_受金具
  6
CONTINUOUS
 62
    4
 10
286.84499999999991
 20
194.38049999999998
 11
305.44499999999994
 21
194.38049999999998
  0
LINE
  8
_0-4_笠木
  6
CONTINUOUS
 62
    4
 10
286.84499999999991
 20
194.38049999999998
 11
305.44499999999994
 21
194.38049999999998
  0
LINE
  8
_0-3_躯体
  6
CONTINUOUS
 62
    4
 10
311.84499999999991
 20
210.38049999999998
 11
286.84499999999991
 21
210.38049999999998
  0
LINE
  8
_0-5_受金具
  6
CONTINUOUS
 62
    3
 10
311.84499999999991
 20
210.38049999999998
 11
299.80100000000004
 21
194.38049999999998
  0
LINE
  8
_0-5_受金具
  6
CONTINUOUS
 62
    3
 10
299.80100000000004
 20
195.30445299999985
 11
288.37800000000004
 21
206.72850000000005
  0
LINE
  8
_0-5_受金具
  6
CONTINUOUS
 62
    3
 10
299.80100000000004
 20
198.13350000000003
 11
287.92599999999993
 21
210.00849999999991
  0
LINE
  8
_0-5_受金具
  6
CONTINUOUS
 62
    3
 10
299.80100000000004
 20
200.96144900000002
 11
290.755
 21
210.00849999999991
  0
LINE
  8
_0-5_受金具
  6
CONTINUOUS
 62
    3
 10
299.80100000000004
 20
203.79049999999984
 11
293.58300000000008
 21
210.00849999999991
  0
LINE
  8
_0-5_受金具
  6
CONTINUOUS
 62
    3
 10
288.96800000000007
 20
203.8744999999999
 11
295.35399999999993
 21
210.26049999999987
  0
LINE
  8
_0-5_受金具
  6
CONTINUOUS
 62
    3
 10
288.99399999999991
 20
201.07150000000001
 11
298.23099999999988
 21
210.30849999999987
  0
LINE
  8
_0-5_受金具
  6
CONTINUOUS
 62
    3
 10
288.09800000000007
 20
197.34749999999985
 11
299.80100000000004
 21
209.05049999999983
  0
LINE
  8
_0-5_受金具
  6
CONTINUOUS
 62
    3
 10
287.95899999999995
 20
194.38049999999998
 11
299.80100000000004
 21
206.22249999999985
  0
ARC
  8
_0-5_受金具
  6
CONTINUOUS
 62
    4
 10
272.36700000000008
 20
202.38049999999998
 40
16.541
 50
331.07659900000368
 51
28.923392999999823
  0
LINE
  8
_0-5_受金具
  6
CONTINUOUS
 62
    4
 10
299.80100000000004
 20
194.38049999999998
 11
299.80100000000004
 21
210.38049999999998
  0
LINE
  8
_0-4_笠木
  6
CONTINUOUS
 62
    4
 10
285.07699999999988
 20
184.41249999999991
 11
286.84499999999991
 21
186.18049999999982
  0
LINE
  8
_0-4_笠木
  6
CONTINUOUS
 62
    4
 10
286.84499999999991
 20
186.18049999999982
 11
284.84500000000003
 21
184.18049999999994
  0
LINE
  8
_0-4_笠木
  6
CONTINUOUS
 62
    4
 10
286.84499999999991
 20
186.18049999999982
 11
286.84499999999991
 21
194.38049999999998
  0
LINE
  8
_0-4_笠木
  6
CONTINUOUS
 62
    4
 10
299.84499999999991
 20
192.38049999999987
 11
288.84500000000003
 21
192.38049999999987
  0
LINE
  8
_0-4_笠木
  6
CONTINUOUS
 62
    4
 10
288.84500000000003
 20
192.38049999999987
 11
288.84500000000003
 21
185.35249999999974
  0
LINE
  8
_0-4_笠木
  6
CONTINUOUS
 62
    4
 10
299.84499999999991
 20
192.38049999999987
 11
299.84499999999991
 21
187.38049999999998
  0
LINE
  8
_0-5_受金具
  6
CONTINUOUS
 62
    4
 10
297.93250099999989
 20
191.14049799999987
 11
299.65374999999995
 21
188.38649999999984
  0
LINE
  8
_0-4_笠木
  6
CONTINUOUS
 62
    4
 10
297.84499999999991
 20
186.38049999999998
 11
299.84499999999991
 21
184.38049999999987
  0
LINE
  8
_0-4_笠木
  6
CONTINUOUS
 62
    4
 10
297.84499999999991
 20
187.38049999999998
 11
297.84499999999991
 21
186.38049999999998
  0
LINE
  8
_0-4_笠木
  6
CONTINUOUS
 62
    4
 10
299.84499999999991
 20
187.38049999999998
 11
297.84499999999991
 21
187.38049999999998
  0
LINE
  8
_0-4_笠木
  6
CONTINUOUS
 62
    4
 10
299.64499999999998
 20
184.58049999999992
 11
297.87700000000007
 21
186.34849999999994
  0
LINE
  8
_0-4_笠木
  6
CONTINUOUS
 62
    4
 10
299.84499999999991
 20
188.88049999999987
 11
299.84499999999991
 21
187.38049999999998
  0
ARC
  8
_0-5_受金具
  6
CONTINUOUS
 62
    4
 10
299.48414999999989
 20
188.28049999999973
 40
0.2
 50
270
 51
32.005382999999902
  0
LINE
  8
_0-5_受金具
  6
CONTINUOUS
 62
    4
 10
297.34500000000003
 20
188.08049999999992
 11
299.48414999999989
 21
188.08049999999992
  0
ARC
  8
_0-5_受金具
  6
CONTINUOUS
 62
    4
 10
296.23650400000008
 20
190.08049999999992
 40
2
 50
32.005382999999902
 51
90
  0
LINE
  8
_0-5_受金具
  6
CONTINUOUS
 62
    4
 10
296.23650400000008
 20
192.08049999999992
 11
294.34499999999991
 21
192.08049999999992
  0
LINE
  8
_0-5_受金具
  6
CONTINUOUS
 62
    3
 10
295.06900000000007
 20
194.38049999999998
 11
288.88799999999992
 21
200.56150000000002
  0
LINE
  8
_0-5_受金具
  6
CONTINUOUS
 62
    3
 10
297.89699999999993
 20
194.38049999999998
 11
289.03999999999996
 21
203.23749999999984
  0
LINE
  8
_0-5_受金具
  6
CONTINUOUS
 62
    3
 10
290.7879999999999
 20
194.38049999999998
 11
299.80100000000004
 21
203.39350000000002
  0
LINE
  8
_0-5_受金具
  6
CONTINUOUS
 62
    3
 10
292.2399999999999
 20
194.38049999999998
 11
288.5089999999999
 21
198.11149999999998
  0
LINE
  8
_0-5_受金具
  6
CONTINUOUS
 62
    3
 10
289.41199999999992
 20
194.38049999999998
 11
287.71699999999998
 21
196.07549999999992
  0
LINE
  8
_0-5_受金具
  6
CONTINUOUS
 62
    3
 10
293.61699499999997
 20
194.38049999999998
 11
299.80100000000004
 21
200.56554699999992
  0
LINE
  8
_0-5_受金具
  6
CONTINUOUS
 62
    3
 10
296.44499999999994
 20
194.38049999999998
 11
299.80100000000004
 21
197.73649999999998
  0
LINE
  8
_0-5_受金具
  6
CONTINUOUS
 62
    3
 10
299.34699999999987
 20
194.45449999999983
 11
299.48400000000004
 21
194.5915
  0
LINE
  8
_0-5_受金具
  6
CONTINUOUS
 62
    3
 10
288.56500000000005
 20
206.29949999999997
 11
292.476
 21
210.21050000000002
  0
LINE
  8
_0-5_受金具
  6
CONTINUOUS
 62
    3
 10
287.74200000000008
 20
208.30449999999985
 11
289.59899999999993
 21
210.16149999999993
  0
LINE
  8
_0-5_受金具
  6
CONTINUOUS
 62
    3
 10
299.80100000000004
 20
206.61838099999989
 11
296.41199999999992
 21
210.00849999999991
  0
LINE
  8
_0-5_受金具
  6
CONTINUOUS
 62
    3
 10
299.80100000000004
 20
209.44749999999999
 11
299.2399999999999
 21
210.00849999999991
  0
LINE
  8
_0-4_笠木
  6
CONTINUOUS
 62
    4
 10
305.84499999999991
 20
194.38049999999998
 11
305.84499999999991
 21
192.38049999999987
  0
LINE
  8
_0-4_笠木
  6
CONTINUOUS
 62
    4
 10
301.84499999999991
 20
192.38049999999987
 11
301.84499999999991
 21
184.38049999999987
  0
LINE
  8
_0-4_笠木
  6
CONTINUOUS
 62
    4
 10
301.84499999999991
 20
184.38049999999987
 11
301.8839999999999
 21
184.38049999999987
  0
LINE
  8
_0-4_笠木
  6
CONTINUOUS
 62
    4
 10
303.66199999999992
 20
192.38049999999987
 11
305.84000000000003
 21
192.38049999999987
  0
LINE
  8
_0-4_笠木
  6
CONTINUOUS
 62
    4
 10
305.84499999999991
 20
192.38049999999987
 11
301.84499999999991
 21
192.38049999999987
  0
LINE
  8
_0-5_受金具
  6
CONTINUOUS
 62
    4
 10
305.44499999999994
 20
194.38049999999998
 11
311.84499999999991
 21
194.38049999999998
  0
LINE
  8
_0-5_受金具
  6
CONTINUOUS
 62
    4
 10
305.84499999999991
 20
194.38049999999998
 11
303.84499999999991
 21
194.38049999999998
  0
LINE
  8
_0-4_笠木
  6
CONTINUOUS
 62
    4
 10
305.44499999999994
 20
194.38049999999998
 11
305.84499999999991
 21
194.38049999999998
  0
INSERT
  2
-001-_D44
  8
_0-2_寸法
 10
842.15602844161333
 20
1039.9537173257402
 41
0.5
 42
0.5
 50
0
  0
INSERT
  2
-002-_D45
  8
_0-2_寸法
 10
842.15602844161333
 20
1039.9537173257402
 41
0.5
 42
0.5
 50
0
  0
INSERT
  2
-003-_D46
  8
_0-2_寸法
 10
842.15602844161333
 20
1039.9537173257402
 41
0.5
 42
0.5
 50
0
  0
INSERT
  2
-004-_D47
  8
_0-2_寸法
 10
842.15602844161333
 20
1039.9537173257402
 41
0.5
 42
0.5
 50
0
  0
INSERT
  2
-005-_D48
  8
_0-2_寸法
 10
842.15602844161333
 20
1039.9537173257402
 41
0.5
 42
0.5
 50
0
  0
INSERT
  2
-006-_D49
  8
_0-2_寸法
 10
842.15602844161333
 20
1039.9537173257402
 41
0.5
 42
0.5
 50
0
  0
INSERT
  2
-007-_D50
  8
_0-2_寸法
 10
842.15602844161333
 20
1039.9537173257402
 41
0.5
 42
0.5
 50
0
  0
INSERT
  2
-008-_D51
  8
_0-2_寸法
 10
842.15602844161333
 20
1039.9537173257402
 41
0.5
 42
0.5
 50
0
  0
INSERT
  2
-009-_D52
  8
_0-2_寸法
 10
842.15602844161333
 20
1039.9537173257402
 41
0.5
 42
0.5
 50
0
  0
INSERT
  2
-010-_D53
  8
_0-2_寸法
 10
842.15602844161333
 20
1039.9537173257402
 41
0.5
 42
0.5
 50
0
  0
INSERT
  2
-011-_D54
  8
_0-2_寸法
 10
842.15602844161333
 20
1039.9537173257402
 41
0.5
 42
0.5
 50
0
  0
INSERT
  2
-012-_D55
  8
_0-2_寸法
 10
842.15602844161333
 20
1039.9537173257402
 41
0.5
 42
0.5
 50
0
  0
INSERT
  2
-013-_D56
  8
_0-2_寸法
 10
842.15602844161333
 20
1039.9537173257402
 41
0.5
 42
0.5
 50
0
  0
INSERT
  2
-014-_D57
  8
_0-2_寸法
 10
842.15602844161333
 20
1039.9537173257402
 41
0.5
 42
0.5
 50
0
  0
INSERT
  2
-015-_D58
  8
_0-2_寸法
 10
842.15602844161333
 20
1039.9537173257402
 41
0.5
 42
0.5
 50
0
  0
LINE
  8
_0-5_受金具
  6
CONTINUOUS
 62
    4
 10
286.84499999999991
 20
210.38001229763415
 11
311.84463288204415
 21
210.38001229763415
  0
LINE
  8
_0-5_受金具
  6
CONTINUOUS
 62
    4
 10
311.84499999999991
 20
210.38049999999998
 11
311.84499999999991
 21
194.38049999999998
  0
ENDSEC
  0
EOF
