  0
SECTION
  2
HEADER
  9
$ACADVER
  1
AC1009
  9
$INSBASE
 10
0
 20
0
 30
0
  9
$EXTMIN
 10
0
 20
0
  9
$EXTMAX
 10
420
 20
297
  9
$LIMMIN
 10
0
 20
0
  9
$LIMMAX
 10
420
 20
297
  9
$LTSCALE
 40
1
  0
ENDSEC
  0
SECTION
  2
TABLES
  0
TABLE
  2
LTYPE
 70
     9
  0
LTYPE
  2
CONTINUOUS
 70
    64
  3
実線
 72
    65
 73
     0
 40
0.0
  0
LTYPE
  2
DASHED1
 70
    64
  3
--  --  --  --  --  --  --  --  
 72
    65
 73
     2
 40
2.5
 49
1.25
 49
-1.25
  0
LTYPE
  2
DASHED2
 70
    64
  3
----    ----    ----    ----    
 72
    65
 73
     2
 40
5.0
 49
2.5
 49
-2.5
  0
LTYPE
  2
DASHED3
 70
    64
  3
------  ------  ------  ------  
 72
    65
 73
     2
 40
5.0
 49
3.75
 49
-1.25
  0
LTYPE
  2
CENTER1
 70
    64
  3
----- - ----- - ----- - ----- - 
 72
    65
 73
     4
 40
10.0
 49
6.25
 49
-1.25
 49
1.25
 49
-1.25
  0
LTYPE
  2
CENTER2
 70
    64
  3
----------  --  ----------  --  
 72
    65
 73
     4
 40
20.0
 49
12.5
 49
-2.5
 49
2.5
 49
-2.5
  0
LTYPE
  2
PHANTOM1
 70
    64
  3
--- - - --- - - --- - - --- - - 
 72
    65
 73
     6
 40
10.0
 49
3.25
 49
-1.25
 49
1.25
 49
-1.25
 49
1.25
 49
-1.25
  0
LTYPE
  2
PHANTOM2
 70
    64
  3
--------  -  -  --------  -  -  
 72
    65
 73
     6
 40
20.0
 49
10.0
 49
-2.5
 49
1.25
 49
-2.5
 49
1.25
 49
-2.5
  0
LTYPE
  2
DOT
 70
    64
  3
-   -   -   -   -   -   -   -   
 72
    65
 73
     2
 40
2.5
 49
0.625
 49
-1.875
  0
LTYPE
  2
DUMMY
 70
    64
  3
ダミー
 72
    65
 73
     0
 40
0.0
  0
LTYPE
  2
RAND1
 70
    64
  3
ランダム線1
 72
    65
 73
     4
 40
10.0
 49
1.0
 49
-2.0
 49
3.0
 49
-4.0
  0
LTYPE
  2
RAND2
 70
    64
  3
ランダム線2
 72
    65
 73
     4
 40
14.0
 49
2.0
 49
-3.0
 49
4.0
 49
-5.0
  0
LTYPE
  2
RAND3
 70
    64
  3
ランダム線3
 72
    65
 73
     4
 40
18.0
 49
3.0
 49
-4.0
 49
5.0
 49
-6.0
  0
LTYPE
  2
RAND4
 70
    64
  3
ランダム線4
 72
    65
 73
     4
 40
22.0
 49
4.0
 49
-5.0
 49
6.0
 49
-7.0
  0
LTYPE
  2
RAND5
 70
    64
  3
ランダム線5
 72
    65
 73
     4
 40
26.0
 49
5.0
 49
-6.0
 49
7.0
 49
-8.0
  0
LTYPE
  2
LONG1
 70
    64
  3
----------  --  ----------  --  
 72
    65
 73
     4
 40
40.0
 49
32.5
 49
-2.5
 49
2.5
 49
-2.5
  0
LTYPE
  2
LONG2
 70
    64
  3
--------  -  -  --------  -  -  
 72
    65
 73
     6
 40
40.0
 49
30.0
 49
-2.5
 49
1.25
 49
-2.5
 49
1.25
 49
-2.5
  0
LTYPE
  2
LONG3
 70
    64
  3
+++++++++++++++..+++++++++++++++
 72
    65
 73
     2
 40
40.0
 49
37.5
 49
-2.5
  0
LTYPE
  2
LONG4
 70
    64
  3
+++++++++++++++..+++++++++++++++
 72
    65
 73
     2
 40
80.0
 49
75.0
 49
-5.0
  0
LTYPE
  2
LONG5
 70
    64
  3
----------  --  ----------  --  
 72
    65
 73
     4
 40
60.0
 49
37.5
 49
-7.5
 49
7.5
 49
-7.5
  0
LTYPE
  2
dashed
 70
   64
  3
-------   -------------   ------
 72
   65
 73
    2
 40
7.5
 49
6
 49
-1.5
  0
LTYPE
  2
dashed_spaced
 70
   64
  3
----        --------        ----
 72
   65
 73
    2
 40
12
 49
6
 49
-6
  0
LTYPE
  2
long_dashed_dotted
 70
   64
  3
------------- --- --------------
 72
   65
 73
    4
 40
15.25
 49
12
 49
-1.5
 49
0.25
 49
-1.5
  0
LTYPE
  2
long_dashed_double-dotted
 70
   64
  3
----------- --- --- ------------
 72
   65
 73
    6
 40
17
 49
12
 49
-1.5
 49
0.25
 49
-1.5
 49
0.25
 49
-1.5
  0
LTYPE
  2
long_dashed_triplicate-dotted
 70
   64
  3
--------- --- --- --- ----------
 72
   65
 73
    8
 40
18.75
 49
12
 49
-1.5
 49
0.25
 49
-1.5
 49
0.25
 49
-1.5
 49
0.25
 49
-1.5
  0
LTYPE
  2
dotted
 70
   64
  3
   -       -       -       -    
 72
   65
 73
    2
 40
1.75
 49
0.25
 49
-1.5
  0
LTYPE
  2
chain
 70
   64
  3
-------------- -- --------------
 72
   65
 73
    4
 40
18.5
 49
12
 49
-1.5
 49
3.5
 49
-1.5
  0
LTYPE
  2
chain_double_dash
 70
   64
  3
------------ -- -- -------------
 72
   65
 73
    6
 40
23.5
 49
12
 49
-1.5
 49
3.5
 49
-1.5
 49
3.5
 49
-1.5
  0
LTYPE
  2
dashed_dotted
 70
   64
  3
-----------     -     ----------
 72
   65
 73
    4
 40
9.25
 49
6
 49
-1.5
 49
0.25
 49
-1.5
  0
LTYPE
  2
double-dashed_dotted
 70
   64
  3
------   -----------   -   -----
 72
   65
 73
    6
 40
16.75
 49
6
 49
-1.5
 49
6
 49
-1.5
 49
0.25
 49
-1.5
  0
LTYPE
  2
dashed_double-dotted
 70
   64
  3
---------    -    -    ---------
 72
   65
 73
    6
 40
11
 49
6
 49
-1.5
 49
0.25
 49
-1.5
 49
0.25
 49
-1.5
  0
LTYPE
  2
double-dashed_double-dotted
 70
   64
  3
-----   ---------   -   -   ----
 72
   65
 73
    8
 40
18.5
 49
6
 49
-1.5
 49
6
 49
-1.5
 49
0.25
 49
-1.5
 49
0.25
 49
-1.5
  0
LTYPE
  2
dashed_triplicate-dotted
 70
   64
  3
-------    -    -    -    ------
 72
   65
 73
    8
 40
12.75
 49
6
 49
-1.5
 49
0.25
 49
-1.5
 49
0.25
 49
-1.5
 49
0.25
 49
-1.5
  0
LTYPE
  2
double-dashed_triplicate-dotted
 70
   64
  3
-----  ---------  -  -  -  -----
 72
   65
 73
   10
 40
20.25
 49
6
 49
-1.5
 49
6
 49
-1.5
 49
0.25
 49
-1.5
 49
0.25
 49
-1.5
 49
0.25
 49
-1.5
  0
LTYPE
  2
undefined
 70
   64
  3
--------------------------------
 72
   65
 73
    0
 40
0
  0
LTYPE
  2
PLINE2
 70
   64
  3
------     -----------     -----
 72
   65
 73
    2
 40
3
 49
2.1000000000000001
 49
-0.9
  0
LTYPE
  2
PLINE3
 70
   64
  3
------------   ---   -----------
 72
   65
 73
    4
 40
10
 49
7
 49
-1
 49
1
 49
-1
  0
LTYPE
  2
PLINE4
 70
   64
  3
---------   ---   ---   --------
 72
   65
 73
    6
 40
10
 49
5
 49
-1
 49
1
 49
-1
 49
1
 49
-1
  0
LTYPE
  2
PLINE5
 70
   64
  3
------     -----------     -----
 72
   65
 73
    2
 40
5
 49
3.5
 49
-1.5
  0
LTYPE
  2
PLINE6
 70
   64
  3
------------   ---   -----------
 72
   65
 73
    4
 40
15
 49
10.5
 49
-1.5
 49
1.5
 49
-1.5
  0
LTYPE
  2
PLINE7
 70
   64
  3
---------   ---   ---   --------
 72
   65
 73
    6
 40
15
 49
7.5
 49
-1.5
 49
1.5
 49
-1.5
 49
1.5
 49
-1.5
  0
LTYPE
  2
PLINE8
 70
   64
  3
------     -----------     -----
 72
   65
 73
    2
 40
7
 49
4.9000000000000004
 49
-2.1000000000000001
  0
LTYPE
  2
PLINE9
 70
   64
  3
------------   ---   -----------
 72
   65
 73
    4
 40
20
 49
14
 49
-2
 49
2
 49
-2
  0
LTYPE
  2
PLINE10
 70
   64
  3
---------   ---   ---   --------
 72
   65
 73
    6
 40
20
 49
10
 49
-2
 49
2
 49
-2
 49
2
 49
-2
  0
LTYPE
  2
PLINE11
 70
   64
  3
------     -----------     -----
 72
   65
 73
    2
 40
9
 49
6.2999999999999989
 49
-2.7000000000000002
  0
LTYPE
  2
PLINE12
 70
   64
  3
------------   ---   -----------
 72
   65
 73
    4
 40
25
 49
17.5
 49
-2.5
 49
2.5
 49
-2.5
  0
LTYPE
  2
PLINE13
 70
   64
  3
---------   ---   ---   --------
 72
   65
 73
    6
 40
25
 49
12.5
 49
-2.5
 49
2.5
 49
-2.5
 49
2.5
 49
-2.5
  0
LTYPE
  2
PLINE14
 70
   64
  3
------     -----------     -----
 72
   65
 73
    2
 40
11
 49
7.7000000000000002
 49
-3.2999999999999989
  0
LTYPE
  2
PLINE15
 70
   64
  3
------------   ---   -----------
 72
   65
 73
    4
 40
30
 49
21
 49
-3
 49
3
 49
-3
  0
LTYPE
  2
PLINE16
 70
   64
  3
---------   ---   ---   --------
 72
   65
 73
    6
 40
30
 49
15
 49
-3
 49
3
 49
-3
 49
3
 49
-3
  0
ENDTAB
  0
TABLE
  2
STYLE
  5
3
100
AcDbSymbolTable
 70
     1
  0
STYLE
  5
10
100
AcDbSymbolTableRecord
100
AcDbTextStyleTableRecord
  2
STANDARD
 70
     0
 40
0.0
 41
1.0
 50
0.0
 71
     0
 42
0.2
  3
txt
  4
bigfont.shx
  0
STYLE
  5
26
100
AcDbSymbolTableRecord
100
AcDbTextStyleTableRecord
  2
TATEGAKI
 70
    68
 40
0.0
 41
1.0
 50
0.0
 71
     0
 42
1.0
  3
txt
  4
bigfont.shx
  0
ENDTAB
  0
TABLE
  2
LAYER
 70
    5
  0
LAYER
  2
_0-2_寸法
 70
   64
 62
    7
  6
CONTINUOUS
  0
LAYER
  2
_0-3_躯体
 70
   64
 62
    7
  6
CONTINUOUS
  0
LAYER
  2
_0-4_笠木
 70
   64
 62
    7
  6
CONTINUOUS
  0
LAYER
  2
_0-5_受金具
 70
   64
 62
    7
  6
CONTINUOUS
  0
LAYER
  2
ADD_LINE
 70
   64
 62
    7
  6
CONTINUOUS
  0
ENDTAB
  0
ENDSEC
  0
SECTION
  2
BLOCKS
  0
BLOCK
  2
-000-_Dot
 70
   64
 10
0
 20
0
 30
0
  0
CIRCLE
  8
_0-0_0
  6
CONTINUOUS
 62
    7
 10
0
 20
0
 40
0.5
  0
LINE
  8
_0-0_0
  6
CONTINUOUS
 62
    7
 10
0.5
 20
0
 11
-0.5
 21
0
  0
LINE
  8
_0-0_0
  6
CONTINUOUS
 62
    7
 10
-1
 20
0
 11
-2
 21
0
  0
ENDBLK
  0
BLOCK
  2
-001-_D31
 70
   64
 10
0
 20
0
 30
0
  0
LINE
  8
_0-2_寸法
  6
CONTINUOUS
 62
    4
 10
-1223.1564763809217
 20
-1478.8347077756212
 11
-1200.6355934901035
 21
-1478.8347077756212
  0
LINE
  8
_0-2_寸法
  6
CONTINUOUS
 62
    4
 10
-1223.1564763809217
 20
-1510.8347077756214
 11
-1200.6355934901035
 21
-1510.8347077756214
  0
LINE
  8
_0-2_寸法
  6
CONTINUOUS
 62
    4
 10
-1200.6355934901035
 20
-1480.8347077756212
 11
-1200.6355934901035
 21
-1508.8347077756214
  0
INSERT
  2
-000-_Dot
  8
_0-2_寸法
 10
-1200.6355934901035
 20
-1478.8347077756212
 41
1
 42
1
 50
90
  0
INSERT
  2
-000-_Dot
  8
_0-2_寸法
 10
-1200.6355934901035
 20
-1510.8347077756214
 41
1
 42
1
 50
270
  0
TEXT
  8
_0-2_寸法
 62
    7
 10
-1202.6355934901032
 20
-1500.2597077756213
 40
10
 41
1
 50
90
  1
16
  0
POINT
  8
_0-1_Defpoints
 62
    7
 10
-1223.1564763809217
 20
-1478.8347077756212
  0
POINT
  8
_0-1_Defpoints
 62
    7
 10
-1223.1564763809217
 20
-1510.8347077756214
  0
POINT
  8
_0-1_Defpoints
 62
    7
 10
-1200.6355934901035
 20
-1510.8347077756214
  0
ENDBLK
  0
BLOCK
  2
-002-_D32
 70
   64
 10
0
 20
0
 30
0
  0
LINE
  8
_0-2_寸法
  6
CONTINUOUS
 62
    4
 10
-1223.1564763809217
 20
-1510.8347077756214
 11
-1200.6355934901035
 21
-1510.8347077756214
  0
LINE
  8
_0-2_寸法
  6
CONTINUOUS
 62
    4
 10
-1223.1564763809217
 20
-1579.4347077756213
 11
-1200.6355934901037
 21
-1579.4347077756213
  0
LINE
  8
_0-2_寸法
  6
CONTINUOUS
 62
    4
 10
-1200.6355934901035
 20
-1512.8347077756212
 11
-1200.6355934901037
 21
-1577.4347077756215
  0
INSERT
  2
-000-_Dot
  8
_0-2_寸法
 10
-1200.6355934901035
 20
-1510.8347077756214
 41
1
 42
1
 50
90
  0
INSERT
  2
-000-_Dot
  8
_0-2_寸法
 10
-1200.6355934901037
 20
-1579.4347077756213
 41
1
 42
1
 50
270
  0
TEXT
  8
_0-2_寸法
 62
    7
 10
-1202.6355934901032
 20
-1550.5597077756215
 40
10
 41
1
 50
90
  1
34
  0
POINT
  8
_0-1_Defpoints
 62
    7
 10
-1223.1564763809217
 20
-1510.8347077756214
  0
POINT
  8
_0-1_Defpoints
 62
    7
 10
-1223.1564763809217
 20
-1579.4347077756213
  0
POINT
  8
_0-1_Defpoints
 62
    7
 10
-1200.6355934901037
 20
-1579.4347077756213
  0
ENDBLK
  0
BLOCK
  2
-003-_D33
 70
   64
 10
0
 20
0
 30
0
  0
LINE
  8
_0-2_寸法
  6
CONTINUOUS
 62
    4
 10
-1223.1564763809217
 20
-1579.4347077756213
 11
-1163.9755934901038
 21
-1579.4347077756213
  0
LINE
  8
_0-2_寸法
  6
CONTINUOUS
 62
    4
 10
-1223.1564763809217
 20
-1478.8347077756212
 11
-1163.9755934901034
 21
-1478.8347077756212
  0
LINE
  8
_0-2_寸法
  6
CONTINUOUS
 62
    4
 10
-1163.9755934901038
 20
-1577.4347077756215
 11
-1163.9755934901034
 21
-1480.8347077756212
  0
INSERT
  2
-000-_Dot
  8
_0-2_寸法
 10
-1163.9755934901038
 20
-1579.4347077756213
 41
1
 42
1
 50
270
  0
INSERT
  2
-000-_Dot
  8
_0-2_寸法
 10
-1163.9755934901034
 20
-1478.8347077756212
 41
1
 42
1
 50
90
  0
TEXT
  8
_0-2_寸法
 62
    7
 10
-1165.9755934901034
 20
-1534.5597077756215
 40
10
 41
1
 50
90
  1
50
  0
POINT
  8
_0-1_Defpoints
 62
    7
 10
-1223.1564763809217
 20
-1579.4347077756213
  0
POINT
  8
_0-1_Defpoints
 62
    7
 10
-1223.1564763809217
 20
-1478.8347077756212
  0
POINT
  8
_0-1_Defpoints
 62
    7
 10
-1163.9755934901034
 20
-1478.8347077756212
  0
ENDBLK
  0
BLOCK
  2
-004-_D34
 70
   64
 10
0
 20
0
 30
0
  0
LINE
  8
_0-2_寸法
  6
CONTINUOUS
 62
    4
 10
-1238.0755934901033
 20
-1475.8515171356303
 11
-1238.0755934901033
 21
-1416.8767077756213
  0
LINE
  8
_0-2_寸法
  6
CONTINUOUS
 62
    4
 10
-1250.8755934901035
 20
-1475.8515171356303
 11
-1250.8755934901035
 21
-1416.8767077756213
  0
LINE
  8
_0-2_寸法
  6
CONTINUOUS
 62
    4
 10
-1236.0755934901033
 20
-1416.8767077756213
 11
-1234.0755934901035
 21
-1416.8767077756213
  0
LINE
  8
_0-2_寸法
  6
CONTINUOUS
 62
    4
 10
-1252.8755934901035
 20
-1416.8767077756213
 11
-1254.8755934901035
 21
-1416.8767077756213
  0
INSERT
  2
-000-_Dot
  8
_0-2_寸法
 10
-1238.0755934901033
 20
-1416.8767077756213
 41
1
 42
1
 50
180
  0
INSERT
  2
-000-_Dot
  8
_0-2_寸法
 10
-1250.8755934901035
 20
-1416.8767077756213
 41
1
 42
1
 50
0
  0
TEXT
  8
_0-2_寸法
 62
    7
 10
-1252.8255934901035
 20
-1414.8767077756213
 40
10
 41
1
 50
0
  1
6.4
  0
POINT
  8
_0-1_Defpoints
 62
    7
 10
-1238.0755934901033
 20
-1475.8515171356303
  0
POINT
  8
_0-1_Defpoints
 62
    7
 10
-1250.8755934901035
 20
-1475.8515171356303
  0
POINT
  8
_0-1_Defpoints
 62
    7
 10
-1250.8755934901035
 20
-1416.8767077756213
  0
ENDBLK
  0
BLOCK
  2
-005-_D35
 70
   64
 10
0
 20
0
 30
0
  0
LINE
  8
_0-2_寸法
  6
CONTINUOUS
 62
    4
 10
-1250.8755934901035
 20
-1475.8515171356303
 11
-1250.8755934901035
 21
-1416.8767077756213
  0
LINE
  8
_0-2_寸法
  6
CONTINUOUS
 62
    4
 10
-1288.0755934901033
 20
-1475.8515171356303
 11
-1288.0755934901033
 21
-1416.8767077756213
  0
LINE
  8
_0-2_寸法
  6
CONTINUOUS
 62
    4
 10
-1252.8755934901035
 20
-1416.8767077756213
 11
-1286.0755934901033
 21
-1416.8767077756213
  0
INSERT
  2
-000-_Dot
  8
_0-2_寸法
 10
-1250.8755934901035
 20
-1416.8767077756213
 41
1
 42
1
 50
0
  0
INSERT
  2
-000-_Dot
  8
_0-2_寸法
 10
-1288.0755934901033
 20
-1416.8767077756213
 41
1
 42
1
 50
180
  0
TEXT
  8
_0-2_寸法
 62
    7
 10
-1280.7505934901037
 20
-1414.8767077756213
 40
10
 41
1
 50
0
  1
18.6
  0
POINT
  8
_0-1_Defpoints
 62
    7
 10
-1250.8755934901035
 20
-1475.8515171356303
  0
POINT
  8
_0-1_Defpoints
 62
    7
 10
-1288.0755934901033
 20
-1475.8515171356303
  0
POINT
  8
_0-1_Defpoints
 62
    7
 10
-1288.0755934901033
 20
-1416.8767077756213
  0
ENDBLK
  0
BLOCK
  2
-006-_D36
 70
   64
 10
0
 20
0
 30
0
  0
LINE
  8
_0-2_寸法
  6
CONTINUOUS
 62
    4
 10
-1288.0755934901033
 20
-1475.8515171356303
 11
-1288.0755934901033
 21
-1416.8767077756213
  0
LINE
  8
_0-2_寸法
  6
CONTINUOUS
 62
    4
 10
-1558.1035934901035
 20
-1475.8515171356303
 11
-1558.1035934901035
 21
-1416.8767077756213
  0
LINE
  8
_0-2_寸法
  6
CONTINUOUS
 62
    4
 10
-1290.0755934901033
 20
-1416.8767077756213
 11
-1556.1035934901033
 21
-1416.8767077756213
  0
INSERT
  2
-000-_Dot
  8
_0-2_寸法
 10
-1288.0755934901033
 20
-1416.8767077756213
 41
1
 42
1
 50
0
  0
INSERT
  2
-000-_Dot
  8
_0-2_寸法
 10
-1558.1035934901035
 20
-1416.8767077756213
 41
1
 42
1
 50
180
  0
TEXT
  8
_0-2_寸法
 62
    7
 10
-1431.4395934901036
 20
-1414.8767077756213
 40
10
 41
1
 50
0
  1
135
  0
POINT
  8
_0-1_Defpoints
 62
    7
 10
-1288.0755934901033
 20
-1475.8515171356303
  0
POINT
  8
_0-1_Defpoints
 62
    7
 10
-1558.1035934901035
 20
-1475.8515171356303
  0
POINT
  8
_0-1_Defpoints
 62
    7
 10
-1558.1035934901035
 20
-1416.8767077756213
  0
ENDBLK
  0
BLOCK
  2
-007-_D37
 70
   64
 10
0
 20
0
 30
0
  0
LINE
  8
_0-2_寸法
  6
CONTINUOUS
 62
    4
 10
-1238.0755934901033
 20
-1475.8515171356303
 11
-1238.0755934901033
 21
-1459.3567077756213
  0
LINE
  8
_0-2_寸法
  6
CONTINUOUS
 62
    4
 10
-1288.0755934901033
 20
-1475.8515171356303
 11
-1288.0755934901033
 21
-1459.3567077756213
  0
LINE
  8
_0-2_寸法
  6
CONTINUOUS
 62
    4
 10
-1240.0755934901033
 20
-1459.3567077756213
 11
-1286.0755934901033
 21
-1459.3567077756213
  0
INSERT
  2
-000-_Dot
  8
_0-2_寸法
 10
-1238.0755934901033
 20
-1459.3567077756213
 41
1
 42
1
 50
0
  0
INSERT
  2
-000-_Dot
  8
_0-2_寸法
 10
-1288.0755934901033
 20
-1459.3567077756213
 41
1
 42
1
 50
180
  0
TEXT
  8
_0-2_寸法
 62
    7
 10
-1268.5005934901033
 20
-1457.3567077756211
 40
10
 41
1
 50
0
  1
25
  0
POINT
  8
_0-1_Defpoints
 62
    7
 10
-1238.0755934901033
 20
-1475.8515171356303
  0
POINT
  8
_0-1_Defpoints
 62
    7
 10
-1288.0755934901033
 20
-1475.8515171356303
  0
POINT
  8
_0-1_Defpoints
 62
    7
 10
-1288.0755934901033
 20
-1459.3567077756213
  0
ENDBLK
  0
BLOCK
  2
-008-_D38
 70
   64
 10
0
 20
0
 30
0
  0
LINE
  8
_0-2_寸法
  6
CONTINUOUS
 62
    4
 10
-1288.0755934901033
 20
-1475.8515171356303
 11
-1288.0755934901033
 21
-1459.3567077756213
  0
LINE
  8
_0-2_寸法
  6
CONTINUOUS
 62
    4
 10
-1408.0755934901033
 20
-1475.8515171356303
 11
-1408.0755934901033
 21
-1459.3567077756213
  0
LINE
  8
_0-2_寸法
  6
CONTINUOUS
 62
    4
 10
-1290.0755934901033
 20
-1459.3567077756213
 11
-1406.0755934901033
 21
-1459.3567077756213
  0
INSERT
  2
-000-_Dot
  8
_0-2_寸法
 10
-1288.0755934901033
 20
-1459.3567077756213
 41
1
 42
1
 50
0
  0
INSERT
  2
-000-_Dot
  8
_0-2_寸法
 10
-1408.0755934901033
 20
-1459.3567077756213
 41
1
 42
1
 50
180
  0
TEXT
  8
_0-2_寸法
 62
    7
 10
-1353.5005934901033
 20
-1457.3567077756211
 40
10
 41
1
 50
0
  1
60
  0
POINT
  8
_0-1_Defpoints
 62
    7
 10
-1288.0755934901033
 20
-1475.8515171356303
  0
POINT
  8
_0-1_Defpoints
 62
    7
 10
-1408.0755934901033
 20
-1475.8515171356303
  0
POINT
  8
_0-1_Defpoints
 62
    7
 10
-1408.0755934901033
 20
-1459.3567077756213
  0
ENDBLK
  0
BLOCK
  2
-009-_D39
 70
   64
 10
0
 20
0
 30
0
  0
LINE
  8
_0-2_寸法
  6
CONTINUOUS
 62
    4
 10
-1591.2371419642895
 20
-1510.8347077756214
 11
-1656.6275934901034
 21
-1510.8347077756214
  0
LINE
  8
_0-2_寸法
  6
CONTINUOUS
 62
    4
 10
-1591.2371419642895
 20
-1530.7707077756213
 11
-1656.6275934901034
 21
-1530.7707077756213
  0
LINE
  8
_0-2_寸法
  6
CONTINUOUS
 62
    4
 10
-1656.6275934901034
 20
-1512.8347077756212
 11
-1656.6275934901034
 21
-1528.7707077756213
  0
INSERT
  2
-000-_Dot
  8
_0-2_寸法
 10
-1656.6275934901034
 20
-1510.8347077756214
 41
1
 42
1
 50
90
  0
INSERT
  2
-000-_Dot
  8
_0-2_寸法
 10
-1656.6275934901034
 20
-1530.7707077756213
 41
1
 42
1
 50
270
  0
TEXT
  8
_0-2_寸法
 62
    7
 10
-1658.6275934901032
 20
-1526.2277077756219
 40
10
 41
1
 50
90
  1
10
  0
POINT
  8
_0-1_Defpoints
 62
    7
 10
-1591.2371419642895
 20
-1510.8347077756214
  0
POINT
  8
_0-1_Defpoints
 62
    7
 10
-1591.2371419642895
 20
-1530.7707077756213
  0
POINT
  8
_0-1_Defpoints
 62
    7
 10
-1656.6275934901034
 20
-1530.7707077756213
  0
ENDBLK
  0
BLOCK
  2
-010-_D40
 70
   64
 10
0
 20
0
 30
0
  0
LINE
  8
_0-2_寸法
  6
CONTINUOUS
 62
    4
 10
-1591.2371419642895
 20
-1530.7707077756213
 11
-1656.6275934901034
 21
-1530.7707077756213
  0
LINE
  8
_0-2_寸法
  6
CONTINUOUS
 62
    4
 10
-1591.2371419642895
 20
-1550.7267077756214
 11
-1656.6275934901034
 21
-1550.7267077756214
  0
LINE
  8
_0-2_寸法
  6
CONTINUOUS
 62
    4
 10
-1656.6275934901034
 20
-1532.7707077756213
 11
-1656.6275934901034
 21
-1548.7267077756214
  0
INSERT
  2
-000-_Dot
  8
_0-2_寸法
 10
-1656.6275934901034
 20
-1530.7707077756213
 41
1
 42
1
 50
90
  0
INSERT
  2
-000-_Dot
  8
_0-2_寸法
 10
-1656.6275934901034
 20
-1550.7267077756214
 41
1
 42
1
 50
270
  0
TEXT
  8
_0-2_寸法
 62
    7
 10
-1658.6275934901032
 20
-1546.1737077756218
 40
10
 41
1
 50
90
  1
10
  0
POINT
  8
_0-1_Defpoints
 62
    7
 10
-1591.2371419642895
 20
-1530.7707077756213
  0
POINT
  8
_0-1_Defpoints
 62
    7
 10
-1591.2371419642895
 20
-1550.7267077756214
  0
POINT
  8
_0-1_Defpoints
 62
    7
 10
-1656.6275934901034
 20
-1550.7267077756214
  0
ENDBLK
  0
BLOCK
  2
-011-_D41
 70
   64
 10
0
 20
0
 30
0
  0
LINE
  8
_0-2_寸法
  6
CONTINUOUS
 62
    4
 10
-1591.2371419642895
 20
-1550.7267077756214
 11
-1656.6275934901034
 21
-1550.7267077756214
  0
LINE
  8
_0-2_寸法
  6
CONTINUOUS
 62
    4
 10
-1591.2371419642895
 20
-1670.8627077756214
 11
-1656.6275934901034
 21
-1670.8627077756214
  0
LINE
  8
_0-2_寸法
  6
CONTINUOUS
 62
    4
 10
-1656.6275934901034
 20
-1552.7267077756214
 11
-1656.6275934901034
 21
-1668.8627077756216
  0
INSERT
  2
-000-_Dot
  8
_0-2_寸法
 10
-1656.6275934901034
 20
-1550.7267077756214
 41
1
 42
1
 50
90
  0
INSERT
  2
-000-_Dot
  8
_0-2_寸法
 10
-1656.6275934901034
 20
-1670.8627077756214
 41
1
 42
1
 50
270
  0
TEXT
  8
_0-2_寸法
 62
    7
 10
-1658.6275934901032
 20
-1616.2197077756218
 40
10
 41
1
 50
90
  1
60
  0
POINT
  8
_0-1_Defpoints
 62
    7
 10
-1591.2371419642895
 20
-1550.7267077756214
  0
POINT
  8
_0-1_Defpoints
 62
    7
 10
-1591.2371419642895
 20
-1670.8627077756214
  0
POINT
  8
_0-1_Defpoints
 62
    7
 10
-1656.6275934901034
 20
-1670.8627077756214
  0
ENDBLK
  0
BLOCK
  2
-012-_D42
 70
   64
 10
0
 20
0
 30
0
  0
LINE
  8
_0-2_寸法
  6
CONTINUOUS
 62
    4
 10
-1591.2371419642895
 20
-1670.8627077756214
 11
-1611.2155934901032
 21
-1670.8627077756214
  0
LINE
  8
_0-2_寸法
  6
CONTINUOUS
 62
    4
 10
-1591.2371419642895
 20
-1579.4347077756213
 11
-1611.2155934901032
 21
-1579.4347077756213
  0
LINE
  8
_0-2_寸法
  6
CONTINUOUS
 62
    4
 10
-1611.2155934901032
 20
-1668.8627077756216
 11
-1611.2155934901032
 21
-1581.4347077756213
  0
INSERT
  2
-000-_Dot
  8
_0-2_寸法
 10
-1611.2155934901032
 20
-1670.8627077756214
 41
1
 42
1
 50
270
  0
INSERT
  2
-000-_Dot
  8
_0-2_寸法
 10
-1611.2155934901032
 20
-1579.4347077756213
 41
1
 42
1
 50
90
  0
TEXT
  8
_0-2_寸法
 62
    7
 10
-1613.2155934901027
 20
-1630.5737077756219
 40
10
 41
1
 50
90
  1
46
  0
POINT
  8
_0-1_Defpoints
 62
    7
 10
-1591.2371419642895
 20
-1670.8627077756214
  0
POINT
  8
_0-1_Defpoints
 62
    7
 10
-1591.2371419642895
 20
-1579.4347077756213
  0
POINT
  8
_0-1_Defpoints
 62
    7
 10
-1611.2155934901032
 20
-1579.4347077756213
  0
ENDBLK
  0
BLOCK
  2
-013-_D43
 70
   64
 10
0
 20
0
 30
0
  0
LINE
  8
_0-2_寸法
  6
CONTINUOUS
 62
    4
 10
-1557.1035934901033
 20
-1686.0812282206371
 11
-1557.1035934901033
 21
-1713.6367077756213
  0
LINE
  8
_0-2_寸法
  6
CONTINUOUS
 62
    4
 10
-1526.1155934901035
 20
-1686.0812282206371
 11
-1526.1155934901035
 21
-1713.6367077756213
  0
LINE
  8
_0-2_寸法
  6
CONTINUOUS
 62
    4
 10
-1559.1035934901035
 20
-1713.6367077756213
 11
-1561.1035934901033
 21
-1713.6367077756213
  0
LINE
  8
_0-2_寸法
  6
CONTINUOUS
 62
    4
 10
-1524.1155934901035
 20
-1713.6367077756213
 11
-1522.1155934901035
 21
-1713.6367077756213
  0
INSERT
  2
-000-_Dot
  8
_0-2_寸法
 10
-1557.1035934901033
 20
-1713.6367077756213
 41
1
 42
1
 50
0
  0
INSERT
  2
-000-_Dot
  8
_0-2_寸法
 10
-1526.1155934901035
 20
-1713.6367077756213
 41
1
 42
1
 50
180
  0
TEXT
  8
_0-2_寸法
 62
    7
 10
-1555.8095934901037
 20
-1711.6367077756211
 40
10
 41
1
 50
0
  1
15~20
  0
POINT
  8
_0-1_Defpoints
 62
    7
 10
-1557.1035934901033
 20
-1686.0812282206371
  0
POINT
  8
_0-1_Defpoints
 62
    7
 10
-1526.1155934901035
 20
-1686.0812282206371
  0
POINT
  8
_0-1_Defpoints
 62
    7
 10
-1526.1155934901035
 20
-1713.6367077756213
  0
ENDBLK
  0
ENDSEC
  0
SECTION
  2
ENTITIES
  0
ARC
  8
_0-5_受金具
  6
PLINE2
 62
    3
 10
205.47847400000001
 20
150.70472499999994
 40
0.5
 50
9.4623219999996362
 51
189.4623219999996
  0
LINE
  8
_0-5_受金具
  6
PLINE2
 62
    3
 10
205.875677
 20
145.28012200000012
 11
204.98527699999988
 21
150.62252599999999
  0
LINE
  8
_0-4_笠木
  6
CONTINUOUS
 62
    4
 10
141.36400000000003
 20
172.66450000000009
 11
270.88800000000003
 21
182.67750000000012
  0
LINE
  8
_0-4_笠木
  6
CONTINUOUS
 62
    4
 10
138.70399999999995
 20
174.23450000000003
 11
270.07699999999988
 21
184.41250000000002
  0
LINE
  8
_0-3_躯体
  6
CONTINUOUS
 62
    4
 10
152.82499999999993
 20
160.08050000000003
 11
296.84500000000003
 21
160.08050000000003
  0
LINE
  8
_0-3_躯体
  6
CONTINUOUS
 62
    3
 10
153.82499999999993
 20
159.08050000000003
 11
296.84500000000003
 21
159.08050000000003
  0
LINE
  8
_0-3_躯体
  6
CONTINUOUS
 62
    3
 10
261.60799999999995
 20
58.005500000000097
 11
160.5329999999999
 21
159.08050000000003
  0
LINE
  8
_0-3_躯体
  6
CONTINUOUS
 62
    3
 10
261.65800000000013
 20
53.632499999999823
 11
156.20999999999992
 21
159.08050000000003
  0
LINE
  8
_0-3_躯体
  6
CONTINUOUS
 62
    3
 10
261.55799999999999
 20
56.182500000000005
 11
158.66000000000008
 21
159.08050000000003
  0
LINE
  8
_0-5_受金具
  6
CONTINUOUS
 62
    3
 10
199.34500000000003
 20
165.08049999999992
 11
224.34500000000003
 21
165.08049999999992
  0
LINE
  8
_0-5_受金具
  6
CONTINUOUS
 62
    4
 10
150.72097200000007
 20
160.08050000000003
 11
282.14499999999998
 21
160.08050000000003
  0
LINE
  8
_0-5_受金具
  6
CONTINUOUS
 62
    4
 10
166.34500000000003
 20
164.08050000000003
 11
211.34499999999991
 21
164.08050000000003
  0
LINE
  8
_0-4_笠木
  6
CONTINUOUS
 62
    4
 10
136.8309999999999
 20
114.86649999999997
 11
136.8309999999999
 21
172.36150000000009
  0
LINE
  8
_0-4_笠木
  6
CONTINUOUS
 62
    4
 10
138.63099999999997
 20
124.36650000000009
 11
138.63099999999997
 21
169.67649999999992
  0
LINE
  8
_0-3_躯体
  6
CONTINUOUS
 62
    3
 10
153.82499999999993
 20
47.653500000000122
 11
153.82499999999993
 21
159.08050000000003
  0
LINE
  8
_0-3_躯体
  6
CONTINUOUS
 62
    4
 10
152.82499999999993
 20
47.653500000000122
 11
152.82499999999993
 21
160.08050000000003
  0
LINE
  8
_0-5_受金具
  6
CONTINUOUS
 62
    4
 10
145.04111699999987
 20
160.06108099999994
 11
138.90167799999995
 21
129.38545899999997
  0
LINE
  8
_0-5_受金具
  6
CONTINUOUS
 62
    4
 10
148.25716099999988
 20
158.00433799999996
 11
141.50743399999999
 21
124.56767200000013
  0
LINE
  8
_0-3_躯体
  6
CONTINUOUS
 62
    3
 10
188.43900000000008
 20
47.653500000000122
 11
153.82499999999993
 21
82.267500000000041
  0
LINE
  8
_0-3_躯体
  6
CONTINUOUS
 62
    3
 10
190.56099999999992
 20
47.653500000000122
 11
153.82499999999993
 21
84.389500000000112
  0
LINE
  8
_0-3_躯体
  6
CONTINUOUS
 62
    3
 10
192.68299999999999
 20
47.653500000000122
 11
153.82499999999993
 21
86.511500000000069
  0
LINE
  8
_0-4_笠木
  6
CONTINUOUS
 62
    4
 10
138.63099999999997
 20
114.86649999999997
 11
138.63099999999997
 21
121.36649999999997
  0
ARC
  8
_0-4_笠木
  6
CONTINUOUS
 62
    4
 10
137.33100000000002
 20
114.86649999999997
 40
0.5
 50
180
 51
270
  0
ARC
  8
_0-4_笠木
  6
CONTINUOUS
 62
    4
 10
138.13099999999997
 20
114.86649999999997
 40
0.5
 50
270
 51
0
  0
LINE
  8
_0-4_笠木
  6
CONTINUOUS
 62
    4
 10
137.33100000000002
 20
114.36649999999997
 11
138.13099999999997
 21
114.36649999999997
  0
LINE
  8
_0-5_受金具
  6
CONTINUOUS
 62
    4
 10
138.90167799999995
 20
124.92164400000013
 11
138.90167799999995
 21
129.38545899999997
  0
ARC
  8
_0-4_笠木
  6
CONTINUOUS
 62
    4
 10
141.12099999999998
 20
123.73950000000002
 40
1.5
 50
287.78250100000048
 51
0
  0
LINE
  8
_0-4_笠木
  6
CONTINUOUS
 62
    4
 10
141.57899999999995
 20
122.31150000000002
 11
138.63099999999997
 21
121.36649999999997
  0
LINE
  8
_0-4_笠木
  6
CONTINUOUS
 62
    4
 10
138.63099999999997
 20
124.36650000000009
 11
142.0859999999999
 21
124.60849999999994
  0
LINE
  8
_0-5_受金具
  6
CONTINUOUS
 62
    4
 10
139.43655600000011
 20
124.42286200000012
 11
141.50743399999999
 21
124.56767200000013
  0
ARC
  8
_0-5_受金具
  6
CONTINUOUS
 62
    4
 10
139.40167799999995
 20
124.92164400000013
 40
0.5
 50
180
 51
273.99999999999642
  0
ARC
  8
_0-4_笠木
  6
CONTINUOUS
 62
    4
 10
142.12099999999998
 20
124.10950000000003
 40
0.5
 50
0
 51
94.012169000000853
  0
LINE
  8
_0-4_笠木
  6
CONTINUOUS
 62
    4
 10
142.62099999999998
 20
124.10950000000003
 11
142.62099999999998
 21
123.73950000000002
  0
ARC
  8
_0-5_受金具
  6
CONTINUOUS
 62
    4
 10
149.94402000000002
 20
159.08050000000003
 40
5
 50
90
 51
168.69006799999792
  0
ARC
  8
_0-4_笠木
  6
CONTINUOUS
 62
    4
 10
141.63099999999997
 20
169.67649999999992
 40
3
 50
95.106239000002475
 51
180
  0
LINE
  8
_0-4_笠木
  6
CONTINUOUS
 62
    4
 10
136.8309999999999
 20
172.36150000000009
 11
138.70399999999995
 21
174.23450000000003
  0
ARC
  8
_0-5_受金具
  6
CONTINUOUS
 62
    4
 10
150.72097200000007
 20
157.58050000000003
 40
2.5
 50
90
 51
170.23919800000078
  0
ARC
  8
_0-5_受金具
  6
CONTINUOUS
 62
    3
 10
163.84500000000003
 20
146.78051599820765
 40
27.422168389436919
 50
77.361375686231128
 51
102.6386243137688
  0
LINE
  8
_0-5_受金具
  6
CONTINUOUS
 62
    4
 10
157.84500000000003
 20
169.78049999999996
 11
161.34499999999991
 21
169.78049999999996
  0
ARC
  8
_0-5_受金具
  6
CONTINUOUS
 62
    4
 10
163.84500000000003
 20
146.78049999999996
 40
25
 50
76.11345999999979
 51
103.88654000000018
  0
LINE
  8
_0-5_受金具
  6
CONTINUOUS
 62
    4
 10
149.94402000000002
 20
164.08050000000003
 11
161.34499999999991
 21
164.08050000000003
  0
LINE
  8
_0-5_受金具
  6
CONTINUOUS
 62
    3
 10
162.37251299999991
 20
174.16312200000004
 11
159.63241900000003
 21
171.42302800000004
  0
LINE
  8
_0-5_受金具
  6
CONTINUOUS
 62
    3
 10
161.61406999999997
 20
174.11178499999994
 11
158.76022499999999
 21
171.25793999999996
  0
LINE
  8
_0-5_受金具
  6
CONTINUOUS
 62
    3
 10
160.02195399999994
 20
173.93488300000013
 11
157.84500000000003
 21
171.7579290000001
  0
LINE
  8
_0-5_受金具
  6
CONTINUOUS
 62
    3
 10
160.83068900000012
 20
174.03651100000002
 11
157.84500000000003
 21
171.04982199999995
  0
LINE
  8
_0-5_受金具
  6
CONTINUOUS
 62
    4
 10
157.84500000000003
 20
171.04982199999995
 11
157.84500000000003
 21
169.78049999999996
  0
LINE
  8
_0-5_受金具
  6
CONTINUOUS
 62
    3
 10
157.84500000000003
 20
173.53823100000011
 11
157.84500000000003
 21
171.04982199999995
  0
LINE
  8
_0-5_受金具
  6
CONTINUOUS
 62
    3
 10
158.31142399999999
 20
173.63856599999997
 11
157.84500000000003
 21
173.17214300000012
  0
LINE
  8
_0-5_受金具
  6
CONTINUOUS
 62
    3
 10
159.18354799999986
 20
173.803584
 11
157.84500000000003
 21
172.46503599999994
  0
LINE
  8
_0-5_受金具
  6
CONTINUOUS
 62
    4
 10
169.84499999999991
 20
169.78049999999996
 11
169.84499999999991
 21
171.04982199999995
  0
LINE
  8
_0-5_受金具
  6
CONTINUOUS
 62
    4
 10
166.34500000000003
 20
169.78049999999996
 11
169.84499999999991
 21
169.78049999999996
  0
LINE
  8
_0-5_受金具
  6
CONTINUOUS
 62
    4
 10
162.34500000000003
 20
165.08049999999992
 11
162.34500000000003
 21
168.78049999999996
  0
LINE
  8
_0-5_受金具
  6
CONTINUOUS
 62
    4
 10
165.34499999999991
 20
165.08049999999992
 11
165.34499999999991
 21
168.78049999999996
  0
ARC
  8
_0-5_受金具
  6
CONTINUOUS
 62
    4
 10
161.34499999999991
 20
165.08049999999992
 40
1
 50
270
 51
0
  0
ARC
  8
_0-5_受金具
  6
CONTINUOUS
 62
    4
 10
166.34500000000003
 20
165.08049999999992
 40
1
 50
180
 51
270
  0
ARC
  8
_0-5_受金具
  6
CONTINUOUS
 62
    4
 10
161.34499999999991
 20
168.78049999999996
 40
1
 50
0
 51
90
  0
ARC
  8
_0-5_受金具
  6
CONTINUOUS
 62
    4
 10
166.34500000000003
 20
168.78049999999996
 40
1
 50
90
 51
180
  0
LINE
  8
_0-5_受金具
  6
CONTINUOUS
 62
    3
 10
169.583167
 20
173.5956010000001
 11
167.49951499999997
 21
171.51194799999996
  0
LINE
  8
_0-5_受金具
  6
CONTINUOUS
 62
    3
 10
168.99517400000002
 20
173.71471399999996
 11
166.87648100000001
 21
171.59602199999995
  0
LINE
  8
_0-5_受金具
  6
CONTINUOUS
 62
    3
 10
168.39579200000003
 20
173.82243900000003
 11
166.238967
 21
171.66561500000012
  0
LINE
  8
_0-5_受金具
  6
CONTINUOUS
 62
    3
 10
167.78448100000003
 20
173.91823499999998
 11
165.58604699999989
 21
171.71980199999996
  0
LINE
  8
_0-5_受金具
  6
CONTINUOUS
 62
    3
 10
165.87254999999993
 20
174.12762500000008
 11
163.52335700000003
 21
171.77843099999996
  0
LINE
  8
_0-5_受金具
  6
CONTINUOUS
 62
    3
 10
165.2066749999999
 20
174.16885600000001
 11
162.79631399999994
 21
171.75849600000004
  0
LINE
  8
_0-5_受金具
  6
CONTINUOUS
 62
    3
 10
164.52496499999995
 20
174.194253
 11
162.04643099999987
 21
171.71571900000004
  0
LINE
  8
_0-5_受金具
  6
CONTINUOUS
 62
    3
 10
163.82628299999999
 20
174.20267800000011
 11
161.27127099999996
 21
171.64766599999996
  0
LINE
  8
_0-5_受金具
  6
CONTINUOUS
 62
    3
 10
163.10931199999993
 20
174.19281400000011
 11
160.46784500000001
 21
171.55134600000008
  0
LINE
  8
_0-5_受金具
  6
CONTINUOUS
 62
    3
 10
167.16063699999995
 20
174.00149799999997
 11
164.91665999999998
 21
171.75752100000011
  0
LINE
  8
_0-5_受金具
  6
CONTINUOUS
 62
    3
 10
166.52358199999992
 20
174.07155000000012
 11
164.22957399999996
 21
171.77754200000004
  0
LINE
  8
_0-5_受金具
  6
CONTINUOUS
 62
    3
 10
169.84499999999991
 20
173.53823100000011
 11
169.84499999999991
 21
171.04982199999995
  0
LINE
  8
_0-5_受金具
  6
CONTINUOUS
 62
    3
 10
169.28936399999998
 20
171.18047800000011
 11
169.84499999999991
 21
171.73611399999993
  0
LINE
  8
_0-5_受金具
  6
CONTINUOUS
 62
    3
 10
168.70528300000001
 20
171.30350300000009
 11
169.84499999999991
 21
172.44322100000011
  0
LINE
  8
_0-5_受金具
  6
CONTINUOUS
 62
    3
 10
168.10887700000001
 20
171.41420400000004
 11
169.84499999999991
 21
173.15032699999995
  0
LINE
  8
_0-5_受金具
  6
CONTINUOUS
 62
    3
 10
199.34500000000003
 20
164.08050000000003
 11
199.34500000000003
 21
165.08049999999992
  0
LINE
  8
_0-3_躯体
  6
CONTINUOUS
 62
    3
 10
237.62000000000012
 20
158.96449999999993
 11
266.93999999999994
 21
129.74749999999995
  0
LINE
  8
_0-2_寸法
  6
CONTINUOUS
 62
    3
 10
211.84500000000003
 20
220.11950000000002
 11
211.84500000000003
 21
112.47950000000014
  0
LINE
  8
_0-5_受金具
  6
PLINE2
 62
    3
 10
207.221766
 20
140.28012200000001
 11
207.11709399999995
 21
138.28286300000013
  0
LINE
  8
_0-5_受金具
  6
PLINE2
 62
    3
 10
209.72258599999998
 20
121.12298499999997
 11
211.34499999999991
 21
152.08050000000003
  0
LINE
  8
_0-3_躯体
  6
CONTINUOUS
 62
    3
 10
239.73099999999988
 20
159.08050000000003
 11
268.28599999999994
 21
130.52549999999997
  0
ARC
  8
_0-3_躯体
  6
CONTINUOUS
 62
    4
 10
291.02699999999993
 20
137.15749999999991
 40
5.8200000000000003
 50
358.5821839999976
 51
105.19207799999957
  0
LINE
  8
_0-3_躯体
  6
CONTINUOUS
 62
    4
 10
296.84500000000003
 20
160.3805000000001
 11
296.84500000000003
 21
137.01350000000002
  0
LINE
  8
_0-3_躯体
  6
CONTINUOUS
 62
    3
 10
295.83799999999997
 20
140.43250000000012
 11
267.60899999999992
 21
124.1345
  0
LINE
  8
_0-3_躯体
  6
CONTINUOUS
 62
    3
 10
294.62499999999989
 20
141.73250000000007
 11
265.60899999999992
 21
124.97950000000014
  0
LINE
  8
_0-3_躯体
  6
CONTINUOUS
 62
    3
 10
292.82499999999993
 20
142.6925
 11
263.60899999999992
 21
125.82550000000003
  0
LINE
  8
_0-3_躯体
  6
CONTINUOUS
 62
    4
 10
289.57999999999993
 20
142.81849999999997
 11
264.10799999999995
 21
128.11250000000007
  0
LINE
  8
_0-3_躯体
  6
CONTINUOUS
 62
    3
 10
235.50900000000001
 20
159.05849999999998
 11
265.59599999999989
 21
128.97149999999999
  0
LINE
  8
_0-5_受金具
  6
PLINE2
 62
    3
 10
216.46823499999994
 20
140.28012200000001
 11
216.57290699999987
 21
138.28286300000013
  0
LINE
  8
_0-5_受金具
  6
PLINE2
 62
    3
 10
213.96741499999996
 20
121.12298499999997
 11
212.34500000000003
 21
152.08050000000003
  0
LINE
  8
_0-3_躯体
  6
CONTINUOUS
 62
    3
 10
338.43099999999993
 20
128.87349999999992
 11
271.65900000000011
 21
62.101500000000101
  0
LINE
  8
_0-3_躯体
  6
CONTINUOUS
 62
    3
 10
338.43099999999993
 20
131.01850000000002
 11
271.61199999999997
 21
64.345500000000129
  0
LINE
  8
_0-3_躯体
  6
CONTINUOUS
 62
    3
 10
338.43099999999993
 20
133.11749999999984
 11
271.60799999999995
 21
66.294499999999971
  0
LINE
  8
_0-3_躯体
  6
CONTINUOUS
 62
    4
 10
261.60799999999995
 20
123.78250000000003
 11
261.60799999999995
 21
47.545499999999947
  0
LINE
  8
_0-3_躯体
  6
CONTINUOUS
 62
    3
 10
265.60899999999992
 20
124.97950000000014
 11
265.60899999999992
 21
47.655500000000075
  0
LINE
  8
_0-3_躯体
  6
CONTINUOUS
 62
    3
 10
263.60899999999992
 20
125.82550000000003
 11
263.60899999999992
 21
47.655500000000075
  0
LINE
  8
_0-2_寸法
  6
PLINE2
 62
    4
 10
296.84500000000003
 20
137.01350000000002
 11
296.84500000000003
 21
47.349500000000035
  0
LINE
  8
_0-3_躯体
  6
CONTINUOUS
 62
    4
 10
271.60799999999995
 20
122.44350000000009
 11
271.60799999999995
 21
47.653500000000122
  0
LINE
  8
_0-3_躯体
  6
CONTINUOUS
 62
    3
 10
269.59899999999993
 20
123.28350000000012
 11
269.59899999999993
 21
47.655500000000075
  0
LINE
  8
_0-3_躯体
  6
CONTINUOUS
 62
    3
 10
267.60899999999992
 20
124.1345
 11
267.60899999999992
 21
47.655500000000075
  0
LINE
  8
_0-5_受金具
  6
PLINE2
 62
    3
 10
206.69840599999986
 20
130.29382600000008
 11
206.59373399999993
 21
128.2965670000001
  0
LINE
  8
_0-5_受金具
  6
PLINE2
 62
    3
 10
216.99159499999996
 20
130.29382600000008
 11
217.09626700000001
 21
128.2965670000001
  0
LINE
  8
_0-5_受金具
  6
PLINE2
 62
    3
 10
211.78569399999992
 20
124.13980600000002
 11
213.71939599999996
 21
125.85547699999984
  0
LINE
  8
_0-5_受金具
  6
PLINE2
 62
    3
 10
206.43672600000002
 20
125.30067899999995
 11
206.33205399999997
 21
123.30341999999996
  0
LINE
  8
_0-5_受金具
  6
PLINE2
 62
    3
 10
208.22464100000002
 20
121.20148900000015
 11
209.72258599999998
 21
121.12298499999997
  0
LINE
  8
_0-5_受金具
  6
PLINE2
 62
    3
 10
209.82725800000003
 20
123.12024399999996
 11
206.33205399999997
 21
123.30341999999996
  0
LINE
  8
_0-5_受金具
  6
PLINE2
 62
    3
 10
206.33205399999997
 20
123.30341999999996
 11
208.22464100000002
 21
121.20148900000015
  0
LINE
  8
_0-5_受金具
  6
PLINE2
 62
    3
 10
206.59373399999993
 20
128.2965670000001
 11
208.53865699999994
 21
127.19326599999999
  0
LINE
  8
_0-5_受金具
  6
PLINE2
 62
    3
 10
208.43398499999989
 20
125.19600700000001
 11
206.43672600000002
 21
125.30067899999995
  0
LINE
  8
_0-5_受金具
  6
PLINE2
 62
    3
 10
208.53865699999994
 20
127.19326599999999
 11
208.43398499999989
 21
125.19600700000001
  0
LINE
  8
_0-5_受金具
  6
PLINE2
 62
    3
 10
209.97555599999998
 20
125.94994500000007
 11
211.84500000000003
 21
124.08050000000003
  0
LINE
  8
_0-5_受金具
  6
PLINE2
 62
    3
 10
217.25327499999992
 20
125.30067899999995
 11
217.35794699999985
 21
123.30341999999996
  0
LINE
  8
_0-5_受金具
  6
PLINE2
 62
    3
 10
217.35794699999985
 20
123.30341999999996
 11
215.46535899999992
 21
121.20148900000015
  0
LINE
  8
_0-5_受金具
  6
PLINE2
 62
    3
 10
213.86274300000002
 20
123.12024399999996
 11
217.35794699999985
 21
123.30341999999996
  0
LINE
  8
_0-5_受金具
  6
PLINE2
 62
    3
 10
215.46535899999992
 20
121.20148900000015
 11
213.96741499999996
 21
121.12298499999997
  0
LINE
  8
_0-5_受金具
  6
PLINE2
 62
    3
 10
215.25601599999993
 20
125.19600700000001
 11
217.25327499999992
 21
125.30067899999995
  0
LINE
  8
_0-5_受金具
  6
PLINE2
 62
    3
 10
217.09626700000001
 20
128.2965670000001
 11
215.15134399999999
 21
127.19326599999999
  0
LINE
  8
_0-5_受金具
  6
PLINE2
 62
    3
 10
215.15134399999999
 20
127.19326599999999
 11
215.25601599999993
 21
125.19600700000001
  0
LINE
  8
_0-5_受金具
  6
PLINE2
 62
    3
 10
206.96008599999993
 20
135.28697399999999
 11
206.85541400000011
 21
133.289715
  0
LINE
  8
_0-5_受金具
  6
PLINE2
 62
    3
 10
208.69566499999996
 20
130.18915400000003
 11
206.69840599999986
 21
130.29382600000008
  0
LINE
  8
_0-5_受金具
  6
PLINE2
 62
    3
 10
208.80033700000001
 20
132.18641300000013
 11
208.69566499999996
 21
130.18915400000003
  0
LINE
  8
_0-5_受金具
  6
PLINE2
 62
    3
 10
206.85541400000011
 20
133.289715
 11
208.80033700000001
 21
132.18641300000013
  0
LINE
  8
_0-5_受金具
  6
PLINE2
 62
    3
 10
208.95734500000003
 20
135.18230200000005
 11
206.96008599999993
 21
135.28697399999999
  0
LINE
  8
_0-5_受金具
  6
PLINE2
 62
    3
 10
209.06201699999986
 20
137.17956100000004
 11
208.95734500000003
 21
135.18230200000005
  0
LINE
  8
_0-5_受金具
  6
PLINE2
 62
    3
 10
207.11709399999995
 20
138.28286300000013
 11
209.06201699999986
 21
137.17956100000004
  0
LINE
  8
_0-5_受金具
  6
PLINE2
 62
    3
 10
216.72991500000012
 20
135.28697399999999
 11
216.83458699999994
 21
133.289715
  0
LINE
  8
_0-5_受金具
  6
PLINE2
 62
    3
 10
214.99433599999998
 20
130.18915400000003
 11
216.99159499999996
 21
130.29382600000008
  0
LINE
  8
_0-5_受金具
  6
PLINE2
 62
    3
 10
214.88966399999993
 20
132.18641300000013
 11
214.99433599999998
 21
130.18915400000003
  0
LINE
  8
_0-5_受金具
  6
PLINE2
 62
    3
 10
216.83458699999994
 20
133.289715
 11
214.88966399999993
 21
132.18641300000013
  0
LINE
  8
_0-5_受金具
  6
PLINE2
 62
    3
 10
214.73265600000002
 20
135.18230200000005
 11
216.72991500000012
 21
135.28697399999999
  0
LINE
  8
_0-5_受金具
  6
PLINE2
 62
    3
 10
214.62798399999997
 20
137.17956100000004
 11
214.73265600000002
 21
135.18230200000005
  0
LINE
  8
_0-5_受金具
  6
PLINE2
 62
    3
 10
216.57290699999987
 20
138.28286300000013
 11
214.62798399999997
 21
137.17956100000004
  0
ARC
  8
_0-3_躯体
  6
CONTINUOUS
 62
    4
 10
266.60799999999995
 20
123.78250000000003
 40
5
 50
120.0007249999998
 51
180
  0
LINE
  8
_0-3_躯体
  6
CONTINUOUS
 62
    4
 10
271.60799999999995
 20
122.44350000000009
 11
296.84500000000003
 21
137.01350000000002
  0
LINE
  8
_0-3_躯体
  6
CONTINUOUS
 62
    3
 10
296.59100000000012
 20
138.86650000000009
 11
269.59899999999993
 21
123.28350000000012
  0
LINE
  8
_0-3_躯体
  6
CONTINUOUS
 62
    3
 10
296.84500000000003
 20
169.41949999999997
 11
338.43099999999993
 21
211.08450000000005
  0
LINE
  8
_0-3_躯体
  6
CONTINUOUS
 62
    3
 10
296.84500000000003
 20
167.30550000000005
 11
338.43099999999993
 21
208.94449999999995
  0
LINE
  8
_0-3_躯体
  6
CONTINUOUS
 62
    3
 10
296.84500000000003
 20
165.45449999999994
 11
338.43099999999993
 21
207.03450000000009
  0
LINE
  8
_0-3_躯体
  6
CONTINUOUS
 62
    3
 10
271.84500000000003
 20
218.49649999999997
 11
302.99900000000002
 21
249.65049999999997
  0
LINE
  8
_0-3_躯体
  6
CONTINUOUS
 62
    3
 10
271.84500000000003
 20
222.7405
 11
298.36500000000001
 21
249.26049999999998
  0
LINE
  8
_0-2_寸法
  6
CONTINUOUS
 62
    3
 10
296.84500000000003
 20
215.38049999999998
 11
296.84500000000003
 21
241.35950000000003
  0
LINE
  8
_0-3_躯体
  6
CONTINUOUS
 62
    3
 10
271.84500000000003
 20
220.61850000000004
 11
300.87699999999995
 21
249.65049999999997
  0
LINE
  8
_0-3_躯体
  6
CONTINUOUS
 62
    4
 10
271.84500000000003
 20
210.3805000000001
 11
271.84500000000003
 21
249.43250000000012
  0
LINE
  8
_0-5_受金具
  6
CONTINUOUS
 62
    4
 10
277.14499999999987
 20
164.08050000000003
 11
212.34500000000003
 21
164.08050000000003
  0
LINE
  8
_0-5_受金具
  6
PLINE2
 62
    3
 10
214.38199999999995
 20
165.08049999999992
 11
214.38199999999995
 21
160.08050000000003
  0
LINE
  8
_0-5_受金具
  6
PLINE2
 62
    3
 10
213.38199999999995
 20
165.08049999999992
 11
213.38199999999995
 21
160.08050000000003
  0
LINE
  8
_0-5_受金具
  6
PLINE2
 62
    3
 10
210.38199999999995
 20
165.08049999999992
 11
210.38199999999995
 21
160.08050000000003
  0
LINE
  8
_0-5_受金具
  6
PLINE2
 62
    3
 10
209.38199999999995
 20
165.08049999999992
 11
209.38199999999995
 21
160.08050000000003
  0
LINE
  8
_0-5_受金具
  6
PLINE2
 62
    3
 10
207.84500000000003
 20
148.08049999999992
 11
207.84500000000003
 21
152.08050000000003
  0
LINE
  8
_0-5_受金具
  6
PLINE2
 62
    3
 10
206.88947099999996
 20
145.28012200000012
 11
205.97167000000002
 21
150.78692500000011
  0
LINE
  8
_0-5_受金具
  6
PLINE2
 62
    3
 10
217.96499099999994
 20
145.28012200000012
 11
218.85539099999994
 21
150.62252599999999
  0
LINE
  8
_0-5_受金具
  6
PLINE2
 62
    3
 10
216.95119699999998
 20
145.28012200000012
 11
217.86899699999992
 21
150.78692500000011
  0
LINE
  8
_0-5_受金具
  6
PLINE2
 62
    3
 10
215.84499999999991
 20
148.08049999999992
 11
215.84499999999991
 21
152.08050000000003
  0
LINE
  8
_0-5_受金具
  6
PLINE2
 62
    3
 10
207.48344499999996
 20
145.27326900000003
 11
207.37877299999991
 21
143.27601000000004
  0
LINE
  8
_0-5_受金具
  6
PLINE2
 62
    3
 10
207.37243299999989
 20
140.28012200000001
 11
205.875677
 21
145.28012200000012
  0
LINE
  8
_0-5_受金具
  6
PLINE2
 62
    3
 10
208.4351519999999
 20
140.22442699999999
 11
206.88947099999996
 21
145.28012200000012
  0
LINE
  8
_0-5_受金具
  6
PLINE2
 62
    3
 10
209.2190250000001
 20
140.17544999999996
 11
207.221766
 21
140.28012200000001
  0
LINE
  8
_0-5_受金具
  6
PLINE2
 62
    3
 10
209.32369699999992
 20
142.17270899999994
 11
209.2190250000001
 21
140.17544999999996
  0
LINE
  8
_0-5_受金具
  6
PLINE2
 62
    3
 10
207.37877299999991
 20
143.27601000000004
 11
209.32369699999992
 21
142.17270899999994
  0
LINE
  8
_0-5_受金具
  6
PLINE2
 62
    3
 10
209.48070399999995
 20
145.16859700000009
 11
207.48344499999996
 21
145.27326900000003
  0
LINE
  8
_0-5_受金具
  6
PLINE2
 62
    3
 10
207.84500000000003
 20
148.08049999999992
 11
209.585376
 21
147.16585600000008
  0
LINE
  8
_0-5_受金具
  6
PLINE2
 62
    3
 10
209.585376
 20
147.16585600000008
 11
209.48070399999995
 21
145.16859700000009
  0
LINE
  8
_0-5_受金具
  6
PLINE2
 62
    3
 10
216.46823499999994
 20
140.28012200000001
 11
217.96499099999994
 21
145.28012200000012
  0
LINE
  8
_0-5_受金具
  6
PLINE2
 62
    3
 10
215.40551599999992
 20
140.22442699999999
 11
216.95119699999998
 21
145.28012200000012
  0
LINE
  8
_0-5_受金具
  6
PLINE2
 62
    3
 10
216.20655599999998
 20
145.27326900000003
 11
216.31122700000003
 21
143.27601000000004
  0
LINE
  8
_0-5_受金具
  6
PLINE2
 62
    3
 10
214.47097599999995
 20
140.17544999999996
 11
216.46823499999994
 21
140.28012200000001
  0
LINE
  8
_0-5_受金具
  6
PLINE2
 62
    3
 10
214.36630400000001
 20
142.17270899999994
 11
214.47097599999995
 21
140.17544999999996
  0
LINE
  8
_0-5_受金具
  6
PLINE2
 62
    3
 10
216.31122700000003
 20
143.27601000000004
 11
214.36630400000001
 21
142.17270899999994
  0
LINE
  8
_0-5_受金具
  6
PLINE2
 62
    3
 10
214.20929599999988
 20
145.16859700000009
 11
216.20655599999998
 21
145.27326900000003
  0
LINE
  8
_0-5_受金具
  6
PLINE2
 62
    3
 10
214.10462499999994
 20
147.16585600000008
 11
214.20929599999988
 21
145.16859700000009
  0
LINE
  8
_0-5_受金具
  6
PLINE2
 62
    3
 10
215.84499999999991
 20
148.08049999999992
 11
214.10462499999994
 21
147.16585600000008
  0
LINE
  8
_0-5_受金具
  6
PLINE2
 62
    3
 10
216.84500000000003
 20
160.08050000000003
 11
211.84500000000003
 21
160.08050000000003
  0
LINE
  8
_0-5_受金具
  6
PLINE2
 62
    3
 10
211.84500000000003
 20
155.08050000000003
 11
211.84500000000003
 21
160.08050000000003
  0
LINE
  8
_0-5_受金具
  6
PLINE2
 62
    3
 10
212.84500000000003
 20
160.08050000000003
 11
211.84500000000003
 21
155.08050000000003
  0
LINE
  8
_0-5_受金具
  6
PLINE2
 62
    3
 10
210.84499999999991
 20
160.08050000000003
 11
211.84500000000003
 21
155.08050000000003
  0
LINE
  8
_0-5_受金具
  6
PLINE2
 62
    3
 10
206.84499999999991
 20
160.08050000000003
 11
207.84500000000003
 21
155.08050000000003
  0
LINE
  8
_0-5_受金具
  6
PLINE2
 62
    3
 10
207.84500000000003
 20
160.08050000000003
 11
207.84500000000003
 21
152.08050000000003
  0
LINE
  8
_0-5_受金具
  6
PLINE2
 62
    3
 10
211.34499999999991
 20
152.08050000000003
 11
211.84500000000003
 21
152.08050000000003
  0
LINE
  8
_0-5_受金具
  6
PLINE2
 62
    3
 10
212.34500000000003
 20
152.08050000000003
 11
211.84500000000003
 21
152.08050000000003
  0
LINE
  8
_0-5_受金具
  6
PLINE2
 62
    3
 10
206.84499999999991
 20
160.08050000000003
 11
211.84500000000003
 21
160.08050000000003
  0
LINE
  8
_0-5_受金具
  6
PLINE2
 62
    3
 10
216.84500000000003
 20
160.08050000000003
 11
215.84499999999991
 21
155.08050000000003
  0
LINE
  8
_0-5_受金具
  6
PLINE2
 62
    3
 10
215.84499999999991
 20
160.08050000000003
 11
215.84499999999991
 21
152.08050000000003
  0
ARC
  8
_0-5_受金具
  6
PLINE2
 62
    3
 10
218.36219399999993
 20
150.70472499999994
 40
0.5
 50
350.53767800000031
 51
170.53767800000031
  0
ARC
  8
_0-5_受金具
  6
CONTINUOUS
 62
    4
 10
211.84500000000003
 20
163.08050000000003
 40
5.4000000000000004
 50
51.317812999997599
 51
90
  0
ARC
  8
_0-5_受金具
  6
CONTINUOUS
 62
    4
 10
210.34223799999995
 20
164.95179099999996
 40
3
 50
128.61463800000209
 51
177.54107399999734
  0
LINE
  8
_0-5_受金具
  6
CONTINUOUS
 62
    4
 10
211.84500000000003
 20
163.58050000000003
 11
211.34499999999991
 21
164.08050000000003
  0
LINE
  8
_0-5_受金具
  6
CONTINUOUS
 62
    4
 10
211.84500000000003
 20
163.58050000000003
 11
212.34500000000003
 21
164.08050000000003
  0
ARC
  8
_0-5_受金具
  6
CONTINUOUS
 62
    4
 10
211.84500000000003
 20
163.08050000000003
 40
5.4000000000000004
 50
90
 51
128.85106199999711
  0
ARC
  8
_0-5_受金具
  6
CONTINUOUS
 62
    4
 10
213.34776299999987
 20
164.95179099999996
 40
3
 50
2.458926000002652
 51
51.385361999997833
  0
LINE
  8
_0-5_受金具
  6
CONTINUOUS
 62
    3
 10
224.34500000000003
 20
165.08049999999992
 11
224.34500000000003
 21
164.08050000000003
  0
LINE
  8
_0-3_躯体
  6
CONTINUOUS
 62
    4
 10
296.84500000000003
 20
160.3805000000001
 11
296.84500000000003
 21
210.3805000000001
  0
LINE
  8
_0-5_受金具
  6
CONTINUOUS
 62
    4
 10
282.14499999999998
 20
160.08050000000003
 11
282.14499999999998
 21
188.08050000000003
  0
LINE
  8
_0-5_受金具
  6
CONTINUOUS
 62
    4
 10
279.14499999999987
 20
166.08050000000003
 11
279.14499999999987
 21
192.08050000000003
  0
ARC
  8
_0-5_受金具
  6
CONTINUOUS
 62
    4
 10
277.14499999999987
 20
166.08050000000003
 40
2
 50
270
 51
0
  0
LINE
  8
_0-5_受金具
  6
CONTINUOUS
 62
    3
 10
273.99400000000003
 20
201.07150000000001
 11
283.23099999999999
 21
210.30849999999998
  0
LINE
  8
_0-5_受金具
  6
CONTINUOUS
 62
    3
 10
273.09799999999996
 20
197.34749999999997
 11
284.80099999999993
 21
209.05049999999994
  0
LINE
  8
_0-5_受金具
  6
CONTINUOUS
 62
    3
 10
272.95899999999995
 20
194.38049999999998
 11
284.80099999999993
 21
206.22249999999997
  0
LINE
  8
_0-5_受金具
  6
CONTINUOUS
 62
    3
 10
275.7879999999999
 20
194.38049999999998
 11
284.80099999999993
 21
203.39350000000013
  0
ARC
  8
_0-5_受金具
  6
CONTINUOUS
 62
    4
 10
257.36699999999996
 20
202.3805000000001
 40
16.541
 50
331.07659900000368
 51
28.923392999999823
  0
LINE
  8
_0-5_受金具
  6
CONTINUOUS
 62
    4
 10
284.80099999999993
 20
194.38049999999998
 11
284.80099999999993
 21
210.3805000000001
  0
LINE
  8
_0-5_受金具
  6
CONTINUOUS
 62
    3
 10
296.84500000000003
 20
210.3805000000001
 11
284.80099999999993
 21
194.38049999999998
  0
LINE
  8
_0-5_受金具
  6
CONTINUOUS
 62
    3
 10
282.89699999999993
 20
194.38049999999998
 11
274.03999999999996
 21
203.23749999999995
  0
LINE
  8
_0-5_受金具
  6
CONTINUOUS
 62
    3
 10
284.80099999999993
 20
195.30445199999997
 11
273.37799999999993
 21
206.72850000000005
  0
LINE
  8
_0-5_受金具
  6
CONTINUOUS
 62
    3
 10
284.80099999999993
 20
198.13350000000003
 11
272.92599999999993
 21
210.00850000000003
  0
LINE
  8
_0-5_受金具
  6
CONTINUOUS
 62
    3
 10
284.80099999999993
 20
200.96144900000013
 11
275.755
 21
210.00850000000003
  0
LINE
  8
_0-5_受金具
  6
CONTINUOUS
 62
    4
 10
271.84500000000003
 20
194.38049999999998
 11
290.44499999999994
 21
194.38049999999998
  0
LINE
  8
_0-4_笠木
  6
CONTINUOUS
 62
    4
 10
271.84500000000003
 20
194.38049999999998
 11
290.44499999999994
 21
194.38049999999998
  0
LINE
  8
_0-5_受金具
  6
CONTINUOUS
 62
    3
 10
278.61699599999997
 20
194.38049999999998
 11
284.80099999999993
 21
200.56554700000004
  0
LINE
  8
_0-5_受金具
  6
CONTINUOUS
 62
    3
 10
281.46799999999996
 20
194.40350000000012
 11
284.80099999999993
 21
197.73649999999998
  0
LINE
  8
_0-4_笠木
  6
CONTINUOUS
 62
    4
 10
273.64499999999998
 20
192.58050000000003
 11
284.64499999999987
 21
192.58050000000003
  0
ARC
  8
_0-5_受金具
  6
CONTINUOUS
 62
    4
 10
281.03650500000003
 20
190.08049999999992
 40
2
 50
32.005382999999902
 51
90
  0
LINE
  8
_0-4_笠木
  6
CONTINUOUS
 62
    4
 10
273.64499999999998
 20
185.43450000000007
 11
273.64499999999998
 21
192.58050000000003
  0
LINE
  8
_0-4_笠木
  6
CONTINUOUS
 62
    4
 10
271.84500000000003
 20
186.18050000000005
 11
271.84500000000003
 21
194.38049999999998
  0
LINE
  8
_0-4_笠木
  6
CONTINUOUS
 62
    4
 10
270.07699999999988
 20
184.41250000000002
 11
271.84500000000003
 21
186.18050000000005
  0
LINE
  8
_0-4_笠木
  6
CONTINUOUS
 62
    4
 10
270.88800000000003
 20
182.67750000000012
 11
273.64499999999998
 21
185.43450000000007
  0
LINE
  8
_0-5_受金具
  6
CONTINUOUS
 62
    4
 10
281.03650500000003
 20
192.08050000000003
 11
279.14499999999987
 21
192.08050000000003
  0
LINE
  8
_0-5_受金具
  6
CONTINUOUS
 62
    3
 10
274.41200000000003
 20
194.38049999999998
 11
272.71699999999998
 21
196.07550000000003
  0
LINE
  8
_0-5_受金具
  6
CONTINUOUS
 62
    3
 10
277.2399999999999
 20
194.38049999999998
 11
273.50900000000001
 21
198.11149999999998
  0
LINE
  8
_0-5_受金具
  6
CONTINUOUS
 62
    3
 10
280.06899999999996
 20
194.38049999999998
 11
273.88800000000003
 21
200.56150000000002
  0
LINE
  8
_0-4_笠木
  6
CONTINUOUS
 62
    4
 10
284.64499999999987
 20
192.58050000000003
 11
284.64499999999987
 21
187.58050000000003
  0
LINE
  8
_0-4_笠木
  6
CONTINUOUS
 62
    4
 10
286.44499999999994
 20
192.58050000000003
 11
286.44499999999994
 21
184.58050000000003
  0
LINE
  8
_0-4_笠木
  6
CONTINUOUS
 62
    4
 10
282.64499999999987
 20
187.58050000000003
 11
282.64499999999987
 21
186.58050000000003
  0
LINE
  8
_0-4_笠木
  6
CONTINUOUS
 62
    4
 10
286.44499999999994
 20
184.58050000000003
 11
284.64499999999987
 21
184.58050000000003
  0
LINE
  8
_0-4_笠木
  6
CONTINUOUS
 62
    4
 10
282.64499999999987
 20
186.58050000000003
 11
284.64499999999987
 21
184.58050000000003
  0
LINE
  8
_0-4_笠木
  6
CONTINUOUS
 62
    4
 10
284.64499999999987
 20
184.58050000000003
 11
282.87699999999995
 21
186.34849999999994
  0
LINE
  8
_0-4_笠木
  6
CONTINUOUS
 62
    4
 10
284.64499999999987
 20
189.08050000000003
 11
284.64499999999987
 21
187.58050000000003
  0
LINE
  8
_0-4_笠木
  6
CONTINUOUS
 62
    4
 10
282.64499999999987
 20
187.58050000000003
 11
284.64499999999987
 21
187.58050000000003
  0
ARC
  8
_0-5_受金具
  6
CONTINUOUS
 62
    4
 10
284.28415099999995
 20
188.28050000000007
 40
0.2
 50
270
 51
32.005382999999902
  0
LINE
  8
_0-5_受金具
  6
CONTINUOUS
 62
    4
 10
282.14499999999998
 20
188.08050000000003
 11
284.28415099999995
 21
188.08050000000003
  0
LINE
  8
_0-5_受金具
  6
CONTINUOUS
 62
    4
 10
282.73250199999995
 20
191.14049800000009
 11
284.4537509999999
 21
188.38649999999996
  0
LINE
  8
_0-4_笠木
  6
CONTINUOUS
 62
    4
 10
286.44499999999994
 20
192.58050000000003
 11
290.44499999999994
 21
192.58050000000003
  0
LINE
  8
_0-5_受金具
  6
CONTINUOUS
 62
    3
 10
284.34699999999987
 20
194.45449999999994
 11
284.48399999999992
 21
194.59150000000011
  0
LINE
  8
_0-5_受金具
  6
CONTINUOUS
 62
    4
 10
290.44499999999994
 20
194.38049999999998
 11
296.84500000000003
 21
194.38049999999998
  0
LINE
  8
_0-4_笠木
  6
CONTINUOUS
 62
    4
 10
290.44499999999994
 20
194.38049999999998
 11
290.44499999999994
 21
192.58050000000003
  0
LINE
  8
_0-5_受金具
  6
CONTINUOUS
 62
    3
 10
284.80099999999993
 20
203.79050000000007
 11
278.58300000000008
 21
210.00850000000003
  0
LINE
  8
_0-5_受金具
  6
CONTINUOUS
 62
    3
 10
284.80099999999993
 20
206.618381
 11
281.41200000000003
 21
210.00850000000003
  0
LINE
  8
_0-3_躯体
  6
CONTINUOUS
 62
    4
 10
296.84500000000003
 20
210.3805000000001
 11
271.84500000000003
 21
210.3805000000001
  0
LINE
  8
_0-5_受金具
  6
CONTINUOUS
 62
    3
 10
272.74199999999996
 20
208.30449999999996
 11
274.59899999999993
 21
210.16150000000005
  0
LINE
  8
_0-5_受金具
  6
CONTINUOUS
 62
    3
 10
273.56499999999994
 20
206.29949999999997
 11
277.47600000000011
 21
210.21050000000002
  0
LINE
  8
_0-5_受金具
  6
CONTINUOUS
 62
    3
 10
273.96799999999996
 20
203.87450000000013
 11
280.35399999999993
 21
210.26050000000009
  0
LINE
  8
_0-5_受金具
  6
CONTINUOUS
 62
    3
 10
284.4799999999999
 20
209.76850000000002
 11
284.24000000000001
 21
210.00850000000003
  0
INSERT
  2
-001-_D31
  8
_0-2_寸法
 10
915.88279674505168
 20
949.79785388781067
 41
0.5
 42
0.5
 50
0
  0
INSERT
  2
-002-_D32
  8
_0-2_寸法
 10
915.88279674505168
 20
949.79785388781067
 41
0.5
 42
0.5
 50
0
  0
INSERT
  2
-003-_D33
  8
_0-2_寸法
 10
915.88279674505168
 20
949.79785388781067
 41
0.5
 42
0.5
 50
0
  0
INSERT
  2
-004-_D34
  8
_0-2_寸法
 10
915.88279674505168
 20
949.79785388781067
 41
0.5
 42
0.5
 50
0
  0
INSERT
  2
-005-_D35
  8
_0-2_寸法
 10
915.88279674505168
 20
949.79785388781067
 41
0.5
 42
0.5
 50
0
  0
INSERT
  2
-006-_D36
  8
_0-2_寸法
 10
915.88279674505168
 20
949.79785388781067
 41
0.5
 42
0.5
 50
0
  0
INSERT
  2
-007-_D37
  8
_0-2_寸法
 10
915.88279674505168
 20
949.79785388781067
 41
0.5
 42
0.5
 50
0
  0
INSERT
  2
-008-_D38
  8
_0-2_寸法
 10
915.88279674505168
 20
949.79785388781067
 41
0.5
 42
0.5
 50
0
  0
INSERT
  2
-009-_D39
  8
_0-2_寸法
 10
915.88279674505168
 20
949.79785388781067
 41
0.5
 42
0.5
 50
0
  0
INSERT
  2
-010-_D40
  8
_0-2_寸法
 10
915.88279674505168
 20
949.79785388781067
 41
0.5
 42
0.5
 50
0
  0
INSERT
  2
-011-_D41
  8
_0-2_寸法
 10
915.88279674505168
 20
949.79785388781067
 41
0.5
 42
0.5
 50
0
  0
INSERT
  2
-012-_D42
  8
_0-2_寸法
 10
915.88279674505168
 20
949.79785388781067
 41
0.5
 42
0.5
 50
0
  0
INSERT
  2
-013-_D43
  8
_0-2_寸法
 10
915.88279674505168
 20
949.79785388781067
 41
0.5
 42
0.5
 50
0
  0
LINE
  8
_0-5_受金具
  6
CONTINUOUS
 62
    4
 10
271.84500111699435
 20
210.38027328585281
 11
296.84482934092557
 21
210.38027328585281
  0
LINE
  8
_0-5_受金具
  6
CONTINUOUS
 62
    4
 10
296.84482934092557
 20
210.38027328585281
 11
296.84482934092557
 21
194.38049999999998
  0
ENDSEC
  0
EOF
