  0
SECTION
  2
HEADER
  9
$ACADVER
  1
AC1009
  9
$INSBASE
 10
0
 20
0
 30
0
  9
$EXTMIN
 10
0
 20
0
  9
$EXTMAX
 10
420
 20
297
  9
$LIMMIN
 10
0
 20
0
  9
$LIMMAX
 10
420
 20
297
  9
$LTSCALE
 40
1
  0
ENDSEC
  0
SECTION
  2
TABLES
  0
TABLE
  2
LTYPE
 70
     9
  0
LTYPE
  2
CONTINUOUS
 70
    64
  3
実線
 72
    65
 73
     0
 40
0.0
  0
LTYPE
  2
DASHED1
 70
    64
  3
--  --  --  --  --  --  --  --  
 72
    65
 73
     2
 40
2.5
 49
1.25
 49
-1.25
  0
LTYPE
  2
DASHED2
 70
    64
  3
----    ----    ----    ----    
 72
    65
 73
     2
 40
5.0
 49
2.5
 49
-2.5
  0
LTYPE
  2
DASHED3
 70
    64
  3
------  ------  ------  ------  
 72
    65
 73
     2
 40
5.0
 49
3.75
 49
-1.25
  0
LTYPE
  2
CENTER1
 70
    64
  3
----- - ----- - ----- - ----- - 
 72
    65
 73
     4
 40
10.0
 49
6.25
 49
-1.25
 49
1.25
 49
-1.25
  0
LTYPE
  2
CENTER2
 70
    64
  3
----------  --  ----------  --  
 72
    65
 73
     4
 40
20.0
 49
12.5
 49
-2.5
 49
2.5
 49
-2.5
  0
LTYPE
  2
PHANTOM1
 70
    64
  3
--- - - --- - - --- - - --- - - 
 72
    65
 73
     6
 40
10.0
 49
3.25
 49
-1.25
 49
1.25
 49
-1.25
 49
1.25
 49
-1.25
  0
LTYPE
  2
PHANTOM2
 70
    64
  3
--------  -  -  --------  -  -  
 72
    65
 73
     6
 40
20.0
 49
10.0
 49
-2.5
 49
1.25
 49
-2.5
 49
1.25
 49
-2.5
  0
LTYPE
  2
DOT
 70
    64
  3
-   -   -   -   -   -   -   -   
 72
    65
 73
     2
 40
2.5
 49
0.625
 49
-1.875
  0
LTYPE
  2
DUMMY
 70
    64
  3
ダミー
 72
    65
 73
     0
 40
0.0
  0
LTYPE
  2
RAND1
 70
    64
  3
ランダム線1
 72
    65
 73
     4
 40
10.0
 49
1.0
 49
-2.0
 49
3.0
 49
-4.0
  0
LTYPE
  2
RAND2
 70
    64
  3
ランダム線2
 72
    65
 73
     4
 40
14.0
 49
2.0
 49
-3.0
 49
4.0
 49
-5.0
  0
LTYPE
  2
RAND3
 70
    64
  3
ランダム線3
 72
    65
 73
     4
 40
18.0
 49
3.0
 49
-4.0
 49
5.0
 49
-6.0
  0
LTYPE
  2
RAND4
 70
    64
  3
ランダム線4
 72
    65
 73
     4
 40
22.0
 49
4.0
 49
-5.0
 49
6.0
 49
-7.0
  0
LTYPE
  2
RAND5
 70
    64
  3
ランダム線5
 72
    65
 73
     4
 40
26.0
 49
5.0
 49
-6.0
 49
7.0
 49
-8.0
  0
LTYPE
  2
LONG1
 70
    64
  3
----------  --  ----------  --  
 72
    65
 73
     4
 40
40.0
 49
32.5
 49
-2.5
 49
2.5
 49
-2.5
  0
LTYPE
  2
LONG2
 70
    64
  3
--------  -  -  --------  -  -  
 72
    65
 73
     6
 40
40.0
 49
30.0
 49
-2.5
 49
1.25
 49
-2.5
 49
1.25
 49
-2.5
  0
LTYPE
  2
LONG3
 70
    64
  3
+++++++++++++++..+++++++++++++++
 72
    65
 73
     2
 40
40.0
 49
37.5
 49
-2.5
  0
LTYPE
  2
LONG4
 70
    64
  3
+++++++++++++++..+++++++++++++++
 72
    65
 73
     2
 40
80.0
 49
75.0
 49
-5.0
  0
LTYPE
  2
LONG5
 70
    64
  3
----------  --  ----------  --  
 72
    65
 73
     4
 40
60.0
 49
37.5
 49
-7.5
 49
7.5
 49
-7.5
  0
LTYPE
  2
dashed
 70
   64
  3
-------   -------------   ------
 72
   65
 73
    2
 40
7.5
 49
6
 49
-1.5
  0
LTYPE
  2
dashed_spaced
 70
   64
  3
----        --------        ----
 72
   65
 73
    2
 40
12
 49
6
 49
-6
  0
LTYPE
  2
long_dashed_dotted
 70
   64
  3
------------- --- --------------
 72
   65
 73
    4
 40
15.25
 49
12
 49
-1.5
 49
0.25
 49
-1.5
  0
LTYPE
  2
long_dashed_double-dotted
 70
   64
  3
----------- --- --- ------------
 72
   65
 73
    6
 40
17
 49
12
 49
-1.5
 49
0.25
 49
-1.5
 49
0.25
 49
-1.5
  0
LTYPE
  2
long_dashed_triplicate-dotted
 70
   64
  3
--------- --- --- --- ----------
 72
   65
 73
    8
 40
18.75
 49
12
 49
-1.5
 49
0.25
 49
-1.5
 49
0.25
 49
-1.5
 49
0.25
 49
-1.5
  0
LTYPE
  2
dotted
 70
   64
  3
   -       -       -       -    
 72
   65
 73
    2
 40
1.75
 49
0.25
 49
-1.5
  0
LTYPE
  2
chain
 70
   64
  3
-------------- -- --------------
 72
   65
 73
    4
 40
18.5
 49
12
 49
-1.5
 49
3.5
 49
-1.5
  0
LTYPE
  2
chain_double_dash
 70
   64
  3
------------ -- -- -------------
 72
   65
 73
    6
 40
23.5
 49
12
 49
-1.5
 49
3.5
 49
-1.5
 49
3.5
 49
-1.5
  0
LTYPE
  2
dashed_dotted
 70
   64
  3
-----------     -     ----------
 72
   65
 73
    4
 40
9.25
 49
6
 49
-1.5
 49
0.25
 49
-1.5
  0
LTYPE
  2
double-dashed_dotted
 70
   64
  3
------   -----------   -   -----
 72
   65
 73
    6
 40
16.75
 49
6
 49
-1.5
 49
6
 49
-1.5
 49
0.25
 49
-1.5
  0
LTYPE
  2
dashed_double-dotted
 70
   64
  3
---------    -    -    ---------
 72
   65
 73
    6
 40
11
 49
6
 49
-1.5
 49
0.25
 49
-1.5
 49
0.25
 49
-1.5
  0
LTYPE
  2
double-dashed_double-dotted
 70
   64
  3
-----   ---------   -   -   ----
 72
   65
 73
    8
 40
18.5
 49
6
 49
-1.5
 49
6
 49
-1.5
 49
0.25
 49
-1.5
 49
0.25
 49
-1.5
  0
LTYPE
  2
dashed_triplicate-dotted
 70
   64
  3
-------    -    -    -    ------
 72
   65
 73
    8
 40
12.75
 49
6
 49
-1.5
 49
0.25
 49
-1.5
 49
0.25
 49
-1.5
 49
0.25
 49
-1.5
  0
LTYPE
  2
double-dashed_triplicate-dotted
 70
   64
  3
-----  ---------  -  -  -  -----
 72
   65
 73
   10
 40
20.25
 49
6
 49
-1.5
 49
6
 49
-1.5
 49
0.25
 49
-1.5
 49
0.25
 49
-1.5
 49
0.25
 49
-1.5
  0
LTYPE
  2
undefined
 70
   64
  3
--------------------------------
 72
   65
 73
    0
 40
0
  0
LTYPE
  2
PLINE2
 70
   64
  3
------     -----------     -----
 72
   65
 73
    2
 40
3
 49
2.1000000000000001
 49
-0.9
  0
LTYPE
  2
PLINE3
 70
   64
  3
------------   ---   -----------
 72
   65
 73
    4
 40
10
 49
7
 49
-1
 49
1
 49
-1
  0
LTYPE
  2
PLINE4
 70
   64
  3
---------   ---   ---   --------
 72
   65
 73
    6
 40
10
 49
5
 49
-1
 49
1
 49
-1
 49
1
 49
-1
  0
LTYPE
  2
PLINE5
 70
   64
  3
------     -----------     -----
 72
   65
 73
    2
 40
5
 49
3.5
 49
-1.5
  0
LTYPE
  2
PLINE6
 70
   64
  3
------------   ---   -----------
 72
   65
 73
    4
 40
15
 49
10.5
 49
-1.5
 49
1.5
 49
-1.5
  0
LTYPE
  2
PLINE7
 70
   64
  3
---------   ---   ---   --------
 72
   65
 73
    6
 40
15
 49
7.5
 49
-1.5
 49
1.5
 49
-1.5
 49
1.5
 49
-1.5
  0
LTYPE
  2
PLINE8
 70
   64
  3
------     -----------     -----
 72
   65
 73
    2
 40
7
 49
4.9000000000000004
 49
-2.1000000000000001
  0
LTYPE
  2
PLINE9
 70
   64
  3
------------   ---   -----------
 72
   65
 73
    4
 40
20
 49
14
 49
-2
 49
2
 49
-2
  0
LTYPE
  2
PLINE10
 70
   64
  3
---------   ---   ---   --------
 72
   65
 73
    6
 40
20
 49
10
 49
-2
 49
2
 49
-2
 49
2
 49
-2
  0
LTYPE
  2
PLINE11
 70
   64
  3
------     -----------     -----
 72
   65
 73
    2
 40
8.9999999999999982
 49
6.299999999999998
 49
-2.7000000000000002
  0
LTYPE
  2
PLINE12
 70
   64
  3
------------   ---   -----------
 72
   65
 73
    4
 40
25
 49
17.5
 49
-2.5
 49
2.5
 49
-2.5
  0
LTYPE
  2
PLINE13
 70
   64
  3
---------   ---   ---   --------
 72
   65
 73
    6
 40
25
 49
12.5
 49
-2.5
 49
2.5
 49
-2.5
 49
2.5
 49
-2.5
  0
LTYPE
  2
PLINE14
 70
   64
  3
------     -----------     -----
 72
   65
 73
    2
 40
10.999999999999998
 49
7.7000000000000002
 49
-3.299999999999998
  0
LTYPE
  2
PLINE15
 70
   64
  3
------------   ---   -----------
 72
   65
 73
    4
 40
30
 49
21
 49
-3
 49
3
 49
-3
  0
LTYPE
  2
PLINE16
 70
   64
  3
---------   ---   ---   --------
 72
   65
 73
    6
 40
30
 49
15
 49
-3
 49
3
 49
-3
 49
3
 49
-3
  0
ENDTAB
  0
TABLE
  2
STYLE
  5
3
100
AcDbSymbolTable
 70
     1
  0
STYLE
  5
10
100
AcDbSymbolTableRecord
100
AcDbTextStyleTableRecord
  2
STANDARD
 70
     0
 40
0.0
 41
1.0
 50
0.0
 71
     0
 42
0.2
  3
txt
  4
bigfont.shx
  0
STYLE
  5
26
100
AcDbSymbolTableRecord
100
AcDbTextStyleTableRecord
  2
TATEGAKI
 70
    68
 40
0.0
 41
1.0
 50
0.0
 71
     0
 42
1.0
  3
txt
  4
bigfont.shx
  0
ENDTAB
  0
TABLE
  2
LAYER
 70
    5
  0
LAYER
  2
_0-2_寸法
 70
   64
 62
    7
  6
CONTINUOUS
  0
LAYER
  2
_0-3_躯体
 70
   64
 62
    7
  6
CONTINUOUS
  0
LAYER
  2
_0-4_笠木
 70
   64
 62
    7
  6
CONTINUOUS
  0
LAYER
  2
_0-5_受金具
 70
   64
 62
    7
  6
CONTINUOUS
  0
LAYER
  2
ADD_LINE
 70
   64
 62
    7
  6
CONTINUOUS
  0
ENDTAB
  0
ENDSEC
  0
SECTION
  2
BLOCKS
  0
BLOCK
  2
-000-_Dot
 70
   64
 10
0
 20
0
 30
0
  0
CIRCLE
  8
_0-0_0
  6
CONTINUOUS
 62
    7
 10
0
 20
0
 40
0.5
  0
LINE
  8
_0-0_0
  6
CONTINUOUS
 62
    7
 10
0.5
 20
0
 11
-0.5
 21
0
  0
LINE
  8
_0-0_0
  6
CONTINUOUS
 62
    7
 10
-1
 20
0
 11
-2
 21
0
  0
ENDBLK
  0
BLOCK
  2
-001-_D18
 70
   64
 10
0
 20
0
 30
0
  0
LINE
  8
_0-2_寸法
  6
CONTINUOUS
 62
    4
 10
-573.45479597790961
 20
-1746.5934539033606
 11
-573.45479597790961
 21
-1742.9655932966025
  0
LINE
  8
_0-2_寸法
  6
CONTINUOUS
 62
    4
 10
-623.45479597790961
 20
-1746.5934539033606
 11
-623.45479597790961
 21
-1742.9655932966025
  0
LINE
  8
_0-2_寸法
  6
CONTINUOUS
 62
    4
 10
-575.45479597790961
 20
-1742.9655932966025
 11
-621.45479597790961
 21
-1742.9655932966025
  0
INSERT
  2
-000-_Dot
  8
_0-2_寸法
 10
-573.45479597790961
 20
-1742.9655932966025
 41
1
 42
1
 50
0
  0
INSERT
  2
-000-_Dot
  8
_0-2_寸法
 10
-623.45479597790961
 20
-1742.9655932966025
 41
1
 42
1
 50
180
  0
TEXT
  8
_0-2_寸法
 62
    7
 10
-603.87979597790957
 20
-1740.9655932966025
 40
10
 41
1
 50
0
  1
25
  0
POINT
  8
_0-1_Defpoints
 62
    7
 10
-573.45479597790961
 20
-1746.5934539033606
  0
POINT
  8
_0-1_Defpoints
 62
    7
 10
-623.45479597790961
 20
-1746.5934539033606
  0
POINT
  8
_0-1_Defpoints
 62
    7
 10
-623.45479597790961
 20
-1742.9655932966025
  0
ENDBLK
  0
BLOCK
  2
-002-_D19
 70
   64
 10
0
 20
0
 30
0
  0
LINE
  8
_0-2_寸法
  6
CONTINUOUS
 62
    4
 10
-623.45479597790961
 20
-1746.5934539033606
 11
-623.45479597790961
 21
-1742.9655932966025
  0
LINE
  8
_0-2_寸法
  6
CONTINUOUS
 62
    4
 10
-723.45479597790961
 20
-1746.5934539033606
 11
-723.45479597790961
 21
-1742.9655932966025
  0
LINE
  8
_0-2_寸法
  6
CONTINUOUS
 62
    4
 10
-625.45479597790961
 20
-1742.9655932966025
 11
-721.45479597790961
 21
-1742.9655932966025
  0
INSERT
  2
-000-_Dot
  8
_0-2_寸法
 10
-623.45479597790961
 20
-1742.9655932966025
 41
1
 42
1
 50
0
  0
INSERT
  2
-000-_Dot
  8
_0-2_寸法
 10
-723.45479597790961
 20
-1742.9655932966025
 41
1
 42
1
 50
180
  0
TEXT
  8
_0-2_寸法
 62
    7
 10
-678.87979597790957
 20
-1740.9655932966025
 40
10
 41
1
 50
0
  1
50
  0
POINT
  8
_0-1_Defpoints
 62
    7
 10
-623.45479597790961
 20
-1746.5934539033606
  0
POINT
  8
_0-1_Defpoints
 62
    7
 10
-723.45479597790961
 20
-1746.5934539033606
  0
POINT
  8
_0-1_Defpoints
 62
    7
 10
-723.45479597790961
 20
-1742.9655932966025
  0
ENDBLK
  0
BLOCK
  2
-003-_D20
 70
   64
 10
0
 20
0
 30
0
  0
LINE
  8
_0-2_寸法
  6
CONTINUOUS
 62
    4
 10
-573.45479597790961
 20
-1746.5934539033606
 11
-573.45479597790961
 21
-1700.4855932966022
  0
LINE
  8
_0-2_寸法
  6
CONTINUOUS
 62
    4
 10
-586.25479597790979
 20
-1746.5934539033606
 11
-586.25479597790979
 21
-1700.4855932966022
  0
LINE
  8
_0-2_寸法
  6
CONTINUOUS
 62
    4
 10
-571.45479597790961
 20
-1700.4855932966022
 11
-569.45479597790961
 21
-1700.4855932966022
  0
LINE
  8
_0-2_寸法
  6
CONTINUOUS
 62
    4
 10
-588.25479597790945
 20
-1700.4855932966022
 11
-590.25479597790979
 21
-1700.4855932966022
  0
INSERT
  2
-000-_Dot
  8
_0-2_寸法
 10
-573.45479597790961
 20
-1700.4855932966022
 41
1
 42
1
 50
180
  0
INSERT
  2
-000-_Dot
  8
_0-2_寸法
 10
-586.25479597790979
 20
-1700.4855932966022
 41
1
 42
1
 50
0
  0
TEXT
  8
_0-2_寸法
 62
    7
 10
-588.20479597790984
 20
-1698.4855932966022
 40
10
 41
1
 50
0
  1
6.4
  0
POINT
  8
_0-1_Defpoints
 62
    7
 10
-573.45479597790961
 20
-1746.5934539033606
  0
POINT
  8
_0-1_Defpoints
 62
    7
 10
-586.25479597790979
 20
-1746.5934539033606
  0
POINT
  8
_0-1_Defpoints
 62
    7
 10
-586.25479597790979
 20
-1700.4855932966022
  0
ENDBLK
  0
BLOCK
  2
-004-_D21
 70
   64
 10
0
 20
0
 30
0
  0
LINE
  8
_0-2_寸法
  6
CONTINUOUS
 62
    4
 10
-586.25479597790979
 20
-1746.5934539033606
 11
-586.25479597790979
 21
-1700.4855932966022
  0
LINE
  8
_0-2_寸法
  6
CONTINUOUS
 62
    4
 10
-623.45479597790961
 20
-1746.5934539033606
 11
-623.45479597790961
 21
-1700.4855932966022
  0
LINE
  8
_0-2_寸法
  6
CONTINUOUS
 62
    4
 10
-588.25479597790945
 20
-1700.4855932966022
 11
-621.45479597790961
 21
-1700.4855932966022
  0
INSERT
  2
-000-_Dot
  8
_0-2_寸法
 10
-586.25479597790979
 20
-1700.4855932966022
 41
1
 42
1
 50
0
  0
INSERT
  2
-000-_Dot
  8
_0-2_寸法
 10
-623.45479597790961
 20
-1700.4855932966022
 41
1
 42
1
 50
180
  0
TEXT
  8
_0-2_寸法
 62
    7
 10
-616.12979597790979
 20
-1698.4855932966022
 40
10
 41
1
 50
0
  1
18.6
  0
POINT
  8
_0-1_Defpoints
 62
    7
 10
-586.25479597790979
 20
-1746.5934539033606
  0
POINT
  8
_0-1_Defpoints
 62
    7
 10
-623.45479597790961
 20
-1746.5934539033606
  0
POINT
  8
_0-1_Defpoints
 62
    7
 10
-623.45479597790961
 20
-1700.4855932966022
  0
ENDBLK
  0
BLOCK
  2
-005-_D22
 70
   64
 10
0
 20
0
 30
0
  0
LINE
  8
_0-2_寸法
  6
CONTINUOUS
 62
    4
 10
-623.45479597790961
 20
-1746.5934539033606
 11
-623.45479597790961
 21
-1700.4855932966022
  0
LINE
  8
_0-2_寸法
  6
CONTINUOUS
 62
    4
 10
-853.48279597790963
 20
-1746.5934539033606
 11
-853.48279597790963
 21
-1700.4855932966022
  0
LINE
  8
_0-2_寸法
  6
CONTINUOUS
 62
    4
 10
-625.45479597790961
 20
-1700.4855932966022
 11
-851.48279597790963
 21
-1700.4855932966022
  0
INSERT
  2
-000-_Dot
  8
_0-2_寸法
 10
-623.45479597790961
 20
-1700.4855932966022
 41
1
 42
1
 50
0
  0
INSERT
  2
-000-_Dot
  8
_0-2_寸法
 10
-853.48279597790963
 20
-1700.4855932966022
 41
1
 42
1
 50
180
  0
TEXT
  8
_0-2_寸法
 62
    7
 10
-746.81879597790964
 20
-1698.4855932966022
 40
10
 41
1
 50
0
  1
115
  0
POINT
  8
_0-1_Defpoints
 62
    7
 10
-623.45479597790961
 20
-1746.5934539033606
  0
POINT
  8
_0-1_Defpoints
 62
    7
 10
-853.48279597790963
 20
-1746.5934539033606
  0
POINT
  8
_0-1_Defpoints
 62
    7
 10
-853.48279597790963
 20
-1700.4855932966022
  0
ENDBLK
  0
BLOCK
  2
-006-_D23
 70
   64
 10
0
 20
0
 30
0
  0
LINE
  8
_0-2_寸法
  6
CONTINUOUS
 62
    4
 10
-877.71429369257555
 20
-1794.4435932966021
 11
-952.00679597790975
 21
-1794.4435932966021
  0
LINE
  8
_0-2_寸法
  6
CONTINUOUS
 62
    4
 10
-877.71429369257555
 20
-1814.3795932966018
 11
-952.00679597790975
 21
-1814.3795932966018
  0
LINE
  8
_0-2_寸法
  6
CONTINUOUS
 62
    4
 10
-952.00679597790975
 20
-1796.4435932966021
 11
-952.00679597790975
 21
-1812.3795932966025
  0
INSERT
  2
-000-_Dot
  8
_0-2_寸法
 10
-952.00679597790975
 20
-1794.4435932966021
 41
1
 42
1
 50
90
  0
INSERT
  2
-000-_Dot
  8
_0-2_寸法
 10
-952.00679597790975
 20
-1814.3795932966018
 41
1
 42
1
 50
270
  0
TEXT
  8
_0-2_寸法
 62
    7
 10
-954.00679597790941
 20
-1809.8365932966024
 40
10
 41
1
 50
90
  1
10
  0
POINT
  8
_0-1_Defpoints
 62
    7
 10
-877.71429369257555
 20
-1794.4435932966021
  0
POINT
  8
_0-1_Defpoints
 62
    7
 10
-877.71429369257555
 20
-1814.3795932966018
  0
POINT
  8
_0-1_Defpoints
 62
    7
 10
-952.00679597790975
 20
-1814.3795932966018
  0
ENDBLK
  0
BLOCK
  2
-007-_D24
 70
   64
 10
0
 20
0
 30
0
  0
LINE
  8
_0-2_寸法
  6
CONTINUOUS
 62
    4
 10
-877.71429369257555
 20
-1814.3795932966018
 11
-952.00679597790975
 21
-1814.3795932966018
  0
LINE
  8
_0-2_寸法
  6
CONTINUOUS
 62
    4
 10
-877.71429369257555
 20
-1834.7355932966016
 11
-952.00679597790975
 21
-1834.7355932966016
  0
LINE
  8
_0-2_寸法
  6
CONTINUOUS
 62
    4
 10
-952.00679597790975
 20
-1816.3795932966016
 11
-952.00679597790975
 21
-1832.7355932966018
  0
INSERT
  2
-000-_Dot
  8
_0-2_寸法
 10
-952.00679597790975
 20
-1814.3795932966018
 41
1
 42
1
 50
90
  0
INSERT
  2
-000-_Dot
  8
_0-2_寸法
 10
-952.00679597790975
 20
-1834.7355932966016
 41
1
 42
1
 50
270
  0
TEXT
  8
_0-2_寸法
 62
    7
 10
-954.00679597790941
 20
-1829.9825932966025
 40
10
 41
1
 50
90
  1
10
  0
POINT
  8
_0-1_Defpoints
 62
    7
 10
-877.71429369257555
 20
-1814.3795932966018
  0
POINT
  8
_0-1_Defpoints
 62
    7
 10
-877.71429369257555
 20
-1834.7355932966016
  0
POINT
  8
_0-1_Defpoints
 62
    7
 10
-952.00679597790975
 20
-1834.7355932966016
  0
ENDBLK
  0
BLOCK
  2
-008-_D25
 70
   64
 10
0
 20
0
 30
0
  0
LINE
  8
_0-2_寸法
  6
CONTINUOUS
 62
    4
 10
-877.71429369257555
 20
-1834.7355932966016
 11
-952.00679597790975
 21
-1834.7355932966016
  0
LINE
  8
_0-2_寸法
  6
CONTINUOUS
 62
    4
 10
-877.71429369257555
 20
-1954.4715932966024
 11
-952.00679597790975
 21
-1954.4715932966024
  0
LINE
  8
_0-2_寸法
  6
CONTINUOUS
 62
    4
 10
-952.00679597790975
 20
-1836.7355932966025
 11
-952.00679597790975
 21
-1952.4715932966024
  0
INSERT
  2
-000-_Dot
  8
_0-2_寸法
 10
-952.00679597790975
 20
-1834.7355932966016
 41
1
 42
1
 50
90
  0
INSERT
  2
-000-_Dot
  8
_0-2_寸法
 10
-952.00679597790975
 20
-1954.4715932966024
 41
1
 42
1
 50
270
  0
TEXT
  8
_0-2_寸法
 62
    7
 10
-954.00679597790941
 20
-1900.0285932966021
 40
10
 41
1
 50
90
  1
60
  0
POINT
  8
_0-1_Defpoints
 62
    7
 10
-877.71429369257555
 20
-1834.7355932966016
  0
POINT
  8
_0-1_Defpoints
 62
    7
 10
-877.71429369257555
 20
-1954.4715932966024
  0
POINT
  8
_0-1_Defpoints
 62
    7
 10
-952.00679597790975
 20
-1954.4715932966024
  0
ENDBLK
  0
BLOCK
  2
-009-_D26
 70
   64
 10
0
 20
0
 30
0
  0
LINE
  8
_0-2_寸法
  6
CONTINUOUS
 62
    4
 10
-877.71429369257555
 20
-1954.4715932966024
 11
-906.5947959779096
 21
-1954.4715932966024
  0
LINE
  8
_0-2_寸法
  6
CONTINUOUS
 62
    4
 10
-877.71429369257555
 20
-1863.0435932966027
 11
-906.5947959779096
 21
-1863.0435932966027
  0
LINE
  8
_0-2_寸法
  6
CONTINUOUS
 62
    4
 10
-906.5947959779096
 20
-1952.4715932966024
 11
-906.5947959779096
 21
-1865.0435932966027
  0
INSERT
  2
-000-_Dot
  8
_0-2_寸法
 10
-906.5947959779096
 20
-1954.4715932966024
 41
1
 42
1
 50
270
  0
INSERT
  2
-000-_Dot
  8
_0-2_寸法
 10
-906.5947959779096
 20
-1863.0435932966027
 41
1
 42
1
 50
90
  0
TEXT
  8
_0-2_寸法
 62
    7
 10
-908.59479597790914
 20
-1914.1825932966024
 40
10
 41
1
 50
90
  1
46
  0
POINT
  8
_0-1_Defpoints
 62
    7
 10
-877.71429369257555
 20
-1954.4715932966024
  0
POINT
  8
_0-1_Defpoints
 62
    7
 10
-877.71429369257555
 20
-1863.0435932966027
  0
POINT
  8
_0-1_Defpoints
 62
    7
 10
-906.5947959779096
 20
-1863.0435932966027
  0
ENDBLK
  0
BLOCK
  2
-010-_D27
 70
   64
 10
0
 20
0
 30
0
  0
LINE
  8
_0-2_寸法
  6
CONTINUOUS
 62
    4
 10
-852.48279597790963
 20
-1969.703149320525
 11
-852.48279597790963
 21
-1997.2455932966025
  0
LINE
  8
_0-2_寸法
  6
CONTINUOUS
 62
    4
 10
-821.49479597790958
 20
-1969.703149320525
 11
-821.49479597790958
 21
-1997.2455932966025
  0
LINE
  8
_0-2_寸法
  6
CONTINUOUS
 62
    4
 10
-854.48279597790963
 20
-1997.2455932966025
 11
-856.48279597790975
 21
-1997.2455932966025
  0
LINE
  8
_0-2_寸法
  6
CONTINUOUS
 62
    4
 10
-819.49479597790958
 20
-1997.2455932966025
 11
-817.49479597791003
 21
-1997.2455932966025
  0
INSERT
  2
-000-_Dot
  8
_0-2_寸法
 10
-852.48279597790963
 20
-1997.2455932966025
 41
1
 42
1
 50
0
  0
INSERT
  2
-000-_Dot
  8
_0-2_寸法
 10
-821.49479597790958
 20
-1997.2455932966025
 41
1
 42
1
 50
180
  0
TEXT
  8
_0-2_寸法
 62
    7
 10
-851.18879597790965
 20
-1995.2455932966025
 40
10
 41
1
 50
0
  1
15~20
  0
POINT
  8
_0-1_Defpoints
 62
    7
 10
-852.48279597790963
 20
-1969.703149320525
  0
POINT
  8
_0-1_Defpoints
 62
    7
 10
-821.49479597790958
 20
-1969.703149320525
  0
POINT
  8
_0-1_Defpoints
 62
    7
 10
-821.49479597790958
 20
-1997.2455932966025
  0
ENDBLK
  0
BLOCK
  2
-011-_D28
 70
   64
 10
0
 20
0
 30
0
  0
LINE
  8
_0-2_寸法
  6
CONTINUOUS
 62
    4
 10
-554.4829568205422
 20
-1762.4435932966021
 11
-536.01479597790956
 21
-1762.4435932966021
  0
LINE
  8
_0-2_寸法
  6
CONTINUOUS
 62
    4
 10
-554.4829568205422
 20
-1794.4435932966021
 11
-536.01479597790956
 21
-1794.4435932966021
  0
LINE
  8
_0-2_寸法
  6
CONTINUOUS
 62
    4
 10
-536.01479597790956
 20
-1764.4435932966021
 11
-536.01479597790956
 21
-1792.4435932966019
  0
INSERT
  2
-000-_Dot
  8
_0-2_寸法
 10
-536.01479597790956
 20
-1762.4435932966021
 41
1
 42
1
 50
90
  0
INSERT
  2
-000-_Dot
  8
_0-2_寸法
 10
-536.01479597790956
 20
-1794.4435932966021
 41
1
 42
1
 50
270
  0
TEXT
  8
_0-2_寸法
 62
    7
 10
-538.01479597790944
 20
-1783.8685932966025
 40
10
 41
1
 50
90
  1
16
  0
POINT
  8
_0-1_Defpoints
 62
    7
 10
-554.4829568205422
 20
-1762.4435932966021
  0
POINT
  8
_0-1_Defpoints
 62
    7
 10
-554.4829568205422
 20
-1794.4435932966021
  0
POINT
  8
_0-1_Defpoints
 62
    7
 10
-536.01479597790956
 20
-1794.4435932966021
  0
ENDBLK
  0
BLOCK
  2
-012-_D29
 70
   64
 10
0
 20
0
 30
0
  0
LINE
  8
_0-2_寸法
  6
CONTINUOUS
 62
    4
 10
-554.4829568205422
 20
-1794.4435932966021
 11
-536.01479597790956
 21
-1794.4435932966021
  0
LINE
  8
_0-2_寸法
  6
CONTINUOUS
 62
    4
 10
-554.4829568205422
 20
-1863.0435932966027
 11
-536.01479597790956
 21
-1863.0435932966027
  0
LINE
  8
_0-2_寸法
  6
CONTINUOUS
 62
    4
 10
-536.01479597790956
 20
-1796.4435932966021
 11
-536.01479597790956
 21
-1861.0435932966022
  0
INSERT
  2
-000-_Dot
  8
_0-2_寸法
 10
-536.01479597790956
 20
-1794.4435932966021
 41
1
 42
1
 50
90
  0
INSERT
  2
-000-_Dot
  8
_0-2_寸法
 10
-536.01479597790956
 20
-1863.0435932966027
 41
1
 42
1
 50
270
  0
TEXT
  8
_0-2_寸法
 62
    7
 10
-538.01479597790944
 20
-1834.1685932966025
 40
10
 41
1
 50
90
  1
34
  0
POINT
  8
_0-1_Defpoints
 62
    7
 10
-554.4829568205422
 20
-1794.4435932966021
  0
POINT
  8
_0-1_Defpoints
 62
    7
 10
-554.4829568205422
 20
-1863.0435932966027
  0
POINT
  8
_0-1_Defpoints
 62
    7
 10
-536.01479597790956
 20
-1863.0435932966027
  0
ENDBLK
  0
BLOCK
  2
-013-_D30
 70
   64
 10
0
 20
0
 30
0
  0
LINE
  8
_0-2_寸法
  6
CONTINUOUS
 62
    4
 10
-554.4829568205422
 20
-1863.0435932966027
 11
-499.35479597790959
 21
-1863.0435932966027
  0
LINE
  8
_0-2_寸法
  6
CONTINUOUS
 62
    4
 10
-554.4829568205422
 20
-1762.4435932966021
 11
-499.35479597790959
 21
-1762.4435932966026
  0
LINE
  8
_0-2_寸法
  6
CONTINUOUS
 62
    4
 10
-499.35479597790959
 20
-1861.0435932966022
 11
-499.35479597790959
 21
-1764.4435932966023
  0
INSERT
  2
-000-_Dot
  8
_0-2_寸法
 10
-499.35479597790959
 20
-1863.0435932966027
 41
1
 42
1
 50
270
  0
INSERT
  2
-000-_Dot
  8
_0-2_寸法
 10
-499.35479597790959
 20
-1762.4435932966026
 41
1
 42
1
 50
90
  0
TEXT
  8
_0-2_寸法
 62
    7
 10
-501.35479597790942
 20
-1818.1685932966025
 40
10
 41
1
 50
90
  1
50
  0
POINT
  8
_0-1_Defpoints
 62
    7
 10
-554.4829568205422
 20
-1863.0435932966027
  0
POINT
  8
_0-1_Defpoints
 62
    7
 10
-554.4829568205422
 20
-1762.4435932966021
  0
POINT
  8
_0-1_Defpoints
 62
    7
 10
-499.35479597790959
 20
-1762.4435932966026
  0
ENDBLK
  0
ENDSEC
  0
SECTION
  2
ENTITIES
  0
LINE
  8
_0-3_躯体
  6
CONTINUOUS
 62
    4
 10
163.82499999999987
 20
159.08049999999969
 11
286.84499999999986
 21
159.08049999999969
  0
LINE
  8
_0-4_笠木
  6
CONTINUOUS
 62
    4
 10
151.36399999999986
 20
172.66449999999975
 11
260.88799999999975
 21
182.67749999999978
  0
LINE
  8
_0-4_笠木
  6
CONTINUOUS
 62
    4
 10
148.70399999999995
 20
174.23450000000025
 11
260.07699999999988
 21
184.41250000000014
  0
LINE
  8
_0-3_躯体
  6
CONTINUOUS
 62
    4
 10
162.82499999999987
 20
160.08049999999969
 11
286.84499999999986
 21
160.08049999999969
  0
LINE
  8
_0-3_躯体
  6
CONTINUOUS
 62
    3
 10
163.82499999999987
 20
145.78849999999977
 11
251.60799999999978
 21
58.005499999999984
  0
LINE
  8
_0-3_躯体
  6
CONTINUOUS
 62
    3
 10
163.82499999999987
 20
143.66849999999977
 11
251.29499999999985
 21
56.38350000000014
  0
LINE
  8
_0-3_躯体
  6
CONTINUOUS
 62
    3
 10
163.82499999999987
 20
141.54049999999984
 11
251.54299999999984
 21
53.639499999999998
  0
LINE
  8
_0-5_受金具
  6
PLINE2
 62
    3
 10
208.80033699999984
 20
132.18641299999979
 11
208.69566499999985
 21
130.1891539999998
  0
LINE
  8
_0-5_受金具
  6
PLINE2
 62
    3
 10
206.85541399999988
 20
133.28971499999977
 11
208.80033699999984
 21
132.18641299999979
  0
LINE
  8
_0-5_受金具
  6
PLINE2
 62
    3
 10
208.95734499999986
 20
135.18230199999971
 11
206.96008599999988
 21
135.28697399999976
  0
LINE
  8
_0-5_受金具
  6
PLINE2
 62
    3
 10
207.11709399999984
 20
138.2828619999998
 11
209.06201699999986
 21
137.17956099999969
  0
LINE
  8
_0-5_受金具
  6
PLINE2
 62
    3
 10
209.21902499999987
 20
140.17544999999996
 11
207.22176499999983
 21
140.28012199999989
  0
LINE
  8
_0-5_受金具
  6
PLINE2
 62
    3
 10
207.37877299999985
 20
143.2760099999997
 11
209.32369599999987
 21
142.17270899999994
  0
LINE
  8
_0-5_受金具
  6
PLINE2
 62
    3
 10
208.22464099999985
 20
121.20148800000015
 11
209.72258599999986
 21
121.12298500000009
  0
LINE
  8
_0-5_受金具
  6
PLINE2
 62
    3
 10
209.82725799999986
 20
123.12024400000007
 11
206.33205399999986
 21
123.30341899999985
  0
LINE
  8
_0-5_受金具
  6
PLINE2
 62
    3
 10
209.48070399999989
 20
145.16859699999986
 11
207.48344499999985
 21
145.27326899999969
  0
LINE
  8
_0-5_受金具
  6
PLINE2
 62
    3
 10
206.84499999999986
 20
160.08049999999969
 11
211.84499999999986
 21
160.08049999999969
  0
LINE
  8
_0-5_受金具
  6
PLINE2
 62
    3
 10
207.84499999999986
 20
148.08050000000026
 11
209.58537599999988
 21
147.16585599999985
  0
ARC
  8
_0-5_受金具
  6
CONTINUOUS
 62
    4
 10
211.84499999999986
 20
163.0804999999998
 40
5.4000000000000004
 50
90
 51
128.85106200000371
  0
LINE
  8
_0-5_受金具
  6
CONTINUOUS
 62
    3
 10
199.34499999999986
 20
165.08050000000026
 11
224.34499999999986
 21
165.08050000000026
  0
LINE
  8
_0-5_受金具
  6
CONTINUOUS
 62
    4
 10
160.72097099999985
 20
160.08049999999969
 11
272.14499999999975
 21
160.08049999999969
  0
LINE
  8
_0-5_受金具
  6
CONTINUOUS
 62
    4
 10
176.34499999999986
 20
164.08050000000026
 11
211.34499999999986
 21
164.08050000000026
  0
LINE
  8
_0-4_笠木
  6
CONTINUOUS
 62
    4
 10
146.83099999999985
 20
114.86649999999975
 11
146.83099999999985
 21
172.36149999999975
  0
LINE
  8
_0-4_笠木
  6
CONTINUOUS
 62
    4
 10
148.63099999999986
 20
124.36649999999986
 11
148.63099999999986
 21
169.67649999999992
  0
LINE
  8
_0-3_躯体
  6
CONTINUOUS
 62
    4
 10
163.82499999999987
 20
47.653500000001031
 11
163.82499999999987
 21
159.08049999999969
  0
LINE
  8
_0-3_躯体
  6
CONTINUOUS
 62
    4
 10
162.82499999999987
 20
47.653500000001031
 11
162.82499999999987
 21
160.08049999999969
  0
LINE
  8
_0-5_受金具
  6
PLINE2
 62
    3
 10
207.22176499999983
 20
140.28012199999989
 11
207.11709399999984
 21
138.2828619999998
  0
LINE
  8
_0-5_受金具
  6
CONTINUOUS
 62
    4
 10
158.25716099999988
 20
158.00433799999996
 11
151.45075599999984
 21
124.56370200000026
  0
LINE
  8
_0-5_受金具
  6
CONTINUOUS
 62
    4
 10
155.04111599999987
 20
160.06108099999994
 11
148.84499999999986
 21
129.38148899999987
  0
LINE
  8
_0-4_笠木
  6
CONTINUOUS
 62
    4
 10
147.33099999999985
 20
114.36649999999986
 11
148.13099999999986
 21
114.36649999999986
  0
ARC
  8
_0-4_笠木
  6
CONTINUOUS
 62
    4
 10
147.33099999999985
 20
114.86649999999975
 40
0.5
 50
180
 51
270
  0
LINE
  8
_0-4_笠木
  6
CONTINUOUS
 62
    4
 10
148.63099999999986
 20
114.86649999999975
 11
148.63099999999986
 21
121.36649999999975
  0
ARC
  8
_0-4_笠木
  6
CONTINUOUS
 62
    4
 10
148.13099999999986
 20
114.86649999999975
 40
0.5
 50
270
 51
0
  0
LINE
  8
_0-5_受金具
  6
CONTINUOUS
 62
    4
 10
148.84499999999986
 20
124.91767399999969
 11
148.84499999999986
 21
129.38148899999987
  0
LINE
  8
_0-4_笠木
  6
CONTINUOUS
 62
    4
 10
152.62099999999987
 20
124.10949999999968
 11
152.62099999999987
 21
123.73949999999968
  0
ARC
  8
_0-4_笠木
  6
CONTINUOUS
 62
    4
 10
151.12099999999975
 20
123.73949999999968
 40
1.5
 50
287.78250100000048
 51
0.0000000000000508
  0
LINE
  8
_0-4_笠木
  6
CONTINUOUS
 62
    4
 10
151.57899999999984
 20
122.31150000000014
 11
148.63099999999986
 21
121.36649999999975
  0
LINE
  8
_0-4_笠木
  6
CONTINUOUS
 62
    4
 10
148.63099999999986
 20
124.36649999999986
 11
152.08599999999984
 21
124.60849999999994
  0
ARC
  8
_0-5_受金具
  6
CONTINUOUS
 62
    4
 10
149.34499999999974
 20
124.91767399999969
 40
0.5
 50
180
 51
273.99999999999977
  0
LINE
  8
_0-5_受金具
  6
CONTINUOUS
 62
    4
 10
149.37987899999985
 20
124.41889199999991
 11
151.45075599999984
 21
124.56370200000026
  0
ARC
  8
_0-4_笠木
  6
CONTINUOUS
 62
    4
 10
152.12099999999987
 20
124.10949999999968
 40
0.5
 50
0
 51
94.012169000001336
  0
LINE
  8
_0-5_受金具
  6
PLINE2
 62
    3
 10
206.69840599999986
 20
130.29382599999974
 11
206.59373399999987
 21
128.29656699999975
  0
LINE
  8
_0-5_受金具
  6
PLINE2
 62
    3
 10
206.43672599999985
 20
125.30067900000006
 11
206.33205399999986
 21
123.30341899999985
  0
LINE
  8
_0-5_受金具
  6
PLINE2
 62
    3
 10
206.33205399999986
 20
123.30341899999985
 11
208.22464099999985
 21
121.20148800000015
  0
LINE
  8
_0-5_受金具
  6
PLINE2
 62
    3
 10
208.43398499999984
 20
125.19600699999978
 11
206.43672599999985
 21
125.30067900000006
  0
LINE
  8
_0-5_受金具
  6
PLINE2
 62
    3
 10
208.53865699999989
 20
127.19326599999977
 11
208.43398499999984
 21
125.19600699999978
  0
LINE
  8
_0-5_受金具
  6
PLINE2
 62
    3
 10
206.59373399999987
 20
128.29656699999975
 11
208.53865699999989
 21
127.19326599999977
  0
LINE
  8
_0-5_受金具
  6
PLINE2
 62
    3
 10
206.96008599999988
 20
135.28697399999976
 11
206.85541399999988
 21
133.28971499999977
  0
LINE
  8
_0-5_受金具
  6
PLINE2
 62
    3
 10
208.69566499999985
 20
130.1891539999998
 11
206.69840599999986
 21
130.29382599999974
  0
LINE
  8
_0-4_笠木
  6
CONTINUOUS
 62
    4
 10
146.83099999999985
 20
172.36149999999975
 11
148.70399999999995
 21
174.23450000000025
  0
ARC
  8
_0-5_受金具
  6
CONTINUOUS
 62
    3
 10
173.84499999999986
 20
147.08050013602929
 40
27.440469867262092
 50
77.369943937898555
 51
102.6300560621014
  0
LINE
  8
_0-5_受金具
  6
CONTINUOUS
 62
    4
 10
176.34499999999986
 20
170.08049999999992
 11
179.84499999999986
 21
170.08049999999992
  0
ARC
  8
_0-5_受金具
  6
CONTINUOUS
 62
    4
 10
173.84499999999986
 20
147.0804999999998
 40
25
 50
76.113459999998241
 51
103.88654000000172
  0
LINE
  8
_0-5_受金具
  6
CONTINUOUS
 62
    3
 10
178.10887699999984
 20
171.71420399999988
 11
179.84499999999986
 21
173.45032699999979
  0
LINE
  8
_0-5_受金具
  6
CONTINUOUS
 62
    3
 10
179.59856799999989
 20
173.91100200000005
 11
177.49951399999986
 21
171.8119479999998
  0
LINE
  8
_0-5_受金具
  6
CONTINUOUS
 62
    3
 10
179.01079999999985
 20
174.03034099999968
 11
176.87648099999984
 21
171.89602199999979
  0
LINE
  8
_0-5_受金具
  6
CONTINUOUS
 62
    3
 10
178.41166099999987
 20
174.13830800000005
 11
176.23896699999989
 21
171.96561500000007
  0
ARC
  8
_0-5_受金具
  6
CONTINUOUS
 62
    4
 10
159.94401999999974
 20
159.08049999999969
 40
5
 50
90
 51
168.69006800000361
  0
ARC
  8
_0-5_受金具
  6
CONTINUOUS
 62
    4
 10
160.72097099999985
 20
157.58049999999992
 40
2.5
 50
90
 51
170.23919800000078
  0
LINE
  8
_0-5_受金具
  6
CONTINUOUS
 62
    4
 10
159.94401999999974
 20
164.08050000000026
 11
171.34499999999986
 21
164.08050000000026
  0
ARC
  8
_0-4_笠木
  6
CONTINUOUS
 62
    4
 10
151.63099999999986
 20
169.67649999999992
 40
3
 50
95.106238999999789
 51
180
  0
LINE
  8
_0-5_受金具
  6
CONTINUOUS
 62
    3
 10
167.84499999999986
 20
173.85697100000027
 11
167.84499999999986
 21
171.34982200000013
  0
LINE
  8
_0-5_受金具
  6
CONTINUOUS
 62
    3
 10
170.85136299999988
 20
174.35718499999984
 11
167.84499999999986
 21
171.34982200000013
  0
LINE
  8
_0-5_受金具
  6
CONTINUOUS
 62
    4
 10
167.84499999999986
 20
170.08049999999992
 11
171.34499999999986
 21
170.08049999999992
  0
LINE
  8
_0-5_受金具
  6
CONTINUOUS
 62
    4
 10
167.84499999999986
 20
171.34982200000013
 11
167.84499999999986
 21
170.08049999999992
  0
LINE
  8
_0-5_受金具
  6
CONTINUOUS
 62
    4
 10
172.34499999999986
 20
165.08050000000026
 11
172.34499999999986
 21
169.08049999999969
  0
LINE
  8
_0-5_受金具
  6
CONTINUOUS
 62
    4
 10
175.34499999999986
 20
165.08050000000026
 11
175.34499999999986
 21
169.08049999999969
  0
ARC
  8
_0-5_受金具
  6
CONTINUOUS
 62
    4
 10
171.34499999999986
 20
165.08050000000026
 40
1
 50
270
 51
0
  0
ARC
  8
_0-5_受金具
  6
CONTINUOUS
 62
    4
 10
176.34499999999986
 20
165.08050000000026
 40
1
 50
180
 51
270
  0
ARC
  8
_0-5_受金具
  6
CONTINUOUS
 62
    4
 10
171.34499999999986
 20
169.08049999999969
 40
1
 50
0
 51
90
  0
ARC
  8
_0-5_受金具
  6
CONTINUOUS
 62
    4
 10
176.34499999999986
 20
169.08049999999969
 40
1
 50
90
 51
180
  0
LINE
  8
_0-5_受金具
  6
CONTINUOUS
 62
    3
 10
173.12810199999979
 20
174.51160399999992
 11
170.46784499999984
 21
171.85134599999981
  0
LINE
  8
_0-5_受金具
  6
CONTINUOUS
 62
    3
 10
172.39185799999984
 20
174.48246700000016
 11
169.63241899999986
 21
171.72302799999977
  0
LINE
  8
_0-5_受金具
  6
CONTINUOUS
 62
    3
 10
171.63403799999975
 20
174.43175299999984
 11
168.76022499999988
 21
171.55793999999969
  0
LINE
  8
_0-5_受金具
  6
CONTINUOUS
 62
    3
 10
168.33491999999995
 20
173.96206299999994
 11
167.84499999999986
 21
173.47214300000007
  0
LINE
  8
_0-5_受金具
  6
CONTINUOUS
 62
    3
 10
169.20595699999984
 20
174.12599299999988
 11
167.84499999999986
 21
172.76503599999978
  0
LINE
  8
_0-5_受金具
  6
CONTINUOUS
 62
    3
 10
170.04343299999988
 20
174.25636199999985
 11
167.84499999999986
 21
172.05792900000017
  0
LINE
  8
_0-5_受金具
  6
CONTINUOUS
 62
    3
 10
176.54030999999986
 20
174.3882769999999
 11
174.22957399999984
 21
172.07754199999977
  0
LINE
  8
_0-5_受金具
  6
CONTINUOUS
 62
    3
 10
175.88961599999988
 20
174.44469099999992
 11
173.52335599999975
 21
172.07843099999991
  0
LINE
  8
_0-5_受金具
  6
CONTINUOUS
 62
    3
 10
175.22411099999988
 20
174.48629199999993
 11
172.79631399999988
 21
172.05849599999988
  0
LINE
  8
_0-5_受金具
  6
CONTINUOUS
 62
    3
 10
174.54280799999987
 20
174.5120959999997
 11
172.04643099999987
 21
172.01571900000022
  0
LINE
  8
_0-5_受金具
  6
CONTINUOUS
 62
    3
 10
173.84457499999985
 20
174.52097000000026
 11
171.27127099999979
 21
171.9476659999998
  0
LINE
  8
_0-5_受金具
  6
CONTINUOUS
 62
    3
 10
177.80061299999988
 20
174.23436699999979
 11
175.58604699999984
 21
172.0198019999998
  0
LINE
  8
_0-5_受金具
  6
CONTINUOUS
 62
    3
 10
177.17705499999988
 20
174.31791600000008
 11
174.91665999999987
 21
172.05752099999984
  0
LINE
  8
_0-5_受金具
  6
PLINE2
 62
    3
 10
207.84499999999986
 20
148.08050000000026
 11
207.84499999999986
 21
152.08049999999969
  0
LINE
  8
_0-5_受金具
  6
PLINE2
 62
    3
 10
206.88947099999984
 20
145.28012199999978
 11
205.97166999999985
 21
150.78692499999988
  0
LINE
  8
_0-5_受金具
  6
PLINE2
 62
    3
 10
205.87567699999988
 20
145.28012199999978
 11
204.98527599999989
 21
150.62252599999977
  0
LINE
  8
_0-5_受金具
  6
PLINE2
 62
    3
 10
207.48344499999985
 20
145.27326899999969
 11
207.37877299999985
 21
143.2760099999997
  0
LINE
  8
_0-5_受金具
  6
PLINE2
 62
    3
 10
207.37243299999989
 20
140.28012199999989
 11
205.87567699999988
 21
145.28012199999978
  0
LINE
  8
_0-5_受金具
  6
PLINE2
 62
    3
 10
208.43515199999985
 20
140.22442699999976
 11
206.88947099999984
 21
145.28012199999978
  0
LINE
  8
_0-5_受金具
  6
PLINE2
 62
    3
 10
206.84499999999986
 20
160.08049999999969
 11
207.84499999999986
 21
155.0804999999998
  0
LINE
  8
_0-5_受金具
  6
PLINE2
 62
    3
 10
207.84499999999986
 20
160.08049999999969
 11
207.84499999999986
 21
152.08049999999969
  0
ARC
  8
_0-5_受金具
  6
PLINE2
 62
    3
 10
205.47847299999984
 20
150.70472499999994
 40
0.5
 50
9.4623219999937476
 51
189.46232199999372
  0
LINE
  8
_0-5_受金具
  6
CONTINUOUS
 62
    3
 10
179.84499999999986
 20
173.85697100000027
 11
179.84499999999986
 21
171.34982200000013
  0
LINE
  8
_0-5_受金具
  6
CONTINUOUS
 62
    3
 10
179.28936399999986
 20
171.48047799999983
 11
179.84499999999986
 21
172.03611399999977
  0
LINE
  8
_0-5_受金具
  6
CONTINUOUS
 62
    4
 10
179.84499999999986
 20
170.08049999999992
 11
179.84499999999986
 21
171.34982200000013
  0
LINE
  8
_0-5_受金具
  6
CONTINUOUS
 62
    3
 10
178.70528199999984
 20
171.60350300000005
 11
179.84499999999986
 21
172.74322100000018
  0
LINE
  8
_0-5_受金具
  6
CONTINUOUS
 62
    3
 10
199.34499999999986
 20
164.08050000000026
 11
199.34499999999986
 21
165.08050000000026
  0
ARC
  8
_0-5_受金具
  6
CONTINUOUS
 62
    4
 10
210.34223799999984
 20
164.95179100000007
 40
3
 50
128.614637999998
 51
177.5410740000037
  0
ARC
  8
_0-3_躯体
  6
CONTINUOUS
 62
    4
 10
281.02699999999976
 20
137.15750000000014
 40
5.8200000000000003
 50
358.58218400000419
 51
105.1920780000014
  0
LINE
  8
_0-3_躯体
  6
CONTINUOUS
 62
    3
 10
229.73099999999988
 20
159.08049999999969
 11
258.28599999999977
 21
130.52550000000008
  0
LINE
  8
_0-3_躯体
  6
CONTINUOUS
 62
    3
 10
225.50899999999984
 20
159.05849999999975
 11
255.59599999999989
 21
128.97149999999976
  0
LINE
  8
_0-3_躯体
  6
CONTINUOUS
 62
    3
 10
227.61999999999989
 20
158.96449999999993
 11
256.93999999999988
 21
129.74750000000006
  0
LINE
  8
_0-3_躯体
  6
CONTINUOUS
 62
    4
 10
286.84499999999986
 20
160.38049999999976
 11
286.84499999999986
 21
137.01349999999968
  0
LINE
  8
_0-3_躯体
  6
CONTINUOUS
 62
    3
 10
285.83799999999985
 20
140.43250000000012
 11
257.60899999999987
 21
124.13449999999978
  0
LINE
  8
_0-3_躯体
  6
CONTINUOUS
 62
    3
 10
284.62499999999989
 20
141.73249999999985
 11
255.60899999999987
 21
124.97949999999992
  0
LINE
  8
_0-3_躯体
  6
CONTINUOUS
 62
    3
 10
282.82499999999987
 20
142.69249999999977
 11
253.60899999999975
 21
125.82550000000026
  0
LINE
  8
_0-3_躯体
  6
CONTINUOUS
 62
    4
 10
279.57999999999998
 20
142.81849999999974
 11
254.10799999999989
 21
128.11249999999995
  0
LINE
  8
_0-5_受金具
  6
PLINE2
 62
    3
 10
209.72258599999986
 20
121.12298500000009
 11
211.34499999999986
 21
152.08049999999969
  0
LINE
  8
_0-5_受金具
  6
PLINE2
 62
    3
 10
216.46823499999988
 20
140.28012199999989
 11
216.57290699999987
 21
138.2828619999998
  0
LINE
  8
_0-5_受金具
  6
PLINE2
 62
    3
 10
213.96741499999985
 20
121.12298500000009
 11
212.34499999999986
 21
152.08049999999969
  0
LINE
  8
_0-3_躯体
  6
CONTINUOUS
 62
    4
 10
251.60799999999978
 20
123.78249999999991
 11
251.60799999999978
 21
47.545500000001084
  0
LINE
  8
_0-3_躯体
  6
CONTINUOUS
 62
    3
 10
255.60899999999987
 20
124.97949999999992
 11
255.60899999999987
 21
47.655500000000984
  0
LINE
  8
_0-3_躯体
  6
CONTINUOUS
 62
    3
 10
253.60899999999975
 20
125.82550000000026
 11
253.60899999999975
 21
47.655500000000984
  0
LINE
  8
_0-2_寸法
  6
PLINE2
 62
    4
 10
286.84499999999986
 20
137.01349999999968
 11
286.84499999999986
 21
47.349500000000035
  0
LINE
  8
_0-3_躯体
  6
CONTINUOUS
 62
    4
 10
261.60799999999978
 20
122.44349999999986
 11
261.60799999999978
 21
47.653500000001031
  0
LINE
  8
_0-3_躯体
  6
CONTINUOUS
 62
    3
 10
259.59899999999976
 20
123.28349999999989
 11
259.59899999999976
 21
47.655500000000984
  0
LINE
  8
_0-3_躯体
  6
CONTINUOUS
 62
    3
 10
257.60899999999987
 20
124.13449999999978
 11
257.60899999999987
 21
47.655500000000984
  0
LINE
  8
_0-3_躯体
  6
CONTINUOUS
 62
    4
 10
261.60799999999978
 20
122.44349999999986
 11
286.84499999999986
 21
137.01349999999968
  0
LINE
  8
_0-3_躯体
  6
CONTINUOUS
 62
    3
 10
328.43099999999987
 20
128.87349999999992
 11
261.65899999999976
 21
62.101500000001124
  0
LINE
  8
_0-3_躯体
  6
CONTINUOUS
 62
    3
 10
328.43099999999987
 20
131.01849999999979
 11
261.61199999999985
 21
64.345500000000129
  0
LINE
  8
_0-3_躯体
  6
CONTINUOUS
 62
    3
 10
328.43099999999987
 20
133.11749999999984
 11
261.60799999999978
 21
66.294500000001108
  0
LINE
  8
_0-3_躯体
  6
CONTINUOUS
 62
    3
 10
286.59099999999984
 20
138.86649999999975
 11
259.59899999999976
 21
123.28349999999989
  0
LINE
  8
_0-5_受金具
  6
PLINE2
 62
    3
 10
216.99159499999985
 20
130.29382599999974
 11
217.09626699999984
 21
128.29656699999975
  0
LINE
  8
_0-5_受金具
  6
PLINE2
 62
    3
 10
215.25601499999988
 20
125.19600699999978
 11
217.25327499999986
 21
125.30067900000006
  0
LINE
  8
_0-5_受金具
  6
PLINE2
 62
    3
 10
217.09626699999984
 20
128.29656699999975
 11
215.15134399999988
 21
127.19326599999977
  0
LINE
  8
_0-5_受金具
  6
PLINE2
 62
    3
 10
217.35794599999986
 20
123.30341899999985
 11
215.46535899999986
 21
121.20148800000015
  0
LINE
  8
_0-5_受金具
  6
PLINE2
 62
    3
 10
213.86274299999985
 20
123.12024400000007
 11
217.35794599999986
 21
123.30341899999985
  0
LINE
  8
_0-5_受金具
  6
PLINE2
 62
    3
 10
215.46535899999986
 20
121.20148800000015
 11
213.96741499999985
 21
121.12298500000009
  0
LINE
  8
_0-5_受金具
  6
PLINE2
 62
    3
 10
211.78569399999986
 20
124.13980600000014
 11
213.71939599999985
 21
125.85547700000018
  0
LINE
  8
_0-5_受金具
  6
PLINE2
 62
    3
 10
209.97555599999987
 20
125.94994500000018
 11
211.84499999999986
 21
124.08050000000014
  0
LINE
  8
_0-5_受金具
  6
PLINE2
 62
    3
 10
215.15134399999988
 20
127.19326599999977
 11
215.25601499999988
 21
125.19600699999978
  0
LINE
  8
_0-5_受金具
  6
PLINE2
 62
    3
 10
217.25327499999986
 20
125.30067900000006
 11
217.35794599999986
 21
123.30341899999985
  0
LINE
  8
_0-5_受金具
  6
PLINE2
 62
    3
 10
214.99433599999986
 20
130.1891539999998
 11
216.99159499999985
 21
130.29382599999974
  0
LINE
  8
_0-5_受金具
  6
PLINE2
 62
    3
 10
216.83458699999989
 20
133.28971499999977
 11
214.88966399999987
 21
132.18641299999979
  0
LINE
  8
_0-5_受金具
  6
PLINE2
 62
    3
 10
214.73265599999985
 20
135.18230199999971
 11
216.72991499999983
 21
135.28697399999976
  0
LINE
  8
_0-5_受金具
  6
PLINE2
 62
    3
 10
216.57290699999987
 20
138.2828619999998
 11
214.62798399999986
 21
137.17956099999969
  0
LINE
  8
_0-5_受金具
  6
PLINE2
 62
    3
 10
214.88966399999987
 20
132.18641299999979
 11
214.99433599999986
 21
130.1891539999998
  0
LINE
  8
_0-5_受金具
  6
PLINE2
 62
    3
 10
209.06201699999986
 20
137.17956099999969
 11
208.95734499999986
 21
135.18230199999971
  0
LINE
  8
_0-5_受金具
  6
PLINE2
 62
    3
 10
214.62798399999986
 20
137.17956099999969
 11
214.73265599999985
 21
135.18230199999971
  0
LINE
  8
_0-5_受金具
  6
PLINE2
 62
    3
 10
216.72991499999983
 20
135.28697399999976
 11
216.83458699999989
 21
133.28971499999977
  0
ARC
  8
_0-3_躯体
  6
CONTINUOUS
 62
    4
 10
256.60799999999989
 20
123.78249999999991
 40
5
 50
120.00072500000302
 51
180
  0
LINE
  8
_0-3_躯体
  6
CONTINUOUS
 62
    4
 10
261.84499999999986
 20
210.38049999999998
 11
261.84499999999986
 21
249.43250000000012
  0
LINE
  8
_0-3_躯体
  6
CONTINUOUS
 62
    3
 10
261.84499999999986
 20
218.49650000000008
 11
292.99899999999985
 21
249.65050000000008
  0
LINE
  8
_0-3_躯体
  6
CONTINUOUS
 62
    3
 10
261.84499999999986
 20
222.74050000000011
 11
288.36499999999984
 21
249.26049999999998
  0
LINE
  8
_0-3_躯体
  6
CONTINUOUS
 62
    3
 10
261.84499999999986
 20
220.61849999999993
 11
290.87699999999984
 21
249.65050000000008
  0
LINE
  8
_0-5_受金具
  6
CONTINUOUS
 62
    4
 10
261.84499999999986
 20
194.38049999999998
 11
280.44499999999977
 21
194.38049999999998
  0
LINE
  8
_0-4_笠木
  6
CONTINUOUS
 62
    4
 10
261.84499999999986
 20
194.38049999999998
 11
280.44499999999977
 21
194.38049999999998
  0
LINE
  8
_0-3_躯体
  6
CONTINUOUS
 62
    4
 10
286.84499999999986
 20
210.38049999999998
 11
261.84499999999986
 21
210.38049999999998
  0
LINE
  8
_0-5_受金具
  6
CONTINUOUS
 62
    3
 10
263.96799999999985
 20
203.87449999999978
 11
270.47399999999976
 21
210.38049999999998
  0
LINE
  8
_0-5_受金具
  6
CONTINUOUS
 62
    3
 10
263.99399999999986
 20
201.0714999999999
 11
273.30299999999988
 21
210.38049999999998
  0
LINE
  8
_0-5_受金具
  6
CONTINUOUS
 62
    3
 10
263.09799999999984
 20
197.34749999999974
 11
274.80099999999987
 21
209.05050000000006
  0
LINE
  8
_0-5_受金具
  6
CONTINUOUS
 62
    3
 10
262.95899999999989
 20
194.38049999999998
 11
274.80099999999987
 21
206.22249999999985
  0
LINE
  8
_0-5_受金具
  6
CONTINUOUS
 62
    3
 10
265.78799999999984
 20
194.38049999999998
 11
274.80099999999987
 21
203.3934999999999
  0
LINE
  8
_0-5_受金具
  6
CONTINUOUS
 62
    3
 10
268.61699599999986
 20
194.38049999999998
 11
274.80099999999987
 21
200.56554699999992
  0
LINE
  8
_0-5_受金具
  6
CONTINUOUS
 62
    3
 10
270.06899999999985
 20
194.38049999999998
 11
263.88799999999975
 21
200.5614999999998
  0
LINE
  8
_0-5_受金具
  6
CONTINUOUS
 62
    3
 10
272.89699999999993
 20
194.38049999999998
 11
264.03999999999985
 21
203.23750000000018
  0
LINE
  8
_0-5_受金具
  6
CONTINUOUS
 62
    3
 10
274.80099999999987
 20
195.30445199999974
 11
263.37799999999987
 21
206.72850000000005
  0
LINE
  8
_0-5_受金具
  6
CONTINUOUS
 62
    3
 10
274.80099999999987
 20
198.13349999999991
 11
262.55399999999986
 21
210.38049999999998
  0
LINE
  8
_0-5_受金具
  6
CONTINUOUS
 62
    3
 10
274.80099999999987
 20
200.96144899999979
 11
265.38304399999976
 21
210.38049999999998
  0
LINE
  8
_0-5_受金具
  6
CONTINUOUS
 62
    3
 10
274.80099999999987
 20
203.79049999999984
 11
268.21099999999984
 21
210.38049999999998
  0
LINE
  8
_0-4_笠木
  6
CONTINUOUS
 62
    4
 10
263.64499999999975
 20
192.5804999999998
 11
274.64499999999975
 21
192.5804999999998
  0
LINE
  8
_0-5_受金具
  6
CONTINUOUS
 62
    4
 10
271.03650499999975
 20
192.08049999999992
 11
269.14499999999975
 21
192.08049999999992
  0
LINE
  8
_0-5_受金具
  6
CONTINUOUS
 62
    4
 10
269.14499999999975
 20
166.08050000000014
 11
269.14499999999975
 21
192.08049999999992
  0
LINE
  8
_0-5_受金具
  6
CONTINUOUS
 62
    4
 10
267.14499999999975
 20
164.08050000000026
 11
212.34499999999986
 21
164.08050000000026
  0
LINE
  8
_0-5_受金具
  6
PLINE2
 62
    3
 10
214.38199999999983
 20
164.85849999999994
 11
214.38199999999983
 21
160.08049999999969
  0
LINE
  8
_0-5_受金具
  6
PLINE2
 62
    3
 10
213.38199999999983
 20
164.85849999999994
 11
213.38199999999983
 21
160.08049999999969
  0
LINE
  8
_0-5_受金具
  6
PLINE2
 62
    3
 10
210.38199999999983
 20
164.85849999999994
 11
210.38199999999983
 21
160.08049999999969
  0
LINE
  8
_0-5_受金具
  6
PLINE2
 62
    3
 10
209.38199999999983
 20
164.85849999999994
 11
209.38199999999983
 21
160.08049999999969
  0
LINE
  8
_0-5_受金具
  6
PLINE2
 62
    3
 10
215.84499999999986
 20
148.08050000000026
 11
215.84499999999986
 21
152.08049999999969
  0
LINE
  8
_0-5_受金具
  6
PLINE2
 62
    3
 10
217.96499099999988
 20
145.28012199999978
 11
218.85539099999988
 21
150.62252599999977
  0
LINE
  8
_0-5_受金具
  6
PLINE2
 62
    3
 10
216.95119699999987
 20
145.28012199999978
 11
217.86899699999987
 21
150.78692499999988
  0
ARC
  8
_0-5_受金具
  6
PLINE2
 62
    3
 10
218.36219399999987
 20
150.70472499999994
 40
0.5
 50
350.53767800000611
 51
170.53767800000611
  0
LINE
  8
_0-5_受金具
  6
PLINE2
 62
    3
 10
215.40551599999986
 20
140.22442699999976
 11
216.95119699999987
 21
145.28012199999978
  0
LINE
  8
_0-5_受金具
  6
PLINE2
 62
    3
 10
214.47097599999984
 20
140.17544999999996
 11
216.46823499999988
 21
140.28012199999989
  0
LINE
  8
_0-5_受金具
  6
PLINE2
 62
    3
 10
216.20655499999987
 20
145.27326899999969
 11
216.31122699999986
 21
143.2760099999997
  0
LINE
  8
_0-5_受金具
  6
PLINE2
 62
    3
 10
209.32369599999987
 20
142.17270899999994
 11
209.21902499999987
 21
140.17544999999996
  0
LINE
  8
_0-5_受金具
  6
PLINE2
 62
    3
 10
214.36630399999984
 20
142.17270899999994
 11
214.47097599999984
 21
140.17544999999996
  0
LINE
  8
_0-5_受金具
  6
PLINE2
 62
    3
 10
216.31122699999986
 20
143.2760099999997
 11
214.36630399999984
 21
142.17270899999994
  0
LINE
  8
_0-5_受金具
  6
PLINE2
 62
    3
 10
209.58537599999988
 20
147.16585599999985
 11
209.48070399999989
 21
145.16859699999986
  0
LINE
  8
_0-5_受金具
  6
PLINE2
 62
    3
 10
215.84499999999986
 20
148.08050000000026
 11
214.10462399999989
 21
147.16585599999985
  0
LINE
  8
_0-5_受金具
  6
PLINE2
 62
    3
 10
214.20929599999988
 20
145.16859699999986
 11
216.20655499999987
 21
145.27326899999969
  0
LINE
  8
_0-5_受金具
  6
PLINE2
 62
    3
 10
214.10462399999989
 20
147.16585599999985
 11
214.20929599999988
 21
145.16859699999986
  0
LINE
  8
_0-5_受金具
  6
PLINE2
 62
    3
 10
216.46823499999988
 20
140.28012199999989
 11
217.96499099999988
 21
145.28012199999978
  0
LINE
  8
_0-5_受金具
  6
PLINE2
 62
    3
 10
216.84499999999986
 20
160.08049999999969
 11
211.84499999999986
 21
160.08049999999969
  0
LINE
  8
_0-5_受金具
  6
PLINE2
 62
    3
 10
216.84499999999986
 20
160.08049999999969
 11
215.84499999999986
 21
155.0804999999998
  0
LINE
  8
_0-5_受金具
  6
PLINE2
 62
    3
 10
215.84499999999986
 20
160.08049999999969
 11
215.84499999999986
 21
152.08049999999969
  0
LINE
  8
_0-5_受金具
  6
PLINE2
 62
    3
 10
211.84499999999986
 20
155.0804999999998
 11
211.84499999999986
 21
160.08049999999969
  0
LINE
  8
_0-5_受金具
  6
PLINE2
 62
    3
 10
212.84499999999986
 20
160.08049999999969
 11
211.84499999999986
 21
155.0804999999998
  0
LINE
  8
_0-5_受金具
  6
PLINE2
 62
    3
 10
210.84499999999986
 20
160.08049999999969
 11
211.84499999999986
 21
155.0804999999998
  0
LINE
  8
_0-5_受金具
  6
PLINE2
 62
    3
 10
212.34499999999986
 20
152.08049999999969
 11
211.84499999999986
 21
152.08049999999969
  0
LINE
  8
_0-5_受金具
  6
PLINE2
 62
    3
 10
211.34499999999986
 20
152.08049999999969
 11
211.84499999999986
 21
152.08049999999969
  0
ARC
  8
_0-5_受金具
  6
CONTINUOUS
 62
    4
 10
213.34776299999987
 20
164.95179100000007
 40
3
 50
2.4589259999962838
 51
51.385362000001891
  0
LINE
  8
_0-5_受金具
  6
CONTINUOUS
 62
    4
 10
211.84499999999986
 20
163.58049999999969
 11
211.34499999999986
 21
164.08050000000026
  0
LINE
  8
_0-5_受金具
  6
CONTINUOUS
 62
    4
 10
211.84499999999986
 20
163.58049999999969
 11
212.34499999999986
 21
164.08050000000026
  0
ARC
  8
_0-5_受金具
  6
CONTINUOUS
 62
    4
 10
211.84499999999986
 20
163.0804999999998
 40
5.4000000000000004
 50
51.317813000001671
 51
90
  0
LINE
  8
_0-5_受金具
  6
CONTINUOUS
 62
    3
 10
224.34499999999986
 20
165.08050000000026
 11
224.34499999999986
 21
164.08050000000026
  0
ARC
  8
_0-5_受金具
  6
CONTINUOUS
 62
    4
 10
267.14499999999975
 20
166.08050000000014
 40
2
 50
270
 51
0
  0
ARC
  8
_0-5_受金具
  6
CONTINUOUS
 62
    4
 10
247.04240222152208
 20
202.38050002266095
 40
16.825842139694242
 50
331.61118765552061
 51
28.388804344476767
  0
LINE
  8
_0-4_笠木
  6
CONTINUOUS
 62
    4
 10
261.84499999999986
 20
186.18050000000005
 11
261.84499999999986
 21
194.38049999999998
  0
LINE
  8
_0-4_笠木
  6
CONTINUOUS
 62
    4
 10
260.88799999999975
 20
182.67749999999978
 11
263.64499999999975
 21
185.43449999999984
  0
LINE
  8
_0-4_笠木
  6
CONTINUOUS
 62
    4
 10
260.07699999999988
 20
184.41250000000014
 11
261.84499999999986
 21
186.18050000000005
  0
LINE
  8
_0-4_笠木
  6
CONTINUOUS
 62
    4
 10
263.64499999999975
 20
185.43449999999984
 11
263.64499999999975
 21
192.5804999999998
  0
LINE
  8
_0-5_受金具
  6
CONTINUOUS
 62
    3
 10
267.23999999999978
 20
194.38049999999998
 11
263.50899999999984
 21
198.11150000000009
  0
LINE
  8
_0-5_受金具
  6
CONTINUOUS
 62
    3
 10
264.41199999999975
 20
194.38049999999998
 11
262.71699999999976
 21
196.07549999999992
  0
LINE
  8
_0-5_受金具
  6
CONTINUOUS
 62
    3
 10
262.74199999999985
 20
208.30450000000008
 11
264.81799999999976
 21
210.38049999999998
  0
LINE
  8
_0-5_受金具
  6
CONTINUOUS
 62
    3
 10
263.56499999999977
 20
206.29950000000008
 11
267.64599999999984
 21
210.38049999999998
  0
LINE
  8
_0-3_躯体
  6
CONTINUOUS
 62
    3
 10
286.84499999999986
 20
169.41950000000008
 11
328.43099999999987
 21
211.08449999999993
  0
LINE
  8
_0-3_躯体
  6
CONTINUOUS
 62
    3
 10
286.84499999999986
 20
167.30549999999982
 11
328.43099999999987
 21
208.94449999999972
  0
LINE
  8
_0-3_躯体
  6
CONTINUOUS
 62
    3
 10
286.84499999999986
 20
165.45449999999983
 11
328.43099999999987
 21
207.03449999999998
  0
LINE
  8
_0-3_躯体
  6
CONTINUOUS
 62
    4
 10
286.84499999999986
 20
160.38049999999976
 11
286.84499999999986
 21
210.38049999999998
  0
LINE
  8
_0-5_受金具
  6
CONTINUOUS
 62
    4
 10
272.14499999999975
 20
160.08049999999969
 11
272.14499999999975
 21
188.0804999999998
  0
LINE
  8
_0-5_受金具
  6
CONTINUOUS
 62
    3
 10
286.84499999999986
 20
210.38049999999998
 11
274.80099999999987
 21
194.38049999999998
  0
LINE
  8
_0-5_受金具
  6
CONTINUOUS
 62
    4
 10
274.80099999999987
 20
194.38049999999998
 11
274.80099999999987
 21
210.38049999999998
  0
LINE
  8
_0-5_受金具
  6
CONTINUOUS
 62
    4
 10
280.44499999999977
 20
194.38049999999998
 11
286.84499999999986
 21
194.38049999999998
  0
LINE
  8
_0-4_笠木
  6
CONTINUOUS
 62
    4
 10
280.44499999999977
 20
194.38049999999998
 11
280.44499999999977
 21
192.5804999999998
  0
LINE
  8
_0-4_笠木
  6
CONTINUOUS
 62
    4
 10
276.44499999999977
 20
192.5804999999998
 11
280.44499999999977
 21
192.5804999999998
  0
LINE
  8
_0-4_笠木
  6
CONTINUOUS
 62
    4
 10
276.44499999999977
 20
192.5804999999998
 11
276.44499999999977
 21
184.5804999999998
  0
LINE
  8
_0-4_笠木
  6
CONTINUOUS
 62
    4
 10
272.64499999999975
 20
187.5804999999998
 11
272.64499999999975
 21
186.58050000000014
  0
LINE
  8
_0-4_笠木
  6
CONTINUOUS
 62
    4
 10
272.64499999999975
 20
186.58050000000014
 11
274.64499999999975
 21
184.5804999999998
  0
LINE
  8
_0-4_笠木
  6
CONTINUOUS
 62
    4
 10
276.44499999999977
 20
184.5804999999998
 11
274.64499999999975
 21
184.5804999999998
  0
LINE
  8
_0-4_笠木
  6
CONTINUOUS
 62
    4
 10
272.64499999999975
 20
187.5804999999998
 11
274.64499999999975
 21
187.5804999999998
  0
LINE
  8
_0-5_受金具
  6
CONTINUOUS
 62
    4
 10
272.73250199999984
 20
191.14049799999998
 11
274.45374999999984
 21
188.38649999999984
  0
LINE
  8
_0-5_受金具
  6
CONTINUOUS
 62
    4
 10
272.14499999999975
 20
188.0804999999998
 11
274.28415099999984
 21
188.0804999999998
  0
ARC
  8
_0-5_受金具
  6
CONTINUOUS
 62
    4
 10
271.03650499999975
 20
190.08050000000026
 40
2
 50
32.005382999998169
 51
90
  0
LINE
  8
_0-4_笠木
  6
CONTINUOUS
 62
    4
 10
274.64499999999975
 20
189.08050000000026
 11
274.64499999999975
 21
187.5804999999998
  0
LINE
  8
_0-4_笠木
  6
CONTINUOUS
 62
    4
 10
274.64499999999975
 20
192.5804999999998
 11
274.64499999999975
 21
187.5804999999998
  0
ARC
  8
_0-5_受金具
  6
CONTINUOUS
 62
    4
 10
274.28415099999984
 20
188.28049999999996
 40
0.2
 50
270
 51
32.005382999998176
  0
LINE
  8
_0-5_受金具
  6
CONTINUOUS
 62
    3
 10
271.44499999999988
 20
194.38049999999998
 11
274.80099999999987
 21
197.73650000000009
  0
LINE
  8
_0-5_受金具
  6
CONTINUOUS
 62
    3
 10
274.34699999999975
 20
194.45449999999994
 11
274.80099999999987
 21
194.90849999999989
  0
LINE
  8
_0-5_受金具
  6
CONTINUOUS
 62
    3
 10
274.80099999999987
 20
206.61838099999989
 11
271.04012299999977
 21
210.38049999999998
  0
LINE
  8
_0-5_受金具
  6
CONTINUOUS
 62
    3
 10
274.80099999999987
 20
209.4475000000001
 11
273.86799999999977
 21
210.38049999999998
  0
INSERT
  2
-001-_D18
  8
_0-2_寸法
 10
573.57239798895466
 20
1091.602296648301
 41
0.5
 42
0.5
 50
0
  0
INSERT
  2
-002-_D19
  8
_0-2_寸法
 10
573.57239798895466
 20
1091.602296648301
 41
0.5
 42
0.5
 50
0
  0
INSERT
  2
-003-_D20
  8
_0-2_寸法
 10
573.57239798895466
 20
1091.602296648301
 41
0.5
 42
0.5
 50
0
  0
INSERT
  2
-004-_D21
  8
_0-2_寸法
 10
573.57239798895466
 20
1091.602296648301
 41
0.5
 42
0.5
 50
0
  0
INSERT
  2
-005-_D22
  8
_0-2_寸法
 10
573.57239798895466
 20
1091.602296648301
 41
0.5
 42
0.5
 50
0
  0
INSERT
  2
-006-_D23
  8
_0-2_寸法
 10
573.57239798895466
 20
1091.602296648301
 41
0.5
 42
0.5
 50
0
  0
INSERT
  2
-007-_D24
  8
_0-2_寸法
 10
573.57239798895466
 20
1091.602296648301
 41
0.5
 42
0.5
 50
0
  0
INSERT
  2
-008-_D25
  8
_0-2_寸法
 10
573.57239798895466
 20
1091.602296648301
 41
0.5
 42
0.5
 50
0
  0
INSERT
  2
-009-_D26
  8
_0-2_寸法
 10
573.57239798895466
 20
1091.602296648301
 41
0.5
 42
0.5
 50
0
  0
INSERT
  2
-010-_D27
  8
_0-2_寸法
 10
573.57239798895466
 20
1091.602296648301
 41
0.5
 42
0.5
 50
0
  0
INSERT
  2
-011-_D28
  8
_0-2_寸法
 10
573.57239798895466
 20
1091.602296648301
 41
0.5
 42
0.5
 50
0
  0
INSERT
  2
-012-_D29
  8
_0-2_寸法
 10
573.57239798895466
 20
1091.602296648301
 41
0.5
 42
0.5
 50
0
  0
INSERT
  2
-013-_D30
  8
_0-2_寸法
 10
573.57239798895466
 20
1091.602296648301
 41
0.5
 42
0.5
 50
0
  0
LINE
  8
_0-2_寸法
  6
CONTINUOUS
 62
    3
 10
211.84499999999986
 20
220.11949999999979
 11
211.84499999999986
 21
108.57949999999994
  0
LINE
  8
_0-5_受金具
  6
CONTINUOUS
 62
    4
 10
261.84479371561679
 20
210.38038563218458
 11
274.80099999999987
 21
210.38038563218458
  0
ENDSEC
  0
EOF
